  0
SECTION
  2
HEADER
  9
$ACADVER
  1
AC1018
  9
$ACADMAINTVER
 70
     0
  9
$DWGCODEPAGE
  3
ANSI_932
  9
$INSBASE
 10
0.0
 20
0.0
 30
0.0
  9
$EXTMIN
 10
-630.0
 20
-445.5
 30
0.0
  9
$EXTMAX
 10
630.0
 20
445.5
 30
0.0
  9
$LIMMIN
 10
-630.0
 20
-445.5
  9
$LIMMAX
 10
630.0
 20
445.5
  9
$ORTHOMODE
 70
     0
  9
$REGENMODE
 70
     1
  9
$FILLMODE
 70
     1
  9
$QTEXTMODE
 70
     0
  9
$MIRRTEXT
 70
     1
  9
$LTSCALE
 40
3.0
  9
$ATTMODE
 70
     1
  9
$TEXTSIZE
 40
2.5
  9
$TRACEWID
 40
1.0
  9
$TEXTSTYLE
  7
Standard
  9
$CLAYER
  8
0
  9
$CELTYPE
  6
ByLayer
  9
$CECOLOR
 62
   256
  9
$CELTSCALE
 40
1.0
  9
$DISPSILH
 70
     0
  9
$DIMSCALE
 40
1.0
  9
$DIMASZ
 40
2.5
  9
$DIMEXO
 40
0.625
  9
$DIMDLI
 40
3.75
  9
$DIMRND
 40
0.0
  9
$DIMDLE
 40
0.0
  9
$DIMEXE
 40
1.25
  9
$DIMTP
 40
0.0
  9
$DIMTM
 40
0.0
  9
$DIMTXT
 40
2.5
  9
$DIMCEN
 40
2.5
  9
$DIMTSZ
 40
0.0
  9
$DIMTOL
 70
     0
  9
$DIMLIM
 70
     0
  9
$DIMTIH
 70
     0
  9
$DIMTOH
 70
     0
  9
$DIMSE1
 70
     0
  9
$DIMSE2
 70
     0
  9
$DIMTAD
 70
     1
  9
$DIMZIN
 70
     8
  9
$DIMBLK
  1

  9
$DIMASO
 70
     1
  9
$DIMSHO
 70
     1
  9
$DIMPOST
  1

  9
$DIMAPOST
  1

  9
$DIMALT
 70
     0
  9
$DIMALTD
 70
     3
  9
$DIMALTF
 40
0.03937007874016
  9
$DIMLFAC
 40
1.0
  9
$DIMTOFL
 70
     1
  9
$DIMTVP
 40
0.0
  9
$DIMTIX
 70
     0
  9
$DIMSOXD
 70
     0
  9
$DIMSAH
 70
     0
  9
$DIMBLK1
  1

  9
$DIMBLK2
  1

  9
$DIMSTYLE
  2
ISO-25
  9
$DIMCLRD
 70
     0
  9
$DIMCLRE
 70
     0
  9
$DIMCLRT
 70
     0
  9
$DIMTFAC
 40
1.0
  9
$DIMGAP
 40
0.625
  9
$DIMJUST
 70
     0
  9
$DIMSD1
 70
     0
  9
$DIMSD2
 70
     0
  9
$DIMTOLJ
 70
     0
  9
$DIMTZIN
 70
     8
  9
$DIMALTZ
 70
     0
  9
$DIMALTTZ
 70
     0
  9
$DIMUPT
 70
     0
  9
$DIMDEC
 70
     2
  9
$DIMTDEC
 70
     2
  9
$DIMALTU
 70
     2
  9
$DIMALTTD
 70
     3
  9
$DIMTXSTY
  7
Standard
  9
$DIMAUNIT
 70
     0
  9
$DIMADEC
 70
     0
  9
$DIMALTRND
 40
0.0
  9
$DIMAZIN
 70
     0
  9
$DIMDSEP
 70
    44
  9
$DIMATFIT
 70
     3
  9
$DIMFRAC
 70
     0
  9
$DIMLDRBLK
  1

  9
$DIMLUNIT
 70
     2
  9
$DIMLWD
 70
    -2
  9
$DIMLWE
 70
    -2
  9
$DIMTMOVE
 70
     0
  9
$LUNITS
 70
     2
  9
$LUPREC
 70
     4
  9
$SKETCHINC
 40
1.0
  9
$FILLETRAD
 40
10.0
  9
$AUNITS
 70
     0
  9
$AUPREC
 70
     0
  9
$MENU
  1
.
  9
$ELEVATION
 40
0.0
  9
$PELEVATION
 40
0.0
  9
$THICKNESS
 40
0.0
  9
$LIMCHECK
 70
     0
  9
$CHAMFERA
 40
0.0
  9
$CHAMFERB
 40
0.0
  9
$CHAMFERC
 40
0.0
  9
$CHAMFERD
 40
0.0
  9
$SKPOLY
 70
     0
  9
$TDCREATE
 40
2461033.387519815
  9
$TDUCREATE
 40
2461033.012519815
  9
$TDUPDATE
 40
2461033.387534456
  9
$TDUUPDATE
 40
2461033.012534456
  9
$TDINDWG
 40
0.0000000116
  9
$TDUSRTIMER
 40
0.0000000116
  9
$USRTIMER
 70
     1
  9
$ANGBASE
 50
0.0
  9
$ANGDIR
 70
     0
  9
$PDMODE
 70
     0
  9
$PDSIZE
 40
0.0
  9
$PLINEWID
 40
0.0
  9
$SPLFRAME
 70
     0
  9
$SPLINETYPE
 70
     6
  9
$SPLINESEGS
 70
     8
  9
$HANDSEED
  5
3D8
  9
$SURFTAB1
 70
     6
  9
$SURFTAB2
 70
     6
  9
$SURFTYPE
 70
     6
  9
$SURFU
 70
     6
  9
$SURFV
 70
     6
  9
$UCSBASE
  2

  9
$UCSNAME
  2

  9
$UCSORG
 10
0.0
 20
0.0
 30
0.0
  9
$UCSXDIR
 10
1.0
 20
0.0
 30
0.0
  9
$UCSYDIR
 10
0.0
 20
1.0
 30
0.0
  9
$UCSORTHOREF
  2

  9
$UCSORTHOVIEW
 70
     0
  9
$UCSORGTOP
 10
0.0
 20
0.0
 30
0.0
  9
$UCSORGBOTTOM
 10
0.0
 20
0.0
 30
0.0
  9
$UCSORGLEFT
 10
0.0
 20
0.0
 30
0.0
  9
$UCSORGRIGHT
 10
0.0
 20
0.0
 30
0.0
  9
$UCSORGFRONT
 10
0.0
 20
0.0
 30
0.0
  9
$UCSORGBACK
 10
0.0
 20
0.0
 30
0.0
  9
$PUCSBASE
  2

  9
$PUCSNAME
  2

  9
$PUCSORG
 10
0.0
 20
0.0
 30
0.0
  9
$PUCSXDIR
 10
1.0
 20
0.0
 30
0.0
  9
$PUCSYDIR
 10
0.0
 20
1.0
 30
0.0
  9
$PUCSORTHOREF
  2

  9
$PUCSORTHOVIEW
 70
     0
  9
$PUCSORGTOP
 10
0.0
 20
0.0
 30
0.0
  9
$PUCSORGBOTTOM
 10
0.0
 20
0.0
 30
0.0
  9
$PUCSORGLEFT
 10
0.0
 20
0.0
 30
0.0
  9
$PUCSORGRIGHT
 10
0.0
 20
0.0
 30
0.0
  9
$PUCSORGFRONT
 10
0.0
 20
0.0
 30
0.0
  9
$PUCSORGBACK
 10
0.0
 20
0.0
 30
0.0
  9
$USERI1
 70
     0
  9
$USERI2
 70
     0
  9
$USERI3
 70
     0
  9
$USERI4
 70
     0
  9
$USERI5
 70
     0
  9
$USERR1
 40
0.0
  9
$USERR2
 40
0.0
  9
$USERR3
 40
0.0
  9
$USERR4
 40
0.0
  9
$USERR5
 40
0.0
  9
$WORLDVIEW
 70
     1
  9
$SHADEDGE
 70
     3
  9
$SHADEDIF
 70
    70
  9
$TILEMODE
 70
     1
  9
$MAXACTVP
 70
    64
  9
$PINSBASE
 10
0.0
 20
0.0
 30
0.0
  9
$PLIMCHECK
 70
     0
  9
$PEXTMIN
 10
1.000000000000000E+20
 20
1.000000000000000E+20
 30
1.000000000000000E+20
  9
$PEXTMAX
 10
-1.000000000000000E+20
 20
-1.000000000000000E+20
 30
-1.000000000000000E+20
  9
$PLIMMIN
 10
0.0
 20
0.0
  9
$PLIMMAX
 10
420.0
 20
297.0
  9
$UNITMODE
 70
     0
  9
$VISRETAIN
 70
     1
  9
$PLINEGEN
 70
     0
  9
$PSLTSCALE
 70
     1
  9
$TREEDEPTH
 70
  3020
  9
$CMLSTYLE
  2
Standard
  9
$CMLJUST
 70
     0
  9
$CMLSCALE
 40
20.0
  9
$PROXYGRAPHICS
 70
     1
  9
$MEASUREMENT
 70
     1
  9
$CELWEIGHT
370
    -1
  9
$ENDCAPS
280
     0
  9
$JOINSTYLE
280
     0
  9
$LWDISPLAY
290
     0
  9
$INSUNITS
 70
     4
  9
$HYPERLINKBASE
  1

  9
$STYLESHEET
  1

  9
$XEDIT
290
     1
  9
$CEPSNTYPE
380
     0
  9
$PSTYLEMODE
290
     1
  9
$FINGERPRINTGUID
  2
{68B8A37E-B709-42CE-A9C3-50E696DB4C5F}
  9
$VERSIONGUID
  2
{FAEB1C32-E019-11D5-929B-00C0DF256EC4}
  9
$EXTNAMES
290
     1
  9
$PSVPSCALE
 40
0.0
  9
$OLESTARTUP
290
     0
  9
$SORTENTS
280
   127
  9
$INDEXCTL
280
     0
  9
$HIDETEXT
280
     1
  9
$XCLIPFRAME
290
     0
  9
$HALOGAP
280
     0
  9
$OBSCOLOR
 70
   257
  9
$OBSLTYPE
280
     0
  9
$INTERSECTIONDISPLAY
280
     0
  9
$INTERSECTIONCOLOR
 70
   257
  9
$DIMASSOC
280
     2
  9
$PROJECTNAME
  1

  0
ENDSEC
  0
SECTION
  2
CLASSES
  0
CLASS
  1
ACDBDICTIONARYWDFLT
  2
AcDbDictionaryWithDefault
  3
ObjectDBX Classes
 90
        0
 91
        4
280
     0
281
     0
  0
CLASS
  1
VISUALSTYLE
  2
AcDbVisualStyle
  3
ObjectDBX Classes
 90
     4095
 91
        4
280
     0
281
     0
  0
CLASS
  1
MATERIAL
  2
AcDbMaterial
  3
ObjectDBX Classes
 90
     1153
 91
        4
280
     0
281
     0
  0
CLASS
  1
SCALE
  2
AcDbScale
  3
ObjectDBX Classes
 90
     1153
 91
        4
280
     0
281
     0
  0
CLASS
  1
TABLESTYLE
  2
AcDbTableStyle
  3
ObjectDBX Classes
 90
     4095
 91
        4
280
     0
281
     0
  0
CLASS
  1
MLEADERSTYLE
  2
AcDbMLeaderStyle
  3
ACDB_MLEADERSTYLE_CLASS
 90
     4095
 91
        4
280
     0
281
     0
  0
CLASS
  1
SUN
  2
AcDbSun
  3
SCENEOE
 90
     1153
 91
        4
280
     0
281
     0
  0
CLASS
  1
DICTIONARYVAR
  2
AcDbDictionaryVar
  3
ObjectDBX Classes
 90
        0
 91
        4
280
     0
281
     0
  0
CLASS
  1
CELLSTYLEMAP
  2
AcDbCellStyleMap
  3
ObjectDBX Classes
 90
     1152
 91
        4
280
     0
281
     0
  0
ENDSEC
  0
SECTION
  2
TABLES
  0
TABLE
  2
VPORT
  5
8
102
{ACAD_XDICTIONARY
360
38F
102
}
330
0
100
AcDbSymbolTable
 70
     1
  0
VPORT
  5
29
330
8
100
AcDbSymbolTableRecord
100
AcDbViewportTableRecord
  2
*Active
 70
     0
 10
0.0
 20
0.0
 11
1.0
 21
1.0
 12
0.0
 22
0.0
 13
0.0
 23
0.0
 14
10.0
 24
10.0
 15
10.0
 25
10.0
 16
0.0
 26
0.0
 36
1.0
 17
0.0
 27
0.0
 37
0.0
 40
980.1
 41
1.414141414141414
 42
50.0
 43
0.0
 44
0.0
 50
0.0
 51
0.0
 71
     0
 72
 10000
 73
     1
 74
     3
 75
     0
 76
     0
 77
     0
 78
     0
281
     0
 65
     1
110
0.0
120
0.0
130
0.0
111
1.0
121
0.0
131
0.0
112
0.0
122
1.0
132
0.0
 79
     0
146
0.0
  0
ENDTAB
  0
TABLE
  2
LTYPE
  5
5
330
0
100
AcDbSymbolTable
 70
     4
  0
LTYPE
  5
14
330
5
100
AcDbSymbolTableRecord
100
AcDbLinetypeTableRecord
  2
ByBlock
 70
     0
  3

 72
    65
 73
     0
 40
0.0
  0
LTYPE
  5
15
330
5
100
AcDbSymbolTableRecord
100
AcDbLinetypeTableRecord
  2
ByLayer
 70
     0
  3

 72
    65
 73
     0
 40
0.0
  0
LTYPE
  5
16
330
5
100
AcDbSymbolTableRecord
100
AcDbLinetypeTableRecord
  2
Continuous
 70
     0
  3
Solid line
 72
    65
 73
     0
 40
0.0
  0
LTYPE
  5
6F
330
5
100
AcDbSymbolTableRecord
100
AcDbLinetypeTableRecord
  2
JWW_CENTER1
 70
     0
  3
-----  --  ----------  --  -----
 72
    65
 73
     4
 40
6.773333333333333
 49
4.233333333333333
 74
     0
 49
-0.8466666666666667
 74
     0
 49
0.8466666666666667
 74
     0
 49
-0.8466666666666667
 74
     0
  0
LTYPE
  5
70
330
5
100
AcDbSymbolTableRecord
100
AcDbLinetypeTableRecord
  2
JWW_DASHED1
 70
     0
  3
-  --  --  --  --  --  --  --  -
 72
    65
 73
     2
 40
1.693333333333333
 49
0.8466666666666667
 74
     0
 49
-0.8466666666666667
 74
     0
  0
LTYPE
  5
71
330
5
100
AcDbSymbolTableRecord
100
AcDbLinetypeTableRecord
  2
JWW_PHANTOM1
 70
     0
  3
----  -  -  --------  -  -  ----
 72
    65
 73
     6
 40
6.773333333333333
 49
3.386666666666667
 74
     0
 49
-0.8466666666666667
 74
     0
 49
0.4233333333333333
 74
     0
 49
-0.8466666666666667
 74
     0
 49
0.4233333333333333
 74
     0
 49
-0.8466666666666667
 74
     0
  0
ENDTAB
  0
TABLE
  2
LAYER
  5
2
330
0
100
AcDbSymbolTable
 70
    12
  0
LAYER
  5
10
330
2
100
AcDbSymbolTableRecord
100
AcDbLayerTableRecord
  2
0
 70
     0
 62
     7
  6
Continuous
370
    -3
390
F
  0
LAYER
  5
72
330
2
100
AcDbSymbolTableRecord
100
AcDbLayerTableRecord
  2
0-0_通り芯
 70
     0
 62
     7
  6
Continuous
370
    -3
390
F
  0
LAYER
  5
73
330
2
100
AcDbSymbolTableRecord
100
AcDbLayerTableRecord
  2
0-A
 70
     0
 62
     7
  6
Continuous
370
    -3
390
F
  0
LAYER
  5
74
330
2
100
AcDbSymbolTableRecord
100
AcDbLayerTableRecord
  2
0-1_ピット
 70
     0
 62
     7
  6
Continuous
370
    -3
390
F
  0
LAYER
  5
75
330
2
100
AcDbSymbolTableRecord
100
AcDbLayerTableRecord
  2
0-2_本体（蓋）
 70
     0
 62
     7
  6
Continuous
370
    -3
390
F
  0
LAYER
  5
76
330
2
100
AcDbSymbolTableRecord
100
AcDbLayerTableRecord
  2
0-6
 70
     0
 62
     7
  6
Continuous
370
    -3
390
F
  0
LAYER
  5
77
330
2
100
AcDbSymbolTableRecord
100
AcDbLayerTableRecord
  2
0-3_受枠
 70
     0
 62
     7
  6
Continuous
370
    -3
390
F
  0
LAYER
  5
78
330
2
100
AcDbSymbolTableRecord
100
AcDbLayerTableRecord
  2
0-4_寸法
 70
     0
 62
     7
  6
Continuous
370
    -3
390
F
  0
LAYER
  5
79
330
2
100
AcDbSymbolTableRecord
100
AcDbLayerTableRecord
  2
0-5_文字
 70
     0
 62
     7
  6
Continuous
370
    -3
390
F
  0
LAYER
  5
7A
330
2
100
AcDbSymbolTableRecord
100
AcDbLayerTableRecord
  2
F-4ﾚｲﾔ
 70
     0
 62
     7
  6
Continuous
370
    -3
390
F
  0
LAYER
  5
7B
330
2
100
AcDbSymbolTableRecord
100
AcDbLayerTableRecord
  2
F-5ﾚｲﾔ
 70
     0
 62
     7
  6
Continuous
370
    -3
390
F
  0
LAYER
  5
7C
330
2
100
AcDbSymbolTableRecord
100
AcDbLayerTableRecord
  2
F-0ﾚｲﾔ
 70
     0
 62
     7
  6
Continuous
370
    -3
390
F
  0
ENDTAB
  0
TABLE
  2
STYLE
  5
3
330
0
100
AcDbSymbolTable
 70
     2
  0
STYLE
  5
11
330
3
100
AcDbSymbolTableRecord
100
AcDbTextStyleTableRecord
  2
Standard
 70
     0
 40
0.0
 41
1.0
 50
0.0
 71
     0
 42
2.5
  3
txt
  4

  0
STYLE
  5
6E
330
3
100
AcDbSymbolTableRecord
100
AcDbTextStyleTableRecord
  2
ＭＳ ゴシック
 70
     0
 40
1.0
 41
1.0
 50
0.0
 71
     0
 42
2.5
  3

  4

1001
ACAD
1000
MS Gothic
1071
    32817
  0
ENDTAB
  0
TABLE
  2
VIEW
  5
6
330
0
100
AcDbSymbolTable
 70
     0
  0
ENDTAB
  0
TABLE
  2
UCS
  5
7
330
0
100
AcDbSymbolTable
 70
     0
  0
ENDTAB
  0
TABLE
  2
APPID
  5
9
330
0
100
AcDbSymbolTable
 70
     2
  0
APPID
  5
12
330
9
100
AcDbSymbolTableRecord
100
AcDbRegAppTableRecord
  2
ACAD
 70
     0
  0
APPID
  5
3CE
330
9
100
AcDbSymbolTableRecord
100
AcDbRegAppTableRecord
  2
ACAD_MLEADERVER
 70
     0
  0
ENDTAB
  0
TABLE
  2
DIMSTYLE
  5
A
330
0
100
AcDbSymbolTable
 70
     1
100
AcDbDimStyleTable
  0
DIMSTYLE
105
27
330
A
100
AcDbSymbolTableRecord
100
AcDbDimStyleTableRecord
  2
ISO-25
 70
     0
 41
2.5
 42
0.625
 43
3.75
 44
1.25
 73
     0
 74
     0
 77
     1
 78
     8
140
2.5
141
2.5
143
0.03937007874016
147
0.625
171
     3
172
     1
178
     0
271
     2
272
     2
274
     3
278
    44
283
     0
284
     8
340
11
  0
ENDTAB
  0
TABLE
  2
BLOCK_RECORD
  5
1
330
0
100
AcDbSymbolTable
 70
     1
  0
BLOCK_RECORD
  5
1F
330
1
100
AcDbSymbolTableRecord
100
AcDbBlockTableRecord
  2
*Model_Space
340
22
  0
BLOCK_RECORD
  5
1B
330
1
100
AcDbSymbolTableRecord
100
AcDbBlockTableRecord
  2
*Paper_Space
340
1E
  0
BLOCK_RECORD
  5
23
330
1
100
AcDbSymbolTableRecord
100
AcDbBlockTableRecord
  2
*Paper_Space0
340
26
  0
ENDTAB
  0
ENDSEC
  0
SECTION
  2
BLOCKS
  0
BLOCK
  5
20
330
1F
100
AcDbEntity
  8
0
100
AcDbBlockBegin
  2
*Model_Space
 70
     0
 10
0.0
 20
0.0
 30
0.0
  3
*Model_Space
  1

  0
ENDBLK
  5
21
330
1F
100
AcDbEntity
  8
0
100
AcDbBlockEnd
  0
BLOCK
  5
1C
330
1B
100
AcDbEntity
 67
     1
  8
0
100
AcDbBlockBegin
  2
*Paper_Space
 70
     0
 10
0.0
 20
0.0
 30
0.0
  3
*Paper_Space
  1

  0
ENDBLK
  5
1D
330
1B
100
AcDbEntity
 67
     1
  8
0
100
AcDbBlockEnd
  0
BLOCK
  5
24
330
23
100
AcDbEntity
  8
0
100
AcDbBlockBegin
  2
*Paper_Space0
 70
     0
 10
0.0
 20
0.0
 30
0.0
  3
*Paper_Space0
  1

  0
ENDBLK
  5
25
330
23
100
AcDbEntity
  8
0
100
AcDbBlockEnd
  0
ENDSEC
  0
SECTION
  2
ENTITIES
  0
ARC
  5
7D
330
1F
100
AcDbEntity
  8
0-0_通り芯
  6
Continuous
 62
     3
370
     9
100
AcDbCircle
 10
-42.28669749822856
 20
275.6634621788814
 30
0.0
 40
111.5000023565697
100
AcDbArc
 50
0.0001525878906262
 51
179.9999999999999
  0
LINE
  5
7E
330
1F
100
AcDbEntity
  8
0-0_通り芯
  6
JWW_CENTER1
 62
     3
370
     9
100
AcDbLine
 10
-163.0743189558329
 20
275.6634621788814
 30
0.0
 11
80.02992814841419
 21
275.6634621788814
 31
0.0
  0
LINE
  5
7F
330
1F
100
AcDbEntity
  8
0-A
  6
JWW_CENTER1
 62
     4
370
     9
100
AcDbLine
 10
33.71330049868717
 20
275.6634621788814
 30
0.0
 11
33.71330049868718
 21
282.170706215346
 31
0.0
  0
LINE
  5
80
330
1F
100
AcDbEntity
  8
0-1_ピット
  6
Continuous
 62
     2
370
     9
100
AcDbLine
 10
36.28543745497942
 20
302.4108169293489
 30
0.0
 11
39.18939757616366
 21
303.1888971073925
 31
0.0
  0
LINE
  5
81
330
1F
100
AcDbEntity
  8
0-1_ピット
  6
Continuous
 62
     2
370
     9
100
AcDbLine
 10
35.30610068325373
 20
300.5955531443586
 30
0.0
 11
40.6247549829566
 21
302.0206220033264
 31
0.0
  0
LINE
  5
82
330
1F
100
AcDbEntity
  8
0-1_ピット
  6
Continuous
 62
     2
370
     9
100
AcDbLine
 10
20.16331800800035
 20
330.3352655391613
 30
0.0
 11
22.2890929659591
 21
332.4610579946504
 31
0.0
  0
LINE
  5
83
330
1F
100
AcDbEntity
  8
0-1_ピット
  6
Continuous
 62
     2
370
     9
100
AcDbLine
 10
18.10151402087283
 20
330.394757142232
 30
0.0
 11
21.99495948136544
 21
334.2882375977853
 31
0.0
  0
LINE
  5
84
330
1F
100
AcDbEntity
  8
0-1_ピット
  6
Continuous
 62
     2
370
     9
100
AcDbLine
 10
35.30610068325373
 20
300.5955531443586
 30
0.0
 11
36.28543745497942
 21
302.4108169293489
 31
0.0
  0
LINE
  5
85
330
1F
100
AcDbEntity
  8
0-1_ピット
  6
Continuous
 62
     2
370
     9
100
AcDbLine
 10
40.6247549829566
 20
302.0206220033264
 30
0.0
 11
39.18939757616366
 21
303.1888971073925
 31
0.0
  0
LINE
  5
86
330
1F
100
AcDbEntity
  8
0-1_ピット
  6
Continuous
 62
     2
370
     9
100
AcDbLine
 10
22.2890929659591
 20
332.4610579946504
 30
0.0
 11
21.99495948136544
 21
334.2882375977853
 31
0.0
  0
LINE
  5
87
330
1F
100
AcDbEntity
  8
0-1_ピット
  6
Continuous
 62
     2
370
     9
100
AcDbLine
 10
20.16331800800035
 20
330.3352655391613
 30
0.0
 11
18.10151402087283
 21
330.394757142232
 31
0.0
  0
LINE
  5
88
330
1F
100
AcDbEntity
  8
0-1_ピット
  6
Continuous
 62
     2
370
     9
100
AcDbLine
 10
12.38514085711202
 20
338.1134076949891
 30
0.0
 11
14.51091581507078
 21
340.2392876381298
 31
0.0
  0
LINE
  5
89
330
1F
100
AcDbEntity
  8
0-1_ピット
  6
Continuous
 62
     2
370
     9
100
AcDbLine
 10
12.44459746512209
 20
336.0517086930435
 30
0.0
 11
16.33814791079655
 21
339.9451891485967
 31
0.0
  0
LINE
  5
8A
330
1F
100
AcDbEntity
  8
0-1_ピット
  6
Continuous
 62
     2
370
     9
100
AcDbLine
 10
-15.53929025517007
 20
354.2355971320893
 30
0.0
 11
-14.7611925795962
 21
357.1395922483342
 31
0.0
  0
LINE
  5
8B
330
1F
100
AcDbEntity
  8
0-1_ピット
  6
Continuous
 62
     2
370
     9
100
AcDbLine
 10
-17.35464152781199
 20
353.2562603603636
 30
0.0
 11
-15.92953767378357
 21
358.5748096748846
 31
0.0
  0
LINE
  5
8C
330
1F
100
AcDbEntity
  8
0-1_ピット
  6
Continuous
 62
     2
370
     9
100
AcDbLine
 10
12.44459746512209
 20
336.0517086930435
 30
0.0
 11
12.38514085711202
 21
338.1134076949891
 31
0.0
  0
LINE
  5
8D
330
1F
100
AcDbEntity
  8
0-1_ピット
  6
Continuous
 62
     2
370
     9
100
AcDbLine
 10
16.33814791079655
 20
339.9451891485967
 30
0.0
 11
14.51091581507078
 21
340.2392876381298
 31
0.0
  0
LINE
  5
8E
330
1F
100
AcDbEntity
  8
0-1_ピット
  6
Continuous
 62
     2
370
     9
100
AcDbLine
 10
-14.7611925795962
 20
357.1395922483342
 30
0.0
 11
-15.92953767378357
 21
358.5748096748846
 31
0.0
  0
LINE
  5
8F
330
1F
100
AcDbEntity
  8
0-1_ピット
  6
Continuous
 62
     2
370
     9
100
AcDbLine
 10
-15.53929025517007
 20
354.2355971320893
 30
0.0
 11
-17.35464152781199
 21
353.2562603603636
 31
0.0
  0
LINE
  5
90
330
1F
100
AcDbEntity
  8
0-1_ピット
  6
Continuous
 62
     2
370
     9
100
AcDbLine
 10
-26.16449056359792
 20
357.0826202896289
 30
0.0
 11
-25.38639288802406
 21
359.9865104206918
 31
0.0
  0
LINE
  5
91
330
1F
100
AcDbEntity
  8
0-1_ピット
  6
Continuous
 62
     2
370
     9
100
AcDbLine
 10
-25.08204084572642
 20
355.3268481077092
 30
0.0
 11
-23.65693699169801
 21
360.6454674123515
 31
0.0
  0
LINE
  5
92
330
1F
100
AcDbEntity
  8
0-1_ピット
  6
Continuous
 62
     2
370
     9
100
AcDbLine
 10
-58.40883444273793
 20
357.0826202896289
 30
0.0
 11
-59.18693211831179
 21
359.9865104206918
 31
0.0
  0
LINE
  5
93
330
1F
100
AcDbEntity
  8
0-1_ピット
  6
Continuous
 62
     2
370
     9
100
AcDbLine
 10
-59.4912841606094
 20
355.3268481077092
 30
0.0
 11
-60.9163880146378
 21
360.6453974222302
 31
0.0
  0
LINE
  5
94
330
1F
100
AcDbEntity
  8
0-1_ピット
  6
Continuous
 62
     2
370
     9
100
AcDbLine
 10
-25.08204084572642
 20
355.3268481077092
 30
0.0
 11
-26.16449056359792
 21
357.0826202896289
 31
0.0
  0
LINE
  5
95
330
1F
100
AcDbEntity
  8
0-1_ピット
  6
Continuous
 62
     2
370
     9
100
AcDbLine
 10
-23.65693699169801
 20
360.6454674123515
 30
0.0
 11
-25.38639288802406
 21
359.9865104206918
 31
0.0
  0
LINE
  5
96
330
1F
100
AcDbEntity
  8
0-1_ピット
  6
Continuous
 62
     2
370
     9
100
AcDbLine
 10
-59.18693211831179
 20
359.9865104206918
 30
0.0
 11
-60.9163880146378
 21
360.6453974222302
 31
0.0
  0
LINE
  5
97
330
1F
100
AcDbEntity
  8
0-1_ピット
  6
Continuous
 62
     2
370
     9
100
AcDbLine
 10
-58.40883444273793
 20
357.0826202896289
 30
0.0
 11
-59.4912841606094
 21
355.3268481077092
 31
0.0
  0
LINE
  5
98
330
1F
100
AcDbEntity
  8
0-1_ピット
  6
Continuous
 62
     2
370
     9
100
AcDbLine
 10
-69.03401725363545
 20
354.2355971320893
 30
0.0
 11
-69.81213242673964
 21
357.1395922483342
 31
0.0
  0
LINE
  5
99
330
1F
100
AcDbEntity
  8
0-1_ピット
  6
Continuous
 62
     2
370
     9
100
AcDbLine
 10
-67.21875346864509
 20
353.2562603603636
 30
0.0
 11
-68.64385732267353
 21
358.5749496551272
 31
0.0
  0
LINE
  5
9A
330
1F
100
AcDbEntity
  8
0-1_ピット
  6
Continuous
 62
     2
370
     9
100
AcDbLine
 10
-96.9584308683872
 20
338.1134776851103
 30
0.0
 11
-99.08431081152787
 21
340.2392876381298
 31
0.0
  0
LINE
  5
9B
330
1F
100
AcDbEntity
  8
0-1_ピット
  6
Continuous
 62
     2
370
     9
100
AcDbLine
 10
-97.01799246157918
 20
336.0517086930435
 30
0.0
 11
-100.9114379220718
 21
339.9451891485967
 31
0.0
  0
LINE
  5
9C
330
1F
100
AcDbEntity
  8
0-1_ピット
  6
Continuous
 62
     2
370
     9
100
AcDbLine
 10
-67.21875346864509
 20
353.2562603603636
 30
0.0
 11
-69.03401725363545
 21
354.2355971320893
 31
0.0
  0
LINE
  5
9D
330
1F
100
AcDbEntity
  8
0-1_ピット
  6
Continuous
 62
     2
370
     9
100
AcDbLine
 10
-68.64385732267353
 20
358.5749496551272
 30
0.0
 11
-69.81213242673964
 21
357.1395922483342
 31
0.0
  0
LINE
  5
9E
330
1F
100
AcDbEntity
  8
0-1_ピット
  6
Continuous
 62
     2
370
     9
100
AcDbLine
 10
-99.08431081152787
 20
340.2392876381298
 30
0.0
 11
-100.9114379220718
 21
339.9451891485967
 31
0.0
  0
LINE
  5
9F
330
1F
100
AcDbEntity
  8
0-1_ピット
  6
Continuous
 62
     2
370
     9
100
AcDbLine
 10
-96.9584308683872
 20
338.1134776851103
 30
0.0
 11
-97.01799246157918
 21
336.0517086930435
 31
0.0
  0
LINE
  5
A0
330
1F
100
AcDbEntity
  8
0-1_ピット
  6
Continuous
 62
     2
370
     9
100
AcDbLine
 10
-104.7366255168059
 20
330.335300534222
 30
0.0
 11
-106.8624354698253
 21
332.4610579946504
 31
0.0
  0
LINE
  5
A1
330
1F
100
AcDbEntity
  8
0-1_ピット
  6
Continuous
 62
     2
370
     9
100
AcDbLine
 10
-102.67490901733
 20
330.394757142232
 30
0.0
 11
-106.5683719753528
 21
334.2882725928458
 31
0.0
  0
LINE
  5
A2
330
1F
100
AcDbEntity
  8
0-1_ピット
  6
Continuous
 62
     2
370
     9
100
AcDbLine
 10
-120.8587974563759
 20
302.4108869194703
 30
0.0
 11
-123.7627925726208
 21
303.1888971073926
 31
0.0
  0
LINE
  5
A3
330
1F
100
AcDbEntity
  8
0-1_ピット
  6
Continuous
 62
     2
370
     9
100
AcDbLine
 10
-119.8794956797108
 20
300.5955531443586
 30
0.0
 11
-125.1980624917621
 21
302.0206220033265
 31
0.0
  0
LINE
  5
A4
330
1F
100
AcDbEntity
  8
0-1_ピット
  6
Continuous
 62
     2
370
     9
100
AcDbLine
 10
-102.67490901733
 20
330.394757142232
 30
0.0
 11
-104.7366255168059
 21
330.335300534222
 31
0.0
  0
LINE
  5
A5
330
1F
100
AcDbEntity
  8
0-1_ピット
  6
Continuous
 62
     2
370
     9
100
AcDbLine
 10
-106.5683719753528
 20
334.2882725928458
 30
0.0
 11
-106.8624354698253
 21
332.4610579946504
 31
0.0
  0
LINE
  5
A6
330
1F
100
AcDbEntity
  8
0-1_ピット
  6
Continuous
 62
     2
370
     9
100
AcDbLine
 10
-123.7627925726208
 20
303.1888971073926
 30
0.0
 11
-125.1980624917621
 21
302.0206220033265
 31
0.0
  0
LINE
  5
A7
330
1F
100
AcDbEntity
  8
0-1_ピット
  6
Continuous
 62
     2
370
     9
100
AcDbLine
 10
-120.8587974563759
 20
302.4108869194703
 30
0.0
 11
-119.8794956797108
 21
300.5955531443586
 31
0.0
  0
LINE
  5
A8
330
1F
100
AcDbEntity
  8
0-1_ピット
  6
Continuous
 62
     2
370
     9
100
AcDbLine
 10
39.13239062239765
 20
291.7855991233908
 30
0.0
 11
42.03635074358189
 21
292.5637667890859
 31
0.0
  0
LINE
  5
A9
330
1F
100
AcDbEntity
  8
0-1_ピット
  6
Continuous
 62
     2
370
     9
100
AcDbLine
 10
37.37665343553866
 20
292.8680838363229
 30
0.0
 11
42.69523774512024
 21
294.2931526952906
 31
0.0
  0
LINE
  5
AA
330
1F
100
AcDbEntity
  8
0-1_ピット
  6
Continuous
 62
     2
370
     9
100
AcDbLine
 10
42.03635074358189
 20
292.5637667890859
 30
0.0
 11
42.69523774512024
 21
294.2931526952906
 31
0.0
  0
LINE
  5
AB
330
1F
100
AcDbEntity
  8
0-1_ピット
  6
Continuous
 62
     2
370
     9
100
AcDbLine
 10
39.13239062239765
 20
291.7855991233908
 30
0.0
 11
37.37665343553866
 21
292.8680838363229
 31
0.0
  0
LINE
  5
AC
330
1F
100
AcDbEntity
  8
0-1_ピット
  6
Continuous
 62
     2
370
     9
100
AcDbLine
 10
-123.7058206139154
 20
291.7855991233909
 30
0.0
 11
-126.6098157301602
 21
292.5637667890859
 31
0.0
  0
LINE
  5
AD
330
1F
100
AcDbEntity
  8
0-1_ピット
  6
Continuous
 62
     2
370
     9
100
AcDbLine
 10
-121.9500484319958
 20
292.8680838363229
 30
0.0
 11
-127.268615244047
 21
294.2931526952907
 31
0.0
  0
LINE
  5
AE
330
1F
100
AcDbEntity
  8
0-1_ピット
  6
Continuous
 62
     2
370
     9
100
AcDbLine
 10
-126.6098157301602
 20
292.5637667890859
 30
0.0
 11
-127.268615244047
 21
294.2931526952907
 31
0.0
  0
LINE
  5
AF
330
1F
100
AcDbEntity
  8
0-1_ピット
  6
Continuous
 62
     2
370
     9
100
AcDbLine
 10
-123.7058206139154
 20
291.7855991233909
 30
0.0
 11
-121.9500484319958
 21
292.8680838363229
 31
0.0
  0
LINE
  5
B0
330
1F
100
AcDbEntity
  8
0-1_ピット
  6
JWW_DASHED1
 62
     4
370
     9
100
AcDbLine
 10
-17.88212207668536
 20
322.0850400154372
 30
0.0
 11
-12.19120781953271
 21
325.3706562678504
 31
0.0
  0
LINE
  5
B1
330
1F
100
AcDbEntity
  8
0-1_ピット
  6
JWW_DASHED1
 62
     4
370
     9
100
AcDbLine
 10
-17.38218264052764
 20
321.2190522450916
 30
0.0
 11
-11.69125088584471
 21
324.5046684975048
 31
0.0
  0
LINE
  5
B2
330
1F
100
AcDbEntity
  8
0-1_ピット
  6
JWW_DASHED1
 62
     4
370
     9
100
AcDbLine
 10
-96.28668318206738
 20
275.6634621788814
 30
0.0
 11
-99.88211070623638
 21
277.7393166828518
 31
0.0
  0
LINE
  5
B3
330
1F
100
AcDbEntity
  8
0-1_ピット
  6
JWW_DASHED1
 62
     4
370
     9
100
AcDbLine
 10
-98.28659840447102
 20
275.6634621788814
 30
0.0
 11
-100.382102634985
 21
276.8733114149758
 31
0.0
  0
LINE
  5
B4
330
1F
100
AcDbEntity
  8
0-1_ピット
  6
JWW_DASHED1
 62
     4
370
     9
100
AcDbLine
 10
-22.28668789520687
 20
323.2948192614104
 30
0.0
 11
-18.53395757350679
 21
316.794810453731
 31
0.0
  0
LINE
  5
B5
330
1F
100
AcDbEntity
  8
0-1_ピット
  6
JWW_DASHED1
 62
     4
370
     9
100
AcDbLine
 10
-18.53395757350679
 20
316.794810453731
 30
0.0
 11
-11.03950287667478
 21
316.794810453731
 31
0.0
  0
LINE
  5
B6
330
1F
100
AcDbEntity
  8
0-1_ピット
  6
JWW_DASHED1
 62
     4
370
     9
100
AcDbLine
 10
-89.78384852324211
 20
275.6682390046574
 30
0.0
 11
-93.53108462042327
 21
282.1586154218984
 31
0.0
  0
LINE
  5
B7
330
1F
100
AcDbEntity
  8
0-1_ピット
  6
JWW_CENTER1
 62
     4
370
     9
100
AcDbLine
 10
-97.28666703956468
 20
275.6634621788814
 30
0.0
 11
-97.28663204450405
 21
283.2570053898868
 31
0.0
  0
LINE
  5
B8
330
1F
100
AcDbEntity
  8
0-1_ピット
  6
JWW_CENTER1
 62
     4
370
     9
100
AcDbLine
 10
-21.15088820740524
 20
326.9692831300118
 30
0.0
 11
-8.217851138091902
 21
319.5022645607136
 31
0.0
  0
LINE
  5
B9
330
1F
100
AcDbEntity
  8
0-A
  6
Continuous
 62
     4
370
     9
100
AcDbLine
 10
-45.28675405590231
 20
334.5871654056853
 30
0.0
 11
-45.28675405590231
 21
332.405083395173
 31
0.0
  0
LINE
  5
BA
330
1F
100
AcDbEntity
  8
0-A
  6
Continuous
 62
     4
370
     9
100
AcDbLine
 10
-44.41674185358416
 20
334.6250300612867
 30
0.0
 11
-44.41674185358416
 21
332.2694775352325
 31
0.0
  0
LINE
  5
BB
330
1F
100
AcDbEntity
  8
0-A
  6
Continuous
 62
     4
370
     9
100
AcDbLine
 10
-40.15672313299418
 20
334.625047558817
 30
0.0
 11
-40.15672313299418
 21
332.2694950327627
 31
0.0
  0
LINE
  5
BC
330
1F
100
AcDbEntity
  8
0-A
  6
Continuous
 62
     4
370
     9
100
AcDbLine
 10
-39.28671093067609
 20
334.5871829032155
 30
0.0
 11
-39.28671093067609
 21
332.4051183902337
 31
0.0
  0
LINE
  5
BD
330
1F
100
AcDbEntity
  8
0-1_ピット
  6
JWW_DASHED1
 62
     4
370
     9
100
AcDbLine
 10
-100.9280780734012
 20
282.1586854120197
 30
0.0
 11
-93.53108462042327
 21
282.1586154218984
 31
0.0
  0
LINE
  5
BE
330
1F
100
AcDbEntity
  8
0-1_ピット
  6
JWW_DASHED1
 62
     2
370
     9
100
AcDbLine
 10
-97.28666703956466
 20
287.6634784392126
 30
0.0
 11
-100.0534640206103
 21
287.6634784392126
 31
0.0
  0
LINE
  5
BF
330
1F
100
AcDbEntity
  8
0-1_ピット
  6
JWW_DASHED1
 62
     2
370
     9
100
AcDbLine
 10
-97.28663204450405
 20
288.6635672818918
 30
0.0
 11
-99.83665212247821
 21
288.6635672818918
 31
0.0
  0
LINE
  5
C0
330
1F
100
AcDbEntity
  8
0-1_ピット
  6
JWW_DASHED1
 62
     2
370
     9
100
AcDbLine
 10
-4.394395798858993
 20
317.2948373775403
 30
0.0
 11
-3.011006057101298
 21
319.6909666763948
 31
0.0
  0
LINE
  5
C1
330
1F
100
AcDbEntity
  8
0-1_ピット
  6
JWW_DASHED1
 62
     2
370
     9
100
AcDbLine
 10
-3.528338038392036
 20
316.79475796114
 30
0.0
 11
-2.253362994465562
 21
319.0032000010717
 31
0.0
  0
LINE
  5
C2
330
1F
100
AcDbEntity
  8
0-1_ピット
  6
JWW_DASHED1
 62
     4
370
     9
100
AcDbLine
 10
-7.340979903890368
 20
323.2008050310284
 30
0.0
 11
-11.03950287667478
 21
316.794810453731
 31
0.0
  0
LINE
  5
C3
330
1F
100
AcDbEntity
  8
0-1_ピット
  6
JWW_DASHED1
 62
     4
370
     9
100
AcDbLine
 10
-22.28668789520687
 20
323.2948192614104
 30
0.0
 11
-18.59103451739409
 21
329.6960107666363
 31
0.0
  0
LINE
  5
C4
330
1F
100
AcDbEntity
  8
0-1_ピット
  6
JWW_CENTER1
 62
     4
370
     9
100
AcDbLine
 10
-12.78664877614917
 20
326.7589453180963
 30
0.0
 11
-18.88985734011217
 21
316.1879611073492
 31
0.0
  0
LINE
  5
C5
330
1F
100
AcDbEntity
  8
0-1_ピット
  6
JWW_DASHED1
 62
     2
370
     9
100
AcDbLine
 10
-25.17897716367107
 20
329.2948623866366
 30
0.0
 11
-23.79562241697405
 21
331.6909741879608
 31
0.0
  0
LINE
  5
C6
330
1F
100
AcDbEntity
  8
0-1_ピット
  6
JWW_DASHED1
 62
     2
370
     9
100
AcDbLine
 10
-26.04505242166831
 20
329.7948718129155
 30
0.0
 11
-24.77002488515088
 21
332.0032176164304
 31
0.0
  0
LINE
  5
C7
330
1F
100
AcDbEntity
  8
0-A
  6
Continuous
 62
     4
370
     9
100
AcDbLine
 10
34.31339579836744
 20
277.2635938286499
 30
0.0
 11
34.31339579836744
 21
278.4134965258854
 31
0.0
  0
LINE
  5
C8
330
1F
100
AcDbEntity
  8
0-A
  6
Continuous
 62
     4
370
     9
100
AcDbLine
 10
33.11320519900688
 20
278.4134965258854
 30
0.0
 11
34.31339579836744
 21
278.4134965258854
 31
0.0
  0
LINE
  5
C9
330
1F
100
AcDbEntity
  8
0-A
  6
Continuous
 62
     4
370
     9
100
AcDbLine
 10
33.11320519900688
 20
277.2635938286499
 30
0.0
 11
33.11320519900688
 21
278.4134965258854
 31
0.0
  0
LINE
  5
CA
330
1F
100
AcDbEntity
  8
0-A
  6
Continuous
 62
     4
370
     9
100
AcDbLine
 10
38.67713987866422
 20
276.2636099711526
 30
0.0
 11
28.7494611187101
 21
276.2636099711526
 31
0.0
  0
LINE
  5
CB
330
1F
100
AcDbEntity
  8
0-A
  6
Continuous
 62
     4
370
     9
100
AcDbLine
 10
-40.15672313299418
 20
343.9464543908897
 30
0.0
 11
-40.15672313299418
 21
340.2109416390196
 31
0.0
  0
LINE
  5
CC
330
1F
100
AcDbEntity
  8
0-A
  6
Continuous
 62
     4
370
     9
100
AcDbLine
 10
-39.28671093067609
 20
343.9938377029825
 30
0.0
 11
-39.28671093067609
 21
340.4019271824068
 31
0.0
  0
LINE
  5
CD
330
1F
100
AcDbEntity
  8
0-A
  6
Continuous
 62
     4
370
     9
100
AcDbLine
 10
-44.41674185358416
 20
343.9464543908897
 30
0.0
 11
-44.41674185358416
 21
340.2109066439589
 31
0.0
  0
LINE
  5
CE
330
1F
100
AcDbEntity
  8
0-A
  6
Continuous
 62
     4
370
     9
100
AcDbLine
 10
-45.28675405590231
 20
343.9938377029825
 30
0.0
 11
-45.28675405590231
 21
340.4018571922855
 31
0.0
  0
LINE
  5
CF
330
1F
100
AcDbEntity
  8
0-A
  6
JWW_CENTER1
 62
     4
370
     9
100
AcDbLine
 10
-118.2866954951443
 20
275.6634621788814
 30
0.0
 11
-118.2866954951443
 21
282.1707062153461
 31
0.0
  0
LINE
  5
D0
330
1F
100
AcDbEntity
  8
0-A
  6
Continuous
 62
     4
370
     9
100
AcDbLine
 10
-118.8867907948245
 20
277.26359382865
 30
0.0
 11
-118.8867907948245
 21
278.4134965258854
 31
0.0
  0
LINE
  5
D1
330
1F
100
AcDbEntity
  8
0-A
  6
Continuous
 62
     4
370
     9
100
AcDbLine
 10
-117.686600195464
 20
278.4134965258854
 30
0.0
 11
-118.8867907948245
 21
278.4134965258854
 31
0.0
  0
LINE
  5
D2
330
1F
100
AcDbEntity
  8
0-A
  6
Continuous
 62
     4
370
     9
100
AcDbLine
 10
-117.686600195464
 20
277.26359382865
 30
0.0
 11
-117.686600195464
 21
278.4134965258854
 31
0.0
  0
LINE
  5
D3
330
1F
100
AcDbEntity
  8
0-A
  6
Continuous
 62
     4
370
     9
100
AcDbLine
 10
-123.2505348751213
 20
276.2636099711527
 30
0.0
 11
-113.3228561151672
 21
276.2636099711527
 31
0.0
  0
LINE
  5
D4
330
1F
100
AcDbEntity
  8
0-2_本体（蓋）
  6
Continuous
 62
     6
370
     5
100
AcDbLine
 10
37.96285569614886
 20
286.6634595866547
 30
0.0
 11
26.84359512174913
 21
286.6634595866547
 31
0.0
  0
LINE
  5
D5
330
1F
100
AcDbEntity
  8
0-2_本体（蓋）
  6
Continuous
 62
     6
370
     5
100
AcDbLine
 10
37.08580948664414
 20
285.6634757291574
 30
0.0
 11
26.90168692239464
 21
285.6634757291574
 31
0.0
  0
LINE
  5
D6
330
1F
100
AcDbEntity
  8
0-2_本体（蓋）
  6
Continuous
 62
     6
370
     5
100
AcDbLine
 10
26.90168692239464
 20
285.6634757291574
 30
0.0
 11
26.84359512174913
 21
286.6634595866547
 31
0.0
  0
LINE
  5
D7
330
1F
100
AcDbEntity
  8
0-2_本体（蓋）
  6
Continuous
 62
     6
370
     5
100
AcDbLine
 10
37.96285569614886
 20
286.6634595866547
 30
0.0
 11
37.08580948664414
 21
285.6634757291574
 31
0.0
  0
LINE
  5
D8
330
1F
100
AcDbEntity
  8
0-2_本体（蓋）
  6
Continuous
 62
     6
370
     5
100
AcDbLine
 10
37.2183707763099
 20
280.9835687736004
 30
0.0
 11
38.28348044163933
 21
279.976410928674
 31
0.0
  0
LINE
  5
D9
330
1F
100
AcDbEntity
  8
0-2_本体（蓋）
  6
Continuous
 62
     6
370
     5
100
AcDbLine
 10
11.90847313627316
 20
298.984800493689
 30
0.0
 11
11.32475552496763
 21
297.7931136940615
 31
0.0
  0
LINE
  5
DA
330
1F
100
AcDbEntity
  8
0-2_本体（蓋）
  6
Continuous
 62
     6
370
     5
100
AcDbLine
 10
16.30840210926121
 20
282.5640681943556
 30
0.0
 11
15.20703756111928
 21
283.3042487217371
 31
0.0
  0
LINE
  5
DB
330
1F
100
AcDbEntity
  8
0-2_本体（蓋）
  6
Continuous
 62
     6
370
     5
100
AcDbLine
 10
21.19763201997549
 20
305.1547621358033
 30
0.0
 11
19.99716146012988
 21
304.7178138087793
 31
0.0
  0
LINE
  5
DC
330
1F
100
AcDbEntity
  8
0-2_本体（蓋）
  6
Continuous
 62
     6
370
     5
100
AcDbLine
 10
14.9957373850364
 20
315.8965834837801
 30
0.0
 11
14.01720549970522
 21
315.0754768786921
 31
0.0
  0
LINE
  5
DD
330
1F
100
AcDbEntity
  8
0-2_本体（蓋）
  6
Continuous
 62
     6
370
     5
100
AcDbLine
 10
7.28191615064631
 20
325.0886135767043
 30
0.0
 11
6.303244285072626
 21
324.2674194839648
 31
0.0
  0
LINE
  5
DE
330
1F
100
AcDbEntity
  8
0-2_本体（蓋）
  6
Continuous
 62
     6
370
     5
100
AcDbLine
 10
-2.219872721442835
 20
333.0614507523461
 30
0.0
 11
-2.858602568058439
 21
331.9551868957159
 31
0.0
  0
LINE
  5
DF
330
1F
100
AcDbEntity
  8
0-2_本体（蓋）
  6
Continuous
 62
     6
370
     5
100
AcDbLine
 10
-12.61256584704611
 20
339.0610389417841
 30
0.0
 11
-13.25129569366171
 21
337.9546351049115
 31
0.0
  0
LINE
  5
E0
330
1F
100
AcDbEntity
  8
0-2_本体（蓋）
  6
Continuous
 62
     6
370
     5
100
AcDbLine
 10
-24.26819571571919
 20
343.3032451765135
 30
0.0
 11
-24.49002940505166
 21
342.0452252394622
 31
0.0
  0
LINE
  5
E1
330
1F
100
AcDbEntity
  8
0-2_本体（蓋）
  6
Continuous
 62
     6
370
     5
100
AcDbLine
 10
-36.08620266571468
 20
345.3866761111102
 30
0.0
 11
-36.30807135010777
 21
344.1285336913467
 31
0.0
  0
LINE
  5
E2
330
1F
100
AcDbEntity
  8
0-2_本体（蓋）
  6
Continuous
 62
     6
370
     5
100
AcDbLine
 10
25.30143278991395
 20
293.8801409897375
 30
0.0
 11
24.09935245727942
 21
293.4426327417434
 31
0.0
  0
LINE
  5
E3
330
1F
100
AcDbEntity
  8
0-2_本体（蓋）
  6
Continuous
 62
     6
370
     5
100
AcDbLine
 10
27.26941501949287
 20
282.6617394085734
 30
0.0
 11
26.06698473625201
 21
282.6617219110431
 31
0.0
  0
LINE
  5
E4
330
1F
100
AcDbEntity
  8
0-2_本体（蓋）
  6
Continuous
 62
     6
370
     5
100
AcDbLine
 10
-121.6592044831012
 20
285.6634757291574
 30
0.0
 11
-111.4750819188517
 21
285.6634757291574
 31
0.0
  0
LINE
  5
E5
330
1F
100
AcDbEntity
  8
0-2_本体（蓋）
  6
Continuous
 62
     6
370
     5
100
AcDbLine
 10
-111.4750819188517
 20
285.6634757291574
 30
0.0
 11
-111.4169901182062
 21
286.6634595866548
 31
0.0
  0
LINE
  5
E6
330
1F
100
AcDbEntity
  8
0-2_本体（蓋）
  6
Continuous
 62
     6
370
     5
100
AcDbLine
 10
-122.5362506926059
 20
286.6634595866548
 30
0.0
 11
-121.6592044831012
 21
285.6634757291574
 31
0.0
  0
LINE
  5
E7
330
1F
100
AcDbEntity
  8
0-2_本体（蓋）
  6
Continuous
 62
     6
370
     5
100
AcDbLine
 10
-121.791765772767
 20
280.9835687736005
 30
0.0
 11
-122.8568754380965
 21
279.9764109286741
 31
0.0
  0
LINE
  5
E8
330
1F
100
AcDbEntity
  8
0-2_本体（蓋）
  6
Continuous
 62
     6
370
     5
100
AcDbLine
 10
-105.7710270164326
 20
305.1547621358034
 30
0.0
 11
-104.570556456587
 21
304.7178138087793
 31
0.0
  0
LINE
  5
E9
330
1F
100
AcDbEntity
  8
0-2_本体（蓋）
  6
Continuous
 62
     6
370
     5
100
AcDbLine
 10
-99.5691323814935
 20
315.8965834837801
 30
0.0
 11
-98.5906004961623
 21
315.0754768786921
 31
0.0
  0
LINE
  5
EA
330
1F
100
AcDbEntity
  8
0-2_本体（蓋）
  6
Continuous
 62
     6
370
     5
100
AcDbLine
 10
-91.85531114710344
 20
325.0886135767043
 30
0.0
 11
-90.87660428646907
 21
324.2674194839648
 31
0.0
  0
LINE
  5
EB
330
1F
100
AcDbEntity
  8
0-2_本体（蓋）
  6
Continuous
 62
     6
370
     5
100
AcDbLine
 10
-82.35352227501424
 20
333.0614507523461
 30
0.0
 11
-81.71475743333802
 21
331.9551868957159
 31
0.0
  0
LINE
  5
EC
330
1F
100
AcDbEntity
  8
0-2_本体（蓋）
  6
Continuous
 62
     6
370
     5
100
AcDbLine
 10
-71.96082914941097
 20
339.0610389417841
 30
0.0
 11
-71.3220993027954
 21
337.9546351049115
 31
0.0
  0
LINE
  5
ED
330
1F
100
AcDbEntity
  8
0-2_本体（蓋）
  6
Continuous
 62
     6
370
     5
100
AcDbLine
 10
-60.30519928073788
 20
343.3032451765135
 30
0.0
 11
-60.08336559140541
 21
342.0452252394622
 31
0.0
  0
LINE
  5
EE
330
1F
100
AcDbEntity
  8
0-2_本体（蓋）
  6
Continuous
 62
     6
370
     5
100
AcDbLine
 10
-109.874827786371
 20
293.8801409897375
 30
0.0
 11
-108.6727474537365
 21
293.4426327417434
 31
0.0
  0
LINE
  5
EF
330
1F
100
AcDbEntity
  8
0-2_本体（蓋）
  6
Continuous
 62
     6
370
     5
100
AcDbLine
 10
-111.84281001595
 20
282.6617394085735
 30
0.0
 11
-110.6403797327091
 21
282.6617219110432
 31
0.0
  0
LINE
  5
F0
330
1F
100
AcDbEntity
  8
0-2_本体（蓋）
  6
Continuous
 62
     6
370
     5
100
AcDbLine
 10
-65.6080358130361
 20
329.8586328133831
 30
0.0
 11
-64.4163490134086
 21
329.2749152020776
 31
0.0
  0
LINE
  5
F1
330
1F
100
AcDbEntity
  8
0-2_本体（蓋）
  6
Continuous
 62
     6
370
     5
100
AcDbLine
 10
-49.18730351370274
 20
334.2585617863712
 30
0.0
 11
-49.9274840410842
 21
333.1571972382293
 31
0.0
  0
LINE
  5
F2
330
1F
100
AcDbEntity
  8
0-2_本体（蓋）
  6
Continuous
 62
     6
370
     5
100
AcDbLine
 10
-48.48719233074242
 20
345.3866761111102
 30
0.0
 11
-48.26532364634931
 21
344.1285336913467
 31
0.0
  0
LINE
  5
F3
330
1F
100
AcDbEntity
  8
0-2_本体（蓋）
  6
Continuous
 62
     6
370
     5
100
AcDbLine
 10
-122.5362506926059
 20
286.6634595866548
 30
0.0
 11
-111.4170251132668
 21
286.6634595866548
 31
0.0
  0
LINE
  5
F4
330
1F
100
AcDbEntity
  8
0-2_本体（蓋）
  6
Continuous
 62
     6
370
     5
100
AcDbLine
 10
-40.78743911072555
 20
339.6673633622565
 30
0.0
 11
-40.78743911072555
 21
340.1670578329897
 31
0.0
  0
LINE
  5
F5
330
1F
100
AcDbEntity
  8
0-2_本体（蓋）
  6
Continuous
 62
     6
370
     5
100
AcDbLine
 10
-43.78595588573155
 20
339.5752913577394
 30
0.0
 11
-43.78595588573155
 21
340.1670228379292
 31
0.0
  0
LINE
  5
F6
330
1F
100
AcDbEntity
  8
0-2_本体（蓋）
  6
Continuous
 62
     6
370
     5
100
AcDbLine
 10
-122.1303079893
 20
279.6635025940525
 30
0.0
 11
-121.2866470676361
 21
279.6635025940525
 31
0.0
  0
LINE
  5
F7
330
1F
100
AcDbEntity
  8
0-2_本体（蓋）
  6
Continuous
 62
     6
370
     5
100
AcDbLine
 10
-121.0585492624509
 20
280.6634864515498
 30
0.0
 11
-118.2866954951443
 21
280.6634864515498
 31
0.0
  0
LINE
  5
F8
330
1F
100
AcDbEntity
  8
0-2_本体（蓋）
  6
Continuous
 62
     6
370
     5
100
AcDbLine
 10
37.55691299284287
 20
279.6635025940524
 30
0.0
 11
36.71325207117902
 21
279.6635025940524
 31
0.0
  0
LINE
  5
F9
330
1F
100
AcDbEntity
  8
0-2_本体（蓋）
  6
Continuous
 62
     6
370
     5
100
AcDbLine
 10
36.48515426599382
 20
280.6634864515497
 30
0.0
 11
33.71333549374778
 21
280.6634864515497
 31
0.0
  0
LINE
  5
FA
330
1F
100
AcDbEntity
  8
0-1_ピット
  6
Continuous
 62
     2
370
     9
100
AcDbLine
 10
-109.0162939639395
 20
287.7755326233494
 30
0.0
 11
-109.6770881962822
 21
287.6634784392127
 31
0.0
  0
LINE
  5
FB
330
1F
100
AcDbEntity
  8
0-1_ピット
  6
Continuous
 62
     2
370
     9
100
AcDbLine
 10
-109.0365386065139
 20
287.6634784392127
 30
0.0
 11
-109.6770881962822
 21
287.6634784392127
 31
0.0
  0
LINE
  5
FC
330
1F
100
AcDbEntity
  8
0-1_ピット
  6
Continuous
 62
     2
370
     9
100
AcDbLine
 10
1.56785266088705
 20
327.398016366553
 30
0.0
 11
1.80081477949981
 21
328.0252765820471
 31
0.0
  0
LINE
  5
FD
330
1F
100
AcDbEntity
  8
0-1_ピット
  6
Continuous
 62
     2
370
     9
100
AcDbLine
 10
1.481029915464466
 20
327.471470998815
 30
0.0
 11
1.800779784439136
 21
328.0252765820471
 31
0.0
  0
LINE
  5
FE
330
1F
100
AcDbEntity
  8
0-1_ピット
  6
Continuous
 62
     2
370
     9
100
AcDbLine
 10
-19.30398888760552
 20
339.4710060770626
 30
0.0
 11
-18.98395905814575
 21
340.025327837439
 31
0.0
  0
LINE
  5
FF
330
1F
100
AcDbEntity
  8
0-1_ピット
  6
Continuous
 62
     2
370
     9
100
AcDbLine
 10
-19.41079381264776
 20
339.5093781610432
 30
0.0
 11
-18.98362660506975
 21
340.0252578473177
 31
0.0
  0
ARC
  5
100
330
1F
100
AcDbEntity
  8
0-1_ピット
  6
Continuous
 62
     2
370
     9
100
AcDbCircle
 10
-42.28669749822856
 20
275.6634621788814
 30
0.0
 40
82.99999873334374
100
AcDbArc
 50
18.79946899414063
 51
41.20048522949219
  0
ARC
  5
101
330
1F
100
AcDbEntity
  8
0-1_ピット
  6
Continuous
 62
     2
370
     9
100
AcDbCircle
 10
-42.28669749822856
 20
275.6634621788814
 30
0.0
 40
86.00000279842656
100
AcDbArc
 50
18.666748046875
 51
41.33323669433594
  0
ARC
  5
102
330
1F
100
AcDbEntity
  8
0-1_ピット
  6
Continuous
 62
     2
370
     9
100
AcDbCircle
 10
-42.28669749822856
 20
275.6634621788814
 30
0.0
 40
86.999995404689
100
AcDbArc
 50
17.63522338867188
 51
42.36474609375
  0
ARC
  5
103
330
1F
100
AcDbEntity
  8
0-1_ピット
  6
Continuous
 62
     2
370
     9
100
AcDbCircle
 10
-42.28669749822856
 20
275.6634621788814
 30
0.0
 40
81.4999879520372
100
AcDbArc
 50
17.81321716308594
 51
42.18676757812501
  0
ARC
  5
104
330
1F
100
AcDbEntity
  8
0-1_ピット
  6
Continuous
 62
     2
370
     9
100
AcDbCircle
 10
-42.28669749822856
 20
275.6634621788814
 30
0.0
 40
82.99999873334374
100
AcDbArc
 50
48.79946899414063
 51
71.2004852294922
  0
ARC
  5
105
330
1F
100
AcDbEntity
  8
0-1_ピット
  6
Continuous
 62
     2
370
     9
100
AcDbCircle
 10
-42.28669749822856
 20
275.6634621788814
 30
0.0
 40
86.00000279842656
100
AcDbArc
 50
48.66674804687501
 51
71.33323669433594
  0
ARC
  5
106
330
1F
100
AcDbEntity
  8
0-1_ピット
  6
Continuous
 62
     2
370
     9
100
AcDbCircle
 10
-42.28669749822856
 20
275.6634621788814
 30
0.0
 40
86.999995404689
100
AcDbArc
 50
47.63522338867188
 51
72.36474609374999
  0
ARC
  5
107
330
1F
100
AcDbEntity
  8
0-1_ピット
  6
Continuous
 62
     2
370
     9
100
AcDbCircle
 10
-42.28669749822856
 20
275.6634621788814
 30
0.0
 40
81.4999879520372
100
AcDbArc
 50
47.81321716308594
 51
72.18676757812501
  0
ARC
  5
108
330
1F
100
AcDbEntity
  8
0-1_ピット
  6
Continuous
 62
     2
370
     9
100
AcDbCircle
 10
-42.28669749822856
 20
275.6634621788814
 30
0.0
 40
82.99999873334374
100
AcDbArc
 50
78.79946899414062
 51
101.2004852294922
  0
ARC
  5
109
330
1F
100
AcDbEntity
  8
0-1_ピット
  6
Continuous
 62
     2
370
     9
100
AcDbCircle
 10
-42.28669749822856
 20
275.6634621788814
 30
0.0
 40
86.00000279842656
100
AcDbArc
 50
78.66674804687503
 51
101.333236694336
  0
ARC
  5
10A
330
1F
100
AcDbEntity
  8
0-1_ピット
  6
Continuous
 62
     2
370
     9
100
AcDbCircle
 10
-42.28669749822856
 20
275.6634621788814
 30
0.0
 40
86.999995404689
100
AcDbArc
 50
77.63522338867188
 51
102.36474609375
  0
ARC
  5
10B
330
1F
100
AcDbEntity
  8
0-1_ピット
  6
Continuous
 62
     2
370
     9
100
AcDbCircle
 10
-42.28669749822856
 20
275.6634621788814
 30
0.0
 40
82.99999873334374
100
AcDbArc
 50
108.7994689941406
 51
131.2004852294922
  0
ARC
  5
10C
330
1F
100
AcDbEntity
  8
0-1_ピット
  6
Continuous
 62
     2
370
     9
100
AcDbCircle
 10
-42.28669749822856
 20
275.6634621788814
 30
0.0
 40
86.00000279842656
100
AcDbArc
 50
108.666748046875
 51
131.3332366943359
  0
ARC
  5
10D
330
1F
100
AcDbEntity
  8
0-1_ピット
  6
Continuous
 62
     2
370
     9
100
AcDbCircle
 10
-42.28669749822856
 20
275.6634621788814
 30
0.0
 40
86.999995404689
100
AcDbArc
 50
107.6352233886719
 51
132.36474609375
  0
ARC
  5
10E
330
1F
100
AcDbEntity
  8
0-1_ピット
  6
Continuous
 62
     2
370
     9
100
AcDbCircle
 10
-42.28669749822856
 20
275.6634621788814
 30
0.0
 40
81.4999879520372
100
AcDbArc
 50
107.813217163086
 51
132.186767578125
  0
ARC
  5
10F
330
1F
100
AcDbEntity
  8
0-1_ピット
  6
Continuous
 62
     2
370
     9
100
AcDbCircle
 10
-42.28669749822856
 20
275.6634621788814
 30
0.0
 40
82.99999873334374
100
AcDbArc
 50
138.7994689941407
 51
161.2004852294922
  0
ARC
  5
110
330
1F
100
AcDbEntity
  8
0-1_ピット
  6
Continuous
 62
     2
370
     9
100
AcDbCircle
 10
-42.28669749822856
 20
275.6634621788814
 30
0.0
 40
86.00000279842656
100
AcDbArc
 50
138.666748046875
 51
161.3332366943359
  0
ARC
  5
111
330
1F
100
AcDbEntity
  8
0-1_ピット
  6
Continuous
 62
     2
370
     9
100
AcDbCircle
 10
-42.28669749822856
 20
275.6634621788814
 30
0.0
 40
86.999995404689
100
AcDbArc
 50
137.6352233886719
 51
162.36474609375
  0
ARC
  5
112
330
1F
100
AcDbEntity
  8
0-1_ピット
  6
Continuous
 62
     2
370
     9
100
AcDbCircle
 10
-42.28669749822856
 20
275.6634621788814
 30
0.0
 40
81.4999879520372
100
AcDbArc
 50
137.8132171630859
 51
162.186767578125
  0
ARC
  5
113
330
1F
100
AcDbEntity
  8
0-1_ピット
  6
Continuous
 62
     2
370
     9
100
AcDbCircle
 10
-42.28669749822856
 20
275.6634621788814
 30
0.0
 40
96.44103285152478
100
AcDbArc
 50
0.0
 51
180.0
  0
ARC
  5
114
330
1F
100
AcDbEntity
  8
0-1_ピット
  6
Continuous
 62
     2
370
     9
100
AcDbCircle
 10
-42.28669749822856
 20
275.6634621788814
 30
0.0
 40
101.9999982325727
100
AcDbArc
 50
0.0
 51
180.0
  0
ARC
  5
115
330
1F
100
AcDbEntity
  8
0-1_ピット
  6
Continuous
 62
     2
370
     9
100
AcDbCircle
 10
-42.28669749822856
 20
275.6634621788814
 30
0.0
 40
102.4999989100865
100
AcDbArc
 50
0.0
 51
180.0
  0
ARC
  5
116
330
1F
100
AcDbEntity
  8
0-1_ピット
  6
Continuous
 62
     2
370
     9
100
AcDbCircle
 10
-42.28669749822856
 20
275.6634621788814
 30
0.0
 40
81.4999879520372
100
AcDbArc
 50
7.226165771484387
 51
12.18676757812501
  0
ARC
  5
117
330
1F
100
AcDbEntity
  8
0-1_ピット
  6
Continuous
 62
     2
370
     9
100
AcDbCircle
 10
-42.28669749822856
 20
275.6634621788814
 30
0.0
 40
82.99999873334374
100
AcDbArc
 50
0.0
 51
11.20048522949219
  0
ARC
  5
118
330
1F
100
AcDbEntity
  8
0-1_ピット
  6
Continuous
 62
     2
370
     9
100
AcDbCircle
 10
-42.28669749822856
 20
275.6634621788814
 30
0.0
 40
86.00000279842656
100
AcDbArc
 50
0.0
 51
11.33323669433594
  0
ARC
  5
119
330
1F
100
AcDbEntity
  8
0-1_ピット
  6
Continuous
 62
     2
370
     9
100
AcDbCircle
 10
-42.28669749822856
 20
275.6634621788814
 30
0.0
 40
86.999995404689
100
AcDbArc
 50
0.0
 51
12.36474609375
  0
ARC
  5
11A
330
1F
100
AcDbEntity
  8
0-1_ピット
  6
Continuous
 62
     2
370
     9
100
AcDbCircle
 10
-42.28669749822856
 20
275.6634621788814
 30
0.0
 40
81.4999879520372
100
AcDbArc
 50
167.8132324218751
 51
172.7738342285157
  0
ARC
  5
11B
330
1F
100
AcDbEntity
  8
0-1_ピット
  6
Continuous
 62
     2
370
     9
100
AcDbCircle
 10
-42.28669749822856
 20
275.6634621788814
 30
0.0
 40
81.87545870629977
100
AcDbArc
 50
173.5303955078125
 51
180.0
  0
ARC
  5
11C
330
1F
100
AcDbEntity
  8
0-1_ピット
  6
Continuous
 62
     2
370
     9
100
AcDbCircle
 10
-42.28669749822856
 20
275.6634621788814
 30
0.0
 40
82.99999873334374
100
AcDbArc
 50
168.7995147705079
 51
180.0
  0
ARC
  5
11D
330
1F
100
AcDbEntity
  8
0-1_ピット
  6
Continuous
 62
     2
370
     9
100
AcDbCircle
 10
-42.28669749822856
 20
275.6634621788814
 30
0.0
 40
86.00000279842656
100
AcDbArc
 50
168.6667633056641
 51
180.0
  0
ARC
  5
11E
330
1F
100
AcDbEntity
  8
0-1_ピット
  6
Continuous
 62
     2
370
     9
100
AcDbCircle
 10
-42.28669749822856
 20
275.6634621788814
 30
0.0
 40
86.999995404689
100
AcDbArc
 50
167.63525390625
 51
180.0
  0
ARC
  5
11F
330
1F
100
AcDbEntity
  8
0-1_ピット
  6
Continuous
 62
     2
370
     9
100
AcDbCircle
 10
-42.28669749822856
 20
275.6634621788814
 30
0.0
 40
81.4999879520372
100
AcDbArc
 50
94.32832336425781
 51
102.186767578125
  0
ARC
  5
120
330
1F
100
AcDbEntity
  8
0-1_ピット
  6
Continuous
 62
     2
370
     9
100
AcDbCircle
 10
-42.28669749822856
 20
275.6634621788814
 30
0.0
 40
81.4999879520372
100
AcDbArc
 50
77.81321716308597
 51
85.67167663574222
  0
ARC
  5
121
330
1F
100
AcDbEntity
  8
0-1_ピット
  6
Continuous
 62
     2
370
     9
100
AcDbCircle
 10
-42.28669749822856
 20
275.6634621788814
 30
0.0
 40
81.87545870629977
100
AcDbArc
 50
87.12954711914064
 51
92.87045288085939
  0
ARC
  5
122
330
1F
100
AcDbEntity
  8
0-1_ピット
  6
JWW_DASHED1
 62
     2
370
     9
100
AcDbCircle
 10
-4.273417874261694
 20
312.5957093849323
 30
0.0
 40
1.999999976066088
100
AcDbArc
 50
44.1744384765625
 51
134.4988708496094
  0
ARC
  5
123
330
1F
100
AcDbEntity
  8
0-1_ピット
  6
JWW_DASHED1
 62
     2
370
     9
100
AcDbCircle
 10
-42.28669749822856
 20
275.6634621788814
 30
0.0
 40
55.00000016201416
100
AcDbArc
 50
0.0
 51
44.17364501953125
  0
ARC
  5
124
330
1F
100
AcDbEntity
  8
0-1_ピット
  6
JWW_DASHED1
 62
     2
370
     9
100
AcDbCircle
 10
-3.651870602415356
 20
314.8086657876852
 30
0.0
 40
0.9999999880330441
100
AcDbArc
 50
45.37593078613283
 51
142.6873474121094
  0
ARC
  5
125
330
1F
100
AcDbEntity
  8
0-1_ピット
  6
JWW_DASHED1
 62
     2
370
     9
100
AcDbCircle
 10
-42.28669749822856
 20
275.6634621788814
 30
0.0
 40
55.99999714265918
100
AcDbArc
 50
0.0
 51
45.37590026855468
  0
ARC
  5
126
330
1F
100
AcDbEntity
  8
0-1_ピット
  6
JWW_DASHED1
 62
     2
370
     9
100
AcDbCircle
 10
-14.78665148620442
 20
323.2948192614104
 30
0.0
 40
12.99999902423284
100
AcDbArc
 50
322.688003540039
 51
329.9999084472657
  0
ARC
  5
127
330
1F
100
AcDbEntity
  8
0-1_ピット
  6
JWW_DASHED1
 62
     2
370
     9
100
AcDbCircle
 10
-27.70331086714296
 20
328.6948370770776
 30
0.0
 40
0.9999999880330441
100
AcDbArc
 50
337.3119964599609
 51
74.62364196777344
  0
ARC
  5
128
330
1F
100
AcDbEntity
  8
0-1_ピット
  6
JWW_DASHED1
 62
     2
370
     9
100
AcDbCircle
 10
-29.30902422908186
 20
327.0499992373545
 30
0.0
 40
1.999999976066088
100
AcDbArc
 50
345.5018768310547
 51
75.82656860351564
  0
ARC
  5
129
330
1F
100
AcDbEntity
  8
0-1_ピット
  6
JWW_DASHED1
 62
     2
370
     9
100
AcDbCircle
 10
-93.27758040122082
 20
290.1177520313036
 30
0.0
 40
1.999999976066088
100
AcDbArc
 50
164.1744384765625
 51
254.4988708496093
  0
ARC
  5
12A
330
1F
100
AcDbEntity
  8
0-1_ピット
  6
JWW_DASHED1
 62
     2
370
     9
100
AcDbCircle
 10
-95.5048410350061
 20
289.5496772120997
 30
0.0
 40
0.9999999880330441
100
AcDbArc
 50
165.3759307861328
 51
262.6873474121094
  0
ARC
  5
12B
330
1F
100
AcDbEntity
  8
0-1_ピット
  6
JWW_DASHED1
 62
     2
370
     9
100
AcDbCircle
 10
-97.28666703956468
 20
275.6634621788814
 30
0.0
 40
12.99999902423284
100
AcDbArc
 50
82.68800354003906
 51
89.99990844726562
  0
ARC
  5
12C
330
1F
100
AcDbEntity
  8
0-1_ピット
  6
JWW_DASHED1
 62
     2
370
     9
100
AcDbCircle
 10
-42.28669749822856
 20
275.6634621788814
 30
0.0
 40
55.99999714265918
100
AcDbArc
 50
74.62402343750001
 51
165.3759155273438
  0
ARC
  5
12D
330
1F
100
AcDbEntity
  8
0-1_ピット
  6
JWW_DASHED1
 62
     2
370
     9
100
AcDbCircle
 10
-42.28669749822856
 20
275.6634621788814
 30
0.0
 40
55.00000016201416
100
AcDbArc
 50
75.82635498046875
 51
164.1736450195312
  0
CIRCLE
  5
12E
330
1F
100
AcDbEntity
  8
0-1_ピット
  6
JWW_DASHED1
 62
     4
370
     9
100
AcDbCircle
 10
-14.78665148620442
 20
323.2948192614104
 30
0.0
 40
3.999999952132177
  0
CIRCLE
  5
12F
330
1F
100
AcDbEntity
  8
0-1_ピット
  6
JWW_DASHED1
 62
     4
370
     9
100
AcDbCircle
 10
-14.78665148620442
 20
323.2948192614104
 30
0.0
 40
3.32349977253947
  0
ARC
  5
130
330
1F
100
AcDbEntity
  8
0-1_ピット
  6
JWW_DASHED1
 62
     4
370
     9
100
AcDbCircle
 10
-97.28663204450405
 20
275.6634621788814
 30
0.0
 40
3.999999952132177
100
AcDbArc
 50
0.0
 51
180.0
  0
ARC
  5
131
330
1F
100
AcDbEntity
  8
0-1_ピット
  6
JWW_DASHED1
 62
     4
370
     9
100
AcDbCircle
 10
-97.28663204450405
 20
275.6634621788814
 30
0.0
 40
3.32349977253947
100
AcDbArc
 50
0.0
 51
180.0
  0
ARC
  5
132
330
1F
100
AcDbEntity
  8
0-1_ピット
  6
JWW_DASHED1
 62
     2
370
     9
100
AcDbCircle
 10
-14.78665148620442
 20
323.2948192614104
 30
0.0
 40
12.99999902423284
100
AcDbArc
 50
150.0002288818359
 51
157.3118591308594
  0
ARC
  5
133
330
1F
100
AcDbEntity
  8
0-1_ピット
  6
Continuous
 62
     2
370
     9
100
AcDbCircle
 10
36.581845618514
 20
285.663510724218
 30
0.0
 40
1.999999976066088
100
AcDbArc
 50
325.3414306640625
 51
7.22616577148438
  0
ARC
  5
134
330
1F
100
AcDbEntity
  8
0-1_ピット
  6
Continuous
 62
     2
370
     9
100
AcDbCircle
 10
37.0801052917615
 20
284.6634918716601
 30
0.0
 40
1.999999976066088
100
AcDbArc
 50
310.0890045166016
 51
6.470062255859379
  0
ARC
  5
135
330
1F
100
AcDbEntity
  8
0-1_ピット
  6
Continuous
 62
     2
370
     9
100
AcDbCircle
 10
-46.28668542080864
 20
355.4386923214821
 30
0.0
 40
1.999999976066088
100
AcDbArc
 50
36.49266052246094
 51
92.87048339843751
  0
ARC
  5
136
330
1F
100
AcDbEntity
  8
0-1_ピット
  6
Continuous
 62
     2
370
     9
100
AcDbCircle
 10
-48.28663563827287
 20
354.936723171808
 30
0.0
 40
1.999999976066088
100
AcDbArc
 50
52.44320678710938
 51
94.32849121093749
  0
ARC
  5
137
330
1F
100
AcDbEntity
  8
0-1_ピット
  6
Continuous
 62
     2
370
     9
100
AcDbCircle
 10
-38.28670957564846
 20
355.4386923214821
 30
0.0
 40
1.999999976066088
100
AcDbArc
 50
87.1295166015625
 51
143.5073394775391
  0
ARC
  5
138
330
1F
100
AcDbEntity
  8
0-1_ピット
  6
Continuous
 62
     2
370
     9
100
AcDbCircle
 10
-36.2866718705326
 20
354.936723171808
 30
0.0
 40
1.999999976066088
100
AcDbArc
 50
85.67150878906249
 51
127.5567932128906
  0
ARC
  5
139
330
1F
100
AcDbEntity
  8
0-1_ピット
  6
Continuous
 62
     2
370
     9
100
AcDbCircle
 10
-121.1552406149711
 20
285.6635107242181
 30
0.0
 40
1.999999976066088
100
AcDbArc
 50
172.7738342285157
 51
214.657958984375
  0
ARC
  5
13A
330
1F
100
AcDbEntity
  8
0-1_ピット
  6
Continuous
 62
     2
370
     9
100
AcDbCircle
 10
-121.6535002882186
 20
284.6634918716601
 30
0.0
 40
1.999999976066088
100
AcDbArc
 50
173.5299377441407
 51
229.9101715087891
  0
ELLIPSE
  5
13B
330
1F
100
AcDbEntity
  8
0-A
  6
Continuous
 62
     4
370
     9
100
AcDbEllipse
 10
-42.28673249328917
 20
332.4051008927033
 30
0.0
 11
-2.999871466549607
 21
-1.917393831719695E-5
 31
0.0
210
0.0
220
0.0
230
1.0
 40
0.0642
 41
0.0
 42
3.141592653589791
  0
ARC
  5
13C
330
1F
100
AcDbEntity
  8
0-1_ピット
  6
JWW_DASHED1
 62
     4
370
     9
100
AcDbCircle
 10
-97.28666703956468
 20
275.6690613885822
 30
0.0
 40
6.500000605712065
100
AcDbArc
 50
359.9509277343751
 51
125.3518218994141
  0
ARC
  5
13D
330
1F
100
AcDbEntity
  8
0-1_ピット
  6
Continuous
 62
     2
370
     9
100
AcDbCircle
 10
-42.28669749822856
 20
275.6634621788814
 30
0.0
 40
68.45046107465234
100
AcDbArc
 50
49.90335083007815
 51
54.97129821777346
  0
ARC
  5
13E
330
1F
100
AcDbEntity
  8
0-1_ピット
  6
Continuous
 62
     2
370
     9
100
AcDbCircle
 10
-42.28669749822856
 20
275.6634621788814
 30
0.0
 40
68.45046107465234
100
AcDbArc
 50
65.02868652343749
 51
70.09652709960938
  0
ARC
  5
13F
330
1F
100
AcDbEntity
  8
0-1_ピット
  6
JWW_DASHED1
 62
     4
370
     9
100
AcDbCircle
 10
-14.78190965548905
 20
323.2920896466812
 30
0.0
 40
6.500000605712065
100
AcDbArc
 50
114.6367950439453
 51
5.351593017578123
  0
ARC
  5
140
330
1F
100
AcDbEntity
  8
0-A
  6
Continuous
 62
     4
370
     9
100
AcDbCircle
 10
32.11318634644898
 20
277.2635938286499
 30
0.0
 40
0.9999999880330441
100
AcDbArc
 50
270.0
 51
0.0
  0
ARC
  5
141
330
1F
100
AcDbEntity
  8
0-A
  6
Continuous
 62
     4
370
     9
100
AcDbCircle
 10
35.31341465092534
 20
277.2635938286499
 30
0.0
 40
0.9999999880330441
100
AcDbArc
 50
180.0
 51
270.0
  0
ARC
  5
142
330
1F
100
AcDbEntity
  8
0-A
  6
Continuous
 62
     4
370
     9
100
AcDbCircle
 10
33.71330049868717
 20
275.6634621788814
 30
0.0
 40
5.000000213564133
100
AcDbArc
 50
0.0
 51
180.0
  0
ARC
  5
143
330
1F
100
AcDbEntity
  8
0-1_ピット
  6
Continuous
 62
     2
370
     9
100
AcDbCircle
 10
-42.28669749822856
 20
275.6634621788814
 30
0.0
 40
81.87545870629977
100
AcDbArc
 50
0.0
 51
6.469604492187501
  0
ARC
  5
144
330
1F
100
AcDbEntity
  8
0-0_通り芯
  6
JWW_DASHED1
 62
     3
370
     9
100
AcDbCircle
 10
-42.28669749822856
 20
275.6634621788814
 30
0.0
 40
51.66663752375422
100
AcDbArc
 50
73.53694152832033
 51
166.4629974365234
  0
ARC
  5
145
330
1F
100
AcDbEntity
  8
0-0_通り芯
  6
JWW_DASHED1
 62
     3
370
     9
100
AcDbCircle
 10
-42.28669749822856
 20
275.6634621788814
 30
0.0
 40
52.49993990747164
100
AcDbArc
 50
0.0
 51
46.36517333984375
  0
ARC
  5
146
330
1F
100
AcDbEntity
  8
0-0_通り芯
  6
JWW_DASHED1
 62
     3
370
     9
100
AcDbCircle
 10
-42.28669749822856
 20
275.6634621788814
 30
0.0
 40
52.49993990747164
100
AcDbArc
 50
73.63468933105472
 51
166.3652496337891
  0
ELLIPSE
  5
147
330
1F
100
AcDbEntity
  8
0-A
  6
Continuous
 62
     4
370
     9
100
AcDbEllipse
 10
-42.28673249328916
 20
344.3558441076677
 30
0.0
 11
-5.000006775138001
 21
6.123242292887832E-16
 31
0.0
210
0.0
220
0.0
230
1.0
 40
0.0905
 41
0.0
 42
3.141592653589792
  0
ARC
  5
148
330
1F
100
AcDbEntity
  8
0-A
  6
Continuous
 62
     4
370
     9
100
AcDbCircle
 10
-42.28673249328916
 20
343.4163142174085
 30
0.0
 40
5.087512471040704
100
AcDbArc
 50
10.64210510253906
 51
169.357894897461
  0
ARC
  5
149
330
1F
100
AcDbEntity
  8
0-A
  6
Continuous
 62
     4
370
     9
100
AcDbCircle
 10
-116.6865813429061
 20
277.26359382865
 30
0.0
 40
0.9999999880330441
100
AcDbArc
 50
180.0
 51
270.0
  0
ARC
  5
14A
330
1F
100
AcDbEntity
  8
0-A
  6
Continuous
 62
     4
370
     9
100
AcDbCircle
 10
-119.8868096473824
 20
277.26359382865
 30
0.0
 40
0.9999999880330441
100
AcDbArc
 50
270.0
 51
0.0
  0
ARC
  5
14B
330
1F
100
AcDbEntity
  8
0-A
  6
Continuous
 62
     4
370
     9
100
AcDbCircle
 10
-118.2866954951443
 20
275.6634621788814
 30
0.0
 40
5.000000213564133
100
AcDbArc
 50
0.0
 51
180.0
  0
ELLIPSE
  5
14C
330
1F
100
AcDbEntity
  8
0-A
  6
Continuous
 62
     4
370
     9
100
AcDbEllipse
 10
-42.28673249328916
 20
340.4018921873462
 30
0.0
 11
-2.999871466487905
 21
-2.716307928146824E-5
 31
0.0
210
0.0
220
0.0
230
1.0
 40
0.0904
 41
0.0
 42
3.141592653589792
  0
ARC
  5
14D
330
1F
100
AcDbEntity
  8
0-2_本体（蓋）
  6
Continuous
 62
     6
370
     5
100
AcDbCircle
 10
37.55691299284287
 20
280.6634864515497
 30
0.0
 40
0.9999999880330441
100
AcDbArc
 50
270.0
 51
3.58358764648437
  0
ARC
  5
14E
330
1F
100
AcDbEntity
  8
0-2_本体（蓋）
  6
Continuous
 62
     6
370
     5
100
AcDbCircle
 10
36.48515426599382
 20
281.6634878065773
 30
0.0
 40
0.9999999880330441
100
AcDbArc
 50
270.0
 51
4.355911254882818
  0
ARC
  5
14F
330
1F
100
AcDbEntity
  8
0-2_本体（蓋）
  6
Continuous
 62
     6
370
     5
100
AcDbCircle
 10
-42.28669749822856
 20
275.6634796764117
 30
0.0
 40
80.00000341702612
100
AcDbArc
 50
4.355773925781251
 51
7.180755615234378
  0
ARC
  5
150
330
1F
100
AcDbEntity
  8
0-2_本体（蓋）
  6
Continuous
 62
     6
370
     5
100
AcDbCircle
 10
-42.28669749822856
 20
275.6634796764117
 30
0.0
 40
80.9999872745234
100
AcDbArc
 50
3.583328247070307
 51
176.4166717529297
  0
ARC
  5
151
330
1F
100
AcDbEntity
  8
0-2_本体（蓋）
  6
Continuous
 62
     6
370
     5
100
AcDbCircle
 10
-42.28739739944118
 20
275.6631822183964
 30
0.0
 40
58.00000422709697
100
AcDbArc
 50
7.570297241210942
 51
22.42974853515625
  0
ARC
  5
152
330
1F
100
AcDbEntity
  8
0-2_本体（蓋）
  6
Continuous
 62
     6
370
     5
100
AcDbCircle
 10
19.65511973753397
 20
305.6575011768114
 30
0.0
 40
0.9999999880330441
100
AcDbArc
 50
205.8378143310547
 51
289.9993743896484
  0
ARC
  5
153
330
1F
100
AcDbEntity
  8
0-2_本体（蓋）
  6
Continuous
 62
     6
370
     5
100
AcDbCircle
 10
14.65992478323258
 20
314.3094350015052
 30
0.0
 40
0.9999999880330441
100
AcDbArc
 50
129.9986267089844
 51
214.1616516113281
  0
ARC
  5
154
330
1F
100
AcDbEntity
  8
0-2_本体（蓋）
  6
Continuous
 62
     6
370
     5
100
AcDbCircle
 10
-42.28669749822856
 20
275.6634621788814
 30
0.0
 40
67.82175293852464
100
AcDbArc
 50
25.83760070800781
 51
34.16218566894531
  0
ARC
  5
155
330
1F
100
AcDbEntity
  8
0-2_本体（蓋）
  6
Continuous
 62
     6
370
     5
100
AcDbCircle
 10
5.660455011423974
 20
325.0334613611518
 30
0.0
 40
0.9999999880330441
100
AcDbArc
 50
225.8378143310547
 51
309.9993743896484
  0
ARC
  5
156
330
1F
100
AcDbEntity
  8
0-2_本体（蓋）
  6
Continuous
 62
     6
370
     5
100
AcDbCircle
 10
-1.99261479771277
 20
331.455177469437
 30
0.0
 40
0.9999999880330441
100
AcDbArc
 50
149.9986267089844
 51
234.1616516113282
  0
ARC
  5
157
330
1F
100
AcDbEntity
  8
0-2_本体（蓋）
  6
Continuous
 62
     6
370
     5
100
AcDbCircle
 10
-42.28725741919865
 20
275.6629197554416
 30
0.0
 40
67.82175293852464
100
AcDbArc
 50
45.83760070800783
 51
54.16218566894533
  0
ARC
  5
158
330
1F
100
AcDbEntity
  8
0-2_本体（蓋）
  6
Continuous
 62
     6
370
     5
100
AcDbCircle
 10
-14.11735345412867
 20
338.4546445311904
 30
0.0
 40
0.9999999880330441
100
AcDbArc
 50
245.8378143310546
 51
329.9993743896484
  0
ARC
  5
159
330
1F
100
AcDbEntity
  8
0-2_本体（蓋）
  6
Continuous
 62
     6
370
     5
100
AcDbCircle
 10
-23.50523340386771
 20
341.8715622510867
 30
0.0
 40
0.9999999880330441
100
AcDbArc
 50
169.9986267089844
 51
254.1616516113281
  0
ARC
  5
15A
330
1F
100
AcDbEntity
  8
0-2_本体（蓋）
  6
Continuous
 62
     6
370
     5
100
AcDbCircle
 10
-42.28774735004745
 20
275.6624123270626
 30
0.0
 40
67.82175293852464
100
AcDbArc
 50
65.83760070800783
 51
74.16218566894534
  0
ARC
  5
15B
330
1F
100
AcDbEntity
  8
0-2_本体（蓋）
  6
Continuous
 62
     6
370
     5
100
AcDbCircle
 10
-37.29286735129173
 20
344.3021966797222
 30
0.0
 40
0.9999999880330441
100
AcDbArc
 50
265.8378143310547
 51
349.9993743896485
  0
ARC
  5
15C
330
1F
100
AcDbEntity
  8
0-2_本体（蓋）
  6
Continuous
 62
     6
370
     5
100
AcDbCircle
 10
24.44132418975406
 20
292.5029803687719
 30
0.0
 40
0.9999999880330441
100
AcDbArc
 50
109.9993591308594
 51
194.1644287109376
  0
ARC
  5
15D
330
1F
100
AcDbEntity
  8
0-2_本体（蓋）
  6
Continuous
 62
     6
370
     5
100
AcDbCircle
 10
26.06698473625201
 20
283.6617232660707
 30
0.0
 40
0.9999999880330441
100
AcDbArc
 50
186.6748657226563
 51
270.0
  0
ARC
  5
15E
330
1F
100
AcDbEntity
  8
0-2_本体（蓋）
  6
Continuous
 62
     6
370
     5
100
AcDbCircle
 10
-42.28823728089626
 20
275.661659933259
 30
0.0
 40
67.82175293852464
100
AcDbArc
 50
6.675338745117202
 51
14.16461181640627
  0
ARC
  5
15F
330
1F
100
AcDbEntity
  8
0-2_本体（蓋）
  6
Continuous
 62
     6
370
     5
100
AcDbCircle
 10
-42.28669749822856
 20
275.6634796764117
 30
0.0
 40
69.90731857181976
100
AcDbArc
 50
0.0
 51
8.224166870117188
  0
ARC
  5
160
330
1F
100
AcDbEntity
  8
0-2_本体（蓋）
  6
Continuous
 62
     6
370
     5
100
AcDbCircle
 10
-42.28669749822856
 20
275.6634796764117
 30
0.0
 40
64.02143808313318
100
AcDbArc
 50
0.0
 51
88.65806579589844
  0
ARC
  5
161
330
1F
100
AcDbEntity
  8
0-2_本体（蓋）
  6
Continuous
 62
     6
370
     5
100
AcDbCircle
 10
-42.28669749822856
 20
275.6634796764117
 30
0.0
 40
59.00000120774199
100
AcDbArc
 50
0.0
 51
6.716629028320313
  0
ARC
  5
162
330
1F
100
AcDbEntity
  8
0-2_本体（蓋）
  6
Continuous
 62
     6
370
     5
100
AcDbCircle
 10
-122.1303079893
 20
280.6634864515498
 30
0.0
 40
0.9999999880330441
100
AcDbArc
 50
176.4164123535157
 51
270.0
  0
ARC
  5
163
330
1F
100
AcDbEntity
  8
0-2_本体（蓋）
  6
Continuous
 62
     6
370
     5
100
AcDbCircle
 10
-121.0585492624509
 20
281.6634878065773
 30
0.0
 40
0.9999999880330441
100
AcDbArc
 50
175.6440887451172
 51
270.0
  0
ARC
  5
164
330
1F
100
AcDbEntity
  8
0-2_本体（蓋）
  6
Continuous
 62
     6
370
     5
100
AcDbCircle
 10
-42.28669749822856
 20
275.6634796764117
 30
0.0
 40
80.00000341702612
100
AcDbArc
 50
172.8192443847656
 51
175.6442260742188
  0
ARC
  5
165
330
1F
100
AcDbEntity
  8
0-2_本体（蓋）
  6
Continuous
 62
     6
370
     5
100
AcDbCircle
 10
-104.2285147339911
 20
305.6575011768115
 30
0.0
 40
0.9999999880330441
100
AcDbArc
 50
250.0006256103515
 51
334.1621856689453
  0
ARC
  5
166
330
1F
100
AcDbEntity
  8
0-2_本体（蓋）
  6
Continuous
 62
     6
370
     5
100
AcDbCircle
 10
-99.23331977968971
 20
314.3094350015052
 30
0.0
 40
0.9999999880330441
100
AcDbArc
 50
325.8383483886719
 51
50.00137329101562
  0
ARC
  5
167
330
1F
100
AcDbEntity
  8
0-2_本体（蓋）
  6
Continuous
 62
     6
370
     5
100
AcDbCircle
 10
-42.28669749822856
 20
275.6634621788814
 30
0.0
 40
67.82175293852464
100
AcDbArc
 50
145.8378143310547
 51
154.1623992919922
  0
ARC
  5
168
330
1F
100
AcDbEntity
  8
0-2_本体（蓋）
  6
Continuous
 62
     6
370
     5
100
AcDbCircle
 10
-90.23385000788107
 20
325.0334613611518
 30
0.0
 40
0.9999999880330441
100
AcDbArc
 50
230.0014190673829
 51
314.1629791259766
  0
ARC
  5
169
330
1F
100
AcDbEntity
  8
0-2_本体（蓋）
  6
Continuous
 62
     6
370
     5
100
AcDbCircle
 10
-82.58078019874435
 20
331.455177469437
 30
0.0
 40
0.9999999880330441
100
AcDbArc
 50
305.8391418457031
 51
30.00216674804688
  0
ARC
  5
16A
330
1F
100
AcDbEntity
  8
0-2_本体（蓋）
  6
Continuous
 62
     6
370
     5
100
AcDbCircle
 10
-42.28613757725847
 20
275.6629197554416
 30
0.0
 40
67.82175293852464
100
AcDbArc
 50
125.8378143310547
 51
134.1623992919922
  0
ARC
  5
16B
330
1F
100
AcDbEntity
  8
0-2_本体（蓋）
  6
Continuous
 62
     6
370
     5
100
AcDbCircle
 10
-70.45604154232844
 20
338.4546445311904
 30
0.0
 40
0.9999999880330441
100
AcDbArc
 50
210.0004577636719
 51
294.1620178222656
  0
ARC
  5
16C
330
1F
100
AcDbEntity
  8
0-2_本体（蓋）
  6
Continuous
 62
     6
370
     5
100
AcDbCircle
 10
-61.06816159258936
 20
341.8715622510867
 30
0.0
 40
0.9999999880330441
100
AcDbArc
 50
285.8381805419922
 51
10.00120544433594
  0
ARC
  5
16D
330
1F
100
AcDbEntity
  8
0-2_本体（蓋）
  6
Continuous
 62
     6
370
     5
100
AcDbCircle
 10
-42.28564764640968
 20
275.6624123270626
 30
0.0
 40
67.82175293852464
100
AcDbArc
 50
105.8378143310547
 51
114.1623992919922
  0
ARC
  5
16E
330
1F
100
AcDbEntity
  8
0-2_本体（蓋）
  6
Continuous
 62
     6
370
     5
100
AcDbCircle
 10
-109.0147191862112
 20
292.5029803687719
 30
0.0
 40
0.9999999880330441
100
AcDbArc
 50
345.8347930908204
 51
69.99986267089845
  0
ARC
  5
16F
330
1F
100
AcDbEntity
  8
0-2_本体（蓋）
  6
Continuous
 62
     6
370
     5
100
AcDbCircle
 10
-110.6403797327091
 20
283.6617232660707
 30
0.0
 40
0.9999999880330441
100
AcDbArc
 50
270.0
 51
353.3251342773437
  0
ARC
  5
170
330
1F
100
AcDbEntity
  8
0-2_本体（蓋）
  6
Continuous
 62
     6
370
     5
100
AcDbCircle
 10
-42.28515771556081
 20
275.661659933259
 30
0.0
 40
67.82175293852464
100
AcDbArc
 50
165.8353881835938
 51
173.3246612548829
  0
ARC
  5
171
330
1F
100
AcDbEntity
  8
0-2_本体（蓋）
  6
Continuous
 62
     6
370
     5
100
AcDbCircle
 10
-42.28669749822856
 20
275.6634796764117
 30
0.0
 40
69.90731857181976
100
AcDbArc
 50
171.7758331298828
 51
180.0
  0
ARC
  5
172
330
1F
100
AcDbEntity
  8
0-2_本体（蓋）
  6
Continuous
 62
     6
370
     5
100
AcDbCircle
 10
-42.28641753774352
 20
275.6627622776688
 30
0.0
 40
58.00000422709697
100
AcDbArc
 50
97.57029724121094
 51
112.4297485351563
  0
ARC
  5
173
330
1F
100
AcDbEntity
  8
0-2_本体（蓋）
  6
Continuous
 62
     6
370
     5
100
AcDbCircle
 10
-42.28669749822856
 20
275.6634796764117
 30
0.0
 40
59.00000120774199
100
AcDbArc
 50
23.28321838378907
 51
96.71665954589845
  0
ARC
  5
174
330
1F
100
AcDbEntity
  8
0-2_本体（蓋）
  6
Continuous
 62
     6
370
     5
100
AcDbCircle
 10
-42.28669749822856
 20
275.6634796764117
 30
0.0
 40
59.00000120774199
100
AcDbArc
 50
113.2832489013672
 51
180.0
  0
ARC
  5
175
330
1F
100
AcDbEntity
  8
0-2_本体（蓋）
  6
Continuous
 62
     6
370
     5
100
AcDbCircle
 10
-47.28052764516539
 20
344.3021966797222
 30
0.0
 40
0.9999999880330441
100
AcDbArc
 50
190.000732421875
 51
274.1622924804688
  0
ARC
  5
176
330
1F
100
AcDbEntity
  8
0-2_本体（蓋）
  6
Continuous
 62
     6
370
     5
100
AcDbCircle
 10
-42.28669749822856
 20
275.6634796764117
 30
0.0
 40
64.02143808313318
100
AcDbArc
 50
91.34193420410156
 51
180.0
  0
ARC
  5
177
330
1F
100
AcDbEntity
  8
0-2_本体（蓋）
  6
Continuous
 62
     6
370
     5
100
AcDbCircle
 10
-42.28669749822856
 20
339.6224646994684
 30
0.0
 40
1.499999982049566
100
AcDbArc
 50
181.8018493652344
 51
1.716171264648479
  0
ARC
  5
178
330
1F
100
AcDbEntity
  8
0-2_本体（蓋）
  6
Continuous
 62
     6
370
     5
100
AcDbCircle
 10
-42.28669749822856
 20
340.3273002156137
 30
0.0
 40
1.499999982049566
100
AcDbArc
 50
186.1500549316406
 51
353.851333618164
  0
ARC
  5
179
330
1F
100
AcDbEntity
  8
0-2_本体（蓋）
  6
Continuous
 62
     6
370
     5
100
AcDbCircle
 10
-42.28669749822856
 20
275.6634796764117
 30
0.0
 40
70.00000736428044
100
AcDbArc
 50
9.041091918945321
 51
86.20193481445315
  0
ARC
  5
17A
330
1F
100
AcDbEntity
  8
0-2_本体（蓋）
  6
Continuous
 62
     6
370
     5
100
AcDbCircle
 10
-42.28669749822856
 20
275.6634796764117
 30
0.0
 40
70.00000736428044
100
AcDbArc
 50
93.79812622070317
 51
170.9589233398438
  0
ARC
  5
17B
330
1F
100
AcDbEntity
  8
0-2_本体（蓋）
  6
Continuous
 62
     6
370
     5
100
AcDbCircle
 10
-42.28820228583564
 20
275.6619573912744
 30
0.0
 40
67.82175293852464
100
AcDbArc
 50
85.83760070800781
 51
87.46351623535156
  0
ARC
  5
17C
330
1F
100
AcDbEntity
  8
0-2_本体（蓋）
  6
Continuous
 62
     6
370
     5
100
AcDbCircle
 10
-42.28820228583564
 20
275.6619573912744
 30
0.0
 40
67.82175293852464
100
AcDbArc
 50
92.53399658203125
 51
94.16218566894531
  0
ARC
  5
17D
330
1F
100
AcDbEntity
  8
0-0_通り芯
  6
JWW_DASHED1
 62
     3
370
     9
100
AcDbCircle
 10
-42.28669749822856
 20
275.6634621788814
 30
0.0
 40
51.66663752375422
100
AcDbArc
 50
0.0
 51
46.46293640136719
  0
ARC
  5
17E
330
1F
100
AcDbEntity
  8
0-1_ピット
  6
Continuous
 62
     2
370
     9
100
AcDbCircle
 10
-42.28669749822856
 20
275.6634621788814
 30
0.0
 40
68.45046107465234
100
AcDbArc
 50
169.9033508300782
 51
174.1016998291016
  0
ARC
  5
17F
330
1F
100
AcDbEntity
  8
0-1_ピット
  6
Continuous
 62
     2
370
     9
100
AcDbCircle
 10
-97.28666703956468
 20
275.6634621788814
 30
0.0
 40
11.99999985639653
100
AcDbArc
 50
0.0
 51
42.40484619140625
  0
ARC
  5
180
330
1F
100
AcDbEntity
  8
0-1_ピット
  6
JWW_DASHED1
 62
     2
370
     9
100
AcDbCircle
 10
-97.28666703956468
 20
275.6634621788814
 30
0.0
 40
11.99999985639653
100
AcDbArc
 50
42.40484619140625
 51
89.99992370605469
  0
ARC
  5
181
330
1F
100
AcDbEntity
  8
0-1_ピット
  6
JWW_DASHED1
 62
     2
370
     9
100
AcDbCircle
 10
-97.28666703956468
 20
275.6634621788814
 30
0.0
 40
12.99999902423284
100
AcDbArc
 50
45.64669799804687
 51
74.49786376953125
  0
ARC
  5
182
330
1F
100
AcDbEntity
  8
0-1_ピット
  6
JWW_DASHED1
 62
     2
370
     9
100
AcDbCircle
 10
-14.78665148620442
 20
323.2948192614104
 30
0.0
 40
12.99999902423284
100
AcDbArc
 50
285.6465148925781
 51
314.4978637695312
  0
ARC
  5
183
330
1F
100
AcDbEntity
  8
0-1_ピット
  6
JWW_DASHED1
 62
     2
370
     9
100
AcDbCircle
 10
-14.78665148620442
 20
323.2948192614104
 30
0.0
 40
11.99999985639653
100
AcDbArc
 50
282.4046325683594
 51
329.9999237060547
  0
ARC
  5
184
330
1F
100
AcDbEntity
  8
0-1_ピット
  6
Continuous
 62
     2
370
     9
100
AcDbCircle
 10
-14.78665148620442
 20
323.2948192614104
 30
0.0
 40
11.99999985639653
100
AcDbArc
 50
197.59521484375
 51
282.4046325683594
  0
ARC
  5
185
330
1F
100
AcDbEntity
  8
0-1_ピット
  6
Continuous
 62
     2
370
     9
100
AcDbCircle
 10
-14.78665148620442
 20
323.2948192614104
 30
0.0
 40
12.99999902423284
100
AcDbArc
 50
194.3533935546875
 51
285.6465148925781
  0
ARC
  5
186
330
1F
100
AcDbEntity
  8
0-1_ピット
  6
JWW_DASHED1
 62
     2
370
     9
100
AcDbCircle
 10
-14.78665148620442
 20
323.2948192614104
 30
0.0
 40
11.99999985639653
100
AcDbArc
 50
149.9999694824219
 51
197.59521484375
  0
ARC
  5
187
330
1F
100
AcDbEntity
  8
0-1_ピット
  6
JWW_DASHED1
 62
     2
370
     9
100
AcDbCircle
 10
-14.78665148620442
 20
323.2948192614104
 30
0.0
 40
12.99999902423284
100
AcDbArc
 50
165.5021209716797
 51
194.3533935546875
  0
ARC
  5
188
330
1F
100
AcDbEntity
  8
0-0_通り芯
  6
Continuous
 62
     3
370
     9
100
AcDbCircle
 10
-42.28669749822856
 20
275.6634621788814
 30
0.0
 40
110.5000010015421
100
AcDbArc
 50
0.0001525878906262
 51
180.0
  0
LINE
  5
189
330
1F
100
AcDbEntity
  8
0-6
  6
JWW_DASHED1
 62
     2
370
     9
100
AcDbLine
 10
-54.78672318483869
 20
347.4071859266945
 30
0.0
 11
-54.78672318483871
 21
335.8798129552297
 31
0.0
  0
LINE
  5
18A
330
1F
100
AcDbEntity
  8
0-6
  6
JWW_DASHED1
 62
     2
370
     9
100
AcDbLine
 10
-29.78670680667899
 20
347.4071859266945
 30
0.0
 11
-29.786706806679
 21
335.8798129552297
 31
0.0
  0
ARC
  5
18B
330
1F
100
AcDbEntity
  8
0-6
  6
JWW_DASHED1
 62
     2
370
     9
100
AcDbCircle
 10
-51.78670162222558
 20
347.4071859266945
 30
0.0
 40
2.999999964099133
100
AcDbArc
 50
97.13363647460939
 51
180.0
  0
ARC
  5
18C
330
1F
100
AcDbEntity
  8
0-6
  6
JWW_DASHED1
 62
     2
370
     9
100
AcDbCircle
 10
-32.78669337423153
 20
347.4071859266945
 30
0.0
 40
2.999999964099133
100
AcDbArc
 50
0.0
 51
82.86636352539062
  0
ARC
  5
18D
330
1F
100
AcDbEntity
  8
0-6
  6
JWW_DASHED1
 62
     2
370
     9
100
AcDbCircle
 10
-42.28669749822856
 20
271.4993649194778
 30
0.0
 40
79.50000273951231
100
AcDbArc
 50
82.86640930175783
 51
97.1335906982422
  0
ARC
  5
18E
330
1F
100
AcDbEntity
  8
0-6
  6
JWW_DASHED1
 62
     2
370
     9
100
AcDbCircle
 10
-42.28669749822856
 20
275.6634621788814
 30
0.0
 40
61.50003959037162
100
AcDbArc
 50
0.0
 51
180.0
  0
ARC
  5
18F
330
1F
100
AcDbEntity
  8
0-6
  6
JWW_DASHED1
 62
     2
370
     9
100
AcDbCircle
 10
-42.28669749822856
 20
275.6634621788814
 30
0.0
 40
60.94347814611486
100
AcDbArc
 50
0.0
 51
180.0
  0
ARC
  5
190
330
1F
100
AcDbEntity
  8
0-6
  6
Continuous
 62
     2
370
     9
100
AcDbCircle
 10
-42.28669749822856
 20
275.6634621788814
 30
0.0
 40
46.84347828750904
100
AcDbArc
 50
0.0
 51
180.0
  0
LINE
  5
191
330
1F
100
AcDbEntity
  8
0-0_通り芯
  6
JWW_CENTER1
 62
     3
370
     9
100
AcDbLine
 10
-42.28669749822854
 20
393.7961133716827
 30
0.0
 11
-42.28669749822859
 21
275.5858452414481
 31
0.0
  0
ARC
  5
192
330
1F
100
AcDbEntity
  8
0-0_通り芯
  6
Continuous
 62
     3
370
     9
100
AcDbCircle
 10
-42.28669749822856
 20
275.6634621788814
 30
0.0
 40
89.80395714012352
100
AcDbArc
 50
180.0
 51
180.0495203510953
  0
ARC
  5
193
330
1F
100
AcDbEntity
  8
0-0_通り芯
  6
Continuous
 62
     3
370
     9
100
AcDbCircle
 10
-42.28669749822856
 20
275.6634621788814
 30
0.0
 40
90.47621225482249
100
AcDbArc
 50
180.0
 51
180.0491524055694
  0
ARC
  5
194
330
1F
100
AcDbEntity
  8
0-1_ピット
  6
Continuous
 62
     2
370
     9
100
AcDbCircle
 10
-97.28666703956468
 20
275.6634621788814
 30
0.0
 40
12.99999902423284
100
AcDbArc
 50
0.0
 51
45.64669799804687
  0
ARC
  5
195
330
1F
100
AcDbEntity
  8
0-0_通り芯
  6
Continuous
 62
     3
370
     9
100
AcDbCircle
 10
-42.28669749822856
 20
275.6634621788814
 30
0.0
 40
112.4999949628322
100
AcDbArc
 50
0.0001525878906262
 51
179.9999999999999
  0
LINE
  5
196
330
1F
100
AcDbEntity
  8
0-1_ピット
  6
Continuous
 62
     2
370
     9
100
AcDbLine
 10
-137.5286231434209
 20
-10.09258643495448
 30
0.0
 11
-137.0286312146723
 21
-8.092583724899285
 31
0.0
  0
LINE
  5
197
330
1F
100
AcDbEntity
  8
0-1_ピット
  6
Continuous
 62
     2
370
     9
100
AcDbLine
 10
-131.4696658336243
 20
-8.092583724899285
 30
0.0
 11
-137.0286312146723
 21
-8.092583724899285
 31
0.0
  0
LINE
  5
198
330
1F
100
AcDbEntity
  8
0-1_ピット
  6
Continuous
 62
     2
370
     9
100
AcDbLine
 10
-118.0285879716175
 20
-4.092648294910163
 30
0.0
 11
-121.02857453917
 21
-4.092648294910163
 31
0.0
  0
LINE
  5
199
330
1F
100
AcDbEntity
  8
0-1_ピット
  6
Continuous
 62
     2
370
     9
100
AcDbLine
 10
-121.5216199483836
 20
-7.311843922247832
 30
0.0
 11
-121.02857453917
 21
-4.092648294910163
 31
0.0
  0
LINE
  5
19A
330
1F
100
AcDbEntity
  8
0-1_ピット
  6
Continuous
 62
     2
370
     9
100
AcDbLine
 10
67.47133968169145
 20
-10.09258643495452
 30
0.0
 11
66.9713302554125
 21
-8.092583724899328
 31
0.0
  0
LINE
  5
19B
330
1F
100
AcDbEntity
  8
0-1_ピット
  6
Continuous
 62
     2
370
     9
100
AcDbLine
 10
61.41239986942524
 20
-8.092583724899328
 30
0.0
 11
66.9713302554125
 21
-8.092583724899328
 31
0.0
  0
LINE
  5
19C
330
1F
100
AcDbEntity
  8
0-1_ピット
  6
Continuous
 62
     2
370
     9
100
AcDbLine
 10
-96.02866314619224
 20
-15.59262013390178
 30
0.0
 11
-95.02867928869496
 21
-20.59260941150947
 31
0.0
  0
LINE
  5
19D
330
1F
100
AcDbEntity
  8
0-1_ピット
  6
Continuous
 62
     2
370
     9
100
AcDbLine
 10
-84.0286118908004
 20
-15.5926201339018
 30
0.0
 11
-85.0286307433583
 21
-20.59260941150949
 31
0.0
  0
LINE
  5
19E
330
1F
100
AcDbEntity
  8
0-1_ピット
  6
Continuous
 62
     2
370
     9
100
AcDbLine
 10
-125.2635367963491
 20
-9.755584001089254
 30
0.0
 11
-131.4696658336243
 21
-8.092583724899285
 31
0.0
  0
LINE
  5
19F
330
1F
100
AcDbEntity
  8
0-1_ピット
  6
Continuous
 62
     2
370
     9
100
AcDbLine
 10
55.20630582721058
 20
-9.755479015907383
 30
0.0
 11
61.41239986942524
 21
-8.092583724899328
 31
0.0
  0
LINE
  5
1A0
330
1F
100
AcDbEntity
  8
0-1_ピット
  6
Continuous
 62
     2
370
     9
100
AcDbLine
 10
47.97135700247905
 20
-4.092648294910205
 30
0.0
 11
50.97137856509214
 21
-4.092648294910205
 31
0.0
  0
LINE
  5
1A1
330
1F
100
AcDbEntity
  8
0-1_ピット
  6
Continuous
 62
     4
370
     9
100
AcDbLine
 10
-86.02864959591624
 20
-26.77252714837299
 30
0.0
 11
-94.02862544107641
 21
-26.77252714837299
 31
0.0
  0
LINE
  5
1A2
330
1F
100
AcDbEntity
  8
0-1_ピット
  6
Continuous
 62
     4
370
     9
100
AcDbLine
 10
-94.02862544107641
 20
-26.77252714837299
 30
0.0
 11
-93.35215342157154
 21
-27.44898167034756
 31
0.0
  0
LINE
  5
1A3
330
1F
100
AcDbEntity
  8
0-1_ピット
  6
Continuous
 62
     4
370
     9
100
AcDbLine
 10
-93.35215342157154
 20
-27.44898167034756
 30
0.0
 11
-86.70510411789077
 21
-27.44898167034756
 31
0.0
  0
LINE
  5
1A4
330
1F
100
AcDbEntity
  8
0-1_ピット
  6
Continuous
 62
     4
370
     9
100
AcDbLine
 10
-86.70510411789077
 20
-27.44898167034756
 30
0.0
 11
-86.02864959591624
 21
-26.77252714837299
 31
0.0
  0
LINE
  5
1A5
330
1F
100
AcDbEntity
  8
0-1_ピット
  6
Continuous
 62
     4
370
     9
100
AcDbLine
 10
-97.52865642996846
 20
-9.814340707886771
 30
0.0
 11
-97.52865642996846
 21
-15.59262013390178
 31
0.0
  0
LINE
  5
1A6
330
1F
100
AcDbEntity
  8
0-1_ピット
  6
Continuous
 62
     4
370
     9
100
AcDbLine
 10
-82.52861860702417
 20
-9.814340707886792
 30
0.0
 11
-82.52861860702417
 21
-15.5926201339018
 31
0.0
  0
LINE
  5
1A7
330
1F
100
AcDbEntity
  8
0-1_ピット
  6
Continuous
 62
     4
370
     9
100
AcDbLine
 10
-97.52865642996846
 20
-15.59262013390178
 30
0.0
 11
-82.52861860702417
 21
-15.5926201339018
 31
0.0
  0
LINE
  5
1A8
330
1F
100
AcDbEntity
  8
0-1_ピット
  6
Continuous
 62
     4
370
     9
100
AcDbLine
 10
-93.77587361567747
 20
-9.814340707886792
 30
0.0
 11
-93.77587361567747
 21
-15.5926201339018
 31
0.0
  0
LINE
  5
1A9
330
1F
100
AcDbEntity
  8
0-1_ピット
  6
Continuous
 62
     4
370
     9
100
AcDbLine
 10
-86.28141891884546
 20
-9.814340707886792
 30
0.0
 11
-86.28141891884546
 21
-15.5926201339018
 31
0.0
  0
LINE
  5
1AA
330
1F
100
AcDbEntity
  8
0-1_ピット
  6
Continuous
 62
     4
370
     9
100
AcDbLine
 10
-95.6522212789972
 20
-9.092602577457185
 30
0.0
 11
-84.40505375799545
 21
-9.092602577457207
 31
0.0
  0
LINE
  5
1AB
330
1F
100
AcDbEntity
  8
0-1_ピット
  6
Continuous
 62
     4
370
     9
100
AcDbLine
 10
-93.35215342157154
 20
-15.5926201339018
 30
0.0
 11
-93.35215342157154
 21
-27.44898167034756
 31
0.0
  0
LINE
  5
1AC
330
1F
100
AcDbEntity
  8
0-1_ピット
  6
Continuous
 62
     4
370
     9
100
AcDbLine
 10
-94.02862544107641
 20
-15.5926201339018
 30
0.0
 11
-94.02862544107641
 21
-26.77252714837299
 31
0.0
  0
LINE
  5
1AD
330
1F
100
AcDbEntity
  8
0-1_ピット
  6
Continuous
 62
     4
370
     9
100
AcDbLine
 10
-86.70510411789077
 20
-15.5926201339018
 30
0.0
 11
-86.70510411789077
 21
-27.44898167034756
 31
0.0
  0
LINE
  5
1AE
330
1F
100
AcDbEntity
  8
0-1_ピット
  6
Continuous
 62
     4
370
     9
100
AcDbLine
 10
-86.02864959591624
 20
-15.5926201339018
 30
0.0
 11
-86.02864959591624
 21
-26.77252714837299
 31
0.0
  0
LINE
  5
1AF
330
1F
100
AcDbEntity
  8
0-1_ピット
  6
Continuous
 62
     4
370
     9
100
AcDbLine
 10
-86.02864959591624
 20
1.874429483202739
 30
0.0
 11
-94.02862544107641
 21
1.874429483202739
 31
0.0
  0
LINE
  5
1B0
330
1F
100
AcDbEntity
  8
0-1_ピット
  6
Continuous
 62
     4
370
     9
100
AcDbLine
 10
-94.02862544107641
 20
1.874429483202739
 30
0.0
 11
-93.35215342157154
 21
2.550988990359222
 31
0.0
  0
LINE
  5
1B1
330
1F
100
AcDbEntity
  8
0-1_ピット
  6
Continuous
 62
     4
370
     9
100
AcDbLine
 10
-93.35215342157154
 20
2.550988990359222
 30
0.0
 11
-86.70510411789077
 21
2.550988990359222
 31
0.0
  0
LINE
  5
1B2
330
1F
100
AcDbEntity
  8
0-1_ピット
  6
Continuous
 62
     4
370
     9
100
AcDbLine
 10
-86.70510411789077
 20
2.550988990359222
 30
0.0
 11
-86.02864959591624
 21
1.874429483202739
 31
0.0
  0
LINE
  5
1B3
330
1F
100
AcDbEntity
  8
0-1_ピット
  6
Continuous
 62
     4
370
     9
100
AcDbLine
 10
-93.35215342157154
 20
-9.092602577457207
 30
0.0
 11
-93.35215342157154
 21
2.550988990359222
 31
0.0
  0
LINE
  5
1B4
330
1F
100
AcDbEntity
  8
0-1_ピット
  6
Continuous
 62
     4
370
     9
100
AcDbLine
 10
-94.02862544107641
 20
-9.092602577457207
 30
0.0
 11
-94.02862544107641
 21
1.874429483202739
 31
0.0
  0
LINE
  5
1B5
330
1F
100
AcDbEntity
  8
0-1_ピット
  6
Continuous
 62
     4
370
     9
100
AcDbLine
 10
-86.70510411789077
 20
-9.092602577457207
 30
0.0
 11
-86.70510411789077
 21
2.550988990359222
 31
0.0
  0
LINE
  5
1B6
330
1F
100
AcDbEntity
  8
0-1_ピット
  6
Continuous
 62
     4
370
     9
100
AcDbLine
 10
-86.02864959591624
 20
-9.092602577457207
 30
0.0
 11
-86.02864959591624
 21
1.874429483202739
 31
0.0
  0
LINE
  5
1B7
330
1F
100
AcDbEntity
  8
0-1_ピット
  6
Continuous
 62
     2
370
     9
100
AcDbLine
 10
-94.02862544107641
 20
-20.59260941150949
 30
0.0
 11
-98.3417666637025
 21
-20.59260941150947
 31
0.0
  0
LINE
  5
1B8
330
1F
100
AcDbEntity
  8
0-1_ピット
  6
Continuous
 62
     2
370
     9
100
AcDbLine
 10
46.97130315486047
 20
-16.10316307343034
 30
0.0
 11
48.97134085997634
 21
-15.56721371988456
 31
0.0
  0
LINE
  5
1B9
330
1F
100
AcDbEntity
  8
0-1_ピット
  6
Continuous
 62
     2
370
     9
100
AcDbLine
 10
46.97130315486047
 20
-16.10316307343034
 30
0.0
 11
45.97135429242381
 21
-15.85350831089717
 31
0.0
  0
LINE
  5
1BA
330
1F
100
AcDbEntity
  8
0-1_ピット
  6
Continuous
 62
     2
370
     9
100
AcDbLine
 10
28.2844657044427
 20
-20.59260941150951
 30
0.0
 11
45.97135429242381
 21
-15.85350831089717
 31
0.0
  0
LINE
  5
1BB
330
1F
100
AcDbEntity
  8
0-1_ピット
  6
Continuous
 62
     2
370
     9
100
AcDbLine
 10
48.97134085997634
 20
-15.56721371988456
 30
0.0
 11
49.97139470759484
 21
-14.7816096038056
 31
0.0
  0
LINE
  5
1BC
330
1F
100
AcDbEntity
  8
0-1_ピット
  6
Continuous
 62
     2
370
     9
100
AcDbLine
 10
49.97139470759484
 20
-14.7816096038056
 30
0.0
 11
67.47133968169145
 21
-10.09258643495452
 31
0.0
  0
LINE
  5
1BD
330
1F
100
AcDbEntity
  8
0-1_ピット
  6
Continuous
 62
     2
370
     9
100
AcDbLine
 10
-117.0285691190596
 20
-16.1031630734303
 30
0.0
 11
-119.0286068241755
 21
-15.56721371988452
 31
0.0
  0
LINE
  5
1BE
330
1F
100
AcDbEntity
  8
0-1_ピット
  6
Continuous
 62
     2
370
     9
100
AcDbLine
 10
-119.0286068241755
 20
-15.56721371988452
 30
0.0
 11
-120.028660671794
 21
-14.7816795939268
 31
0.0
  0
LINE
  5
1BF
330
1F
100
AcDbEntity
  8
0-1_ピット
  6
Continuous
 62
     2
370
     9
100
AcDbLine
 10
-120.028660671794
 20
-14.7816795939268
 30
0.0
 11
-137.5286231434209
 21
-10.09258643495448
 31
0.0
  0
LINE
  5
1C0
330
1F
100
AcDbEntity
  8
0-1_ピット
  6
Continuous
 62
     2
370
     9
100
AcDbLine
 10
-117.0285691190596
 20
-16.1031630734303
 30
0.0
 11
-116.0286027590926
 21
-15.85350831089713
 31
0.0
  0
LINE
  5
1C1
330
1F
100
AcDbEntity
  8
0-1_ピット
  6
Continuous
 62
     2
370
     9
100
AcDbLine
 10
-98.3417666637025
 20
-20.59260941150947
 30
0.0
 11
-116.0286027590926
 21
-15.85350831089713
 31
0.0
  0
LINE
  5
1C2
330
1F
100
AcDbEntity
  8
0-1_ピット
  6
Continuous
 62
     2
370
     9
100
AcDbLine
 10
-86.02864959591624
 20
-20.59260941150949
 30
0.0
 11
28.2844657044427
 21
-20.59260941150951
 31
0.0
  0
LINE
  5
1C3
330
1F
100
AcDbEntity
  8
0-1_ピット
  6
Continuous
 62
     2
370
     9
100
AcDbLine
 10
51.46442397430573
 20
-7.311843922247874
 30
0.0
 11
50.97137856509214
 21
-4.092648294910205
 31
0.0
  0
LINE
  5
1C4
330
1F
100
AcDbEntity
  8
0-1_ピット
  6
Continuous
 62
     2
370
     9
100
AcDbLine
 10
47.07621834662869
 20
-8.868949144972035
 30
0.0
 11
47.97135700247905
 21
-4.092648294910205
 31
0.0
  0
LINE
  5
1C5
330
1F
100
AcDbEntity
  8
0-1_ピット
  6
JWW_DASHED1
 62
     2
370
     9
100
AcDbLine
 10
47.07621834662869
 20
-8.868949144972035
 30
0.0
 11
46.70324099043601
 21
-10.85852332695953
 31
0.0
  0
LINE
  5
1C6
330
1F
100
AcDbEntity
  8
0-1_ピット
  6
Continuous
 62
     2
370
     9
100
AcDbLine
 10
33.19416772562543
 20
-14.46098485831511
 30
0.0
 11
33.7512890908523
 21
-11.32983680352203
 31
0.0
  0
LINE
  5
1C7
330
1F
100
AcDbEntity
  8
0-1_ピット
  6
Continuous
 62
     2
370
     9
100
AcDbLine
 10
31.74271259094279
 20
-16.04251663335887
 30
0.0
 11
27.82368574112978
 21
-17.09261341767804
 31
0.0
  0
LINE
  5
1C8
330
1F
100
AcDbEntity
  8
0-1_ピット
  6
JWW_DASHED1
 62
     2
370
     9
100
AcDbLine
 10
31.74271259094279
 20
-16.04251663335887
 30
0.0
 11
55.20630582721058
 21
-9.755479015907383
 31
0.0
  0
LINE
  5
1C9
330
1F
100
AcDbEntity
  8
0-1_ピット
  6
Continuous
 62
     2
370
     9
100
AcDbLine
 10
-77.78741780277404
 20
-16.79847993308436
 30
0.0
 11
-77.02861990313752
 21
-20.59260941150949
 31
0.0
  0
LINE
  5
1CA
330
1F
100
AcDbEntity
  8
0-1_ピット
  6
Continuous
 62
     2
370
     9
100
AcDbLine
 10
19.7641832978383
 20
-17.81792104429184
 30
0.0
 11
18.97140519433018
 21
-20.59260941150949
 31
0.0
  0
LINE
  5
1CB
330
1F
100
AcDbEntity
  8
0-1_ピット
  6
Continuous
 62
     2
370
     9
100
AcDbLine
 10
-77.72862610091592
 20
-17.09261341767802
 30
0.0
 11
27.82368574112978
 21
-17.09261341767804
 31
0.0
  0
LINE
  5
1CC
330
1F
100
AcDbEntity
  8
0-1_ピット
  6
Continuous
 62
     2
370
     9
100
AcDbLine
 10
-103.3436106795236
 20
-13.94298797087239
 30
0.0
 11
-103.8085550550514
 21
-11.32983680352199
 31
0.0
  0
LINE
  5
1CD
330
1F
100
AcDbEntity
  8
0-1_ピット
  6
Continuous
 62
     2
370
     9
100
AcDbLine
 10
-101.3745261055348
 20
-15.59262013390178
 30
0.0
 11
-79.2583301911669
 21
-15.5926201339018
 31
0.0
  0
LINE
  5
1CE
330
1F
100
AcDbEntity
  8
0-1_ピット
  6
JWW_DASHED1
 62
     2
370
     9
100
AcDbLine
 10
-103.4786216234334
 20
-15.59262013390178
 30
0.0
 11
-125.2635367963491
 21
-9.755584001089254
 31
0.0
  0
LINE
  5
1CF
330
1F
100
AcDbEntity
  8
0-1_ピット
  6
Continuous
 62
     2
370
     9
100
AcDbLine
 10
-118.0285879716175
 20
-4.092648294910163
 30
0.0
 11
-117.1334318182369
 21
-8.868914149911362
 31
0.0
  0
LINE
  5
1D0
330
1F
100
AcDbEntity
  8
0-1_ピット
  6
JWW_DASHED1
 62
     2
370
     9
100
AcDbLine
 10
-117.1334318182369
 20
-8.868914149911362
 30
0.0
 11
-116.7605244521655
 21
-10.85852332695949
 31
0.0
  0
LINE
  5
1D1
330
1F
100
AcDbEntity
  8
0-1_ピット
  6
JWW_DASHED1
 62
     2
370
     9
100
AcDbLine
 10
-101.3745261055348
 20
-15.59262013390178
 30
0.0
 11
-103.4790940567519
 21
-15.59262013390178
 31
0.0
  0
LINE
  5
1D2
330
1F
100
AcDbEntity
  8
0-1_ピット
  6
JWW_CENTER1
 62
     4
370
     9
100
AcDbLine
 10
-90.02863751849632
 20
3.282840693310746
 30
0.0
 11
-90.02863751849632
 21
-30.64018124918142
 31
0.0
  0
LINE
  5
1D3
330
1F
100
AcDbEntity
  8
0-3_受枠
  6
Continuous
 62
     7
370
     9
100
AcDbLine
 10
-110.1420311179586
 20
-75.2940185930822
 30
0.0
 11
-96.35502708162596
 21
-72.86312170149198
 31
0.0
  0
LINE
  5
1D4
330
1F
100
AcDbEntity
  8
0-3_受枠
  6
Continuous
 62
     7
370
     9
100
AcDbLine
 10
-109.4474491545778
 20
-79.23327258793927
 30
0.0
 11
-95.66037512812396
 21
-76.80223571610648
 31
0.0
  0
LINE
  5
1D5
330
1F
100
AcDbEntity
  8
0-3_受枠
  6
Continuous
 62
     7
370
     9
100
AcDbLine
 10
25.35800375927349
 20
-75.29401859308226
 30
0.0
 11
39.14507778572741
 21
-72.86312170149202
 31
0.0
  0
LINE
  5
1D6
330
1F
100
AcDbEntity
  8
0-3_受枠
  6
Continuous
 62
     7
370
     9
100
AcDbLine
 10
26.0525857226543
 20
-79.23327258793927
 30
0.0
 11
39.83951976886564
 21
-76.80223571610652
 31
0.0
  0
LINE
  5
1D7
330
1F
100
AcDbEntity
  8
0-3_受枠
  6
Continuous
 62
     4
370
     9
100
AcDbLine
 10
-100.5287479827028
 20
-77.66059456323481
 30
0.0
 11
-100.5287479827028
 21
-87.94900240816119
 31
0.0
  0
LINE
  5
1D8
330
1F
100
AcDbEntity
  8
0-3_受枠
  6
Continuous
 62
     4
370
     9
100
AcDbLine
 10
-105.0286578439103
 20
-78.45407256795556
 30
0.0
 11
-105.0286578439103
 21
-87.94900240816119
 31
0.0
  0
LINE
  5
1D9
330
1F
100
AcDbEntity
  8
0-3_受枠
  6
Continuous
 62
     4
370
     9
100
AcDbLine
 10
-105.0286578439103
 20
-47.94894820705721
 30
0.0
 11
-105.0286578439103
 21
-74.39240585101537
 31
0.0
  0
LINE
  5
1DA
330
1F
100
AcDbEntity
  8
0-3_受枠
  6
Continuous
 62
     4
370
     9
100
AcDbLine
 10
-100.5287479827028
 20
-47.94894820705721
 30
0.0
 11
-100.5287479827028
 21
-73.59899783641592
 31
0.0
  0
LINE
  5
1DB
330
1F
100
AcDbEntity
  8
0-3_受枠
  6
Continuous
 62
     4
370
     9
100
AcDbLine
 10
30.47134203826116
 20
-47.94894820705726
 30
0.0
 11
30.47134203826116
 21
-74.39240585101541
 31
0.0
  0
LINE
  5
1DC
330
1F
100
AcDbEntity
  8
0-3_受枠
  6
Continuous
 62
     4
370
     9
100
AcDbLine
 10
30.47134203826116
 20
-78.4541425580768
 30
0.0
 11
30.47134203826116
 21
-87.94900240816119
 31
0.0
  0
LINE
  5
1DD
330
1F
100
AcDbEntity
  8
0-3_受枠
  6
Continuous
 62
     4
370
     9
100
AcDbLine
 10
-105.0286578439103
 20
-87.94900240816119
 30
0.0
 11
34.9712868945293
 21
-87.94900240816119
 31
0.0
  0
LINE
  5
1DE
330
1F
100
AcDbEntity
  8
0-3_受枠
  6
Continuous
 62
     4
370
     9
100
AcDbLine
 10
34.9712868945293
 20
-77.66073454347739
 30
0.0
 11
34.9712868945293
 21
-87.94900240816119
 31
0.0
  0
LINE
  5
1DF
330
1F
100
AcDbEntity
  8
0-3_受枠
  6
Continuous
 62
     4
370
     9
100
AcDbLine
 10
34.9712868945293
 20
-47.94894820705726
 30
0.0
 11
34.9712868945293
 21
-73.59899783641596
 31
0.0
  0
LINE
  5
1E0
330
1F
100
AcDbEntity
  8
0-0_通り芯
  6
Continuous
 62
     3
370
     9
100
AcDbLine
 10
-120.5139021824872
 20
-17.75744957952347
 30
0.0
 11
-115.5433787459298
 21
-19.08929159697338
 31
0.0
  0
LINE
  5
1E1
330
1F
100
AcDbEntity
  8
0-0_通り芯
  6
Continuous
 62
     3
370
     9
100
AcDbLine
 10
-130.7751538603648
 20
-11.90214602506219
 30
0.0
 11
-127.8773878649121
 21
-12.67861643031679
 31
0.0
  0
LINE
  5
1E2
330
1F
100
AcDbEntity
  8
0-0_通り芯
  6
Continuous
 62
     3
370
     9
100
AcDbLine
 10
-122.6787666231695
 20
-14.07155982362637
 30
0.0
 11
-124.9796918595806
 21
-13.45508683557133
 31
0.0
  0
LINE
  5
1E3
330
1F
100
AcDbEntity
  8
0-0_通り芯
  6
Continuous
 62
     3
370
     9
100
AcDbLine
 10
-121.9580083544376
 20
-14.83697178972196
 30
0.0
 11
-121.5952845510094
 21
-16.60933163038013
 31
0.0
  0
LINE
  5
1E4
330
1F
100
AcDbEntity
  8
0-0_通り芯
  6
Continuous
 62
     3
370
     9
100
AcDbLine
 10
-112.8326263544828
 20
-17.28207667592788
 30
0.0
 11
-114.032851948904
 21
-18.63561563096832
 31
0.0
  0
LINE
  5
1E5
330
1F
100
AcDbEntity
  8
0-0_通り芯
  6
Continuous
 62
     3
370
     9
100
AcDbLine
 10
-109.5247532435091
 20
-17.59619234014119
 30
0.0
 11
-111.8256084897989
 21
-16.97964936196495
 31
0.0
  0
LINE
  5
1E6
330
1F
100
AcDbEntity
  8
0-0_通り芯
  6
Continuous
 62
     3
370
     9
100
AcDbLine
 10
-145.528651481172
 20
-7.948963996074468
 30
0.0
 11
-133.6729548508782
 21
-11.12567561980759
 31
0.0
  0
LINE
  5
1E7
330
1F
100
AcDbEntity
  8
0-0_通り芯
  6
Continuous
 62
     3
370
     9
100
AcDbLine
 10
-125.0183963966371
 20
-19.83321659584225
 30
0.0
 11
-125.2571327002538
 21
-18.66634129420133
 31
0.0
  0
LINE
  5
1E8
330
1F
100
AcDbEntity
  8
0-0_通り芯
  6
JWW_DASHED1
 62
     3
370
     9
100
AcDbLine
 10
44.13327372790284
 20
-23.59280594942574
 30
0.0
 11
53.87967807379446
 21
-20.98133454498562
 31
0.0
  0
LINE
  5
1E9
330
1F
100
AcDbEntity
  8
0-0_通り芯
  6
JWW_DASHED1
 62
     3
370
     9
100
AcDbLine
 10
42.62288691111955
 20
-23.1391299834207
 30
0.0
 11
41.83269844209808
 21
-22.24808574966404
 31
0.0
  0
LINE
  5
1EA
330
1F
100
AcDbEntity
  8
0-0_通り芯
  6
Continuous
 62
     3
370
     9
100
AcDbLine
 10
-100.0453962052837
 20
-47.94894820705721
 30
0.0
 11
-105.0286578439103
 21
-47.94894820705721
 31
0.0
  0
LINE
  5
1EB
330
1F
100
AcDbEntity
  8
0-0_通り芯
  6
Continuous
 62
     3
370
     9
100
AcDbLine
 10
36.27968222135721
 20
-39.22642934507311
 30
0.0
 11
34.9712868945293
 21
-47.94894820705726
 31
0.0
  0
LINE
  5
1EC
330
1F
100
AcDbEntity
  8
0-0_通り芯
  6
Continuous
 62
     3
370
     9
100
AcDbLine
 10
-97.67539071918932
 20
-66.10774518763155
 30
0.0
 11
-99.04852690818247
 21
-48.86952827198546
 31
0.0
  0
LINE
  5
1ED
330
1F
100
AcDbEntity
  8
0-0_通り芯
  6
JWW_DASHED1
 62
     3
370
     9
100
AcDbLine
 10
32.34063819686399
 20
-25.7132266631082
 30
0.0
 11
30.5693282080247
 21
-47.94894820705726
 31
0.0
  0
LINE
  5
1EE
330
1F
100
AcDbEntity
  8
0-0_通り芯
  6
JWW_DASHED1
 62
     3
370
     9
100
AcDbLine
 10
34.55470569279183
 20
-23.05360205524138
 30
0.0
 11
39.81866271273029
 21
-21.64316113161688
 31
0.0
  0
LINE
  5
1EF
330
1F
100
AcDbEntity
  8
0-0_通り芯
  6
Continuous
 62
     3
370
     9
100
AcDbLine
 10
-99.31133981351243
 20
-20.33273609127239
 30
0.0
 11
-106.6269872480564
 21
-18.37259275527457
 31
0.0
  0
LINE
  5
1F0
330
1F
100
AcDbEntity
  8
0-0_通り芯
  6
JWW_DASHED1
 62
     3
370
     9
100
AcDbLine
 10
-96.7399027584328
 20
-27.47872747188289
 30
0.0
 11
-97.0972723175846
 21
-22.99236069913915
 31
0.0
  0
LINE
  5
1F1
330
1F
100
AcDbEntity
  8
0-0_通り芯
  6
JWW_DASHED1
 62
     3
370
     9
100
AcDbLine
 10
-88.656323713428
 20
-30.82383532736674
 30
0.0
 11
-94.08013817032351
 21
-30.22220024501877
 31
0.0
  0
LINE
  5
1F2
330
1F
100
AcDbEntity
  8
0-0_通り芯
  6
Continuous
 62
     3
370
     9
100
AcDbLine
 10
-92.52859716223956
 20
-35.94893194672608
 30
0.0
 11
-92.52859716223956
 21
-46.94892935449933
 31
0.0
  0
LINE
  5
1F3
330
1F
100
AcDbEntity
  8
0-0_通り芯
  6
JWW_DASHED1
 62
     3
370
     9
100
AcDbLine
 10
-87.34218919665676
 20
-32.06811970312084
 30
0.0
 11
-86.69527050585381
 21
-35.94893194672608
 31
0.0
  0
LINE
  5
1F4
330
1F
100
AcDbEntity
  8
0-0_通り芯
  6
Continuous
 62
     3
370
     9
100
AcDbLine
 10
-92.52859716223956
 20
-35.94893194672608
 30
0.0
 11
22.47133119804037
 21
-35.94893194672611
 31
0.0
  0
LINE
  5
1F5
330
1F
100
AcDbEntity
  8
0-0_通り芯
  6
Continuous
 62
     3
370
     9
100
AcDbLine
 10
-83.91617276099677
 20
-22.32101545601659
 30
0.0
 11
-82.15774095446926
 21
-35.94893194672608
 31
0.0
  0
LINE
  5
1F6
330
1F
100
AcDbEntity
  8
0-0_通り芯
  6
Continuous
 62
     3
370
     9
100
AcDbLine
 10
-91.54369617587372
 20
-67.94897530760926
 30
0.0
 11
-90.23110144177019
 21
-46.94892935449933
 31
0.0
  0
LINE
  5
1F7
330
1F
100
AcDbEntity
  8
0-0_通り芯
  6
Continuous
 62
     3
370
     9
100
AcDbLine
 10
22.47133119804037
 20
-46.94892935449936
 30
0.0
 11
-92.52859716223956
 21
-46.94892935449933
 31
0.0
  0
LINE
  5
1F8
330
1F
100
AcDbEntity
  8
0-0_通り芯
  6
Continuous
 62
     3
370
     9
100
AcDbLine
 10
-95.68165212498688
 20
-67.94897530760923
 30
0.0
 11
25.62438616078774
 21
-67.94897530760929
 31
0.0
  0
LINE
  5
1F9
330
1F
100
AcDbEntity
  8
0-0_通り芯
  6
Continuous
 62
     3
370
     9
100
AcDbLine
 10
60.71785290110503
 20
-11.90214602506224
 30
0.0
 11
57.8199819204704
 21
-12.67861643031684
 31
0.0
  0
LINE
  5
1FA
330
1F
100
AcDbEntity
  8
0-0_通り芯
  6
Continuous
 62
     3
370
     9
100
AcDbLine
 10
75.47135052191223
 20
-7.948963996074511
 30
0.0
 11
63.61558390149716
 21
-11.12567561980764
 31
0.0
  0
LINE
  5
1FB
330
1F
100
AcDbEntity
  8
0-0_通り芯
  6
Continuous
 62
     3
370
     9
100
AcDbLine
 10
54.96102544725611
 20
-19.83321659584229
 30
0.0
 11
55.19983174099404
 21
-18.66634129420137
 31
0.0
  0
LINE
  5
1FC
330
1F
100
AcDbEntity
  8
0-0_通り芯
  6
Continuous
 62
     3
370
     9
100
AcDbLine
 10
-112.6801878703793
 20
-23.13912998342066
 30
0.0
 11
-111.8900693914791
 21
-22.248085749664
 31
0.0
  0
LINE
  5
1FD
330
1F
100
AcDbEntity
  8
0-0_通り芯
  6
Continuous
 62
     3
370
     9
100
AcDbLine
 10
-102.3980441413056
 20
-25.71322666310816
 30
0.0
 11
-100.6267341524664
 21
-47.94894820705721
 31
0.0
  0
LINE
  5
1FE
330
1F
100
AcDbEntity
  8
0-0_通り芯
  6
Continuous
 62
     3
370
     9
100
AcDbLine
 10
-104.6120766421728
 20
-23.05360205524133
 30
0.0
 11
-109.8759636719901
 21
-21.64316113161684
 31
0.0
  0
LINE
  5
1FF
330
1F
100
AcDbEntity
  8
0-0_通り芯
  6
Continuous
 62
     3
370
     9
100
AcDbLine
 10
22.47133119804037
 20
-35.94893194672611
 30
0.0
 11
22.47133119804037
 21
-46.94892935449936
 31
0.0
  0
LINE
  5
200
330
1F
100
AcDbEntity
  8
0-0_通り芯
  6
Continuous
 62
     3
370
     9
100
AcDbLine
 10
21.48629023143204
 20
-67.94897530760926
 30
0.0
 11
20.17376548744974
 21
-46.94892935449933
 31
0.0
  0
LINE
  5
201
330
1F
100
AcDbEntity
  8
0-0_通り芯
  6
Continuous
 62
     3
370
     9
100
AcDbLine
 10
52.62139567378846
 20
-14.07155982362642
 30
0.0
 11
54.92239090032078
 21
-13.45508683557137
 31
0.0
  0
LINE
  5
202
330
1F
100
AcDbEntity
  8
0-0_通り芯
  6
Continuous
 62
     3
370
     9
100
AcDbLine
 10
51.90063740505654
 20
-14.83704177984325
 30
0.0
 11
51.53794859668901
 21
-16.60933163038018
 31
0.0
  0
LINE
  5
203
330
1F
100
AcDbEntity
  8
0-0_通り芯
  6
Continuous
 62
     3
370
     9
100
AcDbLine
 10
50.45660122322741
 20
-17.75744957952351
 30
0.0
 11
45.48611278173068
 21
-19.08929159697342
 31
0.0
  0
LINE
  5
204
330
1F
100
AcDbEntity
  8
0-0_通り芯
  6
Continuous
 62
     3
370
     9
100
AcDbLine
 10
42.77532539522308
 20
-17.28207667592792
 30
0.0
 11
43.97551599458357
 21
-18.63561563096837
 31
0.0
  0
LINE
  5
205
330
1F
100
AcDbEntity
  8
0-0_通り芯
  6
Continuous
 62
     3
370
     9
100
AcDbLine
 10
39.46745228424935
 20
-17.59619234014123
 30
0.0
 11
41.76830753053915
 21
-16.97964936196499
 31
0.0
  0
LINE
  5
206
330
1F
100
AcDbEntity
  8
0-0_通り芯
  6
Continuous
 62
     3
370
     9
100
AcDbLine
 10
29.25407384931331
 20
-20.33273609127243
 30
0.0
 11
36.56972128385721
 21
-18.37259275527461
 31
0.0
  0
LINE
  5
207
330
1F
100
AcDbEntity
  8
0-0_通り芯
  6
Continuous
 62
     3
370
     9
100
AcDbLine
 10
26.68263679423369
 20
-27.47872747188293
 30
0.0
 11
27.03986637314294
 21
-22.99236069913919
 31
0.0
  0
LINE
  5
208
330
1F
100
AcDbEntity
  8
0-0_通り芯
  6
Continuous
 62
     3
370
     9
100
AcDbLine
 10
-89.96611884268114
 20
-66.37139797441671
 30
0.0
 11
-88.75207019931122
 21
-46.94892935449933
 31
0.0
  0
LINE
  5
209
330
1F
100
AcDbEntity
  8
0-0_通り芯
  6
Continuous
 62
     3
370
     9
100
AcDbLine
 10
-91.54369617587372
 20
-67.94897530760926
 30
0.0
 11
-89.96611884268114
 21
-66.37139797441671
 31
0.0
  0
LINE
  5
20A
330
1F
100
AcDbEntity
  8
0-0_通り芯
  6
Continuous
 62
     3
370
     9
100
AcDbLine
 10
21.48629023143204
 20
-67.94897530760926
 30
0.0
 11
19.90871289823943
 21
-66.37139797441671
 31
0.0
  0
LINE
  5
20B
330
1F
100
AcDbEntity
  8
0-0_通り芯
  6
Continuous
 62
     3
370
     9
100
AcDbLine
 10
-89.96611884268114
 20
-66.37139797441671
 30
0.0
 11
19.90871289823943
 21
-66.37139797441671
 31
0.0
  0
LINE
  5
20C
330
1F
100
AcDbEntity
  8
0-0_通り芯
  6
Continuous
 62
     3
370
     9
100
AcDbLine
 10
19.90871289823943
 20
-66.37139797441671
 30
0.0
 11
18.69473424499077
 21
-46.94892935449933
 31
0.0
  0
LINE
  5
20D
330
1F
100
AcDbEntity
  8
0-0_通り芯
  6
JWW_DASHED1
 62
     3
370
     9
100
AcDbLine
 10
37.76305285133427
 20
-37.94896965184191
 30
0.0
 11
32.75113025805187
 21
-37.94896965184191
 31
0.0
  0
LINE
  5
20E
330
1F
100
AcDbEntity
  8
0-0_通り芯
  6
Continuous
 62
     3
370
     9
100
AcDbLine
 10
51.16112178382704
 20
-36.66906030436664
 30
0.0
 11
53.29959994879446
 21
-22.2488556409979
 31
0.0
  0
LINE
  5
20F
330
1F
100
AcDbEntity
  8
0-0_通り芯
  6
Continuous
 62
     3
370
     9
100
AcDbLine
 10
56.97114172983331
 20
-52.94893748466497
 30
0.0
 11
56.97114172983331
 21
-58.94905060001244
 31
0.0
  0
LINE
  5
210
330
1F
100
AcDbEntity
  8
0-0_通り芯
  6
Continuous
 62
     3
370
     9
100
AcDbLine
 10
42.79618245135843
 20
-28.74894318756375
 30
0.0
 11
49.14624617300419
 21
-28.74894318756375
 31
0.0
  0
LINE
  5
211
330
1F
100
AcDbEntity
  8
0-0_通り芯
  6
Continuous
 62
     3
370
     9
100
AcDbLine
 10
42.79618245135843
 20
-28.74894318756375
 30
0.0
 11
43.61128740354835
 21
-27.94895610156593
 31
0.0
  0
LINE
  5
212
330
1F
100
AcDbEntity
  8
0-0_通り芯
  6
Continuous
 62
     3
370
     9
100
AcDbLine
 10
48.33128120105678
 20
-27.94895610156593
 30
0.0
 11
49.14624617300419
 21
-28.74894318756375
 31
0.0
  0
LINE
  5
213
330
1F
100
AcDbEntity
  8
0-0_通り芯
  6
Continuous
 62
     3
370
     9
100
AcDbLine
 10
43.61128740354835
 20
-27.94895610156593
 30
0.0
 11
48.33128120105678
 21
-27.94895610156593
 31
0.0
  0
LINE
  5
214
330
1F
100
AcDbEntity
  8
0-0_通り芯
  6
Continuous
 62
     3
370
     9
100
AcDbLine
 10
50.97116859472836
 20
-52.94893748466497
 30
0.0
 11
56.97114172983331
 21
-52.94893748466497
 31
0.0
  0
LINE
  5
215
330
1F
100
AcDbEntity
  8
0-0_通り芯
  6
Continuous
 62
     3
370
     9
100
AcDbLine
 10
42.97115775450758
 20
-50.94889977954911
 30
0.0
 11
42.97115775450758
 21
-37.94900464690252
 31
0.0
  0
LINE
  5
216
330
1F
100
AcDbEntity
  8
0-0_通り芯
  6
Continuous
 62
     3
370
     9
100
AcDbLine
 10
50.97116859472836
 20
-58.94905060001244
 30
0.0
 11
56.97114172983331
 21
-58.94905060001244
 31
0.0
  0
LINE
  5
217
330
1F
100
AcDbEntity
  8
0-0_通り芯
  6
JWW_CENTER1
 62
     3
370
     9
100
AcDbLine
 10
45.97128430230256
 20
-50.94889977954911
 30
0.0
 11
45.97128430230257
 21
-24.94896953401344
 31
0.0
  0
LINE
  5
218
330
1F
100
AcDbEntity
  8
0-0_通り芯
  6
Continuous
 62
     3
370
     9
100
AcDbLine
 10
48.97113088961251
 20
-50.94889977954911
 30
0.0
 11
48.97113088961251
 21
-37.94900464690252
 31
0.0
  0
LINE
  5
219
330
1F
100
AcDbEntity
  8
0-0_通り芯
  6
Continuous
 62
     3
370
     9
100
AcDbLine
 10
48.33128120105678
 20
-37.94900464690252
 30
0.0
 11
48.33128120105678
 21
-26.94897224406864
 31
0.0
  0
LINE
  5
21A
330
1F
100
AcDbEntity
  8
0-0_通り芯
  6
Continuous
 62
     3
370
     9
100
AcDbLine
 10
43.61128740354835
 20
-37.94900464690252
 30
0.0
 11
43.61128740354835
 21
-26.94897224406864
 31
0.0
  0
LINE
  5
21B
330
1F
100
AcDbEntity
  8
0-0_通り芯
  6
Continuous
 62
     3
370
     9
100
AcDbLine
 10
42.79618245135843
 20
-37.94900464690252
 30
0.0
 11
42.79618245135843
 21
-28.74894318756375
 31
0.0
  0
LINE
  5
21C
330
1F
100
AcDbEntity
  8
0-0_通り芯
  6
Continuous
 62
     3
370
     9
100
AcDbLine
 10
49.14624617300419
 20
-37.94900464690252
 30
0.0
 11
49.14624617300419
 21
-28.74894318756375
 31
0.0
  0
LINE
  5
21D
330
1F
100
AcDbEntity
  8
0-0_通り芯
  6
Continuous
 62
     3
370
     9
100
AcDbLine
 10
37.76305285133427
 20
-37.94900464690252
 30
0.0
 11
49.67733121312241
 21
-37.94900464690252
 31
0.0
  0
LINE
  5
21E
330
1F
100
AcDbEntity
  8
0-0_通り芯
  6
JWW_CENTER1
 62
     3
370
     9
100
AcDbLine
 10
50.97130857497088
 20
-55.94899404233874
 30
0.0
 11
58.37360377963423
 21
-55.94899404233874
 31
0.0
  0
LINE
  5
21F
330
1F
100
AcDbEntity
  8
0-0_通り芯
  6
Continuous
 62
     3
370
     9
100
AcDbLine
 10
-114.1906446772838
 20
-23.5928059494257
 30
0.0
 11
-123.9370490231755
 21
-20.98133454498558
 31
0.0
  0
LINE
  5
220
330
1F
100
AcDbEntity
  8
0-0_通り芯
  6
Continuous
 62
     3
370
     9
100
AcDbLine
 10
30.47134203826116
 20
-47.94894820705726
 30
0.0
 11
29.2764706881164
 21
-62.94902102506224
 31
0.0
  0
LINE
  5
221
330
1F
100
AcDbEntity
  8
0-0_通り芯
  6
Continuous
 62
     3
370
     9
100
AcDbLine
 10
-146.5286703337299
 20
-16.94899368885322
 30
0.0
 11
-141.5286460610616
 21
-16.94899368885322
 31
0.0
  0
LINE
  5
222
330
1F
100
AcDbEntity
  8
0-0_通り芯
  6
Continuous
 62
     3
370
     9
100
AcDbLine
 10
-146.5286703337299
 20
-16.94899368885322
 30
0.0
 11
-147.5286891862878
 21
-15.94897483629528
 31
0.0
  0
LINE
  5
223
330
1F
100
AcDbEntity
  8
0-0_通り芯
  6
Continuous
 62
     3
370
     9
100
AcDbLine
 10
-126.6989641932633
 20
-17.13544737188895
 30
0.0
 11
-132.6697864428636
 21
-15.53561318013577
 31
0.0
  0
LINE
  5
224
330
1F
100
AcDbEntity
  8
0-0_通り芯
  6
Continuous
 62
     3
370
     9
100
AcDbLine
 10
76.47136937447013
 20
-16.94899368885326
 30
0.0
 11
71.47127511168057
 21
-16.94899368885326
 31
0.0
  0
LINE
  5
225
330
1F
100
AcDbEntity
  8
0-0_通り芯
  6
Continuous
 62
     3
370
     9
100
AcDbLine
 10
76.47136937447013
 20
-16.94899368885326
 30
0.0
 11
77.4713182369068
 21
-15.94897483629532
 31
0.0
  0
LINE
  5
226
330
1F
100
AcDbEntity
  8
0-0_通り芯
  6
Continuous
 62
     3
370
     9
100
AcDbLine
 10
56.6416282389429
 20
-17.13544737188899
 30
0.0
 11
62.61248548360383
 21
-15.53561318013581
 31
0.0
  0
LINE
  5
227
330
1F
100
AcDbEntity
  8
0-0_通り芯
  6
Continuous
 62
     3
370
     9
100
AcDbLine
 10
76.58083392412024
 20
-8.824960353760332
 30
0.0
 11
77.4713182369068
 21
-15.94897483629532
 31
0.0
  0
LINE
  5
228
330
1F
100
AcDbEntity
  8
0-0_通り芯
  6
Continuous
 62
     3
370
     9
100
AcDbLine
 10
75.58851398490091
 20
-7.948963996074511
 30
0.0
 11
51.63537484548247
 21
-7.948963996074511
 31
0.0
  0
LINE
  5
229
330
1F
100
AcDbEntity
  8
0-0_通り芯
  6
Continuous
 62
     3
370
     9
100
AcDbLine
 10
-145.6458849342819
 20
-7.948963996074468
 30
0.0
 11
-121.692605814621
 21
-7.948963996074468
 31
0.0
  0
LINE
  5
22A
330
1F
100
AcDbEntity
  8
0-0_通り芯
  6
Continuous
 62
     3
370
     9
100
AcDbLine
 10
-146.6382048735013
 20
-8.82496035376029
 30
0.0
 11
-147.5286891862878
 21
-15.94897483629528
 31
0.0
  0
LINE
  5
22B
330
1F
100
AcDbEntity
  8
0-0_通り芯
  6
Continuous
 62
     3
370
     9
100
AcDbLine
 10
30.47134203826116
 20
-47.94894820705726
 30
0.0
 11
34.9712868945293
 21
-47.94894820705726
 31
0.0
  0
LINE
  5
22C
330
1F
100
AcDbEntity
  8
0-0_通り芯
  6
JWW_DASHED1
 62
     3
370
     9
100
AcDbLine
 10
29.98813024108452
 20
-47.94894820705726
 30
0.0
 11
30.47134203826116
 21
-47.94894820705726
 31
0.0
  0
LINE
  5
22D
330
1F
100
AcDbEntity
  8
0-0_通り芯
  6
Continuous
 62
     3
370
     9
100
AcDbLine
 10
28.79311891069725
 20
-62.94902102506224
 30
0.0
 11
29.2764706881164
 21
-62.94902102506224
 31
0.0
  0
LINE
  5
22E
330
1F
100
AcDbEntity
  8
0-0_通り芯
  6
Continuous
 62
     3
370
     9
100
AcDbLine
 10
27.79631960371725
 20
-63.86960108999042
 30
0.0
 11
27.61798477474767
 21
-66.1077451876316
 31
0.0
  0
LINE
  5
22F
330
1F
100
AcDbEntity
  8
0-0_通り芯
  6
JWW_DASHED1
 62
     3
370
     9
100
AcDbLine
 10
27.79631960371725
 20
-63.86960108999042
 30
0.0
 11
28.99112096374077
 21
-48.8695282719855
 31
0.0
  0
LINE
  5
230
330
1F
100
AcDbEntity
  8
0-0_通り芯
  6
Continuous
 62
     3
370
     9
100
AcDbLine
 10
43.61128740354835
 20
-26.94897224406864
 30
0.0
 11
48.33128120105678
 21
-26.94897224406864
 31
0.0
  0
LINE
  5
231
330
1F
100
AcDbEntity
  8
0-0_通り芯
  6
Continuous
 62
     3
370
     9
100
AcDbLine
 10
48.33128120105678
 20
-26.94897224406864
 30
0.0
 11
45.97128430230257
 21
-25.58640456338573
 31
0.0
  0
LINE
  5
232
330
1F
100
AcDbEntity
  8
0-0_通り芯
  6
Continuous
 62
     3
370
     9
100
AcDbLine
 10
43.61128740354835
 20
-26.94897224406864
 30
0.0
 11
45.97128430230257
 21
-25.58640456338573
 31
0.0
  0
LINE
  5
233
330
1F
100
AcDbEntity
  8
0-0_通り芯
  6
Continuous
 62
     3
370
     9
100
AcDbLine
 10
-84.90793277924605
 20
-21.44900853524258
 30
0.0
 11
-86.70513911295141
 21
-21.44900853524258
 31
0.0
  0
LINE
  5
234
330
1F
100
AcDbEntity
  8
0-0_通り芯
  6
Continuous
 62
     3
370
     9
100
AcDbLine
 10
-93.35217091910187
 20
-21.44900853524258
 30
0.0
 11
-97.67413089700666
 21
-21.44900853524256
 31
0.0
  0
LINE
  5
235
330
1F
100
AcDbEntity
  8
0-0_通り芯
  6
Continuous
 62
     3
370
     9
100
AcDbLine
 10
-93.35217091910187
 20
-28.44896552784486
 30
0.0
 11
-86.70513911295141
 21
-28.44896552784486
 31
0.0
  0
LINE
  5
236
330
1F
100
AcDbEntity
  8
0-0_通り芯
  6
Continuous
 62
     3
370
     9
100
AcDbLine
 10
-86.70513911295141
 20
-28.44896552784486
 30
0.0
 11
-90.02869001108725
 21
-30.36781469229947
 31
0.0
  0
LINE
  5
237
330
1F
100
AcDbEntity
  8
0-0_通り芯
  6
Continuous
 62
     3
370
     9
100
AcDbLine
 10
-93.35217091910187
 20
-28.44896552784486
 30
0.0
 11
-90.02869001108725
 21
-30.36781469229947
 31
0.0
  0
LINE
  5
238
330
1F
100
AcDbEntity
  8
0-0_通り芯
  6
Continuous
 62
     3
370
     9
100
AcDbLine
 10
-86.70513911295141
 20
-27.44898167034756
 30
0.0
 11
-86.70513911295141
 21
-28.44896552784486
 31
0.0
  0
LINE
  5
239
330
1F
100
AcDbEntity
  8
0-0_通り芯
  6
Continuous
 62
     3
370
     9
100
AcDbLine
 10
-93.35217091910187
 20
-28.44896552784486
 30
0.0
 11
-93.35217091910187
 21
-27.44898167034756
 31
0.0
  0
LINE
  5
23A
330
1F
100
AcDbEntity
  8
0-A
  6
Continuous
 62
     4
370
     9
100
AcDbLine
 10
43.10133938005053
 20
-15.05292630886865
 30
0.0
 11
43.97131658730801
 21
-14.18291410655054
 31
0.0
  0
LINE
  5
23B
330
1F
100
AcDbEntity
  8
0-A
  6
Continuous
 62
     4
370
     9
100
AcDbLine
 10
38.84125066933926
 20
-15.05292630886865
 30
0.0
 11
37.97134345220302
 21
-14.18291410655054
 31
0.0
  0
LINE
  5
23C
330
1F
100
AcDbEntity
  8
0-A
  6
Continuous
 62
     4
370
     9
100
AcDbLine
 10
38.84125066933926
 20
-15.05292630886865
 30
0.0
 11
43.10133938005053
 21
-15.05292630886865
 31
0.0
  0
LINE
  5
23D
330
1F
100
AcDbEntity
  8
0-A
  6
Continuous
 62
     4
370
     9
100
AcDbLine
 10
37.97134345220302
 20
-14.18291410655054
 30
0.0
 11
43.97131658730801
 21
-14.18291410655054
 31
0.0
  0
LINE
  5
23E
330
1F
100
AcDbEntity
  8
0-A
  6
Continuous
 62
     4
370
     9
100
AcDbLine
 10
43.97131658730801
 20
-3.052875053476782
 30
0.0
 11
43.97131658730801
 21
-14.18291410655054
 31
0.0
  0
LINE
  5
23F
330
1F
100
AcDbEntity
  8
0-A
  6
Continuous
 62
     4
370
     9
100
AcDbLine
 10
43.10133938005053
 20
-3.052875053476782
 30
0.0
 11
43.10133938005053
 21
-15.05292630886865
 31
0.0
  0
LINE
  5
240
330
1F
100
AcDbEntity
  8
0-A
  6
Continuous
 62
     4
370
     9
100
AcDbLine
 10
38.84125066933926
 20
-3.052875053476782
 30
0.0
 11
38.84125066933926
 21
-15.05292630886865
 31
0.0
  0
LINE
  5
241
330
1F
100
AcDbEntity
  8
0-A
  6
Continuous
 62
     4
370
     9
100
AcDbLine
 10
37.97134345220302
 20
-3.052875053476782
 30
0.0
 11
37.97134345220302
 21
-14.18291410655054
 31
0.0
  0
LINE
  5
242
330
1F
100
AcDbEntity
  8
0-A
  6
Continuous
 62
     4
370
     9
100
AcDbLine
 10
45.78979991787627
 20
-0.9786128247651007
 30
0.0
 11
45.97128430230257
 21
-3.052875053476782
 31
0.0
  0
LINE
  5
243
330
1F
100
AcDbEntity
  8
0-A
  6
Continuous
 62
     4
370
     9
100
AcDbLine
 10
38.14519891341199
 20
0.8470794882929198
 30
0.0
 11
43.79739113597775
 21
0.8470794882929198
 31
0.0
  0
LINE
  5
244
330
1F
100
AcDbEntity
  8
0-A
  6
Continuous
 62
     4
370
     9
100
AcDbLine
 10
35.97130574708721
 20
-3.052875053476782
 30
0.0
 11
45.97128430230257
 21
-3.052875053476782
 31
0.0
  0
LINE
  5
245
330
1F
100
AcDbEntity
  8
0-A
  6
Continuous
 62
     4
370
     9
100
AcDbLine
 10
36.15286012163476
 20
-0.9786128247651007
 30
0.0
 11
35.97130574708721
 21
-3.052875053476782
 31
0.0
  0
LINE
  5
246
330
1F
100
AcDbEntity
  8
0-A
  6
JWW_CENTER1
 62
     4
370
     9
100
AcDbLine
 10
40.97140000987677
 20
2.992066734537502
 30
0.0
 11
40.97140000987677
 21
-17.11833478724097
 31
0.0
  0
LINE
  5
247
330
1F
100
AcDbEntity
  8
0-A
  6
Continuous
 62
     4
370
     9
100
AcDbLine
 10
-113.1586403393103
 20
-15.05292630886861
 30
0.0
 11
-114.028687536689
 21
-14.1829141065505
 31
0.0
  0
LINE
  5
248
330
1F
100
AcDbEntity
  8
0-A
  6
Continuous
 62
     4
370
     9
100
AcDbLine
 10
-108.8986216187203
 20
-15.05292630886861
 30
0.0
 11
-108.0286444114628
 21
-14.1829141065505
 31
0.0
  0
LINE
  5
249
330
1F
100
AcDbEntity
  8
0-A
  6
Continuous
 62
     4
370
     9
100
AcDbLine
 10
-108.8986216187203
 20
-15.05292630886861
 30
0.0
 11
-113.1586403393103
 21
-15.05292630886861
 31
0.0
  0
LINE
  5
24A
330
1F
100
AcDbEntity
  8
0-A
  6
Continuous
 62
     4
370
     9
100
AcDbLine
 10
-108.0286444114628
 20
-14.1829141065505
 30
0.0
 11
-114.028687536689
 21
-14.1829141065505
 31
0.0
  0
LINE
  5
24B
330
1F
100
AcDbEntity
  8
0-A
  6
Continuous
 62
     4
370
     9
100
AcDbLine
 10
-114.028687536689
 20
-3.05287505347674
 30
0.0
 11
-114.028687536689
 21
-14.1829141065505
 31
0.0
  0
LINE
  5
24C
330
1F
100
AcDbEntity
  8
0-A
  6
Continuous
 62
     4
370
     9
100
AcDbLine
 10
-113.1586403393103
 20
-3.05287505347674
 30
0.0
 11
-113.1586403393103
 21
-15.05292630886861
 31
0.0
  0
LINE
  5
24D
330
1F
100
AcDbEntity
  8
0-A
  6
Continuous
 62
     4
370
     9
100
AcDbLine
 10
-108.8986216187203
 20
-3.05287505347674
 30
0.0
 11
-108.8986216187203
 21
-15.05292630886861
 31
0.0
  0
LINE
  5
24E
330
1F
100
AcDbEntity
  8
0-A
  6
Continuous
 62
     4
370
     9
100
AcDbLine
 10
-108.0286444114628
 20
-3.05287505347674
 30
0.0
 11
-108.0286444114628
 21
-14.1829141065505
 31
0.0
  0
LINE
  5
24F
330
1F
100
AcDbEntity
  8
0-A
  6
Continuous
 62
     4
370
     9
100
AcDbLine
 10
-115.8471708672573
 20
-0.9786128247650581
 30
0.0
 11
-116.0286552516836
 21
-3.05287505347674
 31
0.0
  0
LINE
  5
250
330
1F
100
AcDbEntity
  8
0-A
  6
Continuous
 62
     4
370
     9
100
AcDbLine
 10
-108.2024998726718
 20
0.8470794882929624
 30
0.0
 11
-113.8547620853588
 21
0.8470794882929624
 31
0.0
  0
LINE
  5
251
330
1F
100
AcDbEntity
  8
0-A
  6
Continuous
 62
     4
370
     9
100
AcDbLine
 10
-106.0286766964682
 20
-3.05287505347674
 30
0.0
 11
-116.0286552516836
 21
-3.05287505347674
 31
0.0
  0
LINE
  5
252
330
1F
100
AcDbEntity
  8
0-A
  6
Continuous
 62
     4
370
     9
100
AcDbLine
 10
-106.2101610808945
 20
-0.9786128247650581
 30
0.0
 11
-106.0286766964682
 21
-3.05287505347674
 31
0.0
  0
LINE
  5
253
330
1F
100
AcDbEntity
  8
0-A
  6
JWW_CENTER1
 62
     4
370
     9
100
AcDbLine
 10
-111.0287009691366
 20
2.992066734537545
 30
0.0
 11
-111.0287009691366
 21
-17.11833478724093
 31
0.0
  0
LINE
  5
254
330
1F
100
AcDbEntity
  8
0-A
  6
JWW_PHANTOM1
 62
     4
370
     9
100
AcDbLine
 10
-91.96302448987058
 20
50.05944341995623
 30
0.0
 11
-92.90820608242156
 21
49.27173960023944
 31
0.0
  0
LINE
  5
255
330
1F
100
AcDbEntity
  8
0-A
  6
JWW_PHANTOM1
 62
     4
370
     9
100
AcDbLine
 10
-91.57744891185115
 20
54.30199960529197
 30
0.0
 11
-92.36513523403761
 21
55.24714620278225
 31
0.0
  0
LINE
  5
256
330
1F
100
AcDbEntity
  8
0-A
  6
JWW_PHANTOM1
 62
     4
370
     9
100
AcDbLine
 10
-91.57744891185115
 20
54.30199960529197
 30
0.0
 11
-91.96302448987058
 21
50.05944341995623
 31
0.0
  0
LINE
  5
257
330
1F
100
AcDbEntity
  8
0-A
  6
JWW_PHANTOM1
 62
     4
370
     9
100
AcDbLine
 10
-92.36513523403761
 20
55.24714620278225
 30
0.0
 11
-92.90820608242156
 21
49.27173960023944
 31
0.0
  0
LINE
  5
258
330
1F
100
AcDbEntity
  8
0-A
  6
JWW_PHANTOM1
 62
     4
370
     9
100
AcDbLine
 10
-103.9925240887824
 20
50.27910741552962
 30
0.0
 11
-92.90820608242156
 21
49.27173960023944
 31
0.0
  0
LINE
  5
259
330
1F
100
AcDbEntity
  8
0-A
  6
JWW_PHANTOM1
 62
     4
370
     9
100
AcDbLine
 10
-103.9137852023653
 20
51.14558511672411
 30
0.0
 11
-91.96302448987058
 21
50.05944341995623
 31
0.0
  0
LINE
  5
25A
330
1F
100
AcDbEntity
  8
0-A
  6
JWW_PHANTOM1
 62
     4
370
     9
100
AcDbLine
 10
-103.5282096243459
 20
55.38810630699922
 30
0.0
 11
-91.57744891185115
 21
54.30199960529197
 31
0.0
  0
LINE
  5
25B
330
1F
100
AcDbEntity
  8
0-A
  6
JWW_PHANTOM1
 62
     4
370
     9
100
AcDbLine
 10
-103.4494532403984
 20
56.25451401807246
 30
0.0
 11
-92.36513523403761
 21
55.24714620278225
 31
0.0
  0
LINE
  5
25C
330
1F
100
AcDbEntity
  8
0-A
  6
JWW_PHANTOM1
 62
     4
370
     9
100
AcDbLine
 10
-106.2228992829638
 20
48.65582653315451
 30
0.0
 11
-104.1735535374205
 21
48.28736353978306
 31
0.0
  0
LINE
  5
25D
330
1F
100
AcDbEntity
  8
0-A
  6
JWW_PHANTOM1
 62
     4
370
     9
100
AcDbLine
 10
-107.3491803142741
 20
56.43438862970978
 30
0.0
 11
-107.8607731056215
 21
50.80532814222029
 31
0.0
  0
LINE
  5
25E
330
1F
100
AcDbEntity
  8
0-A
  6
JWW_PHANTOM1
 62
     4
370
     9
100
AcDbLine
 10
-103.2684412892907
 20
58.24629288887964
 30
0.0
 11
-104.1735535374205
 21
48.28736353978306
 31
0.0
  0
LINE
  5
25F
330
1F
100
AcDbEntity
  8
0-A
  6
JWW_PHANTOM1
 62
     4
370
     9
100
AcDbLine
 10
-105.3506473967653
 20
58.2532919010056
 30
0.0
 11
-103.2684412892907
 21
58.24629288887964
 31
0.0
  0
LINE
  5
260
330
1F
100
AcDbEntity
  8
0-A
  6
JWW_PHANTOM1
 62
     4
370
     9
100
AcDbLine
 10
-109.741162698444
 20
53.81392349468777
 30
0.0
 11
-89.71329702716093
 21
51.99372540614862
 31
0.0
  0
LINE
  5
261
330
1F
100
AcDbEntity
  8
0-1_ピット
  6
Continuous
 62
     2
370
     9
100
AcDbLine
 10
-108.0286094164022
 20
-14.18287911148983
 30
0.0
 11
-108.0286094164022
 21
-17.99706075965585
 31
0.0
  0
LINE
  5
262
330
1F
100
AcDbEntity
  8
0-1_ピット
  6
Continuous
 62
     2
370
     9
100
AcDbLine
 10
-108.8986216187203
 20
-15.05292630886861
 30
0.0
 11
-108.8986216187203
 21
-17.76395866080064
 31
0.0
  0
LINE
  5
263
330
1F
100
AcDbEntity
  8
0-1_ピット
  6
Continuous
 62
     2
370
     9
100
AcDbLine
 10
-113.1586403393103
 20
-15.05292630886861
 30
0.0
 11
-113.1586403393103
 21
-16.62248977317692
 31
0.0
  0
LINE
  5
264
330
1F
100
AcDbEntity
  8
0-1_ピット
  6
Continuous
 62
     2
370
     9
100
AcDbLine
 10
-114.0286525416284
 20
-14.18294910161113
 30
0.0
 11
-114.0286525416284
 21
-16.38938767432164
 31
0.0
  0
LINE
  5
265
330
1F
100
AcDbEntity
  8
0-1_ピット
  6
Continuous
 62
     2
370
     9
100
AcDbLine
 10
38.84135565452117
 20
-15.05303129405054
 30
0.0
 11
38.84135565452117
 21
-17.76395866080068
 31
0.0
  0
LINE
  5
266
330
1F
100
AcDbEntity
  8
0-1_ピット
  6
Continuous
 62
     2
370
     9
100
AcDbLine
 10
37.97134345220302
 20
-14.18291410655054
 30
0.0
 11
37.97134345220302
 21
-17.99706075965589
 31
0.0
  0
LINE
  5
267
330
1F
100
AcDbEntity
  8
0-1_ピット
  6
Continuous
 62
     2
370
     9
100
AcDbLine
 10
43.97138657742924
 20
-14.18284411642926
 30
0.0
 11
43.97138657742924
 21
-16.38938767432168
 31
0.0
  0
LINE
  5
268
330
1F
100
AcDbEntity
  8
0-1_ピット
  6
Continuous
 62
     2
370
     9
100
AcDbLine
 10
43.10137437511114
 20
-15.05289131380802
 30
0.0
 11
43.10137437511114
 21
-16.62248977317696
 31
0.0
  0
LINE
  5
269
330
1F
100
AcDbEntity
  8
0-0_通り芯
  6
Continuous
 62
     3
370
     9
100
AcDbLine
 10
18.59898775910759
 20
-30.82387032242735
 30
0.0
 11
24.02287220612435
 21
-30.22220024501879
 31
0.0
  0
LINE
  5
26A
330
1F
100
AcDbEntity
  8
0-0_通り芯
  6
Continuous
 62
     3
370
     9
100
AcDbLine
 10
17.2848182472757
 20
-32.0680847080602
 30
0.0
 11
16.63793455153339
 21
-35.94893194672608
 31
0.0
  0
LINE
  5
26B
330
1F
100
AcDbEntity
  8
0-2_本体（蓋）
  6
Continuous
 62
     6
370
     5
100
AcDbLine
 10
45.97135429242381
 20
-4.592622726128525
 30
0.0
 11
44.97133543986591
 21
-3.592603873570582
 31
0.0
  0
LINE
  5
26C
330
1F
100
AcDbEntity
  8
0-2_本体（蓋）
  6
Continuous
 62
     6
370
     5
100
AcDbLine
 10
-98.19251273011628
 20
52.90741144413275
 30
0.0
 11
-99.83794548587005
 21
51.40738316529583
 31
0.0
  0
LINE
  5
26D
330
1F
100
AcDbEntity
  8
0-2_本体（蓋）
  6
Continuous
 62
     6
370
     5
100
AcDbLine
 10
-97.54366931097866
 20
59.90740343179563
 30
0.0
 11
-98.19251273011628
 21
52.90741144413275
 31
0.0
  0
LINE
  5
26E
330
1F
100
AcDbEntity
  8
0-2_本体（蓋）
  6
Continuous
 62
     6
370
     5
100
AcDbLine
 10
45.12062436851276
 20
-9.271532322457517
 30
0.0
 11
45.97135429242381
 21
-4.592622726128525
 31
0.0
  0
LINE
  5
26F
330
1F
100
AcDbEntity
  8
0-2_本体（蓋）
  6
Continuous
 62
     6
370
     5
100
AcDbLine
 10
30.20726931074851
 20
-7.369480787105211
 30
0.0
 11
23.97135947687729
 21
59.90740343179561
 31
0.0
  0
LINE
  5
270
330
1F
100
AcDbEntity
  8
0-2_本体（蓋）
  6
Continuous
 62
     6
370
     5
100
AcDbLine
 10
-98.13851535156445
 20
59.90740343179563
 30
0.0
 11
28.08117939724405
 21
59.90740343179561
 31
0.0
  0
LINE
  5
271
330
1F
100
AcDbEntity
  8
0-2_本体（蓋）
  6
Continuous
 62
     6
370
     5
100
AcDbLine
 10
36.97132459964511
 20
-4.185210230276098
 30
0.0
 11
35.47129632080826
 21
-10.09258643495452
 31
0.0
  0
LINE
  5
272
330
1F
100
AcDbEntity
  8
0-2_本体（蓋）
  6
Continuous
 62
     6
370
     5
100
AcDbLine
 10
35.97130574708721
 20
-3.185191377718198
 30
0.0
 11
36.97132459964511
 21
-4.185210230276098
 31
0.0
  0
LINE
  5
273
330
1F
100
AcDbEntity
  8
0-2_本体（蓋）
  6
Continuous
 62
     6
370
     5
100
AcDbLine
 10
29.07692885240515
 20
58.99970154917918
 30
0.0
 11
34.75578731117081
 21
-2.266501046063986
 31
0.0
  0
LINE
  5
274
330
1F
100
AcDbEntity
  8
0-2_本体（蓋）
  6
JWW_DASHED1
 62
     6
370
     5
100
AcDbLine
 10
-97.73628212468525
 20
19.90741922081289
 30
0.0
 11
-102.8504252900674
 21
18.90747035837623
 31
0.0
  0
LINE
  5
275
330
1F
100
AcDbEntity
  8
0-2_本体（蓋）
  6
JWW_DASHED1
 62
     6
370
     5
100
AcDbLine
 10
27.67901616048611
 20
19.90741922081287
 30
0.0
 11
32.79312433080763
 21
18.90747035837621
 31
0.0
  0
LINE
  5
276
330
1F
100
AcDbEntity
  8
0-2_本体（蓋）
  6
Continuous
 62
     6
370
     5
100
AcDbLine
 10
44.97133543986591
 20
-3.592603873570582
 30
0.0
 11
43.97124659718672
 21
-3.54732026511563
 31
0.0
  0
LINE
  5
277
330
1F
100
AcDbEntity
  8
0-2_本体（蓋）
  6
Continuous
 62
     6
370
     5
100
AcDbLine
 10
37.97127346208178
 20
-3.275758594628144
 30
0.0
 11
35.70632314799813
 21
-3.173223066982771
 31
0.0
  0
LINE
  5
278
330
1F
100
AcDbEntity
  8
0-2_本体（蓋）
  6
JWW_PHANTOM1
 62
     6
370
     5
100
AcDbLine
 10
-93.02867657863973
 20
59.90740343179563
 30
0.0
 11
-94.44364936261582
 21
32.90745433370201
 31
0.0
  0
LINE
  5
279
330
1F
100
AcDbEntity
  8
0-2_本体（蓋）
  6
JWW_PHANTOM1
 62
     6
370
     5
100
AcDbLine
 10
-95.61971086767208
 20
32.90745433370201
 30
0.0
 11
-94.44364936261582
 21
32.90745433370201
 31
0.0
  0
LINE
  5
27A
330
1F
100
AcDbEntity
  8
0-2_本体（蓋）
  6
JWW_PHANTOM1
 62
     6
370
     5
100
AcDbLine
 10
22.97141061444062
 20
59.90740343179561
 30
0.0
 11
24.38640089594702
 21
32.90745433370199
 31
0.0
  0
LINE
  5
27B
330
1F
100
AcDbEntity
  8
0-2_本体（蓋）
  6
JWW_PHANTOM1
 62
     6
370
     5
100
AcDbLine
 10
25.56244490347296
 20
32.90745433370199
 30
0.0
 11
24.38640089594702
 21
32.90745433370199
 31
0.0
  0
LINE
  5
27C
330
1F
100
AcDbEntity
  8
0-2_本体（蓋）
  6
Continuous
 62
     6
370
     5
100
AcDbLine
 10
-107.1319834704751
 20
-10.09258643495448
 30
0.0
 11
-97.52865642996846
 21
-10.09258643495448
 31
0.0
  0
LINE
  5
27D
330
1F
100
AcDbEntity
  8
0-2_本体（蓋）
  6
Continuous
 62
     6
370
     5
100
AcDbLine
 10
-82.52861860702417
 20
-10.0925864349545
 30
0.0
 11
37.07476999886687
 21
-10.09258643495452
 31
0.0
  0
LINE
  5
27E
330
1F
100
AcDbEntity
  8
0-2_本体（蓋）
  6
Continuous
 62
     6
370
     5
100
AcDbLine
 10
-116.0286027590926
 20
-4.592622726128482
 30
0.0
 11
-115.0285839065347
 21
-3.592603873570539
 31
0.0
  0
LINE
  5
27F
330
1F
100
AcDbEntity
  8
0-2_本体（蓋）
  6
Continuous
 62
     6
370
     5
100
AcDbLine
 10
-115.1778728351816
 20
-9.271532322457475
 30
0.0
 11
-116.0286027590926
 21
-4.592622726128482
 31
0.0
  0
LINE
  5
280
330
1F
100
AcDbEntity
  8
0-2_本体（蓋）
  6
Continuous
 62
     6
370
     5
100
AcDbLine
 10
-107.0285730663139
 20
-4.185210230276056
 30
0.0
 11
-105.528544787477
 21
-10.09258643495448
 31
0.0
  0
LINE
  5
281
330
1F
100
AcDbEntity
  8
0-2_本体（蓋）
  6
Continuous
 62
     6
370
     5
100
AcDbLine
 10
-106.028554213756
 20
-3.185191377718155
 30
0.0
 11
-107.0285730663139
 21
-4.185210230276056
 31
0.0
  0
LINE
  5
282
330
1F
100
AcDbEntity
  8
0-2_本体（蓋）
  6
Continuous
 62
     6
370
     5
100
AcDbLine
 10
-115.0285839065347
 20
-3.592603873570539
 30
0.0
 11
-114.0284950638556
 21
-3.547320265115587
 31
0.0
  0
LINE
  5
283
330
1F
100
AcDbEntity
  8
0-2_本体（蓋）
  6
Continuous
 62
     6
370
     5
100
AcDbLine
 10
-108.0285219287506
 20
-3.275758594628101
 30
0.0
 11
-105.763571614667
 21
-3.173223066982729
 31
0.0
  0
LINE
  5
284
330
1F
100
AcDbEntity
  8
0-2_本体（蓋）
  6
Continuous
 62
     6
370
     5
100
AcDbLine
 10
-99.13426480672551
 20
58.9997015491792
 30
0.0
 11
-104.8130357778396
 21
-2.266501046063944
 31
0.0
  0
LINE
  5
285
330
1F
100
AcDbEntity
  8
0-2_本体（蓋）
  6
Continuous
 62
     6
370
     5
100
AcDbLine
 10
-94.02864293860671
 20
59.90740343179563
 30
0.0
 11
-100.2646052650689
 21
-7.369480787105168
 31
0.0
  0
LINE
  5
286
330
1F
100
AcDbEntity
  8
0-0_通り芯
  6
JWW_CENTER1
 62
     3
370
     9
100
AcDbLine
 10
-35.02863298209957
 20
63.7999040256512
 30
0.0
 11
-35.02863298209959
 21
-91.63020282593396
 31
0.0
  0
ARC
  5
287
330
1F
100
AcDbEntity
  8
0-1_ピット
  6
JWW_DASHED1
 62
     2
370
     9
100
AcDbCircle
 10
-114.7947119163456
 20
-10.49009532864866
 30
0.0
 40
1.999999976066088
100
AcDbArc
 50
190.6148834228515
 51
255.0005035400391
  0
ARC
  5
288
330
1F
100
AcDbEntity
  8
0-1_ピット
  6
JWW_DASHED1
 62
     2
370
     9
100
AcDbCircle
 10
44.73753343979806
 20
-10.49009532864871
 30
0.0
 40
1.999999976066088
100
AcDbArc
 50
284.9994964599609
 51
349.3851165771484
  0
ARC
  5
289
330
1F
100
AcDbEntity
  8
0-1_ピット
  6
Continuous
 62
     2
370
     9
100
AcDbCircle
 10
-79.25833019116692
 20
-17.09261341767802
 30
0.0
 40
1.499999982049566
100
AcDbArc
 50
11.31021118164063
 51
90.00000000000001
  0
ARC
  5
28A
330
1F
100
AcDbEntity
  8
0-1_ピット
  6
Continuous
 62
     2
370
     9
100
AcDbCircle
 10
54.42983542195598
 20
-6.85774801551527
 30
0.0
 40
2.999999964099133
100
AcDbArc
 50
188.7071380615235
 51
285.0002746582032
  0
ARC
  5
28B
330
1F
100
AcDbEntity
  8
0-1_ピット
  6
Continuous
 62
     2
370
     9
100
AcDbCircle
 10
-124.4870663910945
 20
-6.857748015515227
 30
0.0
 40
2.999999964099133
100
AcDbArc
 50
254.9997253417969
 51
351.2928619384766
  0
ARC
  5
28C
330
1F
100
AcDbEntity
  8
0-1_ピット
  6
Continuous
 62
     4
370
     9
100
AcDbCircle
 10
-95.6522212789972
 20
-11.89283733893463
 30
0.0
 40
2.800173520121335
100
AcDbArc
 50
47.92556762695312
 51
132.0746307373047
  0
ARC
  5
28D
330
1F
100
AcDbEntity
  8
0-1_ピット
  6
Continuous
 62
     4
370
     9
100
AcDbCircle
 10
-90.02863751849632
 20
-19.18202850764243
 30
0.0
 40
10.08940952625054
100
AcDbArc
 50
68.19786071777345
 51
111.8021392822266
  0
ARC
  5
28E
330
1F
100
AcDbEntity
  8
0-1_ピット
  6
Continuous
 62
     4
370
     9
100
AcDbCircle
 10
-84.40505375799545
 20
-11.89283733893465
 30
0.0
 40
2.800189650657094
100
AcDbArc
 50
47.92572021484376
 51
132.0742797851562
  0
ARC
  5
28F
330
1F
100
AcDbEntity
  8
0-1_ピット
  6
Continuous
 62
     2
370
     9
100
AcDbCircle
 10
35.22804565437034
 20
-11.59257971873076
 30
0.0
 40
1.499999982049566
100
AcDbArc
 50
90.0
 51
169.911865234375
  0
ARC
  5
290
330
1F
100
AcDbEntity
  8
0-1_ピット
  6
Continuous
 62
     2
370
     9
100
AcDbCircle
 10
45.60187644229413
 20
-8.592593151178278
 30
0.0
 40
1.499999982049566
100
AcDbArc
 50
270.0
 51
349.3843536376953
  0
ARC
  5
291
330
1F
100
AcDbEntity
  8
0-1_ピット
  6
Continuous
 62
     2
370
     9
100
AcDbCircle
 10
31.22506565410639
 20
-14.11068430141059
 30
0.0
 40
1.999999976066088
100
AcDbArc
 50
284.9994964599609
 51
349.9125671386718
  0
ARC
  5
292
330
1F
100
AcDbEntity
  8
0-1_ピット
  6
Continuous
 62
     2
370
     9
100
AcDbCircle
 10
20.7256375935821
 20
-18.09263227023598
 30
0.0
 40
0.9999999880330441
100
AcDbArc
 50
90.0
 51
164.0540161132812
  0
ARC
  5
293
330
1F
100
AcDbEntity
  8
0-1_ピット
  6
Continuous
 62
     2
370
     9
100
AcDbCircle
 10
-105.2853116185695
 20
-11.59257971873072
 30
0.0
 40
1.499999982049566
100
AcDbArc
 50
10.088134765625
 51
90.0
  0
ARC
  5
294
330
1F
100
AcDbEntity
  8
0-1_ピット
  6
Continuous
 62
     2
370
     9
100
AcDbCircle
 10
-115.6591424064933
 20
-8.592593151178235
 30
0.0
 40
1.499999982049566
100
AcDbArc
 50
190.6156463623047
 51
270.0
  0
ARC
  5
295
330
1F
100
AcDbEntity
  8
0-1_ピット
  6
Continuous
 62
     2
370
     9
100
AcDbCircle
 10
-101.3745261055348
 20
-13.59261742384656
 30
0.0
 40
1.999999976066088
100
AcDbArc
 50
190.0893707275391
 51
270.0
  0
ARC
  5
296
330
1F
100
AcDbEntity
  8
0-0_通り芯
  6
Continuous
 62
     3
370
     9
100
AcDbCircle
 10
-115.1552485284844
 20
-17.6404260967773
 30
0.0
 40
1.499999982049566
100
AcDbArc
 50
254.9999084472656
 51
318.4355773925781
  0
ARC
  5
297
330
1F
100
AcDbEntity
  8
0-0_通り芯
  6
Continuous
 62
     3
370
     9
100
AcDbCircle
 10
-120.1256319847992
 20
-16.30858407932741
 30
0.0
 40
1.499999982049566
100
AcDbArc
 50
191.5648956298828
 51
254.9999084472656
  0
ARC
  5
298
330
1F
100
AcDbEntity
  8
0-0_通り芯
  6
Continuous
 62
     3
370
     9
100
AcDbCircle
 10
-126.2668101895456
 20
-12.46311684695829
 30
0.0
 40
1.625007669898074
100
AcDbArc
 50
187.620590209961
 51
322.37890625
  0
ARC
  5
299
330
1F
100
AcDbEntity
  8
0-0_通り芯
  6
Continuous
 62
     3
370
     9
100
AcDbCircle
 10
-122.9375201014664
 20
-15.03749348713083
 30
0.0
 40
0.9999999880330441
100
AcDbArc
 50
11.56642150878907
 51
75.00077819824219
  0
ARC
  5
29A
330
1F
100
AcDbEntity
  8
0-0_通り芯
  6
Continuous
 62
     3
370
     9
100
AcDbCircle
 10
-112.0843969631565
 20
-17.9455830254694
 30
0.0
 40
0.9999999880330441
100
AcDbArc
 50
75.00022888183594
 51
138.4349822998047
  0
ARC
  5
29B
330
1F
100
AcDbEntity
  8
0-0_通り芯
  6
Continuous
 62
     3
370
     9
100
AcDbCircle
 10
-132.0623421804511
 20
-10.91017603644913
 30
0.0
 40
1.625007669898074
100
AcDbArc
 50
187.6192932128907
 51
322.3796997070313
  0
ARC
  5
29C
330
1F
100
AcDbEntity
  8
0-0_通り芯
  6
Continuous
 62
     3
370
     9
100
AcDbCircle
 10
-107.914140573082
 20
-17.38069275678274
 30
0.0
 40
1.625007669898074
100
AcDbArc
 50
187.620590209961
 51
322.3807373046876
  0
ARC
  5
29D
330
1F
100
AcDbEntity
  8
0-0_通り芯
  6
Continuous
 62
     3
370
     9
100
AcDbCircle
 10
-127.2165761350391
 20
-19.06731469889785
 30
0.0
 40
1.999999976066088
100
AcDbArc
 50
11.56620788574219
 51
75.00050354003906
  0
ARC
  5
29E
330
1F
100
AcDbEntity
  8
0-0_通り芯
  6
JWW_DASHED1
 62
     3
370
     9
100
AcDbCircle
 10
40.33637963968793
 20
-23.57502845862584
 30
0.0
 40
1.999999976066088
100
AcDbArc
 50
41.56492614746094
 51
105.000244140625
  0
ARC
  5
29F
330
1F
100
AcDbEntity
  8
0-0_通り芯
  6
JWW_DASHED1
 62
     3
370
     9
100
AcDbCircle
 10
43.74510851539678
 20
-22.14394044922968
 30
0.0
 40
1.499999982049566
100
AcDbArc
 50
221.5634918212891
 51
284.9987182617188
  0
ARC
  5
2A0
330
1F
100
AcDbEntity
  8
0-0_通り芯
  6
Continuous
 62
     3
370
     9
100
AcDbCircle
 10
-100.0453962052837
 20
-48.94903704973642
 30
0.0
 40
0.9999999880330441
100
AcDbArc
 50
4.55455017089844
 51
90.00000000000001
  0
ARC
  5
2A1
330
1F
100
AcDbEntity
  8
0-0_通り芯
  6
Continuous
 62
     3
370
     9
100
AcDbCircle
 10
37.76305285133427
 20
-39.4489979306788
 30
0.0
 40
1.499999982049566
100
AcDbArc
 50
90.0
 51
171.4692993164062
  0
ARC
  5
2A2
330
1F
100
AcDbEntity
  8
0-0_通り芯
  6
JWW_DASHED1
 62
     3
370
     9
100
AcDbCircle
 10
32.75113025805187
 20
-39.4489979306788
 30
0.0
 40
1.499999982049566
100
AcDbArc
 50
90.0
 51
175.4449920654297
  0
ARC
  5
2A3
330
1F
100
AcDbEntity
  8
0-0_通り芯
  6
Continuous
 62
     3
370
     9
100
AcDbCircle
 10
-95.68165212498688
 20
-65.94900759261468
 30
0.0
 40
1.999999976066088
100
AcDbArc
 50
184.5546264648438
 51
270.0
  0
ARC
  5
2A4
330
1F
100
AcDbEntity
  8
0-0_通り芯
  6
Continuous
 62
     3
370
     9
100
AcDbCircle
 10
55.27794071631982
 20
-22.54225422931837
 30
0.0
 40
1.999999976066088
100
AcDbArc
 50
120.690414428711
 51
171.5652465820313
  0
ARC
  5
2A5
330
1F
100
AcDbEntity
  8
0-0_通り芯
  6
JWW_DASHED1
 62
     3
370
     9
100
AcDbCircle
 10
35.33117609804643
 20
-25.95140304575479
 30
0.0
 40
2.999999964099133
100
AcDbArc
 50
105.0000915527343
 51
175.4454040527344
  0
ARC
  5
2A6
330
1F
100
AcDbEntity
  8
0-0_通り芯
  6
JWW_DASHED1
 62
     3
370
     9
100
AcDbCircle
 10
-93.7493648572504
 20
-27.24048109911508
 30
0.0
 40
2.999999964099133
100
AcDbArc
 50
184.5545959472656
 51
263.6697540283203
  0
ARC
  5
2A7
330
1F
100
AcDbEntity
  8
0-0_通り芯
  6
JWW_DASHED1
 62
     3
370
     9
100
AcDbCircle
 10
-88.82178036008581
 20
-32.31469490031861
 30
0.0
 40
1.499999982049566
100
AcDbArc
 50
9.462326049804696
 51
83.67115783691408
  0
ARC
  5
2A8
330
1F
100
AcDbEntity
  8
0-0_通り芯
  6
Continuous
 62
     3
370
     9
100
AcDbCircle
 10
-84.90793277924605
 20
-22.44902738780052
 30
0.0
 40
0.9999999880330441
100
AcDbArc
 50
7.352645874023451
 51
90.00000000000001
  0
ARC
  5
2A9
330
1F
100
AcDbEntity
  8
0-0_通り芯
  6
Continuous
 62
     3
370
     9
100
AcDbCircle
 10
45.09787757910338
 20
-17.64042609677735
 30
0.0
 40
1.499999982049566
100
AcDbArc
 50
221.5644226074219
 51
285.0000915527344
  0
ARC
  5
2AA
330
1F
100
AcDbEntity
  8
0-0_通り芯
  6
Continuous
 62
     3
370
     9
100
AcDbCircle
 10
50.06829603047883
 20
-16.30858407932745
 30
0.0
 40
1.499999982049566
100
AcDbArc
 50
285.0000915527344
 51
348.4351043701172
  0
ARC
  5
2AB
330
1F
100
AcDbEntity
  8
0-0_通り芯
  6
Continuous
 62
     3
370
     9
100
AcDbCircle
 10
56.20950923028578
 20
-12.46311684695833
 30
0.0
 40
1.625007669898074
100
AcDbArc
 50
217.62109375
 51
352.3794097900391
  0
ARC
  5
2AC
330
1F
100
AcDbEntity
  8
0-0_通り芯
  6
Continuous
 62
     3
370
     9
100
AcDbCircle
 10
52.88021914220665
 20
-15.03749348713087
 30
0.0
 40
0.9999999880330441
100
AcDbArc
 50
104.9992218017578
 51
168.4335784912109
  0
ARC
  5
2AD
330
1F
100
AcDbEntity
  8
0-0_通り芯
  6
Continuous
 62
     3
370
     9
100
AcDbCircle
 10
42.02699101871484
 20
-17.94558302546945
 30
0.0
 40
0.9999999880330441
100
AcDbArc
 50
41.56501770019532
 51
104.9997711181641
  0
ARC
  5
2AE
330
1F
100
AcDbEntity
  8
0-0_通り芯
  6
Continuous
 62
     3
370
     9
100
AcDbCircle
 10
62.00497123107009
 20
-10.91017603644917
 30
0.0
 40
1.625007669898074
100
AcDbArc
 50
217.6203002929688
 51
352.3807067871094
  0
ARC
  5
2AF
330
1F
100
AcDbEntity
  8
0-0_通り芯
  6
Continuous
 62
     3
370
     9
100
AcDbCircle
 10
37.85683961382226
 20
-17.38069275678279
 30
0.0
 40
1.625007669898074
100
AcDbArc
 50
217.6192626953125
 51
352.3794097900391
  0
ARC
  5
2B0
330
1F
100
AcDbEntity
  8
0-0_通り芯
  6
Continuous
 62
     3
370
     9
100
AcDbCircle
 10
57.15927517577926
 20
-19.06731469889789
 30
0.0
 40
1.999999976066088
100
AcDbArc
 50
104.999496459961
 51
168.4337921142578
  0
ARC
  5
2B1
330
1F
100
AcDbEntity
  8
0-0_通り芯
  6
Continuous
 62
     3
370
     9
100
AcDbCircle
 10
-110.3936805989477
 20
-23.57502845862579
 30
0.0
 40
1.999999976066088
100
AcDbArc
 50
74.999755859375
 51
138.435073852539
  0
ARC
  5
2B2
330
1F
100
AcDbEntity
  8
0-0_通り芯
  6
Continuous
 62
     3
370
     9
100
AcDbCircle
 10
53.49151286128846
 20
-19.53246904478956
 30
0.0
 40
1.499999982049566
100
AcDbArc
 50
284.9987182617188
 51
348.4337158203125
  0
ARC
  5
2B3
330
1F
100
AcDbEntity
  8
0-0_通り芯
  6
Continuous
 62
     3
370
     9
100
AcDbCircle
 10
-113.8024794647778
 20
-22.14394044922964
 30
0.0
 40
1.499999982049566
100
AcDbArc
 50
255.0012817382812
 51
318.4365081787109
  0
ARC
  5
2B4
330
1F
100
AcDbEntity
  8
0-0_通り芯
  6
JWW_DASHED1
 62
     3
370
     9
100
AcDbCircle
 10
29.98813024108452
 20
-48.94903704973646
 30
0.0
 40
0.9999999880330441
100
AcDbArc
 50
90.0
 51
175.4454498291016
  0
ARC
  5
2B5
330
1F
100
AcDbEntity
  8
0-0_通り芯
  6
Continuous
 62
     3
370
     9
100
AcDbCircle
 10
25.62438616078774
 20
-65.94900759261472
 30
0.0
 40
1.999999976066088
100
AcDbArc
 50
270.0
 51
355.4453735351563
  0
ARC
  5
2B6
330
1F
100
AcDbEntity
  8
0-0_通り芯
  6
Continuous
 62
     3
370
     9
100
AcDbCircle
 10
-105.3885470474274
 20
-25.95140304575475
 30
0.0
 40
2.999999964099133
100
AcDbArc
 50
4.554595947265617
 51
74.99990844726562
  0
ARC
  5
2B7
330
1F
100
AcDbEntity
  8
0-0_通り芯
  6
Continuous
 62
     3
370
     9
100
AcDbCircle
 10
23.69209889305123
 20
-27.2404810991151
 30
0.0
 40
2.999999964099133
100
AcDbArc
 50
276.3302459716797
 51
355.4454040527344
  0
ARC
  5
2B8
330
1F
100
AcDbEntity
  8
0-0_通り芯
  6
Continuous
 62
     3
370
     9
100
AcDbCircle
 10
18.76437441564414
 20
-32.31469490031861
 30
0.0
 40
1.499999982049566
100
AcDbArc
 50
96.32884216308594
 51
170.5376739501953
  0
ARC
  5
2B9
330
1F
100
AcDbEntity
  8
0-0_通り芯
  6
Continuous
 62
     3
370
     9
100
AcDbCircle
 10
30.03054425456791
 20
-23.23053708178578
 30
0.0
 40
2.999999964099133
100
AcDbArc
 50
105.0000915527343
 51
175.4457550048828
  0
ARC
  5
2BA
330
1F
100
AcDbEntity
  8
0-0_通り芯
  6
Continuous
 62
     3
370
     9
100
AcDbCircle
 10
-100.0878802088883
 20
-23.23053708178574
 30
0.0
 40
2.999999964099133
100
AcDbArc
 50
36.43096923828124
 51
74.99990844726561
  0
ARC
  5
2BB
330
1F
100
AcDbEntity
  8
0-0_通り芯
  6
JWW_DASHED1
 62
     3
370
     9
100
AcDbCircle
 10
-100.0878802088883
 20
-23.23053708178574
 30
0.0
 40
2.999999964099133
100
AcDbArc
 50
4.554244995117188
 51
36.43096923828126
  0
ARC
  5
2BC
330
1F
100
AcDbEntity
  8
0-0_通り芯
  6
Continuous
 62
     3
370
     9
100
AcDbCircle
 10
49.67733121312241
 20
-36.44901136312627
 30
0.0
 40
1.499999982049566
100
AcDbArc
 50
270.0
 51
351.5648498535156
  0
ARC
  5
2BD
330
1F
100
AcDbEntity
  8
0-0_通り芯
  6
Continuous
 62
     3
370
     9
100
AcDbCircle
 10
50.97116859472836
 20
-50.94889977954911
 30
0.0
 40
1.999999976066088
100
AcDbArc
 50
180.0
 51
270.0
  0
ARC
  5
2BE
330
1F
100
AcDbEntity
  8
0-0_通り芯
  6
Continuous
 62
     3
370
     9
100
AcDbCircle
 10
50.97116859472836
 20
-50.94889977954911
 30
0.0
 40
7.999999904264353
100
AcDbArc
 50
180.0
 51
270.0
  0
ARC
  5
2BF
330
1F
100
AcDbEntity
  8
0-0_通り芯
  6
JWW_CENTER1
 62
     3
370
     9
100
AcDbCircle
 10
50.97130857497088
 20
-50.94889977954911
 30
0.0
 40
5.000000213564133
100
AcDbArc
 50
180.0
 51
270.0
  0
ARC
  5
2C0
330
1F
100
AcDbEntity
  8
0-0_通り芯
  6
Continuous
 62
     3
370
     9
100
AcDbCircle
 10
-123.5488838106695
 20
-19.53246904478952
 30
0.0
 40
1.499999982049566
100
AcDbArc
 50
191.5662841796875
 51
255.000473022461
  0
ARC
  5
2C1
330
1F
100
AcDbEntity
  8
0-0_通り芯
  6
Continuous
 62
     3
370
     9
100
AcDbCircle
 10
-135.5167746053425
 20
-26.16081348856361
 30
0.0
 40
10.99999959496458
100
AcDbArc
 50
75.00012207031251
 51
123.1295013427734
  0
ARC
  5
2C2
330
1F
100
AcDbEntity
  8
0-0_通り芯
  6
Continuous
 62
     3
370
     9
100
AcDbCircle
 10
65.45940365596144
 20
-26.16081348856365
 30
0.0
 40
10.99999959496458
100
AcDbArc
 50
56.87049865722658
 51
104.9998779296875
  0
ARC
  5
2C3
330
1F
100
AcDbEntity
  8
0-0_通り芯
  6
Continuous
 62
     3
370
     9
100
AcDbCircle
 10
75.58851398490091
 20
-8.948982848632454
 30
0.0
 40
0.9999999880330441
100
AcDbArc
 50
7.124267578125002
 51
90.00000000000001
  0
ARC
  5
2C4
330
1F
100
AcDbEntity
  8
0-0_通り芯
  6
Continuous
 62
     3
370
     9
100
AcDbCircle
 10
-145.6458849342819
 20
-8.948982848632411
 30
0.0
 40
0.9999999880330441
100
AcDbArc
 50
90.0
 51
172.875732421875
  0
ARC
  5
2C5
330
1F
100
AcDbEntity
  8
0-0_通り芯
  6
Continuous
 62
     3
370
     9
100
AcDbCircle
 10
28.79311891069725
 20
-63.94896988749885
 30
0.0
 40
0.9999999880330441
100
AcDbArc
 50
90.0
 51
175.4456634521484
  0
ARC
  5
2C6
330
1F
100
AcDbEntity
  8
0-A
  6
Continuous
 62
     4
370
     9
100
AcDbCircle
 10
43.79739113597775
 20
-1.152923221762251
 30
0.0
 40
1.999999976066088
100
AcDbArc
 50
5.000015258789066
 51
90.0
  0
ARC
  5
2C7
330
1F
100
AcDbEntity
  8
0-A
  6
Continuous
 62
     4
370
     9
100
AcDbCircle
 10
38.14519891341199
 20
-1.152923221762251
 30
0.0
 40
1.999999976066088
100
AcDbArc
 50
90.0
 51
174.9999847412109
  0
ARC
  5
2C8
330
1F
100
AcDbEntity
  8
0-A
  6
Continuous
 62
     4
370
     9
100
AcDbCircle
 10
-113.8547620853588
 20
-1.152923221762208
 30
0.0
 40
1.999999976066088
100
AcDbArc
 50
90.0
 51
174.9999847412109
  0
ARC
  5
2C9
330
1F
100
AcDbEntity
  8
0-A
  6
Continuous
 62
     4
370
     9
100
AcDbCircle
 10
-108.2024998726718
 20
-1.152923221762208
 30
0.0
 40
1.999999976066088
100
AcDbArc
 50
5.000015258789066
 51
90.0
  0
ARC
  5
2CA
330
1F
100
AcDbEntity
  8
0-A
  6
JWW_PHANTOM1
 62
     4
370
     9
100
AcDbCircle
 10
-105.868976737284
 20
50.62429869358223
 30
0.0
 40
1.999999976066088
100
AcDbArc
 50
174.8069915771484
 51
259.8069763183594
  0
ARC
  5
2CB
330
1F
100
AcDbEntity
  8
0-A
  6
JWW_PHANTOM1
 62
     4
370
     9
100
AcDbCircle
 10
-105.3573839459366
 20
56.25335918107165
 30
0.0
 40
1.999999976066088
100
AcDbArc
 50
89.80700683593753
 51
174.8069915771485
  0
ARC
  5
2CC
330
1F
100
AcDbEntity
  8
0-2_本体（蓋）
  6
Continuous
 62
     6
370
     5
100
AcDbCircle
 10
44.1367732339658
 20
-9.092637572517859
 30
0.0
 40
0.9999999880330441
100
AcDbArc
 50
270.0
 51
349.6943969726562
  0
ARC
  5
2CD
330
1F
100
AcDbEntity
  8
0-2_本体（蓋）
  6
Continuous
 62
     6
370
     5
100
AcDbCircle
 10
33.19451767623177
 20
-7.092599867402058
 30
0.0
 40
2.999999964099133
100
AcDbArc
 50
185.2956542968749
 51
270.0
  0
ARC
  5
2CE
330
1F
100
AcDbEntity
  8
0-2_本体（蓋）
  6
Continuous
 62
     6
370
     5
100
AcDbCircle
 10
28.08117939724405
 20
58.90738457923766
 30
0.0
 40
0.9999999880330441
100
AcDbArc
 50
5.295700073242203
 51
90.00000000000001
  0
ARC
  5
2CF
330
1F
100
AcDbEntity
  8
0-2_本体（蓋）
  6
Continuous
 62
     6
370
     5
100
AcDbCircle
 10
-98.13851535156445
 20
58.90738457923768
 30
0.0
 40
0.9999999880330441
100
AcDbArc
 50
90.0
 51
174.704360961914
  0
ARC
  5
2D0
330
1F
100
AcDbEntity
  8
0-2_本体（蓋）
  6
Continuous
 62
     6
370
     5
100
AcDbCircle
 10
35.75146677621062
 20
-2.174254066243748
 30
0.0
 40
0.9999999880330441
100
AcDbArc
 50
185.2957000732422
 51
267.4088897705078
  0
ARC
  5
2D1
330
1F
100
AcDbEntity
  8
0-2_本体（蓋）
  6
JWW_PHANTOM1
 62
     6
370
     5
100
AcDbCircle
 10
-95.61971086767208
 20
31.90743548114406
 30
0.0
 40
0.9999999880330441
100
AcDbArc
 50
90.0
 51
174.7050933837891
  0
ARC
  5
2D2
330
1F
100
AcDbEntity
  8
0-2_本体（蓋）
  6
JWW_PHANTOM1
 62
     6
370
     5
100
AcDbCircle
 10
25.56244490347296
 20
31.90743548114404
 30
0.0
 40
0.9999999880330441
100
AcDbArc
 50
5.294906616210942
 51
90.00000000000001
  0
ARC
  5
2D3
330
1F
100
AcDbEntity
  8
0-2_本体（蓋）
  6
Continuous
 62
     6
370
     5
100
AcDbCircle
 10
-114.1940217006346
 20
-9.092637572517816
 30
0.0
 40
0.9999999880330441
100
AcDbArc
 50
190.3056030273438
 51
270.0
  0
ARC
  5
2D4
330
1F
100
AcDbEntity
  8
0-2_本体（蓋）
  6
Continuous
 62
     6
370
     5
100
AcDbCircle
 10
-103.2517661429005
 20
-7.092599867402015
 30
0.0
 40
2.999999964099133
100
AcDbArc
 50
270.0
 51
354.704345703125
  0
ARC
  5
2D5
330
1F
100
AcDbEntity
  8
0-2_本体（蓋）
  6
Continuous
 62
     6
370
     5
100
AcDbCircle
 10
-105.8087152428795
 20
-2.174254066243705
 30
0.0
 40
0.9999999880330441
100
AcDbArc
 50
272.5911102294922
 51
354.7042999267578
  0
LINE
  5
2D6
330
1F
100
AcDbEntity
  8
0-6
  6
Continuous
 62
     2
370
     9
100
AcDbLine
 10
-95.97211112821441
 20
29.90739777602826
 30
0.0
 11
-96.52863757741052
 21
29.68314942751234
 31
0.0
  0
LINE
  5
2D7
330
1F
100
AcDbEntity
  8
0-6
  6
Continuous
 62
     2
370
     9
100
AcDbLine
 10
-82.42863771880475
 20
-5.316810510802149
 30
0.0
 11
-81.87211126960862
 21
-5.092562162286171
 31
0.0
  0
LINE
  5
2D8
330
1F
100
AcDbEntity
  8
0-6
  6
Continuous
 62
     2
370
     9
100
AcDbLine
 10
-95.97211112821441
 20
29.90739777602826
 30
0.0
 11
-81.87211126960862
 21
-5.092562162286171
 31
0.0
  0
LINE
  5
2D9
330
1F
100
AcDbEntity
  8
0-6
  6
Continuous
 62
     2
370
     9
100
AcDbLine
 10
-96.52863757741052
 20
29.68314942751234
 30
0.0
 11
-82.42863771880475
 21
-5.316810510802149
 31
0.0
  0
LINE
  5
2DA
330
1F
100
AcDbEntity
  8
0-6
  6
Continuous
 62
     2
370
     9
100
AcDbLine
 10
26.47140660827204
 20
29.68314942751232
 30
0.0
 11
12.37133675954498
 21
-5.316810510802149
 31
0.0
  0
LINE
  5
2DB
330
1F
100
AcDbEntity
  8
0-6
  6
Continuous
 62
     2
370
     9
100
AcDbLine
 10
25.91484516401533
 20
29.90739777602824
 30
0.0
 11
26.47140660827204
 21
29.68314942751232
 31
0.0
  0
LINE
  5
2DC
330
1F
100
AcDbEntity
  8
0-6
  6
Continuous
 62
     2
370
     9
100
AcDbLine
 10
25.91484516401533
 20
29.90739777602824
 30
0.0
 11
-95.97211112821441
 21
29.90739777602826
 31
0.0
  0
LINE
  5
2DD
330
1F
100
AcDbEntity
  8
0-6
  6
Continuous
 62
     2
370
     9
100
AcDbLine
 10
25.91484516401533
 20
29.90739777602824
 30
0.0
 11
11.81484530540949
 21
-5.092562162286171
 31
0.0
  0
LINE
  5
2DE
330
1F
100
AcDbEntity
  8
0-6
  6
Continuous
 62
     2
370
     9
100
AcDbLine
 10
11.81484530540949
 20
-5.092562162286171
 30
0.0
 11
-81.87211126960862
 21
-5.092562162286171
 31
0.0
  0
LINE
  5
2DF
330
1F
100
AcDbEntity
  8
0-6
  6
Continuous
 62
     2
370
     9
100
AcDbLine
 10
12.37133675954498
 20
-5.316810510802149
 30
0.0
 11
11.81484530540949
 21
-5.092562162286171
 31
0.0
  0
LINE
  5
2E0
330
1F
100
AcDbEntity
  8
0-6
  6
Continuous
 62
     2
370
     9
100
AcDbLine
 10
12.37133675954498
 20
-5.316810510802149
 30
0.0
 11
-82.42863771880475
 21
-5.316810510802149
 31
0.0
  0
LINE
  5
2E1
330
1F
100
AcDbEntity
  8
0-6
  6
JWW_PHANTOM1
 62
     2
370
     9
100
AcDbLine
 10
-86.5828663711108
 20
4.995114014867518
 30
0.0
 11
-87.13939282030692
 21
4.770865666351604
 31
0.0
  0
LINE
  5
2E2
330
1F
100
AcDbEntity
  8
0-6
  6
JWW_PHANTOM1
 62
     2
370
     9
100
AcDbLine
 10
-110.028647121518
 20
-17.3168267711333
 30
0.0
 11
-110.3645297134431
 21
-16.81968693982598
 31
0.0
  0
LINE
  5
2E3
330
1F
100
AcDbEntity
  8
0-6
  6
JWW_PHANTOM1
 62
     2
370
     9
100
AcDbLine
 10
-85.45224595228235
 20
0.5829367706590034
 30
0.0
 11
-87.13939282030692
 21
4.770865666351604
 31
0.0
  0
LINE
  5
2E4
330
1F
100
AcDbEntity
  8
0-6
  6
JWW_PHANTOM1
 62
     2
370
     9
100
AcDbLine
 10
-85.67288980955341
 20
-0.1383814190429504
 30
0.0
 11
-110.3645297134431
 21
-16.81968693982598
 31
0.0
  0
LINE
  5
2E5
330
1F
100
AcDbEntity
  8
0-6
  6
JWW_PHANTOM1
 62
     2
370
     9
100
AcDbLine
 10
-85.33700721762834
 20
-0.6355912404714914
 30
0.0
 11
-110.028647121518
 21
-17.3168267711333
 31
0.0
  0
LINE
  5
2E6
330
1F
100
AcDbEntity
  8
0-6
  6
JWW_PHANTOM1
 62
     2
370
     9
100
AcDbLine
 10
16.52560040691166
 20
4.995114014867518
 30
0.0
 11
17.08209186104715
 21
4.770865666351604
 31
0.0
  0
LINE
  5
2E7
330
1F
100
AcDbEntity
  8
0-6
  6
JWW_PHANTOM1
 62
     2
370
     9
100
AcDbLine
 10
39.97138115731887
 20
-17.31682677113334
 30
0.0
 11
40.30726374924391
 21
-16.81968693982602
 31
0.0
  0
LINE
  5
2E8
330
1F
100
AcDbEntity
  8
0-6
  6
JWW_PHANTOM1
 62
     2
370
     9
100
AcDbLine
 10
15.39497998808319
 20
0.5829367706590034
 30
0.0
 11
17.08209186104715
 21
4.770865666351604
 31
0.0
  0
LINE
  5
2E9
330
1F
100
AcDbEntity
  8
0-6
  6
JWW_PHANTOM1
 62
     2
370
     9
100
AcDbLine
 10
15.61565884041492
 20
-0.1383814190429504
 30
0.0
 11
40.30726374924391
 21
-16.81968693982602
 31
0.0
  0
LINE
  5
2EA
330
1F
100
AcDbEntity
  8
0-6
  6
JWW_PHANTOM1
 62
     2
370
     9
100
AcDbLine
 10
15.27970625836859
 20
-0.6355912404714914
 30
0.0
 11
39.97138115731887
 21
-17.31682677113334
 31
0.0
  0
ARC
  5
2EB
330
1F
100
AcDbEntity
  8
0-6
  6
JWW_PHANTOM1
 62
     2
370
     9
100
AcDbCircle
 10
-86.00877240147848
 20
0.3587584122643719
 30
0.0
 40
0.6000000201597175
100
AcDbArc
 50
304.0422668457031
 51
21.94041442871094
  0
ARC
  5
2EC
330
1F
100
AcDbEntity
  8
0-6
  6
JWW_PHANTOM1
 62
     2
370
     9
100
AcDbCircle
 10
-86.00877240147848
 20
0.3587584122643719
 30
0.0
 40
1.200000040319435
100
AcDbArc
 50
304.0422668457031
 51
21.94041442871094
  0
ARC
  5
2ED
330
1F
100
AcDbEntity
  8
0-6
  6
JWW_PHANTOM1
 62
     2
370
     9
100
AcDbCircle
 10
15.95147144221873
 20
0.3587584122643719
 30
0.0
 40
0.6000000201597175
100
AcDbArc
 50
158.0595855712891
 51
235.9577331542968
  0
ARC
  5
2EE
330
1F
100
AcDbEntity
  8
0-6
  6
JWW_PHANTOM1
 62
     2
370
     9
100
AcDbCircle
 10
15.95147144221873
 20
0.3587584122643719
 30
0.0
 40
1.200000040319435
100
AcDbArc
 50
158.0595855712891
 51
235.9577331542968
  0
LINE
  5
2EF
330
1F
100
AcDbEntity
  8
0-4_寸法
  6
Continuous
 62
     7
370
     9
100
AcDbLine
 10
-82.42863771880475
 20
68.75091121074308
 30
0.0
 11
12.37133675954498
 21
68.75091121074308
 31
0.0
  0
LINE
  5
2F0
330
1F
100
AcDbEntity
  8
0-4_寸法
  6
Continuous
 62
     7
370
     9
100
AcDbLine
 10
-82.42863771880475
 20
68.75091121074308
 30
0.0
 11
-74.99280125850117
 21
69.72985765239346
 31
0.0
  0
LINE
  5
2F1
330
1F
100
AcDbEntity
  8
0-4_寸法
  6
Continuous
 62
     7
370
     9
100
AcDbLine
 10
-82.42863771880475
 20
68.75091121074308
 30
0.0
 11
-74.99280125850117
 21
67.77196476909269
 31
0.0
  0
LINE
  5
2F2
330
1F
100
AcDbEntity
  8
0-4_寸法
  6
Continuous
 62
     7
370
     9
100
AcDbLine
 10
12.37133675954498
 20
68.75091121074308
 30
0.0
 11
4.935500299241396
 21
69.72985765239346
 31
0.0
  0
LINE
  5
2F3
330
1F
100
AcDbEntity
  8
0-4_寸法
  6
Continuous
 62
     7
370
     9
100
AcDbLine
 10
12.37133675954498
 20
68.75091121074308
 30
0.0
 11
4.935500299241396
 21
67.77196476909269
 31
0.0
  0
LINE
  5
2F4
330
1F
100
AcDbEntity
  8
0-4_寸法
  6
Continuous
 62
     7
370
     9
100
AcDbLine
 10
-82.42863771880475
 20
69.65091121074308
 30
0.0
 11
-82.42863771880475
 21
-1.237568051929738
 31
0.0
  0
LINE
  5
2F5
330
1F
100
AcDbEntity
  8
0-4_寸法
  6
Continuous
 62
     7
370
     9
100
AcDbLine
 10
12.37133675954498
 20
69.65091121074308
 30
0.0
 11
12.37133675954498
 21
-1.237568051929738
 31
0.0
  0
LINE
  5
2F6
330
1F
100
AcDbEntity
  8
0-4_寸法
  6
Continuous
 62
     7
370
     9
100
AcDbLine
 10
-94.02864293860671
 20
91.78272331123364
 30
0.0
 11
23.97135947687729
 21
91.78272331123364
 31
0.0
  0
LINE
  5
2F7
330
1F
100
AcDbEntity
  8
0-4_寸法
  6
Continuous
 62
     7
370
     9
100
AcDbLine
 10
-94.02864293860671
 20
91.78272331123364
 30
0.0
 11
-86.59280647830313
 21
92.76166975288402
 31
0.0
  0
LINE
  5
2F8
330
1F
100
AcDbEntity
  8
0-4_寸法
  6
Continuous
 62
     7
370
     9
100
AcDbLine
 10
-94.02864293860671
 20
91.78272331123364
 30
0.0
 11
-86.59280647830313
 21
90.80377686958325
 31
0.0
  0
LINE
  5
2F9
330
1F
100
AcDbEntity
  8
0-4_寸法
  6
Continuous
 62
     7
370
     9
100
AcDbLine
 10
23.97135947687729
 20
91.78272331123364
 30
0.0
 11
16.53552301657371
 21
92.76166975288402
 31
0.0
  0
LINE
  5
2FA
330
1F
100
AcDbEntity
  8
0-4_寸法
  6
Continuous
 62
     7
370
     9
100
AcDbLine
 10
23.97135947687729
 20
91.78272331123364
 30
0.0
 11
16.53552301657371
 21
90.80377686958325
 31
0.0
  0
LINE
  5
2FB
330
1F
100
AcDbEntity
  8
0-4_寸法
  6
Continuous
 62
     7
370
     9
100
AcDbLine
 10
-94.02864293860671
 20
92.68272331123363
 30
0.0
 11
-94.02864293860671
 21
63.34582722085159
 31
0.0
  0
LINE
  5
2FC
330
1F
100
AcDbEntity
  8
0-4_寸法
  6
Continuous
 62
     7
370
     9
100
AcDbLine
 10
23.97135947687729
 20
92.68272331123363
 30
0.0
 11
23.97135947687729
 21
63.34582722085159
 31
0.0
  0
LINE
  5
2FD
330
1F
100
AcDbEntity
  8
0-4_寸法
  6
Continuous
 62
     7
370
     9
100
AcDbLine
 10
-96.52863757741052
 20
117.6107298520394
 30
0.0
 11
26.47140660827204
 21
117.6107298520394
 31
0.0
  0
LINE
  5
2FE
330
1F
100
AcDbEntity
  8
0-4_寸法
  6
Continuous
 62
     7
370
     9
100
AcDbLine
 10
-96.52863757741052
 20
117.6107298520394
 30
0.0
 11
-89.09280111710696
 21
118.5896762936897
 31
0.0
  0
LINE
  5
2FF
330
1F
100
AcDbEntity
  8
0-4_寸法
  6
Continuous
 62
     7
370
     9
100
AcDbLine
 10
-96.52863757741052
 20
117.6107298520394
 30
0.0
 11
-89.09280111710696
 21
116.631783410389
 31
0.0
  0
LINE
  5
300
330
1F
100
AcDbEntity
  8
0-4_寸法
  6
Continuous
 62
     7
370
     9
100
AcDbLine
 10
26.47140660827204
 20
117.6107298520394
 30
0.0
 11
19.03557014796846
 21
118.5896762936897
 31
0.0
  0
LINE
  5
301
330
1F
100
AcDbEntity
  8
0-4_寸法
  6
Continuous
 62
     7
370
     9
100
AcDbLine
 10
26.47140660827204
 20
117.6107298520394
 30
0.0
 11
19.03557014796846
 21
116.631783410389
 31
0.0
  0
LINE
  5
302
330
1F
100
AcDbEntity
  8
0-4_寸法
  6
Continuous
 62
     7
370
     9
100
AcDbLine
 10
-96.52863757741052
 20
118.5107298520394
 30
0.0
 11
-96.52863757741052
 21
39.08315440979167
 31
0.0
  0
LINE
  5
303
330
1F
100
AcDbEntity
  8
0-4_寸法
  6
Continuous
 62
     7
370
     9
100
AcDbLine
 10
26.47140660827204
 20
118.5107298520394
 30
0.0
 11
26.47140660827204
 21
39.08315440979167
 31
0.0
  0
TEXT
  5
304
330
1F
100
AcDbEntity
  8
0-4_寸法
  6
Continuous
 62
     2
370
   211
100
AcDbText
 10
-48.1536504796299
 20
72.24291121074307
 30
0.0
 40
9.144
  1
φ95
 41
1.09375
  7
ＭＳ ゴシック
100
AcDbText
  0
TEXT
  5
305
330
1F
100
AcDbEntity
  8
0-4_寸法
  6
Continuous
 62
     2
370
   211
100
AcDbText
 10
-51.52864173086471
 20
95.27472331123363
 30
0.0
 40
9.144
  1
φ118
 41
1.1
  7
ＭＳ ゴシック
100
AcDbText
  0
TEXT
  5
306
330
1F
100
AcDbEntity
  8
0-4_寸法
  6
Continuous
 62
     2
370
   211
100
AcDbText
 10
-51.52861548456924
 20
121.1027298520393
 30
0.0
 40
9.144
  1
φ123
 41
1.1
  7
ＭＳ ゴシック
100
AcDbText
  0
LINE
  5
307
330
1F
100
AcDbEntity
  8
0-4_寸法
  6
Continuous
 62
     7
370
     9
100
AcDbLine
 10
67.47132861562102
 20
142.8506622282317
 30
0.0
 11
67.47132861562102
 21
-2.485152413457918
 31
0.0
  0
LINE
  5
308
330
1F
100
AcDbEntity
  8
0-4_寸法
  6
Continuous
 62
     7
370
     9
100
AcDbLine
 10
-137.5286231434209
 20
143.2714998832568
 30
0.0
 11
-137.5286231434209
 21
-2.485152413457918
 31
0.0
  0
TEXT
  5
309
330
1F
100
AcDbEntity
  8
0-4_寸法
  6
Continuous
 62
     2
370
   211
100
AcDbText
 10
-51.52864726389994
 20
145.9485229247315
 30
0.0
 40
9.144
  1
φ205
 41
1.1
  7
ＭＳ ゴシック
100
AcDbText
  0
LINE
  5
30A
330
1F
100
AcDbEntity
  8
0-4_寸法
  6
Continuous
 62
     7
370
     9
100
AcDbLine
 10
-137.5286231434209
 20
142.4565229247315
 30
0.0
 11
67.47132861562102
 21
142.4565229247315
 31
0.0
  0
LINE
  5
30B
330
1F
100
AcDbEntity
  8
0-4_寸法
  6
Continuous
 62
     7
370
     9
100
AcDbLine
 10
-137.5286231434209
 20
142.4565229247315
 30
0.0
 11
-130.0927866831173
 21
143.4354693663819
 31
0.0
  0
LINE
  5
30C
330
1F
100
AcDbEntity
  8
0-4_寸法
  6
Continuous
 62
     7
370
     9
100
AcDbLine
 10
-137.5286231434209
 20
142.4565229247315
 30
0.0
 11
-130.0927866831173
 21
141.4775764830811
 31
0.0
  0
LINE
  5
30D
330
1F
100
AcDbEntity
  8
0-4_寸法
  6
Continuous
 62
     7
370
     9
100
AcDbLine
 10
67.47132861562102
 20
142.4565229247315
 30
0.0
 11
60.03549215531744
 21
141.4775764830811
 31
0.0
  0
LINE
  5
30E
330
1F
100
AcDbEntity
  8
0-4_寸法
  6
Continuous
 62
     7
370
     9
100
AcDbLine
 10
67.47132861562102
 20
142.4565229247315
 30
0.0
 11
60.03549215531744
 21
143.4354693663819
 31
0.0
  0
TEXT
  5
30F
330
1F
100
AcDbEntity
  8
0-4_寸法
  6
Continuous
 62
     2
370
   211
100
AcDbText
 10
-51.52868547469055
 20
176.6180264181164
 30
0.0
 40
9.144
  1
φ225
 41
1.1
  7
ＭＳ ゴシック
100
AcDbText
  0
LINE
  5
310
330
1F
100
AcDbEntity
  8
0-4_寸法
  6
Continuous
 62
     7
370
     9
100
AcDbLine
 10
-147.5286891862879
 20
173.1260264181163
 30
0.0
 11
77.47131823690678
 21
173.1260264181163
 31
0.0
  0
LINE
  5
311
330
1F
100
AcDbEntity
  8
0-4_寸法
  6
Continuous
 62
     7
370
     9
100
AcDbLine
 10
77.47131823690678
 20
173.1260264181163
 30
0.0
 11
70.0354817766032
 21
172.1470799764659
 31
0.0
  0
LINE
  5
312
330
1F
100
AcDbEntity
  8
0-4_寸法
  6
Continuous
 62
     7
370
     9
100
AcDbLine
 10
77.47131823690678
 20
173.1260264181163
 30
0.0
 11
70.0354817766032
 21
174.1049728597667
 31
0.0
  0
LINE
  5
313
330
1F
100
AcDbEntity
  8
0-4_寸法
  6
Continuous
 62
     7
370
     9
100
AcDbLine
 10
-147.5286891862879
 20
173.1260264181163
 30
0.0
 11
-140.0928527259843
 21
172.1470799764659
 31
0.0
  0
LINE
  5
314
330
1F
100
AcDbEntity
  8
0-4_寸法
  6
Continuous
 62
     7
370
     9
100
AcDbLine
 10
-147.5286891862879
 20
173.1260264181163
 30
0.0
 11
-140.0928527259843
 21
174.1049728597667
 31
0.0
  0
LINE
  5
315
330
1F
100
AcDbEntity
  8
0-4_寸法
  6
Continuous
 62
     7
370
     9
100
AcDbLine
 10
-147.5286891862879
 20
175.2404310561422
 30
0.0
 11
-147.5286891862879
 21
-14.34389330835906
 31
0.0
  0
LINE
  5
316
330
1F
100
AcDbEntity
  8
0-4_寸法
  6
Continuous
 62
     7
370
     9
100
AcDbLine
 10
77.47131823690678
 20
174.5546835824074
 30
0.0
 11
77.47131823690678
 21
-14.34389330835906
 31
0.0
  0
LINE
  5
317
330
1F
100
AcDbEntity
  8
0-4_寸法
  6
Continuous
 62
     7
370
     9
100
AcDbLine
 10
-89.96611884268114
 20
-116.2394262353696
 30
0.0
 11
19.90871289823943
 21
-116.2394262353696
 31
0.0
  0
LINE
  5
318
330
1F
100
AcDbEntity
  8
0-4_寸法
  6
Continuous
 62
     7
370
     9
100
AcDbLine
 10
-89.96611884268114
 20
-116.2394262353696
 30
0.0
 11
-82.53028238237756
 21
-115.2604797937192
 31
0.0
  0
LINE
  5
319
330
1F
100
AcDbEntity
  8
0-4_寸法
  6
Continuous
 62
     7
370
     9
100
AcDbLine
 10
-89.96611884268114
 20
-116.2394262353696
 30
0.0
 11
-82.53028238237756
 21
-117.21837267702
 31
0.0
  0
LINE
  5
31A
330
1F
100
AcDbEntity
  8
0-4_寸法
  6
Continuous
 62
     7
370
     9
100
AcDbLine
 10
19.90871289823943
 20
-116.2394262353696
 30
0.0
 11
12.47287643793585
 21
-115.2604797937192
 31
0.0
  0
LINE
  5
31B
330
1F
100
AcDbEntity
  8
0-4_寸法
  6
Continuous
 62
     7
370
     9
100
AcDbLine
 10
19.90871289823943
 20
-116.2394262353696
 30
0.0
 11
12.47287643793585
 21
-117.21837267702
 31
0.0
  0
LINE
  5
31C
330
1F
100
AcDbEntity
  8
0-4_寸法
  6
Continuous
 62
     7
370
     9
100
AcDbLine
 10
-89.96611884268114
 20
-117.1394262353696
 30
0.0
 11
-89.96611884268114
 21
-72.21441508626899
 31
0.0
  0
LINE
  5
31D
330
1F
100
AcDbEntity
  8
0-4_寸法
  6
Continuous
 62
     7
370
     9
100
AcDbLine
 10
19.90871289823943
 20
-117.1394262353696
 30
0.0
 11
19.90871289823943
 21
-72.21441508626899
 31
0.0
  0
LINE
  5
31E
330
1F
100
AcDbEntity
  8
0-4_寸法
  6
Continuous
 62
     7
370
     9
100
AcDbLine
 10
-105.0286578439103
 20
-150.5429790821067
 30
0.0
 11
34.9712868945293
 21
-150.5429790821067
 31
0.0
  0
LINE
  5
31F
330
1F
100
AcDbEntity
  8
0-4_寸法
  6
Continuous
 62
     7
370
     9
100
AcDbLine
 10
-105.0286578439103
 20
-150.5429790821067
 30
0.0
 11
-97.59282138360675
 21
-149.5640326404562
 31
0.0
  0
LINE
  5
320
330
1F
100
AcDbEntity
  8
0-4_寸法
  6
Continuous
 62
     7
370
     9
100
AcDbLine
 10
-105.0286578439103
 20
-150.5429790821067
 30
0.0
 11
-97.59282138360675
 21
-151.5219255237571
 31
0.0
  0
LINE
  5
321
330
1F
100
AcDbEntity
  8
0-4_寸法
  6
Continuous
 62
     7
370
     9
100
AcDbLine
 10
34.9712868945293
 20
-150.5429790821067
 30
0.0
 11
27.53545043422572
 21
-149.5640326404562
 31
0.0
  0
LINE
  5
322
330
1F
100
AcDbEntity
  8
0-4_寸法
  6
Continuous
 62
     7
370
     9
100
AcDbLine
 10
34.9712868945293
 20
-150.5429790821067
 30
0.0
 11
27.53545043422572
 21
-151.5219255237571
 31
0.0
  0
LINE
  5
323
330
1F
100
AcDbEntity
  8
0-4_寸法
  6
Continuous
 62
     7
370
     9
100
AcDbLine
 10
-105.0286578439103
 20
-151.4429790821067
 30
0.0
 11
-105.0286578439103
 21
-94.26120414528486
 31
0.0
  0
LINE
  5
324
330
1F
100
AcDbEntity
  8
0-4_寸法
  6
Continuous
 62
     7
370
     9
100
AcDbLine
 10
34.9712868945293
 20
-151.4429790821067
 30
0.0
 11
34.9712868945293
 21
-94.26120414528486
 31
0.0
  0
TEXT
  5
325
330
1F
100
AcDbEntity
  8
0-4_寸法
  6
Continuous
 62
     2
370
   211
100
AcDbText
 10
-44.77870297222085
 20
-112.7474262353696
 30
0.0
 40
9.144
  1
Rc4
 41
1.083333333333333
  7
ＭＳ ゴシック
100
AcDbText
  0
TEXT
  5
326
330
1F
100
AcDbEntity
  8
0-4_寸法
  6
Continuous
 62
     2
370
   211
100
AcDbText
 10
-51.52868547469052
 20
-147.0509790821067
 30
0.0
 40
9.144
  1
φ140
 41
1.1
  7
ＭＳ ゴシック
100
AcDbText
  0
LINE
  5
327
330
1F
100
AcDbEntity
  8
0-4_寸法
  6
Continuous
 62
     7
370
     9
100
AcDbLine
 10
129.1935483870968
 20
-87.94900240816122
 30
0.0
 11
129.1935483870968
 21
-7.948963996074511
 31
0.0
  0
LINE
  5
328
330
1F
100
AcDbEntity
  8
0-4_寸法
  6
Continuous
 62
     7
370
     9
100
AcDbLine
 10
129.1935483870968
 20
-87.94900240816122
 30
0.0
 11
128.2146019454464
 21
-80.51316594785764
 31
0.0
  0
LINE
  5
329
330
1F
100
AcDbEntity
  8
0-4_寸法
  6
Continuous
 62
     7
370
     9
100
AcDbLine
 10
129.1935483870968
 20
-87.94900240816122
 30
0.0
 11
130.1724948287472
 21
-80.51316594785764
 31
0.0
  0
LINE
  5
32A
330
1F
100
AcDbEntity
  8
0-4_寸法
  6
Continuous
 62
     7
370
     9
100
AcDbLine
 10
129.1935483870968
 20
-7.948963996074511
 30
0.0
 11
128.2146019454464
 21
-15.38480045637809
 31
0.0
  0
LINE
  5
32B
330
1F
100
AcDbEntity
  8
0-4_寸法
  6
Continuous
 62
     7
370
     9
100
AcDbLine
 10
129.1935483870968
 20
-7.948963996074511
 30
0.0
 11
130.1724948287472
 21
-15.38480045637809
 31
0.0
  0
LINE
  5
32C
330
1F
100
AcDbEntity
  8
0-4_寸法
  6
Continuous
 62
     7
370
     9
100
AcDbLine
 10
130.0935483870968
 20
-7.948963996074511
 30
0.0
 11
81.16879219804952
 21
-7.948963996074511
 31
0.0
  0
LINE
  5
32D
330
1F
100
AcDbEntity
  8
0-4_寸法
  6
Continuous
 62
     7
370
     9
100
AcDbLine
 10
129.1935483870968
 20
-7.948963996074511
 30
0.0
 11
129.1935483870968
 21
59.9074034317956
 31
0.0
  0
LINE
  5
32E
330
1F
100
AcDbEntity
  8
0-4_寸法
  6
Continuous
 62
     7
370
     9
100
AcDbLine
 10
129.1935483870968
 20
-7.948963996074511
 30
0.0
 11
128.2146019454464
 21
-0.5131275357709342
 31
0.0
  0
LINE
  5
32F
330
1F
100
AcDbEntity
  8
0-4_寸法
  6
Continuous
 62
     7
370
     9
100
AcDbLine
 10
129.1935483870968
 20
-7.948963996074511
 30
0.0
 11
130.1724948287472
 21
-0.5131275357709342
 31
0.0
  0
LINE
  5
330
330
1F
100
AcDbEntity
  8
0-4_寸法
  6
Continuous
 62
     7
370
     9
100
AcDbLine
 10
129.1935483870968
 20
59.9074034317956
 30
0.0
 11
128.2146019454464
 21
52.47156697149202
 31
0.0
  0
LINE
  5
331
330
1F
100
AcDbEntity
  8
0-4_寸法
  6
Continuous
 62
     7
370
     9
100
AcDbLine
 10
129.1935483870968
 20
59.9074034317956
 30
0.0
 11
130.1724948287472
 21
52.47156697149202
 31
0.0
  0
LINE
  5
332
330
1F
100
AcDbEntity
  8
0-4_寸法
  6
Continuous
 62
     7
370
     9
100
AcDbLine
 10
99.42535633908477
 20
-47.94894820705726
 30
0.0
 11
99.42535633908477
 21
-7.948963996074511
 31
0.0
  0
LINE
  5
333
330
1F
100
AcDbEntity
  8
0-4_寸法
  6
Continuous
 62
     7
370
     9
100
AcDbLine
 10
99.42535633908477
 20
-47.94894820705726
 30
0.0
 11
98.44640989743438
 21
-40.51311174675368
 31
0.0
  0
LINE
  5
334
330
1F
100
AcDbEntity
  8
0-4_寸法
  6
Continuous
 62
     7
370
     9
100
AcDbLine
 10
99.42535633908477
 20
-47.94894820705726
 30
0.0
 11
100.4043027807352
 21
-40.51311174675368
 31
0.0
  0
LINE
  5
335
330
1F
100
AcDbEntity
  8
0-4_寸法
  6
Continuous
 62
     7
370
     9
100
AcDbLine
 10
99.42535633908477
 20
-7.948963996074511
 30
0.0
 11
98.44640989743438
 21
-15.38480045637809
 31
0.0
  0
LINE
  5
336
330
1F
100
AcDbEntity
  8
0-4_寸法
  6
Continuous
 62
     7
370
     9
100
AcDbLine
 10
99.42535633908477
 20
-7.948963996074511
 30
0.0
 11
100.4043027807352
 21
-15.38480045637809
 31
0.0
  0
TEXT
  5
337
330
1F
100
AcDbEntity
  8
0-4_寸法
  6
Continuous
 62
     2
370
   211
100
AcDbText
 10
95.93335633908475
 20
-34.32395610156588
 30
0.0
 40
9.144
  1
40
 50
90.0
 41
1.0625
  7
ＭＳ ゴシック
100
AcDbText
  0
LINE
  5
338
330
1F
100
AcDbEntity
  8
0-4_寸法
  6
Continuous
 62
     7
370
     9
100
AcDbLine
 10
-162.0722461721421
 20
-10.09258643495448
 30
0.0
 11
-162.0722461721421
 21
59.90740343179563
 31
0.0
  0
LINE
  5
339
330
1F
100
AcDbEntity
  8
0-4_寸法
  6
Continuous
 62
     7
370
     9
100
AcDbLine
 10
-162.0722461721421
 20
-10.09258643495448
 30
0.0
 11
-163.0511926137925
 21
-2.6567499746509
 31
0.0
  0
LINE
  5
33A
330
1F
100
AcDbEntity
  8
0-4_寸法
  6
Continuous
 62
     7
370
     9
100
AcDbLine
 10
-162.0722461721421
 20
-10.09258643495448
 30
0.0
 11
-161.0932997304917
 21
-2.6567499746509
 31
0.0
  0
LINE
  5
33B
330
1F
100
AcDbEntity
  8
0-4_寸法
  6
Continuous
 62
     7
370
     9
100
AcDbLine
 10
-162.0722461721421
 20
59.90740343179563
 30
0.0
 11
-163.0511926137925
 21
52.47156697149205
 31
0.0
  0
LINE
  5
33C
330
1F
100
AcDbEntity
  8
0-4_寸法
  6
Continuous
 62
     7
370
     9
100
AcDbLine
 10
-162.0722461721421
 20
59.90740343179563
 30
0.0
 11
-161.0932997304917
 21
52.47156697149205
 31
0.0
  0
LINE
  5
33D
330
1F
100
AcDbEntity
  8
0-4_寸法
  6
Continuous
 62
     7
370
     9
100
AcDbLine
 10
-162.9722461721421
 20
-10.09258643495448
 30
0.0
 11
-118.7997993161885
 21
-10.09258643495448
 31
0.0
  0
TEXT
  5
33E
330
1F
100
AcDbEntity
  8
0-4_寸法
  6
Continuous
 62
     2
370
   211
100
AcDbText
 10
-165.5642461721421
 20
18.53240849842058
 30
0.0
 40
9.144
  1
70
 50
90.0
 41
1.0625
  7
ＭＳ ゴシック
100
AcDbText
  0
LINE
  5
33F
330
1F
100
AcDbEntity
  8
0-4_寸法
  6
Continuous
 62
     7
370
     9
100
AcDbLine
 10
-162.9722461721421
 20
59.90740343179563
 30
0.0
 11
-101.7096774193548
 21
59.90740343179563
 31
0.0
  0
LINE
  5
340
330
1F
100
AcDbEntity
  8
0-4_寸法
  6
Continuous
 62
     7
370
     9
100
AcDbLine
 10
130.0935483870968
 20
59.9074034317956
 30
0.0
 11
35.74343585896475
 21
59.9074034317956
 31
0.0
  0
LINE
  5
341
330
1F
100
AcDbEntity
  8
0-4_寸法
  6
Continuous
 62
     7
370
     9
100
AcDbLine
 10
130.0935483870968
 20
-87.94900240816122
 30
0.0
 11
38.9887471867967
 21
-87.94900240816122
 31
0.0
  0
LINE
  5
342
330
1F
100
AcDbEntity
  8
0-4_寸法
  6
Continuous
 62
     7
370
     9
100
AcDbLine
 10
100.3253563390848
 20
-47.94894820705726
 30
0.0
 11
49.96249062265566
 21
-47.94894820705726
 31
0.0
  0
TEXT
  5
343
330
1F
100
AcDbEntity
  8
0-4_寸法
  6
Continuous
 62
     2
370
   211
100
AcDbText
 10
125.7015483870968
 20
19.60421971786054
 30
0.0
 40
9.144
  1
68
 50
90.0
 41
1.0625
  7
ＭＳ ゴシック
100
AcDbText
  0
LINE
  5
344
330
1F
100
AcDbEntity
  8
0-5_文字
  6
Continuous
 62
     7
370
     9
100
AcDbLine
 10
22.03963309944167
 20
16.80087685592037
 30
0.0
 11
25.08344024448531
 21
12.8341101544642
 31
0.0
  0
LINE
  5
345
330
1F
100
AcDbEntity
  8
0-5_文字
  6
Continuous
 62
     7
370
     9
100
AcDbLine
 10
22.03963309944167
 20
16.80087685592037
 30
0.0
 11
23.95305026126707
 21
12.18147919336394
 31
0.0
  0
LINE
  5
346
330
1F
100
AcDbEntity
  8
0-5_文字
  6
Continuous
 62
     7
370
     9
100
AcDbLine
 10
22.03963309944167
 20
16.80087685592037
 30
0.0
 11
28.76801846306683
 21
5.146971553218879
 31
0.0
  0
LINE
  5
347
330
1F
100
AcDbEntity
  8
0-5_文字
  6
Continuous
 62
     7
370
     9
100
AcDbLine
 10
47.97135700247905
 20
-4.092648294910205
 30
0.0
 11
94.04029063063055
 21
109.9319636790355
 31
0.0
  0
LINE
  5
348
330
1F
100
AcDbEntity
  8
0-5_文字
  6
Continuous
 62
     7
370
     9
100
AcDbLine
 10
47.97135700247905
 20
-4.092648294910205
 30
0.0
 11
49.84920703288736
 21
3.168459007925602
 31
0.0
  0
LINE
  5
349
330
1F
100
AcDbEntity
  8
0-5_文字
  6
Continuous
 62
     7
370
     9
100
AcDbLine
 10
47.97135700247905
 20
-4.092648294910205
 30
0.0
 11
51.66453370325505
 21
2.435019424639041
 31
0.0
  0
LINE
  5
34A
330
1F
100
AcDbEntity
  8
0-5_文字
  6
Continuous
 62
     7
370
     9
100
AcDbLine
 10
40.97140000987677
 20
0.8470794882929198
 30
0.0
 11
42.84925004028508
 21
8.108186791128727
 31
0.0
  0
LINE
  5
34B
330
1F
100
AcDbEntity
  8
0-5_文字
  6
Continuous
 62
     7
370
     9
100
AcDbLine
 10
40.97140000987677
 20
0.8470794882929198
 30
0.0
 11
44.66457671065277
 21
7.374747207842166
 31
0.0
  0
LINE
  5
34C
330
1F
100
AcDbEntity
  8
0-5_文字
  6
Continuous
 62
     7
370
     9
100
AcDbLine
 10
22.97141061444062
 20
59.90740343179561
 30
0.0
 11
91.09348438091442
 21
228.5154526386501
 31
0.0
  0
LINE
  5
34D
330
1F
100
AcDbEntity
  8
0-5_文字
  6
Continuous
 62
     7
370
     9
100
AcDbLine
 10
22.97141061444062
 20
59.90740343179561
 30
0.0
 11
24.84926064484893
 21
67.16851073463141
 31
0.0
  0
LINE
  5
34E
330
1F
100
AcDbEntity
  8
0-5_文字
  6
Continuous
 62
     7
370
     9
100
AcDbLine
 10
22.97141061444062
 20
59.90740343179561
 30
0.0
 11
26.66458731521662
 21
66.43507115134486
 31
0.0
  0
LINE
  5
34F
330
1F
100
AcDbEntity
  8
0-5_文字
  6
Continuous
 62
     7
370
     9
100
AcDbLine
 10
-141.5286398728023
 20
-16.94900220656639
 30
0.0
 11
-160.1949179440873
 21
-49.27992815949536
 31
0.0
  0
LINE
  5
350
330
1F
100
AcDbEntity
  8
0-5_文字
  6
Continuous
 62
     7
370
     9
100
AcDbLine
 10
-141.5286398728023
 20
-16.94900220656639
 30
0.0
 11
-144.5724466190017
 21
-20.91575949119478
 31
0.0
  0
LINE
  5
351
330
1F
100
AcDbEntity
  8
0-5_文字
  6
Continuous
 62
     7
370
     9
100
AcDbLine
 10
-141.5286398728023
 20
-16.94900220656639
 30
0.0
 11
-143.4420672772576
 21
-21.5684067673772
 31
0.0
  0
LINE
  5
352
330
1F
100
AcDbEntity
  8
0-5_文字
  6
Continuous
 62
     7
370
     9
100
AcDbLine
 10
-93.35215342157154
 20
2.550988990359222
 30
0.0
 11
-97.91786413913694
 21
8.501139042543487
 31
0.0
  0
LINE
  5
353
330
1F
100
AcDbEntity
  8
0-5_文字
  6
Continuous
 62
     7
370
     9
100
AcDbLine
 10
-93.35215342157154
 20
2.550988990359222
 30
0.0
 11
-96.22227916430971
 21
9.480085484193873
 31
0.0
  0
LINE
  5
354
330
1F
100
AcDbEntity
  8
0-5_文字
  6
Continuous
 62
     7
370
     9
100
AcDbLine
 10
-107.3491748235736
 20
56.43438129029077
 30
0.0
 11
-111.9148855411391
 21
62.38453134247504
 31
0.0
  0
LINE
  5
355
330
1F
100
AcDbEntity
  8
0-5_文字
  6
Continuous
 62
     7
370
     9
100
AcDbLine
 10
-107.3491748235736
 20
56.43438129029077
 30
0.0
 11
-110.2193005663118
 21
63.36347778412542
 31
0.0
  0
LINE
  5
356
330
1F
100
AcDbEntity
  8
0-5_文字
  6
Continuous
 62
     7
370
     9
100
AcDbLine
 10
-107.3491748235736
 20
56.43438129029077
 30
0.0
 11
-175.1198863135237
 21
173.8166968559761
 31
0.0
  0
LINE
  5
357
330
1F
100
AcDbEntity
  8
0-5_文字
  6
Continuous
 62
     7
370
     9
100
AcDbLine
 10
-93.35215342157154
 20
2.550988990359222
 30
0.0
 11
-158.9979627137306
 21
116.2528659883558
 31
0.0
  0
LINE
  5
358
330
1F
100
AcDbEntity
  8
0-5_文字
  6
Continuous
 62
     7
370
     9
100
AcDbLine
 10
-105.0286578439103
 20
-87.94900240816119
 30
0.0
 11
-106.9420852483655
 21
-92.56839459698088
 31
0.0
  0
LINE
  5
359
330
1F
100
AcDbEntity
  8
0-5_文字
  6
Continuous
 62
     7
370
     9
100
AcDbLine
 10
-105.0286578439103
 20
-87.94900240816119
 30
0.0
 11
-108.0724645901095
 21
-91.91577206478071
 31
0.0
  0
LINE
  5
35A
330
1F
100
AcDbEntity
  8
0-5_文字
  6
Continuous
 62
     7
370
     9
100
AcDbLine
 10
-105.0286578439103
 20
-87.94900240816119
 30
0.0
 11
-123.5657634721801
 21
-120.0561921371761
 31
0.0
  0
TEXT
  5
35B
330
1F
100
AcDbEntity
  8
0-5_文字
  6
Continuous
 62
     6
370
     5
100
AcDbText
 10
-281.0326913026877
 20
107.9619344137147
 30
0.0
 40
6.858000000000001
  1
アスファルト防水用　Ｍ８×３０
 41
0.8955555555555557
  7
ＭＳ ゴシック
100
AcDbText
  0
LINE
  5
35C
330
1F
100
AcDbEntity
  8
0-5_文字
  6
Continuous
 62
     7
370
     9
100
AcDbLine
 10
-158.9979627137306
 20
116.2528659883558
 30
0.0
 11
-281.9105842128735
 21
116.2528659883558
 31
0.0
  0
LINE
  5
35D
330
1F
100
AcDbEntity
  8
0-5_文字
  6
Continuous
 62
     7
370
     9
100
AcDbLine
 10
56.97114172983328
 20
-58.94905060001244
 30
0.0
 11
86.15905449970973
 21
-109.5039984843269
 31
0.0
  0
LINE
  5
35E
330
1F
100
AcDbEntity
  8
0-5_文字
  6
Continuous
 62
     7
370
     9
100
AcDbLine
 10
56.97114172983328
 20
-58.94905060001244
 30
0.0
 11
58.88455889165878
 21
-63.56844826256886
 31
0.0
  0
LINE
  5
35F
330
1F
100
AcDbEntity
  8
0-5_文字
  6
Continuous
 62
     7
370
     9
100
AcDbLine
 10
56.97114172983328
 20
-58.94905060001244
 30
0.0
 11
60.01494887487693
 21
-62.91581730146863
 31
0.0
  0
LINE
  5
360
330
1F
100
AcDbEntity
  8
0-5_文字
  6
Continuous
 62
     7
370
     9
100
AcDbLine
 10
28.76801846306683
 20
5.146971553218879
 30
0.0
 11
104.0288524905225
 21
191.4240724317202
 31
0.0
  0
LINE
  5
361
330
1F
100
AcDbEntity
  8
0-5_文字
  6
Continuous
 62
     7
370
     9
100
AcDbLine
 10
104.0288524905225
 20
191.4240724317202
 30
0.0
 11
211.1050246469744
 21
191.4240724317202
 31
0.0
  0
LINE
  5
362
330
1F
100
AcDbEntity
  8
0-1_ピット
  6
Continuous
 62
     2
370
     9
100
AcDbLine
 10
-115.6591424064933
 20
-10.09258643495448
 30
0.0
 11
-114.028687536689
 21
-10.09258643495448
 31
0.0
  0
LINE
  5
363
330
1F
100
AcDbEntity
  8
0-1_ピット
  6
Continuous
 62
     2
370
     9
100
AcDbLine
 10
-105.2853116185695
 20
-10.09258643495448
 30
0.0
 11
-108.0286444114628
 21
-10.09258643495448
 31
0.0
  0
LINE
  5
364
330
1F
100
AcDbEntity
  8
0-1_ピット
  6
Continuous
 62
     2
370
     9
100
AcDbLine
 10
37.97134345220302
 20
-10.09258643495452
 30
0.0
 11
35.22804565437034
 21
-10.09258643495452
 31
0.0
  0
LINE
  5
365
330
1F
100
AcDbEntity
  8
0-1_ピット
  6
Continuous
 62
     2
370
     9
100
AcDbLine
 10
45.60187644229413
 20
-10.09258643495452
 30
0.0
 11
43.97131658730801
 21
-10.09258643495452
 31
0.0
  0
TEXT
  5
366
330
1F
100
AcDbEntity
  8
0-5_文字
  6
Continuous
 62
     7
370
     9
100
AcDbText
 10
-203.5088799556241
 20
-116.982238592845
 30
0.0
 40
6.858000000000001
  1
スペーサー
 41
1.133333333333333
  7
ＭＳ ゴシック
100
AcDbText
  0
LINE
  5
367
330
1F
100
AcDbEntity
  8
0-5_文字
  6
Continuous
 62
     7
370
     9
100
AcDbLine
 10
-123.5657634721801
 20
-120.0561921371761
 30
0.0
 11
-227.6892887115785
 21
-120.0561921371761
 31
0.0
  0
TEXT
  5
368
330
1F
100
AcDbEntity
  8
0-5_文字
  6
Continuous
 62
     6
370
     5
100
AcDbText
 10
-256.5698868815599
 20
98.14743023205341
 30
0.0
 40
6.858000000000001
  1
シート防水用　Ｍ８×２０
 41
0.8944444444444444
  7
ＭＳ ゴシック
100
AcDbText
  0
LINE
  5
369
330
1F
100
AcDbEntity
  8
0-5_文字
  6
Continuous
 62
     7
370
     9
100
AcDbLine
 10
40.97140000987677
 20
0.8470794882929198
 30
0.0
 11
102.4763829575615
 21
153.0772542017008
 31
0.0
  0
LINE
  5
36A
330
1F
100
AcDbEntity
  8
0-0_通り芯
  6
Continuous
 62
     3
370
     9
100
AcDbLine
 10
16.27364769178592
 20
-30.81470161654237
 30
0.0
 11
-81.50149091532353
 21
-30.81470161654237
 31
0.0
  0
LINE
  5
36B
330
1F
100
AcDbEntity
  8
0-5_文字
  6
Continuous
 62
     7
370
     9
100
AcDbLine
 10
-160.1949179440873
 20
-49.27992815949536
 30
0.0
 11
-266.6860898176041
 21
-49.27992815949536
 31
0.0
  0
LINE
  5
36C
330
1F
100
AcDbEntity
  8
0-5_文字
  6
Continuous
 62
     7
370
     9
100
AcDbLine
 10
94.04029063063055
 20
109.9319636790355
 30
0.0
 11
208.326767312851
 21
109.9319636790355
 31
0.0
  0
LINE
  5
36D
330
1F
100
AcDbEntity
  8
0-5_文字
  6
Continuous
 62
     7
370
     9
100
AcDbLine
 10
191.2540342235874
 20
-109.5039984843269
 30
0.0
 11
86.15905449970973
 21
-109.5039984843269
 31
0.0
  0
TEXT
  5
36E
330
1F
100
AcDbEntity
  8
F-4ﾚｲﾔ
  6
Continuous
 62
     2
370
     9
100
AcDbText
 10
-38.29138842491386
 20
-331.9635371732051
 30
0.0
 40
9.144
  1
鋳鉄製高耐食性ルーフドレン　たて引き用　打込型　ねじ込み式
 41
0.75
  7
ＭＳ ゴシック
100
AcDbText
  0
TEXT
  5
36F
330
1F
100
AcDbEntity
  8
F-5ﾚｲﾔ
  6
Continuous
 62
     2
370
     9
100
AcDbText
 10
-290.2520388151329
 20
-272.3771666666667
 30
0.0
 40
9.144
  1
※ご注文の際はＣ寸法をご指示ください。
 41
1.118421052631579
  7
ＭＳ ゴシック
100
AcDbText
  0
TEXT
  5
370
330
1F
100
AcDbEntity
  8
F-4ﾚｲﾔ
  6
Continuous
 62
     2
370
     9
100
AcDbText
 10
-37.89569315635909
 20
-345.7298943923836
 30
0.0
 40
9.144
  1
アスファルト・シート防水用　ＥＳＪ－２Ｒ－１００　Ｃ＝指示
 41
0.75
  7
ＭＳ ゴシック
100
AcDbText
  0
LINE
  5
371
330
1F
100
AcDbEntity
  8
0-5_文字
  6
Continuous
 62
     7
370
     9
100
AcDbLine
 10
102.4763829575615
 20
153.0772542017008
 30
0.0
 11
216.7130342421572
 21
153.0772542017008
 31
0.0
  0
TEXT
  5
372
330
1F
100
AcDbEntity
  8
0-5_文字
  6
Continuous
 62
     7
370
     9
100
AcDbText
 10
134.0947085998593
 20
143.1326335316753
 30
0.0
 40
6.858000000000001
  1
Ｍ６×１２
 41
1.133333333333333
  7
ＭＳ ゴシック
100
AcDbText
  0
TEXT
  5
373
330
1F
100
AcDbEntity
  8
0-5_文字
  6
Continuous
 62
     7
370
     9
100
AcDbText
 10
102.5947085998593
 20
156.5848555320399
 30
0.0
 40
6.858000000000001
  1
丸小ねじ：Ｃ２７００Ｗ
 41
1.151515151515151
  7
ＭＳ ゴシック
100
AcDbText
  0
TEXT
  5
374
330
1F
100
AcDbEntity
  8
0-5_文字
  6
Continuous
 62
     7
370
     9
100
AcDbText
 10
94.18352897174078
 20
114.126456007084
 30
0.0
 40
6.858000000000001
  1
防水層押え：ＦＣ１５０
 41
1.151515151515151
  7
ＭＳ ゴシック
100
AcDbText
  0
TEXT
  5
375
330
1F
100
AcDbEntity
  8
0-5_文字
  6
Continuous
 62
     7
370
     9
100
AcDbText
 10
99.43352897174078
 20
99.32441761800172
 30
0.0
 40
6.858000000000001
  1
ナイロンコーティング
 41
1.15
  7
ＭＳ ゴシック
100
AcDbText
  0
TEXT
  5
376
330
1F
100
AcDbEntity
  8
0-5_文字
  6
Continuous
 62
     7
370
     9
100
AcDbText
 10
105.8169385687485
 20
194.0937792757989
 30
0.0
 40
6.858000000000001
  1
ロート：ＳＵＳ３０４
 41
1.149999999999999
  7
ＭＳ ゴシック
100
AcDbText
  0
LINE
  5
377
330
1F
100
AcDbEntity
  8
0-5_文字
  6
Continuous
 62
     7
370
     9
100
AcDbLine
 10
91.09348438091442
 20
228.5154526386501
 30
0.0
 11
213.7679026142806
 21
228.5154526386501
 31
0.0
  0
TEXT
  5
378
330
1F
100
AcDbEntity
  8
0-5_文字
  6
Continuous
 62
     7
370
     9
100
AcDbText
 10
100.6806934975975
 20
217.5569571834116
 30
0.0
 40
6.858000000000001
  1
ナイロンコーティング
 41
1.15
  7
ＭＳ ゴシック
100
AcDbText
  0
TEXT
  5
379
330
1F
100
AcDbEntity
  8
0-5_文字
  6
Continuous
 62
     7
370
     9
100
AcDbText
 10
90.18069349759753
 20
231.0091791837762
 30
0.0
 40
6.858000000000001
  1
ストレーナー：ＦＣ１５０
 41
1.152777777777777
  7
ＭＳ ゴシック
100
AcDbText
  0
LINE
  5
37A
330
1F
100
AcDbEntity
  8
0-5_文字
  6
Continuous
 62
     7
370
     9
100
AcDbLine
 10
-288.8347643616192
 20
173.8166968559761
 30
0.0
 11
-175.1198863135237
 21
173.8166968559761
 31
0.0
  0
TEXT
  5
37B
330
1F
100
AcDbEntity
  8
0-5_文字
  6
Continuous
 62
     7
370
     9
100
AcDbText
 10
-283.1539057548898
 20
120.5276922362378
 30
0.0
 40
6.858000000000001
  1
注）ボルト：Ｃ３６０４Ｂ
 41
1.152777777777777
  7
ＭＳ ゴシック
100
AcDbText
  0
TEXT
  5
37C
330
1F
100
AcDbEntity
  8
0-5_文字
  6
Continuous
 62
     7
370
     9
100
AcDbText
 10
-288.9773253375714
 20
177.5612631501272
 30
0.0
 40
6.858000000000001
  1
丸小ねじ：Ｃ２７００Ｗ
 41
1.151515151515151
  7
ＭＳ ゴシック
100
AcDbText
  0
TEXT
  5
37D
330
1F
100
AcDbEntity
  8
0-5_文字
  6
Continuous
 62
     7
370
     9
100
AcDbText
 10
-257.4773253375714
 20
164.2053003411784
 30
0.0
 40
6.858000000000001
  1
Ｍ６×１２
 41
1.133333333333333
  7
ＭＳ ゴシック
100
AcDbText
  0
TEXT
  5
37E
330
1F
100
AcDbEntity
  8
0-5_文字
  6
Continuous
 62
     7
370
     9
100
AcDbText
 10
-254.6905038808457
 20
-45.83006761930393
 30
0.0
 40
6.858000000000001
  1
本体：ＦＣ１５０
 41
1.145833333333333
  7
ＭＳ ゴシック
100
AcDbText
  0
TEXT
  5
37F
330
1F
100
AcDbEntity
  8
0-5_文字
  6
Continuous
 62
     7
370
     9
100
AcDbText
 10
-265.1905038808457
 20
-59.796401210185
 30
0.0
 40
6.858000000000001
  1
ナイロンコーティング
 41
1.15
  7
ＭＳ ゴシック
100
AcDbText
  0
TEXT
  5
380
330
1F
100
AcDbEntity
  8
0-5_文字
  6
Continuous
 62
     7
370
     9
100
AcDbText
 10
-221.4773232569419
 20
-130.8531572019172
 30
0.0
 40
6.858000000000001
  1
硬質ポリ塩化ビニル
 41
1.148148148148148
  7
ＭＳ ゴシック
100
AcDbText
  0
TEXT
  5
381
330
1F
100
AcDbEntity
  8
0-5_文字
  6
Continuous
 62
     7
370
     9
100
AcDbText
 10
86.95654436164858
 20
-105.0135979934248
 30
0.0
 40
6.858000000000001
  1
アンカー：ＳＷＲＭ８
 41
1.15
  7
ＭＳ ゴシック
100
AcDbText
  0
TEXT
  5
382
330
1F
100
AcDbEntity
  8
0-5_文字
  6
Continuous
 62
     7
370
     9
100
AcDbText
 10
86.95654436164858
 20
-119.5728199912912
 30
0.0
 40
6.858000000000001
  1
ナイロンコーティング
 41
1.15
  7
ＭＳ ゴシック
100
AcDbText
  0
TEXT
  5
383
330
1F
100
AcDbEntity
  8
0-4_寸法
  6
Continuous
 62
     2
370
   211
100
AcDbText
 10
125.7015483870968
 20
-53.94898320211787
 30
0.0
 40
9.144
  1
Ｃ
 50
90.0
  7
ＭＳ ゴシック
100
AcDbText
  0
TEXT
  5
384
330
1F
100
AcDbEntity
  8
0-5_文字
  6
Continuous
 62
     6
370
     5
100
AcDbText
 10
-26.8432248661803
 20
-274.7918734421402
 30
0.0
 40
9.144
  1
　上記以外の場合は、防水層の厚さを御指示下さい。
 41
0.7979166666666666
  7
ＭＳ ゴシック
100
AcDbText
  0
TEXT
  5
385
330
1F
100
AcDbEntity
  8
0-5_文字
  6
Continuous
 62
     6
370
     5
100
AcDbText
 10
1.956769690143709
 20
-259.7918703491424
 30
0.0
 40
9.144
  1
シート・・
 41
0.7899999999999977
  7
ＭＳ ゴシック
100
AcDbText
  0
TEXT
  5
386
330
1F
100
AcDbEntity
  8
0-5_文字
  6
Continuous
 62
     6
370
     5
100
AcDbText
 10
-26.84323872281036
 20
-229.7918641631468
 30
0.0
 40
9.144
  1
注）ボルト長さの適用防水層の厚さは、次の通りです。
 41
0.7980000000000002
  7
ＭＳ ゴシック
100
AcDbText
  0
TEXT
  5
387
330
1F
100
AcDbEntity
  8
0-5_文字
  6
Continuous
 62
     6
370
     5
100
AcDbText
 10
-26.84321546346698
 20
-244.7918765351379
 30
0.0
 40
9.144
  1
　　　アスファルト防水用の防水層厚さ＝１０～１２ｍｍ
 41
0.7980769230769228
  7
ＭＳ ゴシック
100
AcDbText
  0
TEXT
  5
388
330
1F
100
AcDbEntity
  8
0-5_文字
  6
Continuous
 62
     6
370
     5
100
AcDbText
 10
59.55678033005605
 20
-259.7918703491424
 30
0.0
 40
9.144
  1
防水用の防水層厚さ＝３ｍｍ以下
 41
0.7966666666666662
  7
ＭＳ ゴシック
100
AcDbText
  0
TEXT
  5
389
330
1F
100
AcDbEntity
  8
F-0ﾚｲﾔ
  6
Continuous
 62
     9
370
     5
100
AcDbText
 10
0.0
 20
-2998.731
 30
0.0
 40
6.858000000000001
  1
Printer_Orientation = 0
 41
0.0
  7
ＭＳ ゴシック
100
AcDbText
  0
TEXT
  5
38A
330
1F
100
AcDbEntity
  8
F-0ﾚｲﾔ
  6
Continuous
 62
     9
370
     5
100
AcDbText
 10
0.0
 20
-2998.731
 30
0.0
 40
6.858000000000001
  1
Printer_PaperSize = 0
 41
0.0
  7
ＭＳ ゴシック
100
AcDbText
  0
TEXT
  5
38B
330
1F
100
AcDbEntity
  8
F-0ﾚｲﾔ
  6
Continuous
 62
     9
370
     5
100
AcDbText
 10
0.0
 20
-2998.731
 30
0.0
 40
6.858000000000001
  1
Printer_D2dBMP = 0
 41
0.0
  7
ＭＳ ゴシック
100
AcDbText
  0
TEXT
  5
38C
330
1F
100
AcDbEntity
  8
F-0ﾚｲﾔ
  6
Continuous
 62
     9
370
     5
100
AcDbText
 10
0.0
 20
-2998.731
 30
0.0
 40
6.858000000000001
  1
Printer_BmpZENTAI = 0
 41
0.0
  7
ＭＳ ゴシック
100
AcDbText
  0
TEXT
  5
38D
330
1F
100
AcDbEntity
  8
F-0ﾚｲﾔ
  6
Continuous
 62
     9
370
     5
100
AcDbText
 10
0.0
 20
-2998.731
 30
0.0
 40
6.858000000000001
  1
View_Direct2d = 0
 41
0.0
  7
ＭＳ ゴシック
100
AcDbText
  0
TEXT
  5
38E
330
1F
100
AcDbEntity
  8
F-0ﾚｲﾔ
  6
Continuous
 62
     9
370
     5
100
AcDbText
 10
0.0
 20
-2998.731
 30
0.0
 40
6.858000000000001
  1
Draw_BmpTOUKA = 1
 41
0.0
  7
ＭＳ ゴシック
100
AcDbText
  0
ENDSEC
  0
SECTION
  2
OBJECTS
  0
DICTIONARY
  5
C
330
0
100
AcDbDictionary
281
     1
  3
ACAD_DETAILVIEWSTYLE
350
3D4
  3
ACAD_GROUP
350
D
  3
ACAD_LAYOUT
350
1A
  3
ACAD_MATERIAL
350
43
  3
ACAD_MLEADERSTYLE
350
6B
  3
ACAD_MLINESTYLE
350
17
  3
ACAD_PLOTSETTINGS
350
19
  3
ACAD_PLOTSTYLENAME
350
E
  3
ACAD_SCALELIST
350
47
  3
ACAD_SECTIONVIEWSTYLE
350
3D5
  3
ACAD_TABLESTYLE
350
69
  3
ACAD_VISUALSTYLE
350
2A
  3
ACDB_RECOMPOSE_DATA
350
3D1
  3
AcDbVariableDictionary
350
391
  0
DICTIONARY
  5
38F
330
8
100
AcDbDictionary
280
     1
281
     1
  3
ACAD_XREC_ROUNDTRIP
360
390
  0
DICTIONARY
  5
3D4
102
{ACAD_REACTORS
330
C
102
}
330
C
100
AcDbDictionary
281
     1
  0
DICTIONARY
  5
D
102
{ACAD_REACTORS
330
C
102
}
330
C
100
AcDbDictionary
281
     1
  0
DICTIONARY
  5
1A
102
{ACAD_REACTORS
330
C
102
}
330
C
100
AcDbDictionary
281
     1
  3
Layout1
350
1E
  3
Layout2
350
26
  3
Model
350
22
  0
DICTIONARY
  5
43
102
{ACAD_REACTORS
330
C
102
}
330
C
100
AcDbDictionary
281
     1
  3
ByBlock
350
45
  3
ByLayer
350
44
  3
Global
350
46
  0
DICTIONARY
  5
6B
102
{ACAD_REACTORS
330
C
102
}
330
C
100
AcDbDictionary
281
     1
  3
Standard
350
6C
  0
DICTIONARY
  5
17
102
{ACAD_REACTORS
330
C
102
}
330
C
100
AcDbDictionary
281
     1
  3
Standard
350
18
  0
DICTIONARY
  5
19
102
{ACAD_REACTORS
330
C
102
}
330
C
100
AcDbDictionary
281
     1
  0
ACDBDICTIONARYWDFLT
  5
E
102
{ACAD_REACTORS
330
C
102
}
330
C
100
AcDbDictionary
281
     1
  3
Normal
350
F
100
AcDbDictionaryWithDefault
340
F
  0
DICTIONARY
  5
47
102
{ACAD_REACTORS
330
C
102
}
330
C
100
AcDbDictionary
281
     1
  3
A0
350
48
  3
A1
350
49
  3
A2
350
4A
  3
A3
350
4B
  3
A4
350
4C
  3
A5
350
4D
  3
A6
350
4E
  3
A7
350
4F
  3
A8
350
50
  3
A9
350
51
  3
B0
350
52
  3
B1
350
53
  3
B2
350
54
  3
B3
350
55
  3
B4
350
56
  3
B5
350
57
  3
B6
350
58
  3
B7
350
59
  3
B8
350
5A
  3
B9
350
5B
  3
C0
350
5C
  3
C1
350
5D
  3
C2
350
5E
  3
C3
350
5F
  3
C4
350
60
  3
C5
350
61
  3
C6
350
62
  3
C7
350
63
  3
C8
350
64
  3
C9
350
65
  3
D0
350
66
  3
D1
350
67
  3
D2
350
68
  0
DICTIONARY
  5
3D5
102
{ACAD_REACTORS
330
C
102
}
330
C
100
AcDbDictionary
281
     1
  0
DICTIONARY
  5
69
102
{ACAD_REACTORS
330
C
102
}
330
C
100
AcDbDictionary
281
     1
  3
Standard
350
6A
  0
DICTIONARY
  5
2A
102
{ACAD_REACTORS
330
C
102
}
330
C
100
AcDbDictionary
281
     1
  3
2dWireframe
350
2F
  3
Basic
350
32
  3
Brighten
350
36
  3
ColorChange
350
3A
  3
Conceptual
350
34
  3
Dim
350
35
  3
EdgeColorOff
350
3D
  3
Facepattern
350
39
  3
Flat
350
2B
  3
FlatWithEdges
350
2C
  3
Gouraud
350
2D
  3
GouraudWithEdges
350
2E
  3
Hidden
350
31
  3
JitterOff
350
3B
  3
Linepattern
350
38
  3
OverhangOff
350
3C
  3
Realistic
350
33
  3
Shaded
350
42
  3
Shaded with edges
350
41
  3
Shades of Gray
350
3E
  3
Sketchy
350
3F
  3
Thicken
350
37
  3
Wireframe
350
30
  3
X-Ray
350
40
  0
XRECORD
  5
3D1
102
{ACAD_REACTORS
330
C
102
}
330
C
100
AcDbXrecord
280
     1
 90
        1
330
6A
  0
DICTIONARY
  5
391
102
{ACAD_REACTORS
330
C
102
}
330
C
100
AcDbDictionary
281
     1
  3
CANNOSCALE
350
392
  3
CENTEREXE
350
3D6
  3
CENTERLTYPEFILE
350
3D7
  3
CMLEADERSTYLE
350
3D3
  3
CTABLESTYLE
350
3D2
  3
MSLTSCALE
350
393
  3
XCLIPFRAME
350
394
  0
XRECORD
  5
390
102
{ACAD_REACTORS
330
38F
102
}
330
38F
100
AcDbXrecord
280
     1
102
VTR_0.000_0.000_1.000_1.000_VISUALSTYLE
340
2F
102
VTR_0.000_0.000_1.000_1.000_GRIDDISPLAY
 70
     3
102
VTR_0.000_0.000_1.000_1.000_GRIDMAJOR
 70
     5
102
VTR_0.000_0.000_1.000_1.000_DEFAULTLIGHTING
280
     1
102
VTR_0.000_0.000_1.000_1.000_DEFAULTLIGHTINGTYPE
 70
     1
102
VTR_0.000_0.000_1.000_1.000_BRIGHTNESS
141
0.0
102
VTR_0.000_0.000_1.000_1.000_CONTRAST
142
0.0
  0
LAYOUT
  5
1E
102
{ACAD_REACTORS
330
1A
102
}
330
1A
100
AcDbPlotSettings
  1

  2
none_device
  4

  6

 40
0.0
 41
0.0
 42
0.0
 43
0.0
 44
0.0
 45
0.0
 46
0.0
 47
0.0
 48
0.0
 49
0.0
140
0.0
141
0.0
142
1.0
143
1.0
 70
   688
 72
     1
 73
     0
 74
     5
  7

 75
    16
 76
     0
 77
     5
 78
   300
147
1.0
148
0.0
149
0.0
100
AcDbLayout
  1
Layout1
 70
     1
 71
     1
 10
0.0
 20
0.0
 11
420.0
 21
297.0
 12
0.0
 22
0.0
 32
0.0
 14
1.000000000000000E+20
 24
1.000000000000000E+20
 34
1.000000000000000E+20
 15
-1.000000000000000E+20
 25
-1.000000000000000E+20
 35
-1.000000000000000E+20
146
0.0
 13
0.0
 23
0.0
 33
0.0
 16
1.0
 26
0.0
 36
0.0
 17
0.0
 27
1.0
 37
0.0
 76
     0
330
1B
  0
LAYOUT
  5
26
102
{ACAD_REACTORS
330
1A
102
}
330
1A
100
AcDbPlotSettings
  1

  2
none_device
  4

  6

 40
0.0
 41
0.0
 42
0.0
 43
0.0
 44
0.0
 45
0.0
 46
0.0
 47
0.0
 48
0.0
 49
0.0
140
0.0
141
0.0
142
1.0
143
1.0
 70
   688
 72
     1
 73
     0
 74
     5
  7

 75
    16
 76
     0
 77
     5
 78
   300
147
1.0
148
0.0
149
0.0
100
AcDbLayout
  1
Layout2
 70
     1
 71
     2
 10
0.0
 20
0.0
 11
0.0
 21
0.0
 12
0.0
 22
0.0
 32
0.0
 14
0.0
 24
0.0
 34
0.0
 15
0.0
 25
0.0
 35
0.0
146
0.0
 13
0.0
 23
0.0
 33
0.0
 16
1.0
 26
0.0
 36
0.0
 17
0.0
 27
1.0
 37
0.0
 76
     0
330
23
  0
LAYOUT
  5
22
102
{ACAD_REACTORS
330
1A
102
}
330
1A
100
AcDbPlotSettings
  1

  2
none_device
  4
Letter_(8.50_x_11.00_Inches)
  6

 40
6.35
 41
6.35
 42
6.35000508
 43
6.35000508
 44
215.9
 45
279.4
 46
0.0
 47
0.0
 48
0.0
 49
0.0
140
0.0
141
0.0
142
1.0
143
1.0
 70
  1712
 72
     1
 73
     0
 74
     0
  7

 75
     0
 76
     0
 77
     5
 78
   300
147
1.0
148
0.0
149
0.0
100
AcDbLayout
  1
Model
 70
     1
 71
     0
 10
-630.0
 20
-445.5
 11
630.0
 21
445.5
 12
0.0
 22
0.0
 32
0.0
 14
-630.0
 24
-445.5
 34
0.0
 15
630.0
 25
445.5
 35
0.0
146
0.0
 13
0.0
 23
0.0
 33
0.0
 16
1.0
 26
0.0
 36
0.0
 17
0.0
 27
1.0
 37
0.0
 76
     0
330
1F
331
29
  0
MATERIAL
  5
45
102
{ACAD_REACTORS
330
43
102
}
102
{ACAD_XDICTIONARY
360
3C7
102
}
330
43
100
AcDbMaterial
  1
ByBlock
  0
MATERIAL
  5
44
102
{ACAD_REACTORS
330
43
102
}
102
{ACAD_XDICTIONARY
360
3C5
102
}
330
43
100
AcDbMaterial
  1
ByLayer
  0
MATERIAL
  5
46
102
{ACAD_REACTORS
330
43
102
}
102
{ACAD_XDICTIONARY
360
3C9
102
}
330
43
100
AcDbMaterial
  1
Global
  0
MLEADERSTYLE
  5
6C
102
{ACAD_REACTORS
330
6B
102
}
102
{ACAD_XDICTIONARY
360
3CF
102
}
330
6B
100
AcDbMLeaderStyle
170
     2
171
     1
172
     0
 90
        2
 40
0.0
 41
0.0
173
     1
 91
-1056964608
340
14
 92
       -2
290
     1
 42
2.0
291
     1
 43
8.0
  3
Standard
341
0
 44
4.0
300

342
11
174
     1
178
     6
175
     1
176
     0
 93
-1056964608
 45
4.0
292
     0
297
     0
 46
4.0
343
0
 94
-1056964608
 47
1.0
 49
1.0
140
1.0
293
     1
141
0.0
294
     1
177
     0
142
1.0
295
     0
296
     0
143
3.75
1001
ACAD_MLEADERVER
1070
     2
  0
MLINESTYLE
  5
18
102
{ACAD_REACTORS
330
17
102
}
330
17
100
AcDbMlineStyle
  2
Standard
 70
     0
  3

 62
   256
 51
90.0
 52
90.0
 71
     2
 49
0.5
 62
   256
  6
BYLAYER
 49
-0.5
 62
   256
  6
BYLAYER
  0
ACDBPLACEHOLDER
  5
F
102
{ACAD_REACTORS
330
E
102
}
330
E
  0
SCALE
  5
48
102
{ACAD_REACTORS
330
47
102
}
330
47
100
AcDbScale
 70
     0
300
1:1
140
1.0
141
1.0
290
     1
  0
SCALE
  5
49
102
{ACAD_REACTORS
330
47
102
}
330
47
100
AcDbScale
 70
     0
300
1:2
140
1.0
141
2.0
290
     0
  0
SCALE
  5
4A
102
{ACAD_REACTORS
330
47
102
}
330
47
100
AcDbScale
 70
     0
300
1:4
140
1.0
141
4.0
290
     0
  0
SCALE
  5
4B
102
{ACAD_REACTORS
330
47
102
}
330
47
100
AcDbScale
 70
     0
300
1:5
140
1.0
141
5.0
290
     0
  0
SCALE
  5
4C
102
{ACAD_REACTORS
330
47
102
}
330
47
100
AcDbScale
 70
     0
300
1:8
140
1.0
141
8.0
290
     0
  0
SCALE
  5
4D
102
{ACAD_REACTORS
330
47
102
}
330
47
100
AcDbScale
 70
     0
300
1:10
140
1.0
141
10.0
290
     0
  0
SCALE
  5
4E
102
{ACAD_REACTORS
330
47
102
}
330
47
100
AcDbScale
 70
     0
300
1:16
140
1.0
141
16.0
290
     0
  0
SCALE
  5
4F
102
{ACAD_REACTORS
330
47
102
}
330
47
100
AcDbScale
 70
     0
300
1:20
140
1.0
141
20.0
290
     0
  0
SCALE
  5
50
102
{ACAD_REACTORS
330
47
102
}
330
47
100
AcDbScale
 70
     0
300
1:30
140
1.0
141
30.0
290
     0
  0
SCALE
  5
51
102
{ACAD_REACTORS
330
47
102
}
330
47
100
AcDbScale
 70
     0
300
1:40
140
1.0
141
40.0
290
     0
  0
SCALE
  5
52
102
{ACAD_REACTORS
330
47
102
}
330
47
100
AcDbScale
 70
     0
300
1:50
140
1.0
141
50.0
290
     0
  0
SCALE
  5
53
102
{ACAD_REACTORS
330
47
102
}
330
47
100
AcDbScale
 70
     0
300
1:100
140
1.0
141
100.0
290
     0
  0
SCALE
  5
54
102
{ACAD_REACTORS
330
47
102
}
330
47
100
AcDbScale
 70
     0
300
2:1
140
2.0
141
1.0
290
     0
  0
SCALE
  5
55
102
{ACAD_REACTORS
330
47
102
}
330
47
100
AcDbScale
 70
     0
300
4:1
140
4.0
141
1.0
290
     0
  0
SCALE
  5
56
102
{ACAD_REACTORS
330
47
102
}
330
47
100
AcDbScale
 70
     0
300
8:1
140
8.0
141
1.0
290
     0
  0
SCALE
  5
57
102
{ACAD_REACTORS
330
47
102
}
330
47
100
AcDbScale
 70
     0
300
10:1
140
10.0
141
1.0
290
     0
  0
SCALE
  5
58
102
{ACAD_REACTORS
330
47
102
}
330
47
100
AcDbScale
 70
     0
300
100:1
140
100.0
141
1.0
290
     0
  0
SCALE
  5
59
102
{ACAD_REACTORS
330
47
102
}
330
47
100
AcDbScale
 70
     0
300
1/128" = 1'-0"
140
0.0078125
141
12.0
290
     0
  0
SCALE
  5
5A
102
{ACAD_REACTORS
330
47
102
}
330
47
100
AcDbScale
 70
     0
300
1/64" = 1'-0"
140
0.015625
141
12.0
290
     0
  0
SCALE
  5
5B
102
{ACAD_REACTORS
330
47
102
}
330
47
100
AcDbScale
 70
     0
300
1/32" = 1'-0"
140
0.03125
141
12.0
290
     0
  0
SCALE
  5
5C
102
{ACAD_REACTORS
330
47
102
}
330
47
100
AcDbScale
 70
     0
300
1/16" = 1'-0"
140
0.0625
141
12.0
290
     0
  0
SCALE
  5
5D
102
{ACAD_REACTORS
330
47
102
}
330
47
100
AcDbScale
 70
     0
300
3/32" = 1'-0"
140
0.09375
141
12.0
290
     0
  0
SCALE
  5
5E
102
{ACAD_REACTORS
330
47
102
}
330
47
100
AcDbScale
 70
     0
300
1/8" = 1'-0"
140
0.125
141
12.0
290
     0
  0
SCALE
  5
5F
102
{ACAD_REACTORS
330
47
102
}
330
47
100
AcDbScale
 70
     0
300
3/16" = 1'-0"
140
0.1875
141
12.0
290
     0
  0
SCALE
  5
60
102
{ACAD_REACTORS
330
47
102
}
330
47
100
AcDbScale
 70
     0
300
1/4" = 1'-0"
140
0.25
141
12.0
290
     0
  0
SCALE
  5
61
102
{ACAD_REACTORS
330
47
102
}
330
47
100
AcDbScale
 70
     0
300
3/8" = 1'-0"
140
0.375
141
12.0
290
     0
  0
SCALE
  5
62
102
{ACAD_REACTORS
330
47
102
}
330
47
100
AcDbScale
 70
     0
300
1/2" = 1'-0"
140
0.5
141
12.0
290
     0
  0
SCALE
  5
63
102
{ACAD_REACTORS
330
47
102
}
330
47
100
AcDbScale
 70
     0
300
3/4" = 1'-0"
140
0.75
141
12.0
290
     0
  0
SCALE
  5
64
102
{ACAD_REACTORS
330
47
102
}
330
47
100
AcDbScale
 70
     0
300
1" = 1'-0"
140
1.0
141
12.0
290
     0
  0
SCALE
  5
65
102
{ACAD_REACTORS
330
47
102
}
330
47
100
AcDbScale
 70
     0
300
1-1/2" = 1'-0"
140
1.5
141
12.0
290
     0
  0
SCALE
  5
66
102
{ACAD_REACTORS
330
47
102
}
330
47
100
AcDbScale
 70
     0
300
3" = 1'-0"
140
3.0
141
12.0
290
     0
  0
SCALE
  5
67
102
{ACAD_REACTORS
330
47
102
}
330
47
100
AcDbScale
 70
     0
300
6" = 1'-0"
140
6.0
141
12.0
290
     0
  0
SCALE
  5
68
102
{ACAD_REACTORS
330
47
102
}
330
47
100
AcDbScale
 70
     0
300
1'-0" = 1'-0"
140
12.0
141
12.0
290
     0
  0
TABLESTYLE
  5
6A
102
{ACAD_REACTORS
330
69
102
}
102
{ACAD_XDICTIONARY
360
3CB
102
}
330
69
100
AcDbTableStyle
  3
Standard
 70
     0
 71
     0
 40
0.06
 41
0.06
280
     0
281
     0
  7
Standard
140
4.5
170
     2
 62
     0
 63
   257
283
     0
274
    -2
284
     1
 64
     0
275
    -2
285
     1
 65
     0
276
    -2
286
     1
 66
     0
277
    -2
287
     1
 67
     0
278
    -2
288
     1
 68
     0
279
    -2
289
     1
 69
     0
  7
Standard
140
6.0
170
     5
 62
     0
 63
   257
283
     0
274
    -2
284
     1
 64
     0
275
    -2
285
     1
 65
     0
276
    -2
286
     1
 66
     0
277
    -2
287
     1
 67
     0
278
    -2
288
     1
 68
     0
279
    -2
289
     1
 69
     0
  7
Standard
140
4.5
170
     5
 62
     0
 63
   257
283
     0
274
    -2
284
     1
 64
     0
275
    -2
285
     1
 65
     0
276
    -2
286
     1
 66
     0
277
    -2
287
     1
 67
     0
278
    -2
288
     1
 68
     0
279
    -2
289
     1
 69
     0
  0
VISUALSTYLE
  5
2F
102
{ACAD_REACTORS
330
2A
102
}
102
{ACAD_XDICTIONARY
360
39D
102
}
330
2A
100
AcDbVisualStyle
  2
2dWireframe
 70
     4
 71
     0
 72
     2
 73
     0
 90
        0
 40
0.6
 41
30.0
 62
     5
 63
     7
421
 16777215
 74
     1
 91
        4
 64
     7
 65
   257
 75
     1
175
     1
 42
1.0
 92
        0
 66
   257
 43
1.0
 76
     1
 77
     6
 78
     2
 67
     7
 79
     5
170
     0
171
     0
290
     0
174
     0
 93
        1
 44
0.0
173
     0
291
     0
 45
0.0
1001
ACAD
1000
AcDbSavedByObjectVersion
1070
     0
  0
VISUALSTYLE
  5
32
102
{ACAD_REACTORS
330
2A
102
}
102
{ACAD_XDICTIONARY
360
3A3
102
}
330
2A
100
AcDbVisualStyle
  2
Basic
 70
     7
 71
     1
 72
     0
 73
     1
 90
        0
 40
0.6
 41
30.0
 62
     5
 63
     7
421
 16777215
 74
     0
 91
        4
 64
     7
 65
   257
 75
     1
175
     1
 42
1.0
 92
        8
 66
     7
 43
1.0
 76
     1
 77
     6
 78
     2
 67
     7
 79
     5
170
     0
171
     0
290
     0
174
     0
 93
        1
 44
0.0
173
     0
291
     1
 45
0.0
1001
ACAD
1000
AcDbSavedByObjectVersion
1070
     0
  0
VISUALSTYLE
  5
36
102
{ACAD_REACTORS
330
2A
102
}
102
{ACAD_XDICTIONARY
360
3AB
102
}
330
2A
100
AcDbVisualStyle
  2
Brighten
 70
    12
 71
     2
 72
     2
 73
     0
 90
        0
 40
0.6
 41
30.0
 62
     5
 63
     7
421
 16777215
 74
     1
 91
        4
 64
     7
 65
   257
 75
     1
175
     1
 42
1.0
 92
        8
 66
     7
 43
1.0
 76
     1
 77
     6
 78
     2
 67
     7
 79
     5
170
     0
171
     0
290
     0
174
     0
 93
        1
 44
50.0
173
     0
291
     1
 45
0.0
1001
ACAD
1000
AcDbSavedByObjectVersion
1070
     0
  0
VISUALSTYLE
  5
3A
102
{ACAD_REACTORS
330
2A
102
}
102
{ACAD_XDICTIONARY
360
3B3
102
}
330
2A
100
AcDbVisualStyle
  2
ColorChange
 70
    16
 71
     2
 72
     2
 73
     3
 90
        0
 40
0.6
 41
30.0
 62
     5
 63
     8
421
  8421504
 74
     1
 91
        4
 64
     7
 65
   257
 75
     1
175
     1
 42
1.0
 92
        8
 66
     8
424
  8421504
 43
1.0
 76
     1
 77
     6
 78
     2
 67
     7
 79
     5
170
     0
171
     0
290
     0
174
     0
 93
        1
 44
0.0
173
     0
291
     1
 45
0.0
1001
ACAD
1000
AcDbSavedByObjectVersion
1070
     0
  0
VISUALSTYLE
  5
34
102
{ACAD_REACTORS
330
2A
102
}
102
{ACAD_XDICTIONARY
360
3A7
102
}
330
2A
100
AcDbVisualStyle
  2
Conceptual
 70
     9
 71
     3
 72
     2
 73
     0
 90
        0
 40
0.6
 41
30.0
 62
     5
 63
     7
421
 16777215
 74
     2
 91
        2
 64
     7
 65
   257
 75
     1
175
     1
 42
179.0
 92
        8
 66
     7
 43
1.0
 76
     1
 77
     6
 78
     2
 67
     7
 79
     3
170
     0
171
     0
290
     0
174
     0
 93
        1
 44
0.0
173
     0
291
     0
 45
0.0
1001
ACAD
1000
AcDbSavedByObjectVersion
1070
     0
  0
VISUALSTYLE
  5
35
102
{ACAD_REACTORS
330
2A
102
}
102
{ACAD_XDICTIONARY
360
3A9
102
}
330
2A
100
AcDbVisualStyle
  2
Dim
 70
    11
 71
     2
 72
     2
 73
     0
 90
        0
 40
0.6
 41
30.0
 62
     5
 63
     7
421
 16777215
 74
     1
 91
        4
 64
     7
 65
   257
 75
     1
175
     1
 42
1.0
 92
        8
 66
     7
 43
1.0
 76
     1
 77
     6
 78
     2
 67
     7
 79
     5
170
     0
171
     0
290
     0
174
     0
 93
        1
 44
-50.0
173
     0
291
     1
 45
0.0
1001
ACAD
1000
AcDbSavedByObjectVersion
1070
     0
  0
VISUALSTYLE
  5
3D
102
{ACAD_REACTORS
330
2A
102
}
102
{ACAD_XDICTIONARY
360
3B9
102
}
330
2A
100
AcDbVisualStyle
  2
EdgeColorOff
 70
    22
 71
     2
 72
     2
 73
     0
 90
        0
 40
0.6
 41
30.0
 62
     5
 63
     7
421
 16777215
 74
     1
 91
        4
 64
     7
 65
   257
 75
     1
175
     1
 42
1.0
 92
        8
 66
     7
 43
1.0
 76
     1
 77
     6
 78
     2
 67
     7
 79
     5
170
     0
171
     0
290
     0
174
     0
 93
        1
 44
0.0
173
     0
291
     1
 45
0.0
1001
ACAD
1000
AcDbSavedByObjectVersion
1070
     0
  0
VISUALSTYLE
  5
39
102
{ACAD_REACTORS
330
2A
102
}
102
{ACAD_XDICTIONARY
360
3B1
102
}
330
2A
100
AcDbVisualStyle
  2
Facepattern
 70
    15
 71
     2
 72
     2
 73
     0
 90
        0
 40
0.6
 41
30.0
 62
     5
 63
     7
421
 16777215
 74
     1
 91
        4
 64
     7
 65
   257
 75
     1
175
     1
 42
1.0
 92
        8
 66
     7
 43
1.0
 76
     1
 77
     6
 78
     2
 67
     7
 79
     5
170
     0
171
     0
290
     0
174
     0
 93
        1
 44
0.0
173
     0
291
     1
 45
0.0
1001
ACAD
1000
AcDbSavedByObjectVersion
1070
     0
  0
VISUALSTYLE
  5
2B
102
{ACAD_REACTORS
330
2A
102
}
102
{ACAD_XDICTIONARY
360
395
102
}
330
2A
100
AcDbVisualStyle
  2
Flat
 70
     0
 71
     2
 72
     1
 73
     1
 90
        2
 40
0.6
 41
30.0
 62
     5
 63
     7
421
 16777215
 74
     0
 91
        0
 64
     7
 65
   257
 75
     1
175
     1
 42
1.0
 92
        8
 66
     7
 43
1.0
 76
     1
 77
     6
 78
     2
 67
     7
 79
     5
170
     0
171
     0
290
     0
174
     0
 93
       13
 44
0.0
173
     0
291
     1
 45
0.0
1001
ACAD
1000
AcDbSavedByObjectVersion
1070
     0
  0
VISUALSTYLE
  5
2C
102
{ACAD_REACTORS
330
2A
102
}
102
{ACAD_XDICTIONARY
360
397
102
}
330
2A
100
AcDbVisualStyle
  2
FlatWithEdges
 70
     1
 71
     2
 72
     1
 73
     1
 90
        2
 40
0.6
 41
30.0
 62
     5
 63
     7
421
 16777215
 74
     1
 91
        0
 64
     7
 65
   257
 75
     1
175
     1
 42
1.0
 92
        0
 66
   257
 43
1.0
 76
     1
 77
     6
 78
     2
 67
     7
 79
     5
170
     0
171
     0
290
     0
174
     0
 93
       13
 44
0.0
173
     0
291
     1
 45
0.0
1001
ACAD
1000
AcDbSavedByObjectVersion
1070
     0
  0
VISUALSTYLE
  5
2D
102
{ACAD_REACTORS
330
2A
102
}
102
{ACAD_XDICTIONARY
360
399
102
}
330
2A
100
AcDbVisualStyle
  2
Gouraud
 70
     2
 71
     2
 72
     2
 73
     1
 90
        2
 40
0.6
 41
30.0
 62
     5
 63
     7
421
 16777215
 74
     0
 91
        0
 64
     7
 65
   257
 75
     1
175
     1
 42
1.0
 92
        0
 66
     7
 43
1.0
 76
     1
 77
     6
 78
     2
 67
     7
 79
     5
170
     0
171
     0
290
     0
174
     0
 93
       13
 44
0.0
173
     0
291
     1
 45
0.0
1001
ACAD
1000
AcDbSavedByObjectVersion
1070
     0
  0
VISUALSTYLE
  5
2E
102
{ACAD_REACTORS
330
2A
102
}
102
{ACAD_XDICTIONARY
360
39B
102
}
330
2A
100
AcDbVisualStyle
  2
GouraudWithEdges
 70
     3
 71
     2
 72
     2
 73
     1
 90
        2
 40
0.6
 41
30.0
 62
     5
 63
     7
421
 16777215
 74
     1
 91
        0
 64
     7
 65
   257
 75
     1
175
     1
 42
1.0
 92
        0
 66
   257
 43
1.0
 76
     1
 77
     6
 78
     2
 67
     7
 79
     5
170
     0
171
     0
290
     0
174
     0
 93
       13
 44
0.0
173
     0
291
     1
 45
0.0
1001
ACAD
1000
AcDbSavedByObjectVersion
1070
     0
  0
VISUALSTYLE
  5
31
102
{ACAD_REACTORS
330
2A
102
}
102
{ACAD_XDICTIONARY
360
3A1
102
}
330
2A
100
AcDbVisualStyle
  2
Hidden
 70
     6
 71
     1
 72
     2
 73
     2
 90
        0
 40
0.6
 41
30.0
 62
     5
 63
     7
421
 16777215
 74
     2
 91
        2
 64
     7
 65
   257
 75
     2
175
     1
 42
40.0
 92
        0
 66
   257
 43
1.0
 76
     1
 77
     6
 78
     2
 67
     7
 79
     3
170
     0
171
     0
290
     0
174
     0
 93
        1
 44
0.0
173
     0
291
     0
 45
0.0
1001
ACAD
1000
AcDbSavedByObjectVersion
1070
     0
  0
VISUALSTYLE
  5
3B
102
{ACAD_REACTORS
330
2A
102
}
102
{ACAD_XDICTIONARY
360
3B5
102
}
330
2A
100
AcDbVisualStyle
  2
JitterOff
 70
    20
 71
     2
 72
     2
 73
     0
 90
        0
 40
0.6
 41
30.0
 62
     5
 63
     7
421
 16777215
 74
     1
 91
        4
 64
     7
 65
   257
 75
     1
175
     1
 42
1.0
 92
       10
 66
     7
 43
1.0
 76
     1
 77
     6
 78
     2
 67
     7
 79
     5
170
     0
171
     0
290
     0
174
     0
 93
        1
 44
0.0
173
     0
291
     1
 45
0.0
1001
ACAD
1000
AcDbSavedByObjectVersion
1070
     0
  0
VISUALSTYLE
  5
38
102
{ACAD_REACTORS
330
2A
102
}
102
{ACAD_XDICTIONARY
360
3AF
102
}
330
2A
100
AcDbVisualStyle
  2
Linepattern
 70
    14
 71
     2
 72
     2
 73
     0
 90
        0
 40
0.6
 41
30.0
 62
     5
 63
     7
421
 16777215
 74
     1
 91
        4
 64
     7
 65
   257
 75
     7
175
     7
 42
1.0
 92
        8
 66
     7
 43
1.0
 76
     1
 77
     6
 78
     2
 67
     7
 79
     5
170
     0
171
     0
290
     0
174
     0
 93
        1
 44
0.0
173
     0
291
     1
 45
0.0
1001
ACAD
1000
AcDbSavedByObjectVersion
1070
     0
  0
VISUALSTYLE
  5
3C
102
{ACAD_REACTORS
330
2A
102
}
102
{ACAD_XDICTIONARY
360
3B7
102
}
330
2A
100
AcDbVisualStyle
  2
OverhangOff
 70
    21
 71
     2
 72
     2
 73
     0
 90
        0
 40
0.6
 41
30.0
 62
     5
 63
     7
421
 16777215
 74
     1
 91
        4
 64
     7
 65
   257
 75
     1
175
     1
 42
1.0
 92
        9
 66
     7
 43
1.0
 76
     1
 77
     6
 78
     2
 67
     7
 79
     5
170
     0
171
     0
290
     0
174
     0
 93
        1
 44
0.0
173
     0
291
     1
 45
0.0
1001
ACAD
1000
AcDbSavedByObjectVersion
1070
     0
  0
VISUALSTYLE
  5
33
102
{ACAD_REACTORS
330
2A
102
}
102
{ACAD_XDICTIONARY
360
3A5
102
}
330
2A
100
AcDbVisualStyle
  2
Realistic
 70
     8
 71
     2
 72
     3
 73
     0
 90
        2
 40
0.6
 41
30.0
 62
     5
 63
     7
421
 16777215
 74
     0
 91
        0
 64
     7
 65
   257
 75
     1
175
     1
 42
1.0
 92
        8
 66
   257
 43
1.0
 76
     1
 77
     6
 78
     2
 67
     7
 79
     3
170
     0
171
     0
290
     0
174
     0
 93
       13
 44
0.0
173
     0
291
     0
 45
0.0
1001
ACAD
1000
AcDbSavedByObjectVersion
1070
     0
  0
VISUALSTYLE
  5
42
102
{ACAD_REACTORS
330
2A
102
}
102
{ACAD_XDICTIONARY
360
3C3
102
}
330
2A
100
AcDbVisualStyle
  2
Shaded
 70
    27
 71
     2
 72
     2
 73
     1
 90
        2
 40
0.6
 41
30.0
 62
     5
 63
     7
421
 16777215
 74
     0
 91
        4
 64
     7
 65
   257
 75
     1
175
     1
 42
1.0
 92
        8
 66
   257
 43
1.0
 76
     1
 77
     6
 78
     2
 67
     8
425
  7895160
 79
     3
170
     0
171
     0
290
     0
174
     0
 93
        5
 44
0.0
173
     0
291
     0
 45
0.0
1001
ACAD
1000
AcDbSavedByObjectVersion
1070
     0
  0
VISUALSTYLE
  5
41
102
{ACAD_REACTORS
330
2A
102
}
102
{ACAD_XDICTIONARY
360
3C1
102
}
330
2A
100
AcDbVisualStyle
  2
Shaded with edges
 70
    26
 71
     2
 72
     2
 73
     1
 90
        2
 40
0.6
 41
30.0
 62
     5
 63
     7
421
 16777215
 74
     1
 91
       10
 64
     7
 65
   257
 75
     2
175
     1
 42
1.0
 92
        8
 66
   257
 43
1.0
 76
     1
 77
     6
 78
     2
 67
     7
 79
     3
170
     0
171
     0
290
     0
174
     0
 93
        5
 44
0.0
173
     0
291
     0
 45
0.0
1001
ACAD
1000
AcDbSavedByObjectVersion
1070
     0
  0
VISUALSTYLE
  5
3E
102
{ACAD_REACTORS
330
2A
102
}
102
{ACAD_XDICTIONARY
360
3BB
102
}
330
2A
100
AcDbVisualStyle
  2
Shades of Gray
 70
    23
 71
     2
 72
     2
 73
     3
 90
        0
 40
0.6
 41
30.0
 62
     5
 63
     7
421
 16777215
 74
     2
 91
        2
 64
     7
 65
     7
 75
     1
175
     1
 42
40.0
 92
        8
 66
     7
 43
1.0
 76
     1
 77
     6
 78
     2
 67
     7
 79
     3
170
     0
171
     0
290
     0
174
     0
 93
        1
 44
0.0
173
     0
291
     0
 45
0.0
1001
ACAD
1000
AcDbSavedByObjectVersion
1070
     0
  0
VISUALSTYLE
  5
3F
102
{ACAD_REACTORS
330
2A
102
}
102
{ACAD_XDICTIONARY
360
3BD
102
}
330
2A
100
AcDbVisualStyle
  2
Sketchy
 70
    24
 71
     1
 72
     2
 73
     2
 90
        0
 40
0.6
 41
30.0
 62
     5
 63
     7
421
 16777215
 74
     2
 91
        2
 64
     7
 65
     7
 75
     1
175
     1
 42
40.0
 92
       11
 66
     7
 43
1.0
 76
     1
 77
     6
 78
     2
 67
     7
 79
     6
170
     0
171
     0
290
     0
174
     0
 93
        1
 44
0.0
173
     0
291
     0
 45
0.0
1001
ACAD
1000
AcDbSavedByObjectVersion
1070
     0
  0
VISUALSTYLE
  5
37
102
{ACAD_REACTORS
330
2A
102
}
102
{ACAD_XDICTIONARY
360
3AD
102
}
330
2A
100
AcDbVisualStyle
  2
Thicken
 70
    13
 71
     2
 72
     2
 73
     0
 90
        0
 40
0.6
 41
30.0
 62
     5
 63
     7
421
 16777215
 74
     1
 91
        4
 64
     7
 65
   257
 75
     1
175
     1
 42
1.0
 92
       12
 66
     7
 43
1.0
 76
     1
 77
     6
 78
     2
 67
     7
 79
     5
170
     0
171
     0
290
     0
174
     0
 93
        1
 44
0.0
173
     0
291
     1
 45
0.0
1001
ACAD
1000
AcDbSavedByObjectVersion
1070
     0
  0
VISUALSTYLE
  5
30
102
{ACAD_REACTORS
330
2A
102
}
102
{ACAD_XDICTIONARY
360
39F
102
}
330
2A
100
AcDbVisualStyle
  2
Wireframe
 70
     5
 71
     0
 72
     2
 73
     0
 90
        0
 40
0.6
 41
30.0
 62
     5
 63
     7
421
 16777215
 74
     1
 91
        4
 64
     7
 65
   257
 75
     1
175
     1
 42
1.0
 92
        0
 66
   257
 43
1.0
 76
     1
 77
     6
 78
     2
 67
     7
 79
     3
170
     0
171
     0
290
     0
174
     0
 93
        1
 44
0.0
173
     0
291
     0
 45
0.0
1001
ACAD
1000
AcDbSavedByObjectVersion
1070
     0
  0
VISUALSTYLE
  5
40
102
{ACAD_REACTORS
330
2A
102
}
102
{ACAD_XDICTIONARY
360
3BF
102
}
330
2A
100
AcDbVisualStyle
  2
X-Ray
 70
    25
 71
     2
 72
     2
 73
     1
 90
        1
 40
0.5
 41
30.0
 62
     5
 63
     7
421
 16777215
 74
     1
 91
        0
 64
     7
 65
   257
 75
     1
175
     1
 42
1.0
 92
        8
 66
     7
 43
1.0
 76
     1
 77
     6
 78
     2
 67
     7
 79
     3
170
     0
171
     0
290
     0
174
     0
 93
       13
 44
0.0
173
     0
291
     0
 45
0.0
1001
ACAD
1000
AcDbSavedByObjectVersion
1070
     0
  0
DICTIONARYVAR
  5
392
102
{ACAD_REACTORS
330
391
102
}
330
391
100
DictionaryVariables
280
     0
  1
1:1
  0
DICTIONARYVAR
  5
3D6
102
{ACAD_REACTORS
330
391
102
}
330
391
100
DictionaryVariables
280
     0
  1
3.500000
  0
DICTIONARYVAR
  5
3D7
102
{ACAD_REACTORS
330
391
102
}
330
391
100
DictionaryVariables
280
     0
  1
acadiso.lin
  0
DICTIONARYVAR
  5
3D3
102
{ACAD_REACTORS
330
391
102
}
330
391
100
DictionaryVariables
280
     0
  1
Standard
  0
DICTIONARYVAR
  5
3D2
102
{ACAD_REACTORS
330
391
102
}
330
391
100
DictionaryVariables
280
     0
  1
Standard
  0
DICTIONARYVAR
  5
393
102
{ACAD_REACTORS
330
391
102
}
330
391
100
DictionaryVariables
280
     0
  1
1
  0
DICTIONARYVAR
  5
394
102
{ACAD_REACTORS
330
391
102
}
330
391
100
DictionaryVariables
280
     0
  1
2
  0
DICTIONARY
  5
3C7
330
45
100
AcDbDictionary
280
     1
281
     1
  3
ACAD_XREC_ROUNDTRIP
360
3C8
  0
DICTIONARY
  5
3C5
330
44
100
AcDbDictionary
280
     1
281
     1
  3
ACAD_XREC_ROUNDTRIP
360
3C6
  0
DICTIONARY
  5
3C9
330
46
100
AcDbDictionary
280
     1
281
     1
  3
ACAD_XREC_ROUNDTRIP
360
3CA
  0
DICTIONARY
  5
3CF
330
6C
100
AcDbDictionary
280
     1
281
     1
  3
ACAD_XREC_ROUNDTRIP
360
3D0
  0
DICTIONARY
  5
3CB
330
6A
100
AcDbDictionary
280
     1
281
     1
  3
ACAD_ROUNDTRIP_2008_TABLESTYLE_CELLSTYLEMAP
360
3CD
  3
ACAD_XREC_ROUNDTRIP
360
3CC
  0
DICTIONARY
  5
39D
330
2F
100
AcDbDictionary
280
     1
281
     1
  3
ACAD_XREC_ROUNDTRIP
360
39E
  0
DICTIONARY
  5
3A3
330
32
100
AcDbDictionary
280
     1
281
     1
  3
ACAD_XREC_ROUNDTRIP
360
3A4
  0
DICTIONARY
  5
3AB
330
36
100
AcDbDictionary
280
     1
281
     1
  3
ACAD_XREC_ROUNDTRIP
360
3AC
  0
DICTIONARY
  5
3B3
330
3A
100
AcDbDictionary
280
     1
281
     1
  3
ACAD_XREC_ROUNDTRIP
360
3B4
  0
DICTIONARY
  5
3A7
330
34
100
AcDbDictionary
280
     1
281
     1
  3
ACAD_XREC_ROUNDTRIP
360
3A8
  0
DICTIONARY
  5
3A9
330
35
100
AcDbDictionary
280
     1
281
     1
  3
ACAD_XREC_ROUNDTRIP
360
3AA
  0
DICTIONARY
  5
3B9
330
3D
100
AcDbDictionary
280
     1
281
     1
  3
ACAD_XREC_ROUNDTRIP
360
3BA
  0
DICTIONARY
  5
3B1
330
39
100
AcDbDictionary
280
     1
281
     1
  3
ACAD_XREC_ROUNDTRIP
360
3B2
  0
DICTIONARY
  5
395
330
2B
100
AcDbDictionary
280
     1
281
     1
  3
ACAD_XREC_ROUNDTRIP
360
396
  0
DICTIONARY
  5
397
330
2C
100
AcDbDictionary
280
     1
281
     1
  3
ACAD_XREC_ROUNDTRIP
360
398
  0
DICTIONARY
  5
399
330
2D
100
AcDbDictionary
280
     1
281
     1
  3
ACAD_XREC_ROUNDTRIP
360
39A
  0
DICTIONARY
  5
39B
330
2E
100
AcDbDictionary
280
     1
281
     1
  3
ACAD_XREC_ROUNDTRIP
360
39C
  0
DICTIONARY
  5
3A1
330
31
100
AcDbDictionary
280
     1
281
     1
  3
ACAD_XREC_ROUNDTRIP
360
3A2
  0
DICTIONARY
  5
3B5
330
3B
100
AcDbDictionary
280
     1
281
     1
  3
ACAD_XREC_ROUNDTRIP
360
3B6
  0
DICTIONARY
  5
3AF
330
38
100
AcDbDictionary
280
     1
281
     1
  3
ACAD_XREC_ROUNDTRIP
360
3B0
  0
DICTIONARY
  5
3B7
330
3C
100
AcDbDictionary
280
     1
281
     1
  3
ACAD_XREC_ROUNDTRIP
360
3B8
  0
DICTIONARY
  5
3A5
330
33
100
AcDbDictionary
280
     1
281
     1
  3
ACAD_XREC_ROUNDTRIP
360
3A6
  0
DICTIONARY
  5
3C3
330
42
100
AcDbDictionary
280
     1
281
     1
  3
ACAD_XREC_ROUNDTRIP
360
3C4
  0
DICTIONARY
  5
3C1
330
41
100
AcDbDictionary
280
     1
281
     1
  3
ACAD_XREC_ROUNDTRIP
360
3C2
  0
DICTIONARY
  5
3BB
330
3E
100
AcDbDictionary
280
     1
281
     1
  3
ACAD_XREC_ROUNDTRIP
360
3BC
  0
DICTIONARY
  5
3BD
330
3F
100
AcDbDictionary
280
     1
281
     1
  3
ACAD_XREC_ROUNDTRIP
360
3BE
  0
DICTIONARY
  5
3AD
330
37
100
AcDbDictionary
280
     1
281
     1
  3
ACAD_XREC_ROUNDTRIP
360
3AE
  0
DICTIONARY
  5
39F
330
30
100
AcDbDictionary
280
     1
281
     1
  3
ACAD_XREC_ROUNDTRIP
360
3A0
  0
DICTIONARY
  5
3BF
330
40
100
AcDbDictionary
280
     1
281
     1
  3
ACAD_XREC_ROUNDTRIP
360
3C0
  0
XRECORD
  5
3C8
102
{ACAD_REACTORS
330
3C7
102
}
330
3C7
100
AcDbXrecord
280
     1
102
MATERIAL
148
0.0
149
0.0
149
0.0
 93
        0
 94
      127
282
     0
 72
     1
 77
     1
171
     1
175
     1
179
     1
273
     0
  0
XRECORD
  5
3C6
102
{ACAD_REACTORS
330
3C5
102
}
330
3C5
100
AcDbXrecord
280
     1
102
MATERIAL
148
0.0
149
0.0
149
0.0
 93
        0
 94
      127
282
     0
 72
     1
 77
     1
171
     1
175
     1
179
     1
273
     0
  0
XRECORD
  5
3CA
102
{ACAD_REACTORS
330
3C9
102
}
330
3C9
100
AcDbXrecord
280
     1
102
MATERIAL
148
0.0
149
0.0
149
0.0
 93
        0
 94
      127
282
     0
 72
     1
 77
     1
171
     1
175
     1
179
     1
273
     0
  0
XRECORD
  5
3D0
102
{ACAD_REACTORS
330
3CF
102
}
330
3CF
100
AcDbXrecord
280
     1
102
ACAD_ROUNDTRIP_2010_MLEADER_STYLE
  0
CELLSTYLEMAP
  5
3CD
102
{ACAD_REACTORS
330
3CB
102
}
330
3CB
100
AcDbCellStyleMap
 90
        3
300
CELLSTYLE
  1
TABLEFORMAT_BEGIN
 90
        5
170
     1
 91
        0
 92
    32768
 62
   257
 93
        1
300
CONTENTFORMAT
  1
CONTENTFORMAT_BEGIN
 90
        0
 91
        0
 92
        4
 93
        0
300

 40
0.0
140
1.0
 94
        5
 62
     0
340
11
144
6.0
309
CONTENTFORMAT_END
171
     1
301
MARGIN
  1
CELLMARGIN_BEGIN
 40
1.5
 40
1.5
 40
1.5
 40
1.5
 40
1.5
 40
1.5
309
CELLMARGIN_END
 94
        6
 95
        1
302
GRIDFORMAT
  1
GRIDFORMAT_BEGIN
 90
        0
 91
        1
 62
     0
 92
       -2
340
14
 93
        0
 40
0.045
309
GRIDFORMAT_END
 95
        2
302
GRIDFORMAT
  1
GRIDFORMAT_BEGIN
 90
        0
 91
        1
 62
     0
 92
       -2
340
14
 93
        0
 40
0.045
309
GRIDFORMAT_END
 95
        4
302
GRIDFORMAT
  1
GRIDFORMAT_BEGIN
 90
        0
 91
        1
 62
     0
 92
       -2
340
14
 93
        0
 40
0.045
309
GRIDFORMAT_END
 95
        8
302
GRIDFORMAT
  1
GRIDFORMAT_BEGIN
 90
        0
 91
        1
 62
     0
 92
       -2
340
14
 93
        0
 40
0.045
309
GRIDFORMAT_END
 95
       16
302
GRIDFORMAT
  1
GRIDFORMAT_BEGIN
 90
        0
 91
        1
 62
     0
 92
       -2
340
14
 93
        0
 40
0.045
309
GRIDFORMAT_END
 95
       32
302
GRIDFORMAT
  1
GRIDFORMAT_BEGIN
 90
        0
 91
        1
 62
     0
 92
       -2
340
14
 93
        0
 40
0.045
309
GRIDFORMAT_END
309
TABLEFORMAT_END
  1
CELLSTYLE_BEGIN
 90
        1
 91
        1
300
_TITLE
309
CELLSTYLE_END
300
CELLSTYLE
  1
TABLEFORMAT_BEGIN
 90
        5
170
     1
 91
        0
 92
        0
 62
   257
 93
        1
300
CONTENTFORMAT
  1
CONTENTFORMAT_BEGIN
 90
        0
 91
        0
 92
        4
 93
        0
300

 40
0.0
140
1.0
 94
        5
 62
     0
340
11
144
4.5
309
CONTENTFORMAT_END
171
     1
301
MARGIN
  1
CELLMARGIN_BEGIN
 40
1.5
 40
1.5
 40
1.5
 40
1.5
 40
1.5
 40
1.5
309
CELLMARGIN_END
 94
        6
 95
        1
302
GRIDFORMAT
  1
GRIDFORMAT_BEGIN
 90
        0
 91
        1
 62
     0
 92
       -2
340
14
 93
        0
 40
0.045
309
GRIDFORMAT_END
 95
        2
302
GRIDFORMAT
  1
GRIDFORMAT_BEGIN
 90
        0
 91
        1
 62
     0
 92
       -2
340
14
 93
        0
 40
0.045
309
GRIDFORMAT_END
 95
        4
302
GRIDFORMAT
  1
GRIDFORMAT_BEGIN
 90
        0
 91
        1
 62
     0
 92
       -2
340
14
 93
        0
 40
0.045
309
GRIDFORMAT_END
 95
        8
302
GRIDFORMAT
  1
GRIDFORMAT_BEGIN
 90
        0
 91
        1
 62
     0
 92
       -2
340
14
 93
        0
 40
0.045
309
GRIDFORMAT_END
 95
       16
302
GRIDFORMAT
  1
GRIDFORMAT_BEGIN
 90
        0
 91
        1
 62
     0
 92
       -2
340
14
 93
        0
 40
0.045
309
GRIDFORMAT_END
 95
       32
302
GRIDFORMAT
  1
GRIDFORMAT_BEGIN
 90
        0
 91
        1
 62
     0
 92
       -2
340
14
 93
        0
 40
0.045
309
GRIDFORMAT_END
309
TABLEFORMAT_END
  1
CELLSTYLE_BEGIN
 90
        2
 91
        1
300
_HEADER
309
CELLSTYLE_END
300
CELLSTYLE
  1
TABLEFORMAT_BEGIN
 90
        5
170
     1
 91
        0
 92
        0
 62
   257
 93
        1
300
CONTENTFORMAT
  1
CONTENTFORMAT_BEGIN
 90
        0
 91
        0
 92
        4
 93
        0
300

 40
0.0
140
1.0
 94
        2
 62
     0
340
11
144
4.5
309
CONTENTFORMAT_END
171
     1
301
MARGIN
  1
CELLMARGIN_BEGIN
 40
1.5
 40
1.5
 40
1.5
 40
1.5
 40
1.5
 40
1.5
309
CELLMARGIN_END
 94
        6
 95
        1
302
GRIDFORMAT
  1
GRIDFORMAT_BEGIN
 90
        0
 91
        1
 62
     0
 92
       -2
340
14
 93
        0
 40
0.045
309
GRIDFORMAT_END
 95
        2
302
GRIDFORMAT
  1
GRIDFORMAT_BEGIN
 90
        0
 91
        1
 62
     0
 92
       -2
340
14
 93
        0
 40
0.045
309
GRIDFORMAT_END
 95
        4
302
GRIDFORMAT
  1
GRIDFORMAT_BEGIN
 90
        0
 91
        1
 62
     0
 92
       -2
340
14
 93
        0
 40
0.045
309
GRIDFORMAT_END
 95
        8
302
GRIDFORMAT
  1
GRIDFORMAT_BEGIN
 90
        0
 91
        1
 62
     0
 92
       -2
340
14
 93
        0
 40
0.045
309
GRIDFORMAT_END
 95
       16
302
GRIDFORMAT
  1
GRIDFORMAT_BEGIN
 90
        0
 91
        1
 62
     0
 92
       -2
340
14
 93
        0
 40
0.045
309
GRIDFORMAT_END
 95
       32
302
GRIDFORMAT
  1
GRIDFORMAT_BEGIN
 90
        0
 91
        1
 62
     0
 92
       -2
340
14
 93
        0
 40
0.045
309
GRIDFORMAT_END
309
TABLEFORMAT_END
  1
CELLSTYLE_BEGIN
 90
        3
 91
        2
300
_DATA
309
CELLSTYLE_END
  0
XRECORD
  5
3CC
102
{ACAD_REACTORS
330
3CB
102
}
330
3CB
100
AcDbXrecord
280
     1
102
ACAD_ROUNDTRIP_PRE2007_TABLESTYLE
 90
        4
 91
        0
  1

 92
        4
 93
        0
  2

 94
        4
 95
        0
  3

  0
XRECORD
  5
39E
102
{ACAD_REACTORS
330
39D
102
}
330
39D
100
AcDbXrecord
280
     1
102
RTVSPropertyOp0
 70
     1
102
RTVSPropertyOp1
 70
     1
102
RTVSPropertyOp2
 70
     1
102
RTVSPropertyOp3
 70
     1
102
RTVSPropertyOp4
 70
     1
102
RTVSPropertyOp5
 70
     1
102
RTVSPropertyOp6
 70
     1
102
RTVSPropertyOp7
 70
     1
102
RTVSPropertyOp8
 70
     1
102
RTVSPropertyOp9
 70
     1
102
RTVSPropertyOp10
 70
     1
102
RTVSPropertyOp11
 70
     1
102
RTVSPropertyOp12
 70
     1
102
RTVSPropertyOp13
 70
     1
102
RTVSPropertyOp14
 70
     1
102
RTVSPropertyOp15
 70
     1
102
RTVSPropertyOp16
 70
     1
102
RTVSPropertyOp17
 70
     1
102
RTVSPropertyOp18
 70
     1
102
RTVSPropertyOp19
 70
     1
102
RTVSPropertyOp20
 70
     1
102
RTVSPropertyOp21
 70
     1
102
RTVSPropertyOp22
 70
     1
102
RTVSPropertyOp23
 70
     1
102
RTVSPropertyOp24
 70
     1
102
RTVSPropertyOp25
 70
     1
102
RTVSPropertyOp26
 70
     1
102
RTVSPropertyOp27
 70
     1
102
RTVSPropertyOp28
 70
     1
102
RTVSPropertyOp29
 70
     1
102
RTVSPropertyOp30
 70
     1
102
RTVSPropertyOp31
 70
     1
102
RTVSPropertyOp32
 70
     1
102
RTVSPropertyOp33
 70
     1
102
RTVSPropertyOp34
 70
     1
102
RTVSPropertyOp35
 70
     1
102
RTVSPropertyOp36
 70
     1
102
RTVSPropertyOp37
 70
     1
102
RTVSPropertyOp38
 70
     1
102
RTVSPropertyOp39
 70
     1
102
RTVSPropertyOp40
 70
     1
102
RTVSPropertyOp41
 70
     1
102
RTVSPropertyOp42
 70
     1
102
RTVSPropertyOp43
 70
     1
102
RTVSPropertyOp44
 70
     1
102
RTVSPropertyOp45
 70
     1
102
RTVSPropertyOp46
 70
     1
102
RTVSPropertyOp47
 70
     1
102
RTVSPropertyOp48
 70
     1
102
RTVSPropertyOp49
 70
     1
102
RTVSPropertyOp50
 70
     1
102
RTVSPropertyOp51
 70
     0
102
RTVSPropertyOp52
 70
     0
102
RTVSPropertyOp53
 70
     1
102
RTVSPropertyOp54
 70
     1
102
RTVSPropertyOp55
 70
     1
102
RTVSPropertyOp56
 70
     1
102
RTVSPropertyOp57
 70
     1
102
RTVSPost2010Prop28
280
     1
102
RTVSPost2010PropOp28
 70
     1
102
RTVSPost2010Prop29
280
     1
102
RTVSPost2010PropOp29
 70
     1
102
RTVSPost2010Prop30
280
     0
102
RTVSPost2010PropOp30
 70
     1
102
RTVSPost2010Prop31
280
     0
102
RTVSPost2010PropOp31
 70
     1
102
RTVSPost2010Prop32
280
     0
102
RTVSPost2010PropOp32
 70
     1
102
RTVSPost2010Prop33
280
     0
102
RTVSPost2010PropOp33
 70
     1
102
RTVSPost2010Prop34
280
     0
102
RTVSPost2010PropOp34
 70
     1
102
RTVSPost2010Prop35
280
     0
102
RTVSPost2010PropOp35
 70
     1
102
RTVSPost2010Prop36
280
     0
102
RTVSPost2010PropOp36
 70
     1
102
RTVSPost2010Prop37
 90
       50
102
RTVSPost2010PropOp37
 70
     1
102
RTVSPost2010Prop38
140
0.0
102
RTVSPost2010PropOp38
 70
     1
102
RTVSPost2010Prop39
140
1.0
102
RTVSPost2010PropOp39
 70
     1
102
RTVSPost2010Prop40
 90
        0
102
RTVSPost2010PropOp40
 70
     1
102
RTVSPost2010Prop41ColorIndex
 90
       18
102
RTVSPost2010Prop41ColorRGB
 90
        0
102
RTVSPost2010PropOp41
 70
     1
102
RTVSPost2010Prop42
 90
       50
102
RTVSPost2010PropOp42
 70
     1
102
RTVSPost2010Prop43
 90
        3
102
RTVSPost2010PropOp43
 70
     1
102
RTVSPost2010Prop44ColorIndex
 90
        5
102
RTVSPost2010Prop44ColorRGB
 90
      255
102
RTVSPost2010PropOp44
 70
     1
102
RTVSPost2010Prop45
280
     0
102
RTVSPost2010PropOp45
 70
     1
102
RTVSPost2010Prop46
 90
       50
102
RTVSPost2010PropOp46
 70
     1
102
RTVSPost2010Prop47
 90
       50
102
RTVSPost2010PropOp47
 70
     1
102
RTVSPost2010Prop48
 90
       50
102
RTVSPost2010PropOp48
 70
     1
102
RTVSPost2010Prop49
280
     0
102
RTVSPost2010PropOp49
 70
     1
102
RTVSPost2010Prop50
 90
       50
102
RTVSPost2010PropOp50
 70
     1
102
RTVSPost2010Prop51ColorIndex
 90
      256
102
RTVSPost2010Prop51ColorRGB
 90
-16777216
102
RTVSPost2010PropOp51
 70
     0
102
RTVSPost2010Prop52
140
1.0
102
RTVSPost2010PropOp52
 70
     0
102
RTVSPost2010Prop53
 90
        2
102
RTVSPost2010PropOp53
 70
     1
102
RTVSPost2010Prop54
  1
strokes_ogs.tif
102
RTVSPost2010PropOp54
 70
     1
102
RTVSPost2010Prop55
280
     0
102
RTVSPost2010PropOp55
 70
     1
102
RTVSPost2010Prop56
140
1.0
102
RTVSPost2010PropOp56
 70
     1
102
RTVSPost2010Prop57
140
1.0
102
RTVSPost2010PropOp57
 70
     1
  0
XRECORD
  5
3A4
102
{ACAD_REACTORS
330
3A3
102
}
330
3A3
100
AcDbXrecord
280
     1
102
RTVSPropertyOp0
 70
     1
102
RTVSPropertyOp1
 70
     1
102
RTVSPropertyOp2
 70
     1
102
RTVSPropertyOp3
 70
     1
102
RTVSPropertyOp4
 70
     1
102
RTVSPropertyOp5
 70
     1
102
RTVSPropertyOp6
 70
     1
102
RTVSPropertyOp7
 70
     1
102
RTVSPropertyOp8
 70
     1
102
RTVSPropertyOp9
 70
     1
102
RTVSPropertyOp10
 70
     1
102
RTVSPropertyOp11
 70
     1
102
RTVSPropertyOp12
 70
     1
102
RTVSPropertyOp13
 70
     1
102
RTVSPropertyOp14
 70
     1
102
RTVSPropertyOp15
 70
     1
102
RTVSPropertyOp16
 70
     1
102
RTVSPropertyOp17
 70
     1
102
RTVSPropertyOp18
 70
     1
102
RTVSPropertyOp19
 70
     1
102
RTVSPropertyOp20
 70
     1
102
RTVSPropertyOp21
 70
     1
102
RTVSPropertyOp22
 70
     1
102
RTVSPropertyOp23
 70
     1
102
RTVSPropertyOp24
 70
     1
102
RTVSPropertyOp25
 70
     1
102
RTVSPropertyOp26
 70
     1
102
RTVSPropertyOp27
 70
     1
102
RTVSPropertyOp28
 70
     1
102
RTVSPropertyOp29
 70
     1
102
RTVSPropertyOp30
 70
     1
102
RTVSPropertyOp31
 70
     1
102
RTVSPropertyOp32
 70
     1
102
RTVSPropertyOp33
 70
     1
102
RTVSPropertyOp34
 70
     1
102
RTVSPropertyOp35
 70
     1
102
RTVSPropertyOp36
 70
     1
102
RTVSPropertyOp37
 70
     1
102
RTVSPropertyOp38
 70
     1
102
RTVSPropertyOp39
 70
     1
102
RTVSPropertyOp40
 70
     1
102
RTVSPropertyOp41
 70
     1
102
RTVSPropertyOp42
 70
     1
102
RTVSPropertyOp43
 70
     1
102
RTVSPropertyOp44
 70
     1
102
RTVSPropertyOp45
 70
     1
102
RTVSPropertyOp46
 70
     1
102
RTVSPropertyOp47
 70
     1
102
RTVSPropertyOp48
 70
     1
102
RTVSPropertyOp49
 70
     1
102
RTVSPropertyOp50
 70
     1
102
RTVSPropertyOp51
 70
     0
102
RTVSPropertyOp52
 70
     0
102
RTVSPropertyOp53
 70
     1
102
RTVSPropertyOp54
 70
     1
102
RTVSPropertyOp55
 70
     1
102
RTVSPropertyOp56
 70
     1
102
RTVSPropertyOp57
 70
     1
102
RTVSPost2010Prop28
280
     0
102
RTVSPost2010PropOp28
 70
     1
102
RTVSPost2010Prop29
280
     1
102
RTVSPost2010PropOp29
 70
     1
102
RTVSPost2010Prop30
280
     1
102
RTVSPost2010PropOp30
 70
     1
102
RTVSPost2010Prop31
280
     0
102
RTVSPost2010PropOp31
 70
     1
102
RTVSPost2010Prop32
280
     0
102
RTVSPost2010PropOp32
 70
     1
102
RTVSPost2010Prop33
280
     0
102
RTVSPost2010PropOp33
 70
     1
102
RTVSPost2010Prop34
280
     0
102
RTVSPost2010PropOp34
 70
     1
102
RTVSPost2010Prop35
280
     0
102
RTVSPost2010PropOp35
 70
     1
102
RTVSPost2010Prop36
280
     0
102
RTVSPost2010PropOp36
 70
     1
102
RTVSPost2010Prop37
 90
       50
102
RTVSPost2010PropOp37
 70
     1
102
RTVSPost2010Prop38
140
0.0
102
RTVSPost2010PropOp38
 70
     1
102
RTVSPost2010Prop39
140
1.0
102
RTVSPost2010PropOp39
 70
     1
102
RTVSPost2010Prop40
 90
        0
102
RTVSPost2010PropOp40
 70
     1
102
RTVSPost2010Prop41ColorIndex
 90
       18
102
RTVSPost2010Prop41ColorRGB
 90
        0
102
RTVSPost2010PropOp41
 70
     1
102
RTVSPost2010Prop42
 90
       50
102
RTVSPost2010PropOp42
 70
     1
102
RTVSPost2010Prop43
 90
        3
102
RTVSPost2010PropOp43
 70
     1
102
RTVSPost2010Prop44ColorIndex
 90
        5
102
RTVSPost2010Prop44ColorRGB
 90
      255
102
RTVSPost2010PropOp44
 70
     1
102
RTVSPost2010Prop45
280
     0
102
RTVSPost2010PropOp45
 70
     1
102
RTVSPost2010Prop46
 90
       50
102
RTVSPost2010PropOp46
 70
     1
102
RTVSPost2010Prop47
 90
       50
102
RTVSPost2010PropOp47
 70
     1
102
RTVSPost2010Prop48
 90
       50
102
RTVSPost2010PropOp48
 70
     1
102
RTVSPost2010Prop49
280
     0
102
RTVSPost2010PropOp49
 70
     1
102
RTVSPost2010Prop50
 90
       50
102
RTVSPost2010PropOp50
 70
     1
102
RTVSPost2010Prop51ColorIndex
 90
      256
102
RTVSPost2010Prop51ColorRGB
 90
-16777216
102
RTVSPost2010PropOp51
 70
     0
102
RTVSPost2010Prop52
140
1.0
102
RTVSPost2010PropOp52
 70
     0
102
RTVSPost2010Prop53
 90
        2
102
RTVSPost2010PropOp53
 70
     1
102
RTVSPost2010Prop54
  1
strokes_ogs.tif
102
RTVSPost2010PropOp54
 70
     1
102
RTVSPost2010Prop55
280
     0
102
RTVSPost2010PropOp55
 70
     1
102
RTVSPost2010Prop56
140
1.0
102
RTVSPost2010PropOp56
 70
     1
102
RTVSPost2010Prop57
140
1.0
102
RTVSPost2010PropOp57
 70
     1
  0
XRECORD
  5
3AC
102
{ACAD_REACTORS
330
3AB
102
}
330
3AB
100
AcDbXrecord
280
     1
102
RTVSPropertyOp0
 70
     1
102
RTVSPropertyOp1
 70
     1
102
RTVSPropertyOp2
 70
     1
102
RTVSPropertyOp3
 70
     1
102
RTVSPropertyOp4
 70
     1
102
RTVSPropertyOp5
 70
     1
102
RTVSPropertyOp6
 70
     1
102
RTVSPropertyOp7
 70
     1
102
RTVSPropertyOp8
 70
     1
102
RTVSPropertyOp9
 70
     1
102
RTVSPropertyOp10
 70
     1
102
RTVSPropertyOp11
 70
     1
102
RTVSPropertyOp12
 70
     1
102
RTVSPropertyOp13
 70
     1
102
RTVSPropertyOp14
 70
     1
102
RTVSPropertyOp15
 70
     1
102
RTVSPropertyOp16
 70
     1
102
RTVSPropertyOp17
 70
     1
102
RTVSPropertyOp18
 70
     1
102
RTVSPropertyOp19
 70
     1
102
RTVSPropertyOp20
 70
     1
102
RTVSPropertyOp21
 70
     1
102
RTVSPropertyOp22
 70
     1
102
RTVSPropertyOp23
 70
     1
102
RTVSPropertyOp24
 70
     1
102
RTVSPropertyOp25
 70
     1
102
RTVSPropertyOp26
 70
     1
102
RTVSPropertyOp27
 70
     1
102
RTVSPropertyOp28
 70
     1
102
RTVSPropertyOp29
 70
     1
102
RTVSPropertyOp30
 70
     1
102
RTVSPropertyOp31
 70
     1
102
RTVSPropertyOp32
 70
     1
102
RTVSPropertyOp33
 70
     1
102
RTVSPropertyOp34
 70
     1
102
RTVSPropertyOp35
 70
     1
102
RTVSPropertyOp36
 70
     1
102
RTVSPropertyOp37
 70
     1
102
RTVSPropertyOp38
 70
     1
102
RTVSPropertyOp39
 70
     1
102
RTVSPropertyOp40
 70
     1
102
RTVSPropertyOp41
 70
     1
102
RTVSPropertyOp42
 70
     1
102
RTVSPropertyOp43
 70
     1
102
RTVSPropertyOp44
 70
     1
102
RTVSPropertyOp45
 70
     1
102
RTVSPropertyOp46
 70
     1
102
RTVSPropertyOp47
 70
     1
102
RTVSPropertyOp48
 70
     1
102
RTVSPropertyOp49
 70
     1
102
RTVSPropertyOp50
 70
     1
102
RTVSPropertyOp51
 70
     0
102
RTVSPropertyOp52
 70
     0
102
RTVSPropertyOp53
 70
     1
102
RTVSPropertyOp54
 70
     1
102
RTVSPropertyOp55
 70
     1
102
RTVSPropertyOp56
 70
     1
102
RTVSPropertyOp57
 70
     1
102
RTVSPost2010Prop28
280
     0
102
RTVSPost2010PropOp28
 70
     1
102
RTVSPost2010Prop29
280
     1
102
RTVSPost2010PropOp29
 70
     1
102
RTVSPost2010Prop30
280
     1
102
RTVSPost2010PropOp30
 70
     1
102
RTVSPost2010Prop31
280
     0
102
RTVSPost2010PropOp31
 70
     1
102
RTVSPost2010Prop32
280
     0
102
RTVSPost2010PropOp32
 70
     1
102
RTVSPost2010Prop33
280
     0
102
RTVSPost2010PropOp33
 70
     1
102
RTVSPost2010Prop34
280
     0
102
RTVSPost2010PropOp34
 70
     1
102
RTVSPost2010Prop35
280
     0
102
RTVSPost2010PropOp35
 70
     1
102
RTVSPost2010Prop36
280
     0
102
RTVSPost2010PropOp36
 70
     1
102
RTVSPost2010Prop37
 90
       50
102
RTVSPost2010PropOp37
 70
     1
102
RTVSPost2010Prop38
140
0.0
102
RTVSPost2010PropOp38
 70
     1
102
RTVSPost2010Prop39
140
1.0
102
RTVSPost2010PropOp39
 70
     1
102
RTVSPost2010Prop40
 90
        0
102
RTVSPost2010PropOp40
 70
     1
102
RTVSPost2010Prop41ColorIndex
 90
       18
102
RTVSPost2010Prop41ColorRGB
 90
        0
102
RTVSPost2010PropOp41
 70
     1
102
RTVSPost2010Prop42
 90
       50
102
RTVSPost2010PropOp42
 70
     1
102
RTVSPost2010Prop43
 90
        3
102
RTVSPost2010PropOp43
 70
     1
102
RTVSPost2010Prop44ColorIndex
 90
        5
102
RTVSPost2010Prop44ColorRGB
 90
      255
102
RTVSPost2010PropOp44
 70
     1
102
RTVSPost2010Prop45
280
     0
102
RTVSPost2010PropOp45
 70
     1
102
RTVSPost2010Prop46
 90
       50
102
RTVSPost2010PropOp46
 70
     1
102
RTVSPost2010Prop47
 90
       50
102
RTVSPost2010PropOp47
 70
     1
102
RTVSPost2010Prop48
 90
       50
102
RTVSPost2010PropOp48
 70
     1
102
RTVSPost2010Prop49
280
     0
102
RTVSPost2010PropOp49
 70
     1
102
RTVSPost2010Prop50
 90
       50
102
RTVSPost2010PropOp50
 70
     1
102
RTVSPost2010Prop51ColorIndex
 90
      256
102
RTVSPost2010Prop51ColorRGB
 90
-16777216
102
RTVSPost2010PropOp51
 70
     0
102
RTVSPost2010Prop52
140
1.0
102
RTVSPost2010PropOp52
 70
     0
102
RTVSPost2010Prop53
 90
        2
102
RTVSPost2010PropOp53
 70
     1
102
RTVSPost2010Prop54
  1
strokes_ogs.tif
102
RTVSPost2010PropOp54
 70
     1
102
RTVSPost2010Prop55
280
     0
102
RTVSPost2010PropOp55
 70
     1
102
RTVSPost2010Prop56
140
1.0
102
RTVSPost2010PropOp56
 70
     1
102
RTVSPost2010Prop57
140
1.0
102
RTVSPost2010PropOp57
 70
     1
  0
XRECORD
  5
3B4
102
{ACAD_REACTORS
330
3B3
102
}
330
3B3
100
AcDbXrecord
280
     1
102
RTVSPropertyOp0
 70
     1
102
RTVSPropertyOp1
 70
     1
102
RTVSPropertyOp2
 70
     1
102
RTVSPropertyOp3
 70
     1
102
RTVSPropertyOp4
 70
     1
102
RTVSPropertyOp5
 70
     1
102
RTVSPropertyOp6
 70
     1
102
RTVSPropertyOp7
 70
     1
102
RTVSPropertyOp8
 70
     1
102
RTVSPropertyOp9
 70
     1
102
RTVSPropertyOp10
 70
     1
102
RTVSPropertyOp11
 70
     1
102
RTVSPropertyOp12
 70
     1
102
RTVSPropertyOp13
 70
     1
102
RTVSPropertyOp14
 70
     1
102
RTVSPropertyOp15
 70
     1
102
RTVSPropertyOp16
 70
     1
102
RTVSPropertyOp17
 70
     1
102
RTVSPropertyOp18
 70
     1
102
RTVSPropertyOp19
 70
     1
102
RTVSPropertyOp20
 70
     1
102
RTVSPropertyOp21
 70
     1
102
RTVSPropertyOp22
 70
     1
102
RTVSPropertyOp23
 70
     1
102
RTVSPropertyOp24
 70
     1
102
RTVSPropertyOp25
 70
     1
102
RTVSPropertyOp26
 70
     1
102
RTVSPropertyOp27
 70
     1
102
RTVSPropertyOp28
 70
     1
102
RTVSPropertyOp29
 70
     1
102
RTVSPropertyOp30
 70
     1
102
RTVSPropertyOp31
 70
     1
102
RTVSPropertyOp32
 70
     1
102
RTVSPropertyOp33
 70
     1
102
RTVSPropertyOp34
 70
     1
102
RTVSPropertyOp35
 70
     1
102
RTVSPropertyOp36
 70
     1
102
RTVSPropertyOp37
 70
     1
102
RTVSPropertyOp38
 70
     1
102
RTVSPropertyOp39
 70
     1
102
RTVSPropertyOp40
 70
     1
102
RTVSPropertyOp41
 70
     1
102
RTVSPropertyOp42
 70
     1
102
RTVSPropertyOp43
 70
     1
102
RTVSPropertyOp44
 70
     1
102
RTVSPropertyOp45
 70
     1
102
RTVSPropertyOp46
 70
     1
102
RTVSPropertyOp47
 70
     1
102
RTVSPropertyOp48
 70
     1
102
RTVSPropertyOp49
 70
     1
102
RTVSPropertyOp50
 70
     1
102
RTVSPropertyOp51
 70
     0
102
RTVSPropertyOp52
 70
     0
102
RTVSPropertyOp53
 70
     1
102
RTVSPropertyOp54
 70
     1
102
RTVSPropertyOp55
 70
     1
102
RTVSPropertyOp56
 70
     1
102
RTVSPropertyOp57
 70
     1
102
RTVSPost2010Prop28
280
     0
102
RTVSPost2010PropOp28
 70
     1
102
RTVSPost2010Prop29
280
     1
102
RTVSPost2010PropOp29
 70
     1
102
RTVSPost2010Prop30
280
     1
102
RTVSPost2010PropOp30
 70
     1
102
RTVSPost2010Prop31
280
     0
102
RTVSPost2010PropOp31
 70
     1
102
RTVSPost2010Prop32
280
     0
102
RTVSPost2010PropOp32
 70
     1
102
RTVSPost2010Prop33
280
     0
102
RTVSPost2010PropOp33
 70
     1
102
RTVSPost2010Prop34
280
     0
102
RTVSPost2010PropOp34
 70
     1
102
RTVSPost2010Prop35
280
     0
102
RTVSPost2010PropOp35
 70
     1
102
RTVSPost2010Prop36
280
     0
102
RTVSPost2010PropOp36
 70
     1
102
RTVSPost2010Prop37
 90
       50
102
RTVSPost2010PropOp37
 70
     1
102
RTVSPost2010Prop38
140
0.0
102
RTVSPost2010PropOp38
 70
     1
102
RTVSPost2010Prop39
140
1.0
102
RTVSPost2010PropOp39
 70
     1
102
RTVSPost2010Prop40
 90
        0
102
RTVSPost2010PropOp40
 70
     1
102
RTVSPost2010Prop41ColorIndex
 90
       18
102
RTVSPost2010Prop41ColorRGB
 90
        0
102
RTVSPost2010PropOp41
 70
     1
102
RTVSPost2010Prop42
 90
       50
102
RTVSPost2010PropOp42
 70
     1
102
RTVSPost2010Prop43
 90
        3
102
RTVSPost2010PropOp43
 70
     1
102
RTVSPost2010Prop44ColorIndex
 90
        5
102
RTVSPost2010Prop44ColorRGB
 90
      255
102
RTVSPost2010PropOp44
 70
     1
102
RTVSPost2010Prop45
280
     0
102
RTVSPost2010PropOp45
 70
     1
102
RTVSPost2010Prop46
 90
       50
102
RTVSPost2010PropOp46
 70
     1
102
RTVSPost2010Prop47
 90
       50
102
RTVSPost2010PropOp47
 70
     1
102
RTVSPost2010Prop48
 90
       50
102
RTVSPost2010PropOp48
 70
     1
102
RTVSPost2010Prop49
280
     0
102
RTVSPost2010PropOp49
 70
     1
102
RTVSPost2010Prop50
 90
       50
102
RTVSPost2010PropOp50
 70
     1
102
RTVSPost2010Prop51ColorIndex
 90
      256
102
RTVSPost2010Prop51ColorRGB
 90
-16777216
102
RTVSPost2010PropOp51
 70
     0
102
RTVSPost2010Prop52
140
1.0
102
RTVSPost2010PropOp52
 70
     0
102
RTVSPost2010Prop53
 90
        2
102
RTVSPost2010PropOp53
 70
     1
102
RTVSPost2010Prop54
  1
strokes_ogs.tif
102
RTVSPost2010PropOp54
 70
     1
102
RTVSPost2010Prop55
280
     0
102
RTVSPost2010PropOp55
 70
     1
102
RTVSPost2010Prop56
140
1.0
102
RTVSPost2010PropOp56
 70
     1
102
RTVSPost2010Prop57
140
1.0
102
RTVSPost2010PropOp57
 70
     1
  0
XRECORD
  5
3A8
102
{ACAD_REACTORS
330
3A7
102
}
330
3A7
100
AcDbXrecord
280
     1
102
RTVSPropertyOp0
 70
     1
102
RTVSPropertyOp1
 70
     1
102
RTVSPropertyOp2
 70
     1
102
RTVSPropertyOp3
 70
     1
102
RTVSPropertyOp4
 70
     1
102
RTVSPropertyOp5
 70
     1
102
RTVSPropertyOp6
 70
     1
102
RTVSPropertyOp7
 70
     1
102
RTVSPropertyOp8
 70
     1
102
RTVSPropertyOp9
 70
     1
102
RTVSPropertyOp10
 70
     1
102
RTVSPropertyOp11
 70
     1
102
RTVSPropertyOp12
 70
     1
102
RTVSPropertyOp13
 70
     1
102
RTVSPropertyOp14
 70
     1
102
RTVSPropertyOp15
 70
     1
102
RTVSPropertyOp16
 70
     1
102
RTVSPropertyOp17
 70
     1
102
RTVSPropertyOp18
 70
     1
102
RTVSPropertyOp19
 70
     1
102
RTVSPropertyOp20
 70
     1
102
RTVSPropertyOp21
 70
     1
102
RTVSPropertyOp22
 70
     1
102
RTVSPropertyOp23
 70
     1
102
RTVSPropertyOp24
 70
     1
102
RTVSPropertyOp25
 70
     1
102
RTVSPropertyOp26
 70
     1
102
RTVSPropertyOp27
 70
     1
102
RTVSPropertyOp28
 70
     1
102
RTVSPropertyOp29
 70
     1
102
RTVSPropertyOp30
 70
     1
102
RTVSPropertyOp31
 70
     1
102
RTVSPropertyOp32
 70
     1
102
RTVSPropertyOp33
 70
     1
102
RTVSPropertyOp34
 70
     1
102
RTVSPropertyOp35
 70
     1
102
RTVSPropertyOp36
 70
     1
102
RTVSPropertyOp37
 70
     1
102
RTVSPropertyOp38
 70
     1
102
RTVSPropertyOp39
 70
     1
102
RTVSPropertyOp40
 70
     1
102
RTVSPropertyOp41
 70
     1
102
RTVSPropertyOp42
 70
     1
102
RTVSPropertyOp43
 70
     1
102
RTVSPropertyOp44
 70
     1
102
RTVSPropertyOp45
 70
     1
102
RTVSPropertyOp46
 70
     1
102
RTVSPropertyOp47
 70
     1
102
RTVSPropertyOp48
 70
     1
102
RTVSPropertyOp49
 70
     1
102
RTVSPropertyOp50
 70
     1
102
RTVSPropertyOp51
 70
     0
102
RTVSPropertyOp52
 70
     0
102
RTVSPropertyOp53
 70
     1
102
RTVSPropertyOp54
 70
     1
102
RTVSPropertyOp55
 70
     1
102
RTVSPropertyOp56
 70
     1
102
RTVSPropertyOp57
 70
     1
102
RTVSPost2010Prop28
280
     0
102
RTVSPost2010PropOp28
 70
     1
102
RTVSPost2010Prop29
280
     1
102
RTVSPost2010PropOp29
 70
     1
102
RTVSPost2010Prop30
280
     1
102
RTVSPost2010PropOp30
 70
     1
102
RTVSPost2010Prop31
280
     0
102
RTVSPost2010PropOp31
 70
     1
102
RTVSPost2010Prop32
280
     0
102
RTVSPost2010PropOp32
 70
     1
102
RTVSPost2010Prop33
280
     0
102
RTVSPost2010PropOp33
 70
     1
102
RTVSPost2010Prop34
280
     0
102
RTVSPost2010PropOp34
 70
     1
102
RTVSPost2010Prop35
280
     0
102
RTVSPost2010PropOp35
 70
     1
102
RTVSPost2010Prop36
280
     0
102
RTVSPost2010PropOp36
 70
     1
102
RTVSPost2010Prop37
 90
       50
102
RTVSPost2010PropOp37
 70
     1
102
RTVSPost2010Prop38
140
0.0
102
RTVSPost2010PropOp38
 70
     1
102
RTVSPost2010Prop39
140
1.0
102
RTVSPost2010PropOp39
 70
     1
102
RTVSPost2010Prop40
 90
        0
102
RTVSPost2010PropOp40
 70
     1
102
RTVSPost2010Prop41ColorIndex
 90
       18
102
RTVSPost2010Prop41ColorRGB
 90
        0
102
RTVSPost2010PropOp41
 70
     1
102
RTVSPost2010Prop42
 90
       50
102
RTVSPost2010PropOp42
 70
     1
102
RTVSPost2010Prop43
 90
        3
102
RTVSPost2010PropOp43
 70
     1
102
RTVSPost2010Prop44ColorIndex
 90
        5
102
RTVSPost2010Prop44ColorRGB
 90
      255
102
RTVSPost2010PropOp44
 70
     1
102
RTVSPost2010Prop45
280
     0
102
RTVSPost2010PropOp45
 70
     1
102
RTVSPost2010Prop46
 90
       50
102
RTVSPost2010PropOp46
 70
     1
102
RTVSPost2010Prop47
 90
       50
102
RTVSPost2010PropOp47
 70
     1
102
RTVSPost2010Prop48
 90
       50
102
RTVSPost2010PropOp48
 70
     1
102
RTVSPost2010Prop49
280
     0
102
RTVSPost2010PropOp49
 70
     1
102
RTVSPost2010Prop50
 90
       50
102
RTVSPost2010PropOp50
 70
     1
102
RTVSPost2010Prop51ColorIndex
 90
      256
102
RTVSPost2010Prop51ColorRGB
 90
-16777216
102
RTVSPost2010PropOp51
 70
     0
102
RTVSPost2010Prop52
140
1.0
102
RTVSPost2010PropOp52
 70
     0
102
RTVSPost2010Prop53
 90
        2
102
RTVSPost2010PropOp53
 70
     1
102
RTVSPost2010Prop54
  1
strokes_ogs.tif
102
RTVSPost2010PropOp54
 70
     1
102
RTVSPost2010Prop55
280
     0
102
RTVSPost2010PropOp55
 70
     1
102
RTVSPost2010Prop56
140
1.0
102
RTVSPost2010PropOp56
 70
     1
102
RTVSPost2010Prop57
140
1.0
102
RTVSPost2010PropOp57
 70
     1
  0
XRECORD
  5
3AA
102
{ACAD_REACTORS
330
3A9
102
}
330
3A9
100
AcDbXrecord
280
     1
102
RTVSPropertyOp0
 70
     1
102
RTVSPropertyOp1
 70
     1
102
RTVSPropertyOp2
 70
     1
102
RTVSPropertyOp3
 70
     1
102
RTVSPropertyOp4
 70
     1
102
RTVSPropertyOp5
 70
     1
102
RTVSPropertyOp6
 70
     1
102
RTVSPropertyOp7
 70
     1
102
RTVSPropertyOp8
 70
     1
102
RTVSPropertyOp9
 70
     1
102
RTVSPropertyOp10
 70
     1
102
RTVSPropertyOp11
 70
     1
102
RTVSPropertyOp12
 70
     1
102
RTVSPropertyOp13
 70
     1
102
RTVSPropertyOp14
 70
     1
102
RTVSPropertyOp15
 70
     1
102
RTVSPropertyOp16
 70
     1
102
RTVSPropertyOp17
 70
     1
102
RTVSPropertyOp18
 70
     1
102
RTVSPropertyOp19
 70
     1
102
RTVSPropertyOp20
 70
     1
102
RTVSPropertyOp21
 70
     1
102
RTVSPropertyOp22
 70
     1
102
RTVSPropertyOp23
 70
     1
102
RTVSPropertyOp24
 70
     1
102
RTVSPropertyOp25
 70
     1
102
RTVSPropertyOp26
 70
     1
102
RTVSPropertyOp27
 70
     1
102
RTVSPropertyOp28
 70
     1
102
RTVSPropertyOp29
 70
     1
102
RTVSPropertyOp30
 70
     1
102
RTVSPropertyOp31
 70
     1
102
RTVSPropertyOp32
 70
     1
102
RTVSPropertyOp33
 70
     1
102
RTVSPropertyOp34
 70
     1
102
RTVSPropertyOp35
 70
     1
102
RTVSPropertyOp36
 70
     1
102
RTVSPropertyOp37
 70
     1
102
RTVSPropertyOp38
 70
     1
102
RTVSPropertyOp39
 70
     1
102
RTVSPropertyOp40
 70
     1
102
RTVSPropertyOp41
 70
     1
102
RTVSPropertyOp42
 70
     1
102
RTVSPropertyOp43
 70
     1
102
RTVSPropertyOp44
 70
     1
102
RTVSPropertyOp45
 70
     1
102
RTVSPropertyOp46
 70
     1
102
RTVSPropertyOp47
 70
     1
102
RTVSPropertyOp48
 70
     1
102
RTVSPropertyOp49
 70
     1
102
RTVSPropertyOp50
 70
     1
102
RTVSPropertyOp51
 70
     0
102
RTVSPropertyOp52
 70
     0
102
RTVSPropertyOp53
 70
     1
102
RTVSPropertyOp54
 70
     1
102
RTVSPropertyOp55
 70
     1
102
RTVSPropertyOp56
 70
     1
102
RTVSPropertyOp57
 70
     1
102
RTVSPost2010Prop28
280
     0
102
RTVSPost2010PropOp28
 70
     1
102
RTVSPost2010Prop29
280
     1
102
RTVSPost2010PropOp29
 70
     1
102
RTVSPost2010Prop30
280
     1
102
RTVSPost2010PropOp30
 70
     1
102
RTVSPost2010Prop31
280
     0
102
RTVSPost2010PropOp31
 70
     1
102
RTVSPost2010Prop32
280
     0
102
RTVSPost2010PropOp32
 70
     1
102
RTVSPost2010Prop33
280
     0
102
RTVSPost2010PropOp33
 70
     1
102
RTVSPost2010Prop34
280
     0
102
RTVSPost2010PropOp34
 70
     1
102
RTVSPost2010Prop35
280
     0
102
RTVSPost2010PropOp35
 70
     1
102
RTVSPost2010Prop36
280
     0
102
RTVSPost2010PropOp36
 70
     1
102
RTVSPost2010Prop37
 90
       50
102
RTVSPost2010PropOp37
 70
     1
102
RTVSPost2010Prop38
140
0.0
102
RTVSPost2010PropOp38
 70
     1
102
RTVSPost2010Prop39
140
1.0
102
RTVSPost2010PropOp39
 70
     1
102
RTVSPost2010Prop40
 90
        0
102
RTVSPost2010PropOp40
 70
     1
102
RTVSPost2010Prop41ColorIndex
 90
       18
102
RTVSPost2010Prop41ColorRGB
 90
        0
102
RTVSPost2010PropOp41
 70
     1
102
RTVSPost2010Prop42
 90
       50
102
RTVSPost2010PropOp42
 70
     1
102
RTVSPost2010Prop43
 90
        3
102
RTVSPost2010PropOp43
 70
     1
102
RTVSPost2010Prop44ColorIndex
 90
        5
102
RTVSPost2010Prop44ColorRGB
 90
      255
102
RTVSPost2010PropOp44
 70
     1
102
RTVSPost2010Prop45
280
     0
102
RTVSPost2010PropOp45
 70
     1
102
RTVSPost2010Prop46
 90
       50
102
RTVSPost2010PropOp46
 70
     1
102
RTVSPost2010Prop47
 90
       50
102
RTVSPost2010PropOp47
 70
     1
102
RTVSPost2010Prop48
 90
       50
102
RTVSPost2010PropOp48
 70
     1
102
RTVSPost2010Prop49
280
     0
102
RTVSPost2010PropOp49
 70
     1
102
RTVSPost2010Prop50
 90
       50
102
RTVSPost2010PropOp50
 70
     1
102
RTVSPost2010Prop51ColorIndex
 90
      256
102
RTVSPost2010Prop51ColorRGB
 90
-16777216
102
RTVSPost2010PropOp51
 70
     0
102
RTVSPost2010Prop52
140
1.0
102
RTVSPost2010PropOp52
 70
     0
102
RTVSPost2010Prop53
 90
        2
102
RTVSPost2010PropOp53
 70
     1
102
RTVSPost2010Prop54
  1
strokes_ogs.tif
102
RTVSPost2010PropOp54
 70
     1
102
RTVSPost2010Prop55
280
     0
102
RTVSPost2010PropOp55
 70
     1
102
RTVSPost2010Prop56
140
1.0
102
RTVSPost2010PropOp56
 70
     1
102
RTVSPost2010Prop57
140
1.0
102
RTVSPost2010PropOp57
 70
     1
  0
XRECORD
  5
3BA
102
{ACAD_REACTORS
330
3B9
102
}
330
3B9
100
AcDbXrecord
280
     1
102
RTVSPropertyOp0
 70
     0
102
RTVSPropertyOp1
 70
     0
102
RTVSPropertyOp2
 70
     0
102
RTVSPropertyOp3
 70
     0
102
RTVSPropertyOp4
 70
     0
102
RTVSPropertyOp5
 70
     0
102
RTVSPropertyOp6
 70
     0
102
RTVSPropertyOp7
 70
     0
102
RTVSPropertyOp8
 70
     0
102
RTVSPropertyOp9
 70
     0
102
RTVSPropertyOp10
 70
     0
102
RTVSPropertyOp11
 70
     0
102
RTVSPropertyOp12
 70
     0
102
RTVSPropertyOp13
 70
     0
102
RTVSPropertyOp14
 70
     2
102
RTVSPropertyOp15
 70
     0
102
RTVSPropertyOp16
 70
     0
102
RTVSPropertyOp17
 70
     0
102
RTVSPropertyOp18
 70
     0
102
RTVSPropertyOp19
 70
     0
102
RTVSPropertyOp20
 70
     0
102
RTVSPropertyOp21
 70
     0
102
RTVSPropertyOp22
 70
     0
102
RTVSPropertyOp23
 70
     0
102
RTVSPropertyOp24
 70
     0
102
RTVSPropertyOp25
 70
     0
102
RTVSPropertyOp26
 70
     0
102
RTVSPropertyOp27
 70
     0
102
RTVSPropertyOp28
 70
     0
102
RTVSPropertyOp29
 70
     0
102
RTVSPropertyOp30
 70
     0
102
RTVSPropertyOp31
 70
     0
102
RTVSPropertyOp32
 70
     0
102
RTVSPropertyOp33
 70
     0
102
RTVSPropertyOp34
 70
     0
102
RTVSPropertyOp35
 70
     0
102
RTVSPropertyOp36
 70
     0
102
RTVSPropertyOp37
 70
     0
102
RTVSPropertyOp38
 70
     0
102
RTVSPropertyOp39
 70
     0
102
RTVSPropertyOp40
 70
     0
102
RTVSPropertyOp41
 70
     0
102
RTVSPropertyOp42
 70
     0
102
RTVSPropertyOp43
 70
     0
102
RTVSPropertyOp44
 70
     0
102
RTVSPropertyOp45
 70
     0
102
RTVSPropertyOp46
 70
     0
102
RTVSPropertyOp47
 70
     0
102
RTVSPropertyOp48
 70
     0
102
RTVSPropertyOp49
 70
     0
102
RTVSPropertyOp50
 70
     0
102
RTVSPropertyOp51
 70
     0
102
RTVSPropertyOp52
 70
     0
102
RTVSPropertyOp53
 70
     0
102
RTVSPropertyOp54
 70
     0
102
RTVSPropertyOp55
 70
     0
102
RTVSPropertyOp56
 70
     0
102
RTVSPropertyOp57
 70
     0
102
RTVSPost2010Prop28
280
     0
102
RTVSPost2010PropOp28
 70
     0
102
RTVSPost2010Prop29
280
     1
102
RTVSPost2010PropOp29
 70
     0
102
RTVSPost2010Prop30
280
     1
102
RTVSPost2010PropOp30
 70
     0
102
RTVSPost2010Prop31
280
     0
102
RTVSPost2010PropOp31
 70
     0
102
RTVSPost2010Prop32
280
     0
102
RTVSPost2010PropOp32
 70
     0
102
RTVSPost2010Prop33
280
     0
102
RTVSPost2010PropOp33
 70
     0
102
RTVSPost2010Prop34
280
     0
102
RTVSPost2010PropOp34
 70
     0
102
RTVSPost2010Prop35
280
     0
102
RTVSPost2010PropOp35
 70
     0
102
RTVSPost2010Prop36
280
     0
102
RTVSPost2010PropOp36
 70
     0
102
RTVSPost2010Prop37
 90
       50
102
RTVSPost2010PropOp37
 70
     0
102
RTVSPost2010Prop38
140
0.0
102
RTVSPost2010PropOp38
 70
     0
102
RTVSPost2010Prop39
140
1.0
102
RTVSPost2010PropOp39
 70
     0
102
RTVSPost2010Prop40
 90
        0
102
RTVSPost2010PropOp40
 70
     0
102
RTVSPost2010Prop41ColorIndex
 90
       18
102
RTVSPost2010Prop41ColorRGB
 90
        0
102
RTVSPost2010PropOp41
 70
     0
102
RTVSPost2010Prop42
 90
       50
102
RTVSPost2010PropOp42
 70
     0
102
RTVSPost2010Prop43
 90
        3
102
RTVSPost2010PropOp43
 70
     0
102
RTVSPost2010Prop44ColorIndex
 90
        5
102
RTVSPost2010Prop44ColorRGB
 90
      255
102
RTVSPost2010PropOp44
 70
     0
102
RTVSPost2010Prop45
280
     0
102
RTVSPost2010PropOp45
 70
     0
102
RTVSPost2010Prop46
 90
       50
102
RTVSPost2010PropOp46
 70
     0
102
RTVSPost2010Prop47
 90
       50
102
RTVSPost2010PropOp47
 70
     0
102
RTVSPost2010Prop48
 90
       50
102
RTVSPost2010PropOp48
 70
     0
102
RTVSPost2010Prop49
280
     0
102
RTVSPost2010PropOp49
 70
     0
102
RTVSPost2010Prop50
 90
       50
102
RTVSPost2010PropOp50
 70
     0
102
RTVSPost2010Prop51ColorIndex
 90
      256
102
RTVSPost2010Prop51ColorRGB
 90
-16777216
102
RTVSPost2010PropOp51
 70
     0
102
RTVSPost2010Prop52
140
1.0
102
RTVSPost2010PropOp52
 70
     0
102
RTVSPost2010Prop53
 90
        2
102
RTVSPost2010PropOp53
 70
     0
102
RTVSPost2010Prop54
  1
strokes_ogs.tif
102
RTVSPost2010PropOp54
 70
     0
102
RTVSPost2010Prop55
280
     0
102
RTVSPost2010PropOp55
 70
     0
102
RTVSPost2010Prop56
140
1.0
102
RTVSPost2010PropOp56
 70
     0
102
RTVSPost2010Prop57
140
1.0
102
RTVSPost2010PropOp57
 70
     0
  0
XRECORD
  5
3B2
102
{ACAD_REACTORS
330
3B1
102
}
330
3B1
100
AcDbXrecord
280
     1
102
RTVSPropertyOp0
 70
     1
102
RTVSPropertyOp1
 70
     1
102
RTVSPropertyOp2
 70
     1
102
RTVSPropertyOp3
 70
     1
102
RTVSPropertyOp4
 70
     1
102
RTVSPropertyOp5
 70
     1
102
RTVSPropertyOp6
 70
     1
102
RTVSPropertyOp7
 70
     1
102
RTVSPropertyOp8
 70
     1
102
RTVSPropertyOp9
 70
     1
102
RTVSPropertyOp10
 70
     1
102
RTVSPropertyOp11
 70
     1
102
RTVSPropertyOp12
 70
     1
102
RTVSPropertyOp13
 70
     1
102
RTVSPropertyOp14
 70
     1
102
RTVSPropertyOp15
 70
     1
102
RTVSPropertyOp16
 70
     1
102
RTVSPropertyOp17
 70
     1
102
RTVSPropertyOp18
 70
     1
102
RTVSPropertyOp19
 70
     1
102
RTVSPropertyOp20
 70
     1
102
RTVSPropertyOp21
 70
     1
102
RTVSPropertyOp22
 70
     1
102
RTVSPropertyOp23
 70
     1
102
RTVSPropertyOp24
 70
     1
102
RTVSPropertyOp25
 70
     1
102
RTVSPropertyOp26
 70
     1
102
RTVSPropertyOp27
 70
     1
102
RTVSPropertyOp28
 70
     1
102
RTVSPropertyOp29
 70
     1
102
RTVSPropertyOp30
 70
     1
102
RTVSPropertyOp31
 70
     1
102
RTVSPropertyOp32
 70
     1
102
RTVSPropertyOp33
 70
     1
102
RTVSPropertyOp34
 70
     1
102
RTVSPropertyOp35
 70
     1
102
RTVSPropertyOp36
 70
     1
102
RTVSPropertyOp37
 70
     1
102
RTVSPropertyOp38
 70
     1
102
RTVSPropertyOp39
 70
     1
102
RTVSPropertyOp40
 70
     1
102
RTVSPropertyOp41
 70
     1
102
RTVSPropertyOp42
 70
     1
102
RTVSPropertyOp43
 70
     1
102
RTVSPropertyOp44
 70
     1
102
RTVSPropertyOp45
 70
     1
102
RTVSPropertyOp46
 70
     1
102
RTVSPropertyOp47
 70
     1
102
RTVSPropertyOp48
 70
     1
102
RTVSPropertyOp49
 70
     1
102
RTVSPropertyOp50
 70
     1
102
RTVSPropertyOp51
 70
     0
102
RTVSPropertyOp52
 70
     0
102
RTVSPropertyOp53
 70
     1
102
RTVSPropertyOp54
 70
     1
102
RTVSPropertyOp55
 70
     1
102
RTVSPropertyOp56
 70
     1
102
RTVSPropertyOp57
 70
     1
102
RTVSPost2010Prop28
280
     0
102
RTVSPost2010PropOp28
 70
     1
102
RTVSPost2010Prop29
280
     1
102
RTVSPost2010PropOp29
 70
     1
102
RTVSPost2010Prop30
280
     1
102
RTVSPost2010PropOp30
 70
     1
102
RTVSPost2010Prop31
280
     0
102
RTVSPost2010PropOp31
 70
     1
102
RTVSPost2010Prop32
280
     0
102
RTVSPost2010PropOp32
 70
     1
102
RTVSPost2010Prop33
280
     0
102
RTVSPost2010PropOp33
 70
     1
102
RTVSPost2010Prop34
280
     0
102
RTVSPost2010PropOp34
 70
     1
102
RTVSPost2010Prop35
280
     0
102
RTVSPost2010PropOp35
 70
     1
102
RTVSPost2010Prop36
280
     0
102
RTVSPost2010PropOp36
 70
     1
102
RTVSPost2010Prop37
 90
       50
102
RTVSPost2010PropOp37
 70
     1
102
RTVSPost2010Prop38
140
0.0
102
RTVSPost2010PropOp38
 70
     1
102
RTVSPost2010Prop39
140
1.0
102
RTVSPost2010PropOp39
 70
     1
102
RTVSPost2010Prop40
 90
        0
102
RTVSPost2010PropOp40
 70
     1
102
RTVSPost2010Prop41ColorIndex
 90
       18
102
RTVSPost2010Prop41ColorRGB
 90
        0
102
RTVSPost2010PropOp41
 70
     1
102
RTVSPost2010Prop42
 90
       50
102
RTVSPost2010PropOp42
 70
     1
102
RTVSPost2010Prop43
 90
        3
102
RTVSPost2010PropOp43
 70
     1
102
RTVSPost2010Prop44ColorIndex
 90
        5
102
RTVSPost2010Prop44ColorRGB
 90
      255
102
RTVSPost2010PropOp44
 70
     1
102
RTVSPost2010Prop45
280
     0
102
RTVSPost2010PropOp45
 70
     1
102
RTVSPost2010Prop46
 90
       50
102
RTVSPost2010PropOp46
 70
     1
102
RTVSPost2010Prop47
 90
       50
102
RTVSPost2010PropOp47
 70
     1
102
RTVSPost2010Prop48
 90
       50
102
RTVSPost2010PropOp48
 70
     1
102
RTVSPost2010Prop49
280
     0
102
RTVSPost2010PropOp49
 70
     1
102
RTVSPost2010Prop50
 90
       50
102
RTVSPost2010PropOp50
 70
     1
102
RTVSPost2010Prop51ColorIndex
 90
      256
102
RTVSPost2010Prop51ColorRGB
 90
-16777216
102
RTVSPost2010PropOp51
 70
     0
102
RTVSPost2010Prop52
140
1.0
102
RTVSPost2010PropOp52
 70
     0
102
RTVSPost2010Prop53
 90
        2
102
RTVSPost2010PropOp53
 70
     1
102
RTVSPost2010Prop54
  1
strokes_ogs.tif
102
RTVSPost2010PropOp54
 70
     1
102
RTVSPost2010Prop55
280
     0
102
RTVSPost2010PropOp55
 70
     1
102
RTVSPost2010Prop56
140
1.0
102
RTVSPost2010PropOp56
 70
     1
102
RTVSPost2010Prop57
140
1.0
102
RTVSPost2010PropOp57
 70
     1
  0
XRECORD
  5
396
102
{ACAD_REACTORS
330
395
102
}
330
395
100
AcDbXrecord
280
     1
102
RTVSPropertyOp0
 70
     1
102
RTVSPropertyOp1
 70
     1
102
RTVSPropertyOp2
 70
     1
102
RTVSPropertyOp3
 70
     1
102
RTVSPropertyOp4
 70
     1
102
RTVSPropertyOp5
 70
     1
102
RTVSPropertyOp6
 70
     1
102
RTVSPropertyOp7
 70
     1
102
RTVSPropertyOp8
 70
     1
102
RTVSPropertyOp9
 70
     1
102
RTVSPropertyOp10
 70
     1
102
RTVSPropertyOp11
 70
     1
102
RTVSPropertyOp12
 70
     1
102
RTVSPropertyOp13
 70
     1
102
RTVSPropertyOp14
 70
     1
102
RTVSPropertyOp15
 70
     1
102
RTVSPropertyOp16
 70
     1
102
RTVSPropertyOp17
 70
     1
102
RTVSPropertyOp18
 70
     1
102
RTVSPropertyOp19
 70
     1
102
RTVSPropertyOp20
 70
     1
102
RTVSPropertyOp21
 70
     1
102
RTVSPropertyOp22
 70
     1
102
RTVSPropertyOp23
 70
     1
102
RTVSPropertyOp24
 70
     1
102
RTVSPropertyOp25
 70
     1
102
RTVSPropertyOp26
 70
     1
102
RTVSPropertyOp27
 70
     1
102
RTVSPropertyOp28
 70
     1
102
RTVSPropertyOp29
 70
     1
102
RTVSPropertyOp30
 70
     1
102
RTVSPropertyOp31
 70
     1
102
RTVSPropertyOp32
 70
     1
102
RTVSPropertyOp33
 70
     1
102
RTVSPropertyOp34
 70
     1
102
RTVSPropertyOp35
 70
     1
102
RTVSPropertyOp36
 70
     1
102
RTVSPropertyOp37
 70
     1
102
RTVSPropertyOp38
 70
     1
102
RTVSPropertyOp39
 70
     1
102
RTVSPropertyOp40
 70
     1
102
RTVSPropertyOp41
 70
     1
102
RTVSPropertyOp42
 70
     1
102
RTVSPropertyOp43
 70
     1
102
RTVSPropertyOp44
 70
     1
102
RTVSPropertyOp45
 70
     1
102
RTVSPropertyOp46
 70
     1
102
RTVSPropertyOp47
 70
     1
102
RTVSPropertyOp48
 70
     1
102
RTVSPropertyOp49
 70
     1
102
RTVSPropertyOp50
 70
     1
102
RTVSPropertyOp51
 70
     0
102
RTVSPropertyOp52
 70
     0
102
RTVSPropertyOp53
 70
     1
102
RTVSPropertyOp54
 70
     1
102
RTVSPropertyOp55
 70
     1
102
RTVSPropertyOp56
 70
     1
102
RTVSPropertyOp57
 70
     1
102
RTVSPost2010Prop28
280
     0
102
RTVSPost2010PropOp28
 70
     1
102
RTVSPost2010Prop29
280
     1
102
RTVSPost2010PropOp29
 70
     1
102
RTVSPost2010Prop30
280
     1
102
RTVSPost2010PropOp30
 70
     1
102
RTVSPost2010Prop31
280
     0
102
RTVSPost2010PropOp31
 70
     1
102
RTVSPost2010Prop32
280
     0
102
RTVSPost2010PropOp32
 70
     1
102
RTVSPost2010Prop33
280
     0
102
RTVSPost2010PropOp33
 70
     1
102
RTVSPost2010Prop34
280
     0
102
RTVSPost2010PropOp34
 70
     1
102
RTVSPost2010Prop35
280
     0
102
RTVSPost2010PropOp35
 70
     1
102
RTVSPost2010Prop36
280
     0
102
RTVSPost2010PropOp36
 70
     1
102
RTVSPost2010Prop37
 90
       50
102
RTVSPost2010PropOp37
 70
     1
102
RTVSPost2010Prop38
140
0.0
102
RTVSPost2010PropOp38
 70
     1
102
RTVSPost2010Prop39
140
1.0
102
RTVSPost2010PropOp39
 70
     1
102
RTVSPost2010Prop40
 90
        0
102
RTVSPost2010PropOp40
 70
     1
102
RTVSPost2010Prop41ColorIndex
 90
       18
102
RTVSPost2010Prop41ColorRGB
 90
        0
102
RTVSPost2010PropOp41
 70
     1
102
RTVSPost2010Prop42
 90
       50
102
RTVSPost2010PropOp42
 70
     1
102
RTVSPost2010Prop43
 90
        3
102
RTVSPost2010PropOp43
 70
     1
102
RTVSPost2010Prop44ColorIndex
 90
        5
102
RTVSPost2010Prop44ColorRGB
 90
      255
102
RTVSPost2010PropOp44
 70
     1
102
RTVSPost2010Prop45
280
     0
102
RTVSPost2010PropOp45
 70
     1
102
RTVSPost2010Prop46
 90
       50
102
RTVSPost2010PropOp46
 70
     1
102
RTVSPost2010Prop47
 90
       50
102
RTVSPost2010PropOp47
 70
     1
102
RTVSPost2010Prop48
 90
       50
102
RTVSPost2010PropOp48
 70
     1
102
RTVSPost2010Prop49
280
     0
102
RTVSPost2010PropOp49
 70
     1
102
RTVSPost2010Prop50
 90
       50
102
RTVSPost2010PropOp50
 70
     1
102
RTVSPost2010Prop51ColorIndex
 90
      256
102
RTVSPost2010Prop51ColorRGB
 90
-16777216
102
RTVSPost2010PropOp51
 70
     0
102
RTVSPost2010Prop52
140
1.0
102
RTVSPost2010PropOp52
 70
     0
102
RTVSPost2010Prop53
 90
        2
102
RTVSPost2010PropOp53
 70
     1
102
RTVSPost2010Prop54
  1
strokes_ogs.tif
102
RTVSPost2010PropOp54
 70
     1
102
RTVSPost2010Prop55
280
     0
102
RTVSPost2010PropOp55
 70
     1
102
RTVSPost2010Prop56
140
1.0
102
RTVSPost2010PropOp56
 70
     1
102
RTVSPost2010Prop57
140
1.0
102
RTVSPost2010PropOp57
 70
     1
  0
XRECORD
  5
398
102
{ACAD_REACTORS
330
397
102
}
330
397
100
AcDbXrecord
280
     1
102
RTVSPropertyOp0
 70
     1
102
RTVSPropertyOp1
 70
     1
102
RTVSPropertyOp2
 70
     1
102
RTVSPropertyOp3
 70
     1
102
RTVSPropertyOp4
 70
     1
102
RTVSPropertyOp5
 70
     1
102
RTVSPropertyOp6
 70
     1
102
RTVSPropertyOp7
 70
     1
102
RTVSPropertyOp8
 70
     1
102
RTVSPropertyOp9
 70
     1
102
RTVSPropertyOp10
 70
     1
102
RTVSPropertyOp11
 70
     1
102
RTVSPropertyOp12
 70
     1
102
RTVSPropertyOp13
 70
     1
102
RTVSPropertyOp14
 70
     1
102
RTVSPropertyOp15
 70
     1
102
RTVSPropertyOp16
 70
     1
102
RTVSPropertyOp17
 70
     1
102
RTVSPropertyOp18
 70
     1
102
RTVSPropertyOp19
 70
     1
102
RTVSPropertyOp20
 70
     1
102
RTVSPropertyOp21
 70
     1
102
RTVSPropertyOp22
 70
     1
102
RTVSPropertyOp23
 70
     1
102
RTVSPropertyOp24
 70
     1
102
RTVSPropertyOp25
 70
     1
102
RTVSPropertyOp26
 70
     1
102
RTVSPropertyOp27
 70
     1
102
RTVSPropertyOp28
 70
     1
102
RTVSPropertyOp29
 70
     1
102
RTVSPropertyOp30
 70
     1
102
RTVSPropertyOp31
 70
     1
102
RTVSPropertyOp32
 70
     1
102
RTVSPropertyOp33
 70
     1
102
RTVSPropertyOp34
 70
     1
102
RTVSPropertyOp35
 70
     1
102
RTVSPropertyOp36
 70
     1
102
RTVSPropertyOp37
 70
     1
102
RTVSPropertyOp38
 70
     1
102
RTVSPropertyOp39
 70
     1
102
RTVSPropertyOp40
 70
     1
102
RTVSPropertyOp41
 70
     1
102
RTVSPropertyOp42
 70
     1
102
RTVSPropertyOp43
 70
     1
102
RTVSPropertyOp44
 70
     1
102
RTVSPropertyOp45
 70
     1
102
RTVSPropertyOp46
 70
     1
102
RTVSPropertyOp47
 70
     1
102
RTVSPropertyOp48
 70
     1
102
RTVSPropertyOp49
 70
     1
102
RTVSPropertyOp50
 70
     1
102
RTVSPropertyOp51
 70
     0
102
RTVSPropertyOp52
 70
     0
102
RTVSPropertyOp53
 70
     1
102
RTVSPropertyOp54
 70
     1
102
RTVSPropertyOp55
 70
     1
102
RTVSPropertyOp56
 70
     1
102
RTVSPropertyOp57
 70
     1
102
RTVSPost2010Prop28
280
     0
102
RTVSPost2010PropOp28
 70
     1
102
RTVSPost2010Prop29
280
     1
102
RTVSPost2010PropOp29
 70
     1
102
RTVSPost2010Prop30
280
     1
102
RTVSPost2010PropOp30
 70
     1
102
RTVSPost2010Prop31
280
     0
102
RTVSPost2010PropOp31
 70
     1
102
RTVSPost2010Prop32
280
     0
102
RTVSPost2010PropOp32
 70
     1
102
RTVSPost2010Prop33
280
     0
102
RTVSPost2010PropOp33
 70
     1
102
RTVSPost2010Prop34
280
     0
102
RTVSPost2010PropOp34
 70
     1
102
RTVSPost2010Prop35
280
     0
102
RTVSPost2010PropOp35
 70
     1
102
RTVSPost2010Prop36
280
     0
102
RTVSPost2010PropOp36
 70
     1
102
RTVSPost2010Prop37
 90
       50
102
RTVSPost2010PropOp37
 70
     1
102
RTVSPost2010Prop38
140
0.0
102
RTVSPost2010PropOp38
 70
     1
102
RTVSPost2010Prop39
140
1.0
102
RTVSPost2010PropOp39
 70
     1
102
RTVSPost2010Prop40
 90
        0
102
RTVSPost2010PropOp40
 70
     1
102
RTVSPost2010Prop41ColorIndex
 90
       18
102
RTVSPost2010Prop41ColorRGB
 90
        0
102
RTVSPost2010PropOp41
 70
     1
102
RTVSPost2010Prop42
 90
       50
102
RTVSPost2010PropOp42
 70
     1
102
RTVSPost2010Prop43
 90
        3
102
RTVSPost2010PropOp43
 70
     1
102
RTVSPost2010Prop44ColorIndex
 90
        5
102
RTVSPost2010Prop44ColorRGB
 90
      255
102
RTVSPost2010PropOp44
 70
     1
102
RTVSPost2010Prop45
280
     0
102
RTVSPost2010PropOp45
 70
     1
102
RTVSPost2010Prop46
 90
       50
102
RTVSPost2010PropOp46
 70
     1
102
RTVSPost2010Prop47
 90
       50
102
RTVSPost2010PropOp47
 70
     1
102
RTVSPost2010Prop48
 90
       50
102
RTVSPost2010PropOp48
 70
     1
102
RTVSPost2010Prop49
280
     0
102
RTVSPost2010PropOp49
 70
     1
102
RTVSPost2010Prop50
 90
       50
102
RTVSPost2010PropOp50
 70
     1
102
RTVSPost2010Prop51ColorIndex
 90
      256
102
RTVSPost2010Prop51ColorRGB
 90
-16777216
102
RTVSPost2010PropOp51
 70
     0
102
RTVSPost2010Prop52
140
1.0
102
RTVSPost2010PropOp52
 70
     0
102
RTVSPost2010Prop53
 90
        2
102
RTVSPost2010PropOp53
 70
     1
102
RTVSPost2010Prop54
  1
strokes_ogs.tif
102
RTVSPost2010PropOp54
 70
     1
102
RTVSPost2010Prop55
280
     0
102
RTVSPost2010PropOp55
 70
     1
102
RTVSPost2010Prop56
140
1.0
102
RTVSPost2010PropOp56
 70
     1
102
RTVSPost2010Prop57
140
1.0
102
RTVSPost2010PropOp57
 70
     1
  0
XRECORD
  5
39A
102
{ACAD_REACTORS
330
399
102
}
330
399
100
AcDbXrecord
280
     1
102
RTVSPropertyOp0
 70
     1
102
RTVSPropertyOp1
 70
     1
102
RTVSPropertyOp2
 70
     1
102
RTVSPropertyOp3
 70
     1
102
RTVSPropertyOp4
 70
     1
102
RTVSPropertyOp5
 70
     1
102
RTVSPropertyOp6
 70
     1
102
RTVSPropertyOp7
 70
     1
102
RTVSPropertyOp8
 70
     1
102
RTVSPropertyOp9
 70
     1
102
RTVSPropertyOp10
 70
     1
102
RTVSPropertyOp11
 70
     1
102
RTVSPropertyOp12
 70
     1
102
RTVSPropertyOp13
 70
     1
102
RTVSPropertyOp14
 70
     1
102
RTVSPropertyOp15
 70
     1
102
RTVSPropertyOp16
 70
     1
102
RTVSPropertyOp17
 70
     1
102
RTVSPropertyOp18
 70
     1
102
RTVSPropertyOp19
 70
     1
102
RTVSPropertyOp20
 70
     1
102
RTVSPropertyOp21
 70
     1
102
RTVSPropertyOp22
 70
     1
102
RTVSPropertyOp23
 70
     1
102
RTVSPropertyOp24
 70
     1
102
RTVSPropertyOp25
 70
     1
102
RTVSPropertyOp26
 70
     1
102
RTVSPropertyOp27
 70
     1
102
RTVSPropertyOp28
 70
     1
102
RTVSPropertyOp29
 70
     1
102
RTVSPropertyOp30
 70
     1
102
RTVSPropertyOp31
 70
     1
102
RTVSPropertyOp32
 70
     1
102
RTVSPropertyOp33
 70
     1
102
RTVSPropertyOp34
 70
     1
102
RTVSPropertyOp35
 70
     1
102
RTVSPropertyOp36
 70
     1
102
RTVSPropertyOp37
 70
     1
102
RTVSPropertyOp38
 70
     1
102
RTVSPropertyOp39
 70
     1
102
RTVSPropertyOp40
 70
     1
102
RTVSPropertyOp41
 70
     1
102
RTVSPropertyOp42
 70
     1
102
RTVSPropertyOp43
 70
     1
102
RTVSPropertyOp44
 70
     1
102
RTVSPropertyOp45
 70
     1
102
RTVSPropertyOp46
 70
     1
102
RTVSPropertyOp47
 70
     1
102
RTVSPropertyOp48
 70
     1
102
RTVSPropertyOp49
 70
     1
102
RTVSPropertyOp50
 70
     1
102
RTVSPropertyOp51
 70
     0
102
RTVSPropertyOp52
 70
     0
102
RTVSPropertyOp53
 70
     1
102
RTVSPropertyOp54
 70
     1
102
RTVSPropertyOp55
 70
     1
102
RTVSPropertyOp56
 70
     1
102
RTVSPropertyOp57
 70
     1
102
RTVSPost2010Prop28
280
     0
102
RTVSPost2010PropOp28
 70
     1
102
RTVSPost2010Prop29
280
     1
102
RTVSPost2010PropOp29
 70
     1
102
RTVSPost2010Prop30
280
     1
102
RTVSPost2010PropOp30
 70
     1
102
RTVSPost2010Prop31
280
     0
102
RTVSPost2010PropOp31
 70
     1
102
RTVSPost2010Prop32
280
     0
102
RTVSPost2010PropOp32
 70
     1
102
RTVSPost2010Prop33
280
     0
102
RTVSPost2010PropOp33
 70
     1
102
RTVSPost2010Prop34
280
     0
102
RTVSPost2010PropOp34
 70
     1
102
RTVSPost2010Prop35
280
     0
102
RTVSPost2010PropOp35
 70
     1
102
RTVSPost2010Prop36
280
     0
102
RTVSPost2010PropOp36
 70
     1
102
RTVSPost2010Prop37
 90
       50
102
RTVSPost2010PropOp37
 70
     1
102
RTVSPost2010Prop38
140
0.0
102
RTVSPost2010PropOp38
 70
     1
102
RTVSPost2010Prop39
140
1.0
102
RTVSPost2010PropOp39
 70
     1
102
RTVSPost2010Prop40
 90
        0
102
RTVSPost2010PropOp40
 70
     1
102
RTVSPost2010Prop41ColorIndex
 90
       18
102
RTVSPost2010Prop41ColorRGB
 90
        0
102
RTVSPost2010PropOp41
 70
     1
102
RTVSPost2010Prop42
 90
       50
102
RTVSPost2010PropOp42
 70
     1
102
RTVSPost2010Prop43
 90
        3
102
RTVSPost2010PropOp43
 70
     1
102
RTVSPost2010Prop44ColorIndex
 90
        5
102
RTVSPost2010Prop44ColorRGB
 90
      255
102
RTVSPost2010PropOp44
 70
     1
102
RTVSPost2010Prop45
280
     0
102
RTVSPost2010PropOp45
 70
     1
102
RTVSPost2010Prop46
 90
       50
102
RTVSPost2010PropOp46
 70
     1
102
RTVSPost2010Prop47
 90
       50
102
RTVSPost2010PropOp47
 70
     1
102
RTVSPost2010Prop48
 90
       50
102
RTVSPost2010PropOp48
 70
     1
102
RTVSPost2010Prop49
280
     0
102
RTVSPost2010PropOp49
 70
     1
102
RTVSPost2010Prop50
 90
       50
102
RTVSPost2010PropOp50
 70
     1
102
RTVSPost2010Prop51ColorIndex
 90
      256
102
RTVSPost2010Prop51ColorRGB
 90
-16777216
102
RTVSPost2010PropOp51
 70
     0
102
RTVSPost2010Prop52
140
1.0
102
RTVSPost2010PropOp52
 70
     0
102
RTVSPost2010Prop53
 90
        2
102
RTVSPost2010PropOp53
 70
     1
102
RTVSPost2010Prop54
  1
strokes_ogs.tif
102
RTVSPost2010PropOp54
 70
     1
102
RTVSPost2010Prop55
280
     0
102
RTVSPost2010PropOp55
 70
     1
102
RTVSPost2010Prop56
140
1.0
102
RTVSPost2010PropOp56
 70
     1
102
RTVSPost2010Prop57
140
1.0
102
RTVSPost2010PropOp57
 70
     1
  0
XRECORD
  5
39C
102
{ACAD_REACTORS
330
39B
102
}
330
39B
100
AcDbXrecord
280
     1
102
RTVSPropertyOp0
 70
     1
102
RTVSPropertyOp1
 70
     1
102
RTVSPropertyOp2
 70
     1
102
RTVSPropertyOp3
 70
     1
102
RTVSPropertyOp4
 70
     1
102
RTVSPropertyOp5
 70
     1
102
RTVSPropertyOp6
 70
     1
102
RTVSPropertyOp7
 70
     1
102
RTVSPropertyOp8
 70
     1
102
RTVSPropertyOp9
 70
     1
102
RTVSPropertyOp10
 70
     1
102
RTVSPropertyOp11
 70
     1
102
RTVSPropertyOp12
 70
     1
102
RTVSPropertyOp13
 70
     1
102
RTVSPropertyOp14
 70
     1
102
RTVSPropertyOp15
 70
     1
102
RTVSPropertyOp16
 70
     1
102
RTVSPropertyOp17
 70
     1
102
RTVSPropertyOp18
 70
     1
102
RTVSPropertyOp19
 70
     1
102
RTVSPropertyOp20
 70
     1
102
RTVSPropertyOp21
 70
     1
102
RTVSPropertyOp22
 70
     1
102
RTVSPropertyOp23
 70
     1
102
RTVSPropertyOp24
 70
     1
102
RTVSPropertyOp25
 70
     1
102
RTVSPropertyOp26
 70
     1
102
RTVSPropertyOp27
 70
     1
102
RTVSPropertyOp28
 70
     1
102
RTVSPropertyOp29
 70
     1
102
RTVSPropertyOp30
 70
     1
102
RTVSPropertyOp31
 70
     1
102
RTVSPropertyOp32
 70
     1
102
RTVSPropertyOp33
 70
     1
102
RTVSPropertyOp34
 70
     1
102
RTVSPropertyOp35
 70
     1
102
RTVSPropertyOp36
 70
     1
102
RTVSPropertyOp37
 70
     1
102
RTVSPropertyOp38
 70
     1
102
RTVSPropertyOp39
 70
     1
102
RTVSPropertyOp40
 70
     1
102
RTVSPropertyOp41
 70
     1
102
RTVSPropertyOp42
 70
     1
102
RTVSPropertyOp43
 70
     1
102
RTVSPropertyOp44
 70
     1
102
RTVSPropertyOp45
 70
     1
102
RTVSPropertyOp46
 70
     1
102
RTVSPropertyOp47
 70
     1
102
RTVSPropertyOp48
 70
     1
102
RTVSPropertyOp49
 70
     1
102
RTVSPropertyOp50
 70
     1
102
RTVSPropertyOp51
 70
     0
102
RTVSPropertyOp52
 70
     0
102
RTVSPropertyOp53
 70
     1
102
RTVSPropertyOp54
 70
     1
102
RTVSPropertyOp55
 70
     1
102
RTVSPropertyOp56
 70
     1
102
RTVSPropertyOp57
 70
     1
102
RTVSPost2010Prop28
280
     0
102
RTVSPost2010PropOp28
 70
     1
102
RTVSPost2010Prop29
280
     1
102
RTVSPost2010PropOp29
 70
     1
102
RTVSPost2010Prop30
280
     1
102
RTVSPost2010PropOp30
 70
     1
102
RTVSPost2010Prop31
280
     0
102
RTVSPost2010PropOp31
 70
     1
102
RTVSPost2010Prop32
280
     0
102
RTVSPost2010PropOp32
 70
     1
102
RTVSPost2010Prop33
280
     0
102
RTVSPost2010PropOp33
 70
     1
102
RTVSPost2010Prop34
280
     0
102
RTVSPost2010PropOp34
 70
     1
102
RTVSPost2010Prop35
280
     0
102
RTVSPost2010PropOp35
 70
     1
102
RTVSPost2010Prop36
280
     0
102
RTVSPost2010PropOp36
 70
     1
102
RTVSPost2010Prop37
 90
       50
102
RTVSPost2010PropOp37
 70
     1
102
RTVSPost2010Prop38
140
0.0
102
RTVSPost2010PropOp38
 70
     1
102
RTVSPost2010Prop39
140
1.0
102
RTVSPost2010PropOp39
 70
     1
102
RTVSPost2010Prop40
 90
        0
102
RTVSPost2010PropOp40
 70
     1
102
RTVSPost2010Prop41ColorIndex
 90
       18
102
RTVSPost2010Prop41ColorRGB
 90
        0
102
RTVSPost2010PropOp41
 70
     1
102
RTVSPost2010Prop42
 90
       50
102
RTVSPost2010PropOp42
 70
     1
102
RTVSPost2010Prop43
 90
        3
102
RTVSPost2010PropOp43
 70
     1
102
RTVSPost2010Prop44ColorIndex
 90
        5
102
RTVSPost2010Prop44ColorRGB
 90
      255
102
RTVSPost2010PropOp44
 70
     1
102
RTVSPost2010Prop45
280
     0
102
RTVSPost2010PropOp45
 70
     1
102
RTVSPost2010Prop46
 90
       50
102
RTVSPost2010PropOp46
 70
     1
102
RTVSPost2010Prop47
 90
       50
102
RTVSPost2010PropOp47
 70
     1
102
RTVSPost2010Prop48
 90
       50
102
RTVSPost2010PropOp48
 70
     1
102
RTVSPost2010Prop49
280
     0
102
RTVSPost2010PropOp49
 70
     1
102
RTVSPost2010Prop50
 90
       50
102
RTVSPost2010PropOp50
 70
     1
102
RTVSPost2010Prop51ColorIndex
 90
      256
102
RTVSPost2010Prop51ColorRGB
 90
-16777216
102
RTVSPost2010PropOp51
 70
     0
102
RTVSPost2010Prop52
140
1.0
102
RTVSPost2010PropOp52
 70
     0
102
RTVSPost2010Prop53
 90
        2
102
RTVSPost2010PropOp53
 70
     1
102
RTVSPost2010Prop54
  1
strokes_ogs.tif
102
RTVSPost2010PropOp54
 70
     1
102
RTVSPost2010Prop55
280
     0
102
RTVSPost2010PropOp55
 70
     1
102
RTVSPost2010Prop56
140
1.0
102
RTVSPost2010PropOp56
 70
     1
102
RTVSPost2010Prop57
140
1.0
102
RTVSPost2010PropOp57
 70
     1
  0
XRECORD
  5
3A2
102
{ACAD_REACTORS
330
3A1
102
}
330
3A1
100
AcDbXrecord
280
     1
102
RTVSPropertyOp0
 70
     1
102
RTVSPropertyOp1
 70
     1
102
RTVSPropertyOp2
 70
     1
102
RTVSPropertyOp3
 70
     1
102
RTVSPropertyOp4
 70
     1
102
RTVSPropertyOp5
 70
     1
102
RTVSPropertyOp6
 70
     1
102
RTVSPropertyOp7
 70
     1
102
RTVSPropertyOp8
 70
     1
102
RTVSPropertyOp9
 70
     1
102
RTVSPropertyOp10
 70
     1
102
RTVSPropertyOp11
 70
     1
102
RTVSPropertyOp12
 70
     1
102
RTVSPropertyOp13
 70
     1
102
RTVSPropertyOp14
 70
     1
102
RTVSPropertyOp15
 70
     1
102
RTVSPropertyOp16
 70
     1
102
RTVSPropertyOp17
 70
     1
102
RTVSPropertyOp18
 70
     1
102
RTVSPropertyOp19
 70
     1
102
RTVSPropertyOp20
 70
     1
102
RTVSPropertyOp21
 70
     1
102
RTVSPropertyOp22
 70
     1
102
RTVSPropertyOp23
 70
     1
102
RTVSPropertyOp24
 70
     1
102
RTVSPropertyOp25
 70
     1
102
RTVSPropertyOp26
 70
     1
102
RTVSPropertyOp27
 70
     1
102
RTVSPropertyOp28
 70
     1
102
RTVSPropertyOp29
 70
     1
102
RTVSPropertyOp30
 70
     1
102
RTVSPropertyOp31
 70
     1
102
RTVSPropertyOp32
 70
     1
102
RTVSPropertyOp33
 70
     1
102
RTVSPropertyOp34
 70
     1
102
RTVSPropertyOp35
 70
     1
102
RTVSPropertyOp36
 70
     1
102
RTVSPropertyOp37
 70
     1
102
RTVSPropertyOp38
 70
     1
102
RTVSPropertyOp39
 70
     1
102
RTVSPropertyOp40
 70
     1
102
RTVSPropertyOp41
 70
     1
102
RTVSPropertyOp42
 70
     1
102
RTVSPropertyOp43
 70
     1
102
RTVSPropertyOp44
 70
     1
102
RTVSPropertyOp45
 70
     1
102
RTVSPropertyOp46
 70
     1
102
RTVSPropertyOp47
 70
     1
102
RTVSPropertyOp48
 70
     1
102
RTVSPropertyOp49
 70
     1
102
RTVSPropertyOp50
 70
     1
102
RTVSPropertyOp51
 70
     0
102
RTVSPropertyOp52
 70
     0
102
RTVSPropertyOp53
 70
     1
102
RTVSPropertyOp54
 70
     1
102
RTVSPropertyOp55
 70
     1
102
RTVSPropertyOp56
 70
     1
102
RTVSPropertyOp57
 70
     1
102
RTVSPost2010Prop28
280
     0
102
RTVSPost2010PropOp28
 70
     1
102
RTVSPost2010Prop29
280
     1
102
RTVSPost2010PropOp29
 70
     1
102
RTVSPost2010Prop30
280
     1
102
RTVSPost2010PropOp30
 70
     1
102
RTVSPost2010Prop31
280
     0
102
RTVSPost2010PropOp31
 70
     1
102
RTVSPost2010Prop32
280
     0
102
RTVSPost2010PropOp32
 70
     1
102
RTVSPost2010Prop33
280
     0
102
RTVSPost2010PropOp33
 70
     1
102
RTVSPost2010Prop34
280
     0
102
RTVSPost2010PropOp34
 70
     1
102
RTVSPost2010Prop35
280
     0
102
RTVSPost2010PropOp35
 70
     1
102
RTVSPost2010Prop36
280
     0
102
RTVSPost2010PropOp36
 70
     1
102
RTVSPost2010Prop37
 90
       50
102
RTVSPost2010PropOp37
 70
     1
102
RTVSPost2010Prop38
140
0.0
102
RTVSPost2010PropOp38
 70
     1
102
RTVSPost2010Prop39
140
1.0
102
RTVSPost2010PropOp39
 70
     1
102
RTVSPost2010Prop40
 90
        0
102
RTVSPost2010PropOp40
 70
     1
102
RTVSPost2010Prop41ColorIndex
 90
       18
102
RTVSPost2010Prop41ColorRGB
 90
        0
102
RTVSPost2010PropOp41
 70
     1
102
RTVSPost2010Prop42
 90
       50
102
RTVSPost2010PropOp42
 70
     1
102
RTVSPost2010Prop43
 90
        3
102
RTVSPost2010PropOp43
 70
     1
102
RTVSPost2010Prop44ColorIndex
 90
        5
102
RTVSPost2010Prop44ColorRGB
 90
      255
102
RTVSPost2010PropOp44
 70
     1
102
RTVSPost2010Prop45
280
     0
102
RTVSPost2010PropOp45
 70
     1
102
RTVSPost2010Prop46
 90
       50
102
RTVSPost2010PropOp46
 70
     1
102
RTVSPost2010Prop47
 90
       50
102
RTVSPost2010PropOp47
 70
     1
102
RTVSPost2010Prop48
 90
       50
102
RTVSPost2010PropOp48
 70
     1
102
RTVSPost2010Prop49
280
     0
102
RTVSPost2010PropOp49
 70
     1
102
RTVSPost2010Prop50
 90
       50
102
RTVSPost2010PropOp50
 70
     1
102
RTVSPost2010Prop51ColorIndex
 90
      256
102
RTVSPost2010Prop51ColorRGB
 90
-16777216
102
RTVSPost2010PropOp51
 70
     0
102
RTVSPost2010Prop52
140
1.0
102
RTVSPost2010PropOp52
 70
     0
102
RTVSPost2010Prop53
 90
        2
102
RTVSPost2010PropOp53
 70
     1
102
RTVSPost2010Prop54
  1
strokes_ogs.tif
102
RTVSPost2010PropOp54
 70
     1
102
RTVSPost2010Prop55
280
     0
102
RTVSPost2010PropOp55
 70
     1
102
RTVSPost2010Prop56
140
1.0
102
RTVSPost2010PropOp56
 70
     1
102
RTVSPost2010Prop57
140
1.0
102
RTVSPost2010PropOp57
 70
     1
  0
XRECORD
  5
3B6
102
{ACAD_REACTORS
330
3B5
102
}
330
3B5
100
AcDbXrecord
280
     1
102
RTVSPropertyOp0
 70
     0
102
RTVSPropertyOp1
 70
     0
102
RTVSPropertyOp2
 70
     0
102
RTVSPropertyOp3
 70
     0
102
RTVSPropertyOp4
 70
     0
102
RTVSPropertyOp5
 70
     0
102
RTVSPropertyOp6
 70
     0
102
RTVSPropertyOp7
 70
     0
102
RTVSPropertyOp8
 70
     0
102
RTVSPropertyOp9
 70
     0
102
RTVSPropertyOp10
 70
     0
102
RTVSPropertyOp11
 70
     0
102
RTVSPropertyOp12
 70
     0
102
RTVSPropertyOp13
 70
     0
102
RTVSPropertyOp14
 70
     2
102
RTVSPropertyOp15
 70
     0
102
RTVSPropertyOp16
 70
     0
102
RTVSPropertyOp17
 70
     0
102
RTVSPropertyOp18
 70
     0
102
RTVSPropertyOp19
 70
     0
102
RTVSPropertyOp20
 70
     0
102
RTVSPropertyOp21
 70
     0
102
RTVSPropertyOp22
 70
     0
102
RTVSPropertyOp23
 70
     0
102
RTVSPropertyOp24
 70
     0
102
RTVSPropertyOp25
 70
     0
102
RTVSPropertyOp26
 70
     0
102
RTVSPropertyOp27
 70
     0
102
RTVSPropertyOp28
 70
     0
102
RTVSPropertyOp29
 70
     0
102
RTVSPropertyOp30
 70
     0
102
RTVSPropertyOp31
 70
     0
102
RTVSPropertyOp32
 70
     0
102
RTVSPropertyOp33
 70
     0
102
RTVSPropertyOp34
 70
     0
102
RTVSPropertyOp35
 70
     0
102
RTVSPropertyOp36
 70
     0
102
RTVSPropertyOp37
 70
     0
102
RTVSPropertyOp38
 70
     0
102
RTVSPropertyOp39
 70
     0
102
RTVSPropertyOp40
 70
     0
102
RTVSPropertyOp41
 70
     0
102
RTVSPropertyOp42
 70
     0
102
RTVSPropertyOp43
 70
     0
102
RTVSPropertyOp44
 70
     0
102
RTVSPropertyOp45
 70
     0
102
RTVSPropertyOp46
 70
     0
102
RTVSPropertyOp47
 70
     0
102
RTVSPropertyOp48
 70
     0
102
RTVSPropertyOp49
 70
     0
102
RTVSPropertyOp50
 70
     0
102
RTVSPropertyOp51
 70
     0
102
RTVSPropertyOp52
 70
     0
102
RTVSPropertyOp53
 70
     0
102
RTVSPropertyOp54
 70
     0
102
RTVSPropertyOp55
 70
     0
102
RTVSPropertyOp56
 70
     0
102
RTVSPropertyOp57
 70
     0
102
RTVSPost2010Prop28
280
     0
102
RTVSPost2010PropOp28
 70
     0
102
RTVSPost2010Prop29
280
     1
102
RTVSPost2010PropOp29
 70
     0
102
RTVSPost2010Prop30
280
     1
102
RTVSPost2010PropOp30
 70
     0
102
RTVSPost2010Prop31
280
     0
102
RTVSPost2010PropOp31
 70
     0
102
RTVSPost2010Prop32
280
     0
102
RTVSPost2010PropOp32
 70
     0
102
RTVSPost2010Prop33
280
     0
102
RTVSPost2010PropOp33
 70
     0
102
RTVSPost2010Prop34
280
     0
102
RTVSPost2010PropOp34
 70
     0
102
RTVSPost2010Prop35
280
     0
102
RTVSPost2010PropOp35
 70
     0
102
RTVSPost2010Prop36
280
     0
102
RTVSPost2010PropOp36
 70
     0
102
RTVSPost2010Prop37
 90
       50
102
RTVSPost2010PropOp37
 70
     0
102
RTVSPost2010Prop38
140
0.0
102
RTVSPost2010PropOp38
 70
     0
102
RTVSPost2010Prop39
140
1.0
102
RTVSPost2010PropOp39
 70
     0
102
RTVSPost2010Prop40
 90
        0
102
RTVSPost2010PropOp40
 70
     0
102
RTVSPost2010Prop41ColorIndex
 90
       18
102
RTVSPost2010Prop41ColorRGB
 90
        0
102
RTVSPost2010PropOp41
 70
     0
102
RTVSPost2010Prop42
 90
       50
102
RTVSPost2010PropOp42
 70
     0
102
RTVSPost2010Prop43
 90
        3
102
RTVSPost2010PropOp43
 70
     0
102
RTVSPost2010Prop44ColorIndex
 90
        5
102
RTVSPost2010Prop44ColorRGB
 90
      255
102
RTVSPost2010PropOp44
 70
     0
102
RTVSPost2010Prop45
280
     0
102
RTVSPost2010PropOp45
 70
     0
102
RTVSPost2010Prop46
 90
       50
102
RTVSPost2010PropOp46
 70
     0
102
RTVSPost2010Prop47
 90
       50
102
RTVSPost2010PropOp47
 70
     0
102
RTVSPost2010Prop48
 90
       50
102
RTVSPost2010PropOp48
 70
     0
102
RTVSPost2010Prop49
280
     0
102
RTVSPost2010PropOp49
 70
     0
102
RTVSPost2010Prop50
 90
       50
102
RTVSPost2010PropOp50
 70
     0
102
RTVSPost2010Prop51ColorIndex
 90
      256
102
RTVSPost2010Prop51ColorRGB
 90
-16777216
102
RTVSPost2010PropOp51
 70
     0
102
RTVSPost2010Prop52
140
1.0
102
RTVSPost2010PropOp52
 70
     0
102
RTVSPost2010Prop53
 90
        2
102
RTVSPost2010PropOp53
 70
     0
102
RTVSPost2010Prop54
  1
strokes_ogs.tif
102
RTVSPost2010PropOp54
 70
     0
102
RTVSPost2010Prop55
280
     0
102
RTVSPost2010PropOp55
 70
     0
102
RTVSPost2010Prop56
140
1.0
102
RTVSPost2010PropOp56
 70
     0
102
RTVSPost2010Prop57
140
1.0
102
RTVSPost2010PropOp57
 70
     0
  0
XRECORD
  5
3B0
102
{ACAD_REACTORS
330
3AF
102
}
330
3AF
100
AcDbXrecord
280
     1
102
RTVSPropertyOp0
 70
     1
102
RTVSPropertyOp1
 70
     1
102
RTVSPropertyOp2
 70
     1
102
RTVSPropertyOp3
 70
     1
102
RTVSPropertyOp4
 70
     1
102
RTVSPropertyOp5
 70
     1
102
RTVSPropertyOp6
 70
     1
102
RTVSPropertyOp7
 70
     1
102
RTVSPropertyOp8
 70
     1
102
RTVSPropertyOp9
 70
     1
102
RTVSPropertyOp10
 70
     1
102
RTVSPropertyOp11
 70
     1
102
RTVSPropertyOp12
 70
     1
102
RTVSPropertyOp13
 70
     1
102
RTVSPropertyOp14
 70
     1
102
RTVSPropertyOp15
 70
     1
102
RTVSPropertyOp16
 70
     1
102
RTVSPropertyOp17
 70
     1
102
RTVSPropertyOp18
 70
     1
102
RTVSPropertyOp19
 70
     1
102
RTVSPropertyOp20
 70
     1
102
RTVSPropertyOp21
 70
     1
102
RTVSPropertyOp22
 70
     1
102
RTVSPropertyOp23
 70
     1
102
RTVSPropertyOp24
 70
     1
102
RTVSPropertyOp25
 70
     1
102
RTVSPropertyOp26
 70
     1
102
RTVSPropertyOp27
 70
     1
102
RTVSPropertyOp28
 70
     1
102
RTVSPropertyOp29
 70
     1
102
RTVSPropertyOp30
 70
     1
102
RTVSPropertyOp31
 70
     1
102
RTVSPropertyOp32
 70
     1
102
RTVSPropertyOp33
 70
     1
102
RTVSPropertyOp34
 70
     1
102
RTVSPropertyOp35
 70
     1
102
RTVSPropertyOp36
 70
     1
102
RTVSPropertyOp37
 70
     1
102
RTVSPropertyOp38
 70
     1
102
RTVSPropertyOp39
 70
     1
102
RTVSPropertyOp40
 70
     1
102
RTVSPropertyOp41
 70
     1
102
RTVSPropertyOp42
 70
     1
102
RTVSPropertyOp43
 70
     1
102
RTVSPropertyOp44
 70
     1
102
RTVSPropertyOp45
 70
     1
102
RTVSPropertyOp46
 70
     1
102
RTVSPropertyOp47
 70
     1
102
RTVSPropertyOp48
 70
     1
102
RTVSPropertyOp49
 70
     1
102
RTVSPropertyOp50
 70
     1
102
RTVSPropertyOp51
 70
     0
102
RTVSPropertyOp52
 70
     0
102
RTVSPropertyOp53
 70
     1
102
RTVSPropertyOp54
 70
     1
102
RTVSPropertyOp55
 70
     1
102
RTVSPropertyOp56
 70
     1
102
RTVSPropertyOp57
 70
     1
102
RTVSPost2010Prop28
280
     0
102
RTVSPost2010PropOp28
 70
     1
102
RTVSPost2010Prop29
280
     1
102
RTVSPost2010PropOp29
 70
     1
102
RTVSPost2010Prop30
280
     1
102
RTVSPost2010PropOp30
 70
     1
102
RTVSPost2010Prop31
280
     0
102
RTVSPost2010PropOp31
 70
     1
102
RTVSPost2010Prop32
280
     0
102
RTVSPost2010PropOp32
 70
     1
102
RTVSPost2010Prop33
280
     0
102
RTVSPost2010PropOp33
 70
     1
102
RTVSPost2010Prop34
280
     0
102
RTVSPost2010PropOp34
 70
     1
102
RTVSPost2010Prop35
280
     0
102
RTVSPost2010PropOp35
 70
     1
102
RTVSPost2010Prop36
280
     0
102
RTVSPost2010PropOp36
 70
     1
102
RTVSPost2010Prop37
 90
       50
102
RTVSPost2010PropOp37
 70
     1
102
RTVSPost2010Prop38
140
0.0
102
RTVSPost2010PropOp38
 70
     1
102
RTVSPost2010Prop39
140
1.0
102
RTVSPost2010PropOp39
 70
     1
102
RTVSPost2010Prop40
 90
        0
102
RTVSPost2010PropOp40
 70
     1
102
RTVSPost2010Prop41ColorIndex
 90
       18
102
RTVSPost2010Prop41ColorRGB
 90
        0
102
RTVSPost2010PropOp41
 70
     1
102
RTVSPost2010Prop42
 90
       50
102
RTVSPost2010PropOp42
 70
     1
102
RTVSPost2010Prop43
 90
        3
102
RTVSPost2010PropOp43
 70
     1
102
RTVSPost2010Prop44ColorIndex
 90
        5
102
RTVSPost2010Prop44ColorRGB
 90
      255
102
RTVSPost2010PropOp44
 70
     1
102
RTVSPost2010Prop45
280
     0
102
RTVSPost2010PropOp45
 70
     1
102
RTVSPost2010Prop46
 90
       50
102
RTVSPost2010PropOp46
 70
     1
102
RTVSPost2010Prop47
 90
       50
102
RTVSPost2010PropOp47
 70
     1
102
RTVSPost2010Prop48
 90
       50
102
RTVSPost2010PropOp48
 70
     1
102
RTVSPost2010Prop49
280
     0
102
RTVSPost2010PropOp49
 70
     1
102
RTVSPost2010Prop50
 90
       50
102
RTVSPost2010PropOp50
 70
     1
102
RTVSPost2010Prop51ColorIndex
 90
      256
102
RTVSPost2010Prop51ColorRGB
 90
-16777216
102
RTVSPost2010PropOp51
 70
     0
102
RTVSPost2010Prop52
140
1.0
102
RTVSPost2010PropOp52
 70
     0
102
RTVSPost2010Prop53
 90
        2
102
RTVSPost2010PropOp53
 70
     1
102
RTVSPost2010Prop54
  1
strokes_ogs.tif
102
RTVSPost2010PropOp54
 70
     1
102
RTVSPost2010Prop55
280
     0
102
RTVSPost2010PropOp55
 70
     1
102
RTVSPost2010Prop56
140
1.0
102
RTVSPost2010PropOp56
 70
     1
102
RTVSPost2010Prop57
140
1.0
102
RTVSPost2010PropOp57
 70
     1
  0
XRECORD
  5
3B8
102
{ACAD_REACTORS
330
3B7
102
}
330
3B7
100
AcDbXrecord
280
     1
102
RTVSPropertyOp0
 70
     0
102
RTVSPropertyOp1
 70
     0
102
RTVSPropertyOp2
 70
     0
102
RTVSPropertyOp3
 70
     0
102
RTVSPropertyOp4
 70
     0
102
RTVSPropertyOp5
 70
     0
102
RTVSPropertyOp6
 70
     0
102
RTVSPropertyOp7
 70
     0
102
RTVSPropertyOp8
 70
     0
102
RTVSPropertyOp9
 70
     0
102
RTVSPropertyOp10
 70
     0
102
RTVSPropertyOp11
 70
     0
102
RTVSPropertyOp12
 70
     0
102
RTVSPropertyOp13
 70
     0
102
RTVSPropertyOp14
 70
     2
102
RTVSPropertyOp15
 70
     0
102
RTVSPropertyOp16
 70
     0
102
RTVSPropertyOp17
 70
     0
102
RTVSPropertyOp18
 70
     0
102
RTVSPropertyOp19
 70
     0
102
RTVSPropertyOp20
 70
     0
102
RTVSPropertyOp21
 70
     0
102
RTVSPropertyOp22
 70
     0
102
RTVSPropertyOp23
 70
     0
102
RTVSPropertyOp24
 70
     0
102
RTVSPropertyOp25
 70
     0
102
RTVSPropertyOp26
 70
     0
102
RTVSPropertyOp27
 70
     0
102
RTVSPropertyOp28
 70
     0
102
RTVSPropertyOp29
 70
     0
102
RTVSPropertyOp30
 70
     0
102
RTVSPropertyOp31
 70
     0
102
RTVSPropertyOp32
 70
     0
102
RTVSPropertyOp33
 70
     0
102
RTVSPropertyOp34
 70
     0
102
RTVSPropertyOp35
 70
     0
102
RTVSPropertyOp36
 70
     0
102
RTVSPropertyOp37
 70
     0
102
RTVSPropertyOp38
 70
     0
102
RTVSPropertyOp39
 70
     0
102
RTVSPropertyOp40
 70
     0
102
RTVSPropertyOp41
 70
     0
102
RTVSPropertyOp42
 70
     0
102
RTVSPropertyOp43
 70
     0
102
RTVSPropertyOp44
 70
     0
102
RTVSPropertyOp45
 70
     0
102
RTVSPropertyOp46
 70
     0
102
RTVSPropertyOp47
 70
     0
102
RTVSPropertyOp48
 70
     0
102
RTVSPropertyOp49
 70
     0
102
RTVSPropertyOp50
 70
     0
102
RTVSPropertyOp51
 70
     0
102
RTVSPropertyOp52
 70
     0
102
RTVSPropertyOp53
 70
     0
102
RTVSPropertyOp54
 70
     0
102
RTVSPropertyOp55
 70
     0
102
RTVSPropertyOp56
 70
     0
102
RTVSPropertyOp57
 70
     0
102
RTVSPost2010Prop28
280
     0
102
RTVSPost2010PropOp28
 70
     0
102
RTVSPost2010Prop29
280
     1
102
RTVSPost2010PropOp29
 70
     0
102
RTVSPost2010Prop30
280
     1
102
RTVSPost2010PropOp30
 70
     0
102
RTVSPost2010Prop31
280
     0
102
RTVSPost2010PropOp31
 70
     0
102
RTVSPost2010Prop32
280
     0
102
RTVSPost2010PropOp32
 70
     0
102
RTVSPost2010Prop33
280
     0
102
RTVSPost2010PropOp33
 70
     0
102
RTVSPost2010Prop34
280
     0
102
RTVSPost2010PropOp34
 70
     0
102
RTVSPost2010Prop35
280
     0
102
RTVSPost2010PropOp35
 70
     0
102
RTVSPost2010Prop36
280
     0
102
RTVSPost2010PropOp36
 70
     0
102
RTVSPost2010Prop37
 90
       50
102
RTVSPost2010PropOp37
 70
     0
102
RTVSPost2010Prop38
140
0.0
102
RTVSPost2010PropOp38
 70
     0
102
RTVSPost2010Prop39
140
1.0
102
RTVSPost2010PropOp39
 70
     0
102
RTVSPost2010Prop40
 90
        0
102
RTVSPost2010PropOp40
 70
     0
102
RTVSPost2010Prop41ColorIndex
 90
       18
102
RTVSPost2010Prop41ColorRGB
 90
        0
102
RTVSPost2010PropOp41
 70
     0
102
RTVSPost2010Prop42
 90
       50
102
RTVSPost2010PropOp42
 70
     0
102
RTVSPost2010Prop43
 90
        3
102
RTVSPost2010PropOp43
 70
     0
102
RTVSPost2010Prop44ColorIndex
 90
        5
102
RTVSPost2010Prop44ColorRGB
 90
      255
102
RTVSPost2010PropOp44
 70
     0
102
RTVSPost2010Prop45
280
     0
102
RTVSPost2010PropOp45
 70
     0
102
RTVSPost2010Prop46
 90
       50
102
RTVSPost2010PropOp46
 70
     0
102
RTVSPost2010Prop47
 90
       50
102
RTVSPost2010PropOp47
 70
     0
102
RTVSPost2010Prop48
 90
       50
102
RTVSPost2010PropOp48
 70
     0
102
RTVSPost2010Prop49
280
     0
102
RTVSPost2010PropOp49
 70
     0
102
RTVSPost2010Prop50
 90
       50
102
RTVSPost2010PropOp50
 70
     0
102
RTVSPost2010Prop51ColorIndex
 90
      256
102
RTVSPost2010Prop51ColorRGB
 90
-16777216
102
RTVSPost2010PropOp51
 70
     0
102
RTVSPost2010Prop52
140
1.0
102
RTVSPost2010PropOp52
 70
     0
102
RTVSPost2010Prop53
 90
        2
102
RTVSPost2010PropOp53
 70
     0
102
RTVSPost2010Prop54
  1
strokes_ogs.tif
102
RTVSPost2010PropOp54
 70
     0
102
RTVSPost2010Prop55
280
     0
102
RTVSPost2010PropOp55
 70
     0
102
RTVSPost2010Prop56
140
1.0
102
RTVSPost2010PropOp56
 70
     0
102
RTVSPost2010Prop57
140
1.0
102
RTVSPost2010PropOp57
 70
     0
  0
XRECORD
  5
3A6
102
{ACAD_REACTORS
330
3A5
102
}
330
3A5
100
AcDbXrecord
280
     1
102
RTVSPropertyOp0
 70
     1
102
RTVSPropertyOp1
 70
     1
102
RTVSPropertyOp2
 70
     1
102
RTVSPropertyOp3
 70
     1
102
RTVSPropertyOp4
 70
     1
102
RTVSPropertyOp5
 70
     1
102
RTVSPropertyOp6
 70
     1
102
RTVSPropertyOp7
 70
     1
102
RTVSPropertyOp8
 70
     1
102
RTVSPropertyOp9
 70
     1
102
RTVSPropertyOp10
 70
     1
102
RTVSPropertyOp11
 70
     1
102
RTVSPropertyOp12
 70
     1
102
RTVSPropertyOp13
 70
     1
102
RTVSPropertyOp14
 70
     1
102
RTVSPropertyOp15
 70
     1
102
RTVSPropertyOp16
 70
     1
102
RTVSPropertyOp17
 70
     1
102
RTVSPropertyOp18
 70
     1
102
RTVSPropertyOp19
 70
     1
102
RTVSPropertyOp20
 70
     1
102
RTVSPropertyOp21
 70
     1
102
RTVSPropertyOp22
 70
     1
102
RTVSPropertyOp23
 70
     1
102
RTVSPropertyOp24
 70
     1
102
RTVSPropertyOp25
 70
     1
102
RTVSPropertyOp26
 70
     1
102
RTVSPropertyOp27
 70
     1
102
RTVSPropertyOp28
 70
     1
102
RTVSPropertyOp29
 70
     1
102
RTVSPropertyOp30
 70
     1
102
RTVSPropertyOp31
 70
     1
102
RTVSPropertyOp32
 70
     1
102
RTVSPropertyOp33
 70
     1
102
RTVSPropertyOp34
 70
     1
102
RTVSPropertyOp35
 70
     1
102
RTVSPropertyOp36
 70
     1
102
RTVSPropertyOp37
 70
     1
102
RTVSPropertyOp38
 70
     1
102
RTVSPropertyOp39
 70
     1
102
RTVSPropertyOp40
 70
     1
102
RTVSPropertyOp41
 70
     1
102
RTVSPropertyOp42
 70
     1
102
RTVSPropertyOp43
 70
     1
102
RTVSPropertyOp44
 70
     1
102
RTVSPropertyOp45
 70
     1
102
RTVSPropertyOp46
 70
     1
102
RTVSPropertyOp47
 70
     1
102
RTVSPropertyOp48
 70
     1
102
RTVSPropertyOp49
 70
     1
102
RTVSPropertyOp50
 70
     1
102
RTVSPropertyOp51
 70
     0
102
RTVSPropertyOp52
 70
     0
102
RTVSPropertyOp53
 70
     1
102
RTVSPropertyOp54
 70
     1
102
RTVSPropertyOp55
 70
     1
102
RTVSPropertyOp56
 70
     1
102
RTVSPropertyOp57
 70
     1
102
RTVSPost2010Prop28
280
     0
102
RTVSPost2010PropOp28
 70
     1
102
RTVSPost2010Prop29
280
     1
102
RTVSPost2010PropOp29
 70
     1
102
RTVSPost2010Prop30
280
     1
102
RTVSPost2010PropOp30
 70
     1
102
RTVSPost2010Prop31
280
     0
102
RTVSPost2010PropOp31
 70
     1
102
RTVSPost2010Prop32
280
     0
102
RTVSPost2010PropOp32
 70
     1
102
RTVSPost2010Prop33
280
     0
102
RTVSPost2010PropOp33
 70
     1
102
RTVSPost2010Prop34
280
     0
102
RTVSPost2010PropOp34
 70
     1
102
RTVSPost2010Prop35
280
     0
102
RTVSPost2010PropOp35
 70
     1
102
RTVSPost2010Prop36
280
     0
102
RTVSPost2010PropOp36
 70
     1
102
RTVSPost2010Prop37
 90
       50
102
RTVSPost2010PropOp37
 70
     1
102
RTVSPost2010Prop38
140
0.0
102
RTVSPost2010PropOp38
 70
     1
102
RTVSPost2010Prop39
140
1.0
102
RTVSPost2010PropOp39
 70
     1
102
RTVSPost2010Prop40
 90
        0
102
RTVSPost2010PropOp40
 70
     1
102
RTVSPost2010Prop41ColorIndex
 90
       18
102
RTVSPost2010Prop41ColorRGB
 90
        0
102
RTVSPost2010PropOp41
 70
     1
102
RTVSPost2010Prop42
 90
       50
102
RTVSPost2010PropOp42
 70
     1
102
RTVSPost2010Prop43
 90
        3
102
RTVSPost2010PropOp43
 70
     1
102
RTVSPost2010Prop44ColorIndex
 90
        5
102
RTVSPost2010Prop44ColorRGB
 90
      255
102
RTVSPost2010PropOp44
 70
     1
102
RTVSPost2010Prop45
280
     0
102
RTVSPost2010PropOp45
 70
     1
102
RTVSPost2010Prop46
 90
       50
102
RTVSPost2010PropOp46
 70
     1
102
RTVSPost2010Prop47
 90
       50
102
RTVSPost2010PropOp47
 70
     1
102
RTVSPost2010Prop48
 90
       50
102
RTVSPost2010PropOp48
 70
     1
102
RTVSPost2010Prop49
280
     0
102
RTVSPost2010PropOp49
 70
     1
102
RTVSPost2010Prop50
 90
       50
102
RTVSPost2010PropOp50
 70
     1
102
RTVSPost2010Prop51ColorIndex
 90
      256
102
RTVSPost2010Prop51ColorRGB
 90
-16777216
102
RTVSPost2010PropOp51
 70
     0
102
RTVSPost2010Prop52
140
1.0
102
RTVSPost2010PropOp52
 70
     0
102
RTVSPost2010Prop53
 90
        2
102
RTVSPost2010PropOp53
 70
     1
102
RTVSPost2010Prop54
  1
strokes_ogs.tif
102
RTVSPost2010PropOp54
 70
     1
102
RTVSPost2010Prop55
280
     0
102
RTVSPost2010PropOp55
 70
     1
102
RTVSPost2010Prop56
140
1.0
102
RTVSPost2010PropOp56
 70
     1
102
RTVSPost2010Prop57
140
1.0
102
RTVSPost2010PropOp57
 70
     1
  0
XRECORD
  5
3C4
102
{ACAD_REACTORS
330
3C3
102
}
330
3C3
100
AcDbXrecord
280
     1
102
RTVSPropertyOp0
 70
     1
102
RTVSPropertyOp1
 70
     1
102
RTVSPropertyOp2
 70
     1
102
RTVSPropertyOp3
 70
     1
102
RTVSPropertyOp4
 70
     1
102
RTVSPropertyOp5
 70
     1
102
RTVSPropertyOp6
 70
     1
102
RTVSPropertyOp7
 70
     1
102
RTVSPropertyOp8
 70
     1
102
RTVSPropertyOp9
 70
     1
102
RTVSPropertyOp10
 70
     1
102
RTVSPropertyOp11
 70
     1
102
RTVSPropertyOp12
 70
     1
102
RTVSPropertyOp13
 70
     1
102
RTVSPropertyOp14
 70
     1
102
RTVSPropertyOp15
 70
     1
102
RTVSPropertyOp16
 70
     1
102
RTVSPropertyOp17
 70
     1
102
RTVSPropertyOp18
 70
     1
102
RTVSPropertyOp19
 70
     1
102
RTVSPropertyOp20
 70
     1
102
RTVSPropertyOp21
 70
     1
102
RTVSPropertyOp22
 70
     1
102
RTVSPropertyOp23
 70
     1
102
RTVSPropertyOp24
 70
     1
102
RTVSPropertyOp25
 70
     1
102
RTVSPropertyOp26
 70
     1
102
RTVSPropertyOp27
 70
     1
102
RTVSPropertyOp28
 70
     1
102
RTVSPropertyOp29
 70
     1
102
RTVSPropertyOp30
 70
     1
102
RTVSPropertyOp31
 70
     1
102
RTVSPropertyOp32
 70
     1
102
RTVSPropertyOp33
 70
     1
102
RTVSPropertyOp34
 70
     1
102
RTVSPropertyOp35
 70
     1
102
RTVSPropertyOp36
 70
     1
102
RTVSPropertyOp37
 70
     1
102
RTVSPropertyOp38
 70
     1
102
RTVSPropertyOp39
 70
     1
102
RTVSPropertyOp40
 70
     1
102
RTVSPropertyOp41
 70
     1
102
RTVSPropertyOp42
 70
     1
102
RTVSPropertyOp43
 70
     1
102
RTVSPropertyOp44
 70
     1
102
RTVSPropertyOp45
 70
     1
102
RTVSPropertyOp46
 70
     1
102
RTVSPropertyOp47
 70
     1
102
RTVSPropertyOp48
 70
     1
102
RTVSPropertyOp49
 70
     1
102
RTVSPropertyOp50
 70
     1
102
RTVSPropertyOp51
 70
     0
102
RTVSPropertyOp52
 70
     0
102
RTVSPropertyOp53
 70
     1
102
RTVSPropertyOp54
 70
     1
102
RTVSPropertyOp55
 70
     1
102
RTVSPropertyOp56
 70
     1
102
RTVSPropertyOp57
 70
     1
102
RTVSPost2010Prop28
280
     0
102
RTVSPost2010PropOp28
 70
     1
102
RTVSPost2010Prop29
280
     1
102
RTVSPost2010PropOp29
 70
     1
102
RTVSPost2010Prop30
280
     1
102
RTVSPost2010PropOp30
 70
     1
102
RTVSPost2010Prop31
280
     0
102
RTVSPost2010PropOp31
 70
     1
102
RTVSPost2010Prop32
280
     0
102
RTVSPost2010PropOp32
 70
     1
102
RTVSPost2010Prop33
280
     0
102
RTVSPost2010PropOp33
 70
     1
102
RTVSPost2010Prop34
280
     0
102
RTVSPost2010PropOp34
 70
     1
102
RTVSPost2010Prop35
280
     0
102
RTVSPost2010PropOp35
 70
     1
102
RTVSPost2010Prop36
280
     0
102
RTVSPost2010PropOp36
 70
     1
102
RTVSPost2010Prop37
 90
       50
102
RTVSPost2010PropOp37
 70
     1
102
RTVSPost2010Prop38
140
0.0
102
RTVSPost2010PropOp38
 70
     1
102
RTVSPost2010Prop39
140
1.0
102
RTVSPost2010PropOp39
 70
     1
102
RTVSPost2010Prop40
 90
        0
102
RTVSPost2010PropOp40
 70
     1
102
RTVSPost2010Prop41ColorIndex
 90
       18
102
RTVSPost2010Prop41ColorRGB
 90
        0
102
RTVSPost2010PropOp41
 70
     1
102
RTVSPost2010Prop42
 90
       50
102
RTVSPost2010PropOp42
 70
     1
102
RTVSPost2010Prop43
 90
        3
102
RTVSPost2010PropOp43
 70
     1
102
RTVSPost2010Prop44ColorIndex
 90
        5
102
RTVSPost2010Prop44ColorRGB
 90
      255
102
RTVSPost2010PropOp44
 70
     1
102
RTVSPost2010Prop45
280
     0
102
RTVSPost2010PropOp45
 70
     1
102
RTVSPost2010Prop46
 90
       50
102
RTVSPost2010PropOp46
 70
     1
102
RTVSPost2010Prop47
 90
       50
102
RTVSPost2010PropOp47
 70
     1
102
RTVSPost2010Prop48
 90
       50
102
RTVSPost2010PropOp48
 70
     1
102
RTVSPost2010Prop49
280
     0
102
RTVSPost2010PropOp49
 70
     1
102
RTVSPost2010Prop50
 90
       50
102
RTVSPost2010PropOp50
 70
     1
102
RTVSPost2010Prop51ColorIndex
 90
      256
102
RTVSPost2010Prop51ColorRGB
 90
-16777216
102
RTVSPost2010PropOp51
 70
     0
102
RTVSPost2010Prop52
140
1.0
102
RTVSPost2010PropOp52
 70
     0
102
RTVSPost2010Prop53
 90
        2
102
RTVSPost2010PropOp53
 70
     1
102
RTVSPost2010Prop54
  1
strokes_ogs.tif
102
RTVSPost2010PropOp54
 70
     1
102
RTVSPost2010Prop55
280
     0
102
RTVSPost2010PropOp55
 70
     1
102
RTVSPost2010Prop56
140
1.0
102
RTVSPost2010PropOp56
 70
     1
102
RTVSPost2010Prop57
140
1.0
102
RTVSPost2010PropOp57
 70
     1
  0
XRECORD
  5
3C2
102
{ACAD_REACTORS
330
3C1
102
}
330
3C1
100
AcDbXrecord
280
     1
102
RTVSPropertyOp0
 70
     1
102
RTVSPropertyOp1
 70
     1
102
RTVSPropertyOp2
 70
     1
102
RTVSPropertyOp3
 70
     1
102
RTVSPropertyOp4
 70
     1
102
RTVSPropertyOp5
 70
     1
102
RTVSPropertyOp6
 70
     1
102
RTVSPropertyOp7
 70
     1
102
RTVSPropertyOp8
 70
     1
102
RTVSPropertyOp9
 70
     1
102
RTVSPropertyOp10
 70
     1
102
RTVSPropertyOp11
 70
     1
102
RTVSPropertyOp12
 70
     1
102
RTVSPropertyOp13
 70
     1
102
RTVSPropertyOp14
 70
     1
102
RTVSPropertyOp15
 70
     1
102
RTVSPropertyOp16
 70
     1
102
RTVSPropertyOp17
 70
     1
102
RTVSPropertyOp18
 70
     1
102
RTVSPropertyOp19
 70
     1
102
RTVSPropertyOp20
 70
     1
102
RTVSPropertyOp21
 70
     1
102
RTVSPropertyOp22
 70
     1
102
RTVSPropertyOp23
 70
     1
102
RTVSPropertyOp24
 70
     1
102
RTVSPropertyOp25
 70
     1
102
RTVSPropertyOp26
 70
     1
102
RTVSPropertyOp27
 70
     1
102
RTVSPropertyOp28
 70
     1
102
RTVSPropertyOp29
 70
     1
102
RTVSPropertyOp30
 70
     1
102
RTVSPropertyOp31
 70
     1
102
RTVSPropertyOp32
 70
     1
102
RTVSPropertyOp33
 70
     1
102
RTVSPropertyOp34
 70
     1
102
RTVSPropertyOp35
 70
     1
102
RTVSPropertyOp36
 70
     1
102
RTVSPropertyOp37
 70
     1
102
RTVSPropertyOp38
 70
     1
102
RTVSPropertyOp39
 70
     1
102
RTVSPropertyOp40
 70
     1
102
RTVSPropertyOp41
 70
     1
102
RTVSPropertyOp42
 70
     1
102
RTVSPropertyOp43
 70
     1
102
RTVSPropertyOp44
 70
     1
102
RTVSPropertyOp45
 70
     1
102
RTVSPropertyOp46
 70
     1
102
RTVSPropertyOp47
 70
     1
102
RTVSPropertyOp48
 70
     1
102
RTVSPropertyOp49
 70
     1
102
RTVSPropertyOp50
 70
     1
102
RTVSPropertyOp51
 70
     0
102
RTVSPropertyOp52
 70
     0
102
RTVSPropertyOp53
 70
     1
102
RTVSPropertyOp54
 70
     1
102
RTVSPropertyOp55
 70
     1
102
RTVSPropertyOp56
 70
     1
102
RTVSPropertyOp57
 70
     1
102
RTVSPost2010Prop28
280
     0
102
RTVSPost2010PropOp28
 70
     1
102
RTVSPost2010Prop29
280
     1
102
RTVSPost2010PropOp29
 70
     1
102
RTVSPost2010Prop30
280
     1
102
RTVSPost2010PropOp30
 70
     1
102
RTVSPost2010Prop31
280
     0
102
RTVSPost2010PropOp31
 70
     1
102
RTVSPost2010Prop32
280
     0
102
RTVSPost2010PropOp32
 70
     1
102
RTVSPost2010Prop33
280
     0
102
RTVSPost2010PropOp33
 70
     1
102
RTVSPost2010Prop34
280
     0
102
RTVSPost2010PropOp34
 70
     1
102
RTVSPost2010Prop35
280
     0
102
RTVSPost2010PropOp35
 70
     1
102
RTVSPost2010Prop36
280
     0
102
RTVSPost2010PropOp36
 70
     1
102
RTVSPost2010Prop37
 90
       50
102
RTVSPost2010PropOp37
 70
     1
102
RTVSPost2010Prop38
140
0.0
102
RTVSPost2010PropOp38
 70
     1
102
RTVSPost2010Prop39
140
1.0
102
RTVSPost2010PropOp39
 70
     1
102
RTVSPost2010Prop40
 90
        0
102
RTVSPost2010PropOp40
 70
     1
102
RTVSPost2010Prop41ColorIndex
 90
       18
102
RTVSPost2010Prop41ColorRGB
 90
        0
102
RTVSPost2010PropOp41
 70
     1
102
RTVSPost2010Prop42
 90
       50
102
RTVSPost2010PropOp42
 70
     1
102
RTVSPost2010Prop43
 90
        3
102
RTVSPost2010PropOp43
 70
     1
102
RTVSPost2010Prop44ColorIndex
 90
        5
102
RTVSPost2010Prop44ColorRGB
 90
      255
102
RTVSPost2010PropOp44
 70
     1
102
RTVSPost2010Prop45
280
     0
102
RTVSPost2010PropOp45
 70
     1
102
RTVSPost2010Prop46
 90
       50
102
RTVSPost2010PropOp46
 70
     1
102
RTVSPost2010Prop47
 90
       50
102
RTVSPost2010PropOp47
 70
     1
102
RTVSPost2010Prop48
 90
       50
102
RTVSPost2010PropOp48
 70
     1
102
RTVSPost2010Prop49
280
     0
102
RTVSPost2010PropOp49
 70
     1
102
RTVSPost2010Prop50
 90
       50
102
RTVSPost2010PropOp50
 70
     1
102
RTVSPost2010Prop51ColorIndex
 90
      256
102
RTVSPost2010Prop51ColorRGB
 90
-16777216
102
RTVSPost2010PropOp51
 70
     0
102
RTVSPost2010Prop52
140
1.0
102
RTVSPost2010PropOp52
 70
     0
102
RTVSPost2010Prop53
 90
        2
102
RTVSPost2010PropOp53
 70
     1
102
RTVSPost2010Prop54
  1
strokes_ogs.tif
102
RTVSPost2010PropOp54
 70
     1
102
RTVSPost2010Prop55
280
     0
102
RTVSPost2010PropOp55
 70
     1
102
RTVSPost2010Prop56
140
1.0
102
RTVSPost2010PropOp56
 70
     1
102
RTVSPost2010Prop57
140
1.0
102
RTVSPost2010PropOp57
 70
     1
  0
XRECORD
  5
3BC
102
{ACAD_REACTORS
330
3BB
102
}
330
3BB
100
AcDbXrecord
280
     1
102
RTVSPropertyOp0
 70
     1
102
RTVSPropertyOp1
 70
     1
102
RTVSPropertyOp2
 70
     1
102
RTVSPropertyOp3
 70
     1
102
RTVSPropertyOp4
 70
     1
102
RTVSPropertyOp5
 70
     1
102
RTVSPropertyOp6
 70
     1
102
RTVSPropertyOp7
 70
     1
102
RTVSPropertyOp8
 70
     1
102
RTVSPropertyOp9
 70
     1
102
RTVSPropertyOp10
 70
     1
102
RTVSPropertyOp11
 70
     1
102
RTVSPropertyOp12
 70
     1
102
RTVSPropertyOp13
 70
     1
102
RTVSPropertyOp14
 70
     1
102
RTVSPropertyOp15
 70
     1
102
RTVSPropertyOp16
 70
     1
102
RTVSPropertyOp17
 70
     1
102
RTVSPropertyOp18
 70
     1
102
RTVSPropertyOp19
 70
     1
102
RTVSPropertyOp20
 70
     1
102
RTVSPropertyOp21
 70
     1
102
RTVSPropertyOp22
 70
     1
102
RTVSPropertyOp23
 70
     1
102
RTVSPropertyOp24
 70
     1
102
RTVSPropertyOp25
 70
     1
102
RTVSPropertyOp26
 70
     1
102
RTVSPropertyOp27
 70
     1
102
RTVSPropertyOp28
 70
     1
102
RTVSPropertyOp29
 70
     1
102
RTVSPropertyOp30
 70
     1
102
RTVSPropertyOp31
 70
     1
102
RTVSPropertyOp32
 70
     1
102
RTVSPropertyOp33
 70
     1
102
RTVSPropertyOp34
 70
     1
102
RTVSPropertyOp35
 70
     1
102
RTVSPropertyOp36
 70
     1
102
RTVSPropertyOp37
 70
     1
102
RTVSPropertyOp38
 70
     1
102
RTVSPropertyOp39
 70
     1
102
RTVSPropertyOp40
 70
     1
102
RTVSPropertyOp41
 70
     1
102
RTVSPropertyOp42
 70
     1
102
RTVSPropertyOp43
 70
     1
102
RTVSPropertyOp44
 70
     1
102
RTVSPropertyOp45
 70
     1
102
RTVSPropertyOp46
 70
     1
102
RTVSPropertyOp47
 70
     1
102
RTVSPropertyOp48
 70
     1
102
RTVSPropertyOp49
 70
     1
102
RTVSPropertyOp50
 70
     1
102
RTVSPropertyOp51
 70
     0
102
RTVSPropertyOp52
 70
     0
102
RTVSPropertyOp53
 70
     1
102
RTVSPropertyOp54
 70
     1
102
RTVSPropertyOp55
 70
     1
102
RTVSPropertyOp56
 70
     1
102
RTVSPropertyOp57
 70
     1
102
RTVSPost2010Prop28
280
     0
102
RTVSPost2010PropOp28
 70
     1
102
RTVSPost2010Prop29
280
     1
102
RTVSPost2010PropOp29
 70
     1
102
RTVSPost2010Prop30
280
     1
102
RTVSPost2010PropOp30
 70
     1
102
RTVSPost2010Prop31
280
     0
102
RTVSPost2010PropOp31
 70
     1
102
RTVSPost2010Prop32
280
     0
102
RTVSPost2010PropOp32
 70
     1
102
RTVSPost2010Prop33
280
     0
102
RTVSPost2010PropOp33
 70
     1
102
RTVSPost2010Prop34
280
     0
102
RTVSPost2010PropOp34
 70
     1
102
RTVSPost2010Prop35
280
     0
102
RTVSPost2010PropOp35
 70
     1
102
RTVSPost2010Prop36
280
     0
102
RTVSPost2010PropOp36
 70
     1
102
RTVSPost2010Prop37
 90
       50
102
RTVSPost2010PropOp37
 70
     1
102
RTVSPost2010Prop38
140
0.0
102
RTVSPost2010PropOp38
 70
     1
102
RTVSPost2010Prop39
140
1.0
102
RTVSPost2010PropOp39
 70
     1
102
RTVSPost2010Prop40
 90
        0
102
RTVSPost2010PropOp40
 70
     1
102
RTVSPost2010Prop41ColorIndex
 90
       18
102
RTVSPost2010Prop41ColorRGB
 90
        0
102
RTVSPost2010PropOp41
 70
     1
102
RTVSPost2010Prop42
 90
       50
102
RTVSPost2010PropOp42
 70
     1
102
RTVSPost2010Prop43
 90
        3
102
RTVSPost2010PropOp43
 70
     1
102
RTVSPost2010Prop44ColorIndex
 90
        5
102
RTVSPost2010Prop44ColorRGB
 90
      255
102
RTVSPost2010PropOp44
 70
     1
102
RTVSPost2010Prop45
280
     0
102
RTVSPost2010PropOp45
 70
     1
102
RTVSPost2010Prop46
 90
       50
102
RTVSPost2010PropOp46
 70
     1
102
RTVSPost2010Prop47
 90
       50
102
RTVSPost2010PropOp47
 70
     1
102
RTVSPost2010Prop48
 90
       50
102
RTVSPost2010PropOp48
 70
     1
102
RTVSPost2010Prop49
280
     0
102
RTVSPost2010PropOp49
 70
     1
102
RTVSPost2010Prop50
 90
       50
102
RTVSPost2010PropOp50
 70
     1
102
RTVSPost2010Prop51ColorIndex
 90
      256
102
RTVSPost2010Prop51ColorRGB
 90
-16777216
102
RTVSPost2010PropOp51
 70
     0
102
RTVSPost2010Prop52
140
1.0
102
RTVSPost2010PropOp52
 70
     0
102
RTVSPost2010Prop53
 90
        2
102
RTVSPost2010PropOp53
 70
     1
102
RTVSPost2010Prop54
  1
strokes_ogs.tif
102
RTVSPost2010PropOp54
 70
     1
102
RTVSPost2010Prop55
280
     0
102
RTVSPost2010PropOp55
 70
     1
102
RTVSPost2010Prop56
140
1.0
102
RTVSPost2010PropOp56
 70
     1
102
RTVSPost2010Prop57
140
1.0
102
RTVSPost2010PropOp57
 70
     1
  0
XRECORD
  5
3BE
102
{ACAD_REACTORS
330
3BD
102
}
330
3BD
100
AcDbXrecord
280
     1
102
RTVSPropertyOp0
 70
     1
102
RTVSPropertyOp1
 70
     1
102
RTVSPropertyOp2
 70
     1
102
RTVSPropertyOp3
 70
     1
102
RTVSPropertyOp4
 70
     1
102
RTVSPropertyOp5
 70
     1
102
RTVSPropertyOp6
 70
     1
102
RTVSPropertyOp7
 70
     1
102
RTVSPropertyOp8
 70
     1
102
RTVSPropertyOp9
 70
     1
102
RTVSPropertyOp10
 70
     1
102
RTVSPropertyOp11
 70
     1
102
RTVSPropertyOp12
 70
     1
102
RTVSPropertyOp13
 70
     1
102
RTVSPropertyOp14
 70
     1
102
RTVSPropertyOp15
 70
     1
102
RTVSPropertyOp16
 70
     1
102
RTVSPropertyOp17
 70
     1
102
RTVSPropertyOp18
 70
     1
102
RTVSPropertyOp19
 70
     1
102
RTVSPropertyOp20
 70
     1
102
RTVSPropertyOp21
 70
     1
102
RTVSPropertyOp22
 70
     1
102
RTVSPropertyOp23
 70
     1
102
RTVSPropertyOp24
 70
     1
102
RTVSPropertyOp25
 70
     1
102
RTVSPropertyOp26
 70
     1
102
RTVSPropertyOp27
 70
     1
102
RTVSPropertyOp28
 70
     1
102
RTVSPropertyOp29
 70
     1
102
RTVSPropertyOp30
 70
     1
102
RTVSPropertyOp31
 70
     1
102
RTVSPropertyOp32
 70
     1
102
RTVSPropertyOp33
 70
     1
102
RTVSPropertyOp34
 70
     1
102
RTVSPropertyOp35
 70
     1
102
RTVSPropertyOp36
 70
     1
102
RTVSPropertyOp37
 70
     1
102
RTVSPropertyOp38
 70
     1
102
RTVSPropertyOp39
 70
     1
102
RTVSPropertyOp40
 70
     1
102
RTVSPropertyOp41
 70
     1
102
RTVSPropertyOp42
 70
     1
102
RTVSPropertyOp43
 70
     1
102
RTVSPropertyOp44
 70
     1
102
RTVSPropertyOp45
 70
     1
102
RTVSPropertyOp46
 70
     1
102
RTVSPropertyOp47
 70
     1
102
RTVSPropertyOp48
 70
     1
102
RTVSPropertyOp49
 70
     1
102
RTVSPropertyOp50
 70
     1
102
RTVSPropertyOp51
 70
     0
102
RTVSPropertyOp52
 70
     0
102
RTVSPropertyOp53
 70
     1
102
RTVSPropertyOp54
 70
     1
102
RTVSPropertyOp55
 70
     1
102
RTVSPropertyOp56
 70
     1
102
RTVSPropertyOp57
 70
     1
102
RTVSPost2010Prop28
280
     0
102
RTVSPost2010PropOp28
 70
     1
102
RTVSPost2010Prop29
280
     1
102
RTVSPost2010PropOp29
 70
     1
102
RTVSPost2010Prop30
280
     1
102
RTVSPost2010PropOp30
 70
     1
102
RTVSPost2010Prop31
280
     0
102
RTVSPost2010PropOp31
 70
     1
102
RTVSPost2010Prop32
280
     0
102
RTVSPost2010PropOp32
 70
     1
102
RTVSPost2010Prop33
280
     0
102
RTVSPost2010PropOp33
 70
     1
102
RTVSPost2010Prop34
280
     0
102
RTVSPost2010PropOp34
 70
     1
102
RTVSPost2010Prop35
280
     0
102
RTVSPost2010PropOp35
 70
     1
102
RTVSPost2010Prop36
280
     0
102
RTVSPost2010PropOp36
 70
     1
102
RTVSPost2010Prop37
 90
       50
102
RTVSPost2010PropOp37
 70
     1
102
RTVSPost2010Prop38
140
0.0
102
RTVSPost2010PropOp38
 70
     1
102
RTVSPost2010Prop39
140
1.0
102
RTVSPost2010PropOp39
 70
     1
102
RTVSPost2010Prop40
 90
        0
102
RTVSPost2010PropOp40
 70
     1
102
RTVSPost2010Prop41ColorIndex
 90
       18
102
RTVSPost2010Prop41ColorRGB
 90
        0
102
RTVSPost2010PropOp41
 70
     1
102
RTVSPost2010Prop42
 90
       50
102
RTVSPost2010PropOp42
 70
     1
102
RTVSPost2010Prop43
 90
        3
102
RTVSPost2010PropOp43
 70
     1
102
RTVSPost2010Prop44ColorIndex
 90
        5
102
RTVSPost2010Prop44ColorRGB
 90
      255
102
RTVSPost2010PropOp44
 70
     1
102
RTVSPost2010Prop45
280
     0
102
RTVSPost2010PropOp45
 70
     1
102
RTVSPost2010Prop46
 90
       50
102
RTVSPost2010PropOp46
 70
     1
102
RTVSPost2010Prop47
 90
       50
102
RTVSPost2010PropOp47
 70
     1
102
RTVSPost2010Prop48
 90
       50
102
RTVSPost2010PropOp48
 70
     1
102
RTVSPost2010Prop49
280
     0
102
RTVSPost2010PropOp49
 70
     1
102
RTVSPost2010Prop50
 90
       50
102
RTVSPost2010PropOp50
 70
     1
102
RTVSPost2010Prop51ColorIndex
 90
      256
102
RTVSPost2010Prop51ColorRGB
 90
-16777216
102
RTVSPost2010PropOp51
 70
     0
102
RTVSPost2010Prop52
140
1.0
102
RTVSPost2010PropOp52
 70
     0
102
RTVSPost2010Prop53
 90
        2
102
RTVSPost2010PropOp53
 70
     1
102
RTVSPost2010Prop54
  1
strokes_ogs.tif
102
RTVSPost2010PropOp54
 70
     1
102
RTVSPost2010Prop55
280
     0
102
RTVSPost2010PropOp55
 70
     1
102
RTVSPost2010Prop56
140
1.0
102
RTVSPost2010PropOp56
 70
     1
102
RTVSPost2010Prop57
140
1.0
102
RTVSPost2010PropOp57
 70
     1
  0
XRECORD
  5
3AE
102
{ACAD_REACTORS
330
3AD
102
}
330
3AD
100
AcDbXrecord
280
     1
102
RTVSPropertyOp0
 70
     1
102
RTVSPropertyOp1
 70
     1
102
RTVSPropertyOp2
 70
     1
102
RTVSPropertyOp3
 70
     1
102
RTVSPropertyOp4
 70
     1
102
RTVSPropertyOp5
 70
     1
102
RTVSPropertyOp6
 70
     1
102
RTVSPropertyOp7
 70
     1
102
RTVSPropertyOp8
 70
     1
102
RTVSPropertyOp9
 70
     1
102
RTVSPropertyOp10
 70
     1
102
RTVSPropertyOp11
 70
     1
102
RTVSPropertyOp12
 70
     1
102
RTVSPropertyOp13
 70
     1
102
RTVSPropertyOp14
 70
     1
102
RTVSPropertyOp15
 70
     1
102
RTVSPropertyOp16
 70
     1
102
RTVSPropertyOp17
 70
     1
102
RTVSPropertyOp18
 70
     1
102
RTVSPropertyOp19
 70
     1
102
RTVSPropertyOp20
 70
     1
102
RTVSPropertyOp21
 70
     1
102
RTVSPropertyOp22
 70
     1
102
RTVSPropertyOp23
 70
     1
102
RTVSPropertyOp24
 70
     1
102
RTVSPropertyOp25
 70
     1
102
RTVSPropertyOp26
 70
     1
102
RTVSPropertyOp27
 70
     1
102
RTVSPropertyOp28
 70
     1
102
RTVSPropertyOp29
 70
     1
102
RTVSPropertyOp30
 70
     1
102
RTVSPropertyOp31
 70
     1
102
RTVSPropertyOp32
 70
     1
102
RTVSPropertyOp33
 70
     1
102
RTVSPropertyOp34
 70
     1
102
RTVSPropertyOp35
 70
     1
102
RTVSPropertyOp36
 70
     1
102
RTVSPropertyOp37
 70
     1
102
RTVSPropertyOp38
 70
     1
102
RTVSPropertyOp39
 70
     1
102
RTVSPropertyOp40
 70
     1
102
RTVSPropertyOp41
 70
     1
102
RTVSPropertyOp42
 70
     1
102
RTVSPropertyOp43
 70
     1
102
RTVSPropertyOp44
 70
     1
102
RTVSPropertyOp45
 70
     1
102
RTVSPropertyOp46
 70
     1
102
RTVSPropertyOp47
 70
     1
102
RTVSPropertyOp48
 70
     1
102
RTVSPropertyOp49
 70
     1
102
RTVSPropertyOp50
 70
     1
102
RTVSPropertyOp51
 70
     0
102
RTVSPropertyOp52
 70
     0
102
RTVSPropertyOp53
 70
     1
102
RTVSPropertyOp54
 70
     1
102
RTVSPropertyOp55
 70
     1
102
RTVSPropertyOp56
 70
     1
102
RTVSPropertyOp57
 70
     1
102
RTVSPost2010Prop28
280
     0
102
RTVSPost2010PropOp28
 70
     1
102
RTVSPost2010Prop29
280
     1
102
RTVSPost2010PropOp29
 70
     1
102
RTVSPost2010Prop30
280
     1
102
RTVSPost2010PropOp30
 70
     1
102
RTVSPost2010Prop31
280
     0
102
RTVSPost2010PropOp31
 70
     1
102
RTVSPost2010Prop32
280
     0
102
RTVSPost2010PropOp32
 70
     1
102
RTVSPost2010Prop33
280
     0
102
RTVSPost2010PropOp33
 70
     1
102
RTVSPost2010Prop34
280
     0
102
RTVSPost2010PropOp34
 70
     1
102
RTVSPost2010Prop35
280
     0
102
RTVSPost2010PropOp35
 70
     1
102
RTVSPost2010Prop36
280
     0
102
RTVSPost2010PropOp36
 70
     1
102
RTVSPost2010Prop37
 90
       50
102
RTVSPost2010PropOp37
 70
     1
102
RTVSPost2010Prop38
140
0.0
102
RTVSPost2010PropOp38
 70
     1
102
RTVSPost2010Prop39
140
1.0
102
RTVSPost2010PropOp39
 70
     1
102
RTVSPost2010Prop40
 90
        0
102
RTVSPost2010PropOp40
 70
     1
102
RTVSPost2010Prop41ColorIndex
 90
       18
102
RTVSPost2010Prop41ColorRGB
 90
        0
102
RTVSPost2010PropOp41
 70
     1
102
RTVSPost2010Prop42
 90
       50
102
RTVSPost2010PropOp42
 70
     1
102
RTVSPost2010Prop43
 90
        3
102
RTVSPost2010PropOp43
 70
     1
102
RTVSPost2010Prop44ColorIndex
 90
        5
102
RTVSPost2010Prop44ColorRGB
 90
      255
102
RTVSPost2010PropOp44
 70
     1
102
RTVSPost2010Prop45
280
     0
102
RTVSPost2010PropOp45
 70
     1
102
RTVSPost2010Prop46
 90
       50
102
RTVSPost2010PropOp46
 70
     1
102
RTVSPost2010Prop47
 90
       50
102
RTVSPost2010PropOp47
 70
     1
102
RTVSPost2010Prop48
 90
       50
102
RTVSPost2010PropOp48
 70
     1
102
RTVSPost2010Prop49
280
     0
102
RTVSPost2010PropOp49
 70
     1
102
RTVSPost2010Prop50
 90
       50
102
RTVSPost2010PropOp50
 70
     1
102
RTVSPost2010Prop51ColorIndex
 90
      256
102
RTVSPost2010Prop51ColorRGB
 90
-16777216
102
RTVSPost2010PropOp51
 70
     0
102
RTVSPost2010Prop52
140
1.0
102
RTVSPost2010PropOp52
 70
     0
102
RTVSPost2010Prop53
 90
        2
102
RTVSPost2010PropOp53
 70
     1
102
RTVSPost2010Prop54
  1
strokes_ogs.tif
102
RTVSPost2010PropOp54
 70
     1
102
RTVSPost2010Prop55
280
     0
102
RTVSPost2010PropOp55
 70
     1
102
RTVSPost2010Prop56
140
1.0
102
RTVSPost2010PropOp56
 70
     1
102
RTVSPost2010Prop57
140
1.0
102
RTVSPost2010PropOp57
 70
     1
  0
XRECORD
  5
3A0
102
{ACAD_REACTORS
330
39F
102
}
330
39F
100
AcDbXrecord
280
     1
102
RTVSPropertyOp0
 70
     1
102
RTVSPropertyOp1
 70
     1
102
RTVSPropertyOp2
 70
     1
102
RTVSPropertyOp3
 70
     1
102
RTVSPropertyOp4
 70
     1
102
RTVSPropertyOp5
 70
     1
102
RTVSPropertyOp6
 70
     1
102
RTVSPropertyOp7
 70
     1
102
RTVSPropertyOp8
 70
     1
102
RTVSPropertyOp9
 70
     1
102
RTVSPropertyOp10
 70
     1
102
RTVSPropertyOp11
 70
     1
102
RTVSPropertyOp12
 70
     1
102
RTVSPropertyOp13
 70
     1
102
RTVSPropertyOp14
 70
     1
102
RTVSPropertyOp15
 70
     1
102
RTVSPropertyOp16
 70
     1
102
RTVSPropertyOp17
 70
     1
102
RTVSPropertyOp18
 70
     1
102
RTVSPropertyOp19
 70
     1
102
RTVSPropertyOp20
 70
     1
102
RTVSPropertyOp21
 70
     1
102
RTVSPropertyOp22
 70
     1
102
RTVSPropertyOp23
 70
     1
102
RTVSPropertyOp24
 70
     1
102
RTVSPropertyOp25
 70
     1
102
RTVSPropertyOp26
 70
     1
102
RTVSPropertyOp27
 70
     1
102
RTVSPropertyOp28
 70
     1
102
RTVSPropertyOp29
 70
     1
102
RTVSPropertyOp30
 70
     1
102
RTVSPropertyOp31
 70
     1
102
RTVSPropertyOp32
 70
     1
102
RTVSPropertyOp33
 70
     1
102
RTVSPropertyOp34
 70
     1
102
RTVSPropertyOp35
 70
     1
102
RTVSPropertyOp36
 70
     1
102
RTVSPropertyOp37
 70
     1
102
RTVSPropertyOp38
 70
     1
102
RTVSPropertyOp39
 70
     1
102
RTVSPropertyOp40
 70
     1
102
RTVSPropertyOp41
 70
     1
102
RTVSPropertyOp42
 70
     1
102
RTVSPropertyOp43
 70
     1
102
RTVSPropertyOp44
 70
     1
102
RTVSPropertyOp45
 70
     1
102
RTVSPropertyOp46
 70
     1
102
RTVSPropertyOp47
 70
     1
102
RTVSPropertyOp48
 70
     1
102
RTVSPropertyOp49
 70
     1
102
RTVSPropertyOp50
 70
     1
102
RTVSPropertyOp51
 70
     0
102
RTVSPropertyOp52
 70
     0
102
RTVSPropertyOp53
 70
     1
102
RTVSPropertyOp54
 70
     1
102
RTVSPropertyOp55
 70
     1
102
RTVSPropertyOp56
 70
     1
102
RTVSPropertyOp57
 70
     1
102
RTVSPost2010Prop28
280
     0
102
RTVSPost2010PropOp28
 70
     1
102
RTVSPost2010Prop29
280
     1
102
RTVSPost2010PropOp29
 70
     1
102
RTVSPost2010Prop30
280
     1
102
RTVSPost2010PropOp30
 70
     1
102
RTVSPost2010Prop31
280
     0
102
RTVSPost2010PropOp31
 70
     1
102
RTVSPost2010Prop32
280
     0
102
RTVSPost2010PropOp32
 70
     1
102
RTVSPost2010Prop33
280
     0
102
RTVSPost2010PropOp33
 70
     1
102
RTVSPost2010Prop34
280
     0
102
RTVSPost2010PropOp34
 70
     1
102
RTVSPost2010Prop35
280
     0
102
RTVSPost2010PropOp35
 70
     1
102
RTVSPost2010Prop36
280
     0
102
RTVSPost2010PropOp36
 70
     1
102
RTVSPost2010Prop37
 90
       50
102
RTVSPost2010PropOp37
 70
     1
102
RTVSPost2010Prop38
140
0.0
102
RTVSPost2010PropOp38
 70
     1
102
RTVSPost2010Prop39
140
1.0
102
RTVSPost2010PropOp39
 70
     1
102
RTVSPost2010Prop40
 90
        0
102
RTVSPost2010PropOp40
 70
     1
102
RTVSPost2010Prop41ColorIndex
 90
       18
102
RTVSPost2010Prop41ColorRGB
 90
        0
102
RTVSPost2010PropOp41
 70
     1
102
RTVSPost2010Prop42
 90
       50
102
RTVSPost2010PropOp42
 70
     1
102
RTVSPost2010Prop43
 90
        3
102
RTVSPost2010PropOp43
 70
     1
102
RTVSPost2010Prop44ColorIndex
 90
        5
102
RTVSPost2010Prop44ColorRGB
 90
      255
102
RTVSPost2010PropOp44
 70
     1
102
RTVSPost2010Prop45
280
     0
102
RTVSPost2010PropOp45
 70
     1
102
RTVSPost2010Prop46
 90
       50
102
RTVSPost2010PropOp46
 70
     1
102
RTVSPost2010Prop47
 90
       50
102
RTVSPost2010PropOp47
 70
     1
102
RTVSPost2010Prop48
 90
       50
102
RTVSPost2010PropOp48
 70
     1
102
RTVSPost2010Prop49
280
     0
102
RTVSPost2010PropOp49
 70
     1
102
RTVSPost2010Prop50
 90
       50
102
RTVSPost2010PropOp50
 70
     1
102
RTVSPost2010Prop51ColorIndex
 90
      256
102
RTVSPost2010Prop51ColorRGB
 90
-16777216
102
RTVSPost2010PropOp51
 70
     0
102
RTVSPost2010Prop52
140
1.0
102
RTVSPost2010PropOp52
 70
     0
102
RTVSPost2010Prop53
 90
        2
102
RTVSPost2010PropOp53
 70
     1
102
RTVSPost2010Prop54
  1
strokes_ogs.tif
102
RTVSPost2010PropOp54
 70
     1
102
RTVSPost2010Prop55
280
     0
102
RTVSPost2010PropOp55
 70
     1
102
RTVSPost2010Prop56
140
1.0
102
RTVSPost2010PropOp56
 70
     1
102
RTVSPost2010Prop57
140
1.0
102
RTVSPost2010PropOp57
 70
     1
  0
XRECORD
  5
3C0
102
{ACAD_REACTORS
330
3BF
102
}
330
3BF
100
AcDbXrecord
280
     1
102
RTVSPropertyOp0
 70
     1
102
RTVSPropertyOp1
 70
     1
102
RTVSPropertyOp2
 70
     1
102
RTVSPropertyOp3
 70
     1
102
RTVSPropertyOp4
 70
     1
102
RTVSPropertyOp5
 70
     1
102
RTVSPropertyOp6
 70
     1
102
RTVSPropertyOp7
 70
     1
102
RTVSPropertyOp8
 70
     1
102
RTVSPropertyOp9
 70
     1
102
RTVSPropertyOp10
 70
     1
102
RTVSPropertyOp11
 70
     1
102
RTVSPropertyOp12
 70
     1
102
RTVSPropertyOp13
 70
     1
102
RTVSPropertyOp14
 70
     1
102
RTVSPropertyOp15
 70
     1
102
RTVSPropertyOp16
 70
     1
102
RTVSPropertyOp17
 70
     1
102
RTVSPropertyOp18
 70
     1
102
RTVSPropertyOp19
 70
     1
102
RTVSPropertyOp20
 70
     1
102
RTVSPropertyOp21
 70
     1
102
RTVSPropertyOp22
 70
     1
102
RTVSPropertyOp23
 70
     1
102
RTVSPropertyOp24
 70
     1
102
RTVSPropertyOp25
 70
     1
102
RTVSPropertyOp26
 70
     1
102
RTVSPropertyOp27
 70
     1
102
RTVSPropertyOp28
 70
     1
102
RTVSPropertyOp29
 70
     1
102
RTVSPropertyOp30
 70
     1
102
RTVSPropertyOp31
 70
     1
102
RTVSPropertyOp32
 70
     1
102
RTVSPropertyOp33
 70
     1
102
RTVSPropertyOp34
 70
     1
102
RTVSPropertyOp35
 70
     1
102
RTVSPropertyOp36
 70
     1
102
RTVSPropertyOp37
 70
     1
102
RTVSPropertyOp38
 70
     1
102
RTVSPropertyOp39
 70
     1
102
RTVSPropertyOp40
 70
     1
102
RTVSPropertyOp41
 70
     1
102
RTVSPropertyOp42
 70
     1
102
RTVSPropertyOp43
 70
     1
102
RTVSPropertyOp44
 70
     1
102
RTVSPropertyOp45
 70
     1
102
RTVSPropertyOp46
 70
     1
102
RTVSPropertyOp47
 70
     1
102
RTVSPropertyOp48
 70
     1
102
RTVSPropertyOp49
 70
     1
102
RTVSPropertyOp50
 70
     1
102
RTVSPropertyOp51
 70
     0
102
RTVSPropertyOp52
 70
     0
102
RTVSPropertyOp53
 70
     1
102
RTVSPropertyOp54
 70
     1
102
RTVSPropertyOp55
 70
     1
102
RTVSPropertyOp56
 70
     1
102
RTVSPropertyOp57
 70
     1
102
RTVSPost2010Prop28
280
     0
102
RTVSPost2010PropOp28
 70
     1
102
RTVSPost2010Prop29
280
     1
102
RTVSPost2010PropOp29
 70
     1
102
RTVSPost2010Prop30
280
     1
102
RTVSPost2010PropOp30
 70
     1
102
RTVSPost2010Prop31
280
     0
102
RTVSPost2010PropOp31
 70
     1
102
RTVSPost2010Prop32
280
     0
102
RTVSPost2010PropOp32
 70
     1
102
RTVSPost2010Prop33
280
     0
102
RTVSPost2010PropOp33
 70
     1
102
RTVSPost2010Prop34
280
     0
102
RTVSPost2010PropOp34
 70
     1
102
RTVSPost2010Prop35
280
     0
102
RTVSPost2010PropOp35
 70
     1
102
RTVSPost2010Prop36
280
     0
102
RTVSPost2010PropOp36
 70
     1
102
RTVSPost2010Prop37
 90
       50
102
RTVSPost2010PropOp37
 70
     1
102
RTVSPost2010Prop38
140
0.0
102
RTVSPost2010PropOp38
 70
     1
102
RTVSPost2010Prop39
140
1.0
102
RTVSPost2010PropOp39
 70
     1
102
RTVSPost2010Prop40
 90
        0
102
RTVSPost2010PropOp40
 70
     1
102
RTVSPost2010Prop41ColorIndex
 90
       18
102
RTVSPost2010Prop41ColorRGB
 90
        0
102
RTVSPost2010PropOp41
 70
     1
102
RTVSPost2010Prop42
 90
       50
102
RTVSPost2010PropOp42
 70
     1
102
RTVSPost2010Prop43
 90
        3
102
RTVSPost2010PropOp43
 70
     1
102
RTVSPost2010Prop44ColorIndex
 90
        5
102
RTVSPost2010Prop44ColorRGB
 90
      255
102
RTVSPost2010PropOp44
 70
     1
102
RTVSPost2010Prop45
280
     0
102
RTVSPost2010PropOp45
 70
     1
102
RTVSPost2010Prop46
 90
       50
102
RTVSPost2010PropOp46
 70
     1
102
RTVSPost2010Prop47
 90
       50
102
RTVSPost2010PropOp47
 70
     1
102
RTVSPost2010Prop48
 90
       50
102
RTVSPost2010PropOp48
 70
     1
102
RTVSPost2010Prop49
280
     0
102
RTVSPost2010PropOp49
 70
     1
102
RTVSPost2010Prop50
 90
       50
102
RTVSPost2010PropOp50
 70
     1
102
RTVSPost2010Prop51ColorIndex
 90
      256
102
RTVSPost2010Prop51ColorRGB
 90
-16777216
102
RTVSPost2010PropOp51
 70
     0
102
RTVSPost2010Prop52
140
1.0
102
RTVSPost2010PropOp52
 70
     0
102
RTVSPost2010Prop53
 90
        2
102
RTVSPost2010PropOp53
 70
     1
102
RTVSPost2010Prop54
  1
strokes_ogs.tif
102
RTVSPost2010PropOp54
 70
     1
102
RTVSPost2010Prop55
280
     0
102
RTVSPost2010PropOp55
 70
     1
102
RTVSPost2010Prop56
140
1.0
102
RTVSPost2010PropOp56
 70
     1
102
RTVSPost2010Prop57
140
1.0
102
RTVSPost2010PropOp57
 70
     1
  0
ENDSEC
  0
EOF
