  0
SECTION
  2
HEADER
  9
$ACADVER
  1
AC1018
  9
$ACADMAINTVER
 70
     0
  9
$DWGCODEPAGE
  3
ANSI_932
  9
$INSBASE
 10
0.0
 20
0.0
 30
0.0
  9
$EXTMIN
 10
-630.0
 20
-445.5
 30
0.0
  9
$EXTMAX
 10
630.0
 20
445.5
 30
0.0
  9
$LIMMIN
 10
-630.0
 20
-445.5
  9
$LIMMAX
 10
630.0
 20
445.5
  9
$ORTHOMODE
 70
     0
  9
$REGENMODE
 70
     1
  9
$FILLMODE
 70
     1
  9
$QTEXTMODE
 70
     0
  9
$MIRRTEXT
 70
     1
  9
$LTSCALE
 40
3.0
  9
$ATTMODE
 70
     1
  9
$TEXTSIZE
 40
2.5
  9
$TRACEWID
 40
1.0
  9
$TEXTSTYLE
  7
Standard
  9
$CLAYER
  8
0
  9
$CELTYPE
  6
ByLayer
  9
$CECOLOR
 62
   256
  9
$CELTSCALE
 40
1.0
  9
$DISPSILH
 70
     0
  9
$DIMSCALE
 40
1.0
  9
$DIMASZ
 40
2.5
  9
$DIMEXO
 40
0.625
  9
$DIMDLI
 40
3.75
  9
$DIMRND
 40
0.0
  9
$DIMDLE
 40
0.0
  9
$DIMEXE
 40
1.25
  9
$DIMTP
 40
0.0
  9
$DIMTM
 40
0.0
  9
$DIMTXT
 40
2.5
  9
$DIMCEN
 40
2.5
  9
$DIMTSZ
 40
0.0
  9
$DIMTOL
 70
     0
  9
$DIMLIM
 70
     0
  9
$DIMTIH
 70
     0
  9
$DIMTOH
 70
     0
  9
$DIMSE1
 70
     0
  9
$DIMSE2
 70
     0
  9
$DIMTAD
 70
     1
  9
$DIMZIN
 70
     8
  9
$DIMBLK
  1

  9
$DIMASO
 70
     1
  9
$DIMSHO
 70
     1
  9
$DIMPOST
  1

  9
$DIMAPOST
  1

  9
$DIMALT
 70
     0
  9
$DIMALTD
 70
     3
  9
$DIMALTF
 40
0.03937007874016
  9
$DIMLFAC
 40
1.0
  9
$DIMTOFL
 70
     1
  9
$DIMTVP
 40
0.0
  9
$DIMTIX
 70
     0
  9
$DIMSOXD
 70
     0
  9
$DIMSAH
 70
     0
  9
$DIMBLK1
  1

  9
$DIMBLK2
  1

  9
$DIMSTYLE
  2
ISO-25
  9
$DIMCLRD
 70
     0
  9
$DIMCLRE
 70
     0
  9
$DIMCLRT
 70
     0
  9
$DIMTFAC
 40
1.0
  9
$DIMGAP
 40
0.625
  9
$DIMJUST
 70
     0
  9
$DIMSD1
 70
     0
  9
$DIMSD2
 70
     0
  9
$DIMTOLJ
 70
     0
  9
$DIMTZIN
 70
     8
  9
$DIMALTZ
 70
     0
  9
$DIMALTTZ
 70
     0
  9
$DIMUPT
 70
     0
  9
$DIMDEC
 70
     2
  9
$DIMTDEC
 70
     2
  9
$DIMALTU
 70
     2
  9
$DIMALTTD
 70
     3
  9
$DIMTXSTY
  7
Standard
  9
$DIMAUNIT
 70
     0
  9
$DIMADEC
 70
     0
  9
$DIMALTRND
 40
0.0
  9
$DIMAZIN
 70
     0
  9
$DIMDSEP
 70
    44
  9
$DIMATFIT
 70
     3
  9
$DIMFRAC
 70
     0
  9
$DIMLDRBLK
  1

  9
$DIMLUNIT
 70
     2
  9
$DIMLWD
 70
    -2
  9
$DIMLWE
 70
    -2
  9
$DIMTMOVE
 70
     0
  9
$LUNITS
 70
     2
  9
$LUPREC
 70
     4
  9
$SKETCHINC
 40
1.0
  9
$FILLETRAD
 40
10.0
  9
$AUNITS
 70
     0
  9
$AUPREC
 70
     0
  9
$MENU
  1
.
  9
$ELEVATION
 40
0.0
  9
$PELEVATION
 40
0.0
  9
$THICKNESS
 40
0.0
  9
$LIMCHECK
 70
     0
  9
$CHAMFERA
 40
0.0
  9
$CHAMFERB
 40
0.0
  9
$CHAMFERC
 40
0.0
  9
$CHAMFERD
 40
0.0
  9
$SKPOLY
 70
     0
  9
$TDCREATE
 40
2460952.46748147
  9
$TDUCREATE
 40
2460952.09248147
  9
$TDUPDATE
 40
2460952.467486239
  9
$TDUUPDATE
 40
2460952.092486239
  9
$TDINDWG
 40
0.0000000116
  9
$TDUSRTIMER
 40
0.0000000116
  9
$USRTIMER
 70
     1
  9
$ANGBASE
 50
0.0
  9
$ANGDIR
 70
     0
  9
$PDMODE
 70
     0
  9
$PDSIZE
 40
0.0
  9
$PLINEWID
 40
0.0
  9
$SPLFRAME
 70
     0
  9
$SPLINETYPE
 70
     6
  9
$SPLINESEGS
 70
     8
  9
$HANDSEED
  5
374
  9
$SURFTAB1
 70
     6
  9
$SURFTAB2
 70
     6
  9
$SURFTYPE
 70
     6
  9
$SURFU
 70
     6
  9
$SURFV
 70
     6
  9
$UCSBASE
  2

  9
$UCSNAME
  2

  9
$UCSORG
 10
0.0
 20
0.0
 30
0.0
  9
$UCSXDIR
 10
1.0
 20
0.0
 30
0.0
  9
$UCSYDIR
 10
0.0
 20
1.0
 30
0.0
  9
$UCSORTHOREF
  2

  9
$UCSORTHOVIEW
 70
     0
  9
$UCSORGTOP
 10
0.0
 20
0.0
 30
0.0
  9
$UCSORGBOTTOM
 10
0.0
 20
0.0
 30
0.0
  9
$UCSORGLEFT
 10
0.0
 20
0.0
 30
0.0
  9
$UCSORGRIGHT
 10
0.0
 20
0.0
 30
0.0
  9
$UCSORGFRONT
 10
0.0
 20
0.0
 30
0.0
  9
$UCSORGBACK
 10
0.0
 20
0.0
 30
0.0
  9
$PUCSBASE
  2

  9
$PUCSNAME
  2

  9
$PUCSORG
 10
0.0
 20
0.0
 30
0.0
  9
$PUCSXDIR
 10
1.0
 20
0.0
 30
0.0
  9
$PUCSYDIR
 10
0.0
 20
1.0
 30
0.0
  9
$PUCSORTHOREF
  2

  9
$PUCSORTHOVIEW
 70
     0
  9
$PUCSORGTOP
 10
0.0
 20
0.0
 30
0.0
  9
$PUCSORGBOTTOM
 10
0.0
 20
0.0
 30
0.0
  9
$PUCSORGLEFT
 10
0.0
 20
0.0
 30
0.0
  9
$PUCSORGRIGHT
 10
0.0
 20
0.0
 30
0.0
  9
$PUCSORGFRONT
 10
0.0
 20
0.0
 30
0.0
  9
$PUCSORGBACK
 10
0.0
 20
0.0
 30
0.0
  9
$USERI1
 70
     0
  9
$USERI2
 70
     0
  9
$USERI3
 70
     0
  9
$USERI4
 70
     0
  9
$USERI5
 70
     0
  9
$USERR1
 40
0.0
  9
$USERR2
 40
0.0
  9
$USERR3
 40
0.0
  9
$USERR4
 40
0.0
  9
$USERR5
 40
0.0
  9
$WORLDVIEW
 70
     1
  9
$SHADEDGE
 70
     3
  9
$SHADEDIF
 70
    70
  9
$TILEMODE
 70
     1
  9
$MAXACTVP
 70
    64
  9
$PINSBASE
 10
0.0
 20
0.0
 30
0.0
  9
$PLIMCHECK
 70
     0
  9
$PEXTMIN
 10
1.000000000000000E+20
 20
1.000000000000000E+20
 30
1.000000000000000E+20
  9
$PEXTMAX
 10
-1.000000000000000E+20
 20
-1.000000000000000E+20
 30
-1.000000000000000E+20
  9
$PLIMMIN
 10
0.0
 20
0.0
  9
$PLIMMAX
 10
420.0
 20
297.0
  9
$UNITMODE
 70
     0
  9
$VISRETAIN
 70
     1
  9
$PLINEGEN
 70
     0
  9
$PSLTSCALE
 70
     1
  9
$TREEDEPTH
 70
  3020
  9
$CMLSTYLE
  2
Standard
  9
$CMLJUST
 70
     0
  9
$CMLSCALE
 40
20.0
  9
$PROXYGRAPHICS
 70
     1
  9
$MEASUREMENT
 70
     1
  9
$CELWEIGHT
370
    -1
  9
$ENDCAPS
280
     0
  9
$JOINSTYLE
280
     0
  9
$LWDISPLAY
290
     0
  9
$INSUNITS
 70
     4
  9
$HYPERLINKBASE
  1

  9
$STYLESHEET
  1

  9
$XEDIT
290
     1
  9
$CEPSNTYPE
380
     0
  9
$PSTYLEMODE
290
     1
  9
$FINGERPRINTGUID
  2
{587D7716-247F-47BE-AE2B-83106B70C006}
  9
$VERSIONGUID
  2
{FAEB1C32-E019-11D5-929B-00C0DF256EC4}
  9
$EXTNAMES
290
     1
  9
$PSVPSCALE
 40
0.0
  9
$OLESTARTUP
290
     0
  9
$SORTENTS
280
   127
  9
$INDEXCTL
280
     0
  9
$HIDETEXT
280
     1
  9
$XCLIPFRAME
290
     0
  9
$HALOGAP
280
     0
  9
$OBSCOLOR
 70
   257
  9
$OBSLTYPE
280
     0
  9
$INTERSECTIONDISPLAY
280
     0
  9
$INTERSECTIONCOLOR
 70
   257
  9
$DIMASSOC
280
     2
  9
$PROJECTNAME
  1

  0
ENDSEC
  0
SECTION
  2
CLASSES
  0
CLASS
  1
ACDBDICTIONARYWDFLT
  2
AcDbDictionaryWithDefault
  3
ObjectDBX Classes
 90
        0
 91
        4
280
     0
281
     0
  0
CLASS
  1
VISUALSTYLE
  2
AcDbVisualStyle
  3
ObjectDBX Classes
 90
     4095
 91
        4
280
     0
281
     0
  0
CLASS
  1
MATERIAL
  2
AcDbMaterial
  3
ObjectDBX Classes
 90
     1153
 91
        4
280
     0
281
     0
  0
CLASS
  1
SCALE
  2
AcDbScale
  3
ObjectDBX Classes
 90
     1153
 91
        4
280
     0
281
     0
  0
CLASS
  1
TABLESTYLE
  2
AcDbTableStyle
  3
ObjectDBX Classes
 90
     4095
 91
        4
280
     0
281
     0
  0
CLASS
  1
MLEADERSTYLE
  2
AcDbMLeaderStyle
  3
ACDB_MLEADERSTYLE_CLASS
 90
     4095
 91
        4
280
     0
281
     0
  0
CLASS
  1
SUN
  2
AcDbSun
  3
SCENEOE
 90
     1153
 91
        4
280
     0
281
     0
  0
CLASS
  1
DICTIONARYVAR
  2
AcDbDictionaryVar
  3
ObjectDBX Classes
 90
        0
 91
        4
280
     0
281
     0
  0
CLASS
  1
CELLSTYLEMAP
  2
AcDbCellStyleMap
  3
ObjectDBX Classes
 90
     1152
 91
        4
280
     0
281
     0
  0
ENDSEC
  0
SECTION
  2
TABLES
  0
TABLE
  2
VPORT
  5
8
102
{ACAD_XDICTIONARY
360
32B
102
}
330
0
100
AcDbSymbolTable
 70
     1
  0
VPORT
  5
29
330
8
100
AcDbSymbolTableRecord
100
AcDbViewportTableRecord
  2
*Active
 70
     0
 10
0.0
 20
0.0
 11
1.0
 21
1.0
 12
0.0
 22
0.0
 13
0.0
 23
0.0
 14
10.0
 24
10.0
 15
10.0
 25
10.0
 16
0.0
 26
0.0
 36
1.0
 17
0.0
 27
0.0
 37
0.0
 40
980.1
 41
1.414141414141414
 42
50.0
 43
0.0
 44
0.0
 50
0.0
 51
0.0
 71
     0
 72
 10000
 73
     1
 74
     3
 75
     0
 76
     0
 77
     0
 78
     0
281
     0
 65
     1
110
0.0
120
0.0
130
0.0
111
1.0
121
0.0
131
0.0
112
0.0
122
1.0
132
0.0
 79
     0
146
0.0
  0
ENDTAB
  0
TABLE
  2
LTYPE
  5
5
330
0
100
AcDbSymbolTable
 70
     4
  0
LTYPE
  5
14
330
5
100
AcDbSymbolTableRecord
100
AcDbLinetypeTableRecord
  2
ByBlock
 70
     0
  3

 72
    65
 73
     0
 40
0.0
  0
LTYPE
  5
15
330
5
100
AcDbSymbolTableRecord
100
AcDbLinetypeTableRecord
  2
ByLayer
 70
     0
  3

 72
    65
 73
     0
 40
0.0
  0
LTYPE
  5
16
330
5
100
AcDbSymbolTableRecord
100
AcDbLinetypeTableRecord
  2
Continuous
 70
     0
  3
Solid line
 72
    65
 73
     0
 40
0.0
  0
LTYPE
  5
6F
330
5
100
AcDbSymbolTableRecord
100
AcDbLinetypeTableRecord
  2
JWW_DASHED1
 70
     0
  3
-  --  --  --  --  --  --  --  -
 72
    65
 73
     2
 40
1.693333333333333
 49
0.8466666666666667
 74
     0
 49
-0.8466666666666667
 74
     0
  0
LTYPE
  5
70
330
5
100
AcDbSymbolTableRecord
100
AcDbLinetypeTableRecord
  2
JWW_CENTER1
 70
     0
  3
-----  --  ----------  --  -----
 72
    65
 73
     4
 40
6.773333333333333
 49
4.233333333333333
 74
     0
 49
-0.8466666666666667
 74
     0
 49
0.8466666666666667
 74
     0
 49
-0.8466666666666667
 74
     0
  0
LTYPE
  5
71
330
5
100
AcDbSymbolTableRecord
100
AcDbLinetypeTableRecord
  2
JWW_PHANTOM1
 70
     0
  3
----  -  -  --------  -  -  ----
 72
    65
 73
     6
 40
6.773333333333333
 49
3.386666666666667
 74
     0
 49
-0.8466666666666667
 74
     0
 49
0.4233333333333333
 74
     0
 49
-0.8466666666666667
 74
     0
 49
0.4233333333333333
 74
     0
 49
-0.8466666666666667
 74
     0
  0
ENDTAB
  0
TABLE
  2
LAYER
  5
2
330
0
100
AcDbSymbolTable
 70
    10
  0
LAYER
  5
10
330
2
100
AcDbSymbolTableRecord
100
AcDbLayerTableRecord
  2
0
 70
     0
 62
     7
  6
Continuous
370
    -3
390
F
  0
LAYER
  5
72
330
2
100
AcDbSymbolTableRecord
100
AcDbLayerTableRecord
  2
F-5ﾚｲﾔ
 70
     0
 62
     7
  6
Continuous
370
    -3
390
F
  0
LAYER
  5
73
330
2
100
AcDbSymbolTableRecord
100
AcDbLayerTableRecord
  2
0-1_ピット
 70
     0
 62
     7
  6
Continuous
370
    -3
390
F
  0
LAYER
  5
74
330
2
100
AcDbSymbolTableRecord
100
AcDbLayerTableRecord
  2
0-2_本体（蓋）
 70
     0
 62
     7
  6
Continuous
370
    -3
390
F
  0
LAYER
  5
75
330
2
100
AcDbSymbolTableRecord
100
AcDbLayerTableRecord
  2
0-0_通り芯
 70
     0
 62
     7
  6
Continuous
370
    -3
390
F
  0
LAYER
  5
76
330
2
100
AcDbSymbolTableRecord
100
AcDbLayerTableRecord
  2
0-6
 70
     0
 62
     7
  6
Continuous
370
    -3
390
F
  0
LAYER
  5
77
330
2
100
AcDbSymbolTableRecord
100
AcDbLayerTableRecord
  2
0-4_寸法
 70
     0
 62
     7
  6
Continuous
370
    -3
390
F
  0
LAYER
  5
78
330
2
100
AcDbSymbolTableRecord
100
AcDbLayerTableRecord
  2
0-5_文字
 70
     0
 62
     7
  6
Continuous
370
    -3
390
F
  0
LAYER
  5
79
330
2
100
AcDbSymbolTableRecord
100
AcDbLayerTableRecord
  2
F-4ﾚｲﾔ
 70
     0
 62
     7
  6
Continuous
370
    -3
390
F
  0
LAYER
  5
7A
330
2
100
AcDbSymbolTableRecord
100
AcDbLayerTableRecord
  2
F-0ﾚｲﾔ
 70
     0
 62
     7
  6
Continuous
370
    -3
390
F
  0
ENDTAB
  0
TABLE
  2
STYLE
  5
3
330
0
100
AcDbSymbolTable
 70
     2
  0
STYLE
  5
11
330
3
100
AcDbSymbolTableRecord
100
AcDbTextStyleTableRecord
  2
Standard
 70
     0
 40
0.0
 41
1.0
 50
0.0
 71
     0
 42
2.5
  3
txt
  4

  0
STYLE
  5
6E
330
3
100
AcDbSymbolTableRecord
100
AcDbTextStyleTableRecord
  2
ＭＳ ゴシック
 70
     0
 40
1.0
 41
1.0
 50
0.0
 71
     0
 42
2.5
  3

  4

1001
ACAD
1000
MS Gothic
1071
    32817
  0
ENDTAB
  0
TABLE
  2
VIEW
  5
6
330
0
100
AcDbSymbolTable
 70
     0
  0
ENDTAB
  0
TABLE
  2
UCS
  5
7
330
0
100
AcDbSymbolTable
 70
     0
  0
ENDTAB
  0
TABLE
  2
APPID
  5
9
330
0
100
AcDbSymbolTable
 70
     2
  0
APPID
  5
12
330
9
100
AcDbSymbolTableRecord
100
AcDbRegAppTableRecord
  2
ACAD
 70
     0
  0
APPID
  5
36A
330
9
100
AcDbSymbolTableRecord
100
AcDbRegAppTableRecord
  2
ACAD_MLEADERVER
 70
     0
  0
ENDTAB
  0
TABLE
  2
DIMSTYLE
  5
A
330
0
100
AcDbSymbolTable
 70
     1
100
AcDbDimStyleTable
  0
DIMSTYLE
105
27
330
A
100
AcDbSymbolTableRecord
100
AcDbDimStyleTableRecord
  2
ISO-25
 70
     0
 41
2.5
 42
0.625
 43
3.75
 44
1.25
 73
     0
 74
     0
 77
     1
 78
     8
140
2.5
141
2.5
143
0.03937007874016
147
0.625
171
     3
172
     1
178
     0
271
     2
272
     2
274
     3
278
    44
283
     0
284
     8
340
11
  0
ENDTAB
  0
TABLE
  2
BLOCK_RECORD
  5
1
330
0
100
AcDbSymbolTable
 70
     1
  0
BLOCK_RECORD
  5
1F
330
1
100
AcDbSymbolTableRecord
100
AcDbBlockTableRecord
  2
*Model_Space
340
22
  0
BLOCK_RECORD
  5
1B
330
1
100
AcDbSymbolTableRecord
100
AcDbBlockTableRecord
  2
*Paper_Space
340
1E
  0
BLOCK_RECORD
  5
23
330
1
100
AcDbSymbolTableRecord
100
AcDbBlockTableRecord
  2
*Paper_Space0
340
26
  0
ENDTAB
  0
ENDSEC
  0
SECTION
  2
BLOCKS
  0
BLOCK
  5
20
330
1F
100
AcDbEntity
  8
0
100
AcDbBlockBegin
  2
*Model_Space
 70
     0
 10
0.0
 20
0.0
 30
0.0
  3
*Model_Space
  1

  0
ENDBLK
  5
21
330
1F
100
AcDbEntity
  8
0
100
AcDbBlockEnd
  0
BLOCK
  5
1C
330
1B
100
AcDbEntity
 67
     1
  8
0
100
AcDbBlockBegin
  2
*Paper_Space
 70
     0
 10
0.0
 20
0.0
 30
0.0
  3
*Paper_Space
  1

  0
ENDBLK
  5
1D
330
1B
100
AcDbEntity
 67
     1
  8
0
100
AcDbBlockEnd
  0
BLOCK
  5
24
330
23
100
AcDbEntity
  8
0
100
AcDbBlockBegin
  2
*Paper_Space0
 70
     0
 10
0.0
 20
0.0
 30
0.0
  3
*Paper_Space0
  1

  0
ENDBLK
  5
25
330
23
100
AcDbEntity
  8
0
100
AcDbBlockEnd
  0
ENDSEC
  0
SECTION
  2
ENTITIES
  0
TEXT
  5
7B
330
1F
100
AcDbEntity
  8
F-5ﾚｲﾔ
  6
Continuous
 62
     6
370
     5
100
AcDbText
 10
-34.89428178378068
 20
-230.4482760336902
 30
0.0
 40
9.144
  1
注）ボルト長さの適用防水層の厚さは、次の通りです。
 41
0.7979999999999996
  7
ＭＳ ゴシック
100
AcDbText
  0
TEXT
  5
7C
330
1F
100
AcDbEntity
  8
F-5ﾚｲﾔ
  6
Continuous
 62
     6
370
     5
100
AcDbText
 10
51.50573726908567
 20
-260.4483007776725
 30
0.0
 40
9.144
  1
防水用の防水層厚さ＝３ｍｍ以下
 41
0.7966666666666662
  7
ＭＳ ゴシック
100
AcDbText
  0
TEXT
  5
7D
330
1F
100
AcDbEntity
  8
F-5ﾚｲﾔ
  6
Continuous
 62
     6
370
     5
100
AcDbText
 10
-34.89426792715062
 20
-275.4483131496636
 30
0.0
 40
9.144
  1
　上記以外の場合は、防水層の厚さを御指示下さい。
 41
0.7979166666666663
  7
ＭＳ ゴシック
100
AcDbText
  0
TEXT
  5
7E
330
1F
100
AcDbEntity
  8
F-5ﾚｲﾔ
  6
Continuous
 62
     6
370
     5
100
AcDbText
 10
-6.094254812840063
 20
-260.4483007776725
 30
0.0
 40
9.144
  1
シート・・
 41
0.7900000000000003
  7
ＭＳ ゴシック
100
AcDbText
  0
TEXT
  5
7F
330
1F
100
AcDbEntity
  8
F-5ﾚｲﾔ
  6
Continuous
 62
     6
370
     5
100
AcDbText
 10
-34.89425852443735
 20
-245.4482884056814
 30
0.0
 40
9.144
  1
　　　アスファルト防水用の防水層厚さ＝１０～１２ｍｍ
 41
0.7980769230769229
  7
ＭＳ ゴシック
100
AcDbText
  0
LINE
  5
80
330
1F
100
AcDbEntity
  8
0-1_ピット
  6
Continuous
 62
     2
370
     9
100
AcDbLine
 10
-86.79718224224327
 20
333.7910381597849
 30
0.0
 11
-88.92470695323354
 21
335.9185978658359
 31
0.0
  0
LINE
  5
81
330
1F
100
AcDbEntity
  8
0-1_ピット
  6
Continuous
 62
     2
370
     9
100
AcDbLine
 10
-84.74571929553187
 20
333.8609582909233
 30
0.0
 11
-88.64089701152562
 21
337.7561185093867
 31
0.0
  0
LINE
  5
82
330
1F
100
AcDbEntity
  8
0-1_ピット
  6
Continuous
 62
     2
370
     9
100
AcDbLine
 10
-99.67564451450431
 20
311.4848015686667
 30
0.0
 11
-102.5819842998114
 21
312.2635466528623
 31
0.0
  0
LINE
  5
83
330
1F
100
AcDbEntity
  8
0-1_ピット
  6
Continuous
 62
     2
370
     9
100
AcDbLine
 10
-98.71048074233376
 20
309.6732472601032
 30
0.0
 11
-104.0313572283866
 21
311.0989810252229
 31
0.0
  0
LINE
  5
84
330
1F
100
AcDbEntity
  8
0-1_ピット
  6
Continuous
 62
     2
370
     9
100
AcDbLine
 10
-104.0313572283866
 20
311.0989810252229
 30
0.0
 11
-102.5819842998114
 21
312.2635466528623
 31
0.0
  0
LINE
  5
85
330
1F
100
AcDbEntity
  8
0-1_ピット
  6
Continuous
 62
     2
370
     9
100
AcDbLine
 10
-99.67564451450431
 20
311.4848015686667
 30
0.0
 11
-98.71048074233376
 21
309.6732472601032
 31
0.0
  0
LINE
  5
86
330
1F
100
AcDbEntity
  8
0-1_ピット
  6
Continuous
 62
     2
370
     9
100
AcDbLine
 10
-86.79718224224327
 20
333.7910381597849
 30
0.0
 11
-84.74571929553187
 21
333.8609582909233
 31
0.0
  0
LINE
  5
87
330
1F
100
AcDbEntity
  8
0-1_ピット
  6
Continuous
 62
     2
370
     9
100
AcDbLine
 10
-88.64089701152562
 20
337.7561185093867
 30
0.0
 11
-88.92470695323354
 21
335.9185978658359
 31
0.0
  0
LINE
  5
88
330
1F
100
AcDbEntity
  8
0-1_ピット
  6
Continuous
 62
     2
370
     9
100
AcDbLine
 10
-56.71273350517609
 20
354.4477825681162
 30
0.0
 11
-57.49142609678068
 21
357.3540173682414
 31
0.0
  0
LINE
  5
89
330
1F
100
AcDbEntity
  8
0-1_ピット
  6
Continuous
 62
     2
370
     9
100
AcDbLine
 10
-54.9011791966125
 20
353.4826187959457
 30
0.0
 11
-56.32687796667162
 21
358.8034427894075
 31
0.0
  0
LINE
  5
8A
330
1F
100
AcDbEntity
  8
0-1_ピット
  6
Continuous
 62
     2
370
     9
100
AcDbLine
 10
-79.01898759382459
 20
341.5693202958552
 30
0.0
 11
-81.14651230481488
 21
343.6967750167242
 31
0.0
  0
LINE
  5
8B
330
1F
100
AcDbEntity
  8
0-1_ピット
  6
Continuous
 62
     2
370
     9
100
AcDbLine
 10
-79.08883773484172
 20
339.5178223540831
 30
0.0
 11
-82.98401545083547
 21
343.4130000700769
 31
0.0
  0
LINE
  5
8C
330
1F
100
AcDbEntity
  8
0-1_ピット
  6
Continuous
 62
     2
370
     9
100
AcDbLine
 10
-82.98401545083547
 20
343.4130000700769
 30
0.0
 11
-81.14651230481488
 21
343.6967750167242
 31
0.0
  0
LINE
  5
8D
330
1F
100
AcDbEntity
  8
0-1_ピット
  6
Continuous
 62
     2
370
     9
100
AcDbLine
 10
-79.01898759382459
 20
341.5693202958552
 30
0.0
 11
-79.08883773484172
 21
339.5178223540831
 31
0.0
  0
LINE
  5
8E
330
1F
100
AcDbEntity
  8
0-1_ピット
  6
Continuous
 62
     2
370
     9
100
AcDbLine
 10
-56.71273350517609
 20
354.4477825681162
 30
0.0
 11
-54.9011791966125
 21
353.4826187959457
 31
0.0
  0
LINE
  5
8F
330
1F
100
AcDbEntity
  8
0-1_ピット
  6
Continuous
 62
     2
370
     9
100
AcDbLine
 10
-56.32687796667162
 20
358.8034427894075
 30
0.0
 11
-57.49142609678068
 21
357.3540173682414
 31
0.0
  0
LINE
  5
90
330
1F
100
AcDbEntity
  8
0-1_ピット
  6
Continuous
 62
     2
370
     9
100
AcDbLine
 10
-20.33046867198354
 20
357.2948057256557
 30
0.0
 11
-19.55177608037897
 21
360.2011455109628
 31
0.0
  0
LINE
  5
91
330
1F
100
AcDbEntity
  8
0-1_ピット
  6
Continuous
 62
     2
370
     9
100
AcDbLine
 10
-19.24415199991247
 20
355.5532065432912
 30
0.0
 11
-17.81845322985336
 21
360.8740305367531
 31
0.0
  0
LINE
  5
92
330
1F
100
AcDbEntity
  8
0-1_ピット
  6
Continuous
 62
     2
370
     9
100
AcDbLine
 10
-46.08746320662697
 20
357.2948057256557
 30
0.0
 11
-46.86622578835283
 21
360.2010755208415
 31
0.0
  0
LINE
  5
93
330
1F
100
AcDbEntity
  8
0-1_ピット
  6
Continuous
 62
     2
370
     9
100
AcDbLine
 10
-47.17377987869804
 20
355.5532065432912
 30
0.0
 11
-48.59947864875718
 21
360.8740305367531
 31
0.0
  0
LINE
  5
94
330
1F
100
AcDbEntity
  8
0-1_ピット
  6
Continuous
 62
     2
370
     9
100
AcDbLine
 10
-48.59947864875718
 20
360.8740305367531
 30
0.0
 11
-46.86622578835283
 21
360.2010755208415
 31
0.0
  0
LINE
  5
95
330
1F
100
AcDbEntity
  8
0-1_ピット
  6
Continuous
 62
     2
370
     9
100
AcDbLine
 10
-46.08746320662697
 20
357.2948057256557
 30
0.0
 11
-47.17377987869804
 21
355.5532065432912
 31
0.0
  0
LINE
  5
96
330
1F
100
AcDbEntity
  8
0-1_ピット
  6
Continuous
 62
     2
370
     9
100
AcDbLine
 10
-20.33046867198354
 20
357.2948057256557
 30
0.0
 11
-19.24415199991247
 21
355.5532065432912
 31
0.0
  0
LINE
  5
97
330
1F
100
AcDbEntity
  8
0-1_ピット
  6
Continuous
 62
     2
370
     9
100
AcDbLine
 10
-17.81845322985336
 20
360.8740305367531
 30
0.0
 11
-19.55177608037897
 21
360.2011455109628
 31
0.0
  0
LINE
  5
98
330
1F
100
AcDbEntity
  8
0-1_ピット
  6
Continuous
 62
     2
370
     9
100
AcDbLine
 10
12.60098572509284
 20
341.5693202958552
 30
0.0
 11
14.72854543114372
 21
343.6968450068454
 31
0.0
  0
LINE
  5
99
330
1F
100
AcDbEntity
  8
0-1_ピット
  6
Continuous
 62
     2
370
     9
100
AcDbLine
 10
12.6709058562312
 20
339.5178223540831
 30
0.0
 11
16.56606607469465
 21
343.4130700601982
 31
0.0
  0
LINE
  5
9A
330
1F
100
AcDbEntity
  8
0-1_ピット
  6
Continuous
 62
     2
370
     9
100
AcDbLine
 10
-9.705198373434397
 20
354.4477825681162
 30
0.0
 11
-8.926505781829826
 21
357.3541223534233
 31
0.0
  0
LINE
  5
9B
330
1F
100
AcDbEntity
  8
0-1_ピット
  6
Continuous
 62
     2
370
     9
100
AcDbLine
 10
-11.51675268199799
 20
353.4826187959457
 30
0.0
 11
-10.09105391193887
 21
358.8034427894075
 31
0.0
  0
LINE
  5
9C
330
1F
100
AcDbEntity
  8
0-1_ピット
  6
Continuous
 62
     2
370
     9
100
AcDbLine
 10
-10.09105391193887
 20
358.8034427894075
 30
0.0
 11
-8.926505781829826
 21
357.3541223534233
 31
0.0
  0
LINE
  5
9D
330
1F
100
AcDbEntity
  8
0-1_ピット
  6
Continuous
 62
     2
370
     9
100
AcDbLine
 10
-9.705198373434397
 20
354.4477825681162
 30
0.0
 11
-11.51675268199799
 21
353.4826187959457
 31
0.0
  0
LINE
  5
9E
330
1F
100
AcDbEntity
  8
0-1_ピット
  6
Continuous
 62
     2
370
     9
100
AcDbLine
 10
12.60098572509284
 20
341.5693202958552
 30
0.0
 11
12.6709058562312
 21
339.5178223540831
 31
0.0
  0
LINE
  5
9F
330
1F
100
AcDbEntity
  8
0-1_ピット
  6
Continuous
 62
     2
370
     9
100
AcDbLine
 10
16.56606607469465
 20
343.4130700601982
 30
0.0
 11
14.72854543114372
 21
343.6968450068454
 31
0.0
  0
LINE
  5
A0
330
1F
100
AcDbEntity
  8
0-1_ピット
  6
Continuous
 62
     2
370
     9
100
AcDbLine
 10
33.25773013342413
 20
311.4848015686667
 30
0.0
 11
36.16399992860995
 21
312.2635466528623
 31
0.0
  0
LINE
  5
A1
330
1F
100
AcDbEntity
  8
0-1_ピット
  6
Continuous
 62
     2
370
     9
100
AcDbLine
 10
32.29256636125351
 20
309.673247260103
 30
0.0
 11
37.61342534977604
 21
311.0989810252229
 31
0.0
  0
LINE
  5
A2
330
1F
100
AcDbEntity
  8
0-1_ピット
  6
Continuous
 62
     2
370
     9
100
AcDbLine
 10
20.37919787104178
 20
333.7911081499061
 30
0.0
 11
22.50668758697142
 21
335.9185978658357
 31
0.0
  0
LINE
  5
A3
330
1F
100
AcDbEntity
  8
0-1_ピット
  6
Continuous
 62
     2
370
     9
100
AcDbLine
 10
18.32771742680009
 20
333.8609582909233
 30
0.0
 11
22.22294763538483
 21
337.7561185093867
 31
0.0
  0
LINE
  5
A4
330
1F
100
AcDbEntity
  8
0-1_ピット
  6
Continuous
 62
     2
370
     9
100
AcDbLine
 10
22.22294763538483
 20
337.7561185093867
 30
0.0
 11
22.50668758697142
 21
335.9185978658357
 31
0.0
  0
LINE
  5
A5
330
1F
100
AcDbEntity
  8
0-1_ピット
  6
Continuous
 62
     2
370
     9
100
AcDbLine
 10
20.37919787104178
 20
333.7911081499061
 30
0.0
 11
18.32771742680009
 21
333.8609582909233
 31
0.0
  0
LINE
  5
A6
330
1F
100
AcDbEntity
  8
0-1_ピット
  6
Continuous
 62
     2
370
     9
100
AcDbLine
 10
33.25773013342413
 20
311.4848015686667
 30
0.0
 11
32.29256636125351
 21
309.673247260103
 31
0.0
  0
LINE
  5
A7
330
1F
100
AcDbEntity
  8
0-1_ピット
  6
Continuous
 62
     2
370
     9
100
AcDbLine
 10
37.61342534977604
 20
311.0989810252229
 30
0.0
 11
36.16399992860995
 21
312.2635466528623
 31
0.0
  0
LINE
  5
A8
330
1F
100
AcDbEntity
  8
0-1_ピット
  6
Continuous
 62
     2
370
     9
100
AcDbLine
 10
36.10471829590304
 20
300.8596012602388
 30
0.0
 11
39.01098809108882
 21
301.638328846904
 31
0.0
  0
LINE
  5
A9
330
1F
100
AcDbEntity
  8
0-1_ピット
  6
Continuous
 62
     2
370
     9
100
AcDbLine
 10
34.36308411847781
 20
301.9458829372492
 30
0.0
 11
39.68401309712165
 21
303.3715817073083
 31
0.0
  0
LINE
  5
AA
330
1F
100
AcDbEntity
  8
0-1_ピット
  6
Continuous
 62
     2
370
     9
100
AcDbLine
 10
39.68401309712165
 20
303.3715817073083
 30
0.0
 11
39.01098809108882
 21
301.638328846904
 31
0.0
  0
LINE
  5
AB
330
1F
100
AcDbEntity
  8
0-1_ピット
  6
Continuous
 62
     2
370
     9
100
AcDbLine
 10
36.10471829590304
 20
300.8596012602388
 30
0.0
 11
34.36308411847781
 21
301.9458829372492
 31
0.0
  0
LINE
  5
AC
330
1F
100
AcDbEntity
  8
0-1_ピット
  6
Continuous
 62
     2
370
     9
100
AcDbLine
 10
-102.5226676720439
 20
300.8596012602388
 30
0.0
 11
-105.4289374672297
 21
301.6383288469041
 31
0.0
  0
LINE
  5
AD
330
1F
100
AcDbEntity
  8
0-1_ピット
  6
Continuous
 62
     2
370
     9
100
AcDbLine
 10
-100.7810334946187
 20
301.9458829372493
 30
0.0
 11
-106.1019274782019
 21
303.3715817073085
 31
0.0
  0
LINE
  5
AE
330
1F
100
AcDbEntity
  8
0-1_ピット
  6
Continuous
 62
     2
370
     9
100
AcDbLine
 10
-106.1019274782019
 20
303.3715817073085
 30
0.0
 11
-105.4289374672297
 21
301.6383288469041
 31
0.0
  0
LINE
  5
AF
330
1F
100
AcDbEntity
  8
0-1_ピット
  6
Continuous
 62
     2
370
     9
100
AcDbLine
 10
-102.5226676720439
 20
300.8596012602388
 30
0.0
 11
-100.7810334946187
 21
301.9458829372493
 31
0.0
  0
LINE
  5
B0
330
1F
100
AcDbEntity
  8
0-1_ピット
  6
JWW_DASHED1
 62
     4
370
     9
100
AcDbLine
 10
-68.70617069410889
 20
287.9858458236325
 30
0.0
 11
-72.45345928388099
 21
294.4762572359341
 31
0.0
  0
LINE
  5
B1
330
1F
100
AcDbEntity
  8
0-1_ピット
  6
JWW_DASHED1
 62
     4
370
     9
100
AcDbLine
 10
-15.45625164227946
 20
318.7202053291865
 30
0.0
 11
-7.961744452856506
 21
318.7202578217774
 31
0.0
  0
LINE
  5
B2
330
1F
100
AcDbEntity
  8
0-1_ピット
  6
JWW_DASHED1
 62
     4
370
     9
100
AcDbLine
 10
-15.46447548152745
 20
318.7249646574321
 30
0.0
 11
-19.21167658364798
 21
325.2154110647944
 31
0.0
  0
LINE
  5
B3
330
1F
100
AcDbEntity
  8
0-1_ピット
  6
JWW_DASHED1
 62
     4
370
     9
100
AcDbLine
 10
-72.67809257806387
 20
294.4762572359341
 30
0.0
 11
-72.45345928388099
 21
294.4762572359341
 31
0.0
  0
LINE
  5
B4
330
1F
100
AcDbEntity
  8
0-1_ピット
  6
JWW_DASHED1
 62
     4
370
     9
100
AcDbLine
 10
-7.849410308234765
 20
318.9148128613489
 30
0.0
 11
-7.961744452856506
 21
318.7202578217774
 31
0.0
  0
LINE
  5
B5
330
1F
100
AcDbEntity
  8
0-1_ピット
  6
JWW_DASHED1
 62
     4
370
     9
100
AcDbLine
 10
-19.09935993655657
 20
325.4099661043659
 30
0.0
 11
-19.21167658364798
 21
325.2154110647944
 31
0.0
  0
LINE
  5
B6
330
1F
100
AcDbEntity
  8
0-2_本体（蓋）
  6
Continuous
 62
     6
370
     5
100
AcDbLine
 10
34.40206861601946
 20
298.9811014006904
 30
0.0
 11
22.97436157722844
 21
298.9811014006904
 31
0.0
  0
LINE
  5
B7
330
1F
100
AcDbEntity
  8
0-2_本体（蓋）
  6
Continuous
 62
     6
370
     5
100
AcDbLine
 10
33.54622941325643
 20
297.9810475530719
 30
0.0
 11
22.97492149819848
 21
297.9810475530719
 31
0.0
  0
LINE
  5
B8
330
1F
100
AcDbEntity
  8
0-2_本体（蓋）
  6
Continuous
 62
     6
370
     5
100
AcDbLine
 10
33.01983371126256
 20
292.9810932705248
 30
0.0
 11
29.79104943731229
 21
292.9810932705248
 31
0.0
  0
LINE
  5
B9
330
1F
100
AcDbEntity
  8
0-2_本体（蓋）
  6
Continuous
 62
     6
370
     5
100
AcDbLine
 10
22.97436157722844
 20
298.9811014006904
 30
0.0
 11
22.97492149819848
 21
297.9810475530719
 31
0.0
  0
LINE
  5
BA
330
1F
100
AcDbEntity
  8
0-2_本体（蓋）
  6
Continuous
 62
     6
370
     5
100
AcDbLine
 10
5.132549855839063
 20
295.1223710403426
 30
0.0
 11
6.274648654554047
 21
294.393073976817
 31
0.0
  0
LINE
  5
BB
330
1F
100
AcDbEntity
  8
0-2_本体（蓋）
  6
Continuous
 62
     6
370
     5
100
AcDbLine
 10
3.583388511877915
 20
300.918952883067
 30
0.0
 11
4.209030205817976
 21
302.1218730971567
 31
0.0
  0
LINE
  5
BC
330
1F
100
AcDbEntity
  8
0-2_本体（蓋）
  6
Continuous
 62
     6
370
     5
100
AcDbLine
 10
14.1011539841722
 20
313.5307177982682
 30
0.0
 11
17.33378771479178
 21
314.8697338031473
 31
0.0
  0
LINE
  5
BD
330
1F
100
AcDbEntity
  8
0-2_本体（蓋）
  6
Continuous
 62
     6
370
     5
100
AcDbLine
 10
8.500684461217327
 20
321.9123497746573
 30
0.0
 11
10.97476525762479
 21
324.3864130735344
 31
0.0
  0
LINE
  5
BE
330
1F
100
AcDbEntity
  8
0-2_本体（蓋）
  6
Continuous
 62
     6
370
     5
100
AcDbLine
 10
0.7223323350258646
 20
329.6906669057881
 30
0.0
 11
3.196483121554559
 21
332.1648176923169
 31
0.0
  0
LINE
  5
BF
330
1F
100
AcDbEntity
  8
0-2_本体（蓋）
  6
Continuous
 62
     6
370
     5
100
AcDbLine
 10
-7.659264646302608
 20
335.2910664386217
 30
0.0
 11
-6.320353626605398
 21
338.5235601889988
 31
0.0
  0
LINE
  5
C0
330
1F
100
AcDbEntity
  8
0-2_本体（蓋）
  6
Continuous
 62
     6
370
     5
100
AcDbLine
 10
-17.8221802038104
 20
339.5006397793139
 30
0.0
 11
-16.48316419893141
 21
342.7332910074638
 31
0.0
  0
LINE
  5
C1
330
1F
100
AcDbEntity
  8
0-2_本体（蓋）
  6
Continuous
 62
     6
370
     5
100
AcDbLine
 10
-27.70898473294892
 20
341.467239703998
 30
0.0
 11
-27.70898473294892
 21
344.9660633632982
 31
0.0
  0
LINE
  5
C2
330
1F
100
AcDbEntity
  8
0-2_本体（蓋）
  6
Continuous
 62
     6
370
     5
100
AcDbLine
 10
18.31070982733402
 20
303.3680472061848
 30
0.0
 11
21.54320357771106
 21
304.7070282160032
 31
0.0
  0
LINE
  5
C3
330
1F
100
AcDbEntity
  8
0-2_本体（蓋）
  6
Continuous
 62
     6
370
     5
100
AcDbLine
 10
20.14599078700459
 20
294.4811215493617
 30
0.0
 11
23.48654928460657
 21
294.4811215493617
 31
0.0
  0
LINE
  5
C4
330
1F
100
AcDbEntity
  8
0-2_本体（蓋）
  6
Continuous
 62
     6
370
     5
100
AcDbLine
 10
-100.8199654995693
 20
298.9811014006904
 30
0.0
 11
-89.39225846077832
 21
298.9811014006904
 31
0.0
  0
LINE
  5
C5
330
1F
100
AcDbEntity
  8
0-2_本体（蓋）
  6
Continuous
 62
     6
370
     5
100
AcDbLine
 10
-99.9641262968063
 20
297.9810475530719
 30
0.0
 11
-89.3928183817484
 21
297.9810475530719
 31
0.0
  0
LINE
  5
C6
330
1F
100
AcDbEntity
  8
0-2_本体（蓋）
  6
Continuous
 62
     6
370
     5
100
AcDbLine
 10
-99.43773059481245
 20
292.9810932705248
 30
0.0
 11
-96.20894632086218
 21
292.9810932705248
 31
0.0
  0
LINE
  5
C7
330
1F
100
AcDbEntity
  8
0-2_本体（蓋）
  6
Continuous
 62
     6
370
     5
100
AcDbLine
 10
-89.39225846077832
 20
298.9811014006904
 30
0.0
 11
-89.3928183817484
 21
297.9810475530719
 31
0.0
  0
LINE
  5
C8
330
1F
100
AcDbEntity
  8
0-2_本体（蓋）
  6
Continuous
 62
     6
370
     5
100
AcDbLine
 10
-80.51905086772209
 20
313.5307177982682
 30
0.0
 11
-83.75168459834167
 21
314.8697338031473
 31
0.0
  0
LINE
  5
C9
330
1F
100
AcDbEntity
  8
0-2_本体（蓋）
  6
Continuous
 62
     6
370
     5
100
AcDbLine
 10
-74.91858134476723
 20
321.9123497746573
 30
0.0
 11
-77.39266214117467
 21
324.3864130735344
 31
0.0
  0
LINE
  5
CA
330
1F
100
AcDbEntity
  8
0-2_本体（蓋）
  6
Continuous
 62
     6
370
     5
100
AcDbLine
 10
-67.14022921857574
 20
329.6906669057881
 30
0.0
 11
-69.61438000510446
 21
332.1648176923169
 31
0.0
  0
LINE
  5
CB
330
1F
100
AcDbEntity
  8
0-2_本体（蓋）
  6
Continuous
 62
     6
370
     5
100
AcDbLine
 10
-58.75863223724732
 20
335.2910664386217
 30
0.0
 11
-60.09754325694448
 21
338.5235601889988
 31
0.0
  0
LINE
  5
CC
330
1F
100
AcDbEntity
  8
0-2_本体（蓋）
  6
Continuous
 62
     6
370
     5
100
AcDbLine
 10
-48.59571667973946
 20
339.5006397793139
 30
0.0
 11
-49.93473268461852
 21
342.7332910074638
 31
0.0
  0
LINE
  5
CD
330
1F
100
AcDbEntity
  8
0-2_本体（蓋）
  6
Continuous
 62
     6
370
     5
100
AcDbLine
 10
-38.70891215060095
 20
341.467239703998
 30
0.0
 11
-38.70891215060095
 21
344.9660633632982
 31
0.0
  0
LINE
  5
CE
330
1F
100
AcDbEntity
  8
0-2_本体（蓋）
  6
Continuous
 62
     6
370
     5
100
AcDbLine
 10
-84.7286067108839
 20
303.3680472061848
 30
0.0
 11
-87.96110046126095
 21
304.7070282160032
 31
0.0
  0
LINE
  5
CF
330
1F
100
AcDbEntity
  8
0-2_本体（蓋）
  6
Continuous
 62
     6
370
     5
100
AcDbLine
 10
-86.5638876705545
 20
294.4811215493617
 30
0.0
 11
-89.90444616815647
 21
294.4811215493617
 31
0.0
  0
LINE
  5
D0
330
1F
100
AcDbEntity
  8
0-2_本体（蓋）
  6
Continuous
 62
     6
370
     5
100
AcDbLine
 10
-40.35018049413981
 20
326.3226022905311
 30
0.0
 11
-39.6209534207355
 21
327.4647010892461
 31
0.0
  0
LINE
  5
D1
330
1F
100
AcDbEntity
  8
0-2_本体（蓋）
  6
Continuous
 62
     6
370
     5
100
AcDbLine
 10
-46.14676233686424
 20
324.77344094657
 30
0.0
 11
-47.34870268925624
 21
325.3985577146005
 31
0.0
  0
LINE
  5
D2
330
1F
100
AcDbEntity
  8
0-2_本体（蓋）
  6
Continuous
 62
     6
370
     5
100
AcDbLine
 10
34.10559046236355
 20
291.9810744179669
 30
0.0
 11
33.29108042620433
 21
291.9810744179669
 31
0.0
  0
LINE
  5
D3
330
1F
100
AcDbEntity
  8
0-2_本体（蓋）
  6
Continuous
 62
     6
370
     5
100
AcDbLine
 10
-100.5234873459135
 20
291.9810744179669
 30
0.0
 11
-99.70897730975425
 21
291.9810744179669
 31
0.0
  0
LINE
  5
D4
330
1F
100
AcDbEntity
  8
0-2_本体（蓋）
  6
Continuous
 62
     6
370
     5
100
AcDbLine
 10
-31.70899015305932
 20
333.9158305459908
 30
0.0
 11
-31.70899015305932
 21
333.0456433683696
 31
0.0
  0
LINE
  5
D5
330
1F
100
AcDbEntity
  8
0-2_本体（蓋）
  6
Continuous
 62
     6
370
     5
100
AcDbLine
 10
-34.70890673049055
 20
333.9157605558696
 30
0.0
 11
-34.70890673049055
 21
333.0456433683696
 31
0.0
  0
LINE
  5
D6
330
1F
100
AcDbEntity
  8
0-1_ピット
  6
JWW_CENTER1
 62
     2
370
     9
100
AcDbLine
 10
-15.8615819320244
 20
318.0276530793221
 30
0.0
 11
-13.2089563362836
 21
322.6221195943514
 31
0.0
  0
LINE
  5
D7
330
1F
100
AcDbEntity
  8
0-1_ピット
  6
Continuous
 62
     2
370
     9
100
AcDbLine
 10
-87.85742759414511
 20
299.981102755718
 30
0.0
 11
-84.70920194976466
 21
299.981102755718
 31
0.0
  0
LINE
  5
D8
330
1F
100
AcDbEntity
  8
0-1_ピット
  6
Continuous
 62
     2
370
     9
100
AcDbLine
 10
-84.5788803439792
 20
300.5272181743768
 30
0.0
 11
-87.85742759414511
 21
299.981102755718
 31
0.0
  0
LINE
  5
D9
330
1F
100
AcDbEntity
  8
0-0_通り芯
  6
JWW_CENTER1
 62
     3
370
     9
100
AcDbLine
 10
-144.0191981533308
 20
287.9811039929172
 30
0.0
 11
78.0046893336609
 21
287.9811039929172
 31
0.0
  0
LINE
  5
DA
330
1F
100
AcDbEntity
  8
0-0_通り芯
  6
JWW_CENTER1
 62
     3
370
     9
100
AcDbLine
 10
-33.20893094424461
 20
396.3508681662701
 30
0.0
 11
-33.20893094424463
 21
283.3322551536691
 31
0.0
  0
ARC
  5
DB
330
1F
100
AcDbEntity
  8
0-1_ピット
  6
Continuous
 62
     2
370
     9
100
AcDbCircle
 10
-33.20896593930528
 20
287.9811039929172
 30
0.0
 40
89.99999946977181
100
AcDbArc
 50
0.0
 51
180.0
  0
ARC
  5
DC
330
1F
100
AcDbEntity
  8
0-1_ピット
  6
Continuous
 62
     2
370
     9
100
AcDbCircle
 10
-33.20896593930528
 20
287.9811039929172
 30
0.0
 40
83.94104215997524
100
AcDbArc
 50
0.0
 51
180.0
  0
ARC
  5
DD
330
1F
100
AcDbEntity
  8
0-1_ピット
  6
Continuous
 62
     2
370
     9
100
AcDbCircle
 10
-33.20896593930528
 20
287.9811039929172
 30
0.0
 40
89.499998792258
100
AcDbArc
 50
0.0
 51
180.0
  0
ARC
  5
DE
330
1F
100
AcDbEntity
  8
0-1_ピット
  6
Continuous
 62
     2
370
     9
100
AcDbCircle
 10
-33.20896593930528
 20
287.9811039929172
 30
0.0
 40
73.49999460934671
100
AcDbArc
 50
139.2914886474609
 51
160.7085418701172
  0
ARC
  5
DF
330
1F
100
AcDbEntity
  8
0-1_ピット
  6
Continuous
 62
     2
370
     9
100
AcDbCircle
 10
-33.20896593930528
 20
287.9811039929172
 30
0.0
 40
74.49998721560915
100
AcDbArc
 50
138.0777740478516
 51
161.9222412109375
  0
ARC
  5
E0
330
1F
100
AcDbEntity
  8
0-1_ピット
  6
Continuous
 62
     2
370
     9
100
AcDbCircle
 10
-33.20896593930528
 20
287.9811039929172
 30
0.0
 40
70.49999054426392
100
AcDbArc
 50
139.4744873046875
 51
160.5255737304688
  0
ARC
  5
E1
330
1F
100
AcDbEntity
  8
0-1_ピット
  6
Continuous
 62
     2
370
     9
100
AcDbCircle
 10
-33.20896593930528
 20
287.9811039929172
 30
0.0
 40
68.99999288610509
100
AcDbArc
 50
138.3233795166016
 51
161.6766510009765
  0
ARC
  5
E2
330
1F
100
AcDbEntity
  8
0-1_ピット
  6
Continuous
 62
     2
370
     9
100
AcDbCircle
 10
-33.20896593930528
 20
287.9811039929172
 30
0.0
 40
73.49999460934671
100
AcDbArc
 50
109.2914886474609
 51
130.7085418701172
  0
ARC
  5
E3
330
1F
100
AcDbEntity
  8
0-1_ピット
  6
Continuous
 62
     2
370
     9
100
AcDbCircle
 10
-33.20896593930528
 20
287.9811039929172
 30
0.0
 40
74.49998721560915
100
AcDbArc
 50
108.0777740478516
 51
131.9222412109376
  0
ARC
  5
E4
330
1F
100
AcDbEntity
  8
0-1_ピット
  6
Continuous
 62
     2
370
     9
100
AcDbCircle
 10
-33.20896593930528
 20
287.9811039929172
 30
0.0
 40
70.49999054426392
100
AcDbArc
 50
109.4744873046875
 51
130.5255737304688
  0
ARC
  5
E5
330
1F
100
AcDbEntity
  8
0-1_ピット
  6
Continuous
 62
     2
370
     9
100
AcDbCircle
 10
-33.20896593930528
 20
287.9811039929172
 30
0.0
 40
68.99999288610509
100
AcDbArc
 50
108.3233795166016
 51
131.6766510009766
  0
ARC
  5
E6
330
1F
100
AcDbEntity
  8
0-1_ピット
  6
Continuous
 62
     2
370
     9
100
AcDbCircle
 10
-33.20896593930528
 20
287.9811039929172
 30
0.0
 40
73.49999460934671
100
AcDbArc
 50
79.29148864746095
 51
100.7085418701172
  0
ARC
  5
E7
330
1F
100
AcDbEntity
  8
0-1_ピット
  6
Continuous
 62
     2
370
     9
100
AcDbCircle
 10
-33.20896593930528
 20
287.9811039929172
 30
0.0
 40
74.49998721560915
100
AcDbArc
 50
78.07777404785155
 51
101.9222412109375
  0
ARC
  5
E8
330
1F
100
AcDbEntity
  8
0-1_ピット
  6
Continuous
 62
     2
370
     9
100
AcDbCircle
 10
-33.20896593930528
 20
287.9811039929172
 30
0.0
 40
70.49999054426392
100
AcDbArc
 50
79.4744873046875
 51
100.5255737304687
  0
ARC
  5
E9
330
1F
100
AcDbEntity
  8
0-1_ピット
  6
Continuous
 62
     2
370
     9
100
AcDbCircle
 10
-33.20896593930528
 20
287.9811039929172
 30
0.0
 40
73.49999460934671
100
AcDbArc
 50
49.29148864746096
 51
70.7085418701172
  0
ARC
  5
EA
330
1F
100
AcDbEntity
  8
0-1_ピット
  6
Continuous
 62
     2
370
     9
100
AcDbCircle
 10
-33.20896593930528
 20
287.9811039929172
 30
0.0
 40
74.49998721560915
100
AcDbArc
 50
48.07777404785156
 51
71.9222412109375
  0
ARC
  5
EB
330
1F
100
AcDbEntity
  8
0-1_ピット
  6
Continuous
 62
     2
370
     9
100
AcDbCircle
 10
-33.20896593930528
 20
287.9811039929172
 30
0.0
 40
70.49999054426392
100
AcDbArc
 50
49.47448730468751
 51
70.52557373046875
  0
ARC
  5
EC
330
1F
100
AcDbEntity
  8
0-1_ピット
  6
Continuous
 62
     2
370
     9
100
AcDbCircle
 10
-33.20896593930528
 20
287.9811039929172
 30
0.0
 40
68.99999288610509
100
AcDbArc
 50
48.32337951660157
 51
71.67665100097656
  0
ARC
  5
ED
330
1F
100
AcDbEntity
  8
0-1_ピット
  6
Continuous
 62
     2
370
     9
100
AcDbCircle
 10
-33.20896593930528
 20
287.9811039929172
 30
0.0
 40
73.49999460934671
100
AcDbArc
 50
19.29148864746094
 51
40.70854187011719
  0
ARC
  5
EE
330
1F
100
AcDbEntity
  8
0-1_ピット
  6
Continuous
 62
     2
370
     9
100
AcDbCircle
 10
-33.20896593930528
 20
287.9811039929172
 30
0.0
 40
74.49998721560915
100
AcDbArc
 50
18.07777404785157
 51
41.92224121093751
  0
ARC
  5
EF
330
1F
100
AcDbEntity
  8
0-1_ピット
  6
Continuous
 62
     2
370
     9
100
AcDbCircle
 10
-33.20896593930528
 20
287.9811039929172
 30
0.0
 40
70.49999054426392
100
AcDbArc
 50
19.4744873046875
 51
40.52557373046875
  0
ARC
  5
F0
330
1F
100
AcDbEntity
  8
0-1_ピット
  6
Continuous
 62
     2
370
     9
100
AcDbCircle
 10
-33.20896593930528
 20
287.9811039929172
 30
0.0
 40
68.99999288610509
100
AcDbArc
 50
18.32337951660156
 51
41.67665100097656
  0
ARC
  5
F1
330
1F
100
AcDbEntity
  8
0-1_ピット
  6
Continuous
 62
     2
370
     9
100
AcDbCircle
 10
-33.20896593930528
 20
287.9811039929172
 30
0.0
 40
70.49999054426392
100
AcDbArc
 50
0.0
 51
10.52557373046875
  0
ARC
  5
F2
330
1F
100
AcDbEntity
  8
0-1_ピット
  6
Continuous
 62
     2
370
     9
100
AcDbCircle
 10
-33.20896593930528
 20
287.9811039929172
 30
0.0
 40
73.49999460934671
100
AcDbArc
 50
0.0
 51
10.70854187011719
  0
ARC
  5
F3
330
1F
100
AcDbEntity
  8
0-1_ピット
  6
Continuous
 62
     2
370
     9
100
AcDbCircle
 10
-33.20896593930528
 20
287.9811039929172
 30
0.0
 40
74.49998721560915
100
AcDbArc
 50
0.0
 51
11.9222412109375
  0
ARC
  5
F4
330
1F
100
AcDbEntity
  8
0-1_ピット
  6
Continuous
 62
     2
370
     9
100
AcDbCircle
 10
-33.20896593930528
 20
287.9811039929172
 30
0.0
 40
68.99999288610509
100
AcDbArc
 50
8.583679199218743
 51
11.67665100097655
  0
ARC
  5
F5
330
1F
100
AcDbEntity
  8
0-1_ピット
  6
Continuous
 62
     2
370
     9
100
AcDbCircle
 10
-33.20896593930528
 20
287.9811039929172
 30
0.0
 40
69.3754723891328
100
AcDbArc
 50
0.0
 51
7.676528930664062
  0
ARC
  5
F6
330
1F
100
AcDbEntity
  8
0-1_ピット
  6
Continuous
 62
     2
370
     9
100
AcDbCircle
 10
-33.20896593930528
 20
287.9811039929172
 30
0.0
 40
70.49999054426392
100
AcDbArc
 50
169.4744110107422
 51
179.9999847412109
  0
ARC
  5
F7
330
1F
100
AcDbEntity
  8
0-1_ピット
  6
Continuous
 62
     2
370
     9
100
AcDbCircle
 10
-33.20896593930528
 20
287.9811039929172
 30
0.0
 40
73.49999460934671
100
AcDbArc
 50
169.2914428710938
 51
179.9999847412109
  0
ARC
  5
F8
330
1F
100
AcDbEntity
  8
0-1_ピット
  6
Continuous
 62
     2
370
     9
100
AcDbCircle
 10
-33.20896593930528
 20
287.9811039929172
 30
0.0
 40
74.49998721560915
100
AcDbArc
 50
168.0777740478516
 51
180.0000152587891
  0
ARC
  5
F9
330
1F
100
AcDbEntity
  8
0-1_ピット
  6
Continuous
 62
     2
370
     9
100
AcDbCircle
 10
-33.20896593930528
 20
287.9811039929172
 30
0.0
 40
68.99999288610509
100
AcDbArc
 50
168.3233489990235
 51
171.4163208007813
  0
ARC
  5
FA
330
1F
100
AcDbEntity
  8
0-1_ピット
  6
Continuous
 62
     2
370
     9
100
AcDbCircle
 10
-33.20896593930528
 20
287.9811039929172
 30
0.0
 40
69.3754723891328
100
AcDbArc
 50
172.3234710693359
 51
180.0
  0
ARC
  5
FB
330
1F
100
AcDbEntity
  8
0-1_ピット
  6
Continuous
 62
     2
370
     9
100
AcDbCircle
 10
-33.20896593930528
 20
287.9811039929172
 30
0.0
 40
68.99999288610509
100
AcDbArc
 50
95.13783264160163
 51
101.6766510009766
  0
ARC
  5
FC
330
1F
100
AcDbEntity
  8
0-1_ピット
  6
Continuous
 62
     2
370
     9
100
AcDbCircle
 10
-33.20896593930528
 20
287.9811039929172
 30
0.0
 40
68.99999288610509
100
AcDbArc
 50
78.32337951660159
 51
84.86216735839847
  0
ARC
  5
FD
330
1F
100
AcDbEntity
  8
0-1_ピット
  6
Continuous
 62
     2
370
     9
100
AcDbCircle
 10
-33.20896593930528
 20
287.9811039929172
 30
0.0
 40
69.3754723891328
100
AcDbArc
 50
86.59643554687501
 51
93.40356445312501
  0
ARC
  5
FE
330
1F
100
AcDbEntity
  8
0-1_ピット
  6
Continuous
 62
     2
370
     9
100
AcDbCircle
 10
33.0405507871554
 20
297.9810475530719
 30
0.0
 40
1.999999976066088
100
AcDbArc
 50
326.6130981445313
 51
8.583190917968759
  0
ARC
  5
FF
330
1F
100
AcDbEntity
  8
0-1_ピット
  6
Continuous
 62
     2
370
     9
100
AcDbCircle
 10
33.56274708187371
 20
296.9811336856958
 30
0.0
 40
1.999999976066088
100
AcDbArc
 50
311.1853179931641
 51
7.676574707031258
  0
ARC
  5
100
330
1F
100
AcDbEntity
  8
0-1_ピット
  6
Continuous
 62
     2
370
     9
100
AcDbCircle
 10
-39.20890407934959
 20
354.7118902906895
 30
0.0
 40
1.999999976066088
100
AcDbArc
 50
53.16412353515626
 51
95.13787841796876
  0
ARC
  5
101
330
1F
100
AcDbEntity
  8
0-1_ピット
  6
Continuous
 62
     2
370
     9
100
AcDbCircle
 10
-37.20895386188533
 20
355.2376910766526
 30
0.0
 40
1.999999976066088
100
AcDbArc
 50
36.91690063476564
 51
93.40336608886719
  0
ARC
  5
102
330
1F
100
AcDbEntity
  8
0-1_ピット
  6
Continuous
 62
     2
370
     9
100
AcDbCircle
 10
-29.20897801672518
 20
355.2376910766526
 30
0.0
 40
1.999999976066088
100
AcDbArc
 50
86.59663391113284
 51
143.0830993652344
  0
ARC
  5
103
330
1F
100
AcDbEntity
  8
0-1_ピット
  6
Continuous
 62
     2
370
     9
100
AcDbCircle
 10
-27.20894031160935
 20
354.7118902906895
 30
0.0
 40
1.999999976066088
100
AcDbArc
 50
84.86212158203125
 51
126.8358764648438
  0
ARC
  5
104
330
1F
100
AcDbEntity
  8
0-1_ピット
  6
Continuous
 62
     2
370
     9
100
AcDbCircle
 10
-99.45850016329628
 20
297.9810475530719
 30
0.0
 40
1.999999976066088
100
AcDbArc
 50
171.4168090820313
 51
213.3882446289062
  0
ARC
  5
105
330
1F
100
AcDbEntity
  8
0-1_ピット
  6
Continuous
 62
     2
370
     9
100
AcDbCircle
 10
-99.98064396542355
 20
296.9811336856958
 30
0.0
 40
1.999999976066088
100
AcDbArc
 50
172.3234252929688
 51
228.8123779296875
  0
ARC
  5
106
330
1F
100
AcDbEntity
  8
0-1_ピット
  6
Continuous
 62
     2
370
     9
100
AcDbCircle
 10
-33.20896593930528
 20
287.9811039929172
 30
0.0
 40
55.95047038310283
100
AcDbArc
 50
167.6152496337891
 51
180.0
  0
ARC
  5
107
330
1F
100
AcDbEntity
  8
0-1_ピット
  6
JWW_DASHED1
 62
     2
370
     9
100
AcDbCircle
 10
-76.20900670796175
 20
287.9811039929172
 30
0.0
 40
11.99999985639653
100
AcDbArc
 50
0.0
 51
67.61564636230469
  0
ARC
  5
108
330
1F
100
AcDbEntity
  8
0-1_ピット
  6
JWW_DASHED1
 62
     4
370
     9
100
AcDbCircle
 10
-76.20898921043144
 20
287.9866332124966
 30
0.0
 40
6.500000605712065
100
AcDbArc
 50
359.9509277343751
 51
58.59150695800782
  0
ARC
  5
109
330
1F
100
AcDbEntity
  8
0-1_ピット
  6
JWW_DASHED1
 62
     4
370
     9
100
AcDbCircle
 10
-76.20898921043144
 20
287.9811039929172
 30
0.0
 40
3.999999952132176
100
AcDbArc
 50
0.0
 51
39.61383056640625
  0
ARC
  5
10A
330
1F
100
AcDbEntity
  8
0-1_ピット
  6
JWW_DASHED1
 62
     4
370
     9
100
AcDbCircle
 10
-76.20898921043144
 20
287.9811039929172
 30
0.0
 40
3.323499772539469
100
AcDbArc
 50
0.0
 51
24.51760864257812
  0
ARC
  5
10B
330
1F
100
AcDbEntity
  8
0-1_ピット
  6
Continuous
 62
     2
370
     9
100
AcDbCircle
 10
-33.20896593930528
 20
287.9811039929172
 30
0.0
 40
55.95047038310283
100
AcDbArc
 50
50.64137268066406
 51
61.85858154296874
  0
ARC
  5
10C
330
1F
100
AcDbEntity
  8
0-1_ピット
  6
JWW_DASHED1
 62
     2
370
     9
100
AcDbCircle
 10
-11.70894555497703
 20
325.220222885631
 30
0.0
 40
11.99999985639653
100
AcDbArc
 50
172.38427734375
 51
307.6157684326171
  0
ARC
  5
10D
330
1F
100
AcDbEntity
  8
0-2_本体（蓋）
  6
Continuous
 62
     6
370
     5
100
AcDbCircle
 10
34.10559046236355
 20
292.9810932705248
 30
0.0
 40
0.999999988033044
100
AcDbArc
 50
270.0
 51
4.247940063476556
  0
ARC
  5
10E
330
1F
100
AcDbEntity
  8
0-2_本体（蓋）
  6
Continuous
 62
     6
370
     5
100
AcDbCircle
 10
33.01983371126256
 20
293.9811121230827
 30
0.0
 40
0.999999988033044
100
AcDbArc
 50
270.0
 51
5.176773071289064
  0
ARC
  5
10F
330
1F
100
AcDbEntity
  8
0-2_本体（蓋）
  6
Continuous
 62
     6
370
     5
100
AcDbCircle
 10
-33.20894844177494
 20
287.9811039929172
 30
0.0
 40
67.50000835109401
100
AcDbArc
 50
5.17658996582032
 51
8.519622802734384
  0
ARC
  5
110
330
1F
100
AcDbEntity
  8
0-2_本体（蓋）
  6
Continuous
 62
     6
370
     5
100
AcDbCircle
 10
-33.20894844177494
 20
287.9811039929172
 30
0.0
 40
68.50000095735643
100
AcDbArc
 50
4.248031616210934
 51
175.7519836425781
  0
ARC
  5
111
330
1F
100
AcDbEntity
  8
0-2_本体（蓋）
  6
Continuous
 62
     6
370
     5
100
AcDbCircle
 10
-33.20810856031984
 20
287.9811039929172
 30
0.0
 40
39.00000035348546
100
AcDbArc
 50
10.55090332031251
 51
19.37437438964844
  0
ARC
  5
112
330
1F
100
AcDbEntity
  8
0-2_本体（蓋）
  6
Continuous
 62
     6
370
     5
100
AcDbCircle
 10
-33.20894844177494
 20
287.9811039929172
 30
0.0
 40
40.00000170851306
100
AcDbArc
 50
20.70223999023438
 51
99.22210693359375
  0
ARC
  5
113
330
1F
100
AcDbEntity
  8
0-2_本体（蓋）
  6
Continuous
 62
     6
370
     5
100
AcDbCircle
 10
-33.2085285010474
 20
287.9811039929172
 30
0.0
 40
52.87940884741116
100
AcDbArc
 50
29.42919921875002
 51
38.0711364746094
  0
ARC
  5
114
330
1F
100
AcDbEntity
  8
0-2_本体（蓋）
  6
Continuous
 62
     6
370
     5
100
AcDbCircle
 10
13.71844800112441
 20
314.4546223939562
 30
0.0
 40
0.999999988033044
100
AcDbArc
 50
209.4293975830078
 51
292.4991760253906
  0
ARC
  5
115
330
1F
100
AcDbEntity
  8
0-2_本体（蓋）
  6
Continuous
 62
     6
370
     5
100
AcDbCircle
 10
9.2077946563036
 20
321.205239579571
 30
0.0
 40
0.999999988033044
100
AcDbArc
 50
135.0007019042969
 51
218.0706176757812
  0
ARC
  5
116
330
1F
100
AcDbEntity
  8
0-2_本体（蓋）
  6
Continuous
 62
     6
370
     5
100
AcDbCircle
 10
-33.20866848128993
 20
287.9812439731597
 30
0.0
 40
52.87940884741116
100
AcDbArc
 50
51.92919921874999
 51
60.57113647460936
  0
ARC
  5
117
330
1F
100
AcDbEntity
  8
0-2_本体（蓋）
  6
Continuous
 62
     6
370
     5
100
AcDbCircle
 10
0.0152571350002066
 20
330.3977771008744
 30
0.0
 40
0.999999988033044
100
AcDbArc
 50
231.9293975830078
 51
314.9991760253906
  0
ARC
  5
118
330
1F
100
AcDbEntity
  8
0-2_本体（蓋）
  6
Continuous
 62
     6
370
     5
100
AcDbCircle
 10
-6.735395045675178
 20
334.9083954506347
 30
0.0
 40
0.999999988033044
100
AcDbArc
 50
157.5007019042969
 51
240.5706176757813
  0
ARC
  5
119
330
1F
100
AcDbEntity
  8
0-2_本体（蓋）
  6
Continuous
 62
     6
370
     5
100
AcDbCircle
 10
-33.20880846153242
 20
287.9813489583415
 30
0.0
 40
52.87940884741116
100
AcDbArc
 50
74.42919921874999
 51
83.07113647460936
  0
ARC
  5
11A
330
1F
100
AcDbEntity
  8
0-2_本体（蓋）
  6
Continuous
 62
     6
370
     5
100
AcDbCircle
 10
-18.74604980443783
 20
339.8833457623616
 30
0.0
 40
0.999999988033044
100
AcDbArc
 50
254.4293975830078
 51
337.4991760253906
  0
ARC
  5
11B
330
1F
100
AcDbEntity
  8
0-2_本体（蓋）
  6
Continuous
 62
     6
370
     5
100
AcDbCircle
 10
-26.70896588039102
 20
341.467239703998
 30
0.0
 40
0.999999988033044
100
AcDbArc
 50
180.0007019042969
 51
263.0706176757812
  0
ARC
  5
11C
330
1F
100
AcDbEntity
  8
0-2_本体（蓋）
  6
Continuous
 62
     6
370
     5
100
AcDbCircle
 10
18.69341581038177
 20
302.4441776055574
 30
0.0
 40
0.999999988033044
100
AcDbArc
 50
112.5007019042968
 51
195.5706176757812
  0
ARC
  5
11D
330
1F
100
AcDbEntity
  8
0-2_本体（蓋）
  6
Continuous
 62
     6
370
     5
100
AcDbCircle
 10
20.14599078700459
 20
295.481105406859
 30
0.0
 40
0.999999988033044
100
AcDbArc
 50
188.001220703125
 51
270.0
  0
ARC
  5
11E
330
1F
100
AcDbEntity
  8
0-2_本体（蓋）
  6
Continuous
 62
     6
370
     5
100
AcDbCircle
 10
-33.2085285010474
 20
287.9811039929172
 30
0.0
 40
52.87940884741116
100
AcDbArc
 50
8.001586914062509
 51
15.57113647460939
  0
ARC
  5
11F
330
1F
100
AcDbEntity
  8
0-2_本体（蓋）
  6
Continuous
 62
     6
370
     5
100
AcDbCircle
 10
29.79104943731229
 20
287.9811039929172
 30
0.0
 40
5.000000760361955
100
AcDbArc
 50
90.0
 51
180.0
  0
ARC
  5
120
330
1F
100
AcDbEntity
  8
0-2_本体（蓋）
  6
Continuous
 62
     6
370
     5
100
AcDbCircle
 10
-33.20894844177494
 20
287.9811039929172
 30
0.0
 40
57.06689593046328
100
AcDbArc
 50
0.0
 51
10.09220886230469
  0
ARC
  5
121
330
1F
100
AcDbEntity
  8
0-2_本体（蓋）
  6
Continuous
 62
     6
370
     5
100
AcDbCircle
 10
-33.20894844177494
 20
287.9811039929172
 30
0.0
 40
45.0894733561512
100
AcDbArc
 50
0.0
 51
88.09358215332031
  0
ARC
  5
122
330
1F
100
AcDbEntity
  8
0-2_本体（蓋）
  6
Continuous
 62
     6
370
     5
100
AcDbCircle
 10
-33.20894844177494
 20
287.9811039929172
 30
0.0
 40
40.00000170851306
100
AcDbArc
 50
0.0
 51
9.225204467773438
  0
ARC
  5
123
330
1F
100
AcDbEntity
  8
0-2_本体（蓋）
  6
Continuous
 62
     6
370
     5
100
AcDbCircle
 10
-100.5234873459135
 20
292.9810932705248
 30
0.0
 40
0.999999988033044
100
AcDbArc
 50
175.7520599365235
 51
270.0
  0
ARC
  5
124
330
1F
100
AcDbEntity
  8
0-2_本体（蓋）
  6
Continuous
 62
     6
370
     5
100
AcDbCircle
 10
-99.43773059481245
 20
293.9811121230827
 30
0.0
 40
0.999999988033044
100
AcDbArc
 50
174.823226928711
 51
270.0
  0
ARC
  5
125
330
1F
100
AcDbEntity
  8
0-2_本体（蓋）
  6
Continuous
 62
     6
370
     5
100
AcDbCircle
 10
-33.20894844177494
 20
287.9811039929172
 30
0.0
 40
67.50000835109401
100
AcDbArc
 50
171.4803771972657
 51
174.8234100341797
  0
ARC
  5
126
330
1F
100
AcDbEntity
  8
0-2_本体（蓋）
  6
Continuous
 62
     6
370
     5
100
AcDbCircle
 10
-33.20936838250251
 20
287.9811039929172
 30
0.0
 40
52.87940884741116
100
AcDbArc
 50
141.9288635253906
 51
150.57080078125
  0
ARC
  5
127
330
1F
100
AcDbEntity
  8
0-2_本体（蓋）
  6
Continuous
 62
     6
370
     5
100
AcDbCircle
 10
-80.13634488467432
 20
314.4546223939562
 30
0.0
 40
0.999999988033044
100
AcDbArc
 50
247.5008239746094
 51
330.5706024169923
  0
ARC
  5
128
330
1F
100
AcDbEntity
  8
0-2_本体（蓋）
  6
Continuous
 62
     6
370
     5
100
AcDbCircle
 10
-75.62569153985348
 20
321.205239579571
 30
0.0
 40
0.999999988033044
100
AcDbArc
 50
321.9293823242188
 51
44.99929809570313
  0
ARC
  5
129
330
1F
100
AcDbEntity
  8
0-2_本体（蓋）
  6
Continuous
 62
     6
370
     5
100
AcDbCircle
 10
-33.20922840225999
 20
287.9812439731597
 30
0.0
 40
52.87940884741116
100
AcDbArc
 50
119.4288635253907
 51
128.07080078125
  0
ARC
  5
12A
330
1F
100
AcDbEntity
  8
0-2_本体（蓋）
  6
Continuous
 62
     6
370
     5
100
AcDbCircle
 10
-66.43315401855011
 20
330.3977771008744
 30
0.0
 40
0.999999988033044
100
AcDbArc
 50
225.0008239746094
 51
308.0706024169922
  0
ARC
  5
12B
330
1F
100
AcDbEntity
  8
0-2_本体（蓋）
  6
Continuous
 62
     6
370
     5
100
AcDbCircle
 10
-59.68250183787472
 20
334.9083954506347
 30
0.0
 40
0.999999988033044
100
AcDbArc
 50
299.4293823242187
 51
22.49929809570313
  0
ARC
  5
12C
330
1F
100
AcDbEntity
  8
0-2_本体（蓋）
  6
Continuous
 62
     6
370
     5
100
AcDbCircle
 10
-33.20908842201747
 20
287.9813489583415
 30
0.0
 40
52.87940884741116
100
AcDbArc
 50
96.92886352539061
 51
105.57080078125
  0
ARC
  5
12D
330
1F
100
AcDbEntity
  8
0-2_本体（蓋）
  6
Continuous
 62
     6
370
     5
100
AcDbCircle
 10
-47.67184707911207
 20
339.8833457623616
 30
0.0
 40
0.999999988033044
100
AcDbArc
 50
202.5008239746094
 51
285.5706024169922
  0
ARC
  5
12E
330
1F
100
AcDbEntity
  8
0-2_本体（蓋）
  6
Continuous
 62
     6
370
     5
100
AcDbCircle
 10
-39.70893100315888
 20
341.467239703998
 30
0.0
 40
0.999999988033044
100
AcDbArc
 50
276.9293823242188
 51
359.9992980957032
  0
ARC
  5
12F
330
1F
100
AcDbEntity
  8
0-2_本体（蓋）
  6
Continuous
 62
     6
370
     5
100
AcDbCircle
 10
-85.11131269393168
 20
302.4441776055574
 30
0.0
 40
0.999999988033044
100
AcDbArc
 50
344.4293823242187
 51
67.49929809570312
  0
ARC
  5
130
330
1F
100
AcDbEntity
  8
0-2_本体（蓋）
  6
Continuous
 62
     6
370
     5
100
AcDbCircle
 10
-86.5638876705545
 20
295.481105406859
 30
0.0
 40
0.999999988033044
100
AcDbArc
 50
270.0
 51
351.9987792968751
  0
ARC
  5
131
330
1F
100
AcDbEntity
  8
0-2_本体（蓋）
  6
Continuous
 62
     6
370
     5
100
AcDbCircle
 10
-33.20936838250251
 20
287.9811039929172
 30
0.0
 40
52.87940884741116
100
AcDbArc
 50
164.4288635253906
 51
171.9984130859375
  0
ARC
  5
132
330
1F
100
AcDbEntity
  8
0-2_本体（蓋）
  6
Continuous
 62
     6
370
     5
100
AcDbCircle
 10
-96.20894632086218
 20
287.9811039929172
 30
0.0
 40
5.000000760361955
100
AcDbArc
 50
0.0
 51
90.0
  0
ARC
  5
133
330
1F
100
AcDbEntity
  8
0-2_本体（蓋）
  6
Continuous
 62
     6
370
     5
100
AcDbCircle
 10
-33.20894844177494
 20
287.9811039929172
 30
0.0
 40
57.06689593046328
100
AcDbArc
 50
169.9077911376953
 51
180.0
  0
ARC
  5
134
330
1F
100
AcDbEntity
  8
0-2_本体（蓋）
  6
Continuous
 62
     6
370
     5
100
AcDbCircle
 10
-33.20894844177494
 20
287.9811039929172
 30
0.0
 40
45.0894733561512
100
AcDbArc
 50
91.90641784667976
 51
180.0
  0
ARC
  5
135
330
1F
100
AcDbEntity
  8
0-2_本体（蓋）
  6
Continuous
 62
     6
370
     5
100
AcDbCircle
 10
-33.20898343683558
 20
333.0437011425046
 30
0.0
 40
1.499994514071343
100
AcDbArc
 50
180.0
 51
0.073516845703134
  0
ARC
  5
136
330
1F
100
AcDbEntity
  8
0-2_本体（蓋）
  6
Continuous
 62
     6
370
     5
100
AcDbCircle
 10
-33.20894844177494
 20
287.9819438743722
 30
0.0
 40
39.00000035348546
100
AcDbArc
 50
100.5509033203125
 51
109.3743743896485
  0
ARC
  5
137
330
1F
100
AcDbEntity
  8
0-2_本体（蓋）
  6
Continuous
 62
     6
370
     5
100
AcDbCircle
 10
-33.20894844177494
 20
287.9811039929172
 30
0.0
 40
40.00000170851306
100
AcDbArc
 50
110.701171875
 51
180.0
  0
ARC
  5
138
330
1F
100
AcDbEntity
  8
0-2_本体（蓋）
  6
Continuous
 62
     6
370
     5
100
AcDbCircle
 10
-33.20894844177494
 20
287.9811039929172
 30
0.0
 40
57.25002508273916
100
AcDbArc
 50
11.07768249511719
 51
168.9223175048828
  0
ARC
  5
139
330
1F
100
AcDbEntity
  8
0-2_本体（蓋）
  6
Continuous
 62
     6
370
     5
100
AcDbCircle
 10
-33.20898343683558
 20
334.373793406923
 30
0.0
 40
1.499994514071343
100
AcDbArc
 50
198.0902252197266
 51
341.9127349853516
  0
ARC
  5
13A
330
1F
100
AcDbEntity
  8
0-1_ピット
  6
JWW_DASHED1
 62
     2
370
     9
100
AcDbCircle
 10
-11.70894555497703
 20
325.220222885631
 30
0.0
 40
12.99999902423284
100
AcDbArc
 50
254.658706665039
 51
308.0446624755859
  0
ARC
  5
13B
330
1F
100
AcDbEntity
  8
0-1_ピット
  6
JWW_DASHED1
 62
     2
370
     9
100
AcDbCircle
 10
-11.70894555497703
 20
325.220222885631
 30
0.0
 40
12.99999902423284
100
AcDbArc
 50
171.9553680419922
 51
225.34130859375
  0
ARC
  5
13C
330
1F
100
AcDbEntity
  8
0-1_ピット
  6
Continuous
 62
     2
370
     9
100
AcDbCircle
 10
-11.70894555497703
 20
325.220222885631
 30
0.0
 40
12.99999902423284
100
AcDbArc
 50
225.3413085937499
 51
254.658706665039
  0
ARC
  5
13D
330
1F
100
AcDbEntity
  8
0-1_ピット
  6
JWW_DASHED1
 62
     4
370
     9
100
AcDbCircle
 10
-11.70416872920103
 20
325.2174582758412
 30
0.0
 40
6.500000605712065
100
AcDbArc
 50
181.3935089111328
 51
298.5919036865234
  0
ARC
  5
13E
330
1F
100
AcDbEntity
  8
0-1_ピット
  6
JWW_DASHED1
 62
     2
370
     9
100
AcDbCircle
 10
-76.20900670796175
 20
287.9811039929172
 30
0.0
 40
12.99999902423284
100
AcDbArc
 50
14.65827941894533
 51
68.04450988769534
  0
ARC
  5
13F
330
1F
100
AcDbEntity
  8
0-0_通り芯
  6
Continuous
 62
     3
370
     9
100
AcDbCircle
 10
-33.20891344671433
 20
287.9811039929172
 30
0.0
 40
97.99997531493194
100
AcDbArc
 50
0.0
 51
180.0
  0
ARC
  5
140
330
1F
100
AcDbEntity
  8
0-0_通り芯
  6
Continuous
 62
     3
370
     9
100
AcDbCircle
 10
-33.20891344671433
 20
287.9811039929172
 30
0.0
 40
100.0000042712826
100
AcDbArc
 50
0.0001525878906262
 51
180.0
  0
ARC
  5
141
330
1F
100
AcDbEntity
  8
0-0_通り芯
  6
Continuous
 62
     3
370
     9
100
AcDbCircle
 10
-33.20891344671433
 20
287.9811039929172
 30
0.0
 40
99.00002916255052
100
AcDbArc
 50
0.0001525878906262
 51
180.0
  0
ARC
  5
142
330
1F
100
AcDbEntity
  8
0-0_通り芯
  6
Continuous
 62
     3
370
     9
100
AcDbCircle
 10
-33.20891344671433
 20
287.9811039929172
 30
0.0
 40
29.64999162092171
100
AcDbArc
 50
0.0
 51
9.270370483398438
  0
ARC
  5
143
330
1F
100
AcDbEntity
  8
0-0_通り芯
  6
Continuous
 62
     3
370
     9
100
AcDbCircle
 10
-33.20891344671433
 20
287.9811039929172
 30
0.0
 40
24.75000291625505
100
AcDbArc
 50
0.0
 51
7.524246215820312
  0
ARC
  5
144
330
1F
100
AcDbEntity
  8
0-0_通り芯
  6
Continuous
 62
     3
370
     9
100
AcDbCircle
 10
-33.20891344671433
 20
287.9811039929172
 30
0.0
 40
24.75000291625505
100
AcDbArc
 50
152.2271423339844
 51
180.0
  0
ARC
  5
145
330
1F
100
AcDbEntity
  8
0-0_通り芯
  6
Continuous
 62
     3
370
     9
100
AcDbCircle
 10
-33.20891344671433
 20
287.9811039929172
 30
0.0
 40
24.75000291625505
100
AcDbArc
 50
111.8390350341797
 51
151.5244293212891
  0
ARC
  5
146
330
1F
100
AcDbEntity
  8
0-0_通り芯
  6
Continuous
 62
     3
370
     9
100
AcDbCircle
 10
-33.20891344671433
 20
287.9811039929172
 30
0.0
 40
24.75000291625505
100
AcDbArc
 50
77.36721801757815
 51
115.5242309570313
  0
ARC
  5
147
330
1F
100
AcDbEntity
  8
0-0_通り芯
  6
Continuous
 62
     3
370
     9
100
AcDbCircle
 10
-33.20891344671433
 20
287.9811039929172
 30
0.0
 40
24.75000291625505
100
AcDbArc
 50
34.64204406738282
 51
79.52456665039064
  0
ARC
  5
148
330
1F
100
AcDbEntity
  8
0-0_通り芯
  6
Continuous
 62
     3
370
     9
100
AcDbCircle
 10
-33.20891344671433
 20
287.9811039929172
 30
0.0
 40
24.75000291625505
100
AcDbArc
 50
7.703247070312504
 51
43.52433776855469
  0
ARC
  5
149
330
1F
100
AcDbEntity
  8
0-0_通り芯
  6
Continuous
 62
     3
370
     9
100
AcDbCircle
 10
-33.20891344671433
 20
287.9811039929172
 30
0.0
 40
29.64999162092171
100
AcDbArc
 50
152.1837158203125
 51
180.0
  0
ARC
  5
14A
330
1F
100
AcDbEntity
  8
0-0_通り芯
  6
Continuous
 62
     3
370
     9
100
AcDbCircle
 10
-33.20891344671433
 20
287.9811039929172
 30
0.0
 40
29.64999162092171
100
AcDbArc
 50
113.7476959228516
 51
153.2704467773438
  0
ARC
  5
14B
330
1F
100
AcDbEntity
  8
0-0_通り芯
  6
Continuous
 62
     3
370
     9
100
AcDbCircle
 10
-33.20891344671433
 20
287.9811039929172
 30
0.0
 40
29.64999162092171
100
AcDbArc
 50
76.69924926757815
 51
117.2704315185547
  0
ARC
  5
14C
330
1F
100
AcDbEntity
  8
0-0_通り芯
  6
Continuous
 62
     3
370
     9
100
AcDbCircle
 10
-33.20891344671433
 20
287.9811039929172
 30
0.0
 40
29.64999162092171
100
AcDbArc
 50
45.53454589843749
 51
81.27064514160155
  0
ARC
  5
14D
330
1F
100
AcDbEntity
  8
0-0_通り芯
  6
Continuous
 62
     3
370
     9
100
AcDbCircle
 10
-33.20891344671433
 20
287.9811039929172
 30
0.0
 40
29.64999162092171
100
AcDbArc
 50
6.716613769531254
 51
45.2705078125
  0
ARC
  5
14E
330
1F
100
AcDbEntity
  8
0-1_ピット
  6
Continuous
 62
     2
370
     9
100
AcDbCircle
 10
-76.20900670796175
 20
287.9811039929172
 30
0.0
 40
12.99999902423284
100
AcDbArc
 50
0.0
 51
14.65827941894531
  0
LINE
  5
14F
330
1F
100
AcDbEntity
  8
0-6
  6
JWW_DASHED1
 62
     2
370
     9
100
AcDbLine
 10
-20.7089402526951
 20
343.849843411919
 30
0.0
 11
-20.7089402526951
 21
349.7817511540989
 31
0.0
  0
LINE
  5
150
330
1F
100
AcDbEntity
  8
0-6
  6
JWW_DASHED1
 62
     2
370
     9
100
AcDbLine
 10
-20.7089402526951
 20
332.7694973449397
 30
0.0
 11
-20.7089402526951
 21
339.3621468268714
 31
0.0
  0
LINE
  5
151
330
1F
100
AcDbEntity
  8
0-6
  6
Continuous
 62
     2
370
     9
100
AcDbLine
 10
-20.7089402526951
 20
339.3621468268714
 30
0.0
 11
-20.7089402526951
 21
343.849843411919
 31
0.0
  0
LINE
  5
152
330
1F
100
AcDbEntity
  8
0-6
  6
JWW_DASHED1
 62
     2
370
     9
100
AcDbLine
 10
-45.7089566308548
 20
332.7694973449397
 30
0.0
 11
-45.7089566308548
 21
339.3621468268714
 31
0.0
  0
LINE
  5
153
330
1F
100
AcDbEntity
  8
0-6
  6
JWW_DASHED1
 62
     2
370
     9
100
AcDbLine
 10
-45.7089566308548
 20
343.849843411919
 30
0.0
 11
-45.70895663085479
 21
349.7817511540989
 31
0.0
  0
LINE
  5
154
330
1F
100
AcDbEntity
  8
0-6
  6
Continuous
 62
     2
370
     9
100
AcDbLine
 10
-45.7089566308548
 20
339.3621468268714
 30
0.0
 11
-45.7089566308548
 21
343.849843411919
 31
0.0
  0
ARC
  5
155
330
1F
100
AcDbEntity
  8
0-6
  6
JWW_DASHED1
 62
     2
370
     9
100
AcDbCircle
 10
-23.7089443177779
 20
349.7817511540989
 30
0.0
 40
2.999999964099133
100
AcDbArc
 50
0.0
 51
81.46365356445312
  0
ARC
  5
156
330
1F
100
AcDbEntity
  8
0-6
  6
JWW_DASHED1
 62
     2
370
     9
100
AcDbCircle
 10
-42.70895256577199
 20
349.7817511540989
 30
0.0
 40
2.999999964099133
100
AcDbArc
 50
98.53634643554692
 51
180.0
  0
ARC
  5
157
330
1F
100
AcDbEntity
  8
0-6
  6
JWW_DASHED1
 62
     2
370
     9
100
AcDbCircle
 10
-33.20894844177494
 20
286.4907693458747
 30
0.0
 40
66.99999892481505
100
AcDbArc
 50
81.46360778808594
 51
98.53639221191405
  0
ARC
  5
158
330
1F
100
AcDbEntity
  8
0-6
  6
Continuous
 62
     2
370
     9
100
AcDbCircle
 10
-33.20894844177494
 20
287.9811039929172
 30
0.0
 40
30.60052089617519
100
AcDbArc
 50
0.0
 51
180.0
  0
ARC
  5
159
330
1F
100
AcDbEntity
  8
0-6
  6
JWW_DASHED1
 62
     2
370
     9
100
AcDbCircle
 10
-33.20894844177494
 20
287.9811039929172
 30
0.0
 40
45.95050932541777
100
AcDbArc
 50
0.0
 51
180.0
  0
ARC
  5
15A
330
1F
100
AcDbEntity
  8
0-6
  6
JWW_DASHED1
 62
     2
370
     9
100
AcDbCircle
 10
-33.20894844177494
 20
287.9811039929172
 30
0.0
 40
46.49999739304472
100
AcDbArc
 50
0.0
 51
180.0
  0
LINE
  5
15B
330
1F
100
AcDbEntity
  8
0-1_ピット
  6
Continuous
 62
     2
370
     9
100
AcDbLine
 10
-123.2089129164862
 20
5.097417768675477
 30
0.0
 11
-122.7089209877375
 21
7.097420478730733
 31
0.0
  0
LINE
  5
15C
330
1F
100
AcDbEntity
  8
0-1_ピット
  6
Continuous
 62
     2
370
     9
100
AcDbLine
 10
-117.1499556066896
 20
7.097420478730733
 30
0.0
 11
-122.7089209877375
 21
7.097420478730733
 31
0.0
  0
LINE
  5
15D
330
1F
100
AcDbEntity
  8
0-1_ピット
  6
Continuous
 62
     2
370
     9
100
AcDbLine
 10
-103.7088777446828
 20
11.09735590871986
 30
0.0
 11
-106.7088993072959
 21
11.09735590871986
 31
0.0
  0
LINE
  5
15E
330
1F
100
AcDbEntity
  8
0-1_ピット
  6
Continuous
 62
     2
370
     9
100
AcDbLine
 10
-107.2019097214489
 20
7.878160281382122
 30
0.0
 11
-106.7088993072959
 21
11.09735590871986
 31
0.0
  0
LINE
  5
15F
330
1F
100
AcDbEntity
  8
0-1_ピット
  6
Continuous
 62
     2
370
     9
100
AcDbLine
 10
56.79110352058778
 20
5.097417768675456
 30
0.0
 11
56.29105909924816
 21
7.09742047873069
 31
0.0
  0
LINE
  5
160
330
1F
100
AcDbEntity
  8
0-1_ピット
  6
Continuous
 62
     2
370
     9
100
AcDbLine
 10
50.73212871326091
 20
7.09742047873069
 30
0.0
 11
56.29105909924816
 21
7.09742047873069
 31
0.0
  0
LINE
  5
161
330
1F
100
AcDbEntity
  8
0-1_ピット
  6
Continuous
 62
     2
370
     9
100
AcDbLine
 10
40.78415281814146
 20
7.878160281382101
 30
0.0
 11
40.29110740892787
 21
11.09735590871983
 31
0.0
  0
LINE
  5
162
330
1F
100
AcDbEntity
  8
0-1_ピット
  6
Continuous
 62
     2
370
     9
100
AcDbLine
 10
-82.20889235541519
 20
-0.4026159302718
 30
0.0
 11
-81.20892599544821
 21
-5.402605207879454
 31
0.0
  0
LINE
  5
163
330
1F
100
AcDbEntity
  8
0-1_ピット
  6
Continuous
 62
     2
370
     9
100
AcDbLine
 10
-70.20889359261429
 20
-0.4026159302718
 30
0.0
 11
-71.20891244517219
 21
-5.402605207879454
 31
0.0
  0
LINE
  5
164
330
1F
100
AcDbEntity
  8
0-1_ピット
  6
Continuous
 62
     2
370
     9
100
AcDbLine
 10
-63.96773449964856
 20
-1.608475729454319
 30
0.0
 11
-63.20886660989079
 21
-5.402605207879454
 31
0.0
  0
LINE
  5
165
330
1F
100
AcDbEntity
  8
0-1_ピット
  6
Continuous
 62
     2
370
     9
100
AcDbLine
 10
-110.9437915743537
 20
5.4344202025407
 30
0.0
 11
-117.1499556066896
 21
7.097420478730733
 31
0.0
  0
LINE
  5
166
330
1F
100
AcDbEntity
  8
0-1_ピット
  6
Continuous
 62
     2
370
     9
100
AcDbLine
 10
23.07098293962736
 20
3.860132405047359
 30
0.0
 11
22.51389656946116
 21
0.728984350254251
 31
0.0
  0
LINE
  5
167
330
1F
100
AcDbEntity
  8
0-1_ピット
  6
JWW_DASHED1
 62
     2
370
     9
100
AcDbLine
 10
36.39591219540373
 20
6.321055058658004
 30
0.0
 11
36.02300482933235
 21
4.331480876670533
 31
0.0
  0
LINE
  5
168
330
1F
100
AcDbEntity
  8
0-1_ピット
  6
Continuous
 62
     2
370
     9
100
AcDbLine
 10
17.14344958002613
 20
-1.90260921404802
 30
0.0
 11
21.06244143477846
 21
-0.8525124297287903
 31
0.0
  0
LINE
  5
169
330
1F
100
AcDbEntity
  8
0-1_ピット
  6
JWW_DASHED1
 62
     2
370
     9
100
AcDbLine
 10
21.06244143477846
 20
-0.8525124297287903
 30
0.0
 11
44.52603467104626
 21
5.434525187722592
 31
0.0
  0
LINE
  5
16A
330
1F
100
AcDbEntity
  8
0-1_ピット
  6
Continuous
 62
     2
370
     9
100
AcDbLine
 10
44.52603467104626
 20
5.434525187722592
 30
0.0
 11
50.73212871326091
 21
7.09742047873069
 31
0.0
  0
LINE
  5
16B
330
1F
100
AcDbEntity
  8
0-1_ピット
  6
Continuous
 62
     2
370
     9
100
AcDbLine
 10
37.29108584631472
 20
11.09735590871983
 30
0.0
 11
36.39591219540373
 21
6.321055058658004
 31
0.0
  0
LINE
  5
16C
330
1F
100
AcDbEntity
  8
0-1_ピット
  6
Continuous
 62
     2
370
     9
100
AcDbLine
 10
37.29108584631472
 20
11.09735590871983
 30
0.0
 11
40.29110740892787
 21
11.09735590871983
 31
0.0
  0
LINE
  5
16D
330
1F
100
AcDbEntity
  8
0-1_ピット
  6
Continuous
 62
     4
370
     9
100
AcDbLine
 10
-72.20893129773013
 20
-19.25896945438041
 30
0.0
 11
-80.20887214782965
 21
-19.25896945438041
 31
0.0
  0
LINE
  5
16E
330
1F
100
AcDbEntity
  8
0-1_ピット
  6
Continuous
 62
     4
370
     9
100
AcDbLine
 10
-80.20887214782965
 20
-19.25896945438041
 30
0.0
 11
-79.53243512338543
 21
-19.93542397635496
 31
0.0
  0
LINE
  5
16F
330
1F
100
AcDbEntity
  8
0-1_ピット
  6
Continuous
 62
     4
370
     9
100
AcDbLine
 10
-79.53243512338543
 20
-19.93542397635496
 30
0.0
 11
-72.88540331723497
 21
-19.93542397635496
 31
0.0
  0
LINE
  5
170
330
1F
100
AcDbEntity
  8
0-1_ピット
  6
Continuous
 62
     4
370
     9
100
AcDbLine
 10
-72.88540331723497
 20
-19.93542397635496
 30
0.0
 11
-72.20893129773013
 21
-19.25896945438041
 31
0.0
  0
LINE
  5
171
330
1F
100
AcDbEntity
  8
0-1_ピット
  6
Continuous
 62
     4
370
     9
100
AcDbLine
 10
-83.70899062437331
 20
5.375663495743247
 30
0.0
 11
-83.70899062437331
 21
-0.4026159302718
 31
0.0
  0
LINE
  5
172
330
1F
100
AcDbEntity
  8
0-1_ピット
  6
Continuous
 62
     4
370
     9
100
AcDbLine
 10
-68.70888281130773
 20
5.375663495743247
 30
0.0
 11
-68.70888281130773
 21
-0.4026159302718
 31
0.0
  0
LINE
  5
173
330
1F
100
AcDbEntity
  8
0-1_ピット
  6
Continuous
 62
     4
370
     9
100
AcDbLine
 10
-83.70899062437331
 20
-0.4026159302718
 30
0.0
 11
-68.70888281130773
 21
-0.4026159302718
 31
0.0
  0
LINE
  5
174
330
1F
100
AcDbEntity
  8
0-1_ピット
  6
Continuous
 62
     4
370
     9
100
AcDbLine
 10
-79.9561553174914
 20
5.375663495743247
 30
0.0
 11
-79.9561553174914
 21
-0.4026159302718
 31
0.0
  0
LINE
  5
175
330
1F
100
AcDbEntity
  8
0-1_ピット
  6
Continuous
 62
     4
370
     9
100
AcDbLine
 10
-72.46171811818968
 20
5.375663495743247
 30
0.0
 11
-72.46171811818968
 21
-0.4026159302718
 31
0.0
  0
LINE
  5
176
330
1F
100
AcDbEntity
  8
0-1_ピット
  6
Continuous
 62
     4
370
     9
100
AcDbLine
 10
-81.83253797587172
 20
6.097401626172768
 30
0.0
 11
-70.58531796227902
 21
6.097401626172768
 31
0.0
  0
LINE
  5
177
330
1F
100
AcDbEntity
  8
0-1_ピット
  6
Continuous
 62
     4
370
     9
100
AcDbLine
 10
-72.20893129773012
 20
9.38798717719532
 30
0.0
 11
-80.20887214782965
 21
9.38798717719532
 31
0.0
  0
LINE
  5
178
330
1F
100
AcDbEntity
  8
0-1_ピット
  6
Continuous
 62
     4
370
     9
100
AcDbLine
 10
-80.20887214782965
 20
9.38798717719532
 30
0.0
 11
-79.53243512338543
 21
10.0645466843518
 31
0.0
  0
LINE
  5
179
330
1F
100
AcDbEntity
  8
0-1_ピット
  6
Continuous
 62
     4
370
     9
100
AcDbLine
 10
-79.53243512338543
 20
10.0645466843518
 30
0.0
 11
-72.88540331723496
 21
10.0645466843518
 31
0.0
  0
LINE
  5
17A
330
1F
100
AcDbEntity
  8
0-1_ピット
  6
Continuous
 62
     4
370
     9
100
AcDbLine
 10
-72.88540331723496
 20
10.0645466843518
 30
0.0
 11
-72.20893129773012
 21
9.38798717719532
 31
0.0
  0
LINE
  5
17B
330
1F
100
AcDbEntity
  8
0-1_ピット
  6
Continuous
 62
     2
370
     9
100
AcDbLine
 10
-80.20887214782965
 20
-5.402605207879454
 30
0.0
 11
-84.02209143182836
 21
-5.402605207879454
 31
0.0
  0
LINE
  5
17C
330
1F
100
AcDbEntity
  8
0-1_ピット
  6
Continuous
 62
     2
370
     9
100
AcDbLine
 10
36.29103199869619
 20
-0.9131588698003199
 30
0.0
 11
38.29106970381199
 21
-0.3772095162545668
 31
0.0
  0
LINE
  5
17D
330
1F
100
AcDbEntity
  8
0-1_ピット
  6
Continuous
 62
     2
370
     9
100
AcDbLine
 10
36.29103199869619
 20
-0.9131588698003199
 30
0.0
 11
35.29097815107762
 21
-0.6635041072671299
 31
0.0
  0
LINE
  5
17E
330
1F
100
AcDbEntity
  8
0-1_ピット
  6
Continuous
 62
     2
370
     9
100
AcDbLine
 10
17.60419454827843
 20
-5.402605207879475
 30
0.0
 11
35.29097815107762
 21
-0.6635041072671299
 31
0.0
  0
LINE
  5
17F
330
1F
100
AcDbEntity
  8
0-1_ピット
  6
Continuous
 62
     2
370
     9
100
AcDbLine
 10
38.29106970381199
 20
-0.3772095162545668
 30
0.0
 11
39.29119354155182
 21
0.4083945998244829
 31
0.0
  0
LINE
  5
180
330
1F
100
AcDbEntity
  8
0-1_ピット
  6
Continuous
 62
     2
370
     9
100
AcDbLine
 10
39.29119354155182
 20
0.4083945998244829
 30
0.0
 11
56.79110352058778
 21
5.097417768675456
 31
0.0
  0
LINE
  5
181
330
1F
100
AcDbEntity
  8
0-1_ピット
  6
Continuous
 62
     2
370
     9
100
AcDbLine
 10
-102.7088588921249
 20
-0.9131588698003199
 30
0.0
 11
-104.7088965972407
 21
-0.3772095162545455
 31
0.0
  0
LINE
  5
182
330
1F
100
AcDbEntity
  8
0-1_ピット
  6
Continuous
 62
     2
370
     9
100
AcDbLine
 10
-104.7088965972407
 20
-0.3772095162545455
 30
0.0
 11
-105.7089504448592
 21
0.408324609703179
 31
0.0
  0
LINE
  5
183
330
1F
100
AcDbEntity
  8
0-1_ピット
  6
Continuous
 62
     2
370
     9
100
AcDbLine
 10
-105.7089504448592
 20
0.408324609703179
 30
0.0
 11
-123.2089129164862
 21
5.097417768675477
 31
0.0
  0
LINE
  5
184
330
1F
100
AcDbEntity
  8
0-1_ピット
  6
Continuous
 62
     2
370
     9
100
AcDbLine
 10
-102.7088588921249
 20
-0.9131588698003199
 30
0.0
 11
-101.7089275272185
 21
-0.6635041072671086
 31
0.0
  0
LINE
  5
185
330
1F
100
AcDbEntity
  8
0-1_ピット
  6
Continuous
 62
     2
370
     9
100
AcDbLine
 10
-84.02209143182836
 20
-5.402605207879454
 30
0.0
 11
-101.7089275272185
 21
-0.6635041072671086
 31
0.0
  0
LINE
  5
186
330
1F
100
AcDbEntity
  8
0-1_ピット
  6
Continuous
 62
     2
370
     9
100
AcDbLine
 10
-72.20893129773013
 20
-5.402605207879454
 30
0.0
 11
17.60419454827843
 21
-5.402605207879475
 31
0.0
  0
LINE
  5
187
330
1F
100
AcDbEntity
  8
0-1_ピット
  6
JWW_DASHED1
 62
     2
370
     9
100
AcDbLine
 10
-89.15938382981717
 20
-0.4026159302718
 30
0.0
 11
-94.20894361080701
 21
0.9503980988591891
 31
0.0
  0
LINE
  5
188
330
1F
100
AcDbEntity
  8
0-1_ピット
  6
Continuous
 62
     2
370
     9
100
AcDbLine
 10
-89.48880983305605
 20
3.860132405047359
 30
0.0
 11
-89.0239004525888
 21
1.247051227818254
 31
0.0
  0
LINE
  5
189
330
1F
100
AcDbEntity
  8
0-1_ピット
  6
Continuous
 62
     2
370
     9
100
AcDbLine
 10
-103.7088777446828
 20
11.09735590871986
 30
0.0
 11
-102.6421233115038
 21
5.405549277521118
 31
0.0
  0
LINE
  5
18A
330
1F
100
AcDbEntity
  8
0-1_ピット
  6
JWW_DASHED1
 62
     2
370
     9
100
AcDbLine
 10
-102.6421233115038
 20
5.405549277521118
 30
0.0
 11
-102.4408142252307
 21
4.331480876670533
 31
0.0
  0
LINE
  5
18B
330
1F
100
AcDbEntity
  8
0-1_ピット
  6
JWW_DASHED1
 62
     2
370
     9
100
AcDbLine
 10
-99.70894231469366
 20
2.424145087163083
 30
0.0
 11
-110.9437915743537
 21
5.4344202025407
 31
0.0
  0
LINE
  5
18C
330
1F
100
AcDbEntity
  8
0-1_ピット
  6
Continuous
 62
     2
370
     9
100
AcDbLine
 10
-65.43857689792014
 20
-0.4026159302718
 30
0.0
 11
-87.05481587860005
 21
-0.4026159302718
 31
0.0
  0
LINE
  5
18D
330
1F
100
AcDbEntity
  8
0-1_ピット
  6
JWW_DASHED1
 62
     2
370
     9
100
AcDbLine
 10
-87.05481587860005
 20
-0.4026159302718
 30
0.0
 11
-89.15938382981717
 21
-0.4026159302718
 31
0.0
  0
LINE
  5
18E
330
1F
100
AcDbEntity
  8
0-1_ピット
  6
Continuous
 62
     2
370
     9
100
AcDbLine
 10
10.58390542545019
 20
-2.627916840661783
 30
0.0
 11
9.791127321942138
 21
-5.402605207879475
 31
0.0
  0
LINE
  5
18F
330
1F
100
AcDbEntity
  8
0-1_ピット
  6
Continuous
 62
     2
370
     9
100
AcDbLine
 10
-90.96560139163472
 20
5.097417768675477
 30
0.0
 11
-94.57891139178554
 21
5.097417768675477
 31
0.0
  0
LINE
  5
190
330
1F
100
AcDbEntity
  8
0-1_ピット
  6
Continuous
 62
     2
370
     9
100
AcDbLine
 10
-98.83893011237552
 20
5.097417768675477
 30
0.0
 11
-101.3394321795585
 21
5.097417768675477
 31
0.0
  0
LINE
  5
191
330
1F
100
AcDbEntity
  8
0-1_ピット
  6
Continuous
 62
     2
370
     9
100
AcDbLine
 10
32.42110321894681
 20
5.097417768675456
 30
0.0
 11
34.9216052861298
 21
5.097417768675456
 31
0.0
  0
LINE
  5
192
330
1F
100
AcDbEntity
  8
0-1_ピット
  6
Continuous
 62
     2
370
     9
100
AcDbLine
 10
24.54777449820601
 20
5.097417768675456
 30
0.0
 11
28.16108449835684
 21
5.097417768675456
 31
0.0
  0
LINE
  5
193
330
1F
100
AcDbEntity
  8
0-1_ピット
  6
Continuous
 62
     2
370
     9
100
AcDbLine
 10
-63.90887280766919
 20
-1.90260921404802
 30
0.0
 11
17.14344958002613
 21
-1.90260921404802
 31
0.0
  0
LINE
  5
194
330
1F
100
AcDbEntity
  8
0-1_ピット
  6
Continuous
 62
     2
370
     9
100
AcDbLine
 10
33.29111542126496
 20
0.9178526924734527
 30
0.0
 11
33.29111542126496
 21
-1.199348475631034
 31
0.0
  0
LINE
  5
195
330
1F
100
AcDbEntity
  8
0-1_ピット
  6
Continuous
 62
     2
370
     9
100
AcDbLine
 10
32.42110321894681
 20
0.047805495094714
 30
0.0
 11
32.42110321894681
 21
-1.432485569546941
 31
0.0
  0
LINE
  5
196
330
1F
100
AcDbEntity
  8
0-1_ピット
  6
Continuous
 62
     2
370
     9
100
AcDbLine
 10
27.29107229603873
 20
0.9176427221096688
 30
0.0
 11
27.29107229603873
 21
-2.807056556025877
 31
0.0
  0
LINE
  5
197
330
1F
100
AcDbEntity
  8
0-1_ピット
  6
Continuous
 62
     2
370
     9
100
AcDbLine
 10
28.16108449835684
 20
0.0475955247309301
 30
0.0
 11
28.16108449835684
 21
-2.573919462110013
 31
0.0
  0
LINE
  5
198
330
1F
100
AcDbEntity
  8
0-1_ピット
  6
Continuous
 62
     2
370
     9
100
AcDbLine
 10
-93.70889918946743
 20
0.9176777171702994
 30
0.0
 11
-93.70889918946743
 21
-2.807056556025877
 31
0.0
  0
LINE
  5
199
330
1F
100
AcDbEntity
  8
0-1_ピット
  6
Continuous
 62
     2
370
     9
100
AcDbLine
 10
-94.57891139178554
 20
0.0476305197916034
 30
0.0
 11
-94.57891139178554
 21
-2.573954457170601
 31
0.0
  0
LINE
  5
19A
330
1F
100
AcDbEntity
  8
0-1_ピット
  6
Continuous
 62
     2
370
     9
100
AcDbLine
 10
-98.83893011237552
 20
0.047770500034126
 30
0.0
 11
-98.83893011237552
 21
-1.43252056460755
 31
0.0
  0
LINE
  5
19B
330
1F
100
AcDbEntity
  8
0-1_ピット
  6
Continuous
 62
     2
370
     9
100
AcDbLine
 10
-99.70894231469366
 20
0.917817697412822
 30
0.0
 11
-99.70894231469366
 21
-1.199383470691664
 31
0.0
  0
LINE
  5
19C
330
1F
100
AcDbEntity
  8
0-2_本体（蓋）
  6
Continuous
 62
     6
370
     5
100
AcDbLine
 10
35.29111813132014
 20
10.59748646268341
 30
0.0
 11
34.29109927876224
 21
11.59750531524131
 31
0.0
  0
LINE
  5
19D
330
1F
100
AcDbEntity
  8
0-2_本体（蓋）
  6
Continuous
 62
     6
370
     5
100
AcDbLine
 10
25.79107901226251
 20
11.01966687412165
 30
0.0
 11
24.29112072354688
 21
5.097522753857369
 31
0.0
  0
LINE
  5
19E
330
1F
100
AcDbEntity
  8
0-2_本体（蓋）
  6
Continuous
 62
     6
370
     5
100
AcDbLine
 10
-78.10164457200466
 20
68.0974506428234
 30
0.0
 11
-79.91347884105328
 21
66.59742236398647
 31
0.0
  0
LINE
  5
19F
330
1F
100
AcDbEntity
  8
0-2_本体（蓋）
  6
Continuous
 62
     6
370
     5
100
AcDbLine
 10
-78.10164457200466
 20
68.0974506428234
 30
0.0
 11
-76.77155230758623
 21
75.09744263048623
 31
0.0
  0
LINE
  5
1A0
330
1F
100
AcDbEntity
  8
0-2_本体（蓋）
  6
Continuous
 62
     6
370
     5
100
AcDbLine
 10
-77.47054364860638
 20
75.09744263048623
 30
0.0
 11
11.05269925764736
 21
75.09744263048623
 31
0.0
  0
LINE
  5
1A1
330
1F
100
AcDbEntity
  8
0-2_本体（蓋）
  6
Continuous
 62
     6
370
     5
100
AcDbLine
 10
24.79113014982583
 20
12.01968572667955
 30
0.0
 11
25.79107901226251
 21
11.01966687412165
 31
0.0
  0
LINE
  5
1A2
330
1F
100
AcDbEntity
  8
0-2_本体（蓋）
  6
Continuous
 62
     6
370
     5
100
AcDbLine
 10
35.29111813132014
 20
10.59748646268341
 30
0.0
 11
34.44038820740904
 21
5.918506876233067
 31
0.0
  0
LINE
  5
1A3
330
1F
100
AcDbEntity
  8
0-2_本体（蓋）
  6
JWW_PHANTOM1
 62
     6
370
     5
100
AcDbLine
 10
-72.20896629279072
 20
75.09744263048623
 30
0.0
 11
-76.42517119747222
 21
45.09743697471893
 31
0.0
  0
LINE
  5
1A4
330
1F
100
AcDbEntity
  8
0-2_本体（蓋）
  6
JWW_PHANTOM1
 62
     6
370
     5
100
AcDbLine
 10
-78.08134743683937
 20
45.09743697471893
 30
0.0
 11
-76.42517119747222
 21
45.09743697471893
 31
0.0
  0
LINE
  5
1A5
330
1F
100
AcDbEntity
  8
0-2_本体（蓋）
  6
JWW_DASHED1
 62
     6
370
     5
100
AcDbLine
 10
-80.80928240305559
 20
35.0975284096248
 30
0.0
 11
-86.08874223485307
 21
34.0975095570669
 31
0.0
  0
LINE
  5
1A6
330
1F
100
AcDbEntity
  8
0-2_本体（蓋）
  6
JWW_DASHED1
 62
     6
370
     5
100
AcDbLine
 10
14.39143801209655
 20
35.09752840962476
 30
0.0
 11
19.67086284883345
 21
34.09750955706686
 31
0.0
  0
LINE
  5
1A7
330
1F
100
AcDbEntity
  8
0-2_本体（蓋）
  6
Continuous
 62
     6
370
     5
100
AcDbLine
 10
12.03508059964787
 20
74.28415742144908
 30
0.0
 11
23.71034269733427
 21
12.83843016517495
 31
0.0
  0
LINE
  5
1A8
330
1F
100
AcDbEntity
  8
0-2_本体（蓋）
  6
Continuous
 62
     6
370
     5
100
AcDbLine
 10
19.6280288946225
 20
7.537518361211397
 30
0.0
 11
6.791070764268394
 21
75.09744263048623
 31
0.0
  0
LINE
  5
1A9
330
1F
100
AcDbEntity
  8
0-2_本体（蓋）
  6
Continuous
 62
     6
370
     5
100
AcDbLine
 10
-86.04594327570281
 20
7.537518361211418
 30
0.0
 11
-73.20895015028802
 21
75.09744263048623
 31
0.0
  0
LINE
  5
1AA
330
1F
100
AcDbEntity
  8
0-2_本体（蓋）
  6
Continuous
 62
     6
370
     5
100
AcDbLine
 10
-90.96560139163472
 20
5.09752275385739
 30
0.0
 11
-83.70899062437331
 21
5.09752275385739
 31
0.0
  0
LINE
  5
1AB
330
1F
100
AcDbEntity
  8
0-2_本体（蓋）
  6
Continuous
 62
     6
370
     5
100
AcDbLine
 10
-68.70888281130773
 20
5.09752275385739
 30
0.0
 11
24.54777449820601
 21
5.097522753857369
 31
0.0
  0
LINE
  5
1AC
330
1F
100
AcDbEntity
  8
0-2_本体（蓋）
  6
Continuous
 62
     6
370
     5
100
AcDbLine
 10
-101.7089625222791
 20
10.59748646268343
 30
0.0
 11
-100.7089436697212
 21
11.59750531524133
 31
0.0
  0
LINE
  5
1AD
330
1F
100
AcDbEntity
  8
0-2_本体（蓋）
  6
Continuous
 62
     6
370
     5
100
AcDbLine
 10
-92.2089234032215
 20
11.01966687412165
 30
0.0
 11
-90.70896511450587
 21
5.09752275385739
 31
0.0
  0
LINE
  5
1AE
330
1F
100
AcDbEntity
  8
0-2_本体（蓋）
  6
Continuous
 62
     6
370
     5
100
AcDbLine
 10
-91.20897454078482
 20
12.01968572667955
 30
0.0
 11
-92.2089234032215
 21
11.01966687412165
 31
0.0
  0
LINE
  5
1AF
330
1F
100
AcDbEntity
  8
0-2_本体（蓋）
  6
Continuous
 62
     6
370
     5
100
AcDbLine
 10
-101.7089625222791
 20
10.59748646268343
 30
0.0
 11
-100.8582325983681
 21
5.918506876233089
 31
0.0
  0
LINE
  5
1B0
330
1F
100
AcDbEntity
  8
0-2_本体（蓋）
  6
Continuous
 62
     6
370
     5
100
AcDbLine
 10
-78.45292499060686
 20
74.28415742144908
 30
0.0
 11
-90.12816959076297
 21
12.83829018493243
 31
0.0
  0
LINE
  5
1B1
330
1F
100
AcDbEntity
  8
0-2_本体（蓋）
  6
Continuous
 62
     6
370
     5
100
AcDbLine
 10
-91.06619469341516
 20
12.02598483759294
 30
0.0
 11
-93.70893418452803
 21
11.90854141411921
 31
0.0
  0
LINE
  5
1B2
330
1F
100
AcDbEntity
  8
0-2_本体（蓋）
  6
Continuous
 62
     6
370
     5
100
AcDbLine
 10
-99.7089948072846
 20
11.64187905211993
 30
0.0
 11
-100.7089436697212
 21
11.59750531524133
 31
0.0
  0
LINE
  5
1B3
330
1F
100
AcDbEntity
  8
0-2_本体（蓋）
  6
JWW_PHANTOM1
 62
     6
370
     5
100
AcDbLine
 10
5.791121901831733
 20
75.09744263048623
 30
0.0
 11
10.00732680651322
 21
45.0974369747189
 31
0.0
  0
LINE
  5
1B4
330
1F
100
AcDbEntity
  8
0-2_本体（蓋）
  6
JWW_PHANTOM1
 62
     6
370
     5
100
AcDbLine
 10
11.66350304588034
 20
45.0974369747189
 30
0.0
 11
10.00732680651322
 21
45.0974369747189
 31
0.0
  0
LINE
  5
1B5
330
1F
100
AcDbEntity
  8
0-2_本体（蓋）
  6
Continuous
 62
     6
370
     5
100
AcDbLine
 10
24.64835030245615
 20
12.02598483759292
 30
0.0
 11
27.29103730097806
 21
11.90854141411918
 31
0.0
  0
LINE
  5
1B6
330
1F
100
AcDbEntity
  8
0-2_本体（蓋）
  6
Continuous
 62
     6
370
     5
100
AcDbLine
 10
33.29108042620429
 20
11.64187905211993
 30
0.0
 11
34.29109927876224
 21
11.59750531524131
 31
0.0
  0
LINE
  5
1B7
330
1F
100
AcDbEntity
  8
0-0_通り芯
  6
Continuous
 62
     3
370
     9
100
AcDbLine
 10
-62.85893350112284
 20
-24.64953860367758
 30
0.0
 11
-57.95892511173459
 21
-164.7494992253973
 31
0.0
  0
LINE
  5
1B8
330
1F
100
AcDbEntity
  8
0-0_通り芯
  6
Continuous
 62
     3
370
     9
100
AcDbLine
 10
-3.558928387366525
 20
-24.64953860367758
 30
0.0
 11
-62.85893350112284
 21
-24.64953860367758
 31
0.0
  0
LINE
  5
1B9
330
1F
100
AcDbEntity
  8
0-0_通り芯
  6
Continuous
 62
     3
370
     9
100
AcDbLine
 10
-131.2089062591766
 20
7.241075202616138
 30
0.0
 11
-119.3533146140647
 21
4.06429358876175
 31
0.0
  0
LINE
  5
1BA
330
1F
100
AcDbEntity
  8
0-0_通り芯
  6
Continuous
 62
     3
370
     9
100
AcDbLine
 10
-116.4554086383695
 20
3.287788188446541
 30
0.0
 11
-113.5577476280986
 21
2.511387773313224
 31
0.0
  0
LINE
  5
1BB
330
1F
100
AcDbEntity
  8
0-0_通り芯
  6
Continuous
 62
     3
370
     9
100
AcDbLine
 10
-97.57032416948373
 20
-7.058151536155265
 30
0.0
 11
-98.36047764344454
 21
-7.949195769911903
 31
0.0
  0
LINE
  5
1BC
330
1F
100
AcDbEntity
  8
0-0_通り芯
  6
Continuous
 62
     3
370
     9
100
AcDbLine
 10
-110.9374924634403
 20
-3.476442075753205
 30
0.0
 11
-110.6986511746417
 21
-4.643142402090966
 31
0.0
  0
LINE
  5
1BD
330
1F
100
AcDbEntity
  8
0-0_通り芯
  6
Continuous
 62
     3
370
     9
100
AcDbLine
 10
-112.3791839762073
 20
-1.945513158380152
 30
0.0
 11
-121.5671021495075
 21
0.5163193668068473
 31
0.0
  0
LINE
  5
1BE
330
1F
100
AcDbEntity
  8
0-0_通り芯
  6
Continuous
 62
     3
370
     9
100
AcDbLine
 10
-99.871039435531
 20
-8.402976721098874
 30
0.0
 11
-109.6173387962407
 21
-5.791400331476844
 31
0.0
  0
LINE
  5
1BF
330
1F
100
AcDbEntity
  8
0-0_通り芯
  6
Continuous
 62
     3
370
     9
100
AcDbLine
 10
-97.5059332579248
 20
-1.789750143516819
 30
0.0
 11
-95.20507801163501
 21
-2.406153141450602
 31
0.0
  0
LINE
  5
1C0
330
1F
100
AcDbEntity
  8
0-0_通り芯
  6
Continuous
 62
     3
370
     9
100
AcDbLine
 10
-98.51302111272999
 20
-2.092212452540423
 30
0.0
 11
-99.9182477723206
 21
-3.676823792919549
 31
0.0
  0
LINE
  5
1C1
330
1F
100
AcDbEntity
  8
0-0_通り芯
  6
Continuous
 62
     3
370
     9
100
AcDbLine
 10
-100.9252656370045
 20
-3.979321097003783
 30
0.0
 11
-106.4927348177855
 21
-2.487516657414922
 31
0.0
  0
LINE
  5
1C2
330
1F
100
AcDbEntity
  8
0-0_通り芯
  6
Continuous
 62
     3
370
     9
100
AcDbLine
 10
-107.213528081578
 20
-1.722104691319373
 30
0.0
 11
-107.6381581472603
 21
0.3529624237868347
 31
0.0
  0
LINE
  5
1C3
330
1F
100
AcDbEntity
  8
0-0_通り芯
  6
Continuous
 62
     3
370
     9
100
AcDbLine
 10
-108.3590913912954
 20
1.118409384942993
 30
0.0
 11
-110.6599466375852
 21
1.734882372998015
 31
0.0
  0
LINE
  5
1C4
330
1F
100
AcDbEntity
  8
0-0_通り芯
  6
Continuous
 62
     3
370
     9
100
AcDbLine
 10
-90.44095544267238
 20
-7.823808467675228
 30
0.0
 11
-95.5563584302372
 21
-6.453226918108101
 31
0.0
  0
LINE
  5
1C5
330
1F
100
AcDbEntity
  8
0-0_通り芯
  6
Continuous
 62
     3
370
     9
100
AcDbLine
 10
-89.40566156899956
 20
-3.960143803778635
 30
0.0
 11
-92.30727702112162
 21
-3.182658541765811
 31
0.0
  0
LINE
  5
1C6
330
1F
100
AcDbEntity
  8
0-0_通り芯
  6
Continuous
 62
     3
370
     9
100
AcDbLine
 10
-84.26054777496003
 20
-9.941779527113567
 30
0.0
 11
-84.26950651048124
 21
-9.868499870154714
 31
0.0
  0
LINE
  5
1C7
330
1F
100
AcDbEntity
  8
0-0_通り芯
  6
Continuous
 62
     3
370
     9
100
AcDbLine
 10
-67.01302217318637
 20
-24.35897461526816
 30
0.0
 11
-62.85893350112284
 21
-24.64953860367758
 31
0.0
  0
LINE
  5
1C8
330
1F
100
AcDbEntity
  8
0-0_通り芯
  6
Continuous
 62
     3
370
     9
100
AcDbLine
 10
-70.07865947448039
 20
-12.1071338986447
 30
0.0
 11
-68.3909876805464
 21
-23.09047365755823
 31
0.0
  0
LINE
  5
1C9
330
1F
100
AcDbEntity
  8
0-0_通り芯
  6
JWW_DASHED1
 62
     3
370
     9
100
AcDbLine
 10
-83.02620199642477
 20
-19.99460062387998
 30
0.0
 11
-84.26054777496003
 21
-9.94188451229548
 31
0.0
  0
LINE
  5
1CA
330
1F
100
AcDbEntity
  8
0-0_通り芯
  6
JWW_DASHED1
 62
     3
370
     9
100
AcDbLine
 10
-79.33506298143323
 20
-23.49736122750119
 30
0.0
 11
-67.01305716824697
 21
-24.35904460538938
 31
0.0
  0
LINE
  5
1CB
330
1F
100
AcDbEntity
  8
0-0_通り芯
  6
Continuous
 62
     3
370
     9
100
AcDbLine
 10
-133.2089089692318
 20
1.24099708232928
 30
0.0
 11
-132.2089251117345
 21
-0.759005627725891
 31
0.0
  0
LINE
  5
1CC
330
1F
100
AcDbEntity
  8
0-0_通り芯
  6
Continuous
 62
     3
370
     9
100
AcDbLine
 10
-132.2089251117345
 20
-0.759005627725891
 30
0.0
 11
-130.2088874066187
 21
-0.759005627725891
 31
0.0
  0
LINE
  5
1CD
330
1F
100
AcDbEntity
  8
0-0_通り芯
  6
Continuous
 62
     3
370
     9
100
AcDbLine
 10
-87.01266432807144
 20
-20.34983548433337
 30
0.0
 11
-88.23969613893503
 21
-10.35598106472821
 31
0.0
  0
LINE
  5
1CE
330
1F
100
AcDbEntity
  8
0-0_通り芯
  6
Continuous
 62
     3
370
     9
100
AcDbLine
 10
-3.558928387366525
 20
-24.64953860367758
 30
0.0
 11
-8.45893677675478
 21
-164.7494992253973
 31
0.0
  0
LINE
  5
1CF
330
1F
100
AcDbEntity
  8
0-0_通り芯
  6
Continuous
 62
     3
370
     9
100
AcDbLine
 10
64.79097438056601
 20
7.241075202616095
 30
0.0
 11
52.93541773051474
 21
4.064293588761728
 31
0.0
  0
LINE
  5
1D0
330
1F
100
AcDbEntity
  8
0-0_通り芯
  6
Continuous
 62
     3
370
     9
100
AcDbLine
 10
50.03747675975887
 20
3.28778818844652
 30
0.0
 11
47.13981574948798
 21
2.511387773313203
 31
0.0
  0
LINE
  5
1D1
330
1F
100
AcDbEntity
  8
0-0_通り芯
  6
Continuous
 62
     3
370
     9
100
AcDbLine
 10
31.15246228099436
 20
-7.058151536155265
 30
0.0
 11
31.94258075989459
 21
-7.949195769911903
 31
0.0
  0
LINE
  5
1D2
330
1F
100
AcDbEntity
  8
0-0_通り芯
  6
Continuous
 62
     3
370
     9
100
AcDbLine
 10
44.51959557989039
 20
-3.476442075753226
 30
0.0
 11
44.28078928615247
 21
-4.643142402090966
 31
0.0
  0
LINE
  5
1D3
330
1F
100
AcDbEntity
  8
0-0_通り芯
  6
Continuous
 62
     3
370
     9
100
AcDbLine
 10
45.96125209759668
 20
-1.945513158380152
 30
0.0
 11
55.14913527583632
 21
0.5163193668068047
 31
0.0
  0
LINE
  5
1D4
330
1F
100
AcDbEntity
  8
0-0_通り芯
  6
Continuous
 62
     3
370
     9
100
AcDbLine
 10
33.45303756679912
 20
-8.402976721098895
 30
0.0
 11
43.19944191269082
 21
-5.791400331476865
 31
0.0
  0
LINE
  5
1D5
330
1F
100
AcDbEntity
  8
0-0_通り芯
  6
Continuous
 62
     3
370
     9
100
AcDbLine
 10
31.0880013793142
 20
-1.789750143516841
 30
0.0
 11
28.78714613302441
 21
-2.406153141450602
 31
0.0
  0
LINE
  5
1D6
330
1F
100
AcDbEntity
  8
0-0_通り芯
  6
Continuous
 62
     3
370
     9
100
AcDbLine
 10
32.09501924399814
 20
-2.092212452540423
 30
0.0
 11
33.50042087889193
 21
-3.676823792919549
 31
0.0
  0
LINE
  5
1D7
330
1F
100
AcDbEntity
  8
0-0_通り芯
  6
Continuous
 62
     3
370
     9
100
AcDbLine
 10
34.50736875345454
 20
-3.979321097003805
 30
0.0
 11
40.07487292929612
 21
-2.487516657414943
 31
0.0
  0
LINE
  5
1D8
330
1F
100
AcDbEntity
  8
0-0_通り芯
  6
Continuous
 62
     3
370
     9
100
AcDbLine
 10
40.79563119802805
 20
-1.722104691319373
 30
0.0
 11
41.22026126371037
 21
0.3529624237868134
 31
0.0
  0
LINE
  5
1D9
330
1F
100
AcDbEntity
  8
0-0_通り芯
  6
Continuous
 62
     3
370
     9
100
AcDbLine
 10
41.94115951268478
 20
1.118409384942971
 30
0.0
 11
44.24208474909583
 21
1.734882372997994
 31
0.0
  0
LINE
  5
1DA
330
1F
100
AcDbEntity
  8
0-0_通り芯
  6
Continuous
 62
     3
370
     9
100
AcDbLine
 10
24.02305855912242
 20
-7.823808467675228
 30
0.0
 11
29.13842655162664
 21
-6.453226918108101
 31
0.0
  0
LINE
  5
1DB
330
1F
100
AcDbEntity
  8
0-0_通り芯
  6
Continuous
 62
     3
370
     9
100
AcDbLine
 10
22.98769469532833
 20
-3.960143803778635
 30
0.0
 11
25.88948512275356
 21
-3.182658541765811
 31
0.0
  0
LINE
  5
1DC
330
1F
100
AcDbEntity
  8
0-0_通り芯
  6
Continuous
 62
     3
370
     9
100
AcDbLine
 10
66.79108207580313
 20
1.240997082329237
 30
0.0
 11
65.79099323312391
 21
-0.7590056277259123
 31
0.0
  0
LINE
  5
1DD
330
1F
100
AcDbEntity
  8
0-0_通り芯
  6
Continuous
 62
     3
370
     9
100
AcDbLine
 10
20.59473244946081
 20
-20.34983548433337
 30
0.0
 11
21.82179925538507
 21
-10.35598106472821
 31
0.0
  0
LINE
  5
1DE
330
1F
100
AcDbEntity
  8
0-0_通り芯
  6
Continuous
 62
     3
370
     9
100
AcDbLine
 10
-4.458931356644412
 20
-164.7494992253973
 30
0.0
 11
-61.95893053184497
 21
-164.7494992253973
 31
0.0
  0
LINE
  5
1DF
330
1F
100
AcDbEntity
  8
0-0_通り芯
  6
Continuous
 62
     3
370
     9
100
AcDbLine
 10
65.79099323312391
 20
-0.7590056277259123
 30
0.0
 11
63.79109550825061
 21
-0.7590056277259123
 31
0.0
  0
LINE
  5
1E0
330
1F
100
AcDbEntity
  8
0-0_通り芯
  6
Continuous
 62
     3
370
     9
100
AcDbLine
 10
17.85153963680997
 20
-9.868499870154714
 30
0.0
 11
16.60837510299608
 21
-19.99460062387998
 31
0.0
  0
LINE
  5
1E1
330
1F
100
AcDbEntity
  8
0-0_通り芯
  6
Continuous
 62
     3
370
     9
100
AcDbLine
 10
12.9172360880045
 20
-23.49732623244056
 30
0.0
 11
-3.558928387366525
 21
-24.64953860367758
 31
0.0
  0
LINE
  5
1E2
330
1F
100
AcDbEntity
  8
0-0_通り芯
  6
Continuous
 62
     3
370
     9
100
AcDbLine
 10
-131.3617996790684
 20
7.241075202616138
 30
0.0
 11
-107.3004558121825
 21
7.241075202616116
 31
0.0
  0
LINE
  5
1E3
330
1F
100
AcDbEntity
  8
0-0_通り芯
  6
Continuous
 62
     3
370
     9
100
AcDbLine
 10
-132.3481704579806
 20
6.40546314489719
 30
0.0
 11
-133.2089089692318
 21
1.24099708232928
 31
0.0
  0
LINE
  5
1E4
330
1F
100
AcDbEntity
  8
0-0_通り芯
  6
Continuous
 62
     3
370
     9
100
AcDbLine
 10
65.93027357443063
 20
6.405463144897148
 30
0.0
 11
66.79108207580313
 21
1.240997082329237
 31
0.0
  0
LINE
  5
1E5
330
1F
100
AcDbEntity
  8
0-0_通り芯
  6
Continuous
 62
     3
370
     9
100
AcDbLine
 10
64.94390279551837
 20
7.241075202616095
 30
0.0
 11
40.95499870413628
 21
7.241075202616095
 31
0.0
  0
LINE
  5
1E6
330
1F
100
AcDbEntity
  8
0-0_通り芯
  6
Continuous
 62
     3
370
     9
100
AcDbLine
 10
-71.06702497184858
 20
-11.25899360922023
 30
0.0
 11
-72.8854383122956
 21
-11.25899360922023
 31
0.0
  0
LINE
  5
1E7
330
1F
100
AcDbEntity
  8
0-0_通り芯
  6
Continuous
 62
     3
370
     9
100
AcDbLine
 10
-79.53243512338543
 20
-11.25899360922023
 30
0.0
 11
-82.77171791552468
 21
-11.25899360922023
 31
0.0
  0
LINE
  5
1E8
330
1F
100
AcDbEntity
  8
0-0_通り芯
  6
Continuous
 62
     3
370
     9
100
AcDbLine
 10
-79.53243512338543
 20
-20.25898830693831
 30
0.0
 11
-72.8854383122956
 21
-20.25898830693831
 31
0.0
  0
LINE
  5
1E9
330
1F
100
AcDbEntity
  8
0-0_通り芯
  6
Continuous
 62
     3
370
     9
100
AcDbLine
 10
-72.8854383122956
 20
-19.25896945438041
 30
0.0
 11
-72.8854383122956
 21
-20.25898830693831
 31
0.0
  0
LINE
  5
1EA
330
1F
100
AcDbEntity
  8
0-0_通り芯
  6
Continuous
 62
     3
370
     9
100
AcDbLine
 10
-79.53243512338543
 20
-20.25898830693831
 30
0.0
 11
-79.53243512338543
 21
-19.25896945438041
 31
0.0
  0
LINE
  5
1EB
330
1F
100
AcDbEntity
  8
0-0_通り芯
  6
Continuous
 62
     3
370
     9
100
AcDbLine
 10
-72.8854383122956
 20
-20.25898830693831
 30
0.0
 11
-76.20891922031022
 21
-22.17776748127171
 31
0.0
  0
LINE
  5
1EC
330
1F
100
AcDbEntity
  8
0-0_通り芯
  6
Continuous
 62
     3
370
     9
100
AcDbLine
 10
-79.53243512338543
 20
-20.25898830693831
 30
0.0
 11
-76.20891922031022
 21
-22.17776748127171
 31
0.0
  0
LINE
  5
1ED
330
1F
100
AcDbEntity
  8
0-1_ピット
  6
Continuous
 62
     4
370
     9
100
AcDbLine
 10
-72.20893129773013
 20
-0.4026159302718
 30
0.0
 11
-72.20893129773013
 21
-19.25896945438041
 31
0.0
  0
LINE
  5
1EE
330
1F
100
AcDbEntity
  8
0-1_ピット
  6
Continuous
 62
     4
370
     9
100
AcDbLine
 10
-72.88540331723497
 20
-0.4026159302718
 30
0.0
 11
-72.88540331723497
 21
-19.25896945438041
 31
0.0
  0
LINE
  5
1EF
330
1F
100
AcDbEntity
  8
0-1_ピット
  6
Continuous
 62
     4
370
     9
100
AcDbLine
 10
-79.53243512338543
 20
-0.4026159302718
 30
0.0
 11
-79.53243512338543
 21
-19.25896945438041
 31
0.0
  0
LINE
  5
1F0
330
1F
100
AcDbEntity
  8
0-1_ピット
  6
Continuous
 62
     4
370
     9
100
AcDbLine
 10
-80.20887214782965
 20
-0.4026159302718
 30
0.0
 11
-80.20887214782965
 21
-19.25896945438041
 31
0.0
  0
LINE
  5
1F1
330
1F
100
AcDbEntity
  8
0-1_ピット
  6
Continuous
 62
     4
370
     9
100
AcDbLine
 10
-72.20893129773013
 20
6.097401626172768
 30
0.0
 11
-72.20893129773012
 21
9.38798717719532
 31
0.0
  0
LINE
  5
1F2
330
1F
100
AcDbEntity
  8
0-1_ピット
  6
Continuous
 62
     4
370
     9
100
AcDbLine
 10
-80.20887214782965
 20
6.097401626172768
 30
0.0
 11
-80.20887214782965
 21
9.38798717719532
 31
0.0
  0
LINE
  5
1F3
330
1F
100
AcDbEntity
  8
0-1_ピット
  6
Continuous
 62
     4
370
     9
100
AcDbLine
 10
-79.53243512338543
 20
6.097401626172768
 30
0.0
 11
-79.53243512338543
 21
10.0645466843518
 31
0.0
  0
LINE
  5
1F4
330
1F
100
AcDbEntity
  8
0-1_ピット
  6
Continuous
 62
     4
370
     9
100
AcDbLine
 10
-72.88540331723497
 20
6.097401626172768
 30
0.0
 11
-72.88540331723496
 21
10.0645466843518
 31
0.0
  0
LINE
  5
1F5
330
1F
100
AcDbEntity
  8
0-1_ピット
  6
JWW_CENTER1
 62
     4
370
     9
100
AcDbLine
 10
-76.20891922031021
 20
10.80707188079544
 30
0.0
 11
-76.20891922031022
 21
-22.57359661205567
 31
0.0
  0
LINE
  5
1F6
330
1F
100
AcDbEntity
  8
0-0_通り芯
  6
JWW_CENTER1
 62
     3
370
     9
100
AcDbLine
 10
-33.20893094424465
 20
81.3728618878086
 30
0.0
 11
-33.20893094424468
 21
-60.47041267424645
 31
0.0
  0
LINE
  5
1F7
330
1F
100
AcDbEntity
  8
0-0_通り芯
  6
JWW_CENTER1
 62
     3
370
     9
100
AcDbLine
 10
-33.20893094424468
 20
-71.14950537604423
 30
0.0
 11
-33.2089309442447
 21
-168.6116940967474
 31
0.0
  0
ARC
  5
1F8
330
1F
100
AcDbEntity
  8
0-1_ピット
  6
JWW_DASHED1
 62
     2
370
     9
100
AcDbCircle
 10
-100.4750191869412
 20
4.699908874981311
 30
0.0
 40
1.999999976066088
100
AcDbArc
 50
190.6148834228515
 51
255.0005035400391
  0
ARC
  5
1F9
330
1F
100
AcDbEntity
  8
0-1_ピット
  6
JWW_DASHED1
 62
     2
370
     9
100
AcDbCircle
 10
34.05726228363373
 20
4.699908874981311
 30
0.0
 40
1.999999976066088
100
AcDbArc
 50
284.9994964599609
 51
349.3851165771484
  0
ARC
  5
1FA
330
1F
100
AcDbEntity
  8
0-1_ピット
  6
Continuous
 62
     2
370
     9
100
AcDbCircle
 10
-65.43857689792014
 20
-1.90260921404802
 30
0.0
 40
1.499999982049566
100
AcDbArc
 50
11.31021118164063
 51
90.00000000000001
  0
ARC
  5
1FB
330
1F
100
AcDbEntity
  8
0-1_ピット
  6
Continuous
 62
     2
370
     9
100
AcDbCircle
 10
24.54777449820601
 20
3.597424484899257
 30
0.0
 40
1.499999982049566
100
AcDbArc
 50
90.0
 51
169.91162109375
  0
ARC
  5
1FC
330
1F
100
AcDbEntity
  8
0-1_ピット
  6
Continuous
 62
     2
370
     9
100
AcDbCircle
 10
20.54482949300274
 20
1.079319902219453
 30
0.0
 40
1.999999976066088
100
AcDbArc
 50
284.9994964599609
 51
349.9115142822266
  0
ARC
  5
1FD
330
1F
100
AcDbEntity
  8
0-1_ピット
  6
Continuous
 62
     2
370
     9
100
AcDbCircle
 10
34.9216052861298
 20
6.597411052451783
 30
0.0
 40
1.499999982049566
100
AcDbArc
 50
270.0
 51
349.3838348388672
  0
ARC
  5
1FE
330
1F
100
AcDbEntity
  8
0-1_ピット
  6
Continuous
 62
     2
370
     9
100
AcDbCircle
 10
43.74956426579166
 20
8.332256188114748
 30
0.0
 40
2.999999964099133
100
AcDbArc
 50
188.7071380615235
 51
285.0002746582032
  0
ARC
  5
1FF
330
1F
100
AcDbEntity
  8
0-1_ピット
  6
Continuous
 62
     2
370
     9
100
AcDbCircle
 10
-110.1673561641597
 20
8.332256188114748
 30
0.0
 40
2.999999964099133
100
AcDbArc
 50
254.9997253417969
 51
351.2928619384766
  0
ARC
  5
200
330
1F
100
AcDbEntity
  8
0-1_ピット
  6
Continuous
 62
     4
370
     9
100
AcDbCircle
 10
-81.83253797587172
 20
3.29716686469532
 30
0.0
 40
2.800173520121335
100
AcDbArc
 50
47.92556762695312
 51
132.0746307373047
  0
ARC
  5
201
330
1F
100
AcDbEntity
  8
0-1_ピット
  6
Continuous
 62
     4
370
     9
100
AcDbCircle
 10
-76.20891922031022
 20
-3.992024304012432
 30
0.0
 40
10.08940952625054
100
AcDbArc
 50
68.19786071777345
 51
111.8021392822266
  0
ARC
  5
202
330
1F
100
AcDbEntity
  8
0-1_ピット
  6
Continuous
 62
     4
370
     9
100
AcDbCircle
 10
-70.58531796227902
 20
3.29716686469532
 30
0.0
 40
2.800189650657094
100
AcDbArc
 50
47.92572021484376
 51
132.0742797851562
  0
ARC
  5
203
330
1F
100
AcDbEntity
  8
0-1_ピット
  6
Continuous
 62
     2
370
     9
100
AcDbCircle
 10
11.54535972119406
 20
-2.902628066605921
 30
0.0
 40
0.999999988033044
100
AcDbArc
 50
90.0
 51
164.0540161132812
  0
ARC
  5
204
330
1F
100
AcDbEntity
  8
0-1_ピット
  6
Continuous
 62
     2
370
     9
100
AcDbCircle
 10
-90.96560139163472
 20
3.597424484899257
 30
0.0
 40
1.499999982049566
100
AcDbArc
 50
10.08837890625001
 51
90.00000000000001
  0
ARC
  5
205
330
1F
100
AcDbEntity
  8
0-1_ピット
  6
Continuous
 62
     2
370
     9
100
AcDbCircle
 10
-101.3394321795585
 20
6.597411052451783
 30
0.0
 40
1.499999982049566
100
AcDbArc
 50
190.6161651611328
 51
270.0
  0
ARC
  5
206
330
1F
100
AcDbEntity
  8
0-1_ピット
  6
Continuous
 62
     2
370
     9
100
AcDbCircle
 10
-87.05481587860005
 20
1.597386779783456
 30
0.0
 40
1.999999976066088
100
AcDbArc
 50
190.08837890625
 51
270.0
  0
ARC
  5
207
330
1F
100
AcDbEntity
  8
0-2_本体（蓋）
  6
Continuous
 62
     6
370
     5
100
AcDbCircle
 10
22.57531290086648
 20
8.097439331288633
 30
0.0
 40
2.999999964099133
100
AcDbArc
 50
190.7583923339844
 51
270.0
  0
ARC
  5
208
330
1F
100
AcDbEntity
  8
0-2_本体（蓋）
  6
Continuous
 62
     6
370
     5
100
AcDbCircle
 10
33.45653707286213
 20
6.097401626172747
 30
0.0
 40
0.999999988033044
100
AcDbArc
 50
270.0
 51
349.6943969726562
  0
ARC
  5
209
330
1F
100
AcDbEntity
  8
0-2_本体（蓋）
  6
Continuous
 62
     6
370
     5
100
AcDbCircle
 10
11.05269925764736
 20
74.09742377792833
 30
0.0
 40
0.999999988033044
100
AcDbArc
 50
10.75830078125
 51
90.0
  0
ARC
  5
20A
330
1F
100
AcDbEntity
  8
0-2_本体（蓋）
  6
Continuous
 62
     6
370
     5
100
AcDbCircle
 10
-77.47054364860638
 20
74.09742377792833
 30
0.0
 40
0.999999988033044
100
AcDbArc
 50
90.0
 51
169.2415618896484
  0
ARC
  5
20B
330
1F
100
AcDbEntity
  8
0-2_本体（蓋）
  6
Continuous
 62
     6
370
     5
100
AcDbCircle
 10
24.69272403933473
 20
13.02502382845316
 30
0.0
 40
0.999999988033044
100
AcDbArc
 50
190.7585601806641
 51
267.4557037353516
  0
ARC
  5
20C
330
1F
100
AcDbEntity
  8
0-2_本体（蓋）
  6
JWW_PHANTOM1
 62
     6
370
     5
100
AcDbCircle
 10
-78.08134743683937
 20
44.09741812216095
 30
0.0
 40
0.999999988033044
100
AcDbArc
 50
90.0
 51
169.2417755126953
  0
ARC
  5
20D
330
1F
100
AcDbEntity
  8
0-2_本体（蓋）
  6
Continuous
 62
     6
370
     5
100
AcDbCircle
 10
-88.99315729182551
 20
8.097439331288633
 30
0.0
 40
2.999999964099133
100
AcDbArc
 50
270.0
 51
349.2416076660156
  0
ARC
  5
20E
330
1F
100
AcDbEntity
  8
0-2_本体（蓋）
  6
Continuous
 62
     6
370
     5
100
AcDbCircle
 10
-99.87438146382112
 20
6.097401626172768
 30
0.0
 40
0.999999988033044
100
AcDbArc
 50
190.3056030273438
 51
270.0
  0
ARC
  5
20F
330
1F
100
AcDbEntity
  8
0-2_本体（蓋）
  6
Continuous
 62
     6
370
     5
100
AcDbCircle
 10
-91.11056843029378
 20
13.02502382845318
 30
0.0
 40
0.999999988033044
100
AcDbArc
 50
272.5442962646484
 51
349.2414398193359
  0
ARC
  5
210
330
1F
100
AcDbEntity
  8
0-2_本体（蓋）
  6
JWW_PHANTOM1
 62
     6
370
     5
100
AcDbCircle
 10
11.66350304588034
 20
44.09741812216095
 30
0.0
 40
0.999999988033044
100
AcDbArc
 50
10.75822448730468
 51
90.0
  0
ARC
  5
211
330
1F
100
AcDbEntity
  8
0-0_通り芯
  6
Continuous
 62
     3
370
     9
100
AcDbCircle
 10
-124.4140203218652
 20
-10.10881095149971
 30
0.0
 40
10.99999850136893
100
AcDbArc
 50
74.99996948242188
 51
121.7900543212891
  0
ARC
  5
212
330
1F
100
AcDbEntity
  8
0-0_通り芯
  6
Continuous
 62
     3
370
     9
100
AcDbCircle
 10
-117.742666948577
 20
4.279793172120257
 30
0.0
 40
1.625014914969219
100
AcDbArc
 50
187.620590209961
 51
322.3796997070312
  0
ARC
  5
213
330
1F
100
AcDbEntity
  8
0-0_通り芯
  6
Continuous
 62
     3
370
     9
100
AcDbCircle
 10
-111.9470299724896
 20
2.726817366550449
 30
0.0
 40
1.625014914969219
100
AcDbArc
 50
187.620590209961
 51
322.3796997070312
  0
ARC
  5
214
330
1F
100
AcDbEntity
  8
0-0_通り芯
  6
Continuous
 62
     3
370
     9
100
AcDbCircle
 10
-108.6178798646529
 20
0.1525107164991866
 30
0.0
 40
0.999999988033044
100
AcDbArc
 50
11.56538391113281
 51
75.00050354003906
  0
ARC
  5
215
330
1F
100
AcDbEntity
  8
0-0_通り芯
  6
Continuous
 62
     3
370
     9
100
AcDbCircle
 10
-106.2338763543066
 20
-1.521547998849833
 30
0.0
 40
0.999999988033044
100
AcDbArc
 50
191.5664215087891
 51
255.0005035400391
  0
ARC
  5
216
330
1F
100
AcDbEntity
  8
0-0_通り芯
  6
Continuous
 62
     3
370
     9
100
AcDbCircle
 10
-100.6664421685863
 20
-3.013352438438694
 30
0.0
 40
0.999999988033044
100
AcDbArc
 50
255.0005035400391
 51
318.4357757568359
  0
ARC
  5
217
330
1F
100
AcDbEntity
  8
0-0_通り芯
  6
Continuous
 62
     3
370
     9
100
AcDbCircle
 10
-97.76475672634302
 20
-2.755613816900059
 30
0.0
 40
0.999999988033044
100
AcDbArc
 50
75.00077819824217
 51
138.4349822998047
  0
ARC
  5
218
330
1F
100
AcDbEntity
  8
0-0_通り芯
  6
Continuous
 62
     3
370
     9
100
AcDbCircle
 10
-109.2291385886741
 20
-4.342394851038243
 30
0.0
 40
1.499999982049566
100
AcDbArc
 50
191.5660095214844
 51
254.9999084472656
  0
ARC
  5
219
330
1F
100
AcDbEntity
  8
0-0_通り芯
  6
Continuous
 62
     3
370
     9
100
AcDbCircle
 10
-99.48273424278244
 20
-6.954041230781513
 30
0.0
 40
1.499999982049566
100
AcDbArc
 50
254.9999084472656
 51
318.435043334961
  0
ARC
  5
21A
330
1F
100
AcDbEntity
  8
0-0_通り芯
  6
Continuous
 62
     3
370
     9
100
AcDbCircle
 10
-96.07390038189175
 20
-8.385024254995756
 30
0.0
 40
1.999999976066088
100
AcDbArc
 50
75.00050354003906
 51
138.435073852539
  0
ARC
  5
21B
330
1F
100
AcDbEntity
  8
0-0_通り芯
  6
Continuous
 62
     3
370
     9
100
AcDbCircle
 10
-112.8968659081043
 20
-3.87741548044972
 30
0.0
 40
1.999999976066088
100
AcDbArc
 50
11.56517028808594
 51
75.00050354003906
  0
ARC
  5
21C
330
1F
100
AcDbEntity
  8
0-0_通り芯
  6
Continuous
 62
     3
370
     9
100
AcDbCircle
 10
-93.59439535108663
 20
-2.190758543274008
 30
0.0
 40
1.625014914969219
100
AcDbArc
 50
187.6191101074219
 51
322.3802185058594
  0
ARC
  5
21D
330
1F
100
AcDbEntity
  8
0-0_通り芯
  6
Continuous
 62
     3
370
     9
100
AcDbCircle
 10
-91.2173558578057
 20
-10.72164445324928
 30
0.0
 40
2.999999964099133
100
AcDbArc
 50
6.99995422363282
 51
75.00071716308595
  0
ARC
  5
21E
330
1F
100
AcDbEntity
  8
0-0_通り芯
  6
Continuous
 62
     3
370
     9
100
AcDbCircle
 10
-91.2173558578057
 20
-10.72164445324928
 30
0.0
 40
6.999999642832397
100
AcDbArc
 50
6.99995422363282
 51
75.00071716308595
  0
ARC
  5
21F
330
1F
100
AcDbEntity
  8
0-0_通り芯
  6
JWW_DASHED1
 62
     3
370
     9
100
AcDbCircle
 10
-79.05601236797098
 20
-19.50701444412466
 30
0.0
 40
3.999999952132176
100
AcDbArc
 50
187.000228881836
 51
266.0000915527344
  0
ARC
  5
220
330
1F
100
AcDbEntity
  8
0-0_通り芯
  6
Continuous
 62
     3
370
     9
100
AcDbCircle
 10
-82.77171791552468
 20
-9.758965330383383
 30
0.0
 40
1.499999982049566
100
AcDbArc
 50
186.9990692138672
 51
270.0
  0
ARC
  5
221
330
1F
100
AcDbEntity
  8
0-0_通り芯
  6
Continuous
 62
     3
370
     9
100
AcDbCircle
 10
-66.9084219369638
 20
-22.86265581285801
 30
0.0
 40
1.499999982049566
100
AcDbArc
 50
188.7358093261719
 51
266.0005493164062
  0
ARC
  5
222
330
1F
100
AcDbEntity
  8
0-0_通り芯
  6
Continuous
 62
     3
370
     9
100
AcDbCircle
 10
-71.06702497184858
 20
-12.2589774667175
 30
0.0
 40
0.999999988033044
100
AcDbArc
 50
8.734939575195316
 51
90.00000000000001
  0
ARC
  5
223
330
1F
100
AcDbEntity
  8
0-0_通り芯
  6
Continuous
 62
     3
370
     9
100
AcDbCircle
 10
-79.07228507116385
 20
-19.374908090247
 30
0.0
 40
7.999999904264352
100
AcDbArc
 50
186.9998626708985
 51
266.0000457763672
  0
ARC
  5
224
330
1F
100
AcDbEntity
  8
0-0_通り芯
  6
Continuous
 62
     3
370
     9
100
AcDbCircle
 10
51.32473506996636
 20
4.279793172120236
 30
0.0
 40
1.625014914969219
100
AcDbArc
 50
217.6203002929688
 51
352.3794097900391
  0
ARC
  5
225
330
1F
100
AcDbEntity
  8
0-0_通り芯
  6
Continuous
 62
     3
370
     9
100
AcDbCircle
 10
45.52913308893958
 20
2.726852361611037
 30
0.0
 40
1.625014914969219
100
AcDbArc
 50
217.6203002929688
 51
352.3794097900391
  0
ARC
  5
226
330
1F
100
AcDbEntity
  8
0-0_通り芯
  6
Continuous
 62
     3
370
     9
100
AcDbCircle
 10
42.19998298110301
 20
0.1525107164991653
 30
0.0
 40
0.999999988033044
100
AcDbArc
 50
104.999496459961
 51
168.4346160888672
  0
ARC
  5
227
330
1F
100
AcDbEntity
  8
0-0_通り芯
  6
Continuous
 62
     3
370
     9
100
AcDbCircle
 10
39.8161194509992
 20
-1.521547998849854
 30
0.0
 40
0.999999988033044
100
AcDbArc
 50
284.9994964599609
 51
348.4335784912109
  0
ARC
  5
228
330
1F
100
AcDbEntity
  8
0-0_通り芯
  6
Continuous
 62
     3
370
     9
100
AcDbCircle
 10
34.24854528503634
 20
-3.013352438438716
 30
0.0
 40
0.999999988033044
100
AcDbArc
 50
221.5642242431641
 51
284.999496459961
  0
ARC
  5
229
330
1F
100
AcDbEntity
  8
0-0_通り芯
  6
Continuous
 62
     3
370
     9
100
AcDbCircle
 10
31.34682484773242
 20
-2.75561381690008
 30
0.0
 40
0.999999988033044
100
AcDbArc
 50
41.56501770019532
 51
104.9992218017578
  0
ARC
  5
22A
330
1F
100
AcDbEntity
  8
0-0_通り芯
  6
Continuous
 62
     3
370
     9
100
AcDbCircle
 10
42.81120671006352
 20
-4.342394851038243
 30
0.0
 40
1.499999982049566
100
AcDbArc
 50
285.0000915527344
 51
348.4339904785157
  0
ARC
  5
22B
330
1F
100
AcDbEntity
  8
0-0_通り芯
  6
Continuous
 62
     3
370
     9
100
AcDbCircle
 10
33.06480236417188
 20
-6.954041230781513
 30
0.0
 40
1.499999982049566
100
AcDbArc
 50
221.564956665039
 51
285.0000915527344
  0
ARC
  5
22C
330
1F
100
AcDbEntity
  8
0-0_通り芯
  6
Continuous
 62
     3
370
     9
100
AcDbCircle
 10
29.65607348846297
 20
-8.385024254995756
 30
0.0
 40
1.999999976066088
100
AcDbArc
 50
41.56492614746094
 51
104.9994964599609
  0
ARC
  5
22D
330
1F
100
AcDbEntity
  8
0-0_通り芯
  6
Continuous
 62
     3
370
     9
100
AcDbCircle
 10
46.47896902455436
 20
-3.877415480449741
 30
0.0
 40
1.999999976066088
100
AcDbArc
 50
104.999496459961
 51
168.4348297119141
  0
ARC
  5
22E
330
1F
100
AcDbEntity
  8
0-0_通り芯
  6
Continuous
 62
     3
370
     9
100
AcDbCircle
 10
27.17646347247602
 20
-2.190758543274029
 30
0.0
 40
1.625014914969219
100
AcDbArc
 50
217.6197814941406
 51
352.3808898925781
  0
ARC
  5
22F
330
1F
100
AcDbEntity
  8
0-0_通り芯
  6
Continuous
 62
     3
370
     9
100
AcDbCircle
 10
24.79952896437695
 20
-10.7216444532493
 30
0.0
 40
2.999999964099133
100
AcDbArc
 50
104.9992828369141
 51
173.0000457763672
  0
ARC
  5
230
330
1F
100
AcDbEntity
  8
0-0_通り芯
  6
Continuous
 62
     3
370
     9
100
AcDbCircle
 10
24.79952896437695
 20
-10.7216444532493
 30
0.0
 40
6.999999642832397
100
AcDbArc
 50
104.9992828369141
 51
173.0000457763672
  0
ARC
  5
231
330
1F
100
AcDbEntity
  8
0-0_通り芯
  6
Continuous
 62
     3
370
     9
100
AcDbCircle
 10
12.63811548442098
 20
-19.50701444412466
 30
0.0
 40
3.999999952132176
100
AcDbArc
 50
273.9999084472656
 51
352.9997711181641
  0
ARC
  5
232
330
1F
100
AcDbEntity
  8
0-0_通り芯
  6
Continuous
 62
     3
370
     9
100
AcDbCircle
 10
12.65449317279579
 20
-19.374908090247
 30
0.0
 40
7.999999904264352
100
AcDbArc
 50
273.9999542236328
 51
353.0001373291016
  0
ARC
  5
233
330
1F
100
AcDbEntity
  8
0-0_通り芯
  6
Continuous
 62
     3
370
     9
100
AcDbCircle
 10
57.99619342843645
 20
-10.10881095149976
 30
0.0
 40
10.99999850136893
100
AcDbArc
 50
58.21015930175783
 51
105.0000305175782
  0
ARC
  5
234
330
1F
100
AcDbEntity
  8
0-0_通り芯
  6
Continuous
 62
     3
370
     9
100
AcDbCircle
 10
-131.3617996790684
 20
6.241056350058237
 30
0.0
 40
0.999999988033044
100
AcDbArc
 50
90.0
 51
170.5379180908203
  0
ARC
  5
235
330
1F
100
AcDbEntity
  8
0-0_通り芯
  6
Continuous
 62
     3
370
     9
100
AcDbCircle
 10
64.94390279551837
 20
6.241056350058194
 30
0.0
 40
0.999999988033044
100
AcDbArc
 50
9.462326049804696
 51
90.00000000000001
  0
LINE
  5
236
330
1F
100
AcDbEntity
  8
0-6
  6
Continuous
 62
     2
370
     9
100
AcDbLine
 10
-79.70893271167196
 20
40.85645556711149
 30
0.0
 11
-64.35894428242938
 21
5.85649562879707
 31
0.0
  0
LINE
  5
237
330
1F
100
AcDbEntity
  8
0-6
  6
Continuous
 62
     2
370
     9
100
AcDbLine
 10
-79.15944026966244
 20
41.09750154472977
 30
0.0
 11
-63.80945184041986
 21
6.097401626172768
 31
0.0
  0
LINE
  5
238
330
1F
100
AcDbEntity
  8
0-6
  6
Continuous
 62
     2
370
     9
100
AcDbLine
 10
-79.15944026966244
 20
41.09750154472977
 30
0.0
 11
-79.70893271167196
 21
40.85645556711149
 31
0.0
  0
LINE
  5
239
330
1F
100
AcDbEntity
  8
0-6
  6
Continuous
 62
     2
370
     9
100
AcDbLine
 10
-63.80945184041986
 20
6.097401626172768
 30
0.0
 11
-64.35894428242938
 21
5.85649562879707
 31
0.0
  0
LINE
  5
23A
330
1F
100
AcDbEntity
  8
0-6
  6
Continuous
 62
     2
370
     9
100
AcDbLine
 10
12.7415608836428
 20
41.09750154472977
 30
0.0
 11
13.29105332565233
 21
40.85645556711148
 31
0.0
  0
LINE
  5
23B
330
1F
100
AcDbEntity
  8
0-6
  6
Continuous
 62
     2
370
     9
100
AcDbLine
 10
-2.608410048069478
 20
6.097401626172747
 30
0.0
 11
-2.058917606059952
 21
5.85649562879707
 31
0.0
  0
LINE
  5
23C
330
1F
100
AcDbEntity
  8
0-6
  6
Continuous
 62
     2
370
     9
100
AcDbLine
 10
12.7415608836428
 20
41.09750154472977
 30
0.0
 11
-2.608410048069478
 21
6.097401626172747
 31
0.0
  0
LINE
  5
23D
330
1F
100
AcDbEntity
  8
0-6
  6
Continuous
 62
     2
370
     9
100
AcDbLine
 10
-79.15944026966244
 20
41.09750154472977
 30
0.0
 11
12.7415608836428
 21
41.09750154472977
 31
0.0
  0
LINE
  5
23E
330
1F
100
AcDbEntity
  8
0-6
  6
Continuous
 62
     2
370
     9
100
AcDbLine
 10
-2.608410048069478
 20
6.097401626172747
 30
0.0
 11
-63.80945184041986
 21
6.097401626172768
 31
0.0
  0
LINE
  5
23F
330
1F
100
AcDbEntity
  8
0-6
  6
Continuous
 62
     2
370
     9
100
AcDbLine
 10
13.29105332565233
 20
40.85645556711148
 30
0.0
 11
-2.058917606059952
 21
5.85649562879707
 31
0.0
  0
LINE
  5
240
330
1F
100
AcDbEntity
  8
0-6
  6
Continuous
 62
     2
370
     9
100
AcDbLine
 10
-2.058917606059952
 20
5.85649562879707
 30
0.0
 11
-64.35894428242938
 21
5.85649562879707
 31
0.0
  0
LINE
  5
241
330
1F
100
AcDbEntity
  8
0-6
  6
JWW_PHANTOM1
 62
     2
370
     9
100
AcDbLine
 10
-70.00441745335422
 20
18.72893875062982
 30
0.0
 11
-70.54565106105511
 21
18.46913542051402
 31
0.0
  0
LINE
  5
242
330
1F
100
AcDbEntity
  8
0-6
  6
JWW_PHANTOM1
 62
     2
370
     9
100
AcDbLine
 10
-98.45893624652655
 20
-1.143496358865839
 30
0.0
 11
-98.7185995963999
 21
-0.6026127017712497
 31
0.0
  0
LINE
  5
243
330
1F
100
AcDbEntity
  8
0-6
  6
JWW_PHANTOM1
 62
     2
370
     9
100
AcDbLine
 10
-68.76912680818197
 20
14.41838716249037
 30
0.0
 11
-70.54565106105511
 21
18.46913542051402
 31
0.0
  0
LINE
  5
244
330
1F
100
AcDbEntity
  8
0-6
  6
JWW_PHANTOM1
 62
     2
370
     9
100
AcDbLine
 10
-69.05892090525757
 20
13.63645752777752
 30
0.0
 11
-98.7185995963999
 21
-0.6026127017712497
 31
0.0
  0
LINE
  5
245
330
1F
100
AcDbEntity
  8
0-6
  6
JWW_PHANTOM1
 62
     2
370
     9
100
AcDbLine
 10
-68.79925755538426
 20
13.09557387068293
 30
0.0
 11
-98.45893624652655
 21
-1.143496358865839
 31
0.0
  0
LINE
  5
246
330
1F
100
AcDbEntity
  8
0-6
  6
JWW_PHANTOM1
 62
     2
370
     9
100
AcDbLine
 10
3.586573062395177
 20
18.7289387506298
 30
0.0
 11
4.127806670096094
 21
18.469135420514
 31
0.0
  0
LINE
  5
247
330
1F
100
AcDbEntity
  8
0-6
  6
JWW_PHANTOM1
 62
     2
370
     9
100
AcDbLine
 10
32.04105686050696
 20
-1.14349635886586
 30
0.0
 11
32.30072021038023
 21
-0.6026127017712497
 31
0.0
  0
LINE
  5
248
330
1F
100
AcDbEntity
  8
0-6
  6
JWW_PHANTOM1
 62
     2
370
     9
100
AcDbLine
 10
2.351247422162306
 20
14.41838716249035
 30
0.0
 11
4.127806670096094
 21
18.469135420514
 31
0.0
  0
LINE
  5
249
330
1F
100
AcDbEntity
  8
0-6
  6
JWW_PHANTOM1
 62
     2
370
     9
100
AcDbLine
 10
2.641076514298549
 20
13.63645752777752
 30
0.0
 11
32.30072021038023
 21
-0.6026127017712497
 31
0.0
  0
LINE
  5
24A
330
1F
100
AcDbEntity
  8
0-6
  6
JWW_PHANTOM1
 62
     2
370
     9
100
AcDbLine
 10
2.381413164425217
 20
13.09557387068291
 30
0.0
 11
32.04105686050696
 21
-1.14349635886586
 31
0.0
  0
ARC
  5
24B
330
1F
100
AcDbEntity
  8
0-6
  6
JWW_PHANTOM1
 62
     2
370
     9
100
AcDbCircle
 10
-69.31861925019152
 20
14.17734118487208
 30
0.0
 40
0.6000000201597175
100
AcDbArc
 50
295.6473999023438
 51
23.67950439453125
  0
ARC
  5
24C
330
1F
100
AcDbEntity
  8
0-6
  6
JWW_PHANTOM1
 62
     2
370
     9
100
AcDbCircle
 10
-69.31861925019152
 20
14.17734118487208
 30
0.0
 40
1.200000040319435
100
AcDbArc
 50
295.6473999023438
 51
23.67950439453125
  0
ARC
  5
24D
330
1F
100
AcDbEntity
  8
0-6
  6
JWW_PHANTOM1
 62
     2
370
     9
100
AcDbCircle
 10
2.900739864171886
 20
14.17734118487206
 30
0.0
 40
0.6000000201597175
100
AcDbArc
 50
156.3204956054688
 51
244.3526000976563
  0
ARC
  5
24E
330
1F
100
AcDbEntity
  8
0-6
  6
JWW_PHANTOM1
 62
     2
370
     9
100
AcDbCircle
 10
2.900739864171886
 20
14.17734118487206
 30
0.0
 40
1.200000040319435
100
AcDbArc
 50
156.3204956054688
 51
244.3526000976563
  0
LINE
  5
24F
330
1F
100
AcDbEntity
  8
0-4_寸法
  6
Continuous
 62
     7
370
     9
100
AcDbLine
 10
-63.80945184041986
 20
92.95760407261548
 30
0.0
 11
-2.608410048069478
 21
92.95760407261548
 31
0.0
  0
LINE
  5
250
330
1F
100
AcDbEntity
  8
0-4_寸法
  6
Continuous
 62
     7
370
     9
100
AcDbLine
 10
-63.80945184041986
 20
92.95760407261548
 30
0.0
 11
-56.37361538011628
 21
93.93655051426586
 31
0.0
  0
LINE
  5
251
330
1F
100
AcDbEntity
  8
0-4_寸法
  6
Continuous
 62
     7
370
     9
100
AcDbLine
 10
-63.80945184041986
 20
92.95760407261548
 30
0.0
 11
-56.37361538011628
 21
91.9786576309651
 31
0.0
  0
LINE
  5
252
330
1F
100
AcDbEntity
  8
0-4_寸法
  6
Continuous
 62
     7
370
     9
100
AcDbLine
 10
-2.608410048069478
 20
92.95760407261548
 30
0.0
 11
-10.04424650837305
 21
93.93655051426586
 31
0.0
  0
LINE
  5
253
330
1F
100
AcDbEntity
  8
0-4_寸法
  6
Continuous
 62
     7
370
     9
100
AcDbLine
 10
-2.608410048069478
 20
92.95760407261548
 30
0.0
 11
-10.04424650837305
 21
91.9786576309651
 31
0.0
  0
LINE
  5
254
330
1F
100
AcDbEntity
  8
0-4_寸法
  6
Continuous
 62
     7
370
     9
100
AcDbLine
 10
-63.80945184041986
 20
93.85760407261547
 30
0.0
 11
-63.80945184041986
 21
12.09740162617277
 31
0.0
  0
LINE
  5
255
330
1F
100
AcDbEntity
  8
0-4_寸法
  6
Continuous
 62
     7
370
     9
100
AcDbLine
 10
-2.608410048069478
 20
93.85760407261547
 30
0.0
 11
-2.608410048069478
 21
12.09740162617275
 31
0.0
  0
LINE
  5
256
330
1F
100
AcDbEntity
  8
0-4_寸法
  6
Continuous
 62
     7
370
     9
100
AcDbLine
 10
-73.20895015028802
 20
121.0483205881499
 30
0.0
 11
6.791070764268394
 21
121.0483205881499
 31
0.0
  0
LINE
  5
257
330
1F
100
AcDbEntity
  8
0-4_寸法
  6
Continuous
 62
     7
370
     9
100
AcDbLine
 10
-73.20895015028802
 20
121.0483205881499
 30
0.0
 11
-65.77311368998443
 21
122.0272670298003
 31
0.0
  0
LINE
  5
258
330
1F
100
AcDbEntity
  8
0-4_寸法
  6
Continuous
 62
     7
370
     9
100
AcDbLine
 10
-73.20895015028802
 20
121.0483205881499
 30
0.0
 11
-65.77311368998443
 21
120.0693741464995
 31
0.0
  0
LINE
  5
259
330
1F
100
AcDbEntity
  8
0-4_寸法
  6
Continuous
 62
     7
370
     9
100
AcDbLine
 10
6.791070764268394
 20
121.0483205881499
 30
0.0
 11
-0.6447656960351829
 21
122.0272670298003
 31
0.0
  0
LINE
  5
25A
330
1F
100
AcDbEntity
  8
0-4_寸法
  6
Continuous
 62
     7
370
     9
100
AcDbLine
 10
6.791070764268394
 20
121.0483205881499
 30
0.0
 11
-0.6447656960351829
 21
120.0693741464995
 31
0.0
  0
LINE
  5
25B
330
1F
100
AcDbEntity
  8
0-4_寸法
  6
Continuous
 62
     7
370
     9
100
AcDbLine
 10
-73.20895015028802
 20
121.9483205881499
 30
0.0
 11
-73.20895015028802
 21
81.09744263048623
 31
0.0
  0
LINE
  5
25C
330
1F
100
AcDbEntity
  8
0-4_寸法
  6
Continuous
 62
     7
370
     9
100
AcDbLine
 10
6.791070764268394
 20
121.9483205881499
 30
0.0
 11
6.791070764268394
 21
81.09744263048623
 31
0.0
  0
LINE
  5
25D
330
1F
100
AcDbEntity
  8
0-4_寸法
  6
Continuous
 62
     7
370
     9
100
AcDbLine
 10
-79.70893271167196
 20
145.9866288979462
 30
0.0
 11
13.29105332565233
 21
145.9866288979462
 31
0.0
  0
LINE
  5
25E
330
1F
100
AcDbEntity
  8
0-4_寸法
  6
Continuous
 62
     7
370
     9
100
AcDbLine
 10
-79.70893271167196
 20
145.9866288979462
 30
0.0
 11
-72.2730962513684
 21
146.9655753395966
 31
0.0
  0
LINE
  5
25F
330
1F
100
AcDbEntity
  8
0-4_寸法
  6
Continuous
 62
     7
370
     9
100
AcDbLine
 10
-79.70893271167196
 20
145.9866288979462
 30
0.0
 11
-72.2730962513684
 21
145.0076824562958
 31
0.0
  0
LINE
  5
260
330
1F
100
AcDbEntity
  8
0-4_寸法
  6
Continuous
 62
     7
370
     9
100
AcDbLine
 10
13.29105332565233
 20
145.9866288979462
 30
0.0
 11
5.855216865348755
 21
146.9655753395966
 31
0.0
  0
LINE
  5
261
330
1F
100
AcDbEntity
  8
0-4_寸法
  6
Continuous
 62
     7
370
     9
100
AcDbLine
 10
13.29105332565233
 20
145.9866288979462
 30
0.0
 11
5.855216865348755
 21
145.0076824562958
 31
0.0
  0
LINE
  5
262
330
1F
100
AcDbEntity
  8
0-4_寸法
  6
Continuous
 62
     7
370
     9
100
AcDbLine
 10
-79.70893271167196
 20
146.8866288979462
 30
0.0
 11
-79.70893271167196
 21
46.85645556711148
 31
0.0
  0
LINE
  5
263
330
1F
100
AcDbEntity
  8
0-4_寸法
  6
Continuous
 62
     7
370
     9
100
AcDbLine
 10
13.29105332565233
 20
146.8866288979462
 30
0.0
 11
13.29105332565233
 21
46.85645556711148
 31
0.0
  0
LINE
  5
264
330
1F
100
AcDbEntity
  8
0-4_寸法
  6
Continuous
 62
     7
370
     9
100
AcDbLine
 10
-123.2089110310744
 20
171.5938832460955
 30
0.0
 11
56.79110352058778
 21
171.5938832460955
 31
0.0
  0
LINE
  5
265
330
1F
100
AcDbEntity
  8
0-4_寸法
  6
Continuous
 62
     7
370
     9
100
AcDbLine
 10
-123.2089110310744
 20
171.5938832460955
 30
0.0
 11
-115.7730745707709
 21
172.5728296877459
 31
0.0
  0
LINE
  5
266
330
1F
100
AcDbEntity
  8
0-4_寸法
  6
Continuous
 62
     7
370
     9
100
AcDbLine
 10
-123.2089110310744
 20
171.5938832460955
 30
0.0
 11
-115.7730745707709
 21
170.6149368044451
 31
0.0
  0
LINE
  5
267
330
1F
100
AcDbEntity
  8
0-4_寸法
  6
Continuous
 62
     7
370
     9
100
AcDbLine
 10
56.79110352058778
 20
171.5938832460955
 30
0.0
 11
49.35526706028421
 21
172.5728296877459
 31
0.0
  0
LINE
  5
268
330
1F
100
AcDbEntity
  8
0-4_寸法
  6
Continuous
 62
     7
370
     9
100
AcDbLine
 10
56.79110352058778
 20
171.5938832460955
 30
0.0
 11
49.35526706028421
 21
170.6149368044451
 31
0.0
  0
LINE
  5
269
330
1F
100
AcDbEntity
  8
0-4_寸法
  6
Continuous
 62
     7
370
     9
100
AcDbLine
 10
-123.2089110310744
 20
172.4938832460955
 30
0.0
 11
-123.2089110310744
 21
11.09742531045439
 31
0.0
  0
LINE
  5
26A
330
1F
100
AcDbEntity
  8
0-4_寸法
  6
Continuous
 62
     7
370
     9
100
AcDbLine
 10
56.79110352058778
 20
172.4938832460955
 30
0.0
 11
56.79110352058778
 21
11.09741776867546
 31
0.0
  0
LINE
  5
26B
330
1F
100
AcDbEntity
  8
0-4_寸法
  6
Continuous
 62
     7
370
     9
100
AcDbLine
 10
-133.2089089692318
 20
200.6294860408033
 30
0.0
 11
66.79108207580316
 21
200.6294860408033
 31
0.0
  0
LINE
  5
26C
330
1F
100
AcDbEntity
  8
0-4_寸法
  6
Continuous
 62
     7
370
     9
100
AcDbLine
 10
-133.2089089692318
 20
200.6294860408033
 30
0.0
 11
-125.7730725089283
 21
201.6084324824537
 31
0.0
  0
LINE
  5
26D
330
1F
100
AcDbEntity
  8
0-4_寸法
  6
Continuous
 62
     7
370
     9
100
AcDbLine
 10
-133.2089089692318
 20
200.6294860408033
 30
0.0
 11
-125.7730725089283
 21
199.6505395991529
 31
0.0
  0
LINE
  5
26E
330
1F
100
AcDbEntity
  8
0-4_寸法
  6
Continuous
 62
     7
370
     9
100
AcDbLine
 10
66.79108207580316
 20
200.6294860408033
 30
0.0
 11
59.35524561549958
 21
201.6084324824537
 31
0.0
  0
LINE
  5
26F
330
1F
100
AcDbEntity
  8
0-4_寸法
  6
Continuous
 62
     7
370
     9
100
AcDbLine
 10
66.79108207580316
 20
200.6294860408033
 30
0.0
 11
59.35524561549958
 21
199.6505395991529
 31
0.0
  0
LINE
  5
270
330
1F
100
AcDbEntity
  8
0-4_寸法
  6
Continuous
 62
     7
370
     9
100
AcDbLine
 10
-133.2089089692318
 20
201.5294860408033
 30
0.0
 11
-133.2089089692318
 21
7.24099708232928
 31
0.0
  0
LINE
  5
271
330
1F
100
AcDbEntity
  8
0-4_寸法
  6
Continuous
 62
     7
370
     9
100
AcDbLine
 10
66.79108207580316
 20
201.5294860408033
 30
0.0
 11
66.79108207580316
 21
7.24099708232928
 31
0.0
  0
TEXT
  5
272
330
1F
100
AcDbEntity
  8
0-4_寸法
  6
Continuous
 62
     2
370
   211
100
AcDbText
 10
-46.33393094424467
 20
96.4496040726155
 30
0.0
 40
9.144
  1
φ62
 41
1.09375
  7
ＭＳ ゴシック
100
AcDbText
  0
TEXT
  5
273
330
1F
100
AcDbEntity
  8
0-4_寸法
  6
Continuous
 62
     2
370
   211
100
AcDbText
 10
-46.3339396930098
 20
124.5403205881499
 30
0.0
 40
9.144
  1
φ80
 41
1.09375
  7
ＭＳ ゴシック
100
AcDbText
  0
TEXT
  5
274
330
1F
100
AcDbEntity
  8
0-4_寸法
  6
Continuous
 62
     2
370
   211
100
AcDbText
 10
-46.33393969300982
 20
149.4786288979462
 30
0.0
 40
9.144
  1
φ93
 41
1.09375
  7
ＭＳ ゴシック
100
AcDbText
  0
TEXT
  5
275
330
1F
100
AcDbEntity
  8
0-4_寸法
  6
Continuous
 62
     2
370
   211
100
AcDbText
 10
-49.70890375524333
 20
175.0858832460955
 30
0.0
 40
9.144
  1
φ180
 41
1.1
  7
ＭＳ ゴシック
100
AcDbText
  0
TEXT
  5
276
330
1F
100
AcDbEntity
  8
0-4_寸法
  6
Continuous
 62
     2
370
   211
100
AcDbText
 10
-49.70891344671434
 20
204.1214860408033
 30
0.0
 40
9.144
  1
φ200
 41
1.1
  7
ＭＳ ゴシック
100
AcDbText
  0
LINE
  5
277
330
1F
100
AcDbEntity
  8
0-4_寸法
  6
Continuous
 62
     7
370
     9
100
AcDbLine
 10
-61.95893053184497
 20
-188.2417265939558
 30
0.0
 11
-4.458931356644412
 21
-188.2417265939558
 31
0.0
  0
LINE
  5
278
330
1F
100
AcDbEntity
  8
0-4_寸法
  6
Continuous
 62
     7
370
     9
100
AcDbLine
 10
-61.95893053184497
 20
-188.2417265939558
 30
0.0
 11
-54.52309407154139
 21
-187.2627801523054
 31
0.0
  0
LINE
  5
279
330
1F
100
AcDbEntity
  8
0-4_寸法
  6
Continuous
 62
     7
370
     9
100
AcDbLine
 10
-61.95893053184497
 20
-188.2417265939558
 30
0.0
 11
-54.52309407154139
 21
-189.2206730356062
 31
0.0
  0
LINE
  5
27A
330
1F
100
AcDbEntity
  8
0-4_寸法
  6
Continuous
 62
     7
370
     9
100
AcDbLine
 10
-4.458931356644412
 20
-188.2417265939558
 30
0.0
 11
-11.89476781694799
 21
-187.2627801523054
 31
0.0
  0
LINE
  5
27B
330
1F
100
AcDbEntity
  8
0-4_寸法
  6
Continuous
 62
     7
370
     9
100
AcDbLine
 10
-4.458931356644412
 20
-188.2417265939558
 30
0.0
 11
-11.89476781694799
 21
-189.2206730356062
 31
0.0
  0
LINE
  5
27C
330
1F
100
AcDbEntity
  8
0-4_寸法
  6
Continuous
 62
     7
370
     9
100
AcDbLine
 10
-61.95893053184497
 20
-189.1417265939558
 30
0.0
 11
-61.95893053184497
 21
-170.7494992253973
 31
0.0
  0
LINE
  5
27D
330
1F
100
AcDbEntity
  8
0-4_寸法
  6
Continuous
 62
     7
370
     9
100
AcDbLine
 10
-4.458931356644412
 20
-189.1417265939558
 30
0.0
 11
-4.458931356644412
 21
-170.7494992253973
 31
0.0
  0
LINE
  5
27E
330
1F
100
AcDbEntity
  8
0-4_寸法
  6
Continuous
 62
     7
370
     9
100
AcDbLine
 10
-66.70898853995601
 20
-65.67700396423118
 30
0.0
 11
0.2910544001530262
 21
-65.67700396423118
 31
0.0
  0
LINE
  5
27F
330
1F
100
AcDbEntity
  8
0-4_寸法
  6
Continuous
 62
     7
370
     9
100
AcDbLine
 10
-66.70898853995601
 20
-65.67700396423118
 30
0.0
 11
-59.27315207965244
 21
-64.69805752258077
 31
0.0
  0
LINE
  5
280
330
1F
100
AcDbEntity
  8
0-4_寸法
  6
Continuous
 62
     7
370
     9
100
AcDbLine
 10
-66.70898853995601
 20
-65.67700396423118
 30
0.0
 11
-59.27315207965244
 21
-66.65595040588158
 31
0.0
  0
LINE
  5
281
330
1F
100
AcDbEntity
  8
0-4_寸法
  6
Continuous
 62
     7
370
     9
100
AcDbLine
 10
0.2910544001530262
 20
-65.67700396423118
 30
0.0
 11
-7.144782060150545
 21
-64.69805752258077
 31
0.0
  0
LINE
  5
282
330
1F
100
AcDbEntity
  8
0-4_寸法
  6
Continuous
 62
     7
370
     9
100
AcDbLine
 10
0.2910544001530262
 20
-65.67700396423118
 30
0.0
 11
-7.144782060150545
 21
-66.65595040588158
 31
0.0
  0
LINE
  5
283
330
1F
100
AcDbEntity
  8
0-4_寸法
  6
Continuous
 62
     7
370
     9
100
AcDbLine
 10
-66.70898853995601
 20
-66.57700396423112
 30
0.0
 11
-66.70898853995601
 21
-34.25886583528245
 31
0.0
  0
LINE
  5
284
330
1F
100
AcDbEntity
  8
0-4_寸法
  6
Continuous
 62
     7
370
     9
100
AcDbLine
 10
0.2910544001530262
 20
-66.57700396423112
 30
0.0
 11
0.2910544001530262
 21
-34.25886224317489
 31
0.0
  0
LINE
  5
285
330
1F
100
AcDbEntity
  8
0-0_通り芯
  6
Continuous
 62
     3
370
     9
100
AcDbLine
 10
0.1344541346576058
 20
-32.75876415518971
 30
0.0
 11
-4.458931356644412
 21
-164.7494992253973
 31
0.0
  0
LINE
  5
286
330
1F
100
AcDbEntity
  8
0-0_通り芯
  6
Continuous
 62
     3
370
     9
100
AcDbLine
 10
4.782716623893878
 20
-27.94483783532215
 30
0.0
 11
13.21238442935644
 21
-27.35549667181829
 31
0.0
  0
ARC
  5
287
330
1F
100
AcDbEntity
  8
0-0_通り芯
  6
Continuous
 62
     3
370
     9
100
AcDbCircle
 10
5.131429139794104
 20
-32.93266297071477
 30
0.0
 40
5.0
100
AcDbArc
 50
93.99919759140573
 51
178.0068643970729
  0
LINE
  5
288
330
1F
100
AcDbEntity
  8
0-0_通り芯
  6
Continuous
 62
     3
370
     9
100
AcDbLine
 10
-66.55238602007759
 20
-32.7587639611995
 30
0.0
 11
-61.95893053184497
 21
-164.7494992253973
 31
0.0
  0
LINE
  5
289
330
1F
100
AcDbEntity
  8
0-0_通り芯
  6
Continuous
 62
     3
370
     9
100
AcDbLine
 10
-71.20064697662276
 20
-27.94484038856763
 30
0.0
 11
-79.63031630796706
 21
-27.35549667181829
 31
0.0
  0
ARC
  5
28A
330
1F
100
AcDbEntity
  8
0-0_通り芯
  6
Continuous
 62
     3
370
     9
100
AcDbCircle
 10
-71.54936093311234
 20
-32.93266542324449
 30
0.0
 40
5.0
100
AcDbArc
 50
1.993165948170829
 51
86.00078586036184
  0
TEXT
  5
28B
330
1F
100
AcDbEntity
  8
0-4_寸法
  6
Continuous
 62
     2
370
   211
100
AcDbText
 10
-46.3339670699015
 20
-62.18500396423116
 30
0.0
 40
9.144
  1
φ67
 41
1.09375
  7
ＭＳ ゴシック
100
AcDbText
  0
TEXT
  5
28C
330
1F
100
AcDbEntity
  8
0-4_寸法
  6
Continuous
 62
     2
370
   211
100
AcDbText
 10
-46.33393094424468
 20
-184.7497265939558
 30
0.0
 40
9.144
  1
φ58
 41
1.09375
  7
ＭＳ ゴシック
100
AcDbText
  0
LINE
  5
28D
330
1F
100
AcDbEntity
  8
0-4_寸法
  6
Continuous
 62
     7
370
     9
100
AcDbLine
 10
125.245478045016
 20
-164.7494992253973
 30
0.0
 11
125.245478045016
 21
-27.94483783532217
 31
0.0
  0
LINE
  5
28E
330
1F
100
AcDbEntity
  8
0-4_寸法
  6
Continuous
 62
     7
370
     9
100
AcDbLine
 10
125.245478045016
 20
-164.7494992253973
 30
0.0
 11
124.2665316033656
 21
-157.3136627650936
 31
0.0
  0
LINE
  5
28F
330
1F
100
AcDbEntity
  8
0-4_寸法
  6
Continuous
 62
     7
370
     9
100
AcDbLine
 10
125.245478045016
 20
-164.7494992253973
 30
0.0
 11
126.2244244866664
 21
-157.3136627650936
 31
0.0
  0
LINE
  5
290
330
1F
100
AcDbEntity
  8
0-4_寸法
  6
Continuous
 62
     7
370
     9
100
AcDbLine
 10
125.245478045016
 20
-27.94483783532217
 30
0.0
 11
124.2665316033656
 21
-35.38067429562575
 31
0.0
  0
LINE
  5
291
330
1F
100
AcDbEntity
  8
0-4_寸法
  6
Continuous
 62
     7
370
     9
100
AcDbLine
 10
125.245478045016
 20
-27.94483783532217
 30
0.0
 11
126.2244244866664
 21
-35.38067429562575
 31
0.0
  0
LINE
  5
292
330
1F
100
AcDbEntity
  8
0-4_寸法
  6
Continuous
 62
     7
370
     9
100
AcDbLine
 10
126.1454780450159
 20
-164.7494992253973
 30
0.0
 11
1.541068643355588
 21
-164.7494992253973
 31
0.0
  0
LINE
  5
293
330
1F
100
AcDbEntity
  8
0-4_寸法
  6
Continuous
 62
     7
370
     9
100
AcDbLine
 10
126.1454780450159
 20
-27.94483783532217
 30
0.0
 11
10.78271662389388
 21
-27.94483783532215
 31
0.0
  0
LINE
  5
294
330
1F
100
AcDbEntity
  8
0-4_寸法
  6
Continuous
 62
     7
370
     9
100
AcDbLine
 10
125.245478045016
 20
-27.94483783532217
 30
0.0
 11
125.245478045016
 21
7.241075202616095
 31
0.0
  0
LINE
  5
295
330
1F
100
AcDbEntity
  8
0-4_寸法
  6
Continuous
 62
     7
370
     9
100
AcDbLine
 10
125.245478045016
 20
-27.94483783532217
 30
0.0
 11
124.2665316033656
 21
-20.50900137501859
 31
0.0
  0
LINE
  5
296
330
1F
100
AcDbEntity
  8
0-4_寸法
  6
Continuous
 62
     7
370
     9
100
AcDbLine
 10
125.245478045016
 20
-27.94483783532217
 30
0.0
 11
126.2244244866664
 21
-20.50900137501859
 31
0.0
  0
LINE
  5
297
330
1F
100
AcDbEntity
  8
0-4_寸法
  6
Continuous
 62
     7
370
     9
100
AcDbLine
 10
125.245478045016
 20
7.241075202616095
 30
0.0
 11
124.2665316033656
 21
-0.1947612576874818
 31
0.0
  0
LINE
  5
298
330
1F
100
AcDbEntity
  8
0-4_寸法
  6
Continuous
 62
     7
370
     9
100
AcDbLine
 10
125.245478045016
 20
7.241075202616095
 30
0.0
 11
126.2244244866664
 21
-0.1947612576874818
 31
0.0
  0
LINE
  5
299
330
1F
100
AcDbEntity
  8
0-4_寸法
  6
Continuous
 62
     7
370
     9
100
AcDbLine
 10
126.1454780450159
 20
7.241075202616095
 30
0.0
 11
70.79097438056601
 21
7.241075202616095
 31
0.0
  0
LINE
  5
29A
330
1F
100
AcDbEntity
  8
0-4_寸法
  6
Continuous
 62
     7
370
     9
100
AcDbLine
 10
125.245478045016
 20
7.241075202616095
 30
0.0
 11
125.245478045016
 21
75.09744263048623
 31
0.0
  0
LINE
  5
29B
330
1F
100
AcDbEntity
  8
0-4_寸法
  6
Continuous
 62
     7
370
     9
100
AcDbLine
 10
125.245478045016
 20
7.241075202616095
 30
0.0
 11
124.2665316033656
 21
14.67691166291967
 31
0.0
  0
LINE
  5
29C
330
1F
100
AcDbEntity
  8
0-4_寸法
  6
Continuous
 62
     7
370
     9
100
AcDbLine
 10
125.245478045016
 20
7.241075202616095
 30
0.0
 11
126.2244244866664
 21
14.67691166291967
 31
0.0
  0
LINE
  5
29D
330
1F
100
AcDbEntity
  8
0-4_寸法
  6
Continuous
 62
     7
370
     9
100
AcDbLine
 10
125.245478045016
 20
75.09744263048623
 30
0.0
 11
124.2665316033656
 21
67.66160617018265
 31
0.0
  0
LINE
  5
29E
330
1F
100
AcDbEntity
  8
0-4_寸法
  6
Continuous
 62
     7
370
     9
100
AcDbLine
 10
125.245478045016
 20
75.09744263048623
 30
0.0
 11
126.2244244866664
 21
67.66160617018265
 31
0.0
  0
LINE
  5
29F
330
1F
100
AcDbEntity
  8
0-4_寸法
  6
Continuous
 62
     7
370
     9
100
AcDbLine
 10
126.1454780450159
 20
75.09744263048623
 30
0.0
 11
12.7910707642684
 21
75.09744263048623
 31
0.0
  0
TEXT
  5
2A0
330
1F
100
AcDbEntity
  8
0-4_寸法
  6
Continuous
 62
     2
370
   211
100
AcDbText
 10
121.753478045016
 20
-106.0971685303597
 30
0.0
 40
9.144
  1
136
 50
90.0
 41
1.083333333333333
  7
ＭＳ ゴシック
100
AcDbText
  0
TEXT
  5
2A1
330
1F
100
AcDbEntity
  8
0-4_寸法
  6
Continuous
 62
     2
370
   211
100
AcDbText
 10
121.753478045016
 20
-16.72688131635304
 30
0.0
 40
9.144
  1
35
 50
90.0
 41
1.0625
  7
ＭＳ ゴシック
100
AcDbText
  0
TEXT
  5
2A2
330
1F
100
AcDbEntity
  8
0-4_寸法
  6
Continuous
 62
     2
370
   211
100
AcDbText
 10
121.753478045016
 20
34.79425891655115
 30
0.0
 40
9.144
  1
68
 50
90.0
 41
1.0625
  7
ＭＳ ゴシック
100
AcDbText
  0
LINE
  5
2A3
330
1F
100
AcDbEntity
  8
0-4_寸法
  6
Continuous
 62
     7
370
     9
100
AcDbLine
 10
-167.9803284065969
 20
5.097417768675477
 30
0.0
 11
-167.9803284065969
 21
75.09744263048624
 31
0.0
  0
LINE
  5
2A4
330
1F
100
AcDbEntity
  8
0-4_寸法
  6
Continuous
 62
     7
370
     9
100
AcDbLine
 10
-167.9803284065969
 20
5.097417768675477
 30
0.0
 11
-168.9592748482473
 21
12.53325422897905
 31
0.0
  0
LINE
  5
2A5
330
1F
100
AcDbEntity
  8
0-4_寸法
  6
Continuous
 62
     7
370
     9
100
AcDbLine
 10
-167.9803284065969
 20
5.097417768675477
 30
0.0
 11
-167.0013819649465
 21
12.53325422897905
 31
0.0
  0
LINE
  5
2A6
330
1F
100
AcDbEntity
  8
0-4_寸法
  6
Continuous
 62
     7
370
     9
100
AcDbLine
 10
-167.9803284065969
 20
75.09744263048624
 30
0.0
 11
-168.9592748482473
 21
67.66160617018267
 31
0.0
  0
LINE
  5
2A7
330
1F
100
AcDbEntity
  8
0-4_寸法
  6
Continuous
 62
     7
370
     9
100
AcDbLine
 10
-167.9803284065969
 20
75.09744263048624
 30
0.0
 11
-167.0013819649465
 21
67.66160617018267
 31
0.0
  0
LINE
  5
2A8
330
1F
100
AcDbEntity
  8
0-4_寸法
  6
Continuous
 62
     7
370
     9
100
AcDbLine
 10
-168.8803284065969
 20
5.097417768675477
 30
0.0
 11
-107.3394321795585
 21
5.097417768675477
 31
0.0
  0
LINE
  5
2A9
330
1F
100
AcDbEntity
  8
0-4_寸法
  6
Continuous
 62
     7
370
     9
100
AcDbLine
 10
-168.8803284065969
 20
75.09744263048624
 30
0.0
 11
-83.4705436486064
 21
75.09744263048624
 31
0.0
  0
TEXT
  5
2AA
330
1F
100
AcDbEntity
  8
0-4_寸法
  6
Continuous
 62
     2
370
   211
100
AcDbText
 10
-171.4723284065969
 20
33.72243019958086
 30
0.0
 40
9.144
  1
70
 50
90.0
 41
1.0625
  7
ＭＳ ゴシック
100
AcDbText
  0
LINE
  5
2AB
330
1F
100
AcDbEntity
  8
0-5_文字
  6
Continuous
 62
     7
370
     9
100
AcDbLine
 10
40.29110740892788
 20
11.09735590871983
 30
0.0
 11
42.29539522951485
 21
18.32458430778451
 31
0.0
  0
LINE
  5
2AC
330
1F
100
AcDbEntity
  8
0-5_文字
  6
Continuous
 62
     7
370
     9
100
AcDbLine
 10
40.29110740892788
 20
11.09735590871983
 30
0.0
 11
44.09764513113314
 21
17.55957461203131
 31
0.0
  0
LINE
  5
2AD
330
1F
100
AcDbEntity
  8
0-5_文字
  6
Continuous
 62
     7
370
     9
100
AcDbLine
 10
31.29107771614913
 20
15.89748839507056
 30
0.0
 11
33.82876953095261
 21
20.20563419727818
 31
0.0
  0
LINE
  5
2AE
330
1F
100
AcDbEntity
  8
0-5_文字
  6
Continuous
 62
     7
370
     9
100
AcDbLine
 10
31.29107771614913
 20
15.89748839507056
 30
0.0
 11
32.62726959654044
 21
20.71564066111367
 31
0.0
  0
LINE
  5
2AF
330
1F
100
AcDbEntity
  8
0-5_文字
  6
Continuous
 62
     7
370
     9
100
AcDbLine
 10
11.51628969954252
 20
36.30673483015596
 30
0.0
 11
15.5460367621437
 21
29.98129898655932
 31
0.0
  0
LINE
  5
2B0
330
1F
100
AcDbEntity
  8
0-5_文字
  6
Continuous
 62
     7
370
     9
100
AcDbLine
 10
11.51628969954252
 20
36.30673483015596
 30
0.0
 11
17.0458697256185
 21
31.23980827303851
 31
0.0
  0
LINE
  5
2B1
330
1F
100
AcDbEntity
  8
0-5_文字
  6
Continuous
 62
     7
370
     9
100
AcDbLine
 10
19.93592027460892
 20
26.27260984400457
 30
0.0
 11
11.51628969954252
 21
36.30673483015596
 31
0.0
  0
LINE
  5
2B2
330
1F
100
AcDbEntity
  8
0-5_文字
  6
Continuous
 62
     7
370
     9
100
AcDbLine
 10
80.14778583154768
 20
211.6263331137191
 30
0.0
 11
211.0974968640021
 21
211.6263331137191
 31
0.0
  0
LINE
  5
2B3
330
1F
100
AcDbEntity
  8
0-5_文字
  6
Continuous
 62
     7
370
     9
100
AcDbLine
 10
6.791070764268394
 20
75.09744263048623
 30
0.0
 11
80.14778583154768
 21
211.6263331137191
 31
0.0
  0
LINE
  5
2B4
330
1F
100
AcDbEntity
  8
0-5_文字
  6
Continuous
 62
     7
370
     9
100
AcDbLine
 10
6.791070764268394
 20
75.09744263048623
 30
0.0
 11
8.12726264465962
 21
79.91559489652934
 31
0.0
  0
LINE
  5
2B5
330
1F
100
AcDbEntity
  8
0-5_文字
  6
Continuous
 62
     7
370
     9
100
AcDbLine
 10
6.791070764268394
 20
75.09744263048623
 30
0.0
 11
9.328762579071874
 21
79.40558843269385
 31
0.0
  0
LINE
  5
2B6
330
1F
100
AcDbEntity
  8
0-5_文字
  6
Continuous
 62
     7
370
     9
100
AcDbLine
 10
-76.20891922031022
 20
10.20387387744975
 30
0.0
 11
-78.12234662476546
 21
14.82327843826059
 31
0.0
  0
LINE
  5
2B7
330
1F
100
AcDbEntity
  8
0-5_文字
  6
Continuous
 62
     7
370
     9
100
AcDbLine
 10
-76.20891922031022
 20
10.20387387744975
 30
0.0
 11
-79.2527259665096
 21
14.17063116207813
 31
0.0
  0
LINE
  5
2B8
330
1F
100
AcDbEntity
  8
0-5_文字
  6
Continuous
 62
     7
370
     9
100
AcDbLine
 10
-87.79144440732759
 20
70.15746988185873
 30
0.0
 11
-164.6822156372405
 21
202.7820086233128
 31
0.0
  0
LINE
  5
2B9
330
1F
100
AcDbEntity
  8
0-5_文字
  6
Continuous
 62
     7
370
     9
100
AcDbLine
 10
-87.79144440732759
 20
70.15746988185873
 30
0.0
 11
-90.8352511535268
 21
74.12422716648712
 31
0.0
  0
LINE
  5
2BA
330
1F
100
AcDbEntity
  8
0-5_文字
  6
Continuous
 62
     7
370
     9
100
AcDbLine
 10
-87.79144440732759
 20
70.15746988185873
 30
0.0
 11
-89.70487181178274
 21
74.77687444266957
 31
0.0
  0
LINE
  5
2BB
330
1F
100
AcDbEntity
  8
0-5_文字
  6
Continuous
 62
     7
370
     9
100
AcDbLine
 10
-76.20891922031022
 20
10.20387387744975
 30
0.0
 11
-156.0450518618594
 21
148.4552911731582
 31
0.0
  0
LINE
  5
2BC
330
1F
100
AcDbEntity
  8
0-5_文字
  6
Continuous
 62
     7
370
     9
100
AcDbLine
 10
96.1165672891612
 20
111.2327106085699
 30
0.0
 11
215.1761465158449
 21
111.2327106085699
 31
0.0
  0
LINE
  5
2BD
330
1F
100
AcDbEntity
  8
0-5_文字
  6
Continuous
 62
     7
370
     9
100
AcDbLine
 10
40.29110740892788
 20
11.09735590871983
 30
0.0
 11
96.1165672891612
 21
111.2327106085699
 31
0.0
  0
LINE
  5
2BE
330
1F
100
AcDbEntity
  8
0-5_文字
  6
Continuous
 62
     7
370
     9
100
AcDbLine
 10
31.29107771614913
 20
15.89748839507056
 30
0.0
 11
102.6380506643544
 21
150.712138062578
 31
0.0
  0
LINE
  5
2BF
330
1F
100
AcDbEntity
  8
0-5_文字
  6
Continuous
 62
     7
370
     9
100
AcDbLine
 10
-109.6173694668559
 20
-5.791282952782069
 30
0.0
 11
-111.5307968713111
 21
-10.41068751359287
 31
0.0
  0
LINE
  5
2C0
330
1F
100
AcDbEntity
  8
0-5_文字
  6
Continuous
 62
     7
370
     9
100
AcDbLine
 10
-109.6173694668559
 20
-5.791282952782069
 30
0.0
 11
-112.6611762130551
 21
-9.758040237410448
 31
0.0
  0
TEXT
  5
2C1
330
1F
100
AcDbEntity
  8
0-5_文字
  6
Continuous
 62
     7
370
     9
100
AcDbText
 10
81.16088124734132
 20
214.8551366970804
 30
0.0
 40
6.858000000000001
  1
ストレーナー：ＦＣ１５０
 41
1.152777777777777
  7
ＭＳ ゴシック
100
AcDbText
  0
TEXT
  5
2C2
330
1F
100
AcDbEntity
  8
0-5_文字
  6
Continuous
 62
     7
370
     9
100
AcDbText
 10
98.38456394553134
 20
115.1612423148044
 30
0.0
 40
6.858000000000001
  1
防水層押え：ＦＣ１５０
 41
1.151515151515151
  7
ＭＳ ゴシック
100
AcDbText
  0
TEXT
  5
2C3
330
1F
100
AcDbEntity
  8
0-5_文字
  6
Continuous
 62
     7
370
     9
100
AcDbText
 10
130.2536699289562
 20
100.9192574030507
 30
0.0
 40
6.858000000000001
  1
樹脂系塗装
 41
1.133333333333333
  7
ＭＳ ゴシック
100
AcDbText
  0
LINE
  5
2C4
330
1F
100
AcDbEntity
  8
0-5_文字
  6
Continuous
 62
     7
370
     9
100
AcDbLine
 10
-139.968115638784
 20
-59.34212538524359
 30
0.0
 11
-231.253985639951
 21
-59.34212538524359
 31
0.0
  0
LINE
  5
2C5
330
1F
100
AcDbEntity
  8
0-5_文字
  6
Continuous
 62
     7
370
     9
100
AcDbLine
 10
-109.6173694668559
 20
-5.791282952782069
 30
0.0
 11
-139.968115638784
 21
-59.34212538524359
 31
0.0
  0
TEXT
  5
2C6
330
1F
100
AcDbEntity
  8
0-5_文字
  6
Continuous
 62
     7
370
     9
100
AcDbText
 10
-226.2181942116261
 20
-56.00969419400012
 30
0.0
 40
6.858000000000001
  1
本体：ＦＣ１５０
 41
1.145833333333333
  7
ＭＳ ゴシック
100
AcDbText
  0
TEXT
  5
2C7
330
1F
100
AcDbEntity
  8
0-5_文字
  6
Continuous
 62
     7
370
     9
100
AcDbText
 10
-213.1704788761633
 20
-69.18177609041037
 30
0.0
 40
6.858000000000001
  1
樹脂系塗装
 41
1.133333333333333
  7
ＭＳ ゴシック
100
AcDbText
  0
TEXT
  5
2C8
330
1F
100
AcDbEntity
  8
0-5_文字
  6
Continuous
 62
     7
370
     9
100
AcDbText
 10
101.9678915171808
 20
181.8880909435925
 30
0.0
 40
6.858000000000001
  1
ロート：ＳＵＳ３０４
 41
1.15
  7
ＭＳ ゴシック
100
AcDbText
  0
LINE
  5
2C9
330
1F
100
AcDbEntity
  8
0-5_文字
  6
Continuous
 62
     7
370
     9
100
AcDbLine
 10
19.93592027460892
 20
26.27260984400457
 30
0.0
 11
99.52585665240682
 21
179.0992400716262
 31
0.0
  0
LINE
  5
2CA
330
1F
100
AcDbEntity
  8
0-5_文字
  6
Continuous
 62
     7
370
     9
100
AcDbLine
 10
99.52585665240682
 20
179.0992400716262
 30
0.0
 11
210.3107263618365
 21
179.0992400716262
 31
0.0
  0
TEXT
  5
2CB
330
1F
100
AcDbEntity
  8
0-5_文字
  6
Continuous
 62
     7
370
     9
100
AcDbText
 10
122.6680706710484
 20
201.9439083331461
 30
0.0
 40
6.858000000000001
  1
樹脂系塗装
 41
1.133333333333333
  7
ＭＳ ゴシック
100
AcDbText
  0
TEXT
  5
2CC
330
1F
100
AcDbEntity
  8
0-5_文字
  6
Continuous
 62
     6
370
     5
100
AcDbText
 10
-254.832846018283
 20
128.3550841014819
 30
0.0
 40
6.858000000000001
  1
シート防水用　Ｍ８×２０
 41
0.8944444444444444
  7
ＭＳ ゴシック
100
AcDbText
  0
TEXT
  5
2CD
330
1F
100
AcDbEntity
  8
0-5_文字
  6
Continuous
 62
     6
370
     5
100
AcDbText
 10
-279.0808762121383
 20
137.545441486246
 30
0.0
 40
6.858000000000001
  1
アスファルト防水用　Ｍ８×３０
 41
0.8955555555555554
  7
ＭＳ ゴシック
100
AcDbText
  0
LINE
  5
2CE
330
1F
100
AcDbEntity
  8
0-2_本体（蓋）
  6
JWW_CENTER1
 62
     4
370
     9
100
AcDbLine
 10
-96.70895574714115
 20
287.9811039929172
 30
0.0
 11
-96.70895574714115
 21
295.2905573017296
 31
0.0
  0
LINE
  5
2CF
330
1F
100
AcDbEntity
  8
0-2_本体（蓋）
  6
JWW_CENTER1
 62
     4
370
     9
100
AcDbLine
 10
30.29105886359124
 20
287.9811039929172
 30
0.0
 11
30.29105886359124
 21
295.2905573017296
 31
0.0
  0
LINE
  5
2D0
330
1F
100
AcDbEntity
  8
0-2_本体（蓋）
  6
Continuous
 62
     4
370
     9
100
AcDbLine
 10
-33.70890537546296
 20
338.6881069640803
 30
0.0
 11
-32.70895651302629
 21
338.6881069640803
 31
0.0
  0
LINE
  5
2D1
330
1F
100
AcDbEntity
  8
0-2_本体（蓋）
  6
Continuous
 62
     4
370
     9
100
AcDbLine
 10
30.89115416327152
 20
289.5812181451553
 30
0.0
 11
30.89115416327152
 21
290.7311033448605
 31
0.0
  0
LINE
  5
2D2
330
1F
100
AcDbEntity
  8
0-2_本体（蓋）
  6
Continuous
 62
     4
370
     9
100
AcDbLine
 10
29.69096356391096
 20
290.7311033448605
 30
0.0
 11
30.89115416327152
 21
290.7311033448605
 31
0.0
  0
LINE
  5
2D3
330
1F
100
AcDbEntity
  8
0-2_本体（蓋）
  6
Continuous
 62
     4
370
     9
100
AcDbLine
 10
29.69096356391096
 20
289.5812181451553
 30
0.0
 11
29.69096356391096
 21
290.7311033448605
 31
0.0
  0
LINE
  5
2D4
330
1F
100
AcDbEntity
  8
0-2_本体（蓋）
  6
Continuous
 62
     4
370
     9
100
AcDbLine
 10
35.25489824356831
 20
288.5812167901277
 30
0.0
 11
25.32721948361417
 21
288.5812167901277
 31
0.0
  0
LINE
  5
2D5
330
1F
100
AcDbEntity
  8
0-2_本体（蓋）
  6
Continuous
 62
     4
370
     9
100
AcDbLine
 10
-97.30912103694266
 20
289.5812181451553
 30
0.0
 11
-97.30912103694266
 21
290.7311033448605
 31
0.0
  0
LINE
  5
2D6
330
1F
100
AcDbEntity
  8
0-2_本体（蓋）
  6
Continuous
 62
     4
370
     9
100
AcDbLine
 10
-96.10893043758213
 20
290.7311033448605
 30
0.0
 11
-97.30912103694266
 21
290.7311033448605
 31
0.0
  0
LINE
  5
2D7
330
1F
100
AcDbEntity
  8
0-2_本体（蓋）
  6
Continuous
 62
     4
370
     9
100
AcDbLine
 10
-96.10893043758213
 20
289.5812181451553
 30
0.0
 11
-96.10893043758213
 21
290.7311033448605
 31
0.0
  0
LINE
  5
2D8
330
1F
100
AcDbEntity
  8
0-2_本体（蓋）
  6
Continuous
 62
     4
370
     9
100
AcDbLine
 10
-101.6728651172395
 20
288.5812167901277
 30
0.0
 11
-91.74518635728532
 21
288.5812167901277
 31
0.0
  0
LINE
  5
2D9
330
1F
100
AcDbEntity
  8
0-2_本体（蓋）
  6
Continuous
 62
     4
370
     9
100
AcDbLine
 10
-30.70891880791046
 20
326.2315276452421
 30
0.0
 11
-30.70891880791046
 21
327.9028742433923
 31
0.0
  0
LINE
  5
2DA
330
1F
100
AcDbEntity
  8
0-2_本体（蓋）
  6
Continuous
 62
     4
370
     9
100
AcDbLine
 10
-35.70894308057879
 20
326.2314226600602
 30
0.0
 11
-35.70894308057879
 21
327.9028742433923
 31
0.0
  0
LINE
  5
2DB
330
1F
100
AcDbEntity
  8
0-2_本体（蓋）
  6
Continuous
 62
     4
370
     9
100
AcDbLine
 10
-36.20898750191839
 20
326.5408139910884
 30
0.0
 11
-36.20898750191839
 21
327.8684391037324
 31
0.0
  0
LINE
  5
2DC
330
1F
100
AcDbEntity
  8
0-2_本体（蓋）
  6
Continuous
 62
     4
370
     9
100
AcDbLine
 10
-30.20894437669213
 20
326.5409189762703
 30
0.0
 11
-30.20894437669213
 21
327.8684391037324
 31
0.0
  0
LINE
  5
2DD
330
1F
100
AcDbEntity
  8
0-2_本体（蓋）
  6
Continuous
 62
     4
370
     9
100
AcDbLine
 10
-32.70895651302629
 20
338.6881069640803
 30
0.0
 11
-32.70895651302629
 21
342.7747601543101
 31
0.0
  0
LINE
  5
2DE
330
1F
100
AcDbEntity
  8
0-2_本体（蓋）
  6
Continuous
 62
     4
370
     9
100
AcDbLine
 10
-33.70890537546296
 20
338.6881069640803
 30
0.0
 11
-33.70890537546296
 21
342.7747601543101
 31
0.0
  0
LINE
  5
2DF
330
1F
100
AcDbEntity
  8
0-2_本体（蓋）
  6
Continuous
 62
     4
370
     9
100
AcDbLine
 10
-30.70891880791046
 20
334.0912432873978
 30
0.0
 11
-30.70891880791046
 21
337.9818541479794
 31
0.0
  0
LINE
  5
2E0
330
1F
100
AcDbEntity
  8
0-2_本体（蓋）
  6
Continuous
 62
     4
370
     9
100
AcDbLine
 10
-30.20894437669213
 20
334.4006346184261
 30
0.0
 11
-30.20894437669213
 21
338.0393510325943
 31
0.0
  0
LINE
  5
2E1
330
1F
100
AcDbEntity
  8
0-2_本体（蓋）
  6
Continuous
 62
     4
370
     9
100
AcDbLine
 10
-35.70894308057879
 20
334.091138302216
 30
0.0
 11
-35.70894308057879
 21
337.9817491627975
 31
0.0
  0
LINE
  5
2E2
330
1F
100
AcDbEntity
  8
0-2_本体（蓋）
  6
Continuous
 62
     4
370
     9
100
AcDbLine
 10
-36.20898750191839
 20
334.4005121357139
 30
0.0
 11
-36.20898750191839
 21
338.0392460474123
 31
0.0
  0
ARC
  5
2E3
330
1F
100
AcDbEntity
  8
0-2_本体（蓋）
  6
Continuous
 62
     4
370
     9
100
AcDbCircle
 10
28.69097970641369
 20
289.5812181451553
 30
0.0
 40
0.999999988033044
100
AcDbArc
 50
270.0
 51
0.0
  0
ARC
  5
2E4
330
1F
100
AcDbEntity
  8
0-2_本体（蓋）
  6
Continuous
 62
     4
370
     9
100
AcDbCircle
 10
31.89120801089002
 20
289.5812181451553
 30
0.0
 40
0.999999988033044
100
AcDbArc
 50
180.0
 51
270.0
  0
ARC
  5
2E5
330
1F
100
AcDbEntity
  8
0-2_本体（蓋）
  6
Continuous
 62
     4
370
     9
100
AcDbCircle
 10
30.29105886359124
 20
287.9811039929172
 30
0.0
 40
5.000000213564133
100
AcDbArc
 50
0.0
 51
180.0
  0
ARC
  5
2E6
330
1F
100
AcDbEntity
  8
0-2_本体（蓋）
  6
Continuous
 62
     4
370
     9
100
AcDbCircle
 10
-95.10894658008486
 20
289.5812181451553
 30
0.0
 40
0.999999988033044
100
AcDbArc
 50
180.0
 51
270.0
  0
ARC
  5
2E7
330
1F
100
AcDbEntity
  8
0-2_本体（蓋）
  6
Continuous
 62
     4
370
     9
100
AcDbCircle
 10
-98.3091748845612
 20
289.5812181451553
 30
0.0
 40
0.999999988033044
100
AcDbArc
 50
270.0
 51
0.0
  0
ARC
  5
2E8
330
1F
100
AcDbEntity
  8
0-2_本体（蓋）
  6
Continuous
 62
     4
370
     9
100
AcDbCircle
 10
-96.7090257372624
 20
287.9811039929172
 30
0.0
 40
5.000000213564133
100
AcDbArc
 50
0.0
 51
180.0
  0
ELLIPSE
  5
2E9
330
1F
100
AcDbEntity
  8
0-2_本体（蓋）
  6
Continuous
 62
     4
370
     9
100
AcDbEllipse
 10
-33.20896593930527
 20
334.4005821258352
 30
0.0
 11
-2.999871466059399
 21
-5.752181494505846E-5
 31
0.0
210
0.0
220
0.0
230
1.0
 40
0.1866
 41
0.0
 42
3.141592653589793
  0
ELLIPSE
  5
2EA
330
1F
100
AcDbEntity
  8
0-2_本体（蓋）
  6
Continuous
 62
     4
370
     9
100
AcDbEllipse
 10
-33.20896593930527
 20
326.5408664836793
 30
0.0
 11
-2.999871466059399
 21
-5.752181494505846E-5
 31
0.0
210
0.0
220
0.0
230
1.0
 40
0.1866
 41
0.0
 42
3.141592653589793
  0
ELLIPSE
  5
2EB
330
1F
100
AcDbEntity
  8
0-2_本体（蓋）
  6
Continuous
 62
     4
370
     9
100
AcDbEllipse
 10
-33.20894844177494
 20
338.8432050727916
 30
0.0
 11
-5.249783472620464
 21
-0.0001006633373563751
 31
0.0
210
0.0
220
0.0
230
1.0
 40
0.1866
 41
0.0
 42
3.141592653589793
  0
ARC
  5
2EC
330
1F
100
AcDbEntity
  8
0-2_本体（蓋）
  6
Continuous
 62
     4
370
     9
100
AcDbCircle
 10
-33.20891344671432
 20
337.3357753386315
 30
0.0
 40
5.461919156740991
100
AcDbArc
 50
16.02212524414065
 51
84.74807739257815
  0
ARC
  5
2ED
330
1F
100
AcDbEntity
  8
0-2_本体（蓋）
  6
Continuous
 62
     4
370
     9
100
AcDbCircle
 10
-33.20891344671432
 20
337.3357753386315
 30
0.0
 40
5.461919156740991
100
AcDbArc
 50
95.25228881835939
 51
163.980209350586
  0
LINE
  5
2EE
330
1F
100
AcDbEntity
  8
0-2_本体（蓋）
  6
JWW_PHANTOM1
 62
     4
370
     9
100
AcDbLine
 10
-85.05105119952714
 20
63.78388947946974
 30
0.0
 11
-83.09104784377183
 21
74.09927851614175
 31
0.0
  0
LINE
  5
2EF
330
1F
100
AcDbEntity
  8
0-2_本体（蓋）
  6
JWW_PHANTOM1
 62
     4
370
     9
100
AcDbLine
 10
-85.14683268047096
 20
68.63707447773527
 30
0.0
 11
-84.96009903695023
 21
69.61952580985701
 31
0.0
  0
LINE
  5
2F0
330
1F
100
AcDbEntity
  8
0-2_本体（蓋）
  6
JWW_PHANTOM1
 62
     4
370
     9
100
AcDbLine
 10
-87.79144440732759
 20
70.15746988185873
 30
0.0
 11
-84.96009903695023
 21
69.61952580985701
 31
0.0
  0
LINE
  5
2F1
330
1F
100
AcDbEntity
  8
0-2_本体（蓋）
  6
JWW_PHANTOM1
 62
     4
370
     9
100
AcDbLine
 10
-87.97810806072707
 20
69.17501854973699
 30
0.0
 11
-85.14683268047096
 21
68.63707447773527
 31
0.0
  0
LINE
  5
2F2
330
1F
100
AcDbEntity
  8
0-2_本体（蓋）
  6
JWW_PHANTOM1
 62
     4
370
     9
100
AcDbLine
 10
-72.74864262029362
 20
64.24554431929839
 30
0.0
 11
-71.8152893582355
 21
69.15762600460398
 31
0.0
  0
LINE
  5
2F3
330
1F
100
AcDbEntity
  8
0-2_本体（蓋）
  6
JWW_PHANTOM1
 62
     4
370
     9
100
AcDbLine
 10
-73.33320011305423
 20
63.84765047993724
 30
0.0
 11
-72.21318319759663
 21
69.74214850230395
 31
0.0
  0
LINE
  5
2F4
330
1F
100
AcDbEntity
  8
0-2_本体（蓋）
  6
JWW_PHANTOM1
 62
     4
370
     9
100
AcDbLine
 10
-73.33320011305423
 20
63.84765047993724
 30
0.0
 11
-72.74864262029362
 21
64.24554431929839
 31
0.0
  0
LINE
  5
2F5
330
1F
100
AcDbEntity
  8
0-2_本体（蓋）
  6
JWW_PHANTOM1
 62
     4
370
     9
100
AcDbLine
 10
-72.21318319759663
 20
69.74214850230395
 30
0.0
 11
-71.8152893582355
 21
69.15762600460398
 31
0.0
  0
LINE
  5
2F6
330
1F
100
AcDbEntity
  8
0-2_本体（蓋）
  6
JWW_PHANTOM1
 62
     4
370
     9
100
AcDbLine
 10
-83.51102356639038
 20
71.88888550157998
 30
0.0
 11
-72.21318319759663
 21
69.74214850230395
 31
0.0
  0
LINE
  5
2F7
330
1F
100
AcDbEntity
  8
0-2_本体（蓋）
  6
JWW_PHANTOM1
 62
     4
370
     9
100
AcDbLine
 10
-83.60439038815076
 20
71.39762484045848
 30
0.0
 11
-71.8152893582355
 21
69.15762600460398
 31
0.0
  0
LINE
  5
2F8
330
1F
100
AcDbEntity
  8
0-2_本体（蓋）
  6
JWW_PHANTOM1
 62
     4
370
     9
100
AcDbLine
 10
-84.53763866502695
 20
66.48557815021356
 30
0.0
 11
-72.74864262029362
 21
64.24554431929839
 31
0.0
  0
LINE
  5
2F9
330
1F
100
AcDbEntity
  8
0-2_本体（蓋）
  6
JWW_PHANTOM1
 62
     4
370
     9
100
AcDbLine
 10
-84.63100548678733
 20
65.99431748909205
 30
0.0
 11
-73.33320011305423
 21
63.84765047993724
 31
0.0
  0
LINE
  5
2FA
330
1F
100
AcDbEntity
  8
0-2_本体（蓋）
  6
JWW_PHANTOM1
 62
     4
370
     9
100
AcDbLine
 10
-89.87116586549752
 20
70.04366594469055
 30
0.0
 11
-70.10000646146456
 21
66.28694618607868
 31
0.0
  0
LINE
  5
2FB
330
1F
100
AcDbEntity
  8
0-2_本体（蓋）
  6
JWW_CENTER1
 62
     4
370
     9
100
AcDbLine
 10
30.29105886359122
 20
18.27984713756729
 30
0.0
 11
30.29105886359122
 21
-2.003220013358771
 31
0.0
  0
LINE
  5
2FC
330
1F
100
AcDbEntity
  8
0-2_本体（蓋）
  6
Continuous
 62
     4
370
     9
100
AcDbLine
 10
32.42099823376496
 20
0.0477005099128007
 30
0.0
 11
33.29097544102244
 21
0.9177127122309301
 31
0.0
  0
LINE
  5
2FD
330
1F
100
AcDbEntity
  8
0-2_本体（蓋）
  6
Continuous
 62
     4
370
     9
100
AcDbLine
 10
28.16097951317493
 20
0.0477005099128007
 30
0.0
 11
27.29100230591745
 21
0.9177127122309301
 31
0.0
  0
LINE
  5
2FE
330
1F
100
AcDbEntity
  8
0-2_本体（蓋）
  6
Continuous
 62
     4
370
     9
100
AcDbLine
 10
28.16097951317493
 20
0.0477005099128007
 30
0.0
 11
32.42099823376496
 21
0.0477005099128007
 31
0.0
  0
LINE
  5
2FF
330
1F
100
AcDbEntity
  8
0-2_本体（蓋）
  6
Continuous
 62
     4
370
     9
100
AcDbLine
 10
27.29100230591745
 20
0.9177127122309301
 30
0.0
 11
33.29097544102244
 21
0.9177127122309301
 31
0.0
  0
LINE
  5
300
330
1F
100
AcDbEntity
  8
0-2_本体（蓋）
  6
Continuous
 62
     4
370
     9
100
AcDbLine
 10
33.29097544102244
 20
12.04771677024406
 30
0.0
 11
33.29097544102244
 21
0.9177127122309301
 31
0.0
  0
LINE
  5
301
330
1F
100
AcDbEntity
  8
0-2_本体（蓋）
  6
Continuous
 62
     4
370
     9
100
AcDbLine
 10
32.42099823376496
 20
12.04771677024406
 30
0.0
 11
32.42099823376496
 21
0.0477005099128007
 31
0.0
  0
LINE
  5
302
330
1F
100
AcDbEntity
  8
0-2_本体（蓋）
  6
Continuous
 62
     4
370
     9
100
AcDbLine
 10
28.16097951317493
 20
12.04771677024406
 30
0.0
 11
28.16097951317493
 21
0.0477005099128007
 31
0.0
  0
LINE
  5
303
330
1F
100
AcDbEntity
  8
0-2_本体（蓋）
  6
Continuous
 62
     4
370
     9
100
AcDbLine
 10
27.29100230591745
 20
12.04771677024406
 30
0.0
 11
27.29100230591745
 21
0.9177127122309301
 31
0.0
  0
LINE
  5
304
330
1F
100
AcDbEntity
  8
0-2_本体（蓋）
  6
Continuous
 62
     4
370
     9
100
AcDbLine
 10
35.1094587715907
 20
14.12201399401633
 30
0.0
 11
35.29101314613824
 21
12.04771677024406
 31
0.0
  0
LINE
  5
305
330
1F
100
AcDbEntity
  8
0-2_本体（蓋）
  6
Continuous
 62
     4
370
     9
100
AcDbLine
 10
27.46492775724771
 20
15.94770630707439
 30
0.0
 11
33.11711997981347
 21
15.94770630707439
 31
0.0
  0
LINE
  5
306
330
1F
100
AcDbEntity
  8
0-2_本体（蓋）
  6
Continuous
 62
     4
370
     9
100
AcDbLine
 10
25.29096460080165
 20
12.04771677024406
 30
0.0
 11
35.29101314613824
 21
12.04771677024406
 31
0.0
  0
LINE
  5
307
330
1F
100
AcDbEntity
  8
0-2_本体（蓋）
  6
Continuous
 62
     4
370
     9
100
AcDbLine
 10
25.4725189753492
 20
14.12201399401633
 30
0.0
 11
25.29096460080165
 21
12.04771677024406
 31
0.0
  0
LINE
  5
308
330
1F
100
AcDbEntity
  8
0-2_本体（蓋）
  6
JWW_CENTER1
 62
     4
370
     9
100
AcDbLine
 10
-96.70892075208054
 20
18.27984713756729
 30
0.0
 11
-96.70892075208054
 21
-2.003220013358771
 31
0.0
  0
LINE
  5
309
330
1F
100
AcDbEntity
  8
0-2_本体（蓋）
  6
Continuous
 62
     4
370
     9
100
AcDbLine
 10
-98.83886012225426
 20
0.047700509912822
 30
0.0
 11
-99.70883732951174
 21
0.9177127122309301
 31
0.0
  0
LINE
  5
30A
330
1F
100
AcDbEntity
  8
0-2_本体（蓋）
  6
Continuous
 62
     4
370
     9
100
AcDbLine
 10
-94.57884140166428
 20
0.047700509912822
 30
0.0
 11
-93.7088641944068
 21
0.9177127122309301
 31
0.0
  0
LINE
  5
30B
330
1F
100
AcDbEntity
  8
0-2_本体（蓋）
  6
Continuous
 62
     4
370
     9
100
AcDbLine
 10
-94.57884140166428
 20
0.047700509912822
 30
0.0
 11
-98.83886012225426
 21
0.047700509912822
 31
0.0
  0
LINE
  5
30C
330
1F
100
AcDbEntity
  8
0-2_本体（蓋）
  6
Continuous
 62
     4
370
     9
100
AcDbLine
 10
-93.7088641944068
 20
0.9177127122309301
 30
0.0
 11
-99.70883732951174
 21
0.9177127122309301
 31
0.0
  0
LINE
  5
30D
330
1F
100
AcDbEntity
  8
0-2_本体（蓋）
  6
Continuous
 62
     4
370
     9
100
AcDbLine
 10
-99.70883732951174
 20
12.04771677024406
 30
0.0
 11
-99.70883732951174
 21
0.9177127122309301
 31
0.0
  0
LINE
  5
30E
330
1F
100
AcDbEntity
  8
0-2_本体（蓋）
  6
Continuous
 62
     4
370
     9
100
AcDbLine
 10
-98.83886012225426
 20
12.04771677024406
 30
0.0
 11
-98.83886012225426
 21
0.047700509912822
 31
0.0
  0
LINE
  5
30F
330
1F
100
AcDbEntity
  8
0-2_本体（蓋）
  6
Continuous
 62
     4
370
     9
100
AcDbLine
 10
-94.57884140166428
 20
12.04771677024406
 30
0.0
 11
-94.57884140166428
 21
0.047700509912822
 31
0.0
  0
LINE
  5
310
330
1F
100
AcDbEntity
  8
0-2_本体（蓋）
  6
Continuous
 62
     4
370
     9
100
AcDbLine
 10
-93.7088641944068
 20
12.04771677024406
 30
0.0
 11
-93.7088641944068
 21
0.9177127122309301
 31
0.0
  0
LINE
  5
311
330
1F
100
AcDbEntity
  8
0-2_本体（蓋）
  6
Continuous
 62
     4
370
     9
100
AcDbLine
 10
-101.5273206600801
 20
14.12201399401635
 30
0.0
 11
-101.7088750346276
 21
12.04771677024406
 31
0.0
  0
LINE
  5
312
330
1F
100
AcDbEntity
  8
0-2_本体（蓋）
  6
Continuous
 62
     4
370
     9
100
AcDbLine
 10
-93.88278964573703
 20
15.94770630707439
 30
0.0
 11
-99.53498186830276
 21
15.94770630707439
 31
0.0
  0
LINE
  5
313
330
1F
100
AcDbEntity
  8
0-2_本体（蓋）
  6
Continuous
 62
     4
370
     9
100
AcDbLine
 10
-91.70882648929097
 20
12.04771677024406
 30
0.0
 11
-101.7088750346276
 21
12.04771677024406
 31
0.0
  0
LINE
  5
314
330
1F
100
AcDbEntity
  8
0-2_本体（蓋）
  6
Continuous
 62
     4
370
     9
100
AcDbLine
 10
-91.8903808638385
 20
14.12201399401635
 30
0.0
 11
-91.70882648929097
 21
12.04771677024406
 31
0.0
  0
ELLIPSE
  5
315
330
1F
100
AcDbEntity
  8
0-2_本体（蓋）
  6
JWW_PHANTOM1
 62
     4
370
     9
100
AcDbEllipse
 10
-84.07104952164948
 20
68.94167148545728
 30
0.0
 11
0.9800111368010643
 21
5.157699661592821
 31
0.0
210
0.0
220
0.0
230
1.0
 40
0.7428
 41
0.0
 42
1.475408288134874
  0
ELLIPSE
  5
316
330
1F
100
AcDbEntity
  8
0-2_本体（蓋）
  6
JWW_PHANTOM1
 62
     4
370
     9
100
AcDbEllipse
 10
-84.07104952164948
 20
68.94167148545728
 30
0.0
 11
0.9800111368010643
 21
5.157699661592821
 31
0.0
210
0.0
220
0.0
230
1.0
 40
0.7428
 41
1.666184365454919
 42
3.141592653589793
  0
ARC
  5
317
330
1F
100
AcDbEntity
  8
0-2_本体（蓋）
  6
Continuous
 62
     4
370
     9
100
AcDbCircle
 10
33.11711997981347
 20
13.94770359701918
 30
0.0
 40
1.999999976066088
100
AcDbArc
 50
5.000015258789066
 51
90.0
  0
ARC
  5
318
330
1F
100
AcDbEntity
  8
0-2_本体（蓋）
  6
Continuous
 62
     4
370
     9
100
AcDbCircle
 10
27.46492775724771
 20
13.94770359701918
 30
0.0
 40
1.999999976066088
100
AcDbArc
 50
90.0
 51
174.9999847412109
  0
ARC
  5
319
330
1F
100
AcDbEntity
  8
0-2_本体（蓋）
  6
Continuous
 62
     4
370
     9
100
AcDbCircle
 10
-99.53498186830276
 20
13.9477035970192
 30
0.0
 40
1.999999976066088
100
AcDbArc
 50
90.0
 51
174.9999847412109
  0
ARC
  5
31A
330
1F
100
AcDbEntity
  8
0-2_本体（蓋）
  6
Continuous
 62
     4
370
     9
100
AcDbCircle
 10
-93.88278964573703
 20
13.9477035970192
 30
0.0
 40
1.999999976066088
100
AcDbArc
 50
5.000015258789066
 51
90.0
  0
TEXT
  5
31B
330
1F
100
AcDbEntity
  8
F-4ﾚｲﾔ
  6
Continuous
 62
     6
370
     5
100
AcDbText
 10
-33.31847357543404
 20
-332.0746246803569
 30
0.0
 40
9.144
  1
鋳鉄製ルーフドレン　たて引き用　後付型　差し込み式
 41
0.7980000000000002
  7
ＭＳ ゴシック
100
AcDbText
  0
TEXT
  5
31C
330
1F
100
AcDbEntity
  8
F-4ﾚｲﾔ
  6
Continuous
 62
     6
370
     5
100
AcDbText
 10
-2.871604200538755
 20
-345.5746228245582
 30
0.0
 40
9.144
  1
アスファルト・シート防水用　　ＥＳＪ－３－６５
 41
0.7978260869565219
  7
ＭＳ ゴシック
100
AcDbText
  0
TEXT
  5
31D
330
1F
100
AcDbEntity
  8
0-5_文字
  6
Continuous
 62
     7
370
     9
100
AcDbText
 10
-280.0702683273071
 20
205.6361314101173
 30
0.0
 40
6.858000000000001
  1
丸小ねじ：Ｃ２７００Ｗ
 41
1.151515151515151
  7
ＭＳ ゴシック
100
AcDbText
  0
TEXT
  5
31E
330
1F
100
AcDbEntity
  8
0-5_文字
  6
Continuous
 62
     7
370
     9
100
AcDbText
 10
103.6588942794829
 20
155.4457139223363
 30
0.0
 40
6.858000000000001
  1
丸小ねじ：Ｃ２７００Ｗ
 41
1.151515151515151
  7
ＭＳ ゴシック
100
AcDbText
  0
LINE
  5
31F
330
1F
100
AcDbEntity
  8
0-5_文字
  6
Continuous
 62
     7
370
     9
100
AcDbLine
 10
102.6380506643544
 20
150.712138062578
 30
0.0
 11
217.6739323756672
 21
150.712138062578
 31
0.0
  0
TEXT
  5
320
330
1F
100
AcDbEntity
  8
0-5_文字
  6
Continuous
 62
     7
370
     9
100
AcDbText
 10
134.6559915200108
 20
141.2037290105826
 30
0.0
 40
6.858000000000001
  1
Ｍ６×１２
 41
1.133333333333333
  7
ＭＳ ゴシック
100
AcDbText
  0
LINE
  5
321
330
1F
100
AcDbEntity
  8
0-5_文字
  6
Continuous
 62
     7
370
     9
100
AcDbLine
 10
-164.6822156372405
 20
202.7820086233128
 30
0.0
 11
-280.3287476130925
 21
202.7820086233128
 31
0.0
  0
TEXT
  5
322
330
1F
100
AcDbEntity
  8
0-5_文字
  6
Continuous
 62
     7
370
     9
100
AcDbText
 10
-285.434325320512
 20
152.0591405516151
 30
0.0
 40
6.858000000000001
  1
注） ボルト：Ｃ３６０４Ｂ
 41
1.153333333333333
  7
ＭＳ ゴシック
100
AcDbText
  0
LINE
  5
323
330
1F
100
AcDbEntity
  8
0-5_文字
  6
Continuous
 62
     7
370
     9
100
AcDbLine
 10
-156.0450518618594
 20
148.4552911731582
 30
0.0
 11
-286.4589447713059
 21
148.4552911731582
 31
0.0
  0
TEXT
  5
324
330
1F
100
AcDbEntity
  8
0-5_文字
  6
Continuous
 62
     7
370
     9
100
AcDbText
 10
-248.0054816251665
 20
192.8467852051845
 30
0.0
 40
6.858000000000001
  1
Ｍ６×１２
 41
1.133333333333333
  7
ＭＳ ゴシック
100
AcDbText
  0
TEXT
  5
325
330
1F
100
AcDbEntity
  8
F-0ﾚｲﾔ
  6
Continuous
 62
     9
370
     5
100
AcDbText
 10
0.0
 20
-2998.731
 30
0.0
 40
6.858000000000001
  1
Printer_Orientation = 1
 41
0.0
  7
ＭＳ ゴシック
100
AcDbText
  0
TEXT
  5
326
330
1F
100
AcDbEntity
  8
F-0ﾚｲﾔ
  6
Continuous
 62
     9
370
     5
100
AcDbText
 10
0.0
 20
-2998.731
 30
0.0
 40
6.858000000000001
  1
Printer_PaperSize = 9
 41
0.0
  7
ＭＳ ゴシック
100
AcDbText
  0
TEXT
  5
327
330
1F
100
AcDbEntity
  8
F-0ﾚｲﾔ
  6
Continuous
 62
     9
370
     5
100
AcDbText
 10
0.0
 20
-2998.731
 30
0.0
 40
6.858000000000001
  1
Printer_D2dBMP = 0
 41
0.0
  7
ＭＳ ゴシック
100
AcDbText
  0
TEXT
  5
328
330
1F
100
AcDbEntity
  8
F-0ﾚｲﾔ
  6
Continuous
 62
     9
370
     5
100
AcDbText
 10
0.0
 20
-2998.731
 30
0.0
 40
6.858000000000001
  1
Printer_BmpZENTAI = 0
 41
0.0
  7
ＭＳ ゴシック
100
AcDbText
  0
TEXT
  5
329
330
1F
100
AcDbEntity
  8
F-0ﾚｲﾔ
  6
Continuous
 62
     9
370
     5
100
AcDbText
 10
0.0
 20
-2998.731
 30
0.0
 40
6.858000000000001
  1
View_Direct2d = 0
 41
0.0
  7
ＭＳ ゴシック
100
AcDbText
  0
TEXT
  5
32A
330
1F
100
AcDbEntity
  8
F-0ﾚｲﾔ
  6
Continuous
 62
     9
370
     5
100
AcDbText
 10
0.0
 20
-2998.731
 30
0.0
 40
6.858000000000001
  1
Draw_BmpTOUKA = 1
 41
0.0
  7
ＭＳ ゴシック
100
AcDbText
  0
ENDSEC
  0
SECTION
  2
OBJECTS
  0
DICTIONARY
  5
C
330
0
100
AcDbDictionary
281
     1
  3
ACAD_DETAILVIEWSTYLE
350
370
  3
ACAD_GROUP
350
D
  3
ACAD_LAYOUT
350
1A
  3
ACAD_MATERIAL
350
43
  3
ACAD_MLEADERSTYLE
350
6B
  3
ACAD_MLINESTYLE
350
17
  3
ACAD_PLOTSETTINGS
350
19
  3
ACAD_PLOTSTYLENAME
350
E
  3
ACAD_SCALELIST
350
47
  3
ACAD_SECTIONVIEWSTYLE
350
371
  3
ACAD_TABLESTYLE
350
69
  3
ACAD_VISUALSTYLE
350
2A
  3
ACDB_RECOMPOSE_DATA
350
36D
  3
AcDbVariableDictionary
350
32D
  0
DICTIONARY
  5
32B
330
8
100
AcDbDictionary
280
     1
281
     1
  3
ACAD_XREC_ROUNDTRIP
360
32C
  0
DICTIONARY
  5
370
102
{ACAD_REACTORS
330
C
102
}
330
C
100
AcDbDictionary
281
     1
  0
DICTIONARY
  5
D
102
{ACAD_REACTORS
330
C
102
}
330
C
100
AcDbDictionary
281
     1
  0
DICTIONARY
  5
1A
102
{ACAD_REACTORS
330
C
102
}
330
C
100
AcDbDictionary
281
     1
  3
Layout1
350
1E
  3
Layout2
350
26
  3
Model
350
22
  0
DICTIONARY
  5
43
102
{ACAD_REACTORS
330
C
102
}
330
C
100
AcDbDictionary
281
     1
  3
ByBlock
350
45
  3
ByLayer
350
44
  3
Global
350
46
  0
DICTIONARY
  5
6B
102
{ACAD_REACTORS
330
C
102
}
330
C
100
AcDbDictionary
281
     1
  3
Standard
350
6C
  0
DICTIONARY
  5
17
102
{ACAD_REACTORS
330
C
102
}
330
C
100
AcDbDictionary
281
     1
  3
Standard
350
18
  0
DICTIONARY
  5
19
102
{ACAD_REACTORS
330
C
102
}
330
C
100
AcDbDictionary
281
     1
  0
ACDBDICTIONARYWDFLT
  5
E
102
{ACAD_REACTORS
330
C
102
}
330
C
100
AcDbDictionary
281
     1
  3
Normal
350
F
100
AcDbDictionaryWithDefault
340
F
  0
DICTIONARY
  5
47
102
{ACAD_REACTORS
330
C
102
}
330
C
100
AcDbDictionary
281
     1
  3
A0
350
48
  3
A1
350
49
  3
A2
350
4A
  3
A3
350
4B
  3
A4
350
4C
  3
A5
350
4D
  3
A6
350
4E
  3
A7
350
4F
  3
A8
350
50
  3
A9
350
51
  3
B0
350
52
  3
B1
350
53
  3
B2
350
54
  3
B3
350
55
  3
B4
350
56
  3
B5
350
57
  3
B6
350
58
  3
B7
350
59
  3
B8
350
5A
  3
B9
350
5B
  3
C0
350
5C
  3
C1
350
5D
  3
C2
350
5E
  3
C3
350
5F
  3
C4
350
60
  3
C5
350
61
  3
C6
350
62
  3
C7
350
63
  3
C8
350
64
  3
C9
350
65
  3
D0
350
66
  3
D1
350
67
  3
D2
350
68
  0
DICTIONARY
  5
371
102
{ACAD_REACTORS
330
C
102
}
330
C
100
AcDbDictionary
281
     1
  0
DICTIONARY
  5
69
102
{ACAD_REACTORS
330
C
102
}
330
C
100
AcDbDictionary
281
     1
  3
Standard
350
6A
  0
DICTIONARY
  5
2A
102
{ACAD_REACTORS
330
C
102
}
330
C
100
AcDbDictionary
281
     1
  3
2dWireframe
350
2F
  3
Basic
350
32
  3
Brighten
350
36
  3
ColorChange
350
3A
  3
Conceptual
350
34
  3
Dim
350
35
  3
EdgeColorOff
350
3D
  3
Facepattern
350
39
  3
Flat
350
2B
  3
FlatWithEdges
350
2C
  3
Gouraud
350
2D
  3
GouraudWithEdges
350
2E
  3
Hidden
350
31
  3
JitterOff
350
3B
  3
Linepattern
350
38
  3
OverhangOff
350
3C
  3
Realistic
350
33
  3
Shaded
350
42
  3
Shaded with edges
350
41
  3
Shades of Gray
350
3E
  3
Sketchy
350
3F
  3
Thicken
350
37
  3
Wireframe
350
30
  3
X-Ray
350
40
  0
XRECORD
  5
36D
102
{ACAD_REACTORS
330
C
102
}
330
C
100
AcDbXrecord
280
     1
 90
        1
330
6A
  0
DICTIONARY
  5
32D
102
{ACAD_REACTORS
330
C
102
}
330
C
100
AcDbDictionary
281
     1
  3
CANNOSCALE
350
32E
  3
CENTEREXE
350
372
  3
CENTERLTYPEFILE
350
373
  3
CMLEADERSTYLE
350
36F
  3
CTABLESTYLE
350
36E
  3
MSLTSCALE
350
32F
  3
XCLIPFRAME
350
330
  0
XRECORD
  5
32C
102
{ACAD_REACTORS
330
32B
102
}
330
32B
100
AcDbXrecord
280
     1
102
VTR_0.000_0.000_1.000_1.000_VISUALSTYLE
340
2F
102
VTR_0.000_0.000_1.000_1.000_GRIDDISPLAY
 70
     3
102
VTR_0.000_0.000_1.000_1.000_GRIDMAJOR
 70
     5
102
VTR_0.000_0.000_1.000_1.000_DEFAULTLIGHTING
280
     1
102
VTR_0.000_0.000_1.000_1.000_DEFAULTLIGHTINGTYPE
 70
     1
102
VTR_0.000_0.000_1.000_1.000_BRIGHTNESS
141
0.0
102
VTR_0.000_0.000_1.000_1.000_CONTRAST
142
0.0
  0
LAYOUT
  5
1E
102
{ACAD_REACTORS
330
1A
102
}
330
1A
100
AcDbPlotSettings
  1

  2
none_device
  4

  6

 40
0.0
 41
0.0
 42
0.0
 43
0.0
 44
0.0
 45
0.0
 46
0.0
 47
0.0
 48
0.0
 49
0.0
140
0.0
141
0.0
142
1.0
143
1.0
 70
   688
 72
     1
 73
     0
 74
     5
  7

 75
    16
 76
     0
 77
     5
 78
   300
147
1.0
148
0.0
149
0.0
100
AcDbLayout
  1
Layout1
 70
     1
 71
     1
 10
0.0
 20
0.0
 11
420.0
 21
297.0
 12
0.0
 22
0.0
 32
0.0
 14
1.000000000000000E+20
 24
1.000000000000000E+20
 34
1.000000000000000E+20
 15
-1.000000000000000E+20
 25
-1.000000000000000E+20
 35
-1.000000000000000E+20
146
0.0
 13
0.0
 23
0.0
 33
0.0
 16
1.0
 26
0.0
 36
0.0
 17
0.0
 27
1.0
 37
0.0
 76
     0
330
1B
  0
LAYOUT
  5
26
102
{ACAD_REACTORS
330
1A
102
}
330
1A
100
AcDbPlotSettings
  1

  2
none_device
  4

  6

 40
0.0
 41
0.0
 42
0.0
 43
0.0
 44
0.0
 45
0.0
 46
0.0
 47
0.0
 48
0.0
 49
0.0
140
0.0
141
0.0
142
1.0
143
1.0
 70
   688
 72
     1
 73
     0
 74
     5
  7

 75
    16
 76
     0
 77
     5
 78
   300
147
1.0
148
0.0
149
0.0
100
AcDbLayout
  1
Layout2
 70
     1
 71
     2
 10
0.0
 20
0.0
 11
0.0
 21
0.0
 12
0.0
 22
0.0
 32
0.0
 14
0.0
 24
0.0
 34
0.0
 15
0.0
 25
0.0
 35
0.0
146
0.0
 13
0.0
 23
0.0
 33
0.0
 16
1.0
 26
0.0
 36
0.0
 17
0.0
 27
1.0
 37
0.0
 76
     0
330
23
  0
LAYOUT
  5
22
102
{ACAD_REACTORS
330
1A
102
}
330
1A
100
AcDbPlotSettings
  1

  2
none_device
  4
Letter_(8.50_x_11.00_Inches)
  6

 40
6.35
 41
6.35
 42
6.35000508
 43
6.35000508
 44
215.9
 45
279.4
 46
0.0
 47
0.0
 48
0.0
 49
0.0
140
0.0
141
0.0
142
1.0
143
1.0
 70
  1712
 72
     1
 73
     0
 74
     0
  7

 75
     0
 76
     0
 77
     5
 78
   300
147
1.0
148
0.0
149
0.0
100
AcDbLayout
  1
Model
 70
     1
 71
     0
 10
-630.0
 20
-445.5
 11
630.0
 21
445.5
 12
0.0
 22
0.0
 32
0.0
 14
-630.0
 24
-445.5
 34
0.0
 15
630.0
 25
445.5
 35
0.0
146
0.0
 13
0.0
 23
0.0
 33
0.0
 16
1.0
 26
0.0
 36
0.0
 17
0.0
 27
1.0
 37
0.0
 76
     0
330
1F
331
29
  0
MATERIAL
  5
45
102
{ACAD_REACTORS
330
43
102
}
102
{ACAD_XDICTIONARY
360
363
102
}
330
43
100
AcDbMaterial
  1
ByBlock
  0
MATERIAL
  5
44
102
{ACAD_REACTORS
330
43
102
}
102
{ACAD_XDICTIONARY
360
361
102
}
330
43
100
AcDbMaterial
  1
ByLayer
  0
MATERIAL
  5
46
102
{ACAD_REACTORS
330
43
102
}
102
{ACAD_XDICTIONARY
360
365
102
}
330
43
100
AcDbMaterial
  1
Global
  0
MLEADERSTYLE
  5
6C
102
{ACAD_REACTORS
330
6B
102
}
102
{ACAD_XDICTIONARY
360
36B
102
}
330
6B
100
AcDbMLeaderStyle
170
     2
171
     1
172
     0
 90
        2
 40
0.0
 41
0.0
173
     1
 91
-1056964608
340
14
 92
       -2
290
     1
 42
2.0
291
     1
 43
8.0
  3
Standard
341
0
 44
4.0
300

342
11
174
     1
178
     6
175
     1
176
     0
 93
-1056964608
 45
4.0
292
     0
297
     0
 46
4.0
343
0
 94
-1056964608
 47
1.0
 49
1.0
140
1.0
293
     1
141
0.0
294
     1
177
     0
142
1.0
295
     0
296
     0
143
3.75
1001
ACAD_MLEADERVER
1070
     2
  0
MLINESTYLE
  5
18
102
{ACAD_REACTORS
330
17
102
}
330
17
100
AcDbMlineStyle
  2
Standard
 70
     0
  3

 62
   256
 51
90.0
 52
90.0
 71
     2
 49
0.5
 62
   256
  6
BYLAYER
 49
-0.5
 62
   256
  6
BYLAYER
  0
ACDBPLACEHOLDER
  5
F
102
{ACAD_REACTORS
330
E
102
}
330
E
  0
SCALE
  5
48
102
{ACAD_REACTORS
330
47
102
}
330
47
100
AcDbScale
 70
     0
300
1:1
140
1.0
141
1.0
290
     1
  0
SCALE
  5
49
102
{ACAD_REACTORS
330
47
102
}
330
47
100
AcDbScale
 70
     0
300
1:2
140
1.0
141
2.0
290
     0
  0
SCALE
  5
4A
102
{ACAD_REACTORS
330
47
102
}
330
47
100
AcDbScale
 70
     0
300
1:4
140
1.0
141
4.0
290
     0
  0
SCALE
  5
4B
102
{ACAD_REACTORS
330
47
102
}
330
47
100
AcDbScale
 70
     0
300
1:5
140
1.0
141
5.0
290
     0
  0
SCALE
  5
4C
102
{ACAD_REACTORS
330
47
102
}
330
47
100
AcDbScale
 70
     0
300
1:8
140
1.0
141
8.0
290
     0
  0
SCALE
  5
4D
102
{ACAD_REACTORS
330
47
102
}
330
47
100
AcDbScale
 70
     0
300
1:10
140
1.0
141
10.0
290
     0
  0
SCALE
  5
4E
102
{ACAD_REACTORS
330
47
102
}
330
47
100
AcDbScale
 70
     0
300
1:16
140
1.0
141
16.0
290
     0
  0
SCALE
  5
4F
102
{ACAD_REACTORS
330
47
102
}
330
47
100
AcDbScale
 70
     0
300
1:20
140
1.0
141
20.0
290
     0
  0
SCALE
  5
50
102
{ACAD_REACTORS
330
47
102
}
330
47
100
AcDbScale
 70
     0
300
1:30
140
1.0
141
30.0
290
     0
  0
SCALE
  5
51
102
{ACAD_REACTORS
330
47
102
}
330
47
100
AcDbScale
 70
     0
300
1:40
140
1.0
141
40.0
290
     0
  0
SCALE
  5
52
102
{ACAD_REACTORS
330
47
102
}
330
47
100
AcDbScale
 70
     0
300
1:50
140
1.0
141
50.0
290
     0
  0
SCALE
  5
53
102
{ACAD_REACTORS
330
47
102
}
330
47
100
AcDbScale
 70
     0
300
1:100
140
1.0
141
100.0
290
     0
  0
SCALE
  5
54
102
{ACAD_REACTORS
330
47
102
}
330
47
100
AcDbScale
 70
     0
300
2:1
140
2.0
141
1.0
290
     0
  0
SCALE
  5
55
102
{ACAD_REACTORS
330
47
102
}
330
47
100
AcDbScale
 70
     0
300
4:1
140
4.0
141
1.0
290
     0
  0
SCALE
  5
56
102
{ACAD_REACTORS
330
47
102
}
330
47
100
AcDbScale
 70
     0
300
8:1
140
8.0
141
1.0
290
     0
  0
SCALE
  5
57
102
{ACAD_REACTORS
330
47
102
}
330
47
100
AcDbScale
 70
     0
300
10:1
140
10.0
141
1.0
290
     0
  0
SCALE
  5
58
102
{ACAD_REACTORS
330
47
102
}
330
47
100
AcDbScale
 70
     0
300
100:1
140
100.0
141
1.0
290
     0
  0
SCALE
  5
59
102
{ACAD_REACTORS
330
47
102
}
330
47
100
AcDbScale
 70
     0
300
1/128" = 1'-0"
140
0.0078125
141
12.0
290
     0
  0
SCALE
  5
5A
102
{ACAD_REACTORS
330
47
102
}
330
47
100
AcDbScale
 70
     0
300
1/64" = 1'-0"
140
0.015625
141
12.0
290
     0
  0
SCALE
  5
5B
102
{ACAD_REACTORS
330
47
102
}
330
47
100
AcDbScale
 70
     0
300
1/32" = 1'-0"
140
0.03125
141
12.0
290
     0
  0
SCALE
  5
5C
102
{ACAD_REACTORS
330
47
102
}
330
47
100
AcDbScale
 70
     0
300
1/16" = 1'-0"
140
0.0625
141
12.0
290
     0
  0
SCALE
  5
5D
102
{ACAD_REACTORS
330
47
102
}
330
47
100
AcDbScale
 70
     0
300
3/32" = 1'-0"
140
0.09375
141
12.0
290
     0
  0
SCALE
  5
5E
102
{ACAD_REACTORS
330
47
102
}
330
47
100
AcDbScale
 70
     0
300
1/8" = 1'-0"
140
0.125
141
12.0
290
     0
  0
SCALE
  5
5F
102
{ACAD_REACTORS
330
47
102
}
330
47
100
AcDbScale
 70
     0
300
3/16" = 1'-0"
140
0.1875
141
12.0
290
     0
  0
SCALE
  5
60
102
{ACAD_REACTORS
330
47
102
}
330
47
100
AcDbScale
 70
     0
300
1/4" = 1'-0"
140
0.25
141
12.0
290
     0
  0
SCALE
  5
61
102
{ACAD_REACTORS
330
47
102
}
330
47
100
AcDbScale
 70
     0
300
3/8" = 1'-0"
140
0.375
141
12.0
290
     0
  0
SCALE
  5
62
102
{ACAD_REACTORS
330
47
102
}
330
47
100
AcDbScale
 70
     0
300
1/2" = 1'-0"
140
0.5
141
12.0
290
     0
  0
SCALE
  5
63
102
{ACAD_REACTORS
330
47
102
}
330
47
100
AcDbScale
 70
     0
300
3/4" = 1'-0"
140
0.75
141
12.0
290
     0
  0
SCALE
  5
64
102
{ACAD_REACTORS
330
47
102
}
330
47
100
AcDbScale
 70
     0
300
1" = 1'-0"
140
1.0
141
12.0
290
     0
  0
SCALE
  5
65
102
{ACAD_REACTORS
330
47
102
}
330
47
100
AcDbScale
 70
     0
300
1-1/2" = 1'-0"
140
1.5
141
12.0
290
     0
  0
SCALE
  5
66
102
{ACAD_REACTORS
330
47
102
}
330
47
100
AcDbScale
 70
     0
300
3" = 1'-0"
140
3.0
141
12.0
290
     0
  0
SCALE
  5
67
102
{ACAD_REACTORS
330
47
102
}
330
47
100
AcDbScale
 70
     0
300
6" = 1'-0"
140
6.0
141
12.0
290
     0
  0
SCALE
  5
68
102
{ACAD_REACTORS
330
47
102
}
330
47
100
AcDbScale
 70
     0
300
1'-0" = 1'-0"
140
12.0
141
12.0
290
     0
  0
TABLESTYLE
  5
6A
102
{ACAD_REACTORS
330
69
102
}
102
{ACAD_XDICTIONARY
360
367
102
}
330
69
100
AcDbTableStyle
  3
Standard
 70
     0
 71
     0
 40
0.06
 41
0.06
280
     0
281
     0
  7
Standard
140
4.5
170
     2
 62
     0
 63
   257
283
     0
274
    -2
284
     1
 64
     0
275
    -2
285
     1
 65
     0
276
    -2
286
     1
 66
     0
277
    -2
287
     1
 67
     0
278
    -2
288
     1
 68
     0
279
    -2
289
     1
 69
     0
  7
Standard
140
6.0
170
     5
 62
     0
 63
   257
283
     0
274
    -2
284
     1
 64
     0
275
    -2
285
     1
 65
     0
276
    -2
286
     1
 66
     0
277
    -2
287
     1
 67
     0
278
    -2
288
     1
 68
     0
279
    -2
289
     1
 69
     0
  7
Standard
140
4.5
170
     5
 62
     0
 63
   257
283
     0
274
    -2
284
     1
 64
     0
275
    -2
285
     1
 65
     0
276
    -2
286
     1
 66
     0
277
    -2
287
     1
 67
     0
278
    -2
288
     1
 68
     0
279
    -2
289
     1
 69
     0
  0
VISUALSTYLE
  5
2F
102
{ACAD_REACTORS
330
2A
102
}
102
{ACAD_XDICTIONARY
360
339
102
}
330
2A
100
AcDbVisualStyle
  2
2dWireframe
 70
     4
 71
     0
 72
     2
 73
     0
 90
        0
 40
0.6
 41
30.0
 62
     5
 63
     7
421
 16777215
 74
     1
 91
        4
 64
     7
 65
   257
 75
     1
175
     1
 42
1.0
 92
        0
 66
   257
 43
1.0
 76
     1
 77
     6
 78
     2
 67
     7
 79
     5
170
     0
171
     0
290
     0
174
     0
 93
        1
 44
0.0
173
     0
291
     0
 45
0.0
1001
ACAD
1000
AcDbSavedByObjectVersion
1070
     0
  0
VISUALSTYLE
  5
32
102
{ACAD_REACTORS
330
2A
102
}
102
{ACAD_XDICTIONARY
360
33F
102
}
330
2A
100
AcDbVisualStyle
  2
Basic
 70
     7
 71
     1
 72
     0
 73
     1
 90
        0
 40
0.6
 41
30.0
 62
     5
 63
     7
421
 16777215
 74
     0
 91
        4
 64
     7
 65
   257
 75
     1
175
     1
 42
1.0
 92
        8
 66
     7
 43
1.0
 76
     1
 77
     6
 78
     2
 67
     7
 79
     5
170
     0
171
     0
290
     0
174
     0
 93
        1
 44
0.0
173
     0
291
     1
 45
0.0
1001
ACAD
1000
AcDbSavedByObjectVersion
1070
     0
  0
VISUALSTYLE
  5
36
102
{ACAD_REACTORS
330
2A
102
}
102
{ACAD_XDICTIONARY
360
347
102
}
330
2A
100
AcDbVisualStyle
  2
Brighten
 70
    12
 71
     2
 72
     2
 73
     0
 90
        0
 40
0.6
 41
30.0
 62
     5
 63
     7
421
 16777215
 74
     1
 91
        4
 64
     7
 65
   257
 75
     1
175
     1
 42
1.0
 92
        8
 66
     7
 43
1.0
 76
     1
 77
     6
 78
     2
 67
     7
 79
     5
170
     0
171
     0
290
     0
174
     0
 93
        1
 44
50.0
173
     0
291
     1
 45
0.0
1001
ACAD
1000
AcDbSavedByObjectVersion
1070
     0
  0
VISUALSTYLE
  5
3A
102
{ACAD_REACTORS
330
2A
102
}
102
{ACAD_XDICTIONARY
360
34F
102
}
330
2A
100
AcDbVisualStyle
  2
ColorChange
 70
    16
 71
     2
 72
     2
 73
     3
 90
        0
 40
0.6
 41
30.0
 62
     5
 63
     8
421
  8421504
 74
     1
 91
        4
 64
     7
 65
   257
 75
     1
175
     1
 42
1.0
 92
        8
 66
     8
424
  8421504
 43
1.0
 76
     1
 77
     6
 78
     2
 67
     7
 79
     5
170
     0
171
     0
290
     0
174
     0
 93
        1
 44
0.0
173
     0
291
     1
 45
0.0
1001
ACAD
1000
AcDbSavedByObjectVersion
1070
     0
  0
VISUALSTYLE
  5
34
102
{ACAD_REACTORS
330
2A
102
}
102
{ACAD_XDICTIONARY
360
343
102
}
330
2A
100
AcDbVisualStyle
  2
Conceptual
 70
     9
 71
     3
 72
     2
 73
     0
 90
        0
 40
0.6
 41
30.0
 62
     5
 63
     7
421
 16777215
 74
     2
 91
        2
 64
     7
 65
   257
 75
     1
175
     1
 42
179.0
 92
        8
 66
     7
 43
1.0
 76
     1
 77
     6
 78
     2
 67
     7
 79
     3
170
     0
171
     0
290
     0
174
     0
 93
        1
 44
0.0
173
     0
291
     0
 45
0.0
1001
ACAD
1000
AcDbSavedByObjectVersion
1070
     0
  0
VISUALSTYLE
  5
35
102
{ACAD_REACTORS
330
2A
102
}
102
{ACAD_XDICTIONARY
360
345
102
}
330
2A
100
AcDbVisualStyle
  2
Dim
 70
    11
 71
     2
 72
     2
 73
     0
 90
        0
 40
0.6
 41
30.0
 62
     5
 63
     7
421
 16777215
 74
     1
 91
        4
 64
     7
 65
   257
 75
     1
175
     1
 42
1.0
 92
        8
 66
     7
 43
1.0
 76
     1
 77
     6
 78
     2
 67
     7
 79
     5
170
     0
171
     0
290
     0
174
     0
 93
        1
 44
-50.0
173
     0
291
     1
 45
0.0
1001
ACAD
1000
AcDbSavedByObjectVersion
1070
     0
  0
VISUALSTYLE
  5
3D
102
{ACAD_REACTORS
330
2A
102
}
102
{ACAD_XDICTIONARY
360
355
102
}
330
2A
100
AcDbVisualStyle
  2
EdgeColorOff
 70
    22
 71
     2
 72
     2
 73
     0
 90
        0
 40
0.6
 41
30.0
 62
     5
 63
     7
421
 16777215
 74
     1
 91
        4
 64
     7
 65
   257
 75
     1
175
     1
 42
1.0
 92
        8
 66
     7
 43
1.0
 76
     1
 77
     6
 78
     2
 67
     7
 79
     5
170
     0
171
     0
290
     0
174
     0
 93
        1
 44
0.0
173
     0
291
     1
 45
0.0
1001
ACAD
1000
AcDbSavedByObjectVersion
1070
     0
  0
VISUALSTYLE
  5
39
102
{ACAD_REACTORS
330
2A
102
}
102
{ACAD_XDICTIONARY
360
34D
102
}
330
2A
100
AcDbVisualStyle
  2
Facepattern
 70
    15
 71
     2
 72
     2
 73
     0
 90
        0
 40
0.6
 41
30.0
 62
     5
 63
     7
421
 16777215
 74
     1
 91
        4
 64
     7
 65
   257
 75
     1
175
     1
 42
1.0
 92
        8
 66
     7
 43
1.0
 76
     1
 77
     6
 78
     2
 67
     7
 79
     5
170
     0
171
     0
290
     0
174
     0
 93
        1
 44
0.0
173
     0
291
     1
 45
0.0
1001
ACAD
1000
AcDbSavedByObjectVersion
1070
     0
  0
VISUALSTYLE
  5
2B
102
{ACAD_REACTORS
330
2A
102
}
102
{ACAD_XDICTIONARY
360
331
102
}
330
2A
100
AcDbVisualStyle
  2
Flat
 70
     0
 71
     2
 72
     1
 73
     1
 90
        2
 40
0.6
 41
30.0
 62
     5
 63
     7
421
 16777215
 74
     0
 91
        0
 64
     7
 65
   257
 75
     1
175
     1
 42
1.0
 92
        8
 66
     7
 43
1.0
 76
     1
 77
     6
 78
     2
 67
     7
 79
     5
170
     0
171
     0
290
     0
174
     0
 93
       13
 44
0.0
173
     0
291
     1
 45
0.0
1001
ACAD
1000
AcDbSavedByObjectVersion
1070
     0
  0
VISUALSTYLE
  5
2C
102
{ACAD_REACTORS
330
2A
102
}
102
{ACAD_XDICTIONARY
360
333
102
}
330
2A
100
AcDbVisualStyle
  2
FlatWithEdges
 70
     1
 71
     2
 72
     1
 73
     1
 90
        2
 40
0.6
 41
30.0
 62
     5
 63
     7
421
 16777215
 74
     1
 91
        0
 64
     7
 65
   257
 75
     1
175
     1
 42
1.0
 92
        0
 66
   257
 43
1.0
 76
     1
 77
     6
 78
     2
 67
     7
 79
     5
170
     0
171
     0
290
     0
174
     0
 93
       13
 44
0.0
173
     0
291
     1
 45
0.0
1001
ACAD
1000
AcDbSavedByObjectVersion
1070
     0
  0
VISUALSTYLE
  5
2D
102
{ACAD_REACTORS
330
2A
102
}
102
{ACAD_XDICTIONARY
360
335
102
}
330
2A
100
AcDbVisualStyle
  2
Gouraud
 70
     2
 71
     2
 72
     2
 73
     1
 90
        2
 40
0.6
 41
30.0
 62
     5
 63
     7
421
 16777215
 74
     0
 91
        0
 64
     7
 65
   257
 75
     1
175
     1
 42
1.0
 92
        0
 66
     7
 43
1.0
 76
     1
 77
     6
 78
     2
 67
     7
 79
     5
170
     0
171
     0
290
     0
174
     0
 93
       13
 44
0.0
173
     0
291
     1
 45
0.0
1001
ACAD
1000
AcDbSavedByObjectVersion
1070
     0
  0
VISUALSTYLE
  5
2E
102
{ACAD_REACTORS
330
2A
102
}
102
{ACAD_XDICTIONARY
360
337
102
}
330
2A
100
AcDbVisualStyle
  2
GouraudWithEdges
 70
     3
 71
     2
 72
     2
 73
     1
 90
        2
 40
0.6
 41
30.0
 62
     5
 63
     7
421
 16777215
 74
     1
 91
        0
 64
     7
 65
   257
 75
     1
175
     1
 42
1.0
 92
        0
 66
   257
 43
1.0
 76
     1
 77
     6
 78
     2
 67
     7
 79
     5
170
     0
171
     0
290
     0
174
     0
 93
       13
 44
0.0
173
     0
291
     1
 45
0.0
1001
ACAD
1000
AcDbSavedByObjectVersion
1070
     0
  0
VISUALSTYLE
  5
31
102
{ACAD_REACTORS
330
2A
102
}
102
{ACAD_XDICTIONARY
360
33D
102
}
330
2A
100
AcDbVisualStyle
  2
Hidden
 70
     6
 71
     1
 72
     2
 73
     2
 90
        0
 40
0.6
 41
30.0
 62
     5
 63
     7
421
 16777215
 74
     2
 91
        2
 64
     7
 65
   257
 75
     2
175
     1
 42
40.0
 92
        0
 66
   257
 43
1.0
 76
     1
 77
     6
 78
     2
 67
     7
 79
     3
170
     0
171
     0
290
     0
174
     0
 93
        1
 44
0.0
173
     0
291
     0
 45
0.0
1001
ACAD
1000
AcDbSavedByObjectVersion
1070
     0
  0
VISUALSTYLE
  5
3B
102
{ACAD_REACTORS
330
2A
102
}
102
{ACAD_XDICTIONARY
360
351
102
}
330
2A
100
AcDbVisualStyle
  2
JitterOff
 70
    20
 71
     2
 72
     2
 73
     0
 90
        0
 40
0.6
 41
30.0
 62
     5
 63
     7
421
 16777215
 74
     1
 91
        4
 64
     7
 65
   257
 75
     1
175
     1
 42
1.0
 92
       10
 66
     7
 43
1.0
 76
     1
 77
     6
 78
     2
 67
     7
 79
     5
170
     0
171
     0
290
     0
174
     0
 93
        1
 44
0.0
173
     0
291
     1
 45
0.0
1001
ACAD
1000
AcDbSavedByObjectVersion
1070
     0
  0
VISUALSTYLE
  5
38
102
{ACAD_REACTORS
330
2A
102
}
102
{ACAD_XDICTIONARY
360
34B
102
}
330
2A
100
AcDbVisualStyle
  2
Linepattern
 70
    14
 71
     2
 72
     2
 73
     0
 90
        0
 40
0.6
 41
30.0
 62
     5
 63
     7
421
 16777215
 74
     1
 91
        4
 64
     7
 65
   257
 75
     7
175
     7
 42
1.0
 92
        8
 66
     7
 43
1.0
 76
     1
 77
     6
 78
     2
 67
     7
 79
     5
170
     0
171
     0
290
     0
174
     0
 93
        1
 44
0.0
173
     0
291
     1
 45
0.0
1001
ACAD
1000
AcDbSavedByObjectVersion
1070
     0
  0
VISUALSTYLE
  5
3C
102
{ACAD_REACTORS
330
2A
102
}
102
{ACAD_XDICTIONARY
360
353
102
}
330
2A
100
AcDbVisualStyle
  2
OverhangOff
 70
    21
 71
     2
 72
     2
 73
     0
 90
        0
 40
0.6
 41
30.0
 62
     5
 63
     7
421
 16777215
 74
     1
 91
        4
 64
     7
 65
   257
 75
     1
175
     1
 42
1.0
 92
        9
 66
     7
 43
1.0
 76
     1
 77
     6
 78
     2
 67
     7
 79
     5
170
     0
171
     0
290
     0
174
     0
 93
        1
 44
0.0
173
     0
291
     1
 45
0.0
1001
ACAD
1000
AcDbSavedByObjectVersion
1070
     0
  0
VISUALSTYLE
  5
33
102
{ACAD_REACTORS
330
2A
102
}
102
{ACAD_XDICTIONARY
360
341
102
}
330
2A
100
AcDbVisualStyle
  2
Realistic
 70
     8
 71
     2
 72
     3
 73
     0
 90
        2
 40
0.6
 41
30.0
 62
     5
 63
     7
421
 16777215
 74
     0
 91
        0
 64
     7
 65
   257
 75
     1
175
     1
 42
1.0
 92
        8
 66
   257
 43
1.0
 76
     1
 77
     6
 78
     2
 67
     7
 79
     3
170
     0
171
     0
290
     0
174
     0
 93
       13
 44
0.0
173
     0
291
     0
 45
0.0
1001
ACAD
1000
AcDbSavedByObjectVersion
1070
     0
  0
VISUALSTYLE
  5
42
102
{ACAD_REACTORS
330
2A
102
}
102
{ACAD_XDICTIONARY
360
35F
102
}
330
2A
100
AcDbVisualStyle
  2
Shaded
 70
    27
 71
     2
 72
     2
 73
     1
 90
        2
 40
0.6
 41
30.0
 62
     5
 63
     7
421
 16777215
 74
     0
 91
        4
 64
     7
 65
   257
 75
     1
175
     1
 42
1.0
 92
        8
 66
   257
 43
1.0
 76
     1
 77
     6
 78
     2
 67
     8
425
  7895160
 79
     3
170
     0
171
     0
290
     0
174
     0
 93
        5
 44
0.0
173
     0
291
     0
 45
0.0
1001
ACAD
1000
AcDbSavedByObjectVersion
1070
     0
  0
VISUALSTYLE
  5
41
102
{ACAD_REACTORS
330
2A
102
}
102
{ACAD_XDICTIONARY
360
35D
102
}
330
2A
100
AcDbVisualStyle
  2
Shaded with edges
 70
    26
 71
     2
 72
     2
 73
     1
 90
        2
 40
0.6
 41
30.0
 62
     5
 63
     7
421
 16777215
 74
     1
 91
       10
 64
     7
 65
   257
 75
     2
175
     1
 42
1.0
 92
        8
 66
   257
 43
1.0
 76
     1
 77
     6
 78
     2
 67
     7
 79
     3
170
     0
171
     0
290
     0
174
     0
 93
        5
 44
0.0
173
     0
291
     0
 45
0.0
1001
ACAD
1000
AcDbSavedByObjectVersion
1070
     0
  0
VISUALSTYLE
  5
3E
102
{ACAD_REACTORS
330
2A
102
}
102
{ACAD_XDICTIONARY
360
357
102
}
330
2A
100
AcDbVisualStyle
  2
Shades of Gray
 70
    23
 71
     2
 72
     2
 73
     3
 90
        0
 40
0.6
 41
30.0
 62
     5
 63
     7
421
 16777215
 74
     2
 91
        2
 64
     7
 65
     7
 75
     1
175
     1
 42
40.0
 92
        8
 66
     7
 43
1.0
 76
     1
 77
     6
 78
     2
 67
     7
 79
     3
170
     0
171
     0
290
     0
174
     0
 93
        1
 44
0.0
173
     0
291
     0
 45
0.0
1001
ACAD
1000
AcDbSavedByObjectVersion
1070
     0
  0
VISUALSTYLE
  5
3F
102
{ACAD_REACTORS
330
2A
102
}
102
{ACAD_XDICTIONARY
360
359
102
}
330
2A
100
AcDbVisualStyle
  2
Sketchy
 70
    24
 71
     1
 72
     2
 73
     2
 90
        0
 40
0.6
 41
30.0
 62
     5
 63
     7
421
 16777215
 74
     2
 91
        2
 64
     7
 65
     7
 75
     1
175
     1
 42
40.0
 92
       11
 66
     7
 43
1.0
 76
     1
 77
     6
 78
     2
 67
     7
 79
     6
170
     0
171
     0
290
     0
174
     0
 93
        1
 44
0.0
173
     0
291
     0
 45
0.0
1001
ACAD
1000
AcDbSavedByObjectVersion
1070
     0
  0
VISUALSTYLE
  5
37
102
{ACAD_REACTORS
330
2A
102
}
102
{ACAD_XDICTIONARY
360
349
102
}
330
2A
100
AcDbVisualStyle
  2
Thicken
 70
    13
 71
     2
 72
     2
 73
     0
 90
        0
 40
0.6
 41
30.0
 62
     5
 63
     7
421
 16777215
 74
     1
 91
        4
 64
     7
 65
   257
 75
     1
175
     1
 42
1.0
 92
       12
 66
     7
 43
1.0
 76
     1
 77
     6
 78
     2
 67
     7
 79
     5
170
     0
171
     0
290
     0
174
     0
 93
        1
 44
0.0
173
     0
291
     1
 45
0.0
1001
ACAD
1000
AcDbSavedByObjectVersion
1070
     0
  0
VISUALSTYLE
  5
30
102
{ACAD_REACTORS
330
2A
102
}
102
{ACAD_XDICTIONARY
360
33B
102
}
330
2A
100
AcDbVisualStyle
  2
Wireframe
 70
     5
 71
     0
 72
     2
 73
     0
 90
        0
 40
0.6
 41
30.0
 62
     5
 63
     7
421
 16777215
 74
     1
 91
        4
 64
     7
 65
   257
 75
     1
175
     1
 42
1.0
 92
        0
 66
   257
 43
1.0
 76
     1
 77
     6
 78
     2
 67
     7
 79
     3
170
     0
171
     0
290
     0
174
     0
 93
        1
 44
0.0
173
     0
291
     0
 45
0.0
1001
ACAD
1000
AcDbSavedByObjectVersion
1070
     0
  0
VISUALSTYLE
  5
40
102
{ACAD_REACTORS
330
2A
102
}
102
{ACAD_XDICTIONARY
360
35B
102
}
330
2A
100
AcDbVisualStyle
  2
X-Ray
 70
    25
 71
     2
 72
     2
 73
     1
 90
        1
 40
0.5
 41
30.0
 62
     5
 63
     7
421
 16777215
 74
     1
 91
        0
 64
     7
 65
   257
 75
     1
175
     1
 42
1.0
 92
        8
 66
     7
 43
1.0
 76
     1
 77
     6
 78
     2
 67
     7
 79
     3
170
     0
171
     0
290
     0
174
     0
 93
       13
 44
0.0
173
     0
291
     0
 45
0.0
1001
ACAD
1000
AcDbSavedByObjectVersion
1070
     0
  0
DICTIONARYVAR
  5
32E
102
{ACAD_REACTORS
330
32D
102
}
330
32D
100
DictionaryVariables
280
     0
  1
1:1
  0
DICTIONARYVAR
  5
372
102
{ACAD_REACTORS
330
32D
102
}
330
32D
100
DictionaryVariables
280
     0
  1
3.500000
  0
DICTIONARYVAR
  5
373
102
{ACAD_REACTORS
330
32D
102
}
330
32D
100
DictionaryVariables
280
     0
  1
acadiso.lin
  0
DICTIONARYVAR
  5
36F
102
{ACAD_REACTORS
330
32D
102
}
330
32D
100
DictionaryVariables
280
     0
  1
Standard
  0
DICTIONARYVAR
  5
36E
102
{ACAD_REACTORS
330
32D
102
}
330
32D
100
DictionaryVariables
280
     0
  1
Standard
  0
DICTIONARYVAR
  5
32F
102
{ACAD_REACTORS
330
32D
102
}
330
32D
100
DictionaryVariables
280
     0
  1
1
  0
DICTIONARYVAR
  5
330
102
{ACAD_REACTORS
330
32D
102
}
330
32D
100
DictionaryVariables
280
     0
  1
2
  0
DICTIONARY
  5
363
330
45
100
AcDbDictionary
280
     1
281
     1
  3
ACAD_XREC_ROUNDTRIP
360
364
  0
DICTIONARY
  5
361
330
44
100
AcDbDictionary
280
     1
281
     1
  3
ACAD_XREC_ROUNDTRIP
360
362
  0
DICTIONARY
  5
365
330
46
100
AcDbDictionary
280
     1
281
     1
  3
ACAD_XREC_ROUNDTRIP
360
366
  0
DICTIONARY
  5
36B
330
6C
100
AcDbDictionary
280
     1
281
     1
  3
ACAD_XREC_ROUNDTRIP
360
36C
  0
DICTIONARY
  5
367
330
6A
100
AcDbDictionary
280
     1
281
     1
  3
ACAD_ROUNDTRIP_2008_TABLESTYLE_CELLSTYLEMAP
360
369
  3
ACAD_XREC_ROUNDTRIP
360
368
  0
DICTIONARY
  5
339
330
2F
100
AcDbDictionary
280
     1
281
     1
  3
ACAD_XREC_ROUNDTRIP
360
33A
  0
DICTIONARY
  5
33F
330
32
100
AcDbDictionary
280
     1
281
     1
  3
ACAD_XREC_ROUNDTRIP
360
340
  0
DICTIONARY
  5
347
330
36
100
AcDbDictionary
280
     1
281
     1
  3
ACAD_XREC_ROUNDTRIP
360
348
  0
DICTIONARY
  5
34F
330
3A
100
AcDbDictionary
280
     1
281
     1
  3
ACAD_XREC_ROUNDTRIP
360
350
  0
DICTIONARY
  5
343
330
34
100
AcDbDictionary
280
     1
281
     1
  3
ACAD_XREC_ROUNDTRIP
360
344
  0
DICTIONARY
  5
345
330
35
100
AcDbDictionary
280
     1
281
     1
  3
ACAD_XREC_ROUNDTRIP
360
346
  0
DICTIONARY
  5
355
330
3D
100
AcDbDictionary
280
     1
281
     1
  3
ACAD_XREC_ROUNDTRIP
360
356
  0
DICTIONARY
  5
34D
330
39
100
AcDbDictionary
280
     1
281
     1
  3
ACAD_XREC_ROUNDTRIP
360
34E
  0
DICTIONARY
  5
331
330
2B
100
AcDbDictionary
280
     1
281
     1
  3
ACAD_XREC_ROUNDTRIP
360
332
  0
DICTIONARY
  5
333
330
2C
100
AcDbDictionary
280
     1
281
     1
  3
ACAD_XREC_ROUNDTRIP
360
334
  0
DICTIONARY
  5
335
330
2D
100
AcDbDictionary
280
     1
281
     1
  3
ACAD_XREC_ROUNDTRIP
360
336
  0
DICTIONARY
  5
337
330
2E
100
AcDbDictionary
280
     1
281
     1
  3
ACAD_XREC_ROUNDTRIP
360
338
  0
DICTIONARY
  5
33D
330
31
100
AcDbDictionary
280
     1
281
     1
  3
ACAD_XREC_ROUNDTRIP
360
33E
  0
DICTIONARY
  5
351
330
3B
100
AcDbDictionary
280
     1
281
     1
  3
ACAD_XREC_ROUNDTRIP
360
352
  0
DICTIONARY
  5
34B
330
38
100
AcDbDictionary
280
     1
281
     1
  3
ACAD_XREC_ROUNDTRIP
360
34C
  0
DICTIONARY
  5
353
330
3C
100
AcDbDictionary
280
     1
281
     1
  3
ACAD_XREC_ROUNDTRIP
360
354
  0
DICTIONARY
  5
341
330
33
100
AcDbDictionary
280
     1
281
     1
  3
ACAD_XREC_ROUNDTRIP
360
342
  0
DICTIONARY
  5
35F
330
42
100
AcDbDictionary
280
     1
281
     1
  3
ACAD_XREC_ROUNDTRIP
360
360
  0
DICTIONARY
  5
35D
330
41
100
AcDbDictionary
280
     1
281
     1
  3
ACAD_XREC_ROUNDTRIP
360
35E
  0
DICTIONARY
  5
357
330
3E
100
AcDbDictionary
280
     1
281
     1
  3
ACAD_XREC_ROUNDTRIP
360
358
  0
DICTIONARY
  5
359
330
3F
100
AcDbDictionary
280
     1
281
     1
  3
ACAD_XREC_ROUNDTRIP
360
35A
  0
DICTIONARY
  5
349
330
37
100
AcDbDictionary
280
     1
281
     1
  3
ACAD_XREC_ROUNDTRIP
360
34A
  0
DICTIONARY
  5
33B
330
30
100
AcDbDictionary
280
     1
281
     1
  3
ACAD_XREC_ROUNDTRIP
360
33C
  0
DICTIONARY
  5
35B
330
40
100
AcDbDictionary
280
     1
281
     1
  3
ACAD_XREC_ROUNDTRIP
360
35C
  0
XRECORD
  5
364
102
{ACAD_REACTORS
330
363
102
}
330
363
100
AcDbXrecord
280
     1
102
MATERIAL
148
0.0
149
0.0
149
0.0
 93
        0
 94
      127
282
     0
 72
     1
 77
     1
171
     1
175
     1
179
     1
273
     0
  0
XRECORD
  5
362
102
{ACAD_REACTORS
330
361
102
}
330
361
100
AcDbXrecord
280
     1
102
MATERIAL
148
0.0
149
0.0
149
0.0
 93
        0
 94
      127
282
     0
 72
     1
 77
     1
171
     1
175
     1
179
     1
273
     0
  0
XRECORD
  5
366
102
{ACAD_REACTORS
330
365
102
}
330
365
100
AcDbXrecord
280
     1
102
MATERIAL
148
0.0
149
0.0
149
0.0
 93
        0
 94
      127
282
     0
 72
     1
 77
     1
171
     1
175
     1
179
     1
273
     0
  0
XRECORD
  5
36C
102
{ACAD_REACTORS
330
36B
102
}
330
36B
100
AcDbXrecord
280
     1
102
ACAD_ROUNDTRIP_2010_MLEADER_STYLE
  0
CELLSTYLEMAP
  5
369
102
{ACAD_REACTORS
330
367
102
}
330
367
100
AcDbCellStyleMap
 90
        3
300
CELLSTYLE
  1
TABLEFORMAT_BEGIN
 90
        5
170
     1
 91
        0
 92
    32768
 62
   257
 93
        1
300
CONTENTFORMAT
  1
CONTENTFORMAT_BEGIN
 90
        0
 91
        0
 92
        4
 93
        0
300

 40
0.0
140
1.0
 94
        5
 62
     0
340
11
144
6.0
309
CONTENTFORMAT_END
171
     1
301
MARGIN
  1
CELLMARGIN_BEGIN
 40
1.5
 40
1.5
 40
1.5
 40
1.5
 40
1.5
 40
1.5
309
CELLMARGIN_END
 94
        6
 95
        1
302
GRIDFORMAT
  1
GRIDFORMAT_BEGIN
 90
        0
 91
        1
 62
     0
 92
       -2
340
14
 93
        0
 40
0.045
309
GRIDFORMAT_END
 95
        2
302
GRIDFORMAT
  1
GRIDFORMAT_BEGIN
 90
        0
 91
        1
 62
     0
 92
       -2
340
14
 93
        0
 40
0.045
309
GRIDFORMAT_END
 95
        4
302
GRIDFORMAT
  1
GRIDFORMAT_BEGIN
 90
        0
 91
        1
 62
     0
 92
       -2
340
14
 93
        0
 40
0.045
309
GRIDFORMAT_END
 95
        8
302
GRIDFORMAT
  1
GRIDFORMAT_BEGIN
 90
        0
 91
        1
 62
     0
 92
       -2
340
14
 93
        0
 40
0.045
309
GRIDFORMAT_END
 95
       16
302
GRIDFORMAT
  1
GRIDFORMAT_BEGIN
 90
        0
 91
        1
 62
     0
 92
       -2
340
14
 93
        0
 40
0.045
309
GRIDFORMAT_END
 95
       32
302
GRIDFORMAT
  1
GRIDFORMAT_BEGIN
 90
        0
 91
        1
 62
     0
 92
       -2
340
14
 93
        0
 40
0.045
309
GRIDFORMAT_END
309
TABLEFORMAT_END
  1
CELLSTYLE_BEGIN
 90
        1
 91
        1
300
_TITLE
309
CELLSTYLE_END
300
CELLSTYLE
  1
TABLEFORMAT_BEGIN
 90
        5
170
     1
 91
        0
 92
        0
 62
   257
 93
        1
300
CONTENTFORMAT
  1
CONTENTFORMAT_BEGIN
 90
        0
 91
        0
 92
        4
 93
        0
300

 40
0.0
140
1.0
 94
        5
 62
     0
340
11
144
4.5
309
CONTENTFORMAT_END
171
     1
301
MARGIN
  1
CELLMARGIN_BEGIN
 40
1.5
 40
1.5
 40
1.5
 40
1.5
 40
1.5
 40
1.5
309
CELLMARGIN_END
 94
        6
 95
        1
302
GRIDFORMAT
  1
GRIDFORMAT_BEGIN
 90
        0
 91
        1
 62
     0
 92
       -2
340
14
 93
        0
 40
0.045
309
GRIDFORMAT_END
 95
        2
302
GRIDFORMAT
  1
GRIDFORMAT_BEGIN
 90
        0
 91
        1
 62
     0
 92
       -2
340
14
 93
        0
 40
0.045
309
GRIDFORMAT_END
 95
        4
302
GRIDFORMAT
  1
GRIDFORMAT_BEGIN
 90
        0
 91
        1
 62
     0
 92
       -2
340
14
 93
        0
 40
0.045
309
GRIDFORMAT_END
 95
        8
302
GRIDFORMAT
  1
GRIDFORMAT_BEGIN
 90
        0
 91
        1
 62
     0
 92
       -2
340
14
 93
        0
 40
0.045
309
GRIDFORMAT_END
 95
       16
302
GRIDFORMAT
  1
GRIDFORMAT_BEGIN
 90
        0
 91
        1
 62
     0
 92
       -2
340
14
 93
        0
 40
0.045
309
GRIDFORMAT_END
 95
       32
302
GRIDFORMAT
  1
GRIDFORMAT_BEGIN
 90
        0
 91
        1
 62
     0
 92
       -2
340
14
 93
        0
 40
0.045
309
GRIDFORMAT_END
309
TABLEFORMAT_END
  1
CELLSTYLE_BEGIN
 90
        2
 91
        1
300
_HEADER
309
CELLSTYLE_END
300
CELLSTYLE
  1
TABLEFORMAT_BEGIN
 90
        5
170
     1
 91
        0
 92
        0
 62
   257
 93
        1
300
CONTENTFORMAT
  1
CONTENTFORMAT_BEGIN
 90
        0
 91
        0
 92
        4
 93
        0
300

 40
0.0
140
1.0
 94
        2
 62
     0
340
11
144
4.5
309
CONTENTFORMAT_END
171
     1
301
MARGIN
  1
CELLMARGIN_BEGIN
 40
1.5
 40
1.5
 40
1.5
 40
1.5
 40
1.5
 40
1.5
309
CELLMARGIN_END
 94
        6
 95
        1
302
GRIDFORMAT
  1
GRIDFORMAT_BEGIN
 90
        0
 91
        1
 62
     0
 92
       -2
340
14
 93
        0
 40
0.045
309
GRIDFORMAT_END
 95
        2
302
GRIDFORMAT
  1
GRIDFORMAT_BEGIN
 90
        0
 91
        1
 62
     0
 92
       -2
340
14
 93
        0
 40
0.045
309
GRIDFORMAT_END
 95
        4
302
GRIDFORMAT
  1
GRIDFORMAT_BEGIN
 90
        0
 91
        1
 62
     0
 92
       -2
340
14
 93
        0
 40
0.045
309
GRIDFORMAT_END
 95
        8
302
GRIDFORMAT
  1
GRIDFORMAT_BEGIN
 90
        0
 91
        1
 62
     0
 92
       -2
340
14
 93
        0
 40
0.045
309
GRIDFORMAT_END
 95
       16
302
GRIDFORMAT
  1
GRIDFORMAT_BEGIN
 90
        0
 91
        1
 62
     0
 92
       -2
340
14
 93
        0
 40
0.045
309
GRIDFORMAT_END
 95
       32
302
GRIDFORMAT
  1
GRIDFORMAT_BEGIN
 90
        0
 91
        1
 62
     0
 92
       -2
340
14
 93
        0
 40
0.045
309
GRIDFORMAT_END
309
TABLEFORMAT_END
  1
CELLSTYLE_BEGIN
 90
        3
 91
        2
300
_DATA
309
CELLSTYLE_END
  0
XRECORD
  5
368
102
{ACAD_REACTORS
330
367
102
}
330
367
100
AcDbXrecord
280
     1
102
ACAD_ROUNDTRIP_PRE2007_TABLESTYLE
 90
        4
 91
        0
  1

 92
        4
 93
        0
  2

 94
        4
 95
        0
  3

  0
XRECORD
  5
33A
102
{ACAD_REACTORS
330
339
102
}
330
339
100
AcDbXrecord
280
     1
102
RTVSPropertyOp0
 70
     1
102
RTVSPropertyOp1
 70
     1
102
RTVSPropertyOp2
 70
     1
102
RTVSPropertyOp3
 70
     1
102
RTVSPropertyOp4
 70
     1
102
RTVSPropertyOp5
 70
     1
102
RTVSPropertyOp6
 70
     1
102
RTVSPropertyOp7
 70
     1
102
RTVSPropertyOp8
 70
     1
102
RTVSPropertyOp9
 70
     1
102
RTVSPropertyOp10
 70
     1
102
RTVSPropertyOp11
 70
     1
102
RTVSPropertyOp12
 70
     1
102
RTVSPropertyOp13
 70
     1
102
RTVSPropertyOp14
 70
     1
102
RTVSPropertyOp15
 70
     1
102
RTVSPropertyOp16
 70
     1
102
RTVSPropertyOp17
 70
     1
102
RTVSPropertyOp18
 70
     1
102
RTVSPropertyOp19
 70
     1
102
RTVSPropertyOp20
 70
     1
102
RTVSPropertyOp21
 70
     1
102
RTVSPropertyOp22
 70
     1
102
RTVSPropertyOp23
 70
     1
102
RTVSPropertyOp24
 70
     1
102
RTVSPropertyOp25
 70
     1
102
RTVSPropertyOp26
 70
     1
102
RTVSPropertyOp27
 70
     1
102
RTVSPropertyOp28
 70
     1
102
RTVSPropertyOp29
 70
     1
102
RTVSPropertyOp30
 70
     1
102
RTVSPropertyOp31
 70
     1
102
RTVSPropertyOp32
 70
     1
102
RTVSPropertyOp33
 70
     1
102
RTVSPropertyOp34
 70
     1
102
RTVSPropertyOp35
 70
     1
102
RTVSPropertyOp36
 70
     1
102
RTVSPropertyOp37
 70
     1
102
RTVSPropertyOp38
 70
     1
102
RTVSPropertyOp39
 70
     1
102
RTVSPropertyOp40
 70
     1
102
RTVSPropertyOp41
 70
     1
102
RTVSPropertyOp42
 70
     1
102
RTVSPropertyOp43
 70
     1
102
RTVSPropertyOp44
 70
     1
102
RTVSPropertyOp45
 70
     1
102
RTVSPropertyOp46
 70
     1
102
RTVSPropertyOp47
 70
     1
102
RTVSPropertyOp48
 70
     1
102
RTVSPropertyOp49
 70
     1
102
RTVSPropertyOp50
 70
     1
102
RTVSPropertyOp51
 70
     0
102
RTVSPropertyOp52
 70
     0
102
RTVSPropertyOp53
 70
     1
102
RTVSPropertyOp54
 70
     1
102
RTVSPropertyOp55
 70
     1
102
RTVSPropertyOp56
 70
     1
102
RTVSPropertyOp57
 70
     1
102
RTVSPost2010Prop28
280
     1
102
RTVSPost2010PropOp28
 70
     1
102
RTVSPost2010Prop29
280
     1
102
RTVSPost2010PropOp29
 70
     1
102
RTVSPost2010Prop30
280
     0
102
RTVSPost2010PropOp30
 70
     1
102
RTVSPost2010Prop31
280
     0
102
RTVSPost2010PropOp31
 70
     1
102
RTVSPost2010Prop32
280
     0
102
RTVSPost2010PropOp32
 70
     1
102
RTVSPost2010Prop33
280
     0
102
RTVSPost2010PropOp33
 70
     1
102
RTVSPost2010Prop34
280
     0
102
RTVSPost2010PropOp34
 70
     1
102
RTVSPost2010Prop35
280
     0
102
RTVSPost2010PropOp35
 70
     1
102
RTVSPost2010Prop36
280
     0
102
RTVSPost2010PropOp36
 70
     1
102
RTVSPost2010Prop37
 90
       50
102
RTVSPost2010PropOp37
 70
     1
102
RTVSPost2010Prop38
140
0.0
102
RTVSPost2010PropOp38
 70
     1
102
RTVSPost2010Prop39
140
1.0
102
RTVSPost2010PropOp39
 70
     1
102
RTVSPost2010Prop40
 90
        0
102
RTVSPost2010PropOp40
 70
     1
102
RTVSPost2010Prop41ColorIndex
 90
       18
102
RTVSPost2010Prop41ColorRGB
 90
        0
102
RTVSPost2010PropOp41
 70
     1
102
RTVSPost2010Prop42
 90
       50
102
RTVSPost2010PropOp42
 70
     1
102
RTVSPost2010Prop43
 90
        3
102
RTVSPost2010PropOp43
 70
     1
102
RTVSPost2010Prop44ColorIndex
 90
        5
102
RTVSPost2010Prop44ColorRGB
 90
      255
102
RTVSPost2010PropOp44
 70
     1
102
RTVSPost2010Prop45
280
     0
102
RTVSPost2010PropOp45
 70
     1
102
RTVSPost2010Prop46
 90
       50
102
RTVSPost2010PropOp46
 70
     1
102
RTVSPost2010Prop47
 90
       50
102
RTVSPost2010PropOp47
 70
     1
102
RTVSPost2010Prop48
 90
       50
102
RTVSPost2010PropOp48
 70
     1
102
RTVSPost2010Prop49
280
     0
102
RTVSPost2010PropOp49
 70
     1
102
RTVSPost2010Prop50
 90
       50
102
RTVSPost2010PropOp50
 70
     1
102
RTVSPost2010Prop51ColorIndex
 90
      256
102
RTVSPost2010Prop51ColorRGB
 90
-16777216
102
RTVSPost2010PropOp51
 70
     0
102
RTVSPost2010Prop52
140
1.0
102
RTVSPost2010PropOp52
 70
     0
102
RTVSPost2010Prop53
 90
        2
102
RTVSPost2010PropOp53
 70
     1
102
RTVSPost2010Prop54
  1
strokes_ogs.tif
102
RTVSPost2010PropOp54
 70
     1
102
RTVSPost2010Prop55
280
     0
102
RTVSPost2010PropOp55
 70
     1
102
RTVSPost2010Prop56
140
1.0
102
RTVSPost2010PropOp56
 70
     1
102
RTVSPost2010Prop57
140
1.0
102
RTVSPost2010PropOp57
 70
     1
  0
XRECORD
  5
340
102
{ACAD_REACTORS
330
33F
102
}
330
33F
100
AcDbXrecord
280
     1
102
RTVSPropertyOp0
 70
     1
102
RTVSPropertyOp1
 70
     1
102
RTVSPropertyOp2
 70
     1
102
RTVSPropertyOp3
 70
     1
102
RTVSPropertyOp4
 70
     1
102
RTVSPropertyOp5
 70
     1
102
RTVSPropertyOp6
 70
     1
102
RTVSPropertyOp7
 70
     1
102
RTVSPropertyOp8
 70
     1
102
RTVSPropertyOp9
 70
     1
102
RTVSPropertyOp10
 70
     1
102
RTVSPropertyOp11
 70
     1
102
RTVSPropertyOp12
 70
     1
102
RTVSPropertyOp13
 70
     1
102
RTVSPropertyOp14
 70
     1
102
RTVSPropertyOp15
 70
     1
102
RTVSPropertyOp16
 70
     1
102
RTVSPropertyOp17
 70
     1
102
RTVSPropertyOp18
 70
     1
102
RTVSPropertyOp19
 70
     1
102
RTVSPropertyOp20
 70
     1
102
RTVSPropertyOp21
 70
     1
102
RTVSPropertyOp22
 70
     1
102
RTVSPropertyOp23
 70
     1
102
RTVSPropertyOp24
 70
     1
102
RTVSPropertyOp25
 70
     1
102
RTVSPropertyOp26
 70
     1
102
RTVSPropertyOp27
 70
     1
102
RTVSPropertyOp28
 70
     1
102
RTVSPropertyOp29
 70
     1
102
RTVSPropertyOp30
 70
     1
102
RTVSPropertyOp31
 70
     1
102
RTVSPropertyOp32
 70
     1
102
RTVSPropertyOp33
 70
     1
102
RTVSPropertyOp34
 70
     1
102
RTVSPropertyOp35
 70
     1
102
RTVSPropertyOp36
 70
     1
102
RTVSPropertyOp37
 70
     1
102
RTVSPropertyOp38
 70
     1
102
RTVSPropertyOp39
 70
     1
102
RTVSPropertyOp40
 70
     1
102
RTVSPropertyOp41
 70
     1
102
RTVSPropertyOp42
 70
     1
102
RTVSPropertyOp43
 70
     1
102
RTVSPropertyOp44
 70
     1
102
RTVSPropertyOp45
 70
     1
102
RTVSPropertyOp46
 70
     1
102
RTVSPropertyOp47
 70
     1
102
RTVSPropertyOp48
 70
     1
102
RTVSPropertyOp49
 70
     1
102
RTVSPropertyOp50
 70
     1
102
RTVSPropertyOp51
 70
     0
102
RTVSPropertyOp52
 70
     0
102
RTVSPropertyOp53
 70
     1
102
RTVSPropertyOp54
 70
     1
102
RTVSPropertyOp55
 70
     1
102
RTVSPropertyOp56
 70
     1
102
RTVSPropertyOp57
 70
     1
102
RTVSPost2010Prop28
280
     0
102
RTVSPost2010PropOp28
 70
     1
102
RTVSPost2010Prop29
280
     1
102
RTVSPost2010PropOp29
 70
     1
102
RTVSPost2010Prop30
280
     1
102
RTVSPost2010PropOp30
 70
     1
102
RTVSPost2010Prop31
280
     0
102
RTVSPost2010PropOp31
 70
     1
102
RTVSPost2010Prop32
280
     0
102
RTVSPost2010PropOp32
 70
     1
102
RTVSPost2010Prop33
280
     0
102
RTVSPost2010PropOp33
 70
     1
102
RTVSPost2010Prop34
280
     0
102
RTVSPost2010PropOp34
 70
     1
102
RTVSPost2010Prop35
280
     0
102
RTVSPost2010PropOp35
 70
     1
102
RTVSPost2010Prop36
280
     0
102
RTVSPost2010PropOp36
 70
     1
102
RTVSPost2010Prop37
 90
       50
102
RTVSPost2010PropOp37
 70
     1
102
RTVSPost2010Prop38
140
0.0
102
RTVSPost2010PropOp38
 70
     1
102
RTVSPost2010Prop39
140
1.0
102
RTVSPost2010PropOp39
 70
     1
102
RTVSPost2010Prop40
 90
        0
102
RTVSPost2010PropOp40
 70
     1
102
RTVSPost2010Prop41ColorIndex
 90
       18
102
RTVSPost2010Prop41ColorRGB
 90
        0
102
RTVSPost2010PropOp41
 70
     1
102
RTVSPost2010Prop42
 90
       50
102
RTVSPost2010PropOp42
 70
     1
102
RTVSPost2010Prop43
 90
        3
102
RTVSPost2010PropOp43
 70
     1
102
RTVSPost2010Prop44ColorIndex
 90
        5
102
RTVSPost2010Prop44ColorRGB
 90
      255
102
RTVSPost2010PropOp44
 70
     1
102
RTVSPost2010Prop45
280
     0
102
RTVSPost2010PropOp45
 70
     1
102
RTVSPost2010Prop46
 90
       50
102
RTVSPost2010PropOp46
 70
     1
102
RTVSPost2010Prop47
 90
       50
102
RTVSPost2010PropOp47
 70
     1
102
RTVSPost2010Prop48
 90
       50
102
RTVSPost2010PropOp48
 70
     1
102
RTVSPost2010Prop49
280
     0
102
RTVSPost2010PropOp49
 70
     1
102
RTVSPost2010Prop50
 90
       50
102
RTVSPost2010PropOp50
 70
     1
102
RTVSPost2010Prop51ColorIndex
 90
      256
102
RTVSPost2010Prop51ColorRGB
 90
-16777216
102
RTVSPost2010PropOp51
 70
     0
102
RTVSPost2010Prop52
140
1.0
102
RTVSPost2010PropOp52
 70
     0
102
RTVSPost2010Prop53
 90
        2
102
RTVSPost2010PropOp53
 70
     1
102
RTVSPost2010Prop54
  1
strokes_ogs.tif
102
RTVSPost2010PropOp54
 70
     1
102
RTVSPost2010Prop55
280
     0
102
RTVSPost2010PropOp55
 70
     1
102
RTVSPost2010Prop56
140
1.0
102
RTVSPost2010PropOp56
 70
     1
102
RTVSPost2010Prop57
140
1.0
102
RTVSPost2010PropOp57
 70
     1
  0
XRECORD
  5
348
102
{ACAD_REACTORS
330
347
102
}
330
347
100
AcDbXrecord
280
     1
102
RTVSPropertyOp0
 70
     1
102
RTVSPropertyOp1
 70
     1
102
RTVSPropertyOp2
 70
     1
102
RTVSPropertyOp3
 70
     1
102
RTVSPropertyOp4
 70
     1
102
RTVSPropertyOp5
 70
     1
102
RTVSPropertyOp6
 70
     1
102
RTVSPropertyOp7
 70
     1
102
RTVSPropertyOp8
 70
     1
102
RTVSPropertyOp9
 70
     1
102
RTVSPropertyOp10
 70
     1
102
RTVSPropertyOp11
 70
     1
102
RTVSPropertyOp12
 70
     1
102
RTVSPropertyOp13
 70
     1
102
RTVSPropertyOp14
 70
     1
102
RTVSPropertyOp15
 70
     1
102
RTVSPropertyOp16
 70
     1
102
RTVSPropertyOp17
 70
     1
102
RTVSPropertyOp18
 70
     1
102
RTVSPropertyOp19
 70
     1
102
RTVSPropertyOp20
 70
     1
102
RTVSPropertyOp21
 70
     1
102
RTVSPropertyOp22
 70
     1
102
RTVSPropertyOp23
 70
     1
102
RTVSPropertyOp24
 70
     1
102
RTVSPropertyOp25
 70
     1
102
RTVSPropertyOp26
 70
     1
102
RTVSPropertyOp27
 70
     1
102
RTVSPropertyOp28
 70
     1
102
RTVSPropertyOp29
 70
     1
102
RTVSPropertyOp30
 70
     1
102
RTVSPropertyOp31
 70
     1
102
RTVSPropertyOp32
 70
     1
102
RTVSPropertyOp33
 70
     1
102
RTVSPropertyOp34
 70
     1
102
RTVSPropertyOp35
 70
     1
102
RTVSPropertyOp36
 70
     1
102
RTVSPropertyOp37
 70
     1
102
RTVSPropertyOp38
 70
     1
102
RTVSPropertyOp39
 70
     1
102
RTVSPropertyOp40
 70
     1
102
RTVSPropertyOp41
 70
     1
102
RTVSPropertyOp42
 70
     1
102
RTVSPropertyOp43
 70
     1
102
RTVSPropertyOp44
 70
     1
102
RTVSPropertyOp45
 70
     1
102
RTVSPropertyOp46
 70
     1
102
RTVSPropertyOp47
 70
     1
102
RTVSPropertyOp48
 70
     1
102
RTVSPropertyOp49
 70
     1
102
RTVSPropertyOp50
 70
     1
102
RTVSPropertyOp51
 70
     0
102
RTVSPropertyOp52
 70
     0
102
RTVSPropertyOp53
 70
     1
102
RTVSPropertyOp54
 70
     1
102
RTVSPropertyOp55
 70
     1
102
RTVSPropertyOp56
 70
     1
102
RTVSPropertyOp57
 70
     1
102
RTVSPost2010Prop28
280
     0
102
RTVSPost2010PropOp28
 70
     1
102
RTVSPost2010Prop29
280
     1
102
RTVSPost2010PropOp29
 70
     1
102
RTVSPost2010Prop30
280
     1
102
RTVSPost2010PropOp30
 70
     1
102
RTVSPost2010Prop31
280
     0
102
RTVSPost2010PropOp31
 70
     1
102
RTVSPost2010Prop32
280
     0
102
RTVSPost2010PropOp32
 70
     1
102
RTVSPost2010Prop33
280
     0
102
RTVSPost2010PropOp33
 70
     1
102
RTVSPost2010Prop34
280
     0
102
RTVSPost2010PropOp34
 70
     1
102
RTVSPost2010Prop35
280
     0
102
RTVSPost2010PropOp35
 70
     1
102
RTVSPost2010Prop36
280
     0
102
RTVSPost2010PropOp36
 70
     1
102
RTVSPost2010Prop37
 90
       50
102
RTVSPost2010PropOp37
 70
     1
102
RTVSPost2010Prop38
140
0.0
102
RTVSPost2010PropOp38
 70
     1
102
RTVSPost2010Prop39
140
1.0
102
RTVSPost2010PropOp39
 70
     1
102
RTVSPost2010Prop40
 90
        0
102
RTVSPost2010PropOp40
 70
     1
102
RTVSPost2010Prop41ColorIndex
 90
       18
102
RTVSPost2010Prop41ColorRGB
 90
        0
102
RTVSPost2010PropOp41
 70
     1
102
RTVSPost2010Prop42
 90
       50
102
RTVSPost2010PropOp42
 70
     1
102
RTVSPost2010Prop43
 90
        3
102
RTVSPost2010PropOp43
 70
     1
102
RTVSPost2010Prop44ColorIndex
 90
        5
102
RTVSPost2010Prop44ColorRGB
 90
      255
102
RTVSPost2010PropOp44
 70
     1
102
RTVSPost2010Prop45
280
     0
102
RTVSPost2010PropOp45
 70
     1
102
RTVSPost2010Prop46
 90
       50
102
RTVSPost2010PropOp46
 70
     1
102
RTVSPost2010Prop47
 90
       50
102
RTVSPost2010PropOp47
 70
     1
102
RTVSPost2010Prop48
 90
       50
102
RTVSPost2010PropOp48
 70
     1
102
RTVSPost2010Prop49
280
     0
102
RTVSPost2010PropOp49
 70
     1
102
RTVSPost2010Prop50
 90
       50
102
RTVSPost2010PropOp50
 70
     1
102
RTVSPost2010Prop51ColorIndex
 90
      256
102
RTVSPost2010Prop51ColorRGB
 90
-16777216
102
RTVSPost2010PropOp51
 70
     0
102
RTVSPost2010Prop52
140
1.0
102
RTVSPost2010PropOp52
 70
     0
102
RTVSPost2010Prop53
 90
        2
102
RTVSPost2010PropOp53
 70
     1
102
RTVSPost2010Prop54
  1
strokes_ogs.tif
102
RTVSPost2010PropOp54
 70
     1
102
RTVSPost2010Prop55
280
     0
102
RTVSPost2010PropOp55
 70
     1
102
RTVSPost2010Prop56
140
1.0
102
RTVSPost2010PropOp56
 70
     1
102
RTVSPost2010Prop57
140
1.0
102
RTVSPost2010PropOp57
 70
     1
  0
XRECORD
  5
350
102
{ACAD_REACTORS
330
34F
102
}
330
34F
100
AcDbXrecord
280
     1
102
RTVSPropertyOp0
 70
     1
102
RTVSPropertyOp1
 70
     1
102
RTVSPropertyOp2
 70
     1
102
RTVSPropertyOp3
 70
     1
102
RTVSPropertyOp4
 70
     1
102
RTVSPropertyOp5
 70
     1
102
RTVSPropertyOp6
 70
     1
102
RTVSPropertyOp7
 70
     1
102
RTVSPropertyOp8
 70
     1
102
RTVSPropertyOp9
 70
     1
102
RTVSPropertyOp10
 70
     1
102
RTVSPropertyOp11
 70
     1
102
RTVSPropertyOp12
 70
     1
102
RTVSPropertyOp13
 70
     1
102
RTVSPropertyOp14
 70
     1
102
RTVSPropertyOp15
 70
     1
102
RTVSPropertyOp16
 70
     1
102
RTVSPropertyOp17
 70
     1
102
RTVSPropertyOp18
 70
     1
102
RTVSPropertyOp19
 70
     1
102
RTVSPropertyOp20
 70
     1
102
RTVSPropertyOp21
 70
     1
102
RTVSPropertyOp22
 70
     1
102
RTVSPropertyOp23
 70
     1
102
RTVSPropertyOp24
 70
     1
102
RTVSPropertyOp25
 70
     1
102
RTVSPropertyOp26
 70
     1
102
RTVSPropertyOp27
 70
     1
102
RTVSPropertyOp28
 70
     1
102
RTVSPropertyOp29
 70
     1
102
RTVSPropertyOp30
 70
     1
102
RTVSPropertyOp31
 70
     1
102
RTVSPropertyOp32
 70
     1
102
RTVSPropertyOp33
 70
     1
102
RTVSPropertyOp34
 70
     1
102
RTVSPropertyOp35
 70
     1
102
RTVSPropertyOp36
 70
     1
102
RTVSPropertyOp37
 70
     1
102
RTVSPropertyOp38
 70
     1
102
RTVSPropertyOp39
 70
     1
102
RTVSPropertyOp40
 70
     1
102
RTVSPropertyOp41
 70
     1
102
RTVSPropertyOp42
 70
     1
102
RTVSPropertyOp43
 70
     1
102
RTVSPropertyOp44
 70
     1
102
RTVSPropertyOp45
 70
     1
102
RTVSPropertyOp46
 70
     1
102
RTVSPropertyOp47
 70
     1
102
RTVSPropertyOp48
 70
     1
102
RTVSPropertyOp49
 70
     1
102
RTVSPropertyOp50
 70
     1
102
RTVSPropertyOp51
 70
     0
102
RTVSPropertyOp52
 70
     0
102
RTVSPropertyOp53
 70
     1
102
RTVSPropertyOp54
 70
     1
102
RTVSPropertyOp55
 70
     1
102
RTVSPropertyOp56
 70
     1
102
RTVSPropertyOp57
 70
     1
102
RTVSPost2010Prop28
280
     0
102
RTVSPost2010PropOp28
 70
     1
102
RTVSPost2010Prop29
280
     1
102
RTVSPost2010PropOp29
 70
     1
102
RTVSPost2010Prop30
280
     1
102
RTVSPost2010PropOp30
 70
     1
102
RTVSPost2010Prop31
280
     0
102
RTVSPost2010PropOp31
 70
     1
102
RTVSPost2010Prop32
280
     0
102
RTVSPost2010PropOp32
 70
     1
102
RTVSPost2010Prop33
280
     0
102
RTVSPost2010PropOp33
 70
     1
102
RTVSPost2010Prop34
280
     0
102
RTVSPost2010PropOp34
 70
     1
102
RTVSPost2010Prop35
280
     0
102
RTVSPost2010PropOp35
 70
     1
102
RTVSPost2010Prop36
280
     0
102
RTVSPost2010PropOp36
 70
     1
102
RTVSPost2010Prop37
 90
       50
102
RTVSPost2010PropOp37
 70
     1
102
RTVSPost2010Prop38
140
0.0
102
RTVSPost2010PropOp38
 70
     1
102
RTVSPost2010Prop39
140
1.0
102
RTVSPost2010PropOp39
 70
     1
102
RTVSPost2010Prop40
 90
        0
102
RTVSPost2010PropOp40
 70
     1
102
RTVSPost2010Prop41ColorIndex
 90
       18
102
RTVSPost2010Prop41ColorRGB
 90
        0
102
RTVSPost2010PropOp41
 70
     1
102
RTVSPost2010Prop42
 90
       50
102
RTVSPost2010PropOp42
 70
     1
102
RTVSPost2010Prop43
 90
        3
102
RTVSPost2010PropOp43
 70
     1
102
RTVSPost2010Prop44ColorIndex
 90
        5
102
RTVSPost2010Prop44ColorRGB
 90
      255
102
RTVSPost2010PropOp44
 70
     1
102
RTVSPost2010Prop45
280
     0
102
RTVSPost2010PropOp45
 70
     1
102
RTVSPost2010Prop46
 90
       50
102
RTVSPost2010PropOp46
 70
     1
102
RTVSPost2010Prop47
 90
       50
102
RTVSPost2010PropOp47
 70
     1
102
RTVSPost2010Prop48
 90
       50
102
RTVSPost2010PropOp48
 70
     1
102
RTVSPost2010Prop49
280
     0
102
RTVSPost2010PropOp49
 70
     1
102
RTVSPost2010Prop50
 90
       50
102
RTVSPost2010PropOp50
 70
     1
102
RTVSPost2010Prop51ColorIndex
 90
      256
102
RTVSPost2010Prop51ColorRGB
 90
-16777216
102
RTVSPost2010PropOp51
 70
     0
102
RTVSPost2010Prop52
140
1.0
102
RTVSPost2010PropOp52
 70
     0
102
RTVSPost2010Prop53
 90
        2
102
RTVSPost2010PropOp53
 70
     1
102
RTVSPost2010Prop54
  1
strokes_ogs.tif
102
RTVSPost2010PropOp54
 70
     1
102
RTVSPost2010Prop55
280
     0
102
RTVSPost2010PropOp55
 70
     1
102
RTVSPost2010Prop56
140
1.0
102
RTVSPost2010PropOp56
 70
     1
102
RTVSPost2010Prop57
140
1.0
102
RTVSPost2010PropOp57
 70
     1
  0
XRECORD
  5
344
102
{ACAD_REACTORS
330
343
102
}
330
343
100
AcDbXrecord
280
     1
102
RTVSPropertyOp0
 70
     1
102
RTVSPropertyOp1
 70
     1
102
RTVSPropertyOp2
 70
     1
102
RTVSPropertyOp3
 70
     1
102
RTVSPropertyOp4
 70
     1
102
RTVSPropertyOp5
 70
     1
102
RTVSPropertyOp6
 70
     1
102
RTVSPropertyOp7
 70
     1
102
RTVSPropertyOp8
 70
     1
102
RTVSPropertyOp9
 70
     1
102
RTVSPropertyOp10
 70
     1
102
RTVSPropertyOp11
 70
     1
102
RTVSPropertyOp12
 70
     1
102
RTVSPropertyOp13
 70
     1
102
RTVSPropertyOp14
 70
     1
102
RTVSPropertyOp15
 70
     1
102
RTVSPropertyOp16
 70
     1
102
RTVSPropertyOp17
 70
     1
102
RTVSPropertyOp18
 70
     1
102
RTVSPropertyOp19
 70
     1
102
RTVSPropertyOp20
 70
     1
102
RTVSPropertyOp21
 70
     1
102
RTVSPropertyOp22
 70
     1
102
RTVSPropertyOp23
 70
     1
102
RTVSPropertyOp24
 70
     1
102
RTVSPropertyOp25
 70
     1
102
RTVSPropertyOp26
 70
     1
102
RTVSPropertyOp27
 70
     1
102
RTVSPropertyOp28
 70
     1
102
RTVSPropertyOp29
 70
     1
102
RTVSPropertyOp30
 70
     1
102
RTVSPropertyOp31
 70
     1
102
RTVSPropertyOp32
 70
     1
102
RTVSPropertyOp33
 70
     1
102
RTVSPropertyOp34
 70
     1
102
RTVSPropertyOp35
 70
     1
102
RTVSPropertyOp36
 70
     1
102
RTVSPropertyOp37
 70
     1
102
RTVSPropertyOp38
 70
     1
102
RTVSPropertyOp39
 70
     1
102
RTVSPropertyOp40
 70
     1
102
RTVSPropertyOp41
 70
     1
102
RTVSPropertyOp42
 70
     1
102
RTVSPropertyOp43
 70
     1
102
RTVSPropertyOp44
 70
     1
102
RTVSPropertyOp45
 70
     1
102
RTVSPropertyOp46
 70
     1
102
RTVSPropertyOp47
 70
     1
102
RTVSPropertyOp48
 70
     1
102
RTVSPropertyOp49
 70
     1
102
RTVSPropertyOp50
 70
     1
102
RTVSPropertyOp51
 70
     0
102
RTVSPropertyOp52
 70
     0
102
RTVSPropertyOp53
 70
     1
102
RTVSPropertyOp54
 70
     1
102
RTVSPropertyOp55
 70
     1
102
RTVSPropertyOp56
 70
     1
102
RTVSPropertyOp57
 70
     1
102
RTVSPost2010Prop28
280
     0
102
RTVSPost2010PropOp28
 70
     1
102
RTVSPost2010Prop29
280
     1
102
RTVSPost2010PropOp29
 70
     1
102
RTVSPost2010Prop30
280
     1
102
RTVSPost2010PropOp30
 70
     1
102
RTVSPost2010Prop31
280
     0
102
RTVSPost2010PropOp31
 70
     1
102
RTVSPost2010Prop32
280
     0
102
RTVSPost2010PropOp32
 70
     1
102
RTVSPost2010Prop33
280
     0
102
RTVSPost2010PropOp33
 70
     1
102
RTVSPost2010Prop34
280
     0
102
RTVSPost2010PropOp34
 70
     1
102
RTVSPost2010Prop35
280
     0
102
RTVSPost2010PropOp35
 70
     1
102
RTVSPost2010Prop36
280
     0
102
RTVSPost2010PropOp36
 70
     1
102
RTVSPost2010Prop37
 90
       50
102
RTVSPost2010PropOp37
 70
     1
102
RTVSPost2010Prop38
140
0.0
102
RTVSPost2010PropOp38
 70
     1
102
RTVSPost2010Prop39
140
1.0
102
RTVSPost2010PropOp39
 70
     1
102
RTVSPost2010Prop40
 90
        0
102
RTVSPost2010PropOp40
 70
     1
102
RTVSPost2010Prop41ColorIndex
 90
       18
102
RTVSPost2010Prop41ColorRGB
 90
        0
102
RTVSPost2010PropOp41
 70
     1
102
RTVSPost2010Prop42
 90
       50
102
RTVSPost2010PropOp42
 70
     1
102
RTVSPost2010Prop43
 90
        3
102
RTVSPost2010PropOp43
 70
     1
102
RTVSPost2010Prop44ColorIndex
 90
        5
102
RTVSPost2010Prop44ColorRGB
 90
      255
102
RTVSPost2010PropOp44
 70
     1
102
RTVSPost2010Prop45
280
     0
102
RTVSPost2010PropOp45
 70
     1
102
RTVSPost2010Prop46
 90
       50
102
RTVSPost2010PropOp46
 70
     1
102
RTVSPost2010Prop47
 90
       50
102
RTVSPost2010PropOp47
 70
     1
102
RTVSPost2010Prop48
 90
       50
102
RTVSPost2010PropOp48
 70
     1
102
RTVSPost2010Prop49
280
     0
102
RTVSPost2010PropOp49
 70
     1
102
RTVSPost2010Prop50
 90
       50
102
RTVSPost2010PropOp50
 70
     1
102
RTVSPost2010Prop51ColorIndex
 90
      256
102
RTVSPost2010Prop51ColorRGB
 90
-16777216
102
RTVSPost2010PropOp51
 70
     0
102
RTVSPost2010Prop52
140
1.0
102
RTVSPost2010PropOp52
 70
     0
102
RTVSPost2010Prop53
 90
        2
102
RTVSPost2010PropOp53
 70
     1
102
RTVSPost2010Prop54
  1
strokes_ogs.tif
102
RTVSPost2010PropOp54
 70
     1
102
RTVSPost2010Prop55
280
     0
102
RTVSPost2010PropOp55
 70
     1
102
RTVSPost2010Prop56
140
1.0
102
RTVSPost2010PropOp56
 70
     1
102
RTVSPost2010Prop57
140
1.0
102
RTVSPost2010PropOp57
 70
     1
  0
XRECORD
  5
346
102
{ACAD_REACTORS
330
345
102
}
330
345
100
AcDbXrecord
280
     1
102
RTVSPropertyOp0
 70
     1
102
RTVSPropertyOp1
 70
     1
102
RTVSPropertyOp2
 70
     1
102
RTVSPropertyOp3
 70
     1
102
RTVSPropertyOp4
 70
     1
102
RTVSPropertyOp5
 70
     1
102
RTVSPropertyOp6
 70
     1
102
RTVSPropertyOp7
 70
     1
102
RTVSPropertyOp8
 70
     1
102
RTVSPropertyOp9
 70
     1
102
RTVSPropertyOp10
 70
     1
102
RTVSPropertyOp11
 70
     1
102
RTVSPropertyOp12
 70
     1
102
RTVSPropertyOp13
 70
     1
102
RTVSPropertyOp14
 70
     1
102
RTVSPropertyOp15
 70
     1
102
RTVSPropertyOp16
 70
     1
102
RTVSPropertyOp17
 70
     1
102
RTVSPropertyOp18
 70
     1
102
RTVSPropertyOp19
 70
     1
102
RTVSPropertyOp20
 70
     1
102
RTVSPropertyOp21
 70
     1
102
RTVSPropertyOp22
 70
     1
102
RTVSPropertyOp23
 70
     1
102
RTVSPropertyOp24
 70
     1
102
RTVSPropertyOp25
 70
     1
102
RTVSPropertyOp26
 70
     1
102
RTVSPropertyOp27
 70
     1
102
RTVSPropertyOp28
 70
     1
102
RTVSPropertyOp29
 70
     1
102
RTVSPropertyOp30
 70
     1
102
RTVSPropertyOp31
 70
     1
102
RTVSPropertyOp32
 70
     1
102
RTVSPropertyOp33
 70
     1
102
RTVSPropertyOp34
 70
     1
102
RTVSPropertyOp35
 70
     1
102
RTVSPropertyOp36
 70
     1
102
RTVSPropertyOp37
 70
     1
102
RTVSPropertyOp38
 70
     1
102
RTVSPropertyOp39
 70
     1
102
RTVSPropertyOp40
 70
     1
102
RTVSPropertyOp41
 70
     1
102
RTVSPropertyOp42
 70
     1
102
RTVSPropertyOp43
 70
     1
102
RTVSPropertyOp44
 70
     1
102
RTVSPropertyOp45
 70
     1
102
RTVSPropertyOp46
 70
     1
102
RTVSPropertyOp47
 70
     1
102
RTVSPropertyOp48
 70
     1
102
RTVSPropertyOp49
 70
     1
102
RTVSPropertyOp50
 70
     1
102
RTVSPropertyOp51
 70
     0
102
RTVSPropertyOp52
 70
     0
102
RTVSPropertyOp53
 70
     1
102
RTVSPropertyOp54
 70
     1
102
RTVSPropertyOp55
 70
     1
102
RTVSPropertyOp56
 70
     1
102
RTVSPropertyOp57
 70
     1
102
RTVSPost2010Prop28
280
     0
102
RTVSPost2010PropOp28
 70
     1
102
RTVSPost2010Prop29
280
     1
102
RTVSPost2010PropOp29
 70
     1
102
RTVSPost2010Prop30
280
     1
102
RTVSPost2010PropOp30
 70
     1
102
RTVSPost2010Prop31
280
     0
102
RTVSPost2010PropOp31
 70
     1
102
RTVSPost2010Prop32
280
     0
102
RTVSPost2010PropOp32
 70
     1
102
RTVSPost2010Prop33
280
     0
102
RTVSPost2010PropOp33
 70
     1
102
RTVSPost2010Prop34
280
     0
102
RTVSPost2010PropOp34
 70
     1
102
RTVSPost2010Prop35
280
     0
102
RTVSPost2010PropOp35
 70
     1
102
RTVSPost2010Prop36
280
     0
102
RTVSPost2010PropOp36
 70
     1
102
RTVSPost2010Prop37
 90
       50
102
RTVSPost2010PropOp37
 70
     1
102
RTVSPost2010Prop38
140
0.0
102
RTVSPost2010PropOp38
 70
     1
102
RTVSPost2010Prop39
140
1.0
102
RTVSPost2010PropOp39
 70
     1
102
RTVSPost2010Prop40
 90
        0
102
RTVSPost2010PropOp40
 70
     1
102
RTVSPost2010Prop41ColorIndex
 90
       18
102
RTVSPost2010Prop41ColorRGB
 90
        0
102
RTVSPost2010PropOp41
 70
     1
102
RTVSPost2010Prop42
 90
       50
102
RTVSPost2010PropOp42
 70
     1
102
RTVSPost2010Prop43
 90
        3
102
RTVSPost2010PropOp43
 70
     1
102
RTVSPost2010Prop44ColorIndex
 90
        5
102
RTVSPost2010Prop44ColorRGB
 90
      255
102
RTVSPost2010PropOp44
 70
     1
102
RTVSPost2010Prop45
280
     0
102
RTVSPost2010PropOp45
 70
     1
102
RTVSPost2010Prop46
 90
       50
102
RTVSPost2010PropOp46
 70
     1
102
RTVSPost2010Prop47
 90
       50
102
RTVSPost2010PropOp47
 70
     1
102
RTVSPost2010Prop48
 90
       50
102
RTVSPost2010PropOp48
 70
     1
102
RTVSPost2010Prop49
280
     0
102
RTVSPost2010PropOp49
 70
     1
102
RTVSPost2010Prop50
 90
       50
102
RTVSPost2010PropOp50
 70
     1
102
RTVSPost2010Prop51ColorIndex
 90
      256
102
RTVSPost2010Prop51ColorRGB
 90
-16777216
102
RTVSPost2010PropOp51
 70
     0
102
RTVSPost2010Prop52
140
1.0
102
RTVSPost2010PropOp52
 70
     0
102
RTVSPost2010Prop53
 90
        2
102
RTVSPost2010PropOp53
 70
     1
102
RTVSPost2010Prop54
  1
strokes_ogs.tif
102
RTVSPost2010PropOp54
 70
     1
102
RTVSPost2010Prop55
280
     0
102
RTVSPost2010PropOp55
 70
     1
102
RTVSPost2010Prop56
140
1.0
102
RTVSPost2010PropOp56
 70
     1
102
RTVSPost2010Prop57
140
1.0
102
RTVSPost2010PropOp57
 70
     1
  0
XRECORD
  5
356
102
{ACAD_REACTORS
330
355
102
}
330
355
100
AcDbXrecord
280
     1
102
RTVSPropertyOp0
 70
     0
102
RTVSPropertyOp1
 70
     0
102
RTVSPropertyOp2
 70
     0
102
RTVSPropertyOp3
 70
     0
102
RTVSPropertyOp4
 70
     0
102
RTVSPropertyOp5
 70
     0
102
RTVSPropertyOp6
 70
     0
102
RTVSPropertyOp7
 70
     0
102
RTVSPropertyOp8
 70
     0
102
RTVSPropertyOp9
 70
     0
102
RTVSPropertyOp10
 70
     0
102
RTVSPropertyOp11
 70
     0
102
RTVSPropertyOp12
 70
     0
102
RTVSPropertyOp13
 70
     0
102
RTVSPropertyOp14
 70
     2
102
RTVSPropertyOp15
 70
     0
102
RTVSPropertyOp16
 70
     0
102
RTVSPropertyOp17
 70
     0
102
RTVSPropertyOp18
 70
     0
102
RTVSPropertyOp19
 70
     0
102
RTVSPropertyOp20
 70
     0
102
RTVSPropertyOp21
 70
     0
102
RTVSPropertyOp22
 70
     0
102
RTVSPropertyOp23
 70
     0
102
RTVSPropertyOp24
 70
     0
102
RTVSPropertyOp25
 70
     0
102
RTVSPropertyOp26
 70
     0
102
RTVSPropertyOp27
 70
     0
102
RTVSPropertyOp28
 70
     0
102
RTVSPropertyOp29
 70
     0
102
RTVSPropertyOp30
 70
     0
102
RTVSPropertyOp31
 70
     0
102
RTVSPropertyOp32
 70
     0
102
RTVSPropertyOp33
 70
     0
102
RTVSPropertyOp34
 70
     0
102
RTVSPropertyOp35
 70
     0
102
RTVSPropertyOp36
 70
     0
102
RTVSPropertyOp37
 70
     0
102
RTVSPropertyOp38
 70
     0
102
RTVSPropertyOp39
 70
     0
102
RTVSPropertyOp40
 70
     0
102
RTVSPropertyOp41
 70
     0
102
RTVSPropertyOp42
 70
     0
102
RTVSPropertyOp43
 70
     0
102
RTVSPropertyOp44
 70
     0
102
RTVSPropertyOp45
 70
     0
102
RTVSPropertyOp46
 70
     0
102
RTVSPropertyOp47
 70
     0
102
RTVSPropertyOp48
 70
     0
102
RTVSPropertyOp49
 70
     0
102
RTVSPropertyOp50
 70
     0
102
RTVSPropertyOp51
 70
     0
102
RTVSPropertyOp52
 70
     0
102
RTVSPropertyOp53
 70
     0
102
RTVSPropertyOp54
 70
     0
102
RTVSPropertyOp55
 70
     0
102
RTVSPropertyOp56
 70
     0
102
RTVSPropertyOp57
 70
     0
102
RTVSPost2010Prop28
280
     0
102
RTVSPost2010PropOp28
 70
     0
102
RTVSPost2010Prop29
280
     1
102
RTVSPost2010PropOp29
 70
     0
102
RTVSPost2010Prop30
280
     1
102
RTVSPost2010PropOp30
 70
     0
102
RTVSPost2010Prop31
280
     0
102
RTVSPost2010PropOp31
 70
     0
102
RTVSPost2010Prop32
280
     0
102
RTVSPost2010PropOp32
 70
     0
102
RTVSPost2010Prop33
280
     0
102
RTVSPost2010PropOp33
 70
     0
102
RTVSPost2010Prop34
280
     0
102
RTVSPost2010PropOp34
 70
     0
102
RTVSPost2010Prop35
280
     0
102
RTVSPost2010PropOp35
 70
     0
102
RTVSPost2010Prop36
280
     0
102
RTVSPost2010PropOp36
 70
     0
102
RTVSPost2010Prop37
 90
       50
102
RTVSPost2010PropOp37
 70
     0
102
RTVSPost2010Prop38
140
0.0
102
RTVSPost2010PropOp38
 70
     0
102
RTVSPost2010Prop39
140
1.0
102
RTVSPost2010PropOp39
 70
     0
102
RTVSPost2010Prop40
 90
        0
102
RTVSPost2010PropOp40
 70
     0
102
RTVSPost2010Prop41ColorIndex
 90
       18
102
RTVSPost2010Prop41ColorRGB
 90
        0
102
RTVSPost2010PropOp41
 70
     0
102
RTVSPost2010Prop42
 90
       50
102
RTVSPost2010PropOp42
 70
     0
102
RTVSPost2010Prop43
 90
        3
102
RTVSPost2010PropOp43
 70
     0
102
RTVSPost2010Prop44ColorIndex
 90
        5
102
RTVSPost2010Prop44ColorRGB
 90
      255
102
RTVSPost2010PropOp44
 70
     0
102
RTVSPost2010Prop45
280
     0
102
RTVSPost2010PropOp45
 70
     0
102
RTVSPost2010Prop46
 90
       50
102
RTVSPost2010PropOp46
 70
     0
102
RTVSPost2010Prop47
 90
       50
102
RTVSPost2010PropOp47
 70
     0
102
RTVSPost2010Prop48
 90
       50
102
RTVSPost2010PropOp48
 70
     0
102
RTVSPost2010Prop49
280
     0
102
RTVSPost2010PropOp49
 70
     0
102
RTVSPost2010Prop50
 90
       50
102
RTVSPost2010PropOp50
 70
     0
102
RTVSPost2010Prop51ColorIndex
 90
      256
102
RTVSPost2010Prop51ColorRGB
 90
-16777216
102
RTVSPost2010PropOp51
 70
     0
102
RTVSPost2010Prop52
140
1.0
102
RTVSPost2010PropOp52
 70
     0
102
RTVSPost2010Prop53
 90
        2
102
RTVSPost2010PropOp53
 70
     0
102
RTVSPost2010Prop54
  1
strokes_ogs.tif
102
RTVSPost2010PropOp54
 70
     0
102
RTVSPost2010Prop55
280
     0
102
RTVSPost2010PropOp55
 70
     0
102
RTVSPost2010Prop56
140
1.0
102
RTVSPost2010PropOp56
 70
     0
102
RTVSPost2010Prop57
140
1.0
102
RTVSPost2010PropOp57
 70
     0
  0
XRECORD
  5
34E
102
{ACAD_REACTORS
330
34D
102
}
330
34D
100
AcDbXrecord
280
     1
102
RTVSPropertyOp0
 70
     1
102
RTVSPropertyOp1
 70
     1
102
RTVSPropertyOp2
 70
     1
102
RTVSPropertyOp3
 70
     1
102
RTVSPropertyOp4
 70
     1
102
RTVSPropertyOp5
 70
     1
102
RTVSPropertyOp6
 70
     1
102
RTVSPropertyOp7
 70
     1
102
RTVSPropertyOp8
 70
     1
102
RTVSPropertyOp9
 70
     1
102
RTVSPropertyOp10
 70
     1
102
RTVSPropertyOp11
 70
     1
102
RTVSPropertyOp12
 70
     1
102
RTVSPropertyOp13
 70
     1
102
RTVSPropertyOp14
 70
     1
102
RTVSPropertyOp15
 70
     1
102
RTVSPropertyOp16
 70
     1
102
RTVSPropertyOp17
 70
     1
102
RTVSPropertyOp18
 70
     1
102
RTVSPropertyOp19
 70
     1
102
RTVSPropertyOp20
 70
     1
102
RTVSPropertyOp21
 70
     1
102
RTVSPropertyOp22
 70
     1
102
RTVSPropertyOp23
 70
     1
102
RTVSPropertyOp24
 70
     1
102
RTVSPropertyOp25
 70
     1
102
RTVSPropertyOp26
 70
     1
102
RTVSPropertyOp27
 70
     1
102
RTVSPropertyOp28
 70
     1
102
RTVSPropertyOp29
 70
     1
102
RTVSPropertyOp30
 70
     1
102
RTVSPropertyOp31
 70
     1
102
RTVSPropertyOp32
 70
     1
102
RTVSPropertyOp33
 70
     1
102
RTVSPropertyOp34
 70
     1
102
RTVSPropertyOp35
 70
     1
102
RTVSPropertyOp36
 70
     1
102
RTVSPropertyOp37
 70
     1
102
RTVSPropertyOp38
 70
     1
102
RTVSPropertyOp39
 70
     1
102
RTVSPropertyOp40
 70
     1
102
RTVSPropertyOp41
 70
     1
102
RTVSPropertyOp42
 70
     1
102
RTVSPropertyOp43
 70
     1
102
RTVSPropertyOp44
 70
     1
102
RTVSPropertyOp45
 70
     1
102
RTVSPropertyOp46
 70
     1
102
RTVSPropertyOp47
 70
     1
102
RTVSPropertyOp48
 70
     1
102
RTVSPropertyOp49
 70
     1
102
RTVSPropertyOp50
 70
     1
102
RTVSPropertyOp51
 70
     0
102
RTVSPropertyOp52
 70
     0
102
RTVSPropertyOp53
 70
     1
102
RTVSPropertyOp54
 70
     1
102
RTVSPropertyOp55
 70
     1
102
RTVSPropertyOp56
 70
     1
102
RTVSPropertyOp57
 70
     1
102
RTVSPost2010Prop28
280
     0
102
RTVSPost2010PropOp28
 70
     1
102
RTVSPost2010Prop29
280
     1
102
RTVSPost2010PropOp29
 70
     1
102
RTVSPost2010Prop30
280
     1
102
RTVSPost2010PropOp30
 70
     1
102
RTVSPost2010Prop31
280
     0
102
RTVSPost2010PropOp31
 70
     1
102
RTVSPost2010Prop32
280
     0
102
RTVSPost2010PropOp32
 70
     1
102
RTVSPost2010Prop33
280
     0
102
RTVSPost2010PropOp33
 70
     1
102
RTVSPost2010Prop34
280
     0
102
RTVSPost2010PropOp34
 70
     1
102
RTVSPost2010Prop35
280
     0
102
RTVSPost2010PropOp35
 70
     1
102
RTVSPost2010Prop36
280
     0
102
RTVSPost2010PropOp36
 70
     1
102
RTVSPost2010Prop37
 90
       50
102
RTVSPost2010PropOp37
 70
     1
102
RTVSPost2010Prop38
140
0.0
102
RTVSPost2010PropOp38
 70
     1
102
RTVSPost2010Prop39
140
1.0
102
RTVSPost2010PropOp39
 70
     1
102
RTVSPost2010Prop40
 90
        0
102
RTVSPost2010PropOp40
 70
     1
102
RTVSPost2010Prop41ColorIndex
 90
       18
102
RTVSPost2010Prop41ColorRGB
 90
        0
102
RTVSPost2010PropOp41
 70
     1
102
RTVSPost2010Prop42
 90
       50
102
RTVSPost2010PropOp42
 70
     1
102
RTVSPost2010Prop43
 90
        3
102
RTVSPost2010PropOp43
 70
     1
102
RTVSPost2010Prop44ColorIndex
 90
        5
102
RTVSPost2010Prop44ColorRGB
 90
      255
102
RTVSPost2010PropOp44
 70
     1
102
RTVSPost2010Prop45
280
     0
102
RTVSPost2010PropOp45
 70
     1
102
RTVSPost2010Prop46
 90
       50
102
RTVSPost2010PropOp46
 70
     1
102
RTVSPost2010Prop47
 90
       50
102
RTVSPost2010PropOp47
 70
     1
102
RTVSPost2010Prop48
 90
       50
102
RTVSPost2010PropOp48
 70
     1
102
RTVSPost2010Prop49
280
     0
102
RTVSPost2010PropOp49
 70
     1
102
RTVSPost2010Prop50
 90
       50
102
RTVSPost2010PropOp50
 70
     1
102
RTVSPost2010Prop51ColorIndex
 90
      256
102
RTVSPost2010Prop51ColorRGB
 90
-16777216
102
RTVSPost2010PropOp51
 70
     0
102
RTVSPost2010Prop52
140
1.0
102
RTVSPost2010PropOp52
 70
     0
102
RTVSPost2010Prop53
 90
        2
102
RTVSPost2010PropOp53
 70
     1
102
RTVSPost2010Prop54
  1
strokes_ogs.tif
102
RTVSPost2010PropOp54
 70
     1
102
RTVSPost2010Prop55
280
     0
102
RTVSPost2010PropOp55
 70
     1
102
RTVSPost2010Prop56
140
1.0
102
RTVSPost2010PropOp56
 70
     1
102
RTVSPost2010Prop57
140
1.0
102
RTVSPost2010PropOp57
 70
     1
  0
XRECORD
  5
332
102
{ACAD_REACTORS
330
331
102
}
330
331
100
AcDbXrecord
280
     1
102
RTVSPropertyOp0
 70
     1
102
RTVSPropertyOp1
 70
     1
102
RTVSPropertyOp2
 70
     1
102
RTVSPropertyOp3
 70
     1
102
RTVSPropertyOp4
 70
     1
102
RTVSPropertyOp5
 70
     1
102
RTVSPropertyOp6
 70
     1
102
RTVSPropertyOp7
 70
     1
102
RTVSPropertyOp8
 70
     1
102
RTVSPropertyOp9
 70
     1
102
RTVSPropertyOp10
 70
     1
102
RTVSPropertyOp11
 70
     1
102
RTVSPropertyOp12
 70
     1
102
RTVSPropertyOp13
 70
     1
102
RTVSPropertyOp14
 70
     1
102
RTVSPropertyOp15
 70
     1
102
RTVSPropertyOp16
 70
     1
102
RTVSPropertyOp17
 70
     1
102
RTVSPropertyOp18
 70
     1
102
RTVSPropertyOp19
 70
     1
102
RTVSPropertyOp20
 70
     1
102
RTVSPropertyOp21
 70
     1
102
RTVSPropertyOp22
 70
     1
102
RTVSPropertyOp23
 70
     1
102
RTVSPropertyOp24
 70
     1
102
RTVSPropertyOp25
 70
     1
102
RTVSPropertyOp26
 70
     1
102
RTVSPropertyOp27
 70
     1
102
RTVSPropertyOp28
 70
     1
102
RTVSPropertyOp29
 70
     1
102
RTVSPropertyOp30
 70
     1
102
RTVSPropertyOp31
 70
     1
102
RTVSPropertyOp32
 70
     1
102
RTVSPropertyOp33
 70
     1
102
RTVSPropertyOp34
 70
     1
102
RTVSPropertyOp35
 70
     1
102
RTVSPropertyOp36
 70
     1
102
RTVSPropertyOp37
 70
     1
102
RTVSPropertyOp38
 70
     1
102
RTVSPropertyOp39
 70
     1
102
RTVSPropertyOp40
 70
     1
102
RTVSPropertyOp41
 70
     1
102
RTVSPropertyOp42
 70
     1
102
RTVSPropertyOp43
 70
     1
102
RTVSPropertyOp44
 70
     1
102
RTVSPropertyOp45
 70
     1
102
RTVSPropertyOp46
 70
     1
102
RTVSPropertyOp47
 70
     1
102
RTVSPropertyOp48
 70
     1
102
RTVSPropertyOp49
 70
     1
102
RTVSPropertyOp50
 70
     1
102
RTVSPropertyOp51
 70
     0
102
RTVSPropertyOp52
 70
     0
102
RTVSPropertyOp53
 70
     1
102
RTVSPropertyOp54
 70
     1
102
RTVSPropertyOp55
 70
     1
102
RTVSPropertyOp56
 70
     1
102
RTVSPropertyOp57
 70
     1
102
RTVSPost2010Prop28
280
     0
102
RTVSPost2010PropOp28
 70
     1
102
RTVSPost2010Prop29
280
     1
102
RTVSPost2010PropOp29
 70
     1
102
RTVSPost2010Prop30
280
     1
102
RTVSPost2010PropOp30
 70
     1
102
RTVSPost2010Prop31
280
     0
102
RTVSPost2010PropOp31
 70
     1
102
RTVSPost2010Prop32
280
     0
102
RTVSPost2010PropOp32
 70
     1
102
RTVSPost2010Prop33
280
     0
102
RTVSPost2010PropOp33
 70
     1
102
RTVSPost2010Prop34
280
     0
102
RTVSPost2010PropOp34
 70
     1
102
RTVSPost2010Prop35
280
     0
102
RTVSPost2010PropOp35
 70
     1
102
RTVSPost2010Prop36
280
     0
102
RTVSPost2010PropOp36
 70
     1
102
RTVSPost2010Prop37
 90
       50
102
RTVSPost2010PropOp37
 70
     1
102
RTVSPost2010Prop38
140
0.0
102
RTVSPost2010PropOp38
 70
     1
102
RTVSPost2010Prop39
140
1.0
102
RTVSPost2010PropOp39
 70
     1
102
RTVSPost2010Prop40
 90
        0
102
RTVSPost2010PropOp40
 70
     1
102
RTVSPost2010Prop41ColorIndex
 90
       18
102
RTVSPost2010Prop41ColorRGB
 90
        0
102
RTVSPost2010PropOp41
 70
     1
102
RTVSPost2010Prop42
 90
       50
102
RTVSPost2010PropOp42
 70
     1
102
RTVSPost2010Prop43
 90
        3
102
RTVSPost2010PropOp43
 70
     1
102
RTVSPost2010Prop44ColorIndex
 90
        5
102
RTVSPost2010Prop44ColorRGB
 90
      255
102
RTVSPost2010PropOp44
 70
     1
102
RTVSPost2010Prop45
280
     0
102
RTVSPost2010PropOp45
 70
     1
102
RTVSPost2010Prop46
 90
       50
102
RTVSPost2010PropOp46
 70
     1
102
RTVSPost2010Prop47
 90
       50
102
RTVSPost2010PropOp47
 70
     1
102
RTVSPost2010Prop48
 90
       50
102
RTVSPost2010PropOp48
 70
     1
102
RTVSPost2010Prop49
280
     0
102
RTVSPost2010PropOp49
 70
     1
102
RTVSPost2010Prop50
 90
       50
102
RTVSPost2010PropOp50
 70
     1
102
RTVSPost2010Prop51ColorIndex
 90
      256
102
RTVSPost2010Prop51ColorRGB
 90
-16777216
102
RTVSPost2010PropOp51
 70
     0
102
RTVSPost2010Prop52
140
1.0
102
RTVSPost2010PropOp52
 70
     0
102
RTVSPost2010Prop53
 90
        2
102
RTVSPost2010PropOp53
 70
     1
102
RTVSPost2010Prop54
  1
strokes_ogs.tif
102
RTVSPost2010PropOp54
 70
     1
102
RTVSPost2010Prop55
280
     0
102
RTVSPost2010PropOp55
 70
     1
102
RTVSPost2010Prop56
140
1.0
102
RTVSPost2010PropOp56
 70
     1
102
RTVSPost2010Prop57
140
1.0
102
RTVSPost2010PropOp57
 70
     1
  0
XRECORD
  5
334
102
{ACAD_REACTORS
330
333
102
}
330
333
100
AcDbXrecord
280
     1
102
RTVSPropertyOp0
 70
     1
102
RTVSPropertyOp1
 70
     1
102
RTVSPropertyOp2
 70
     1
102
RTVSPropertyOp3
 70
     1
102
RTVSPropertyOp4
 70
     1
102
RTVSPropertyOp5
 70
     1
102
RTVSPropertyOp6
 70
     1
102
RTVSPropertyOp7
 70
     1
102
RTVSPropertyOp8
 70
     1
102
RTVSPropertyOp9
 70
     1
102
RTVSPropertyOp10
 70
     1
102
RTVSPropertyOp11
 70
     1
102
RTVSPropertyOp12
 70
     1
102
RTVSPropertyOp13
 70
     1
102
RTVSPropertyOp14
 70
     1
102
RTVSPropertyOp15
 70
     1
102
RTVSPropertyOp16
 70
     1
102
RTVSPropertyOp17
 70
     1
102
RTVSPropertyOp18
 70
     1
102
RTVSPropertyOp19
 70
     1
102
RTVSPropertyOp20
 70
     1
102
RTVSPropertyOp21
 70
     1
102
RTVSPropertyOp22
 70
     1
102
RTVSPropertyOp23
 70
     1
102
RTVSPropertyOp24
 70
     1
102
RTVSPropertyOp25
 70
     1
102
RTVSPropertyOp26
 70
     1
102
RTVSPropertyOp27
 70
     1
102
RTVSPropertyOp28
 70
     1
102
RTVSPropertyOp29
 70
     1
102
RTVSPropertyOp30
 70
     1
102
RTVSPropertyOp31
 70
     1
102
RTVSPropertyOp32
 70
     1
102
RTVSPropertyOp33
 70
     1
102
RTVSPropertyOp34
 70
     1
102
RTVSPropertyOp35
 70
     1
102
RTVSPropertyOp36
 70
     1
102
RTVSPropertyOp37
 70
     1
102
RTVSPropertyOp38
 70
     1
102
RTVSPropertyOp39
 70
     1
102
RTVSPropertyOp40
 70
     1
102
RTVSPropertyOp41
 70
     1
102
RTVSPropertyOp42
 70
     1
102
RTVSPropertyOp43
 70
     1
102
RTVSPropertyOp44
 70
     1
102
RTVSPropertyOp45
 70
     1
102
RTVSPropertyOp46
 70
     1
102
RTVSPropertyOp47
 70
     1
102
RTVSPropertyOp48
 70
     1
102
RTVSPropertyOp49
 70
     1
102
RTVSPropertyOp50
 70
     1
102
RTVSPropertyOp51
 70
     0
102
RTVSPropertyOp52
 70
     0
102
RTVSPropertyOp53
 70
     1
102
RTVSPropertyOp54
 70
     1
102
RTVSPropertyOp55
 70
     1
102
RTVSPropertyOp56
 70
     1
102
RTVSPropertyOp57
 70
     1
102
RTVSPost2010Prop28
280
     0
102
RTVSPost2010PropOp28
 70
     1
102
RTVSPost2010Prop29
280
     1
102
RTVSPost2010PropOp29
 70
     1
102
RTVSPost2010Prop30
280
     1
102
RTVSPost2010PropOp30
 70
     1
102
RTVSPost2010Prop31
280
     0
102
RTVSPost2010PropOp31
 70
     1
102
RTVSPost2010Prop32
280
     0
102
RTVSPost2010PropOp32
 70
     1
102
RTVSPost2010Prop33
280
     0
102
RTVSPost2010PropOp33
 70
     1
102
RTVSPost2010Prop34
280
     0
102
RTVSPost2010PropOp34
 70
     1
102
RTVSPost2010Prop35
280
     0
102
RTVSPost2010PropOp35
 70
     1
102
RTVSPost2010Prop36
280
     0
102
RTVSPost2010PropOp36
 70
     1
102
RTVSPost2010Prop37
 90
       50
102
RTVSPost2010PropOp37
 70
     1
102
RTVSPost2010Prop38
140
0.0
102
RTVSPost2010PropOp38
 70
     1
102
RTVSPost2010Prop39
140
1.0
102
RTVSPost2010PropOp39
 70
     1
102
RTVSPost2010Prop40
 90
        0
102
RTVSPost2010PropOp40
 70
     1
102
RTVSPost2010Prop41ColorIndex
 90
       18
102
RTVSPost2010Prop41ColorRGB
 90
        0
102
RTVSPost2010PropOp41
 70
     1
102
RTVSPost2010Prop42
 90
       50
102
RTVSPost2010PropOp42
 70
     1
102
RTVSPost2010Prop43
 90
        3
102
RTVSPost2010PropOp43
 70
     1
102
RTVSPost2010Prop44ColorIndex
 90
        5
102
RTVSPost2010Prop44ColorRGB
 90
      255
102
RTVSPost2010PropOp44
 70
     1
102
RTVSPost2010Prop45
280
     0
102
RTVSPost2010PropOp45
 70
     1
102
RTVSPost2010Prop46
 90
       50
102
RTVSPost2010PropOp46
 70
     1
102
RTVSPost2010Prop47
 90
       50
102
RTVSPost2010PropOp47
 70
     1
102
RTVSPost2010Prop48
 90
       50
102
RTVSPost2010PropOp48
 70
     1
102
RTVSPost2010Prop49
280
     0
102
RTVSPost2010PropOp49
 70
     1
102
RTVSPost2010Prop50
 90
       50
102
RTVSPost2010PropOp50
 70
     1
102
RTVSPost2010Prop51ColorIndex
 90
      256
102
RTVSPost2010Prop51ColorRGB
 90
-16777216
102
RTVSPost2010PropOp51
 70
     0
102
RTVSPost2010Prop52
140
1.0
102
RTVSPost2010PropOp52
 70
     0
102
RTVSPost2010Prop53
 90
        2
102
RTVSPost2010PropOp53
 70
     1
102
RTVSPost2010Prop54
  1
strokes_ogs.tif
102
RTVSPost2010PropOp54
 70
     1
102
RTVSPost2010Prop55
280
     0
102
RTVSPost2010PropOp55
 70
     1
102
RTVSPost2010Prop56
140
1.0
102
RTVSPost2010PropOp56
 70
     1
102
RTVSPost2010Prop57
140
1.0
102
RTVSPost2010PropOp57
 70
     1
  0
XRECORD
  5
336
102
{ACAD_REACTORS
330
335
102
}
330
335
100
AcDbXrecord
280
     1
102
RTVSPropertyOp0
 70
     1
102
RTVSPropertyOp1
 70
     1
102
RTVSPropertyOp2
 70
     1
102
RTVSPropertyOp3
 70
     1
102
RTVSPropertyOp4
 70
     1
102
RTVSPropertyOp5
 70
     1
102
RTVSPropertyOp6
 70
     1
102
RTVSPropertyOp7
 70
     1
102
RTVSPropertyOp8
 70
     1
102
RTVSPropertyOp9
 70
     1
102
RTVSPropertyOp10
 70
     1
102
RTVSPropertyOp11
 70
     1
102
RTVSPropertyOp12
 70
     1
102
RTVSPropertyOp13
 70
     1
102
RTVSPropertyOp14
 70
     1
102
RTVSPropertyOp15
 70
     1
102
RTVSPropertyOp16
 70
     1
102
RTVSPropertyOp17
 70
     1
102
RTVSPropertyOp18
 70
     1
102
RTVSPropertyOp19
 70
     1
102
RTVSPropertyOp20
 70
     1
102
RTVSPropertyOp21
 70
     1
102
RTVSPropertyOp22
 70
     1
102
RTVSPropertyOp23
 70
     1
102
RTVSPropertyOp24
 70
     1
102
RTVSPropertyOp25
 70
     1
102
RTVSPropertyOp26
 70
     1
102
RTVSPropertyOp27
 70
     1
102
RTVSPropertyOp28
 70
     1
102
RTVSPropertyOp29
 70
     1
102
RTVSPropertyOp30
 70
     1
102
RTVSPropertyOp31
 70
     1
102
RTVSPropertyOp32
 70
     1
102
RTVSPropertyOp33
 70
     1
102
RTVSPropertyOp34
 70
     1
102
RTVSPropertyOp35
 70
     1
102
RTVSPropertyOp36
 70
     1
102
RTVSPropertyOp37
 70
     1
102
RTVSPropertyOp38
 70
     1
102
RTVSPropertyOp39
 70
     1
102
RTVSPropertyOp40
 70
     1
102
RTVSPropertyOp41
 70
     1
102
RTVSPropertyOp42
 70
     1
102
RTVSPropertyOp43
 70
     1
102
RTVSPropertyOp44
 70
     1
102
RTVSPropertyOp45
 70
     1
102
RTVSPropertyOp46
 70
     1
102
RTVSPropertyOp47
 70
     1
102
RTVSPropertyOp48
 70
     1
102
RTVSPropertyOp49
 70
     1
102
RTVSPropertyOp50
 70
     1
102
RTVSPropertyOp51
 70
     0
102
RTVSPropertyOp52
 70
     0
102
RTVSPropertyOp53
 70
     1
102
RTVSPropertyOp54
 70
     1
102
RTVSPropertyOp55
 70
     1
102
RTVSPropertyOp56
 70
     1
102
RTVSPropertyOp57
 70
     1
102
RTVSPost2010Prop28
280
     0
102
RTVSPost2010PropOp28
 70
     1
102
RTVSPost2010Prop29
280
     1
102
RTVSPost2010PropOp29
 70
     1
102
RTVSPost2010Prop30
280
     1
102
RTVSPost2010PropOp30
 70
     1
102
RTVSPost2010Prop31
280
     0
102
RTVSPost2010PropOp31
 70
     1
102
RTVSPost2010Prop32
280
     0
102
RTVSPost2010PropOp32
 70
     1
102
RTVSPost2010Prop33
280
     0
102
RTVSPost2010PropOp33
 70
     1
102
RTVSPost2010Prop34
280
     0
102
RTVSPost2010PropOp34
 70
     1
102
RTVSPost2010Prop35
280
     0
102
RTVSPost2010PropOp35
 70
     1
102
RTVSPost2010Prop36
280
     0
102
RTVSPost2010PropOp36
 70
     1
102
RTVSPost2010Prop37
 90
       50
102
RTVSPost2010PropOp37
 70
     1
102
RTVSPost2010Prop38
140
0.0
102
RTVSPost2010PropOp38
 70
     1
102
RTVSPost2010Prop39
140
1.0
102
RTVSPost2010PropOp39
 70
     1
102
RTVSPost2010Prop40
 90
        0
102
RTVSPost2010PropOp40
 70
     1
102
RTVSPost2010Prop41ColorIndex
 90
       18
102
RTVSPost2010Prop41ColorRGB
 90
        0
102
RTVSPost2010PropOp41
 70
     1
102
RTVSPost2010Prop42
 90
       50
102
RTVSPost2010PropOp42
 70
     1
102
RTVSPost2010Prop43
 90
        3
102
RTVSPost2010PropOp43
 70
     1
102
RTVSPost2010Prop44ColorIndex
 90
        5
102
RTVSPost2010Prop44ColorRGB
 90
      255
102
RTVSPost2010PropOp44
 70
     1
102
RTVSPost2010Prop45
280
     0
102
RTVSPost2010PropOp45
 70
     1
102
RTVSPost2010Prop46
 90
       50
102
RTVSPost2010PropOp46
 70
     1
102
RTVSPost2010Prop47
 90
       50
102
RTVSPost2010PropOp47
 70
     1
102
RTVSPost2010Prop48
 90
       50
102
RTVSPost2010PropOp48
 70
     1
102
RTVSPost2010Prop49
280
     0
102
RTVSPost2010PropOp49
 70
     1
102
RTVSPost2010Prop50
 90
       50
102
RTVSPost2010PropOp50
 70
     1
102
RTVSPost2010Prop51ColorIndex
 90
      256
102
RTVSPost2010Prop51ColorRGB
 90
-16777216
102
RTVSPost2010PropOp51
 70
     0
102
RTVSPost2010Prop52
140
1.0
102
RTVSPost2010PropOp52
 70
     0
102
RTVSPost2010Prop53
 90
        2
102
RTVSPost2010PropOp53
 70
     1
102
RTVSPost2010Prop54
  1
strokes_ogs.tif
102
RTVSPost2010PropOp54
 70
     1
102
RTVSPost2010Prop55
280
     0
102
RTVSPost2010PropOp55
 70
     1
102
RTVSPost2010Prop56
140
1.0
102
RTVSPost2010PropOp56
 70
     1
102
RTVSPost2010Prop57
140
1.0
102
RTVSPost2010PropOp57
 70
     1
  0
XRECORD
  5
338
102
{ACAD_REACTORS
330
337
102
}
330
337
100
AcDbXrecord
280
     1
102
RTVSPropertyOp0
 70
     1
102
RTVSPropertyOp1
 70
     1
102
RTVSPropertyOp2
 70
     1
102
RTVSPropertyOp3
 70
     1
102
RTVSPropertyOp4
 70
     1
102
RTVSPropertyOp5
 70
     1
102
RTVSPropertyOp6
 70
     1
102
RTVSPropertyOp7
 70
     1
102
RTVSPropertyOp8
 70
     1
102
RTVSPropertyOp9
 70
     1
102
RTVSPropertyOp10
 70
     1
102
RTVSPropertyOp11
 70
     1
102
RTVSPropertyOp12
 70
     1
102
RTVSPropertyOp13
 70
     1
102
RTVSPropertyOp14
 70
     1
102
RTVSPropertyOp15
 70
     1
102
RTVSPropertyOp16
 70
     1
102
RTVSPropertyOp17
 70
     1
102
RTVSPropertyOp18
 70
     1
102
RTVSPropertyOp19
 70
     1
102
RTVSPropertyOp20
 70
     1
102
RTVSPropertyOp21
 70
     1
102
RTVSPropertyOp22
 70
     1
102
RTVSPropertyOp23
 70
     1
102
RTVSPropertyOp24
 70
     1
102
RTVSPropertyOp25
 70
     1
102
RTVSPropertyOp26
 70
     1
102
RTVSPropertyOp27
 70
     1
102
RTVSPropertyOp28
 70
     1
102
RTVSPropertyOp29
 70
     1
102
RTVSPropertyOp30
 70
     1
102
RTVSPropertyOp31
 70
     1
102
RTVSPropertyOp32
 70
     1
102
RTVSPropertyOp33
 70
     1
102
RTVSPropertyOp34
 70
     1
102
RTVSPropertyOp35
 70
     1
102
RTVSPropertyOp36
 70
     1
102
RTVSPropertyOp37
 70
     1
102
RTVSPropertyOp38
 70
     1
102
RTVSPropertyOp39
 70
     1
102
RTVSPropertyOp40
 70
     1
102
RTVSPropertyOp41
 70
     1
102
RTVSPropertyOp42
 70
     1
102
RTVSPropertyOp43
 70
     1
102
RTVSPropertyOp44
 70
     1
102
RTVSPropertyOp45
 70
     1
102
RTVSPropertyOp46
 70
     1
102
RTVSPropertyOp47
 70
     1
102
RTVSPropertyOp48
 70
     1
102
RTVSPropertyOp49
 70
     1
102
RTVSPropertyOp50
 70
     1
102
RTVSPropertyOp51
 70
     0
102
RTVSPropertyOp52
 70
     0
102
RTVSPropertyOp53
 70
     1
102
RTVSPropertyOp54
 70
     1
102
RTVSPropertyOp55
 70
     1
102
RTVSPropertyOp56
 70
     1
102
RTVSPropertyOp57
 70
     1
102
RTVSPost2010Prop28
280
     0
102
RTVSPost2010PropOp28
 70
     1
102
RTVSPost2010Prop29
280
     1
102
RTVSPost2010PropOp29
 70
     1
102
RTVSPost2010Prop30
280
     1
102
RTVSPost2010PropOp30
 70
     1
102
RTVSPost2010Prop31
280
     0
102
RTVSPost2010PropOp31
 70
     1
102
RTVSPost2010Prop32
280
     0
102
RTVSPost2010PropOp32
 70
     1
102
RTVSPost2010Prop33
280
     0
102
RTVSPost2010PropOp33
 70
     1
102
RTVSPost2010Prop34
280
     0
102
RTVSPost2010PropOp34
 70
     1
102
RTVSPost2010Prop35
280
     0
102
RTVSPost2010PropOp35
 70
     1
102
RTVSPost2010Prop36
280
     0
102
RTVSPost2010PropOp36
 70
     1
102
RTVSPost2010Prop37
 90
       50
102
RTVSPost2010PropOp37
 70
     1
102
RTVSPost2010Prop38
140
0.0
102
RTVSPost2010PropOp38
 70
     1
102
RTVSPost2010Prop39
140
1.0
102
RTVSPost2010PropOp39
 70
     1
102
RTVSPost2010Prop40
 90
        0
102
RTVSPost2010PropOp40
 70
     1
102
RTVSPost2010Prop41ColorIndex
 90
       18
102
RTVSPost2010Prop41ColorRGB
 90
        0
102
RTVSPost2010PropOp41
 70
     1
102
RTVSPost2010Prop42
 90
       50
102
RTVSPost2010PropOp42
 70
     1
102
RTVSPost2010Prop43
 90
        3
102
RTVSPost2010PropOp43
 70
     1
102
RTVSPost2010Prop44ColorIndex
 90
        5
102
RTVSPost2010Prop44ColorRGB
 90
      255
102
RTVSPost2010PropOp44
 70
     1
102
RTVSPost2010Prop45
280
     0
102
RTVSPost2010PropOp45
 70
     1
102
RTVSPost2010Prop46
 90
       50
102
RTVSPost2010PropOp46
 70
     1
102
RTVSPost2010Prop47
 90
       50
102
RTVSPost2010PropOp47
 70
     1
102
RTVSPost2010Prop48
 90
       50
102
RTVSPost2010PropOp48
 70
     1
102
RTVSPost2010Prop49
280
     0
102
RTVSPost2010PropOp49
 70
     1
102
RTVSPost2010Prop50
 90
       50
102
RTVSPost2010PropOp50
 70
     1
102
RTVSPost2010Prop51ColorIndex
 90
      256
102
RTVSPost2010Prop51ColorRGB
 90
-16777216
102
RTVSPost2010PropOp51
 70
     0
102
RTVSPost2010Prop52
140
1.0
102
RTVSPost2010PropOp52
 70
     0
102
RTVSPost2010Prop53
 90
        2
102
RTVSPost2010PropOp53
 70
     1
102
RTVSPost2010Prop54
  1
strokes_ogs.tif
102
RTVSPost2010PropOp54
 70
     1
102
RTVSPost2010Prop55
280
     0
102
RTVSPost2010PropOp55
 70
     1
102
RTVSPost2010Prop56
140
1.0
102
RTVSPost2010PropOp56
 70
     1
102
RTVSPost2010Prop57
140
1.0
102
RTVSPost2010PropOp57
 70
     1
  0
XRECORD
  5
33E
102
{ACAD_REACTORS
330
33D
102
}
330
33D
100
AcDbXrecord
280
     1
102
RTVSPropertyOp0
 70
     1
102
RTVSPropertyOp1
 70
     1
102
RTVSPropertyOp2
 70
     1
102
RTVSPropertyOp3
 70
     1
102
RTVSPropertyOp4
 70
     1
102
RTVSPropertyOp5
 70
     1
102
RTVSPropertyOp6
 70
     1
102
RTVSPropertyOp7
 70
     1
102
RTVSPropertyOp8
 70
     1
102
RTVSPropertyOp9
 70
     1
102
RTVSPropertyOp10
 70
     1
102
RTVSPropertyOp11
 70
     1
102
RTVSPropertyOp12
 70
     1
102
RTVSPropertyOp13
 70
     1
102
RTVSPropertyOp14
 70
     1
102
RTVSPropertyOp15
 70
     1
102
RTVSPropertyOp16
 70
     1
102
RTVSPropertyOp17
 70
     1
102
RTVSPropertyOp18
 70
     1
102
RTVSPropertyOp19
 70
     1
102
RTVSPropertyOp20
 70
     1
102
RTVSPropertyOp21
 70
     1
102
RTVSPropertyOp22
 70
     1
102
RTVSPropertyOp23
 70
     1
102
RTVSPropertyOp24
 70
     1
102
RTVSPropertyOp25
 70
     1
102
RTVSPropertyOp26
 70
     1
102
RTVSPropertyOp27
 70
     1
102
RTVSPropertyOp28
 70
     1
102
RTVSPropertyOp29
 70
     1
102
RTVSPropertyOp30
 70
     1
102
RTVSPropertyOp31
 70
     1
102
RTVSPropertyOp32
 70
     1
102
RTVSPropertyOp33
 70
     1
102
RTVSPropertyOp34
 70
     1
102
RTVSPropertyOp35
 70
     1
102
RTVSPropertyOp36
 70
     1
102
RTVSPropertyOp37
 70
     1
102
RTVSPropertyOp38
 70
     1
102
RTVSPropertyOp39
 70
     1
102
RTVSPropertyOp40
 70
     1
102
RTVSPropertyOp41
 70
     1
102
RTVSPropertyOp42
 70
     1
102
RTVSPropertyOp43
 70
     1
102
RTVSPropertyOp44
 70
     1
102
RTVSPropertyOp45
 70
     1
102
RTVSPropertyOp46
 70
     1
102
RTVSPropertyOp47
 70
     1
102
RTVSPropertyOp48
 70
     1
102
RTVSPropertyOp49
 70
     1
102
RTVSPropertyOp50
 70
     1
102
RTVSPropertyOp51
 70
     0
102
RTVSPropertyOp52
 70
     0
102
RTVSPropertyOp53
 70
     1
102
RTVSPropertyOp54
 70
     1
102
RTVSPropertyOp55
 70
     1
102
RTVSPropertyOp56
 70
     1
102
RTVSPropertyOp57
 70
     1
102
RTVSPost2010Prop28
280
     0
102
RTVSPost2010PropOp28
 70
     1
102
RTVSPost2010Prop29
280
     1
102
RTVSPost2010PropOp29
 70
     1
102
RTVSPost2010Prop30
280
     1
102
RTVSPost2010PropOp30
 70
     1
102
RTVSPost2010Prop31
280
     0
102
RTVSPost2010PropOp31
 70
     1
102
RTVSPost2010Prop32
280
     0
102
RTVSPost2010PropOp32
 70
     1
102
RTVSPost2010Prop33
280
     0
102
RTVSPost2010PropOp33
 70
     1
102
RTVSPost2010Prop34
280
     0
102
RTVSPost2010PropOp34
 70
     1
102
RTVSPost2010Prop35
280
     0
102
RTVSPost2010PropOp35
 70
     1
102
RTVSPost2010Prop36
280
     0
102
RTVSPost2010PropOp36
 70
     1
102
RTVSPost2010Prop37
 90
       50
102
RTVSPost2010PropOp37
 70
     1
102
RTVSPost2010Prop38
140
0.0
102
RTVSPost2010PropOp38
 70
     1
102
RTVSPost2010Prop39
140
1.0
102
RTVSPost2010PropOp39
 70
     1
102
RTVSPost2010Prop40
 90
        0
102
RTVSPost2010PropOp40
 70
     1
102
RTVSPost2010Prop41ColorIndex
 90
       18
102
RTVSPost2010Prop41ColorRGB
 90
        0
102
RTVSPost2010PropOp41
 70
     1
102
RTVSPost2010Prop42
 90
       50
102
RTVSPost2010PropOp42
 70
     1
102
RTVSPost2010Prop43
 90
        3
102
RTVSPost2010PropOp43
 70
     1
102
RTVSPost2010Prop44ColorIndex
 90
        5
102
RTVSPost2010Prop44ColorRGB
 90
      255
102
RTVSPost2010PropOp44
 70
     1
102
RTVSPost2010Prop45
280
     0
102
RTVSPost2010PropOp45
 70
     1
102
RTVSPost2010Prop46
 90
       50
102
RTVSPost2010PropOp46
 70
     1
102
RTVSPost2010Prop47
 90
       50
102
RTVSPost2010PropOp47
 70
     1
102
RTVSPost2010Prop48
 90
       50
102
RTVSPost2010PropOp48
 70
     1
102
RTVSPost2010Prop49
280
     0
102
RTVSPost2010PropOp49
 70
     1
102
RTVSPost2010Prop50
 90
       50
102
RTVSPost2010PropOp50
 70
     1
102
RTVSPost2010Prop51ColorIndex
 90
      256
102
RTVSPost2010Prop51ColorRGB
 90
-16777216
102
RTVSPost2010PropOp51
 70
     0
102
RTVSPost2010Prop52
140
1.0
102
RTVSPost2010PropOp52
 70
     0
102
RTVSPost2010Prop53
 90
        2
102
RTVSPost2010PropOp53
 70
     1
102
RTVSPost2010Prop54
  1
strokes_ogs.tif
102
RTVSPost2010PropOp54
 70
     1
102
RTVSPost2010Prop55
280
     0
102
RTVSPost2010PropOp55
 70
     1
102
RTVSPost2010Prop56
140
1.0
102
RTVSPost2010PropOp56
 70
     1
102
RTVSPost2010Prop57
140
1.0
102
RTVSPost2010PropOp57
 70
     1
  0
XRECORD
  5
352
102
{ACAD_REACTORS
330
351
102
}
330
351
100
AcDbXrecord
280
     1
102
RTVSPropertyOp0
 70
     0
102
RTVSPropertyOp1
 70
     0
102
RTVSPropertyOp2
 70
     0
102
RTVSPropertyOp3
 70
     0
102
RTVSPropertyOp4
 70
     0
102
RTVSPropertyOp5
 70
     0
102
RTVSPropertyOp6
 70
     0
102
RTVSPropertyOp7
 70
     0
102
RTVSPropertyOp8
 70
     0
102
RTVSPropertyOp9
 70
     0
102
RTVSPropertyOp10
 70
     0
102
RTVSPropertyOp11
 70
     0
102
RTVSPropertyOp12
 70
     0
102
RTVSPropertyOp13
 70
     0
102
RTVSPropertyOp14
 70
     2
102
RTVSPropertyOp15
 70
     0
102
RTVSPropertyOp16
 70
     0
102
RTVSPropertyOp17
 70
     0
102
RTVSPropertyOp18
 70
     0
102
RTVSPropertyOp19
 70
     0
102
RTVSPropertyOp20
 70
     0
102
RTVSPropertyOp21
 70
     0
102
RTVSPropertyOp22
 70
     0
102
RTVSPropertyOp23
 70
     0
102
RTVSPropertyOp24
 70
     0
102
RTVSPropertyOp25
 70
     0
102
RTVSPropertyOp26
 70
     0
102
RTVSPropertyOp27
 70
     0
102
RTVSPropertyOp28
 70
     0
102
RTVSPropertyOp29
 70
     0
102
RTVSPropertyOp30
 70
     0
102
RTVSPropertyOp31
 70
     0
102
RTVSPropertyOp32
 70
     0
102
RTVSPropertyOp33
 70
     0
102
RTVSPropertyOp34
 70
     0
102
RTVSPropertyOp35
 70
     0
102
RTVSPropertyOp36
 70
     0
102
RTVSPropertyOp37
 70
     0
102
RTVSPropertyOp38
 70
     0
102
RTVSPropertyOp39
 70
     0
102
RTVSPropertyOp40
 70
     0
102
RTVSPropertyOp41
 70
     0
102
RTVSPropertyOp42
 70
     0
102
RTVSPropertyOp43
 70
     0
102
RTVSPropertyOp44
 70
     0
102
RTVSPropertyOp45
 70
     0
102
RTVSPropertyOp46
 70
     0
102
RTVSPropertyOp47
 70
     0
102
RTVSPropertyOp48
 70
     0
102
RTVSPropertyOp49
 70
     0
102
RTVSPropertyOp50
 70
     0
102
RTVSPropertyOp51
 70
     0
102
RTVSPropertyOp52
 70
     0
102
RTVSPropertyOp53
 70
     0
102
RTVSPropertyOp54
 70
     0
102
RTVSPropertyOp55
 70
     0
102
RTVSPropertyOp56
 70
     0
102
RTVSPropertyOp57
 70
     0
102
RTVSPost2010Prop28
280
     0
102
RTVSPost2010PropOp28
 70
     0
102
RTVSPost2010Prop29
280
     1
102
RTVSPost2010PropOp29
 70
     0
102
RTVSPost2010Prop30
280
     1
102
RTVSPost2010PropOp30
 70
     0
102
RTVSPost2010Prop31
280
     0
102
RTVSPost2010PropOp31
 70
     0
102
RTVSPost2010Prop32
280
     0
102
RTVSPost2010PropOp32
 70
     0
102
RTVSPost2010Prop33
280
     0
102
RTVSPost2010PropOp33
 70
     0
102
RTVSPost2010Prop34
280
     0
102
RTVSPost2010PropOp34
 70
     0
102
RTVSPost2010Prop35
280
     0
102
RTVSPost2010PropOp35
 70
     0
102
RTVSPost2010Prop36
280
     0
102
RTVSPost2010PropOp36
 70
     0
102
RTVSPost2010Prop37
 90
       50
102
RTVSPost2010PropOp37
 70
     0
102
RTVSPost2010Prop38
140
0.0
102
RTVSPost2010PropOp38
 70
     0
102
RTVSPost2010Prop39
140
1.0
102
RTVSPost2010PropOp39
 70
     0
102
RTVSPost2010Prop40
 90
        0
102
RTVSPost2010PropOp40
 70
     0
102
RTVSPost2010Prop41ColorIndex
 90
       18
102
RTVSPost2010Prop41ColorRGB
 90
        0
102
RTVSPost2010PropOp41
 70
     0
102
RTVSPost2010Prop42
 90
       50
102
RTVSPost2010PropOp42
 70
     0
102
RTVSPost2010Prop43
 90
        3
102
RTVSPost2010PropOp43
 70
     0
102
RTVSPost2010Prop44ColorIndex
 90
        5
102
RTVSPost2010Prop44ColorRGB
 90
      255
102
RTVSPost2010PropOp44
 70
     0
102
RTVSPost2010Prop45
280
     0
102
RTVSPost2010PropOp45
 70
     0
102
RTVSPost2010Prop46
 90
       50
102
RTVSPost2010PropOp46
 70
     0
102
RTVSPost2010Prop47
 90
       50
102
RTVSPost2010PropOp47
 70
     0
102
RTVSPost2010Prop48
 90
       50
102
RTVSPost2010PropOp48
 70
     0
102
RTVSPost2010Prop49
280
     0
102
RTVSPost2010PropOp49
 70
     0
102
RTVSPost2010Prop50
 90
       50
102
RTVSPost2010PropOp50
 70
     0
102
RTVSPost2010Prop51ColorIndex
 90
      256
102
RTVSPost2010Prop51ColorRGB
 90
-16777216
102
RTVSPost2010PropOp51
 70
     0
102
RTVSPost2010Prop52
140
1.0
102
RTVSPost2010PropOp52
 70
     0
102
RTVSPost2010Prop53
 90
        2
102
RTVSPost2010PropOp53
 70
     0
102
RTVSPost2010Prop54
  1
strokes_ogs.tif
102
RTVSPost2010PropOp54
 70
     0
102
RTVSPost2010Prop55
280
     0
102
RTVSPost2010PropOp55
 70
     0
102
RTVSPost2010Prop56
140
1.0
102
RTVSPost2010PropOp56
 70
     0
102
RTVSPost2010Prop57
140
1.0
102
RTVSPost2010PropOp57
 70
     0
  0
XRECORD
  5
34C
102
{ACAD_REACTORS
330
34B
102
}
330
34B
100
AcDbXrecord
280
     1
102
RTVSPropertyOp0
 70
     1
102
RTVSPropertyOp1
 70
     1
102
RTVSPropertyOp2
 70
     1
102
RTVSPropertyOp3
 70
     1
102
RTVSPropertyOp4
 70
     1
102
RTVSPropertyOp5
 70
     1
102
RTVSPropertyOp6
 70
     1
102
RTVSPropertyOp7
 70
     1
102
RTVSPropertyOp8
 70
     1
102
RTVSPropertyOp9
 70
     1
102
RTVSPropertyOp10
 70
     1
102
RTVSPropertyOp11
 70
     1
102
RTVSPropertyOp12
 70
     1
102
RTVSPropertyOp13
 70
     1
102
RTVSPropertyOp14
 70
     1
102
RTVSPropertyOp15
 70
     1
102
RTVSPropertyOp16
 70
     1
102
RTVSPropertyOp17
 70
     1
102
RTVSPropertyOp18
 70
     1
102
RTVSPropertyOp19
 70
     1
102
RTVSPropertyOp20
 70
     1
102
RTVSPropertyOp21
 70
     1
102
RTVSPropertyOp22
 70
     1
102
RTVSPropertyOp23
 70
     1
102
RTVSPropertyOp24
 70
     1
102
RTVSPropertyOp25
 70
     1
102
RTVSPropertyOp26
 70
     1
102
RTVSPropertyOp27
 70
     1
102
RTVSPropertyOp28
 70
     1
102
RTVSPropertyOp29
 70
     1
102
RTVSPropertyOp30
 70
     1
102
RTVSPropertyOp31
 70
     1
102
RTVSPropertyOp32
 70
     1
102
RTVSPropertyOp33
 70
     1
102
RTVSPropertyOp34
 70
     1
102
RTVSPropertyOp35
 70
     1
102
RTVSPropertyOp36
 70
     1
102
RTVSPropertyOp37
 70
     1
102
RTVSPropertyOp38
 70
     1
102
RTVSPropertyOp39
 70
     1
102
RTVSPropertyOp40
 70
     1
102
RTVSPropertyOp41
 70
     1
102
RTVSPropertyOp42
 70
     1
102
RTVSPropertyOp43
 70
     1
102
RTVSPropertyOp44
 70
     1
102
RTVSPropertyOp45
 70
     1
102
RTVSPropertyOp46
 70
     1
102
RTVSPropertyOp47
 70
     1
102
RTVSPropertyOp48
 70
     1
102
RTVSPropertyOp49
 70
     1
102
RTVSPropertyOp50
 70
     1
102
RTVSPropertyOp51
 70
     0
102
RTVSPropertyOp52
 70
     0
102
RTVSPropertyOp53
 70
     1
102
RTVSPropertyOp54
 70
     1
102
RTVSPropertyOp55
 70
     1
102
RTVSPropertyOp56
 70
     1
102
RTVSPropertyOp57
 70
     1
102
RTVSPost2010Prop28
280
     0
102
RTVSPost2010PropOp28
 70
     1
102
RTVSPost2010Prop29
280
     1
102
RTVSPost2010PropOp29
 70
     1
102
RTVSPost2010Prop30
280
     1
102
RTVSPost2010PropOp30
 70
     1
102
RTVSPost2010Prop31
280
     0
102
RTVSPost2010PropOp31
 70
     1
102
RTVSPost2010Prop32
280
     0
102
RTVSPost2010PropOp32
 70
     1
102
RTVSPost2010Prop33
280
     0
102
RTVSPost2010PropOp33
 70
     1
102
RTVSPost2010Prop34
280
     0
102
RTVSPost2010PropOp34
 70
     1
102
RTVSPost2010Prop35
280
     0
102
RTVSPost2010PropOp35
 70
     1
102
RTVSPost2010Prop36
280
     0
102
RTVSPost2010PropOp36
 70
     1
102
RTVSPost2010Prop37
 90
       50
102
RTVSPost2010PropOp37
 70
     1
102
RTVSPost2010Prop38
140
0.0
102
RTVSPost2010PropOp38
 70
     1
102
RTVSPost2010Prop39
140
1.0
102
RTVSPost2010PropOp39
 70
     1
102
RTVSPost2010Prop40
 90
        0
102
RTVSPost2010PropOp40
 70
     1
102
RTVSPost2010Prop41ColorIndex
 90
       18
102
RTVSPost2010Prop41ColorRGB
 90
        0
102
RTVSPost2010PropOp41
 70
     1
102
RTVSPost2010Prop42
 90
       50
102
RTVSPost2010PropOp42
 70
     1
102
RTVSPost2010Prop43
 90
        3
102
RTVSPost2010PropOp43
 70
     1
102
RTVSPost2010Prop44ColorIndex
 90
        5
102
RTVSPost2010Prop44ColorRGB
 90
      255
102
RTVSPost2010PropOp44
 70
     1
102
RTVSPost2010Prop45
280
     0
102
RTVSPost2010PropOp45
 70
     1
102
RTVSPost2010Prop46
 90
       50
102
RTVSPost2010PropOp46
 70
     1
102
RTVSPost2010Prop47
 90
       50
102
RTVSPost2010PropOp47
 70
     1
102
RTVSPost2010Prop48
 90
       50
102
RTVSPost2010PropOp48
 70
     1
102
RTVSPost2010Prop49
280
     0
102
RTVSPost2010PropOp49
 70
     1
102
RTVSPost2010Prop50
 90
       50
102
RTVSPost2010PropOp50
 70
     1
102
RTVSPost2010Prop51ColorIndex
 90
      256
102
RTVSPost2010Prop51ColorRGB
 90
-16777216
102
RTVSPost2010PropOp51
 70
     0
102
RTVSPost2010Prop52
140
1.0
102
RTVSPost2010PropOp52
 70
     0
102
RTVSPost2010Prop53
 90
        2
102
RTVSPost2010PropOp53
 70
     1
102
RTVSPost2010Prop54
  1
strokes_ogs.tif
102
RTVSPost2010PropOp54
 70
     1
102
RTVSPost2010Prop55
280
     0
102
RTVSPost2010PropOp55
 70
     1
102
RTVSPost2010Prop56
140
1.0
102
RTVSPost2010PropOp56
 70
     1
102
RTVSPost2010Prop57
140
1.0
102
RTVSPost2010PropOp57
 70
     1
  0
XRECORD
  5
354
102
{ACAD_REACTORS
330
353
102
}
330
353
100
AcDbXrecord
280
     1
102
RTVSPropertyOp0
 70
     0
102
RTVSPropertyOp1
 70
     0
102
RTVSPropertyOp2
 70
     0
102
RTVSPropertyOp3
 70
     0
102
RTVSPropertyOp4
 70
     0
102
RTVSPropertyOp5
 70
     0
102
RTVSPropertyOp6
 70
     0
102
RTVSPropertyOp7
 70
     0
102
RTVSPropertyOp8
 70
     0
102
RTVSPropertyOp9
 70
     0
102
RTVSPropertyOp10
 70
     0
102
RTVSPropertyOp11
 70
     0
102
RTVSPropertyOp12
 70
     0
102
RTVSPropertyOp13
 70
     0
102
RTVSPropertyOp14
 70
     2
102
RTVSPropertyOp15
 70
     0
102
RTVSPropertyOp16
 70
     0
102
RTVSPropertyOp17
 70
     0
102
RTVSPropertyOp18
 70
     0
102
RTVSPropertyOp19
 70
     0
102
RTVSPropertyOp20
 70
     0
102
RTVSPropertyOp21
 70
     0
102
RTVSPropertyOp22
 70
     0
102
RTVSPropertyOp23
 70
     0
102
RTVSPropertyOp24
 70
     0
102
RTVSPropertyOp25
 70
     0
102
RTVSPropertyOp26
 70
     0
102
RTVSPropertyOp27
 70
     0
102
RTVSPropertyOp28
 70
     0
102
RTVSPropertyOp29
 70
     0
102
RTVSPropertyOp30
 70
     0
102
RTVSPropertyOp31
 70
     0
102
RTVSPropertyOp32
 70
     0
102
RTVSPropertyOp33
 70
     0
102
RTVSPropertyOp34
 70
     0
102
RTVSPropertyOp35
 70
     0
102
RTVSPropertyOp36
 70
     0
102
RTVSPropertyOp37
 70
     0
102
RTVSPropertyOp38
 70
     0
102
RTVSPropertyOp39
 70
     0
102
RTVSPropertyOp40
 70
     0
102
RTVSPropertyOp41
 70
     0
102
RTVSPropertyOp42
 70
     0
102
RTVSPropertyOp43
 70
     0
102
RTVSPropertyOp44
 70
     0
102
RTVSPropertyOp45
 70
     0
102
RTVSPropertyOp46
 70
     0
102
RTVSPropertyOp47
 70
     0
102
RTVSPropertyOp48
 70
     0
102
RTVSPropertyOp49
 70
     0
102
RTVSPropertyOp50
 70
     0
102
RTVSPropertyOp51
 70
     0
102
RTVSPropertyOp52
 70
     0
102
RTVSPropertyOp53
 70
     0
102
RTVSPropertyOp54
 70
     0
102
RTVSPropertyOp55
 70
     0
102
RTVSPropertyOp56
 70
     0
102
RTVSPropertyOp57
 70
     0
102
RTVSPost2010Prop28
280
     0
102
RTVSPost2010PropOp28
 70
     0
102
RTVSPost2010Prop29
280
     1
102
RTVSPost2010PropOp29
 70
     0
102
RTVSPost2010Prop30
280
     1
102
RTVSPost2010PropOp30
 70
     0
102
RTVSPost2010Prop31
280
     0
102
RTVSPost2010PropOp31
 70
     0
102
RTVSPost2010Prop32
280
     0
102
RTVSPost2010PropOp32
 70
     0
102
RTVSPost2010Prop33
280
     0
102
RTVSPost2010PropOp33
 70
     0
102
RTVSPost2010Prop34
280
     0
102
RTVSPost2010PropOp34
 70
     0
102
RTVSPost2010Prop35
280
     0
102
RTVSPost2010PropOp35
 70
     0
102
RTVSPost2010Prop36
280
     0
102
RTVSPost2010PropOp36
 70
     0
102
RTVSPost2010Prop37
 90
       50
102
RTVSPost2010PropOp37
 70
     0
102
RTVSPost2010Prop38
140
0.0
102
RTVSPost2010PropOp38
 70
     0
102
RTVSPost2010Prop39
140
1.0
102
RTVSPost2010PropOp39
 70
     0
102
RTVSPost2010Prop40
 90
        0
102
RTVSPost2010PropOp40
 70
     0
102
RTVSPost2010Prop41ColorIndex
 90
       18
102
RTVSPost2010Prop41ColorRGB
 90
        0
102
RTVSPost2010PropOp41
 70
     0
102
RTVSPost2010Prop42
 90
       50
102
RTVSPost2010PropOp42
 70
     0
102
RTVSPost2010Prop43
 90
        3
102
RTVSPost2010PropOp43
 70
     0
102
RTVSPost2010Prop44ColorIndex
 90
        5
102
RTVSPost2010Prop44ColorRGB
 90
      255
102
RTVSPost2010PropOp44
 70
     0
102
RTVSPost2010Prop45
280
     0
102
RTVSPost2010PropOp45
 70
     0
102
RTVSPost2010Prop46
 90
       50
102
RTVSPost2010PropOp46
 70
     0
102
RTVSPost2010Prop47
 90
       50
102
RTVSPost2010PropOp47
 70
     0
102
RTVSPost2010Prop48
 90
       50
102
RTVSPost2010PropOp48
 70
     0
102
RTVSPost2010Prop49
280
     0
102
RTVSPost2010PropOp49
 70
     0
102
RTVSPost2010Prop50
 90
       50
102
RTVSPost2010PropOp50
 70
     0
102
RTVSPost2010Prop51ColorIndex
 90
      256
102
RTVSPost2010Prop51ColorRGB
 90
-16777216
102
RTVSPost2010PropOp51
 70
     0
102
RTVSPost2010Prop52
140
1.0
102
RTVSPost2010PropOp52
 70
     0
102
RTVSPost2010Prop53
 90
        2
102
RTVSPost2010PropOp53
 70
     0
102
RTVSPost2010Prop54
  1
strokes_ogs.tif
102
RTVSPost2010PropOp54
 70
     0
102
RTVSPost2010Prop55
280
     0
102
RTVSPost2010PropOp55
 70
     0
102
RTVSPost2010Prop56
140
1.0
102
RTVSPost2010PropOp56
 70
     0
102
RTVSPost2010Prop57
140
1.0
102
RTVSPost2010PropOp57
 70
     0
  0
XRECORD
  5
342
102
{ACAD_REACTORS
330
341
102
}
330
341
100
AcDbXrecord
280
     1
102
RTVSPropertyOp0
 70
     1
102
RTVSPropertyOp1
 70
     1
102
RTVSPropertyOp2
 70
     1
102
RTVSPropertyOp3
 70
     1
102
RTVSPropertyOp4
 70
     1
102
RTVSPropertyOp5
 70
     1
102
RTVSPropertyOp6
 70
     1
102
RTVSPropertyOp7
 70
     1
102
RTVSPropertyOp8
 70
     1
102
RTVSPropertyOp9
 70
     1
102
RTVSPropertyOp10
 70
     1
102
RTVSPropertyOp11
 70
     1
102
RTVSPropertyOp12
 70
     1
102
RTVSPropertyOp13
 70
     1
102
RTVSPropertyOp14
 70
     1
102
RTVSPropertyOp15
 70
     1
102
RTVSPropertyOp16
 70
     1
102
RTVSPropertyOp17
 70
     1
102
RTVSPropertyOp18
 70
     1
102
RTVSPropertyOp19
 70
     1
102
RTVSPropertyOp20
 70
     1
102
RTVSPropertyOp21
 70
     1
102
RTVSPropertyOp22
 70
     1
102
RTVSPropertyOp23
 70
     1
102
RTVSPropertyOp24
 70
     1
102
RTVSPropertyOp25
 70
     1
102
RTVSPropertyOp26
 70
     1
102
RTVSPropertyOp27
 70
     1
102
RTVSPropertyOp28
 70
     1
102
RTVSPropertyOp29
 70
     1
102
RTVSPropertyOp30
 70
     1
102
RTVSPropertyOp31
 70
     1
102
RTVSPropertyOp32
 70
     1
102
RTVSPropertyOp33
 70
     1
102
RTVSPropertyOp34
 70
     1
102
RTVSPropertyOp35
 70
     1
102
RTVSPropertyOp36
 70
     1
102
RTVSPropertyOp37
 70
     1
102
RTVSPropertyOp38
 70
     1
102
RTVSPropertyOp39
 70
     1
102
RTVSPropertyOp40
 70
     1
102
RTVSPropertyOp41
 70
     1
102
RTVSPropertyOp42
 70
     1
102
RTVSPropertyOp43
 70
     1
102
RTVSPropertyOp44
 70
     1
102
RTVSPropertyOp45
 70
     1
102
RTVSPropertyOp46
 70
     1
102
RTVSPropertyOp47
 70
     1
102
RTVSPropertyOp48
 70
     1
102
RTVSPropertyOp49
 70
     1
102
RTVSPropertyOp50
 70
     1
102
RTVSPropertyOp51
 70
     0
102
RTVSPropertyOp52
 70
     0
102
RTVSPropertyOp53
 70
     1
102
RTVSPropertyOp54
 70
     1
102
RTVSPropertyOp55
 70
     1
102
RTVSPropertyOp56
 70
     1
102
RTVSPropertyOp57
 70
     1
102
RTVSPost2010Prop28
280
     0
102
RTVSPost2010PropOp28
 70
     1
102
RTVSPost2010Prop29
280
     1
102
RTVSPost2010PropOp29
 70
     1
102
RTVSPost2010Prop30
280
     1
102
RTVSPost2010PropOp30
 70
     1
102
RTVSPost2010Prop31
280
     0
102
RTVSPost2010PropOp31
 70
     1
102
RTVSPost2010Prop32
280
     0
102
RTVSPost2010PropOp32
 70
     1
102
RTVSPost2010Prop33
280
     0
102
RTVSPost2010PropOp33
 70
     1
102
RTVSPost2010Prop34
280
     0
102
RTVSPost2010PropOp34
 70
     1
102
RTVSPost2010Prop35
280
     0
102
RTVSPost2010PropOp35
 70
     1
102
RTVSPost2010Prop36
280
     0
102
RTVSPost2010PropOp36
 70
     1
102
RTVSPost2010Prop37
 90
       50
102
RTVSPost2010PropOp37
 70
     1
102
RTVSPost2010Prop38
140
0.0
102
RTVSPost2010PropOp38
 70
     1
102
RTVSPost2010Prop39
140
1.0
102
RTVSPost2010PropOp39
 70
     1
102
RTVSPost2010Prop40
 90
        0
102
RTVSPost2010PropOp40
 70
     1
102
RTVSPost2010Prop41ColorIndex
 90
       18
102
RTVSPost2010Prop41ColorRGB
 90
        0
102
RTVSPost2010PropOp41
 70
     1
102
RTVSPost2010Prop42
 90
       50
102
RTVSPost2010PropOp42
 70
     1
102
RTVSPost2010Prop43
 90
        3
102
RTVSPost2010PropOp43
 70
     1
102
RTVSPost2010Prop44ColorIndex
 90
        5
102
RTVSPost2010Prop44ColorRGB
 90
      255
102
RTVSPost2010PropOp44
 70
     1
102
RTVSPost2010Prop45
280
     0
102
RTVSPost2010PropOp45
 70
     1
102
RTVSPost2010Prop46
 90
       50
102
RTVSPost2010PropOp46
 70
     1
102
RTVSPost2010Prop47
 90
       50
102
RTVSPost2010PropOp47
 70
     1
102
RTVSPost2010Prop48
 90
       50
102
RTVSPost2010PropOp48
 70
     1
102
RTVSPost2010Prop49
280
     0
102
RTVSPost2010PropOp49
 70
     1
102
RTVSPost2010Prop50
 90
       50
102
RTVSPost2010PropOp50
 70
     1
102
RTVSPost2010Prop51ColorIndex
 90
      256
102
RTVSPost2010Prop51ColorRGB
 90
-16777216
102
RTVSPost2010PropOp51
 70
     0
102
RTVSPost2010Prop52
140
1.0
102
RTVSPost2010PropOp52
 70
     0
102
RTVSPost2010Prop53
 90
        2
102
RTVSPost2010PropOp53
 70
     1
102
RTVSPost2010Prop54
  1
strokes_ogs.tif
102
RTVSPost2010PropOp54
 70
     1
102
RTVSPost2010Prop55
280
     0
102
RTVSPost2010PropOp55
 70
     1
102
RTVSPost2010Prop56
140
1.0
102
RTVSPost2010PropOp56
 70
     1
102
RTVSPost2010Prop57
140
1.0
102
RTVSPost2010PropOp57
 70
     1
  0
XRECORD
  5
360
102
{ACAD_REACTORS
330
35F
102
}
330
35F
100
AcDbXrecord
280
     1
102
RTVSPropertyOp0
 70
     1
102
RTVSPropertyOp1
 70
     1
102
RTVSPropertyOp2
 70
     1
102
RTVSPropertyOp3
 70
     1
102
RTVSPropertyOp4
 70
     1
102
RTVSPropertyOp5
 70
     1
102
RTVSPropertyOp6
 70
     1
102
RTVSPropertyOp7
 70
     1
102
RTVSPropertyOp8
 70
     1
102
RTVSPropertyOp9
 70
     1
102
RTVSPropertyOp10
 70
     1
102
RTVSPropertyOp11
 70
     1
102
RTVSPropertyOp12
 70
     1
102
RTVSPropertyOp13
 70
     1
102
RTVSPropertyOp14
 70
     1
102
RTVSPropertyOp15
 70
     1
102
RTVSPropertyOp16
 70
     1
102
RTVSPropertyOp17
 70
     1
102
RTVSPropertyOp18
 70
     1
102
RTVSPropertyOp19
 70
     1
102
RTVSPropertyOp20
 70
     1
102
RTVSPropertyOp21
 70
     1
102
RTVSPropertyOp22
 70
     1
102
RTVSPropertyOp23
 70
     1
102
RTVSPropertyOp24
 70
     1
102
RTVSPropertyOp25
 70
     1
102
RTVSPropertyOp26
 70
     1
102
RTVSPropertyOp27
 70
     1
102
RTVSPropertyOp28
 70
     1
102
RTVSPropertyOp29
 70
     1
102
RTVSPropertyOp30
 70
     1
102
RTVSPropertyOp31
 70
     1
102
RTVSPropertyOp32
 70
     1
102
RTVSPropertyOp33
 70
     1
102
RTVSPropertyOp34
 70
     1
102
RTVSPropertyOp35
 70
     1
102
RTVSPropertyOp36
 70
     1
102
RTVSPropertyOp37
 70
     1
102
RTVSPropertyOp38
 70
     1
102
RTVSPropertyOp39
 70
     1
102
RTVSPropertyOp40
 70
     1
102
RTVSPropertyOp41
 70
     1
102
RTVSPropertyOp42
 70
     1
102
RTVSPropertyOp43
 70
     1
102
RTVSPropertyOp44
 70
     1
102
RTVSPropertyOp45
 70
     1
102
RTVSPropertyOp46
 70
     1
102
RTVSPropertyOp47
 70
     1
102
RTVSPropertyOp48
 70
     1
102
RTVSPropertyOp49
 70
     1
102
RTVSPropertyOp50
 70
     1
102
RTVSPropertyOp51
 70
     0
102
RTVSPropertyOp52
 70
     0
102
RTVSPropertyOp53
 70
     1
102
RTVSPropertyOp54
 70
     1
102
RTVSPropertyOp55
 70
     1
102
RTVSPropertyOp56
 70
     1
102
RTVSPropertyOp57
 70
     1
102
RTVSPost2010Prop28
280
     0
102
RTVSPost2010PropOp28
 70
     1
102
RTVSPost2010Prop29
280
     1
102
RTVSPost2010PropOp29
 70
     1
102
RTVSPost2010Prop30
280
     1
102
RTVSPost2010PropOp30
 70
     1
102
RTVSPost2010Prop31
280
     0
102
RTVSPost2010PropOp31
 70
     1
102
RTVSPost2010Prop32
280
     0
102
RTVSPost2010PropOp32
 70
     1
102
RTVSPost2010Prop33
280
     0
102
RTVSPost2010PropOp33
 70
     1
102
RTVSPost2010Prop34
280
     0
102
RTVSPost2010PropOp34
 70
     1
102
RTVSPost2010Prop35
280
     0
102
RTVSPost2010PropOp35
 70
     1
102
RTVSPost2010Prop36
280
     0
102
RTVSPost2010PropOp36
 70
     1
102
RTVSPost2010Prop37
 90
       50
102
RTVSPost2010PropOp37
 70
     1
102
RTVSPost2010Prop38
140
0.0
102
RTVSPost2010PropOp38
 70
     1
102
RTVSPost2010Prop39
140
1.0
102
RTVSPost2010PropOp39
 70
     1
102
RTVSPost2010Prop40
 90
        0
102
RTVSPost2010PropOp40
 70
     1
102
RTVSPost2010Prop41ColorIndex
 90
       18
102
RTVSPost2010Prop41ColorRGB
 90
        0
102
RTVSPost2010PropOp41
 70
     1
102
RTVSPost2010Prop42
 90
       50
102
RTVSPost2010PropOp42
 70
     1
102
RTVSPost2010Prop43
 90
        3
102
RTVSPost2010PropOp43
 70
     1
102
RTVSPost2010Prop44ColorIndex
 90
        5
102
RTVSPost2010Prop44ColorRGB
 90
      255
102
RTVSPost2010PropOp44
 70
     1
102
RTVSPost2010Prop45
280
     0
102
RTVSPost2010PropOp45
 70
     1
102
RTVSPost2010Prop46
 90
       50
102
RTVSPost2010PropOp46
 70
     1
102
RTVSPost2010Prop47
 90
       50
102
RTVSPost2010PropOp47
 70
     1
102
RTVSPost2010Prop48
 90
       50
102
RTVSPost2010PropOp48
 70
     1
102
RTVSPost2010Prop49
280
     0
102
RTVSPost2010PropOp49
 70
     1
102
RTVSPost2010Prop50
 90
       50
102
RTVSPost2010PropOp50
 70
     1
102
RTVSPost2010Prop51ColorIndex
 90
      256
102
RTVSPost2010Prop51ColorRGB
 90
-16777216
102
RTVSPost2010PropOp51
 70
     0
102
RTVSPost2010Prop52
140
1.0
102
RTVSPost2010PropOp52
 70
     0
102
RTVSPost2010Prop53
 90
        2
102
RTVSPost2010PropOp53
 70
     1
102
RTVSPost2010Prop54
  1
strokes_ogs.tif
102
RTVSPost2010PropOp54
 70
     1
102
RTVSPost2010Prop55
280
     0
102
RTVSPost2010PropOp55
 70
     1
102
RTVSPost2010Prop56
140
1.0
102
RTVSPost2010PropOp56
 70
     1
102
RTVSPost2010Prop57
140
1.0
102
RTVSPost2010PropOp57
 70
     1
  0
XRECORD
  5
35E
102
{ACAD_REACTORS
330
35D
102
}
330
35D
100
AcDbXrecord
280
     1
102
RTVSPropertyOp0
 70
     1
102
RTVSPropertyOp1
 70
     1
102
RTVSPropertyOp2
 70
     1
102
RTVSPropertyOp3
 70
     1
102
RTVSPropertyOp4
 70
     1
102
RTVSPropertyOp5
 70
     1
102
RTVSPropertyOp6
 70
     1
102
RTVSPropertyOp7
 70
     1
102
RTVSPropertyOp8
 70
     1
102
RTVSPropertyOp9
 70
     1
102
RTVSPropertyOp10
 70
     1
102
RTVSPropertyOp11
 70
     1
102
RTVSPropertyOp12
 70
     1
102
RTVSPropertyOp13
 70
     1
102
RTVSPropertyOp14
 70
     1
102
RTVSPropertyOp15
 70
     1
102
RTVSPropertyOp16
 70
     1
102
RTVSPropertyOp17
 70
     1
102
RTVSPropertyOp18
 70
     1
102
RTVSPropertyOp19
 70
     1
102
RTVSPropertyOp20
 70
     1
102
RTVSPropertyOp21
 70
     1
102
RTVSPropertyOp22
 70
     1
102
RTVSPropertyOp23
 70
     1
102
RTVSPropertyOp24
 70
     1
102
RTVSPropertyOp25
 70
     1
102
RTVSPropertyOp26
 70
     1
102
RTVSPropertyOp27
 70
     1
102
RTVSPropertyOp28
 70
     1
102
RTVSPropertyOp29
 70
     1
102
RTVSPropertyOp30
 70
     1
102
RTVSPropertyOp31
 70
     1
102
RTVSPropertyOp32
 70
     1
102
RTVSPropertyOp33
 70
     1
102
RTVSPropertyOp34
 70
     1
102
RTVSPropertyOp35
 70
     1
102
RTVSPropertyOp36
 70
     1
102
RTVSPropertyOp37
 70
     1
102
RTVSPropertyOp38
 70
     1
102
RTVSPropertyOp39
 70
     1
102
RTVSPropertyOp40
 70
     1
102
RTVSPropertyOp41
 70
     1
102
RTVSPropertyOp42
 70
     1
102
RTVSPropertyOp43
 70
     1
102
RTVSPropertyOp44
 70
     1
102
RTVSPropertyOp45
 70
     1
102
RTVSPropertyOp46
 70
     1
102
RTVSPropertyOp47
 70
     1
102
RTVSPropertyOp48
 70
     1
102
RTVSPropertyOp49
 70
     1
102
RTVSPropertyOp50
 70
     1
102
RTVSPropertyOp51
 70
     0
102
RTVSPropertyOp52
 70
     0
102
RTVSPropertyOp53
 70
     1
102
RTVSPropertyOp54
 70
     1
102
RTVSPropertyOp55
 70
     1
102
RTVSPropertyOp56
 70
     1
102
RTVSPropertyOp57
 70
     1
102
RTVSPost2010Prop28
280
     0
102
RTVSPost2010PropOp28
 70
     1
102
RTVSPost2010Prop29
280
     1
102
RTVSPost2010PropOp29
 70
     1
102
RTVSPost2010Prop30
280
     1
102
RTVSPost2010PropOp30
 70
     1
102
RTVSPost2010Prop31
280
     0
102
RTVSPost2010PropOp31
 70
     1
102
RTVSPost2010Prop32
280
     0
102
RTVSPost2010PropOp32
 70
     1
102
RTVSPost2010Prop33
280
     0
102
RTVSPost2010PropOp33
 70
     1
102
RTVSPost2010Prop34
280
     0
102
RTVSPost2010PropOp34
 70
     1
102
RTVSPost2010Prop35
280
     0
102
RTVSPost2010PropOp35
 70
     1
102
RTVSPost2010Prop36
280
     0
102
RTVSPost2010PropOp36
 70
     1
102
RTVSPost2010Prop37
 90
       50
102
RTVSPost2010PropOp37
 70
     1
102
RTVSPost2010Prop38
140
0.0
102
RTVSPost2010PropOp38
 70
     1
102
RTVSPost2010Prop39
140
1.0
102
RTVSPost2010PropOp39
 70
     1
102
RTVSPost2010Prop40
 90
        0
102
RTVSPost2010PropOp40
 70
     1
102
RTVSPost2010Prop41ColorIndex
 90
       18
102
RTVSPost2010Prop41ColorRGB
 90
        0
102
RTVSPost2010PropOp41
 70
     1
102
RTVSPost2010Prop42
 90
       50
102
RTVSPost2010PropOp42
 70
     1
102
RTVSPost2010Prop43
 90
        3
102
RTVSPost2010PropOp43
 70
     1
102
RTVSPost2010Prop44ColorIndex
 90
        5
102
RTVSPost2010Prop44ColorRGB
 90
      255
102
RTVSPost2010PropOp44
 70
     1
102
RTVSPost2010Prop45
280
     0
102
RTVSPost2010PropOp45
 70
     1
102
RTVSPost2010Prop46
 90
       50
102
RTVSPost2010PropOp46
 70
     1
102
RTVSPost2010Prop47
 90
       50
102
RTVSPost2010PropOp47
 70
     1
102
RTVSPost2010Prop48
 90
       50
102
RTVSPost2010PropOp48
 70
     1
102
RTVSPost2010Prop49
280
     0
102
RTVSPost2010PropOp49
 70
     1
102
RTVSPost2010Prop50
 90
       50
102
RTVSPost2010PropOp50
 70
     1
102
RTVSPost2010Prop51ColorIndex
 90
      256
102
RTVSPost2010Prop51ColorRGB
 90
-16777216
102
RTVSPost2010PropOp51
 70
     0
102
RTVSPost2010Prop52
140
1.0
102
RTVSPost2010PropOp52
 70
     0
102
RTVSPost2010Prop53
 90
        2
102
RTVSPost2010PropOp53
 70
     1
102
RTVSPost2010Prop54
  1
strokes_ogs.tif
102
RTVSPost2010PropOp54
 70
     1
102
RTVSPost2010Prop55
280
     0
102
RTVSPost2010PropOp55
 70
     1
102
RTVSPost2010Prop56
140
1.0
102
RTVSPost2010PropOp56
 70
     1
102
RTVSPost2010Prop57
140
1.0
102
RTVSPost2010PropOp57
 70
     1
  0
XRECORD
  5
358
102
{ACAD_REACTORS
330
357
102
}
330
357
100
AcDbXrecord
280
     1
102
RTVSPropertyOp0
 70
     1
102
RTVSPropertyOp1
 70
     1
102
RTVSPropertyOp2
 70
     1
102
RTVSPropertyOp3
 70
     1
102
RTVSPropertyOp4
 70
     1
102
RTVSPropertyOp5
 70
     1
102
RTVSPropertyOp6
 70
     1
102
RTVSPropertyOp7
 70
     1
102
RTVSPropertyOp8
 70
     1
102
RTVSPropertyOp9
 70
     1
102
RTVSPropertyOp10
 70
     1
102
RTVSPropertyOp11
 70
     1
102
RTVSPropertyOp12
 70
     1
102
RTVSPropertyOp13
 70
     1
102
RTVSPropertyOp14
 70
     1
102
RTVSPropertyOp15
 70
     1
102
RTVSPropertyOp16
 70
     1
102
RTVSPropertyOp17
 70
     1
102
RTVSPropertyOp18
 70
     1
102
RTVSPropertyOp19
 70
     1
102
RTVSPropertyOp20
 70
     1
102
RTVSPropertyOp21
 70
     1
102
RTVSPropertyOp22
 70
     1
102
RTVSPropertyOp23
 70
     1
102
RTVSPropertyOp24
 70
     1
102
RTVSPropertyOp25
 70
     1
102
RTVSPropertyOp26
 70
     1
102
RTVSPropertyOp27
 70
     1
102
RTVSPropertyOp28
 70
     1
102
RTVSPropertyOp29
 70
     1
102
RTVSPropertyOp30
 70
     1
102
RTVSPropertyOp31
 70
     1
102
RTVSPropertyOp32
 70
     1
102
RTVSPropertyOp33
 70
     1
102
RTVSPropertyOp34
 70
     1
102
RTVSPropertyOp35
 70
     1
102
RTVSPropertyOp36
 70
     1
102
RTVSPropertyOp37
 70
     1
102
RTVSPropertyOp38
 70
     1
102
RTVSPropertyOp39
 70
     1
102
RTVSPropertyOp40
 70
     1
102
RTVSPropertyOp41
 70
     1
102
RTVSPropertyOp42
 70
     1
102
RTVSPropertyOp43
 70
     1
102
RTVSPropertyOp44
 70
     1
102
RTVSPropertyOp45
 70
     1
102
RTVSPropertyOp46
 70
     1
102
RTVSPropertyOp47
 70
     1
102
RTVSPropertyOp48
 70
     1
102
RTVSPropertyOp49
 70
     1
102
RTVSPropertyOp50
 70
     1
102
RTVSPropertyOp51
 70
     0
102
RTVSPropertyOp52
 70
     0
102
RTVSPropertyOp53
 70
     1
102
RTVSPropertyOp54
 70
     1
102
RTVSPropertyOp55
 70
     1
102
RTVSPropertyOp56
 70
     1
102
RTVSPropertyOp57
 70
     1
102
RTVSPost2010Prop28
280
     0
102
RTVSPost2010PropOp28
 70
     1
102
RTVSPost2010Prop29
280
     1
102
RTVSPost2010PropOp29
 70
     1
102
RTVSPost2010Prop30
280
     1
102
RTVSPost2010PropOp30
 70
     1
102
RTVSPost2010Prop31
280
     0
102
RTVSPost2010PropOp31
 70
     1
102
RTVSPost2010Prop32
280
     0
102
RTVSPost2010PropOp32
 70
     1
102
RTVSPost2010Prop33
280
     0
102
RTVSPost2010PropOp33
 70
     1
102
RTVSPost2010Prop34
280
     0
102
RTVSPost2010PropOp34
 70
     1
102
RTVSPost2010Prop35
280
     0
102
RTVSPost2010PropOp35
 70
     1
102
RTVSPost2010Prop36
280
     0
102
RTVSPost2010PropOp36
 70
     1
102
RTVSPost2010Prop37
 90
       50
102
RTVSPost2010PropOp37
 70
     1
102
RTVSPost2010Prop38
140
0.0
102
RTVSPost2010PropOp38
 70
     1
102
RTVSPost2010Prop39
140
1.0
102
RTVSPost2010PropOp39
 70
     1
102
RTVSPost2010Prop40
 90
        0
102
RTVSPost2010PropOp40
 70
     1
102
RTVSPost2010Prop41ColorIndex
 90
       18
102
RTVSPost2010Prop41ColorRGB
 90
        0
102
RTVSPost2010PropOp41
 70
     1
102
RTVSPost2010Prop42
 90
       50
102
RTVSPost2010PropOp42
 70
     1
102
RTVSPost2010Prop43
 90
        3
102
RTVSPost2010PropOp43
 70
     1
102
RTVSPost2010Prop44ColorIndex
 90
        5
102
RTVSPost2010Prop44ColorRGB
 90
      255
102
RTVSPost2010PropOp44
 70
     1
102
RTVSPost2010Prop45
280
     0
102
RTVSPost2010PropOp45
 70
     1
102
RTVSPost2010Prop46
 90
       50
102
RTVSPost2010PropOp46
 70
     1
102
RTVSPost2010Prop47
 90
       50
102
RTVSPost2010PropOp47
 70
     1
102
RTVSPost2010Prop48
 90
       50
102
RTVSPost2010PropOp48
 70
     1
102
RTVSPost2010Prop49
280
     0
102
RTVSPost2010PropOp49
 70
     1
102
RTVSPost2010Prop50
 90
       50
102
RTVSPost2010PropOp50
 70
     1
102
RTVSPost2010Prop51ColorIndex
 90
      256
102
RTVSPost2010Prop51ColorRGB
 90
-16777216
102
RTVSPost2010PropOp51
 70
     0
102
RTVSPost2010Prop52
140
1.0
102
RTVSPost2010PropOp52
 70
     0
102
RTVSPost2010Prop53
 90
        2
102
RTVSPost2010PropOp53
 70
     1
102
RTVSPost2010Prop54
  1
strokes_ogs.tif
102
RTVSPost2010PropOp54
 70
     1
102
RTVSPost2010Prop55
280
     0
102
RTVSPost2010PropOp55
 70
     1
102
RTVSPost2010Prop56
140
1.0
102
RTVSPost2010PropOp56
 70
     1
102
RTVSPost2010Prop57
140
1.0
102
RTVSPost2010PropOp57
 70
     1
  0
XRECORD
  5
35A
102
{ACAD_REACTORS
330
359
102
}
330
359
100
AcDbXrecord
280
     1
102
RTVSPropertyOp0
 70
     1
102
RTVSPropertyOp1
 70
     1
102
RTVSPropertyOp2
 70
     1
102
RTVSPropertyOp3
 70
     1
102
RTVSPropertyOp4
 70
     1
102
RTVSPropertyOp5
 70
     1
102
RTVSPropertyOp6
 70
     1
102
RTVSPropertyOp7
 70
     1
102
RTVSPropertyOp8
 70
     1
102
RTVSPropertyOp9
 70
     1
102
RTVSPropertyOp10
 70
     1
102
RTVSPropertyOp11
 70
     1
102
RTVSPropertyOp12
 70
     1
102
RTVSPropertyOp13
 70
     1
102
RTVSPropertyOp14
 70
     1
102
RTVSPropertyOp15
 70
     1
102
RTVSPropertyOp16
 70
     1
102
RTVSPropertyOp17
 70
     1
102
RTVSPropertyOp18
 70
     1
102
RTVSPropertyOp19
 70
     1
102
RTVSPropertyOp20
 70
     1
102
RTVSPropertyOp21
 70
     1
102
RTVSPropertyOp22
 70
     1
102
RTVSPropertyOp23
 70
     1
102
RTVSPropertyOp24
 70
     1
102
RTVSPropertyOp25
 70
     1
102
RTVSPropertyOp26
 70
     1
102
RTVSPropertyOp27
 70
     1
102
RTVSPropertyOp28
 70
     1
102
RTVSPropertyOp29
 70
     1
102
RTVSPropertyOp30
 70
     1
102
RTVSPropertyOp31
 70
     1
102
RTVSPropertyOp32
 70
     1
102
RTVSPropertyOp33
 70
     1
102
RTVSPropertyOp34
 70
     1
102
RTVSPropertyOp35
 70
     1
102
RTVSPropertyOp36
 70
     1
102
RTVSPropertyOp37
 70
     1
102
RTVSPropertyOp38
 70
     1
102
RTVSPropertyOp39
 70
     1
102
RTVSPropertyOp40
 70
     1
102
RTVSPropertyOp41
 70
     1
102
RTVSPropertyOp42
 70
     1
102
RTVSPropertyOp43
 70
     1
102
RTVSPropertyOp44
 70
     1
102
RTVSPropertyOp45
 70
     1
102
RTVSPropertyOp46
 70
     1
102
RTVSPropertyOp47
 70
     1
102
RTVSPropertyOp48
 70
     1
102
RTVSPropertyOp49
 70
     1
102
RTVSPropertyOp50
 70
     1
102
RTVSPropertyOp51
 70
     0
102
RTVSPropertyOp52
 70
     0
102
RTVSPropertyOp53
 70
     1
102
RTVSPropertyOp54
 70
     1
102
RTVSPropertyOp55
 70
     1
102
RTVSPropertyOp56
 70
     1
102
RTVSPropertyOp57
 70
     1
102
RTVSPost2010Prop28
280
     0
102
RTVSPost2010PropOp28
 70
     1
102
RTVSPost2010Prop29
280
     1
102
RTVSPost2010PropOp29
 70
     1
102
RTVSPost2010Prop30
280
     1
102
RTVSPost2010PropOp30
 70
     1
102
RTVSPost2010Prop31
280
     0
102
RTVSPost2010PropOp31
 70
     1
102
RTVSPost2010Prop32
280
     0
102
RTVSPost2010PropOp32
 70
     1
102
RTVSPost2010Prop33
280
     0
102
RTVSPost2010PropOp33
 70
     1
102
RTVSPost2010Prop34
280
     0
102
RTVSPost2010PropOp34
 70
     1
102
RTVSPost2010Prop35
280
     0
102
RTVSPost2010PropOp35
 70
     1
102
RTVSPost2010Prop36
280
     0
102
RTVSPost2010PropOp36
 70
     1
102
RTVSPost2010Prop37
 90
       50
102
RTVSPost2010PropOp37
 70
     1
102
RTVSPost2010Prop38
140
0.0
102
RTVSPost2010PropOp38
 70
     1
102
RTVSPost2010Prop39
140
1.0
102
RTVSPost2010PropOp39
 70
     1
102
RTVSPost2010Prop40
 90
        0
102
RTVSPost2010PropOp40
 70
     1
102
RTVSPost2010Prop41ColorIndex
 90
       18
102
RTVSPost2010Prop41ColorRGB
 90
        0
102
RTVSPost2010PropOp41
 70
     1
102
RTVSPost2010Prop42
 90
       50
102
RTVSPost2010PropOp42
 70
     1
102
RTVSPost2010Prop43
 90
        3
102
RTVSPost2010PropOp43
 70
     1
102
RTVSPost2010Prop44ColorIndex
 90
        5
102
RTVSPost2010Prop44ColorRGB
 90
      255
102
RTVSPost2010PropOp44
 70
     1
102
RTVSPost2010Prop45
280
     0
102
RTVSPost2010PropOp45
 70
     1
102
RTVSPost2010Prop46
 90
       50
102
RTVSPost2010PropOp46
 70
     1
102
RTVSPost2010Prop47
 90
       50
102
RTVSPost2010PropOp47
 70
     1
102
RTVSPost2010Prop48
 90
       50
102
RTVSPost2010PropOp48
 70
     1
102
RTVSPost2010Prop49
280
     0
102
RTVSPost2010PropOp49
 70
     1
102
RTVSPost2010Prop50
 90
       50
102
RTVSPost2010PropOp50
 70
     1
102
RTVSPost2010Prop51ColorIndex
 90
      256
102
RTVSPost2010Prop51ColorRGB
 90
-16777216
102
RTVSPost2010PropOp51
 70
     0
102
RTVSPost2010Prop52
140
1.0
102
RTVSPost2010PropOp52
 70
     0
102
RTVSPost2010Prop53
 90
        2
102
RTVSPost2010PropOp53
 70
     1
102
RTVSPost2010Prop54
  1
strokes_ogs.tif
102
RTVSPost2010PropOp54
 70
     1
102
RTVSPost2010Prop55
280
     0
102
RTVSPost2010PropOp55
 70
     1
102
RTVSPost2010Prop56
140
1.0
102
RTVSPost2010PropOp56
 70
     1
102
RTVSPost2010Prop57
140
1.0
102
RTVSPost2010PropOp57
 70
     1
  0
XRECORD
  5
34A
102
{ACAD_REACTORS
330
349
102
}
330
349
100
AcDbXrecord
280
     1
102
RTVSPropertyOp0
 70
     1
102
RTVSPropertyOp1
 70
     1
102
RTVSPropertyOp2
 70
     1
102
RTVSPropertyOp3
 70
     1
102
RTVSPropertyOp4
 70
     1
102
RTVSPropertyOp5
 70
     1
102
RTVSPropertyOp6
 70
     1
102
RTVSPropertyOp7
 70
     1
102
RTVSPropertyOp8
 70
     1
102
RTVSPropertyOp9
 70
     1
102
RTVSPropertyOp10
 70
     1
102
RTVSPropertyOp11
 70
     1
102
RTVSPropertyOp12
 70
     1
102
RTVSPropertyOp13
 70
     1
102
RTVSPropertyOp14
 70
     1
102
RTVSPropertyOp15
 70
     1
102
RTVSPropertyOp16
 70
     1
102
RTVSPropertyOp17
 70
     1
102
RTVSPropertyOp18
 70
     1
102
RTVSPropertyOp19
 70
     1
102
RTVSPropertyOp20
 70
     1
102
RTVSPropertyOp21
 70
     1
102
RTVSPropertyOp22
 70
     1
102
RTVSPropertyOp23
 70
     1
102
RTVSPropertyOp24
 70
     1
102
RTVSPropertyOp25
 70
     1
102
RTVSPropertyOp26
 70
     1
102
RTVSPropertyOp27
 70
     1
102
RTVSPropertyOp28
 70
     1
102
RTVSPropertyOp29
 70
     1
102
RTVSPropertyOp30
 70
     1
102
RTVSPropertyOp31
 70
     1
102
RTVSPropertyOp32
 70
     1
102
RTVSPropertyOp33
 70
     1
102
RTVSPropertyOp34
 70
     1
102
RTVSPropertyOp35
 70
     1
102
RTVSPropertyOp36
 70
     1
102
RTVSPropertyOp37
 70
     1
102
RTVSPropertyOp38
 70
     1
102
RTVSPropertyOp39
 70
     1
102
RTVSPropertyOp40
 70
     1
102
RTVSPropertyOp41
 70
     1
102
RTVSPropertyOp42
 70
     1
102
RTVSPropertyOp43
 70
     1
102
RTVSPropertyOp44
 70
     1
102
RTVSPropertyOp45
 70
     1
102
RTVSPropertyOp46
 70
     1
102
RTVSPropertyOp47
 70
     1
102
RTVSPropertyOp48
 70
     1
102
RTVSPropertyOp49
 70
     1
102
RTVSPropertyOp50
 70
     1
102
RTVSPropertyOp51
 70
     0
102
RTVSPropertyOp52
 70
     0
102
RTVSPropertyOp53
 70
     1
102
RTVSPropertyOp54
 70
     1
102
RTVSPropertyOp55
 70
     1
102
RTVSPropertyOp56
 70
     1
102
RTVSPropertyOp57
 70
     1
102
RTVSPost2010Prop28
280
     0
102
RTVSPost2010PropOp28
 70
     1
102
RTVSPost2010Prop29
280
     1
102
RTVSPost2010PropOp29
 70
     1
102
RTVSPost2010Prop30
280
     1
102
RTVSPost2010PropOp30
 70
     1
102
RTVSPost2010Prop31
280
     0
102
RTVSPost2010PropOp31
 70
     1
102
RTVSPost2010Prop32
280
     0
102
RTVSPost2010PropOp32
 70
     1
102
RTVSPost2010Prop33
280
     0
102
RTVSPost2010PropOp33
 70
     1
102
RTVSPost2010Prop34
280
     0
102
RTVSPost2010PropOp34
 70
     1
102
RTVSPost2010Prop35
280
     0
102
RTVSPost2010PropOp35
 70
     1
102
RTVSPost2010Prop36
280
     0
102
RTVSPost2010PropOp36
 70
     1
102
RTVSPost2010Prop37
 90
       50
102
RTVSPost2010PropOp37
 70
     1
102
RTVSPost2010Prop38
140
0.0
102
RTVSPost2010PropOp38
 70
     1
102
RTVSPost2010Prop39
140
1.0
102
RTVSPost2010PropOp39
 70
     1
102
RTVSPost2010Prop40
 90
        0
102
RTVSPost2010PropOp40
 70
     1
102
RTVSPost2010Prop41ColorIndex
 90
       18
102
RTVSPost2010Prop41ColorRGB
 90
        0
102
RTVSPost2010PropOp41
 70
     1
102
RTVSPost2010Prop42
 90
       50
102
RTVSPost2010PropOp42
 70
     1
102
RTVSPost2010Prop43
 90
        3
102
RTVSPost2010PropOp43
 70
     1
102
RTVSPost2010Prop44ColorIndex
 90
        5
102
RTVSPost2010Prop44ColorRGB
 90
      255
102
RTVSPost2010PropOp44
 70
     1
102
RTVSPost2010Prop45
280
     0
102
RTVSPost2010PropOp45
 70
     1
102
RTVSPost2010Prop46
 90
       50
102
RTVSPost2010PropOp46
 70
     1
102
RTVSPost2010Prop47
 90
       50
102
RTVSPost2010PropOp47
 70
     1
102
RTVSPost2010Prop48
 90
       50
102
RTVSPost2010PropOp48
 70
     1
102
RTVSPost2010Prop49
280
     0
102
RTVSPost2010PropOp49
 70
     1
102
RTVSPost2010Prop50
 90
       50
102
RTVSPost2010PropOp50
 70
     1
102
RTVSPost2010Prop51ColorIndex
 90
      256
102
RTVSPost2010Prop51ColorRGB
 90
-16777216
102
RTVSPost2010PropOp51
 70
     0
102
RTVSPost2010Prop52
140
1.0
102
RTVSPost2010PropOp52
 70
     0
102
RTVSPost2010Prop53
 90
        2
102
RTVSPost2010PropOp53
 70
     1
102
RTVSPost2010Prop54
  1
strokes_ogs.tif
102
RTVSPost2010PropOp54
 70
     1
102
RTVSPost2010Prop55
280
     0
102
RTVSPost2010PropOp55
 70
     1
102
RTVSPost2010Prop56
140
1.0
102
RTVSPost2010PropOp56
 70
     1
102
RTVSPost2010Prop57
140
1.0
102
RTVSPost2010PropOp57
 70
     1
  0
XRECORD
  5
33C
102
{ACAD_REACTORS
330
33B
102
}
330
33B
100
AcDbXrecord
280
     1
102
RTVSPropertyOp0
 70
     1
102
RTVSPropertyOp1
 70
     1
102
RTVSPropertyOp2
 70
     1
102
RTVSPropertyOp3
 70
     1
102
RTVSPropertyOp4
 70
     1
102
RTVSPropertyOp5
 70
     1
102
RTVSPropertyOp6
 70
     1
102
RTVSPropertyOp7
 70
     1
102
RTVSPropertyOp8
 70
     1
102
RTVSPropertyOp9
 70
     1
102
RTVSPropertyOp10
 70
     1
102
RTVSPropertyOp11
 70
     1
102
RTVSPropertyOp12
 70
     1
102
RTVSPropertyOp13
 70
     1
102
RTVSPropertyOp14
 70
     1
102
RTVSPropertyOp15
 70
     1
102
RTVSPropertyOp16
 70
     1
102
RTVSPropertyOp17
 70
     1
102
RTVSPropertyOp18
 70
     1
102
RTVSPropertyOp19
 70
     1
102
RTVSPropertyOp20
 70
     1
102
RTVSPropertyOp21
 70
     1
102
RTVSPropertyOp22
 70
     1
102
RTVSPropertyOp23
 70
     1
102
RTVSPropertyOp24
 70
     1
102
RTVSPropertyOp25
 70
     1
102
RTVSPropertyOp26
 70
     1
102
RTVSPropertyOp27
 70
     1
102
RTVSPropertyOp28
 70
     1
102
RTVSPropertyOp29
 70
     1
102
RTVSPropertyOp30
 70
     1
102
RTVSPropertyOp31
 70
     1
102
RTVSPropertyOp32
 70
     1
102
RTVSPropertyOp33
 70
     1
102
RTVSPropertyOp34
 70
     1
102
RTVSPropertyOp35
 70
     1
102
RTVSPropertyOp36
 70
     1
102
RTVSPropertyOp37
 70
     1
102
RTVSPropertyOp38
 70
     1
102
RTVSPropertyOp39
 70
     1
102
RTVSPropertyOp40
 70
     1
102
RTVSPropertyOp41
 70
     1
102
RTVSPropertyOp42
 70
     1
102
RTVSPropertyOp43
 70
     1
102
RTVSPropertyOp44
 70
     1
102
RTVSPropertyOp45
 70
     1
102
RTVSPropertyOp46
 70
     1
102
RTVSPropertyOp47
 70
     1
102
RTVSPropertyOp48
 70
     1
102
RTVSPropertyOp49
 70
     1
102
RTVSPropertyOp50
 70
     1
102
RTVSPropertyOp51
 70
     0
102
RTVSPropertyOp52
 70
     0
102
RTVSPropertyOp53
 70
     1
102
RTVSPropertyOp54
 70
     1
102
RTVSPropertyOp55
 70
     1
102
RTVSPropertyOp56
 70
     1
102
RTVSPropertyOp57
 70
     1
102
RTVSPost2010Prop28
280
     0
102
RTVSPost2010PropOp28
 70
     1
102
RTVSPost2010Prop29
280
     1
102
RTVSPost2010PropOp29
 70
     1
102
RTVSPost2010Prop30
280
     1
102
RTVSPost2010PropOp30
 70
     1
102
RTVSPost2010Prop31
280
     0
102
RTVSPost2010PropOp31
 70
     1
102
RTVSPost2010Prop32
280
     0
102
RTVSPost2010PropOp32
 70
     1
102
RTVSPost2010Prop33
280
     0
102
RTVSPost2010PropOp33
 70
     1
102
RTVSPost2010Prop34
280
     0
102
RTVSPost2010PropOp34
 70
     1
102
RTVSPost2010Prop35
280
     0
102
RTVSPost2010PropOp35
 70
     1
102
RTVSPost2010Prop36
280
     0
102
RTVSPost2010PropOp36
 70
     1
102
RTVSPost2010Prop37
 90
       50
102
RTVSPost2010PropOp37
 70
     1
102
RTVSPost2010Prop38
140
0.0
102
RTVSPost2010PropOp38
 70
     1
102
RTVSPost2010Prop39
140
1.0
102
RTVSPost2010PropOp39
 70
     1
102
RTVSPost2010Prop40
 90
        0
102
RTVSPost2010PropOp40
 70
     1
102
RTVSPost2010Prop41ColorIndex
 90
       18
102
RTVSPost2010Prop41ColorRGB
 90
        0
102
RTVSPost2010PropOp41
 70
     1
102
RTVSPost2010Prop42
 90
       50
102
RTVSPost2010PropOp42
 70
     1
102
RTVSPost2010Prop43
 90
        3
102
RTVSPost2010PropOp43
 70
     1
102
RTVSPost2010Prop44ColorIndex
 90
        5
102
RTVSPost2010Prop44ColorRGB
 90
      255
102
RTVSPost2010PropOp44
 70
     1
102
RTVSPost2010Prop45
280
     0
102
RTVSPost2010PropOp45
 70
     1
102
RTVSPost2010Prop46
 90
       50
102
RTVSPost2010PropOp46
 70
     1
102
RTVSPost2010Prop47
 90
       50
102
RTVSPost2010PropOp47
 70
     1
102
RTVSPost2010Prop48
 90
       50
102
RTVSPost2010PropOp48
 70
     1
102
RTVSPost2010Prop49
280
     0
102
RTVSPost2010PropOp49
 70
     1
102
RTVSPost2010Prop50
 90
       50
102
RTVSPost2010PropOp50
 70
     1
102
RTVSPost2010Prop51ColorIndex
 90
      256
102
RTVSPost2010Prop51ColorRGB
 90
-16777216
102
RTVSPost2010PropOp51
 70
     0
102
RTVSPost2010Prop52
140
1.0
102
RTVSPost2010PropOp52
 70
     0
102
RTVSPost2010Prop53
 90
        2
102
RTVSPost2010PropOp53
 70
     1
102
RTVSPost2010Prop54
  1
strokes_ogs.tif
102
RTVSPost2010PropOp54
 70
     1
102
RTVSPost2010Prop55
280
     0
102
RTVSPost2010PropOp55
 70
     1
102
RTVSPost2010Prop56
140
1.0
102
RTVSPost2010PropOp56
 70
     1
102
RTVSPost2010Prop57
140
1.0
102
RTVSPost2010PropOp57
 70
     1
  0
XRECORD
  5
35C
102
{ACAD_REACTORS
330
35B
102
}
330
35B
100
AcDbXrecord
280
     1
102
RTVSPropertyOp0
 70
     1
102
RTVSPropertyOp1
 70
     1
102
RTVSPropertyOp2
 70
     1
102
RTVSPropertyOp3
 70
     1
102
RTVSPropertyOp4
 70
     1
102
RTVSPropertyOp5
 70
     1
102
RTVSPropertyOp6
 70
     1
102
RTVSPropertyOp7
 70
     1
102
RTVSPropertyOp8
 70
     1
102
RTVSPropertyOp9
 70
     1
102
RTVSPropertyOp10
 70
     1
102
RTVSPropertyOp11
 70
     1
102
RTVSPropertyOp12
 70
     1
102
RTVSPropertyOp13
 70
     1
102
RTVSPropertyOp14
 70
     1
102
RTVSPropertyOp15
 70
     1
102
RTVSPropertyOp16
 70
     1
102
RTVSPropertyOp17
 70
     1
102
RTVSPropertyOp18
 70
     1
102
RTVSPropertyOp19
 70
     1
102
RTVSPropertyOp20
 70
     1
102
RTVSPropertyOp21
 70
     1
102
RTVSPropertyOp22
 70
     1
102
RTVSPropertyOp23
 70
     1
102
RTVSPropertyOp24
 70
     1
102
RTVSPropertyOp25
 70
     1
102
RTVSPropertyOp26
 70
     1
102
RTVSPropertyOp27
 70
     1
102
RTVSPropertyOp28
 70
     1
102
RTVSPropertyOp29
 70
     1
102
RTVSPropertyOp30
 70
     1
102
RTVSPropertyOp31
 70
     1
102
RTVSPropertyOp32
 70
     1
102
RTVSPropertyOp33
 70
     1
102
RTVSPropertyOp34
 70
     1
102
RTVSPropertyOp35
 70
     1
102
RTVSPropertyOp36
 70
     1
102
RTVSPropertyOp37
 70
     1
102
RTVSPropertyOp38
 70
     1
102
RTVSPropertyOp39
 70
     1
102
RTVSPropertyOp40
 70
     1
102
RTVSPropertyOp41
 70
     1
102
RTVSPropertyOp42
 70
     1
102
RTVSPropertyOp43
 70
     1
102
RTVSPropertyOp44
 70
     1
102
RTVSPropertyOp45
 70
     1
102
RTVSPropertyOp46
 70
     1
102
RTVSPropertyOp47
 70
     1
102
RTVSPropertyOp48
 70
     1
102
RTVSPropertyOp49
 70
     1
102
RTVSPropertyOp50
 70
     1
102
RTVSPropertyOp51
 70
     0
102
RTVSPropertyOp52
 70
     0
102
RTVSPropertyOp53
 70
     1
102
RTVSPropertyOp54
 70
     1
102
RTVSPropertyOp55
 70
     1
102
RTVSPropertyOp56
 70
     1
102
RTVSPropertyOp57
 70
     1
102
RTVSPost2010Prop28
280
     0
102
RTVSPost2010PropOp28
 70
     1
102
RTVSPost2010Prop29
280
     1
102
RTVSPost2010PropOp29
 70
     1
102
RTVSPost2010Prop30
280
     1
102
RTVSPost2010PropOp30
 70
     1
102
RTVSPost2010Prop31
280
     0
102
RTVSPost2010PropOp31
 70
     1
102
RTVSPost2010Prop32
280
     0
102
RTVSPost2010PropOp32
 70
     1
102
RTVSPost2010Prop33
280
     0
102
RTVSPost2010PropOp33
 70
     1
102
RTVSPost2010Prop34
280
     0
102
RTVSPost2010PropOp34
 70
     1
102
RTVSPost2010Prop35
280
     0
102
RTVSPost2010PropOp35
 70
     1
102
RTVSPost2010Prop36
280
     0
102
RTVSPost2010PropOp36
 70
     1
102
RTVSPost2010Prop37
 90
       50
102
RTVSPost2010PropOp37
 70
     1
102
RTVSPost2010Prop38
140
0.0
102
RTVSPost2010PropOp38
 70
     1
102
RTVSPost2010Prop39
140
1.0
102
RTVSPost2010PropOp39
 70
     1
102
RTVSPost2010Prop40
 90
        0
102
RTVSPost2010PropOp40
 70
     1
102
RTVSPost2010Prop41ColorIndex
 90
       18
102
RTVSPost2010Prop41ColorRGB
 90
        0
102
RTVSPost2010PropOp41
 70
     1
102
RTVSPost2010Prop42
 90
       50
102
RTVSPost2010PropOp42
 70
     1
102
RTVSPost2010Prop43
 90
        3
102
RTVSPost2010PropOp43
 70
     1
102
RTVSPost2010Prop44ColorIndex
 90
        5
102
RTVSPost2010Prop44ColorRGB
 90
      255
102
RTVSPost2010PropOp44
 70
     1
102
RTVSPost2010Prop45
280
     0
102
RTVSPost2010PropOp45
 70
     1
102
RTVSPost2010Prop46
 90
       50
102
RTVSPost2010PropOp46
 70
     1
102
RTVSPost2010Prop47
 90
       50
102
RTVSPost2010PropOp47
 70
     1
102
RTVSPost2010Prop48
 90
       50
102
RTVSPost2010PropOp48
 70
     1
102
RTVSPost2010Prop49
280
     0
102
RTVSPost2010PropOp49
 70
     1
102
RTVSPost2010Prop50
 90
       50
102
RTVSPost2010PropOp50
 70
     1
102
RTVSPost2010Prop51ColorIndex
 90
      256
102
RTVSPost2010Prop51ColorRGB
 90
-16777216
102
RTVSPost2010PropOp51
 70
     0
102
RTVSPost2010Prop52
140
1.0
102
RTVSPost2010PropOp52
 70
     0
102
RTVSPost2010Prop53
 90
        2
102
RTVSPost2010PropOp53
 70
     1
102
RTVSPost2010Prop54
  1
strokes_ogs.tif
102
RTVSPost2010PropOp54
 70
     1
102
RTVSPost2010Prop55
280
     0
102
RTVSPost2010PropOp55
 70
     1
102
RTVSPost2010Prop56
140
1.0
102
RTVSPost2010PropOp56
 70
     1
102
RTVSPost2010Prop57
140
1.0
102
RTVSPost2010PropOp57
 70
     1
  0
ENDSEC
  0
EOF
