  0
SECTION
  2
HEADER
  9
$ACADVER
  1
AC1018
  9
$ACADMAINTVER
 70
     0
  9
$DWGCODEPAGE
  3
ANSI_932
  9
$INSBASE
 10
0.0
 20
0.0
 30
0.0
  9
$EXTMIN
 10
-840.0
 20
-594.0
 30
0.0
  9
$EXTMAX
 10
840.0
 20
594.0
 30
0.0
  9
$LIMMIN
 10
-840.0
 20
-594.0
  9
$LIMMAX
 10
840.0
 20
594.0
  9
$ORTHOMODE
 70
     0
  9
$REGENMODE
 70
     1
  9
$FILLMODE
 70
     1
  9
$QTEXTMODE
 70
     0
  9
$MIRRTEXT
 70
     1
  9
$LTSCALE
 40
4.0
  9
$ATTMODE
 70
     1
  9
$TEXTSIZE
 40
2.5
  9
$TRACEWID
 40
1.0
  9
$TEXTSTYLE
  7
Standard
  9
$CLAYER
  8
0
  9
$CELTYPE
  6
ByLayer
  9
$CECOLOR
 62
   256
  9
$CELTSCALE
 40
1.0
  9
$DISPSILH
 70
     0
  9
$DIMSCALE
 40
1.0
  9
$DIMASZ
 40
2.5
  9
$DIMEXO
 40
0.625
  9
$DIMDLI
 40
3.75
  9
$DIMRND
 40
0.0
  9
$DIMDLE
 40
0.0
  9
$DIMEXE
 40
1.25
  9
$DIMTP
 40
0.0
  9
$DIMTM
 40
0.0
  9
$DIMTXT
 40
2.5
  9
$DIMCEN
 40
2.5
  9
$DIMTSZ
 40
0.0
  9
$DIMTOL
 70
     0
  9
$DIMLIM
 70
     0
  9
$DIMTIH
 70
     0
  9
$DIMTOH
 70
     0
  9
$DIMSE1
 70
     0
  9
$DIMSE2
 70
     0
  9
$DIMTAD
 70
     1
  9
$DIMZIN
 70
     8
  9
$DIMBLK
  1

  9
$DIMASO
 70
     1
  9
$DIMSHO
 70
     1
  9
$DIMPOST
  1

  9
$DIMAPOST
  1

  9
$DIMALT
 70
     0
  9
$DIMALTD
 70
     3
  9
$DIMALTF
 40
0.03937007874016
  9
$DIMLFAC
 40
1.0
  9
$DIMTOFL
 70
     1
  9
$DIMTVP
 40
0.0
  9
$DIMTIX
 70
     0
  9
$DIMSOXD
 70
     0
  9
$DIMSAH
 70
     0
  9
$DIMBLK1
  1

  9
$DIMBLK2
  1

  9
$DIMSTYLE
  2
ISO-25
  9
$DIMCLRD
 70
     0
  9
$DIMCLRE
 70
     0
  9
$DIMCLRT
 70
     0
  9
$DIMTFAC
 40
1.0
  9
$DIMGAP
 40
0.625
  9
$DIMJUST
 70
     0
  9
$DIMSD1
 70
     0
  9
$DIMSD2
 70
     0
  9
$DIMTOLJ
 70
     0
  9
$DIMTZIN
 70
     8
  9
$DIMALTZ
 70
     0
  9
$DIMALTTZ
 70
     0
  9
$DIMUPT
 70
     0
  9
$DIMDEC
 70
     2
  9
$DIMTDEC
 70
     2
  9
$DIMALTU
 70
     2
  9
$DIMALTTD
 70
     3
  9
$DIMTXSTY
  7
Standard
  9
$DIMAUNIT
 70
     0
  9
$DIMADEC
 70
     0
  9
$DIMALTRND
 40
0.0
  9
$DIMAZIN
 70
     0
  9
$DIMDSEP
 70
    44
  9
$DIMATFIT
 70
     3
  9
$DIMFRAC
 70
     0
  9
$DIMLDRBLK
  1

  9
$DIMLUNIT
 70
     2
  9
$DIMLWD
 70
    -2
  9
$DIMLWE
 70
    -2
  9
$DIMTMOVE
 70
     0
  9
$LUNITS
 70
     2
  9
$LUPREC
 70
     4
  9
$SKETCHINC
 40
1.0
  9
$FILLETRAD
 40
10.0
  9
$AUNITS
 70
     0
  9
$AUPREC
 70
     0
  9
$MENU
  1
.
  9
$ELEVATION
 40
0.0
  9
$PELEVATION
 40
0.0
  9
$THICKNESS
 40
0.0
  9
$LIMCHECK
 70
     0
  9
$CHAMFERA
 40
0.0
  9
$CHAMFERB
 40
0.0
  9
$CHAMFERC
 40
0.0
  9
$CHAMFERD
 40
0.0
  9
$SKPOLY
 70
     0
  9
$TDCREATE
 40
2460952.467809595
  9
$TDUCREATE
 40
2460952.092809595
  9
$TDUPDATE
 40
2460952.467813634
  9
$TDUUPDATE
 40
2460952.092813634
  9
$TDINDWG
 40
0.0000000116
  9
$TDUSRTIMER
 40
0.0000000116
  9
$USRTIMER
 70
     1
  9
$ANGBASE
 50
0.0
  9
$ANGDIR
 70
     0
  9
$PDMODE
 70
     0
  9
$PDSIZE
 40
0.0
  9
$PLINEWID
 40
0.0
  9
$SPLFRAME
 70
     0
  9
$SPLINETYPE
 70
     6
  9
$SPLINESEGS
 70
     8
  9
$HANDSEED
  5
34E
  9
$SURFTAB1
 70
     6
  9
$SURFTAB2
 70
     6
  9
$SURFTYPE
 70
     6
  9
$SURFU
 70
     6
  9
$SURFV
 70
     6
  9
$UCSBASE
  2

  9
$UCSNAME
  2

  9
$UCSORG
 10
0.0
 20
0.0
 30
0.0
  9
$UCSXDIR
 10
1.0
 20
0.0
 30
0.0
  9
$UCSYDIR
 10
0.0
 20
1.0
 30
0.0
  9
$UCSORTHOREF
  2

  9
$UCSORTHOVIEW
 70
     0
  9
$UCSORGTOP
 10
0.0
 20
0.0
 30
0.0
  9
$UCSORGBOTTOM
 10
0.0
 20
0.0
 30
0.0
  9
$UCSORGLEFT
 10
0.0
 20
0.0
 30
0.0
  9
$UCSORGRIGHT
 10
0.0
 20
0.0
 30
0.0
  9
$UCSORGFRONT
 10
0.0
 20
0.0
 30
0.0
  9
$UCSORGBACK
 10
0.0
 20
0.0
 30
0.0
  9
$PUCSBASE
  2

  9
$PUCSNAME
  2

  9
$PUCSORG
 10
0.0
 20
0.0
 30
0.0
  9
$PUCSXDIR
 10
1.0
 20
0.0
 30
0.0
  9
$PUCSYDIR
 10
0.0
 20
1.0
 30
0.0
  9
$PUCSORTHOREF
  2

  9
$PUCSORTHOVIEW
 70
     0
  9
$PUCSORGTOP
 10
0.0
 20
0.0
 30
0.0
  9
$PUCSORGBOTTOM
 10
0.0
 20
0.0
 30
0.0
  9
$PUCSORGLEFT
 10
0.0
 20
0.0
 30
0.0
  9
$PUCSORGRIGHT
 10
0.0
 20
0.0
 30
0.0
  9
$PUCSORGFRONT
 10
0.0
 20
0.0
 30
0.0
  9
$PUCSORGBACK
 10
0.0
 20
0.0
 30
0.0
  9
$USERI1
 70
     0
  9
$USERI2
 70
     0
  9
$USERI3
 70
     0
  9
$USERI4
 70
     0
  9
$USERI5
 70
     0
  9
$USERR1
 40
0.0
  9
$USERR2
 40
0.0
  9
$USERR3
 40
0.0
  9
$USERR4
 40
0.0
  9
$USERR5
 40
0.0
  9
$WORLDVIEW
 70
     1
  9
$SHADEDGE
 70
     3
  9
$SHADEDIF
 70
    70
  9
$TILEMODE
 70
     1
  9
$MAXACTVP
 70
    64
  9
$PINSBASE
 10
0.0
 20
0.0
 30
0.0
  9
$PLIMCHECK
 70
     0
  9
$PEXTMIN
 10
1.000000000000000E+20
 20
1.000000000000000E+20
 30
1.000000000000000E+20
  9
$PEXTMAX
 10
-1.000000000000000E+20
 20
-1.000000000000000E+20
 30
-1.000000000000000E+20
  9
$PLIMMIN
 10
0.0
 20
0.0
  9
$PLIMMAX
 10
420.0
 20
297.0
  9
$UNITMODE
 70
     0
  9
$VISRETAIN
 70
     1
  9
$PLINEGEN
 70
     0
  9
$PSLTSCALE
 70
     1
  9
$TREEDEPTH
 70
  3020
  9
$CMLSTYLE
  2
Standard
  9
$CMLJUST
 70
     0
  9
$CMLSCALE
 40
20.0
  9
$PROXYGRAPHICS
 70
     1
  9
$MEASUREMENT
 70
     1
  9
$CELWEIGHT
370
    -1
  9
$ENDCAPS
280
     0
  9
$JOINSTYLE
280
     0
  9
$LWDISPLAY
290
     0
  9
$INSUNITS
 70
     4
  9
$HYPERLINKBASE
  1

  9
$STYLESHEET
  1

  9
$XEDIT
290
     1
  9
$CEPSNTYPE
380
     0
  9
$PSTYLEMODE
290
     1
  9
$FINGERPRINTGUID
  2
{EA07A837-4CA4-4569-A388-D089BC75E83F}
  9
$VERSIONGUID
  2
{FAEB1C32-E019-11D5-929B-00C0DF256EC4}
  9
$EXTNAMES
290
     1
  9
$PSVPSCALE
 40
0.0
  9
$OLESTARTUP
290
     0
  9
$SORTENTS
280
   127
  9
$INDEXCTL
280
     0
  9
$HIDETEXT
280
     1
  9
$XCLIPFRAME
290
     0
  9
$HALOGAP
280
     0
  9
$OBSCOLOR
 70
   257
  9
$OBSLTYPE
280
     0
  9
$INTERSECTIONDISPLAY
280
     0
  9
$INTERSECTIONCOLOR
 70
   257
  9
$DIMASSOC
280
     2
  9
$PROJECTNAME
  1

  0
ENDSEC
  0
SECTION
  2
CLASSES
  0
CLASS
  1
ACDBDICTIONARYWDFLT
  2
AcDbDictionaryWithDefault
  3
ObjectDBX Classes
 90
        0
 91
        4
280
     0
281
     0
  0
CLASS
  1
VISUALSTYLE
  2
AcDbVisualStyle
  3
ObjectDBX Classes
 90
     4095
 91
        4
280
     0
281
     0
  0
CLASS
  1
MATERIAL
  2
AcDbMaterial
  3
ObjectDBX Classes
 90
     1153
 91
        4
280
     0
281
     0
  0
CLASS
  1
SCALE
  2
AcDbScale
  3
ObjectDBX Classes
 90
     1153
 91
        4
280
     0
281
     0
  0
CLASS
  1
TABLESTYLE
  2
AcDbTableStyle
  3
ObjectDBX Classes
 90
     4095
 91
        4
280
     0
281
     0
  0
CLASS
  1
MLEADERSTYLE
  2
AcDbMLeaderStyle
  3
ACDB_MLEADERSTYLE_CLASS
 90
     4095
 91
        4
280
     0
281
     0
  0
CLASS
  1
SUN
  2
AcDbSun
  3
SCENEOE
 90
     1153
 91
        4
280
     0
281
     0
  0
CLASS
  1
DICTIONARYVAR
  2
AcDbDictionaryVar
  3
ObjectDBX Classes
 90
        0
 91
        4
280
     0
281
     0
  0
CLASS
  1
CELLSTYLEMAP
  2
AcDbCellStyleMap
  3
ObjectDBX Classes
 90
     1152
 91
        4
280
     0
281
     0
  0
ENDSEC
  0
SECTION
  2
TABLES
  0
TABLE
  2
VPORT
  5
8
102
{ACAD_XDICTIONARY
360
305
102
}
330
0
100
AcDbSymbolTable
 70
     1
  0
VPORT
  5
29
330
8
100
AcDbSymbolTableRecord
100
AcDbViewportTableRecord
  2
*Active
 70
     0
 10
0.0
 20
0.0
 11
1.0
 21
1.0
 12
0.0
 22
0.0
 13
0.0
 23
0.0
 14
10.0
 24
10.0
 15
10.0
 25
10.0
 16
0.0
 26
0.0
 36
1.0
 17
0.0
 27
0.0
 37
0.0
 40
1306.8
 41
1.414141414141414
 42
50.0
 43
0.0
 44
0.0
 50
0.0
 51
0.0
 71
     0
 72
 10000
 73
     1
 74
     3
 75
     0
 76
     0
 77
     0
 78
     0
281
     0
 65
     1
110
0.0
120
0.0
130
0.0
111
1.0
121
0.0
131
0.0
112
0.0
122
1.0
132
0.0
 79
     0
146
0.0
  0
ENDTAB
  0
TABLE
  2
LTYPE
  5
5
330
0
100
AcDbSymbolTable
 70
     3
  0
LTYPE
  5
14
330
5
100
AcDbSymbolTableRecord
100
AcDbLinetypeTableRecord
  2
ByBlock
 70
     0
  3

 72
    65
 73
     0
 40
0.0
  0
LTYPE
  5
15
330
5
100
AcDbSymbolTableRecord
100
AcDbLinetypeTableRecord
  2
ByLayer
 70
     0
  3

 72
    65
 73
     0
 40
0.0
  0
LTYPE
  5
16
330
5
100
AcDbSymbolTableRecord
100
AcDbLinetypeTableRecord
  2
Continuous
 70
     0
  3
Solid line
 72
    65
 73
     0
 40
0.0
  0
LTYPE
  5
6F
330
5
100
AcDbSymbolTableRecord
100
AcDbLinetypeTableRecord
  2
JWW_DASHED1
 70
     0
  3
-  --  --  --  --  --  --  --  -
 72
    65
 73
     2
 40
1.693333333333333
 49
0.8466666666666667
 74
     0
 49
-0.8466666666666667
 74
     0
  0
LTYPE
  5
70
330
5
100
AcDbSymbolTableRecord
100
AcDbLinetypeTableRecord
  2
JWW_CENTER1
 70
     0
  3
-----  --  ----------  --  -----
 72
    65
 73
     4
 40
6.773333333333333
 49
4.233333333333333
 74
     0
 49
-0.8466666666666667
 74
     0
 49
0.8466666666666667
 74
     0
 49
-0.8466666666666667
 74
     0
  0
ENDTAB
  0
TABLE
  2
LAYER
  5
2
330
0
100
AcDbSymbolTable
 70
     8
  0
LAYER
  5
10
330
2
100
AcDbSymbolTableRecord
100
AcDbLayerTableRecord
  2
0
 70
     0
 62
     7
  6
Continuous
370
    -3
390
F
  0
LAYER
  5
71
330
2
100
AcDbSymbolTableRecord
100
AcDbLayerTableRecord
  2
0-0_通り芯
 70
     0
 62
     7
  6
Continuous
370
    -3
390
F
  0
LAYER
  5
72
330
2
100
AcDbSymbolTableRecord
100
AcDbLayerTableRecord
  2
0-1_ピット
 70
     0
 62
     7
  6
Continuous
370
    -3
390
F
  0
LAYER
  5
73
330
2
100
AcDbSymbolTableRecord
100
AcDbLayerTableRecord
  2
0-2_本体（蓋）
 70
     0
 62
     7
  6
Continuous
370
    -3
390
F
  0
LAYER
  5
74
330
2
100
AcDbSymbolTableRecord
100
AcDbLayerTableRecord
  2
0-4_寸法
 70
     0
 62
     7
  6
Continuous
370
    -3
390
F
  0
LAYER
  5
75
330
2
100
AcDbSymbolTableRecord
100
AcDbLayerTableRecord
  2
0-5_文字
 70
     0
 62
     7
  6
Continuous
370
    -3
390
F
  0
LAYER
  5
76
330
2
100
AcDbSymbolTableRecord
100
AcDbLayerTableRecord
  2
F-4ﾚｲﾔ
 70
     0
 62
     7
  6
Continuous
370
    -3
390
F
  0
LAYER
  5
77
330
2
100
AcDbSymbolTableRecord
100
AcDbLayerTableRecord
  2
F-0ﾚｲﾔ
 70
     0
 62
     7
  6
Continuous
370
    -3
390
F
  0
ENDTAB
  0
TABLE
  2
STYLE
  5
3
330
0
100
AcDbSymbolTable
 70
     2
  0
STYLE
  5
11
330
3
100
AcDbSymbolTableRecord
100
AcDbTextStyleTableRecord
  2
Standard
 70
     0
 40
0.0
 41
1.0
 50
0.0
 71
     0
 42
2.5
  3
txt
  4

  0
STYLE
  5
6E
330
3
100
AcDbSymbolTableRecord
100
AcDbTextStyleTableRecord
  2
ＭＳ ゴシック
 70
     0
 40
1.0
 41
1.0
 50
0.0
 71
     0
 42
2.5
  3

  4

1001
ACAD
1000
MS Gothic
1071
    32817
  0
ENDTAB
  0
TABLE
  2
VIEW
  5
6
330
0
100
AcDbSymbolTable
 70
     0
  0
ENDTAB
  0
TABLE
  2
UCS
  5
7
330
0
100
AcDbSymbolTable
 70
     0
  0
ENDTAB
  0
TABLE
  2
APPID
  5
9
330
0
100
AcDbSymbolTable
 70
     2
  0
APPID
  5
12
330
9
100
AcDbSymbolTableRecord
100
AcDbRegAppTableRecord
  2
ACAD
 70
     0
  0
APPID
  5
344
330
9
100
AcDbSymbolTableRecord
100
AcDbRegAppTableRecord
  2
ACAD_MLEADERVER
 70
     0
  0
ENDTAB
  0
TABLE
  2
DIMSTYLE
  5
A
330
0
100
AcDbSymbolTable
 70
     1
100
AcDbDimStyleTable
  0
DIMSTYLE
105
27
330
A
100
AcDbSymbolTableRecord
100
AcDbDimStyleTableRecord
  2
ISO-25
 70
     0
 41
2.5
 42
0.625
 43
3.75
 44
1.25
 73
     0
 74
     0
 77
     1
 78
     8
140
2.5
141
2.5
143
0.03937007874016
147
0.625
171
     3
172
     1
178
     0
271
     2
272
     2
274
     3
278
    44
283
     0
284
     8
340
11
  0
ENDTAB
  0
TABLE
  2
BLOCK_RECORD
  5
1
330
0
100
AcDbSymbolTable
 70
     1
  0
BLOCK_RECORD
  5
1F
330
1
100
AcDbSymbolTableRecord
100
AcDbBlockTableRecord
  2
*Model_Space
340
22
  0
BLOCK_RECORD
  5
1B
330
1
100
AcDbSymbolTableRecord
100
AcDbBlockTableRecord
  2
*Paper_Space
340
1E
  0
BLOCK_RECORD
  5
23
330
1
100
AcDbSymbolTableRecord
100
AcDbBlockTableRecord
  2
*Paper_Space0
340
26
  0
ENDTAB
  0
ENDSEC
  0
SECTION
  2
BLOCKS
  0
BLOCK
  5
20
330
1F
100
AcDbEntity
  8
0
100
AcDbBlockBegin
  2
*Model_Space
 70
     0
 10
0.0
 20
0.0
 30
0.0
  3
*Model_Space
  1

  0
ENDBLK
  5
21
330
1F
100
AcDbEntity
  8
0
100
AcDbBlockEnd
  0
BLOCK
  5
1C
330
1B
100
AcDbEntity
 67
     1
  8
0
100
AcDbBlockBegin
  2
*Paper_Space
 70
     0
 10
0.0
 20
0.0
 30
0.0
  3
*Paper_Space
  1

  0
ENDBLK
  5
1D
330
1B
100
AcDbEntity
 67
     1
  8
0
100
AcDbBlockEnd
  0
BLOCK
  5
24
330
23
100
AcDbEntity
  8
0
100
AcDbBlockBegin
  2
*Paper_Space0
 70
     0
 10
0.0
 20
0.0
 30
0.0
  3
*Paper_Space0
  1

  0
ENDBLK
  5
25
330
23
100
AcDbEntity
  8
0
100
AcDbBlockEnd
  0
ENDSEC
  0
SECTION
  2
ENTITIES
  0
ARC
  5
78
330
1F
100
AcDbEntity
  8
0-0_通り芯
  6
Continuous
 62
     3
370
     9
100
AcDbCircle
 10
-43.49298246701984
 20
340.5126769085214
 30
0.0
 40
125.4999810296136
100
AcDbArc
 50
0.0
 51
180.0
  0
LINE
  5
79
330
1F
100
AcDbEntity
  8
0-1_ピット
  6
Continuous
 62
     2
370
     9
100
AcDbLine
 10
-160.9929989630081
 20
-53.4347800699415
 30
0.0
 11
-160.4929725694269
 21
-51.43477347154618
 31
0.0
  0
LINE
  5
7A
330
1F
100
AcDbEntity
  8
0-1_ピット
  6
Continuous
 62
     2
370
     9
100
AcDbLine
 10
-154.933989514106
 20
-51.43477347154618
 30
0.0
 11
-160.4929725694269
 21
-51.43477347154618
 31
0.0
  0
LINE
  5
7B
330
1F
100
AcDbEntity
  8
0-1_ピット
  6
Continuous
 62
     2
370
     9
100
AcDbLine
 10
-141.4929593726364
 20
-46.43470748759347
 30
0.0
 11
-144.4929692702293
 21
-46.43470748759347
 31
0.0
  0
LINE
  5
7C
330
1F
100
AcDbEntity
  8
0-1_ピット
  6
Continuous
 62
     2
370
     9
100
AcDbLine
 10
74.00698454100382
 20
-53.4347800699415
 30
0.0
 11
73.50695814742278
 21
-51.43477347154618
 31
0.0
  0
LINE
  5
7D
330
1F
100
AcDbEntity
  8
0-1_ピット
  6
Continuous
 62
     2
370
     9
100
AcDbLine
 10
67.9480740680309
 20
-51.43477347154618
 30
0.0
 11
73.50695814742278
 21
-51.43477347154618
 31
0.0
  0
LINE
  5
7E
330
1F
100
AcDbEntity
  8
0-1_ピット
  6
Continuous
 62
     2
370
     9
100
AcDbLine
 10
-117.4929791678222
 20
-59.43479986512727
 30
0.0
 11
-116.4929758686245
 21
-64.43476687315092
 31
0.0
  0
LINE
  5
7F
330
1F
100
AcDbEntity
  8
0-1_ピット
  6
Continuous
 62
     2
370
     9
100
AcDbLine
 10
-105.4929395774506
 20
-59.43479986512727
 30
0.0
 11
-106.4929923646127
 21
-64.43476687315092
 31
0.0
  0
LINE
  5
80
330
1F
100
AcDbEntity
  8
0-1_ピット
  6
Continuous
 62
     2
370
     9
100
AcDbLine
 10
54.50694495063214
 20
-46.43470748759347
 30
0.0
 11
57.50710331211871
 21
-46.43470748759347
 31
0.0
  0
LINE
  5
81
330
1F
100
AcDbEntity
  8
0-1_ピット
  6
Continuous
 62
     4
370
     9
100
AcDbLine
 10
-107.4929956638103
 20
-75.11486347365769
 30
0.0
 11
-115.4929725694269
 21
-75.11486347365769
 31
0.0
  0
LINE
  5
82
330
1F
100
AcDbEntity
  8
0-1_ピット
  6
Continuous
 62
     4
370
     9
100
AcDbLine
 10
-115.4929725694269
 20
-75.11486347365769
 30
0.0
 11
-114.8164720943424
 21
-75.79126497281311
 31
0.0
  0
LINE
  5
83
330
1F
100
AcDbEntity
  8
0-1_ピット
  6
Continuous
 62
     4
370
     9
100
AcDbLine
 10
-114.8164720943424
 20
-75.79126497281311
 30
0.0
 11
-108.1694466509304
 21
-75.79126497281311
 31
0.0
  0
LINE
  5
84
330
1F
100
AcDbEntity
  8
0-1_ピット
  6
Continuous
 62
     4
370
     9
100
AcDbLine
 10
-108.1694466509304
 20
-75.79126497281311
 30
0.0
 11
-107.4929956638103
 21
-75.11486347365769
 31
0.0
  0
LINE
  5
85
330
1F
100
AcDbEntity
  8
0-1_ピット
  6
Continuous
 62
     4
370
     9
100
AcDbLine
 10
-118.9930088606009
 20
-53.65648615102253
 30
0.0
 11
-118.9930088606009
 21
-59.43479986512727
 31
0.0
  0
LINE
  5
86
330
1F
100
AcDbEntity
  8
0-1_ピット
  6
Continuous
 62
     4
370
     9
100
AcDbLine
 10
-103.9929593726364
 20
-53.65648615102253
 30
0.0
 11
-103.9929593726364
 21
-59.43479986512727
 31
0.0
  0
LINE
  5
87
330
1F
100
AcDbEntity
  8
0-1_ピット
  6
Continuous
 62
     4
370
     9
100
AcDbLine
 10
-118.9930088606009
 20
-59.43479986512727
 30
0.0
 11
-103.9929593726364
 21
-59.43479986512727
 31
0.0
  0
LINE
  5
88
330
1F
100
AcDbEntity
  8
0-1_ピット
  6
Continuous
 62
     4
370
     9
100
AcDbLine
 10
-115.2401880466228
 20
-53.65648615102253
 30
0.0
 11
-115.2401880466228
 21
-59.43479986512727
 31
0.0
  0
LINE
  5
89
330
1F
100
AcDbEntity
  8
0-1_ピット
  6
Continuous
 62
     4
370
     9
100
AcDbLine
 10
-107.7457306986499
 20
-53.65648615102253
 30
0.0
 11
-107.7457306986499
 21
-59.43479986512727
 31
0.0
  0
LINE
  5
8A
330
1F
100
AcDbEntity
  8
0-1_ピット
  6
Continuous
 62
     4
370
     9
100
AcDbLine
 10
-117.1165737096296
 20
-52.9347536763604
 30
0.0
 11
-105.8693945236076
 21
-52.9347536763604
 31
0.0
  0
LINE
  5
8B
330
1F
100
AcDbEntity
  8
0-1_ピット
  6
Continuous
 62
     4
370
     9
100
AcDbLine
 10
-107.4929956638103
 20
-36.46783143185024
 30
0.0
 11
-115.4929725694269
 21
-36.46783143185024
 31
0.0
  0
LINE
  5
8C
330
1F
100
AcDbEntity
  8
0-1_ピット
  6
Continuous
 62
     4
370
     9
100
AcDbLine
 10
-115.4929725694269
 20
-36.46783143185024
 30
0.0
 11
-114.8164720943424
 21
-35.79123198083676
 31
0.0
  0
LINE
  5
8D
330
1F
100
AcDbEntity
  8
0-1_ピット
  6
Continuous
 62
     4
370
     9
100
AcDbLine
 10
-114.8164720943424
 20
-35.79123198083676
 30
0.0
 11
-108.1694466509304
 21
-35.79123198083676
 31
0.0
  0
LINE
  5
8E
330
1F
100
AcDbEntity
  8
0-1_ピット
  6
Continuous
 62
     4
370
     9
100
AcDbLine
 10
-108.1694466509304
 20
-35.79123198083676
 30
0.0
 11
-107.4929956638103
 21
-36.46783143185024
 31
0.0
  0
LINE
  5
8F
330
1F
100
AcDbEntity
  8
0-1_ピット
  6
Continuous
 62
     2
370
     9
100
AcDbLine
 10
-99.2518144190891
 20
-60.64062360879279
 30
0.0
 11
-98.49296597103171
 21
-64.43476687315092
 31
0.0
  0
LINE
  5
90
330
1F
100
AcDbEntity
  8
0-1_ピット
  6
Continuous
 62
     2
370
     9
100
AcDbLine
 10
-107.4929956638103
 20
-64.43476687315092
 30
0.0
 11
32.95424356760849
 21
-64.43476687315092
 31
0.0
  0
LINE
  5
91
330
1F
100
AcDbEntity
  8
0-1_ピット
  6
Continuous
 62
     2
370
     9
100
AcDbLine
 10
-148.793473387628
 20
-53.08014931614082
 30
0.0
 11
-154.933989514106
 21
-51.43477347154618
 31
0.0
  0
LINE
  5
92
330
1F
100
AcDbEntity
  8
0-1_ピット
  6
Continuous
 62
     2
370
     9
100
AcDbLine
 10
-145.0431269718763
 20
-50.57734499815092
 30
0.0
 11
-144.4929692702293
 21
-46.43470748759347
 31
0.0
  0
LINE
  5
93
330
1F
100
AcDbEntity
  8
0-1_ピット
  6
Continuous
 62
     2
370
     9
100
AcDbLine
 10
58.0572115258011
 20
-50.57734499815092
 30
0.0
 11
57.50690536026058
 21
-46.43470748759347
 31
0.0
  0
LINE
  5
94
330
1F
100
AcDbEntity
  8
0-1_ピット
  6
Continuous
 62
     2
370
     9
100
AcDbLine
 10
61.80740947765923
 20
-53.08014931614082
 30
0.0
 11
67.9480740680309
 21
-51.43477347154618
 31
0.0
  0
LINE
  5
95
330
1F
100
AcDbEntity
  8
0-1_ピット
  6
Continuous
 62
     2
370
     9
100
AcDbLine
 10
-140.2045402161752
 20
-54.16829068016108
 30
0.0
 11
-141.4929593726364
 21
-46.43470748759347
 31
0.0
  0
LINE
  5
96
330
1F
100
AcDbEntity
  8
0-1_ピット
  6
JWW_DASHED1
 62
     2
370
     9
100
AcDbLine
 10
-138.7493466192581
 20
-55.77150277897863
 30
0.0
 11
-148.793473387628
 21
-53.08014931614082
 31
0.0
  0
LINE
  5
97
330
1F
100
AcDbEntity
  8
0-1_ピット
  6
Continuous
 62
     2
370
     9
100
AcDbLine
 10
40.30132575722006
 20
-54.1929356864955
 30
0.0
 11
39.71519030536194
 21
-57.78051618691779
 31
0.0
  0
LINE
  5
98
330
1F
100
AcDbEntity
  8
0-1_ピット
  6
Continuous
 62
     2
370
     9
100
AcDbLine
 10
53.63278954522684
 20
-51.68132251081983
 30
0.0
 11
54.50694495063214
 21
-46.43470748759347
 31
0.0
  0
LINE
  5
99
330
1F
100
AcDbEntity
  8
0-1_ピット
  6
JWW_DASHED1
 62
     2
370
     9
100
AcDbLine
 10
53.21847630620652
 20
-54.16829068016108
 30
0.0
 11
53.63278954522684
 21
-51.68132251081983
 31
0.0
  0
LINE
  5
9A
330
1F
100
AcDbEntity
  8
0-1_ピット
  6
JWW_DASHED1
 62
     2
370
     9
100
AcDbLine
 10
38.25905643711871
 20
-59.38986479333676
 30
0.0
 11
61.80740947765923
 21
-53.08014931614082
 31
0.0
  0
LINE
  5
9B
330
1F
100
AcDbEntity
  8
0-1_ピット
  6
Continuous
 62
     2
370
     9
100
AcDbLine
 10
38.25905643711871
 20
-59.38986479333676
 30
0.0
 11
32.49351061786194
 21
-60.9347800699415
 31
0.0
  0
LINE
  5
9C
330
1F
100
AcDbEntity
  8
0-1_ピット
  6
Continuous
 62
     2
370
     9
100
AcDbLine
 10
56.50705052495652
 20
-58.12376470887727
 30
0.0
 11
55.50699773779433
 21
-58.90943563370837
 31
0.0
  0
LINE
  5
9D
330
1F
100
AcDbEntity
  8
0-1_ピット
  6
Continuous
 62
     2
370
     9
100
AcDbLine
 10
56.50705052495652
 20
-58.12376470887727
 30
0.0
 11
74.00698454100382
 21
-53.4347800699415
 31
0.0
  0
LINE
  5
9E
330
1F
100
AcDbEntity
  8
0-1_ピット
  6
Continuous
 62
     2
370
     9
100
AcDbLine
 10
53.50709011532819
 20
-59.44539028953608
 30
0.0
 11
55.50699773779433
 21
-58.90943563370837
 31
0.0
  0
LINE
  5
9F
330
1F
100
AcDbEntity
  8
0-1_ピット
  6
Continuous
 62
     2
370
     9
100
AcDbLine
 10
52.507037328166
 20
-59.19567402053269
 30
0.0
 11
53.50709011532819
 21
-59.44539028953608
 31
0.0
  0
LINE
  5
A0
330
1F
100
AcDbEntity
  8
0-1_ピット
  6
Continuous
 62
     2
370
     9
100
AcDbLine
 10
32.95424356760849
 20
-64.43476687315092
 30
0.0
 11
52.507037328166
 21
-59.19567402053269
 31
0.0
  0
LINE
  5
A1
330
1F
100
AcDbEntity
  8
0-1_ピット
  6
Continuous
 62
     2
370
     9
100
AcDbLine
 10
-140.4930055614033
 20
-59.44539028953608
 30
0.0
 11
-142.4930121597986
 21
-58.90943563370837
 31
0.0
  0
LINE
  5
A2
330
1F
100
AcDbEntity
  8
0-1_ピット
  6
Continuous
 62
     2
370
     9
100
AcDbLine
 10
-143.4929659710317
 20
-58.12386368480634
 30
0.0
 11
-142.4930121597986
 21
-58.90943563370837
 31
0.0
  0
LINE
  5
A3
330
1F
100
AcDbEntity
  8
0-1_ピット
  6
Continuous
 62
     2
370
     9
100
AcDbLine
 10
-143.4929659710317
 20
-58.12386368480634
 30
0.0
 11
-160.9929989630081
 21
-53.4347800699415
 31
0.0
  0
LINE
  5
A4
330
1F
100
AcDbEntity
  8
0-1_ピット
  6
Continuous
 62
     2
370
     9
100
AcDbLine
 10
-139.4930517501701
 20
-59.19567402053269
 30
0.0
 11
-140.4930055614033
 21
-59.44539028953608
 31
0.0
  0
LINE
  5
A5
330
1F
100
AcDbEntity
  8
0-1_ピット
  6
Continuous
 62
     2
370
     9
100
AcDbLine
 10
-119.9402579896127
 20
-64.43476687315092
 30
0.0
 11
-139.4930517501701
 21
-59.19567402053269
 31
0.0
  0
LINE
  5
A6
330
1F
100
AcDbEntity
  8
0-1_ピット
  6
Continuous
 62
     2
370
     9
100
AcDbLine
 10
-115.4929725694269
 20
-64.43476687315092
 30
0.0
 11
-119.9402579896127
 21
-64.43476687315092
 31
0.0
  0
LINE
  5
A7
330
1F
100
AcDbEntity
  8
0-1_ピット
  6
Continuous
 62
     2
370
     9
100
AcDbLine
 10
-100.7226462127969
 20
-59.43479986512727
 30
0.0
 11
-125.0776035871634
 21
-59.43479986512727
 31
0.0
  0
LINE
  5
A8
330
1F
100
AcDbEntity
  8
0-1_ピット
  6
Continuous
 62
     2
370
     9
100
AcDbLine
 10
-138.7493466192581
 20
-55.77150277897863
 30
0.0
 11
-125.0776035871634
 21
-59.43479986512727
 31
0.0
  0
LINE
  5
A9
330
1F
100
AcDbEntity
  8
0-1_ピット
  6
Continuous
 62
     2
370
     9
100
AcDbLine
 10
22.29978173272684
 20
-61.6599767021205
 30
0.0
 11
21.50698454100381
 21
-64.43476687315092
 31
0.0
  0
LINE
  5
AA
330
1F
100
AcDbEntity
  8
0-1_ピット
  6
Continuous
 62
     2
370
     9
100
AcDbLine
 10
-99.1929732292665
 20
-60.9347800699415
 30
0.0
 11
32.49351061786194
 21
-60.9347800699415
 31
0.0
  0
LINE
  5
AB
330
1F
100
AcDbEntity
  8
0-2_本体（蓋）
  6
Continuous
 62
     4
370
     9
100
AcDbLine
 10
47.00694495063214
 20
-44.93482625870837
 30
0.0
 11
48.00699773779433
 21
-44.93482625870837
 31
0.0
  0
LINE
  5
AC
330
1F
100
AcDbEntity
  8
0-2_本体（蓋）
  6
Continuous
 62
     4
370
     9
100
AcDbLine
 10
48.00699773779433
 20
-42.05284515651243
 30
0.0
 11
48.00699773779433
 21
-44.93482625870837
 31
0.0
  0
LINE
  5
AD
330
1F
100
AcDbEntity
  8
0-2_本体（蓋）
  6
Continuous
 62
     4
370
     9
100
AcDbLine
 10
47.00694495063214
 20
-42.05284515651243
 30
0.0
 11
47.00694495063214
 21
-44.93482625870837
 31
0.0
  0
LINE
  5
AE
330
1F
100
AcDbEntity
  8
0-2_本体（蓋）
  6
Continuous
 62
     4
370
     9
100
AcDbLine
 10
45.007037328166
 20
-57.93481966031311
 30
0.0
 11
50.00690536026058
 21
-57.93481966031311
 31
0.0
  0
LINE
  5
AF
330
1F
100
AcDbEntity
  8
0-2_本体（蓋）
  6
Continuous
 62
     4
370
     9
100
AcDbLine
 10
44.50701093458485
 20
-57.43489224266108
 30
0.0
 11
50.50693175384162
 21
-57.43489224266108
 31
0.0
  0
LINE
  5
B0
330
1F
100
AcDbEntity
  8
0-2_本体（蓋）
  6
Continuous
 62
     4
370
     9
100
AcDbLine
 10
44.50701093458485
 20
-57.43489224266108
 30
0.0
 11
45.007037328166
 21
-57.93481966031311
 31
0.0
  0
LINE
  5
B1
330
1F
100
AcDbEntity
  8
0-2_本体（蓋）
  6
Continuous
 62
     4
370
     9
100
AcDbLine
 10
50.50693175384162
 20
-57.43489224266108
 30
0.0
 11
50.00690536026058
 21
-57.93481966031311
 31
0.0
  0
LINE
  5
B2
330
1F
100
AcDbEntity
  8
0-2_本体（蓋）
  6
Continuous
 62
     4
370
     9
100
AcDbLine
 10
50.50693175384162
 20
-45.9348790458705
 30
0.0
 11
50.50693175384162
 21
-57.43489224266108
 31
0.0
  0
LINE
  5
B3
330
1F
100
AcDbEntity
  8
0-2_本体（蓋）
  6
Continuous
 62
     4
370
     9
100
AcDbLine
 10
50.00690536026058
 20
-45.9348790458705
 30
0.0
 11
50.00690536026058
 21
-57.93481966031311
 31
0.0
  0
LINE
  5
B4
330
1F
100
AcDbEntity
  8
0-2_本体（蓋）
  6
Continuous
 62
     4
370
     9
100
AcDbLine
 10
45.007037328166
 20
-45.9348790458705
 30
0.0
 11
45.007037328166
 21
-57.93481966031311
 31
0.0
  0
LINE
  5
B5
330
1F
100
AcDbEntity
  8
0-2_本体（蓋）
  6
Continuous
 62
     4
370
     9
100
AcDbLine
 10
44.50701093458485
 20
-45.9348790458705
 30
0.0
 11
44.50701093458485
 21
-57.43489224266108
 31
0.0
  0
LINE
  5
B6
330
1F
100
AcDbEntity
  8
0-2_本体（蓋）
  6
Continuous
 62
     4
370
     9
100
AcDbLine
 10
-133.4929329790554
 20
344.5126901053119
 30
0.0
 11
-134.4929857662174
 21
344.5126901053119
 31
0.0
  0
LINE
  5
B7
330
1F
100
AcDbEntity
  8
0-2_本体（蓋）
  6
Continuous
 62
     4
370
     9
100
AcDbLine
 10
47.00694495063214
 20
344.5126901053119
 30
0.0
 11
48.00699773779433
 21
344.5126901053119
 31
0.0
  0
LINE
  5
B8
330
1F
100
AcDbEntity
  8
0-2_本体（蓋）
  6
JWW_CENTER1
 62
     4
370
     9
100
AcDbLine
 10
47.50697134421329
 20
340.5126769085214
 30
0.0
 11
47.50697134421329
 21
348.119966815616
 31
0.0
  0
LINE
  5
B9
330
1F
100
AcDbEntity
  8
0-0_通り芯
  6
Continuous
 62
     3
370
     9
100
AcDbLine
 10
-100.6429705899084
 20
-82.1531407646205
 30
0.0
 11
-95.24299236461275
 21
-236.9530774200259
 31
0.0
  0
LINE
  5
BA
330
1F
100
AcDbEntity
  8
0-0_通り芯
  6
Continuous
 62
     3
370
     9
100
AcDbLine
 10
-154.2394754199337
 20
-55.24435698083676
 30
0.0
 11
-151.3416581690891
 21
-56.02082314426582
 31
0.0
  0
LINE
  5
BB
330
1F
100
AcDbEntity
  8
0-0_通り芯
  6
Continuous
 62
     3
370
     9
100
AcDbLine
 10
-168.99292638066
 20
-51.29125837441779
 30
0.0
 11
-157.1372926707783
 21
-54.46789081740769
 31
0.0
  0
LINE
  5
BC
330
1F
100
AcDbEntity
  8
0-0_通り芯
  6
Continuous
 62
     3
370
     9
100
AcDbLine
 10
-132.9890960122057
 20
-60.9384421793165
 30
0.0
 11
-135.2898904589962
 21
-60.32192111723879
 31
0.0
  0
LINE
  5
BD
330
1F
100
AcDbEntity
  8
0-0_通り芯
  6
Continuous
 62
     3
370
     9
100
AcDbLine
 10
-136.2969705371212
 20
-60.62429258049889
 30
0.0
 11
-137.4971031648661
 21
-61.97788738624217
 31
0.0
  0
LINE
  5
BE
330
1F
100
AcDbEntity
  8
0-0_通り芯
  6
Continuous
 62
     3
370
     9
100
AcDbLine
 10
-143.9781954632192
 20
-61.09977294367457
 30
0.0
 11
-139.0077727700182
 21
-62.43159304502592
 31
0.0
  0
LINE
  5
BF
330
1F
100
AcDbEntity
  8
0-0_通り芯
  6
Continuous
 62
     3
370
     9
100
AcDbLine
 10
-145.4223037560823
 20
-58.1792902050766
 30
0.0
 11
-145.0596064640638
 21
-59.95155319071847
 31
0.0
  0
LINE
  5
C0
330
1F
100
AcDbEntity
  8
0-0_通り芯
  6
Continuous
 62
     3
370
     9
100
AcDbLine
 10
-146.1429969834894
 20
-57.41381036977253
 30
0.0
 11
-148.4439893821381
 21
-56.79728930769483
 31
0.0
  0
LINE
  5
C1
330
1F
100
AcDbEntity
  8
0-0_通り芯
  6
Continuous
 62
     3
370
     9
100
AcDbLine
 10
-169.9930781437513
 20
-61.29119239046514
 30
0.0
 11
-170.9930319549844
 21
-59.29118579206983
 31
0.0
  0
LINE
  5
C2
330
1F
100
AcDbEntity
  8
0-0_通り芯
  6
Continuous
 62
     3
370
     9
100
AcDbLine
 10
-151.616118420356
 20
-61.1236261425766
 30
0.0
 11
-157.6139607451026
 21
-59.51655398252592
 31
0.0
  0
LINE
  5
C3
330
1F
100
AcDbEntity
  8
0-0_通り芯
  6
Continuous
 62
     3
370
     9
100
AcDbLine
 10
-149.4534943705249
 20
-63.41996667255972
 30
0.0
 11
-149.3385833168932
 21
-63.98135814215431
 31
0.0
  0
LINE
  5
C4
330
1F
100
AcDbEntity
  8
0-0_通り芯
  6
Continuous
 62
     3
370
     9
100
AcDbLine
 10
-151.149149987079
 20
-61.29119239046514
 30
0.0
 11
-169.9930781437513
 21
-61.29119239046514
 31
0.0
  0
LINE
  5
C5
330
1F
100
AcDbEntity
  8
0-0_通り芯
  6
Continuous
 62
     3
370
     9
100
AcDbLine
 10
-110.4688554347141
 20
-86.47828988835363
 30
0.0
 11
-120.4143526897817
 21
-85.78278603489082
 31
0.0
  0
LINE
  5
C6
330
1F
100
AcDbEntity
  8
0-0_通り芯
  6
Continuous
 62
     3
370
     9
100
AcDbLine
 10
-105.8212922220874
 20
-91.27476238624217
 30
0.0
 11
-100.2429593726364
 21
-236.9530774200259
 31
0.0
  0
LINE
  5
C7
330
1F
100
AcDbEntity
  8
0-0_通り芯
  6
Continuous
 62
     3
370
     9
100
AcDbLine
 10
-126.6305359140215
 20
-62.64221382205295
 30
0.0
 11
-130.0913282493256
 21
-61.7149083427455
 31
0.0
  0
LINE
  5
C8
330
1F
100
AcDbEntity
  8
0-0_通り芯
  6
Continuous
 62
     3
370
     9
100
AcDbLine
 10
-124.4293607398239
 20
-65.1743150150428
 30
0.0
 11
-124.0042591245367
 21
-68.63659198928269
 31
0.0
  0
LINE
  5
C9
330
1F
100
AcDbEntity
  8
0-0_通り芯
  6
JWW_DASHED1
 62
     3
370
     9
100
AcDbLine
 10
-124.0042591245367
 20
-68.63659198928269
 30
0.0
 11
-122.8339677394016
 21
-78.16787498125905
 31
0.0
  0
LINE
  5
CA
330
1F
100
AcDbEntity
  8
0-0_通り芯
  6
Continuous
 62
     3
370
     9
100
AcDbLine
 10
-101.2075787771972
 20
-82.11364936892795
 30
0.0
 11
-100.6429705899084
 21
-82.1531407646205
 31
0.0
  0
LINE
  5
CB
330
1F
100
AcDbEntity
  8
0-0_通り芯
  6
JWW_DASHED1
 62
     3
370
     9
100
AcDbLine
 10
-101.2075787771972
 20
-82.11364936892795
 30
0.0
 11
-120.0655615157951
 21
-80.79499306614082
 31
0.0
  0
LINE
  5
CC
330
1F
100
AcDbEntity
  8
0-0_通り芯
  6
Continuous
 62
     3
370
     9
100
AcDbLine
 10
-103.4178597368679
 20
-70.70974179924889
 30
0.0
 11
-102.597943140584
 21
-80.7394675699415
 31
0.0
  0
LINE
  5
CD
330
1F
100
AcDbEntity
  8
0-0_通り芯
  6
Continuous
 62
     3
370
     9
100
AcDbLine
 10
67.25346099792955
 20
-55.24435698083676
 30
0.0
 11
64.35564374708486
 21
-56.02082314426582
 31
0.0
  0
LINE
  5
CE
330
1F
100
AcDbEntity
  8
0-0_通り芯
  6
Continuous
 62
     3
370
     9
100
AcDbLine
 10
82.00701093458486
 20
-51.29125837441779
 30
0.0
 11
70.15127824877413
 21
-54.46789081740769
 31
0.0
  0
LINE
  5
CF
330
1F
100
AcDbEntity
  8
0-0_通り芯
  6
Continuous
 62
     3
370
     9
100
AcDbLine
 10
46.003131078166
 20
-60.9384421793165
 30
0.0
 11
48.30392552495652
 21
-60.32192111723879
 31
0.0
  0
LINE
  5
D0
330
1F
100
AcDbEntity
  8
0-0_通り芯
  6
Continuous
 62
     3
370
     9
100
AcDbLine
 10
49.31090662715246
 20
-60.62429258049889
 30
0.0
 11
50.51108874286194
 21
-61.97788738624217
 31
0.0
  0
LINE
  5
D1
330
1F
100
AcDbEntity
  8
0-0_通り芯
  6
Continuous
 62
     3
370
     9
100
AcDbLine
 10
56.99223052917954
 20
-61.09977294367457
 30
0.0
 11
52.02185732394297
 21
-62.43159304502592
 31
0.0
  0
LINE
  5
D2
330
1F
100
AcDbEntity
  8
0-0_通り芯
  6
Continuous
 62
     3
370
     9
100
AcDbLine
 10
58.43628933407819
 20
-58.1792902050766
 30
0.0
 11
58.07364153002413
 21
-59.95155319071847
 31
0.0
  0
LINE
  5
D3
330
1F
100
AcDbEntity
  8
0-0_通り芯
  6
Continuous
 62
     3
370
     9
100
AcDbLine
 10
59.15703204944975
 20
-57.41381036977253
 30
0.0
 11
61.45802444809839
 21
-56.79728930769483
 31
0.0
  0
LINE
  5
D4
330
1F
100
AcDbEntity
  8
0-0_通り芯
  6
Continuous
 62
     3
370
     9
100
AcDbLine
 10
83.00706372174704
 20
-61.29119239046514
 30
0.0
 11
84.00711650890923
 21
-59.29118579206983
 31
0.0
  0
LINE
  5
D5
330
1F
100
AcDbEntity
  8
0-0_通り芯
  6
Continuous
 62
     3
370
     9
100
AcDbLine
 10
64.6302029742809
 20
-61.1236261425766
 30
0.0
 11
70.6279463230984
 21
-59.51655398252592
 31
0.0
  0
LINE
  5
D6
330
1F
100
AcDbEntity
  8
0-0_通り芯
  6
Continuous
 62
     3
370
     9
100
AcDbLine
 10
62.46757892444975
 20
-63.41996667255972
 30
0.0
 11
62.35256889488891
 21
-63.98135814215431
 31
0.0
  0
LINE
  5
D7
330
1F
100
AcDbEntity
  8
0-0_通り芯
  6
Continuous
 62
     3
370
     9
100
AcDbLine
 10
64.16323454100382
 20
-61.29119239046514
 30
0.0
 11
83.00706372174704
 21
-61.29119239046514
 31
0.0
  0
LINE
  5
D8
330
1F
100
AcDbEntity
  8
0-0_通り芯
  6
Continuous
 62
     3
370
     9
100
AcDbLine
 10
23.48293998863891
 20
-86.47828988835363
 30
0.0
 11
33.42843724370652
 21
-85.78278603489082
 31
0.0
  0
LINE
  5
D9
330
1F
100
AcDbEntity
  8
0-0_通り芯
  6
Continuous
 62
     3
370
     9
100
AcDbLine
 10
39.64452149201735
 20
-62.64221382205295
 30
0.0
 11
43.10531382732142
 21
-61.7149083427455
 31
0.0
  0
LINE
  5
DA
330
1F
100
AcDbEntity
  8
0-0_通り芯
  6
Continuous
 62
     3
370
     9
100
AcDbLine
 10
18.83532728804777
 20
-91.27476238624217
 30
0.0
 11
13.25694495063214
 21
-236.9530774200259
 31
0.0
  0
LINE
  5
DB
330
1F
100
AcDbEntity
  8
0-0_通り芯
  6
Continuous
 62
     3
370
     9
100
AcDbLine
 10
-100.2429593726364
 20
-236.9530774200259
 30
0.0
 11
13.25694495063214
 21
-236.9530774200259
 31
0.0
  0
LINE
  5
DC
330
1F
100
AcDbEntity
  8
0-0_通り芯
  6
Continuous
 62
     3
370
     9
100
AcDbLine
 10
-100.6429705899084
 20
-82.1531407646205
 30
0.0
 11
13.65700565586871
 21
-82.1531407646205
 31
0.0
  0
LINE
  5
DD
330
1F
100
AcDbEntity
  8
0-0_通り芯
  6
Continuous
 62
     3
370
     9
100
AcDbLine
 10
13.65700565586871
 20
-82.1531407646205
 30
0.0
 11
8.257076918537557
 21
-236.9530774200259
 31
0.0
  0
LINE
  5
DE
330
1F
100
AcDbEntity
  8
0-0_通り芯
  6
Continuous
 62
     3
370
     9
100
AcDbLine
 10
37.44329682985516
 20
-65.1743150150428
 30
0.0
 11
35.84800280536194
 21
-78.16787498125905
 31
0.0
  0
LINE
  5
DF
330
1F
100
AcDbEntity
  8
0-0_通り芯
  6
Continuous
 62
     3
370
     9
100
AcDbLine
 10
33.0335232867809
 20
-80.79786336808337
 30
0.0
 11
13.65700565586871
 21
-82.1531407646205
 31
0.0
  0
LINE
  5
E0
330
1F
100
AcDbEntity
  8
0-0_通り芯
  6
Continuous
 62
     3
370
     9
100
AcDbLine
 10
50.00551969725381
 20
-68.14814577940092
 30
0.0
 11
61.27135584590246
 21
-65.1295778951104
 31
0.0
  0
LINE
  5
E1
330
1F
100
AcDbEntity
  8
0-0_通り芯
  6
Continuous
 62
     3
370
     9
100
AcDbLine
 10
40.81065588813214
 20
-78.77726977644483
 30
0.0
 11
41.73073612461871
 21
-71.28449501926582
 31
0.0
  0
LINE
  5
E2
330
1F
100
AcDbEntity
  8
0-0_通り芯
  6
Continuous
 62
     3
370
     9
100
AcDbLine
 10
-127.7966703101364
 20
-78.77726977644483
 30
0.0
 11
-128.7166515706938
 21
-71.28449501926582
 31
0.0
  0
LINE
  5
E3
330
1F
100
AcDbEntity
  8
0-0_通り芯
  6
Continuous
 62
     3
370
     9
100
AcDbLine
 10
-170.102545521285
 20
-52.16719534654618
 30
0.0
 11
-170.9930319549844
 21
-59.29118579206983
 31
0.0
  0
LINE
  5
E4
330
1F
100
AcDbEntity
  8
0-0_通り芯
  6
Continuous
 62
     3
370
     9
100
AcDbLine
 10
83.1165310992809
 20
-52.16719534654618
 30
0.0
 11
84.00711650890923
 21
-59.29118579206983
 31
0.0
  0
LINE
  5
E5
330
1F
100
AcDbEntity
  8
0-0_通り芯
  6
Continuous
 62
     3
370
     9
100
AcDbLine
 10
-145.2294491583206
 20
-51.29125837441779
 30
0.0
 11
-169.1102623445536
 21
-51.29125837441779
 31
0.0
  0
LINE
  5
E6
330
1F
100
AcDbEntity
  8
0-1_ピット
  6
Continuous
 62
     2
370
     9
100
AcDbLine
 10
52.15329735772684
 20
-52.93485265228946
 30
0.0
 11
50.50693175384162
 21
-52.93485265228946
 31
0.0
  0
LINE
  5
E7
330
1F
100
AcDbEntity
  8
0-1_ピット
  6
Continuous
 62
     2
370
     9
100
AcDbLine
 10
44.50701093458485
 20
-52.93485265228946
 30
0.0
 11
41.78180770401058
 21
-52.93485265228946
 31
0.0
  0
LINE
  5
E8
330
1F
100
AcDbEntity
  8
0-1_ピット
  6
Continuous
 62
     4
370
     9
100
AcDbLine
 10
-108.1694466509304
 20
-59.43479986512727
 30
0.0
 11
-108.1694466509304
 21
-75.79126497281311
 31
0.0
  0
LINE
  5
E9
330
1F
100
AcDbEntity
  8
0-1_ピット
  6
Continuous
 62
     4
370
     9
100
AcDbLine
 10
-115.4929725694269
 20
-59.43479986512727
 30
0.0
 11
-115.4929725694269
 21
-75.11486347365769
 31
0.0
  0
LINE
  5
EA
330
1F
100
AcDbEntity
  8
0-1_ピット
  6
Continuous
 62
     4
370
     9
100
AcDbLine
 10
-107.4929956638103
 20
-59.43479986512727
 30
0.0
 11
-107.4929956638103
 21
-75.11486347365769
 31
0.0
  0
LINE
  5
EB
330
1F
100
AcDbEntity
  8
0-1_ピット
  6
Continuous
 62
     4
370
     9
100
AcDbLine
 10
-107.4929956638103
 20
-52.9347536763604
 30
0.0
 11
-107.4929956638103
 21
-36.46783143185024
 31
0.0
  0
LINE
  5
EC
330
1F
100
AcDbEntity
  8
0-1_ピット
  6
Continuous
 62
     4
370
     9
100
AcDbLine
 10
-115.4929725694269
 20
-52.9347536763604
 30
0.0
 11
-115.4929725694269
 21
-36.46783143185024
 31
0.0
  0
LINE
  5
ED
330
1F
100
AcDbEntity
  8
0-1_ピット
  6
Continuous
 62
     4
370
     9
100
AcDbLine
 10
-114.8164720943424
 20
-52.9347536763604
 30
0.0
 11
-114.8164720943424
 21
-35.79123198083676
 31
0.0
  0
LINE
  5
EE
330
1F
100
AcDbEntity
  8
0-1_ピット
  6
Continuous
 62
     4
370
     9
100
AcDbLine
 10
-108.1694466509304
 20
-52.9347536763604
 30
0.0
 11
-108.1694466509304
 21
-35.79123198083676
 31
0.0
  0
LINE
  5
EF
330
1F
100
AcDbEntity
  8
0-0_通り芯
  6
Continuous
 62
     3
370
     9
100
AcDbLine
 10
-104.4145473424421
 20
-69.79124517762727
 30
0.0
 11
-107.4929956638103
 21
-69.79124517762727
 31
0.0
  0
LINE
  5
F0
330
1F
100
AcDbEntity
  8
0-0_通り芯
  6
Continuous
 62
     3
370
     9
100
AcDbLine
 10
-115.4929725694269
 20
-69.79124517762727
 30
0.0
 11
-119.4929857662174
 21
-69.79124517762727
 31
0.0
  0
LINE
  5
F1
330
1F
100
AcDbEntity
  8
0-0_通り芯
  6
Continuous
 62
     3
370
     9
100
AcDbLine
 10
-136.9915341192581
 20
-68.14814577940092
 30
0.0
 11
-148.2572712919776
 21
-65.1295778951104
 31
0.0
  0
LINE
  5
F2
330
1F
100
AcDbEntity
  8
0-0_通り芯
  6
Continuous
 62
     3
370
     9
100
AcDbLine
 10
82.12419843458486
 20
-51.29125837441779
 30
0.0
 11
58.2434842242809
 21
-51.29125837441779
 31
0.0
  0
LINE
  5
F3
330
1F
100
AcDbEntity
  8
0-2_本体（蓋）
  6
Continuous
 62
     4
370
     9
100
AcDbLine
 10
48.00699773779433
 20
340.5126769085214
 30
0.0
 11
48.00699773779433
 21
344.5126901053119
 31
0.0
  0
LINE
  5
F4
330
1F
100
AcDbEntity
  8
0-2_本体（蓋）
  6
Continuous
 62
     4
370
     9
100
AcDbLine
 10
47.00694495063214
 20
340.5126769085214
 30
0.0
 11
47.00694495063214
 21
344.5126901053119
 31
0.0
  0
LINE
  5
F5
330
1F
100
AcDbEntity
  8
0-2_本体（蓋）
  6
Continuous
 62
     4
370
     9
100
AcDbLine
 10
-133.4929329790554
 20
340.5126769085214
 30
0.0
 11
-133.4929329790554
 21
344.5126901053119
 31
0.0
  0
LINE
  5
F6
330
1F
100
AcDbEntity
  8
0-2_本体（蓋）
  6
Continuous
 62
     4
370
     9
100
AcDbLine
 10
-134.4929857662174
 20
340.5126769085214
 30
0.0
 11
-134.4929857662174
 21
344.5126901053119
 31
0.0
  0
LINE
  5
F7
330
1F
100
AcDbEntity
  8
0-2_本体（蓋）
  6
Continuous
 62
     6
370
     5
100
AcDbLine
 10
-139.4929527742411
 20
-46.93483285710363
 30
0.0
 11
-137.9929725694269
 21
-52.93485265228946
 31
0.0
  0
LINE
  5
F8
330
1F
100
AcDbEntity
  8
0-2_本体（蓋）
  6
Continuous
 62
     6
370
     5
100
AcDbLine
 10
-127.4928636959049
 20
-46.93483285710363
 30
0.0
 11
-125.9929824670198
 21
-52.93485265228946
 31
0.0
  0
LINE
  5
F9
330
1F
100
AcDbEntity
  8
0-2_本体（蓋）
  6
Continuous
 62
     6
370
     5
100
AcDbLine
 10
-127.4930616477631
 20
-46.93483285710363
 30
0.0
 11
-139.4929527742411
 21
-46.93483285710363
 31
0.0
  0
LINE
  5
FA
330
1F
100
AcDbEntity
  8
0-2_本体（蓋）
  6
Continuous
 62
     6
370
     5
100
AcDbLine
 10
-122.9929725694269
 20
-51.9407384208705
 30
0.0
 11
-125.9929824670198
 21
-52.93485265228946
 31
0.0
  0
LINE
  5
FB
330
1F
100
AcDbEntity
  8
0-2_本体（蓋）
  6
Continuous
 62
     6
370
     5
100
AcDbLine
 10
52.507037328166
 20
-46.93483285710363
 30
0.0
 11
51.00695814742277
 21
-52.93485265228946
 31
0.0
  0
LINE
  5
FC
330
1F
100
AcDbEntity
  8
0-2_本体（蓋）
  6
Continuous
 62
     6
370
     5
100
AcDbLine
 10
40.5067997859362
 20
-46.93483285710363
 30
0.0
 11
39.0069185570511
 21
-52.93485265228946
 31
0.0
  0
LINE
  5
FD
330
1F
100
AcDbEntity
  8
0-2_本体（蓋）
  6
Continuous
 62
     6
370
     5
100
AcDbLine
 10
36.00695814742277
 20
-51.9407384208705
 30
0.0
 11
39.0069185570511
 21
-52.93485265228946
 31
0.0
  0
LINE
  5
FE
330
1F
100
AcDbEntity
  8
0-2_本体（蓋）
  6
Continuous
 62
     6
370
     5
100
AcDbLine
 10
-1.493041852577228
 20
-41.89260312737389
 30
0.0
 11
36.00695814742277
 21
-51.9407384208705
 31
0.0
  0
LINE
  5
FF
330
1F
100
AcDbEntity
  8
0-2_本体（蓋）
  6
Continuous
 62
     6
370
     5
100
AcDbLine
 10
-85.49297256942691
 20
-41.89260312737389
 30
0.0
 11
-1.493041852577228
 21
-41.89260312737389
 31
0.0
  0
LINE
  5
100
330
1F
100
AcDbEntity
  8
0-2_本体（蓋）
  6
Continuous
 62
     6
370
     5
100
AcDbLine
 10
52.507037328166
 20
-46.93483285710363
 30
0.0
 11
51.50698454100381
 21
-45.9348790458705
 31
0.0
  0
LINE
  5
101
330
1F
100
AcDbEntity
  8
0-2_本体（蓋）
  6
Continuous
 62
     6
370
     5
100
AcDbLine
 10
36.77501135688214
 20
-45.9348790458705
 30
0.0
 11
51.50698454100381
 21
-45.9348790458705
 31
0.0
  0
LINE
  5
102
330
1F
100
AcDbEntity
  8
0-2_本体（蓋）
  6
Continuous
 62
     6
370
     5
100
AcDbLine
 10
40.5067997859362
 20
-46.93483285710363
 30
0.0
 11
39.50694495063214
 21
-45.9348790458705
 31
0.0
  0
LINE
  5
103
330
1F
100
AcDbEntity
  8
0-2_本体（蓋）
  6
Continuous
 62
     6
370
     5
100
AcDbLine
 10
-1.493041852577228
 20
-41.89260312737389
 30
0.0
 11
-1.773787075339108
 21
-37.87804046901243
 31
0.0
  0
LINE
  5
104
330
1F
100
AcDbEntity
  8
0-2_本体（蓋）
  6
Continuous
 62
     6
370
     5
100
AcDbLine
 10
-1.982576797678583
 20
-34.89253054502592
 30
0.0
 11
-10.93475162875973
 21
93.13026031223755
 31
0.0
  0
LINE
  5
105
330
1F
100
AcDbEntity
  8
0-2_本体（蓋）
  6
Continuous
 62
     6
370
     5
100
AcDbLine
 10
-85.49292308146244
 20
-41.89260312737389
 30
0.0
 11
-85.21217785870056
 21
-37.87804046901243
 31
0.0
  0
LINE
  5
106
330
1F
100
AcDbEntity
  8
0-2_本体（蓋）
  6
Continuous
 62
     6
370
     5
100
AcDbLine
 10
-85.00338813636108
 20
-34.89253054502592
 30
0.0
 11
-76.05121330527993
 21
93.13026031223755
 31
0.0
  0
LINE
  5
107
330
1F
100
AcDbEntity
  8
0-2_本体（蓋）
  6
Continuous
 62
     6
370
     5
100
AcDbLine
 10
-78.11565323348941
 20
63.60742326620714
 30
0.0
 11
-8.870311700550253
 21
63.60742326620714
 31
0.0
  0
LINE
  5
108
330
1F
100
AcDbEntity
  8
0-2_本体（蓋）
  6
Continuous
 62
     6
370
     5
100
AcDbLine
 10
-8.101120267906715
 20
52.60743646299778
 30
0.0
 11
-78.88484466613306
 21
52.60743646299778
 31
0.0
  0
LINE
  5
109
330
1F
100
AcDbEntity
  8
0-2_本体（蓋）
  6
Continuous
 62
     6
370
     5
100
AcDbLine
 10
-68.49296597103171
 20
117.9201674068321
 30
0.0
 11
-71.49297586862451
 21
105.0734877193321
 31
0.0
  0
LINE
  5
10A
330
1F
100
AcDbEntity
  8
0-2_本体（蓋）
  6
Continuous
 62
     6
370
     5
100
AcDbLine
 10
-18.49299896300796
 20
117.9201674068321
 30
0.0
 11
-15.49298906541515
 21
105.0734877193321
 31
0.0
  0
LINE
  5
10B
330
1F
100
AcDbEntity
  8
0-2_本体（蓋）
  6
Continuous
 62
     6
370
     5
100
AcDbLine
 10
-93.222943140584
 20
-37.75224206318472
 30
0.0
 11
-94.72292334539816
 21
-44.3658136425766
 31
0.0
  0
LINE
  5
10C
330
1F
100
AcDbEntity
  8
0-2_本体（蓋）
  6
Continuous
 62
     6
370
     5
100
AcDbLine
 10
6.236978206544329
 20
-37.75224206318472
 30
0.0
 11
7.736958411358493
 21
-44.3658136425766
 31
0.0
  0
LINE
  5
10D
330
1F
100
AcDbEntity
  8
0-2_本体（蓋）
  6
Continuous
 62
     6
370
     5
100
AcDbLine
 10
-93.12342284392014
 20
-36.3290671793165
 30
0.0
 11
-84.03169195287285
 21
93.68828660024433
 31
0.0
  0
LINE
  5
10E
330
1F
100
AcDbEntity
  8
0-2_本体（蓋）
  6
Continuous
 62
     6
370
     5
100
AcDbLine
 10
7.614921090834848
 20
-38.12142227855634
 30
0.0
 11
40.50699773779433
 21
-46.93483285710363
 31
0.0
  0
LINE
  5
10F
330
1F
100
AcDbEntity
  8
0-2_本体（蓋）
  6
Continuous
 62
     6
370
     5
100
AcDbLine
 10
6.137408421916
 20
-36.3290671793165
 30
0.0
 11
-2.954272981166817
 21
93.68828660024433
 31
0.0
  0
LINE
  5
110
330
1F
100
AcDbEntity
  8
0-2_本体（蓋）
  6
Continuous
 62
     6
370
     5
100
AcDbLine
 10
-14.09074759054182
 20
62.47454478225443
 30
0.0
 11
-8.870311700550253
 21
63.60742326620714
 31
0.0
  0
LINE
  5
111
330
1F
100
AcDbEntity
  8
0-2_本体（蓋）
  6
Continuous
 62
     6
370
     5
100
AcDbLine
 10
-15.32844158336275
 20
55.61373133208558
 30
0.0
 11
-15.66179251241682
 21
60.38061002718693
 31
0.0
  0
LINE
  5
112
330
1F
100
AcDbEntity
  8
0-2_本体（蓋）
  6
Continuous
 62
     6
370
     5
100
AcDbLine
 10
-13.7455195500013
 20
53.79623634686601
 30
0.0
 11
-8.101120267906715
 21
52.60743646299778
 31
0.0
  0
LINE
  5
113
330
1F
100
AcDbEntity
  8
0-2_本体（蓋）
  6
Continuous
 62
     6
370
     5
100
AcDbLine
 10
-72.89516785553337
 20
62.47454478225443
 30
0.0
 11
-78.11565323348941
 21
63.60742326620714
 31
0.0
  0
LINE
  5
114
330
1F
100
AcDbEntity
  8
0-2_本体（蓋）
  6
Continuous
 62
     6
370
     5
100
AcDbLine
 10
-71.65752335067691
 20
55.61373133208558
 30
0.0
 11
-71.32417242162285
 21
60.38061002718693
 31
0.0
  0
LINE
  5
115
330
1F
100
AcDbEntity
  8
0-2_本体（蓋）
  6
Continuous
 62
     6
370
     5
100
AcDbLine
 10
-73.24044538403837
 20
53.79623634686601
 30
0.0
 11
-78.88484466613306
 21
52.60743646299778
 31
0.0
  0
LINE
  5
116
330
1F
100
AcDbEntity
  8
0-2_本体（蓋）
  6
Continuous
 62
     6
370
     5
100
AcDbLine
 10
-72.10266759159754
 20
62.10744306139297
 30
0.0
 11
-14.88329734244213
 21
62.10744306139297
 31
0.0
  0
LINE
  5
117
330
1F
100
AcDbEntity
  8
0-2_本体（蓋）
  6
Continuous
 62
     6
370
     5
100
AcDbLine
 10
-14.46962744696066
 20
54.10741666781195
 30
0.0
 11
-72.516337487079
 21
54.10741666781195
 31
0.0
  0
LINE
  5
118
330
1F
100
AcDbEntity
  8
0-2_本体（蓋）
  6
Continuous
 62
     6
370
     5
100
AcDbLine
 10
-92.74325630042358
 20
-30.89261632416446
 30
0.0
 11
-2.262282773185355
 21
-30.89261632416446
 31
0.0
  0
LINE
  5
119
330
1F
100
AcDbEntity
  8
0-2_本体（蓋）
  6
Continuous
 62
     4
370
     9
100
AcDbLine
 10
51.50698454100381
 20
-45.9348790458705
 30
0.0
 11
52.75705052495652
 21
-45.9348790458705
 31
0.0
  0
LINE
  5
11A
330
1F
100
AcDbEntity
  8
0-2_本体（蓋）
  6
Continuous
 62
     6
370
     5
100
AcDbLine
 10
40.50699773779433
 20
-46.93483285710363
 30
0.0
 11
44.50701093458485
 21
-46.93483285710363
 31
0.0
  0
LINE
  5
11B
330
1F
100
AcDbEntity
  8
0-2_本体（蓋）
  6
Continuous
 62
     6
370
     5
100
AcDbLine
 10
50.50693175384162
 20
-46.93483285710363
 30
0.0
 11
52.507037328166
 21
-46.93483285710363
 31
0.0
  0
LINE
  5
11C
330
1F
100
AcDbEntity
  8
0-2_本体（蓋）
  6
Continuous
 62
     6
370
     5
100
AcDbLine
 10
50.50693175384162
 20
-52.93485265228946
 30
0.0
 11
51.00695814742277
 21
-52.93485265228946
 31
0.0
  0
LINE
  5
11D
330
1F
100
AcDbEntity
  8
0-0_通り芯
  6
JWW_CENTER1
 62
     3
370
     9
100
AcDbLine
 10
-43.49298246701984
 20
127.9579102277781
 30
0.0
 11
-43.49298246701984
 21
-247.1359189529651
 31
0.0
  0
LINE
  5
11E
330
1F
100
AcDbEntity
  8
0-2_本体（蓋）
  6
Continuous
 62
     6
370
     5
100
AcDbLine
 10
-85.00338813636108
 20
-34.89253054502592
 30
0.0
 11
-1.982576797678583
 21
-34.89253054502592
 31
0.0
  0
LINE
  5
11F
330
1F
100
AcDbEntity
  8
0-2_本体（蓋）
  6
Continuous
 62
     6
370
     5
100
AcDbLine
 10
-85.00338813636108
 20
-37.89258993058337
 30
0.0
 11
-1.982576797678583
 21
-37.89258993058337
 31
0.0
  0
LINE
  5
120
330
1F
100
AcDbEntity
  8
0-1_ピット
  6
Continuous
 62
     2
370
     9
100
AcDbLine
 10
49.59496754353756
 20
371.1495870119842
 30
0.0
 11
52.49713973526058
 21
371.9272408865619
 31
0.0
  0
LINE
  5
121
330
1F
100
AcDbEntity
  8
0-1_ピット
  6
Continuous
 62
     2
370
     9
100
AcDbLine
 10
48.60342668627413
 20
369.330904315616
 30
0.0
 11
53.92041359505787
 21
370.7556628143491
 31
0.0
  0
LINE
  5
122
330
1F
100
AcDbEntity
  8
0-1_ピット
  6
Continuous
 62
     2
370
     9
100
AcDbLine
 10
29.58332137588558
 20
405.8108583907849
 30
0.0
 11
31.70783969303078
 21
407.9354756838592
 31
0.0
  0
LINE
  5
123
330
1F
100
AcDbEntity
  8
0-1_ピット
  6
Continuous
 62
     2
370
     9
100
AcDbLine
 10
27.51264596414568
 20
405.8613361146025
 30
0.0
 11
31.40487437419642
 21
409.7536635005821
 31
0.0
  0
LINE
  5
124
330
1F
100
AcDbEntity
  8
0-1_ピット
  6
Continuous
 62
     2
370
     9
100
AcDbLine
 10
48.60342668627413
 20
369.330904315616
 30
0.0
 11
49.59496754353756
 21
371.1495870119842
 31
0.0
  0
LINE
  5
125
330
1F
100
AcDbEntity
  8
0-1_ピット
  6
Continuous
 62
     2
370
     9
100
AcDbLine
 10
53.92041359505787
 20
370.7556628143491
 30
0.0
 11
52.49713973526058
 21
371.9272408865619
 31
0.0
  0
LINE
  5
126
330
1F
100
AcDbEntity
  8
0-1_ピット
  6
Continuous
 62
     2
370
     9
100
AcDbLine
 10
31.70783969303078
 20
407.9354756838592
 30
0.0
 11
31.40487437419642
 21
409.7536635005821
 31
0.0
  0
LINE
  5
127
330
1F
100
AcDbEntity
  8
0-1_ピット
  6
Continuous
 62
     2
370
     9
100
AcDbLine
 10
29.58332137588558
 20
405.8108583907849
 30
0.0
 11
27.51264596414568
 21
405.8613361146025
 31
0.0
  0
LINE
  5
128
330
1F
100
AcDbEntity
  8
0-1_ピット
  6
Continuous
 62
     2
370
     9
100
AcDbLine
 10
21.80519901524371
 20
413.5889807514268
 30
0.0
 11
23.92971733238891
 21
415.7135980445011
 31
0.0
  0
LINE
  5
129
330
1F
100
AcDbEntity
  8
0-1_ピット
  6
Continuous
 62
     2
370
     9
100
AcDbLine
 10
21.85577571499027
 20
411.5182063637579
 30
0.0
 11
25.748004125041
 21
415.4105337497376
 31
0.0
  0
LINE
  5
12A
330
1F
100
AcDbEntity
  8
0-1_ピット
  6
Continuous
 62
     2
370
     9
100
AcDbLine
 10
-12.85617133948609
 20
433.6007258950079
 30
0.0
 11
-12.07851746490838
 21
436.5029970626599
 31
0.0
  0
LINE
  5
12B
330
1F
100
AcDbEntity
  8
0-1_ピット
  6
Continuous
 62
     2
370
     9
100
AcDbLine
 10
-14.67470557196066
 20
432.6091850377443
 30
0.0
 11
-13.25004604915672
 21
437.9259739946701
 31
0.0
  0
LINE
  5
12C
330
1F
100
AcDbEntity
  8
0-1_ピット
  6
Continuous
 62
     2
370
     9
100
AcDbLine
 10
21.85577571499027
 20
411.5182063637579
 30
0.0
 11
21.80519901524371
 21
413.5889807514268
 31
0.0
  0
LINE
  5
12D
330
1F
100
AcDbEntity
  8
0-1_ピット
  6
Continuous
 62
     2
370
     9
100
AcDbLine
 10
25.748004125041
 20
415.4105337497376
 30
0.0
 11
23.92971733238891
 21
415.7135980445011
 31
0.0
  0
LINE
  5
12E
330
1F
100
AcDbEntity
  8
0-1_ピット
  6
Continuous
 62
     2
370
     9
100
AcDbLine
 10
-12.07851746490838
 20
436.5029970626599
 30
0.0
 11
-13.25004604915672
 21
437.9259739946701
 31
0.0
  0
LINE
  5
12F
330
1F
100
AcDbEntity
  8
0-1_ピット
  6
Continuous
 62
     2
370
     9
100
AcDbLine
 10
-12.85617133948609
 20
433.6007258950079
 30
0.0
 11
-14.67470557196066
 21
432.6091850377443
 31
0.0
  0
LINE
  5
130
330
1F
100
AcDbEntity
  8
0-1_ピット
  6
Continuous
 62
     2
370
     9
100
AcDbLine
 10
-23.4812373234388
 20
436.4477684942478
 30
0.0
 11
-22.70358344886109
 21
439.3499406859707
 31
0.0
  0
LINE
  5
131
330
1F
100
AcDbEntity
  8
0-1_ピット
  6
Continuous
 62
     2
370
     9
100
AcDbLine
 10
-22.40210276896244
 20
434.6797614735552
 30
0.0
 11
-20.97744324615838
 21
439.9965504304809
 31
0.0
  0
LINE
  5
132
330
1F
100
AcDbEntity
  8
0-1_ピット
  6
Continuous
 62
     2
370
     9
100
AcDbLine
 10
-63.50472761060087
 20
436.4477684942478
 30
0.0
 11
-64.28243097314316
 21
439.3499406859707
 31
0.0
  0
LINE
  5
133
330
1F
100
AcDbEntity
  8
0-1_ピット
  6
Continuous
 62
     2
370
     9
100
AcDbLine
 10
-64.58381267711275
 20
434.6797614735552
 30
0.0
 11
-66.00847219991681
 21
439.9966494064099
 31
0.0
  0
LINE
  5
134
330
1F
100
AcDbEntity
  8
0-1_ピット
  6
Continuous
 62
     2
370
     9
100
AcDbLine
 10
-22.40210276896244
 20
434.6797614735552
 30
0.0
 11
-23.4812373234388
 21
436.4477684942478
 31
0.0
  0
LINE
  5
135
330
1F
100
AcDbEntity
  8
0-1_ピット
  6
Continuous
 62
     2
370
     9
100
AcDbLine
 10
-20.97744324615838
 20
439.9965504304809
 30
0.0
 11
-22.70358344886109
 21
439.3499406859707
 31
0.0
  0
LINE
  5
136
330
1F
100
AcDbEntity
  8
0-1_ピット
  6
Continuous
 62
     2
370
     9
100
AcDbLine
 10
-64.28243097314316
 20
439.3499406859707
 30
0.0
 11
-66.00847219991681
 21
439.9966494064099
 31
0.0
  0
LINE
  5
137
330
1F
100
AcDbEntity
  8
0-1_ピット
  6
Continuous
 62
     2
370
     9
100
AcDbLine
 10
-63.50472761060087
 20
436.4477684942478
 30
0.0
 11
-64.58381267711275
 21
434.6797614735552
 31
0.0
  0
LINE
  5
138
330
1F
100
AcDbEntity
  8
0-1_ピット
  6
Continuous
 62
     2
370
     9
100
AcDbLine
 10
-74.12984308251816
 20
433.6007258950079
 30
0.0
 11
-74.90749695709587
 21
436.5028980867309
 31
0.0
  0
LINE
  5
139
330
1F
100
AcDbEntity
  8
0-1_ピット
  6
Continuous
 62
     2
370
     9
100
AcDbLine
 10
-72.31120987411441
 20
432.6091850377443
 30
0.0
 11
-73.73591888488306
 21
437.9261719465282
 31
0.0
  0
LINE
  5
13A
330
1F
100
AcDbEntity
  8
0-1_ピット
  6
Continuous
 62
     2
370
     9
100
AcDbLine
 10
-108.7911639492834
 20
413.5889807514268
 30
0.0
 11
-110.9157812423576
 21
415.713499068572
 31
0.0
  0
LINE
  5
13B
330
1F
100
AcDbEntity
  8
0-1_ピット
  6
Continuous
 62
     2
370
     9
100
AcDbLine
 10
-108.8416911610655
 20
411.5183053396869
 30
0.0
 11
-112.7339690590807
 21
415.4105337497376
 31
0.0
  0
LINE
  5
13C
330
1F
100
AcDbEntity
  8
0-1_ピット
  6
Continuous
 62
     2
370
     9
100
AcDbLine
 10
-72.31120987411441
 20
432.6091850377443
 30
0.0
 11
-74.12984308251816
 21
433.6007258950079
 31
0.0
  0
LINE
  5
13D
330
1F
100
AcDbEntity
  8
0-1_ピット
  6
Continuous
 62
     2
370
     9
100
AcDbLine
 10
-73.73591888488306
 20
437.9261719465282
 30
0.0
 11
-74.90749695709587
 21
436.5028980867309
 31
0.0
  0
LINE
  5
13E
330
1F
100
AcDbEntity
  8
0-1_ピット
  6
Continuous
 62
     2
370
     9
100
AcDbLine
 10
-110.9157812423576
 20
415.713499068572
 30
0.0
 11
-112.7339690590807
 21
415.4105337497376
 31
0.0
  0
LINE
  5
13F
330
1F
100
AcDbEntity
  8
0-1_ピット
  6
Continuous
 62
     2
370
     9
100
AcDbLine
 10
-108.7911639492834
 20
413.5889807514268
 30
0.0
 11
-108.8416911610655
 21
411.5183053396869
 31
0.0
  0
LINE
  5
140
330
1F
100
AcDbEntity
  8
0-1_ピット
  6
Continuous
 62
     2
370
     9
100
AcDbLine
 10
-116.5692863099252
 20
405.8108583907849
 30
0.0
 11
-118.693854115035
 21
407.9354756838592
 31
0.0
  0
LINE
  5
141
330
1F
100
AcDbEntity
  8
0-1_ピット
  6
Continuous
 62
     2
370
     9
100
AcDbLine
 10
-114.4985614102209
 20
405.8615340664606
 30
0.0
 11
-118.3907898202715
 21
409.7536635005821
 31
0.0
  0
LINE
  5
142
330
1F
100
AcDbEntity
  8
0-1_ピット
  6
Continuous
 62
     2
370
     9
100
AcDbLine
 10
-136.5810314535063
 20
371.1495870119842
 30
0.0
 11
-139.4832531331938
 21
371.9271419106329
 31
0.0
  0
LINE
  5
143
330
1F
100
AcDbEntity
  8
0-1_ピット
  6
Continuous
 62
     2
370
     9
100
AcDbLine
 10
-135.5893916203138
 20
369.3310032915451
 30
0.0
 11
-140.9063290411331
 21
370.7557617902782
 31
0.0
  0
LINE
  5
144
330
1F
100
AcDbEntity
  8
0-1_ピット
  6
Continuous
 62
     2
370
     9
100
AcDbLine
 10
-114.4985614102209
 20
405.8615340664606
 30
0.0
 11
-116.5692863099252
 21
405.8108583907849
 31
0.0
  0
LINE
  5
145
330
1F
100
AcDbEntity
  8
0-1_ピット
  6
Continuous
 62
     2
370
     9
100
AcDbLine
 10
-118.3907898202715
 20
409.7536635005821
 30
0.0
 11
-118.693854115035
 21
407.9354756838592
 31
0.0
  0
LINE
  5
146
330
1F
100
AcDbEntity
  8
0-1_ピット
  6
Continuous
 62
     2
370
     9
100
AcDbLine
 10
-139.4832531331938
 20
371.9271419106329
 30
0.0
 11
-140.9063290411331
 21
370.7557617902782
 31
0.0
  0
LINE
  5
147
330
1F
100
AcDbEntity
  8
0-1_ピット
  6
Continuous
 62
     2
370
     9
100
AcDbLine
 10
-136.5810314535063
 20
371.1495870119842
 30
0.0
 11
-135.5893916203138
 21
369.3310032915451
 31
0.0
  0
LINE
  5
148
330
1F
100
AcDbEntity
  8
0-1_ピット
  6
Continuous
 62
     2
370
     9
100
AcDbLine
 10
52.44210911870652
 20
360.5244220521025
 30
0.0
 11
55.34428131042954
 21
361.3021749026092
 31
0.0
  0
LINE
  5
149
330
1F
100
AcDbEntity
  8
0-1_ピット
  6
Continuous
 62
     2
370
     9
100
AcDbLine
 10
50.67400312208485
 20
361.6034576306498
 30
0.0
 11
55.99079207901058
 21
363.0282161293829
 31
0.0
  0
LINE
  5
14A
330
1F
100
AcDbEntity
  8
0-1_ピット
  6
Continuous
 62
     2
370
     9
100
AcDbLine
 10
55.34428131042954
 20
361.3021749026092
 30
0.0
 11
55.99079207901058
 21
363.0282161293829
 31
0.0
  0
LINE
  5
14B
330
1F
100
AcDbEntity
  8
0-1_ピット
  6
Continuous
 62
     2
370
     9
100
AcDbLine
 10
52.44210911870652
 20
360.5244220521025
 30
0.0
 11
50.67400312208485
 21
361.6034576306498
 31
0.0
  0
LINE
  5
14C
330
1F
100
AcDbEntity
  8
0-1_ピット
  6
Continuous
 62
     2
370
     9
100
AcDbLine
 10
-139.4280245647817
 20
360.5244220521025
 30
0.0
 11
-142.3301967565046
 21
361.3021749026092
 31
0.0
  0
LINE
  5
14D
330
1F
100
AcDbEntity
  8
0-1_ピット
  6
Continuous
 62
     2
370
     9
100
AcDbLine
 10
-137.6600175440891
 20
361.6034576306498
 30
0.0
 11
-142.9769054769438
 21
363.0282161293829
 31
0.0
  0
LINE
  5
14E
330
1F
100
AcDbEntity
  8
0-1_ピット
  6
Continuous
 62
     2
370
     9
100
AcDbLine
 10
-142.3301967565046
 20
361.3021749026092
 30
0.0
 11
-142.9769054769438
 21
363.0282161293829
 31
0.0
  0
LINE
  5
14F
330
1F
100
AcDbEntity
  8
0-1_ピット
  6
Continuous
 62
     2
370
     9
100
AcDbLine
 10
-139.4280245647817
 20
360.5244220521025
 30
0.0
 11
-137.6600175440891
 21
361.6034576306498
 31
0.0
  0
LINE
  5
150
330
1F
100
AcDbEntity
  8
0-1_ピット
  6
Continuous
 62
     4
370
     9
100
AcDbLine
 10
-110.4929560734388
 20
340.5126769085214
 30
0.0
 11
-114.0884051602209
 21
342.588499068572
 31
0.0
  0
LINE
  5
151
330
1F
100
AcDbEntity
  8
0-1_ピット
  6
Continuous
 62
     4
370
     9
100
AcDbLine
 10
-112.4928636959049
 20
340.5126769085214
 30
0.0
 11
-114.5883820658374
 21
341.7225586652782
 31
0.0
  0
LINE
  5
152
330
1F
100
AcDbEntity
  8
0-1_ピット
  6
Continuous
 62
     4
370
     9
100
AcDbLine
 10
-115.2429593726364
 20
347.0078732767647
 30
0.0
 11
-118.9929593726364
 21
340.5126769085214
 31
0.0
  0
LINE
  5
153
330
1F
100
AcDbEntity
  8
0-1_ピット
  6
Continuous
 62
     4
370
     9
100
AcDbLine
 10
-103.9929098846719
 20
340.5126769085214
 30
0.0
 11
-103.9901880466228
 21
340.517427753116
 31
0.0
  0
LINE
  5
154
330
1F
100
AcDbEntity
  8
0-1_ピット
  6
Continuous
 62
     4
370
     9
100
AcDbLine
 10
-1.992969270229317
 20
399.402364936393
 30
0.0
 11
-5.745740596242861
 21
405.9023121492309
 31
0.0
  0
LINE
  5
155
330
1F
100
AcDbEntity
  8
0-1_ピット
  6
Continuous
 62
     4
370
     9
100
AcDbLine
 10
-13.24019794421577
 20
405.9023121492309
 30
0.0
 11
-5.745740596242861
 21
405.9023121492309
 31
0.0
  0
LINE
  5
156
330
1F
100
AcDbEntity
  8
0-1_ピット
  6
Continuous
 62
     4
370
     9
100
AcDbLine
 10
-12.58839196343036
 20
398.1925821555653
 30
0.0
 11
-6.897473994680361
 21
401.4781870964437
 31
0.0
  0
LINE
  5
157
330
1F
100
AcDbEntity
  8
0-1_ピット
  6
Continuous
 62
     4
370
     9
100
AcDbLine
 10
-12.08846454577827
 20
397.3265427763424
 30
0.0
 11
-6.397497089063798
 21
400.6122466931498
 31
0.0
  0
LINE
  5
158
330
1F
100
AcDbEntity
  8
0-1_ピット
  6
JWW_CENTER1
 62
     4
370
     9
100
AcDbLine
 10
-4.241553914443791
 20
408.4980548646025
 30
0.0
 11
-14.74572080105703
 21
390.3043985618153
 31
0.0
  0
LINE
  5
159
330
1F
100
AcDbEntity
  8
0-1_ピット
  6
JWW_CENTER1
 62
     4
370
     9
100
AcDbLine
 10
-15.47987475481546
 20
402.8590002826768
 30
0.0
 11
-3.506063785643171
 21
395.9458285660383
 31
0.0
  0
LINE
  5
15A
330
1F
100
AcDbEntity
  8
0-1_ピット
  6
JWW_CENTER1
 62
     4
370
     9
100
AcDbLine
 10
-111.4929593726364
 20
340.5126769085214
 30
0.0
 11
-111.4929098846719
 21
347.4258486251599
 31
0.0
  0
LINE
  5
15B
330
1F
100
AcDbEntity
  8
0-2_本体（蓋）
  6
JWW_CENTER1
 62
     4
370
     9
100
AcDbLine
 10
-133.9929593726364
 20
340.5126769085214
 30
0.0
 11
-133.9929593726364
 21
346.8788086652782
 31
0.0
  0
LINE
  5
15C
330
1F
100
AcDbEntity
  8
0-2_本体（蓋）
  6
Continuous
 62
     6
370
     5
100
AcDbLine
 10
51.87458114151058
 20
351.5126637117308
 30
0.0
 11
39.78368164826735
 21
351.5126637117308
 31
0.0
  0
LINE
  5
15D
330
1F
100
AcDbEntity
  8
0-2_本体（蓋）
  6
Continuous
 62
     6
370
     5
100
AcDbLine
 10
39.78368164826735
 20
351.5126637117308
 30
0.0
 11
36.14968143711871
 21
350.5127099004978
 31
0.0
  0
LINE
  5
15E
330
1F
100
AcDbEntity
  8
0-2_本体（蓋）
  6
Continuous
 62
     6
370
     5
100
AcDbLine
 10
50.97924488728756
 20
350.5127099004978
 30
0.0
 11
36.14968143711871
 21
350.5127099004978
 31
0.0
  0
LINE
  5
15F
330
1F
100
AcDbEntity
  8
0-2_本体（蓋）
  6
Continuous
 62
     6
370
     5
100
AcDbLine
 10
50.97924488728756
 20
350.5127099004978
 30
0.0
 11
51.87458114151058
 21
351.5126637117308
 31
0.0
  0
LINE
  5
160
330
1F
100
AcDbEntity
  8
0-2_本体（蓋）
  6
Continuous
 62
     6
370
     5
100
AcDbLine
 10
51.37534655536194
 20
345.5127428924741
 30
0.0
 11
52.42369959590246
 21
344.5126901053119
 31
0.0
  0
LINE
  5
161
330
1F
100
AcDbEntity
  8
0-2_本体（蓋）
  6
Continuous
 62
     6
370
     5
100
AcDbLine
 10
-138.8606450514793
 20
351.5126637117308
 30
0.0
 11
-126.769646582307
 21
351.5126637117308
 31
0.0
  0
LINE
  5
162
330
1F
100
AcDbEntity
  8
0-2_本体（蓋）
  6
Continuous
 62
     6
370
     5
100
AcDbLine
 10
-126.769646582307
 20
351.5126637117308
 30
0.0
 11
-123.1356463711584
 21
350.5127099004978
 31
0.0
  0
LINE
  5
163
330
1F
100
AcDbEntity
  8
0-2_本体（蓋）
  6
Continuous
 62
     6
370
     5
100
AcDbLine
 10
-137.9652098213272
 20
350.5127099004978
 30
0.0
 11
-123.1356463711584
 21
350.5127099004978
 31
0.0
  0
LINE
  5
164
330
1F
100
AcDbEntity
  8
0-2_本体（蓋）
  6
Continuous
 62
     6
370
     5
100
AcDbLine
 10
-137.9652098213272
 20
350.5127099004978
 30
0.0
 11
-138.8606450514793
 21
351.5126637117308
 31
0.0
  0
LINE
  5
165
330
1F
100
AcDbEntity
  8
0-2_本体（蓋）
  6
Continuous
 62
     6
370
     5
100
AcDbLine
 10
-138.3613114894016
 20
345.5127428924741
 30
0.0
 11
-139.4096150419776
 21
344.5126901053119
 31
0.0
  0
LINE
  5
166
330
1F
100
AcDbEntity
  8
0-2_本体（蓋）
  6
Continuous
 62
     6
370
     5
100
AcDbLine
 10
-2.535109921622855
 20
348.5030036610552
 30
0.0
 11
1.224193815708183
 21
351.1348725905315
 31
0.0
  0
LINE
  5
167
330
1F
100
AcDbEntity
  8
0-2_本体（蓋）
  6
Continuous
 62
     6
370
     5
100
AcDbLine
 10
-6.981356094553583
 20
360.7190087286228
 30
0.0
 11
-2.409855883404937
 21
361.1192673857174
 31
0.0
  0
LINE
  5
168
330
1F
100
AcDbEntity
  8
0-2_本体（蓋）
  6
Continuous
 62
     6
370
     5
100
AcDbLine
 10
-2.535109921622855
 20
348.5030036610552
 30
0.0
 11
-14.86711477804182
 21
345.2273952890112
 31
0.0
  0
LINE
  5
169
330
1F
100
AcDbEntity
  8
0-2_本体（蓋）
  6
Continuous
 62
     6
370
     5
100
AcDbLine
 10
-17.25352340346411
 20
372.9608465136734
 30
0.0
 11
-16.06541635109921
 21
377.3934834963592
 31
0.0
  0
LINE
  5
16A
330
1F
100
AcDbEntity
  8
0-2_本体（蓋）
  6
Continuous
 62
     6
370
     5
100
AcDbLine
 10
-28.51183738150463
 20
379.4608927024403
 30
0.0
 11
-25.26715898729015
 21
382.7060164883356
 31
0.0
  0
LINE
  5
16B
330
1F
100
AcDbEntity
  8
0-2_本体（蓋）
  6
Continuous
 62
     6
370
     5
100
AcDbLine
 10
-17.25352340346411
 20
372.9608465136734
 30
0.0
 11
-24.59481550122587
 21
362.5247255782849
 31
0.0
  0
LINE
  5
16C
330
1F
100
AcDbEntity
  8
0-2_本体（蓋）
  6
Continuous
 62
     6
370
     5
100
AcDbLine
 10
-44.24960395667359
 20
382.2357818493998
 30
0.0
 11
-46.18869087073609
 21
386.3950473160383
 31
0.0
  0
LINE
  5
16D
330
1F
100
AcDbEntity
  8
0-2_本体（蓋）
  6
Continuous
 62
     6
370
     5
100
AcDbLine
 10
-57.05214037981546
 20
379.9784378354639
 30
0.0
 11
-56.65252506625973
 21
384.5500370225416
 31
0.0
  0
LINE
  5
16E
330
1F
100
AcDbEntity
  8
0-2_本体（蓋）
  6
Continuous
 62
     6
370
     5
100
AcDbLine
 10
-44.24960395667359
 20
382.2357818493998
 30
0.0
 11
-43.16522367795734
 21
369.5224227383356
 31
0.0
  0
LINE
  5
16F
330
1F
100
AcDbEntity
  8
0-2_本体（蓋）
  6
Continuous
 62
     6
370
     5
100
AcDbLine
 10
-70.89169709962118
 20
371.9881110829302
 30
0.0
 11
-75.05061615050806
 21
373.9278413405315
 31
0.0
  0
LINE
  5
170
330
1F
100
AcDbEntity
  8
0-2_本体（蓋）
  6
Continuous
 62
     6
370
     5
100
AcDbLine
 10
-79.24798734983233
 20
362.0295490052275
 30
0.0
 11
-81.88040064691847
 21
365.7883578629133
 31
0.0
  0
LINE
  5
171
330
1F
100
AcDbEntity
  8
0-2_本体（蓋）
  6
Continuous
 62
     6
370
     5
100
AcDbLine
 10
-70.89169709962118
 20
371.9881110829302
 30
0.0
 11
-61.88894556879348
 21
362.946165084197
 31
0.0
  0
LINE
  5
172
330
1F
100
AcDbEntity
  8
0-2_本体（蓋）
  6
Continuous
 62
     6
370
     5
100
AcDbLine
 10
-79.24793786186785
 20
362.0295490052275
 30
0.0
 11
-68.77999616528837
 21
354.733736346866
 31
0.0
  0
LINE
  5
173
330
1F
100
AcDbEntity
  8
0-2_本体（蓋）
  6
Continuous
 62
     6
370
     5
100
AcDbLine
 10
-84.71363610405535
 20
347.0127230972883
 30
0.0
 11
-72.00507732555025
 21
345.8730152742308
 31
0.0
  0
LINE
  5
174
330
1F
100
AcDbEntity
  8
0-2_本体（蓋）
  6
Continuous
 62
     6
370
     5
100
AcDbLine
 10
-57.05214037981546
 20
379.9783388595349
 30
0.0
 11
-53.72288705422421
 21
367.6607844887579
 31
0.0
  0
LINE
  5
175
330
1F
100
AcDbEntity
  8
0-2_本体（蓋）
  6
Continuous
 62
     6
370
     5
100
AcDbLine
 10
-28.51183738150463
 20
379.4607937265112
 30
0.0
 11
-33.87905457428338
 21
367.8850639439943
 31
0.0
  0
LINE
  5
176
330
1F
100
AcDbEntity
  8
0-2_本体（蓋）
  6
Continuous
 62
     6
370
     5
100
AcDbLine
 10
-6.981405582518171
 20
360.7190087286228
 30
0.0
 11
-18.5337275578138
 21
355.3014622759201
 31
0.0
  0
LINE
  5
177
330
1F
100
AcDbEntity
  8
0-2_本体（蓋）
  6
Continuous
 62
     6
370
     5
100
AcDbLine
 10
-110.619744238557
 20
384.9002138595349
 30
0.0
 11
-86.2071333855165
 21
368.7574377826768
 31
0.0
  0
LINE
  5
178
330
1F
100
AcDbEntity
  8
0-2_本体（蓋）
  6
Continuous
 62
     6
370
     5
100
AcDbLine
 10
-111.4470840295198
 20
383.6489601644335
 30
0.0
 11
-87.05283321131878
 21
367.5183581268491
 31
0.0
  0
LINE
  5
179
330
1F
100
AcDbEntity
  8
0-2_本体（蓋）
  6
Continuous
 62
     6
370
     5
100
AcDbLine
 10
34.76698770823349
 20
359.2645574511734
 30
0.0
 11
6.305469549449747
 21
352.444917987491
 31
0.0
  0
LINE
  5
17A
330
1F
100
AcDbEntity
  8
0-2_本体（蓋）
  6
Continuous
 62
     6
370
     5
100
AcDbLine
 10
35.11647171372339
 20
357.8058502087748
 30
0.0
 11
6.676332355615266
 21
350.9912585174741
 31
0.0
  0
LINE
  5
17B
330
1F
100
AcDbEntity
  8
0-2_本体（蓋）
  6
Continuous
 62
     6
370
     5
100
AcDbLine
 10
28.51111513644297
 20
376.4524203629133
 30
0.0
 11
2.324707170860272
 21
363.381956099822
 31
0.0
  0
LINE
  5
17C
330
1F
100
AcDbEntity
  8
0-2_本体（蓋）
  6
Continuous
 62
     6
370
     5
100
AcDbLine
 10
27.84124604860516
 20
377.7945339608862
 30
0.0
 11
1.674484804939645
 21
364.7338683147714
 31
0.0
  0
LINE
  5
17D
330
1F
100
AcDbEntity
  8
0-2_本体（蓋）
  6
Continuous
 62
     6
370
     5
100
AcDbLine
 10
23.63377930451735
 20
384.9002138595349
 30
0.0
 11
-0.7787820605586901
 21
368.7573388067478
 31
0.0
  0
LINE
  5
17E
330
1F
100
AcDbEntity
  8
0-2_本体（蓋）
  6
Continuous
 62
     6
370
     5
100
AcDbLine
 10
24.46111909548016
 20
383.6489601644335
 30
0.0
 11
0.0669177652437085
 21
367.5182591509201
 31
0.0
  0
LINE
  5
17F
330
1F
100
AcDbEntity
  8
0-2_本体（蓋）
  6
Continuous
 62
     6
370
     5
100
AcDbLine
 10
11.87662664404433
 20
398.9118402320011
 30
0.0
 11
-8.260125097932026
 21
377.6732884477951
 31
0.0
  0
LINE
  5
180
330
1F
100
AcDbEntity
  8
0-2_本体（蓋）
  6
Continuous
 62
     6
370
     5
100
AcDbLine
 10
10.78808937630787
 20
399.9439612201768
 30
0.0
 11
-9.333519048523165
 21
378.7213445605484
 31
0.0
  0
LINE
  5
181
330
1F
100
AcDbEntity
  8
0-2_本体（蓋）
  6
Continuous
 62
     6
370
     5
100
AcDbLine
 10
4.404141952321417
 20
405.1819653375755
 30
0.0
 11
-13.01502770561786
 21
381.663107123893
 31
0.0
  0
LINE
  5
182
330
1F
100
AcDbEntity
  8
0-2_本体（蓋）
  6
Continuous
 62
     6
370
     5
100
AcDbLine
 10
5.60947081634162
 20
404.2892024575079
 30
0.0
 11
-11.79653504303338
 21
380.787961959197
 31
0.0
  0
LINE
  5
183
330
1F
100
AcDbEntity
  8
0-2_本体（蓋）
  6
Continuous
 62
     6
370
     5
100
AcDbLine
 10
-11.43631214924108
 20
414.3274401580991
 30
0.0
 11
-23.09463734455358
 21
387.4825948244842
 31
0.0
  0
LINE
  5
184
330
1F
100
AcDbEntity
  8
0-2_本体（蓋）
  6
Continuous
 62
     6
370
     5
100
AcDbLine
 10
-12.81212705105703
 20
414.9249578417984
 30
0.0
 11
-24.46174236461275
 21
388.1003035977106
 31
0.0
  0
LINE
  5
185
330
1F
100
AcDbEntity
  8
0-2_本体（蓋）
  6
Continuous
 62
     6
370
     5
100
AcDbLine
 10
-20.60262140283067
 20
417.6637207746532
 30
0.0
 11
-28.92733833167359
 21
389.6055295267647
 31
0.0
  0
LINE
  5
186
330
1F
100
AcDbEntity
  8
0-2_本体（蓋）
  6
Continuous
 62
     6
370
     5
100
AcDbLine
 10
-19.16455064163973
 20
417.2370355445011
 30
0.0
 11
-27.48303208695223
 21
389.1999261695011
 31
0.0
  0
LINE
  5
187
330
1F
100
AcDbEntity
  8
0-2_本体（蓋）
  6
Continuous
 62
     6
370
     5
100
AcDbLine
 10
-38.61569612305869
 20
420.8399573139268
 30
0.0
 11
-40.3894437476364
 21
391.6266179980484
 31
0.0
  0
LINE
  5
188
330
1F
100
AcDbEntity
  8
0-2_本体（蓋）
  6
Continuous
 62
     6
370
     5
100
AcDbLine
 10
-40.11290500185931
 20
420.9308172167984
 30
0.0
 11
-41.88536593935931
 21
391.7394505571701
 31
0.0
  0
LINE
  5
189
330
1F
100
AcDbEntity
  8
0-2_本体（蓋）
  6
Continuous
 62
     6
370
     5
100
AcDbLine
 10
-48.37026881098098
 20
420.8399573139268
 30
0.0
 11
-46.5964716984388
 21
391.6266179980484
 31
0.0
  0
LINE
  5
18A
330
1F
100
AcDbEntity
  8
0-2_本体（蓋）
  6
Continuous
 62
     6
370
     5
100
AcDbLine
 10
-46.87301044421577
 20
420.9308172167984
 30
0.0
 11
-45.10054950671577
 21
391.7394505571701
 31
0.0
  0
LINE
  5
18B
330
1F
100
AcDbEntity
  8
0-2_本体（蓋）
  6
Continuous
 62
     6
370
     5
100
AcDbLine
 10
-66.383343531209
 20
417.6637207746532
 30
0.0
 11
-58.05857711440161
 21
389.6055295267647
 31
0.0
  0
LINE
  5
18C
330
1F
100
AcDbEntity
  8
0-2_本体（蓋）
  6
Continuous
 62
     6
370
     5
100
AcDbLine
 10
-67.82141429239994
 20
417.2370355445011
 30
0.0
 11
-59.50288335912285
 21
389.1999261695011
 31
0.0
  0
LINE
  5
18D
330
1F
100
AcDbEntity
  8
0-2_本体（蓋）
  6
Continuous
 62
     6
370
     5
100
AcDbLine
 10
-75.54965278479858
 20
414.3274401580991
 30
0.0
 11
-63.8912781015215
 21
387.4825948244842
 31
0.0
  0
LINE
  5
18E
330
1F
100
AcDbEntity
  8
0-2_本体（蓋）
  6
Continuous
 62
     6
370
     5
100
AcDbLine
 10
-74.17378839501816
 20
414.9249578417984
 30
0.0
 11
-62.52417308146244
 21
388.1003035977106
 31
0.0
  0
LINE
  5
18F
330
1F
100
AcDbEntity
  8
0-2_本体（蓋）
  6
Continuous
 62
     6
370
     5
100
AcDbLine
 10
-91.39010688636108
 20
405.1819653375755
 30
0.0
 11
-73.97088774045733
 21
381.663107123893
 31
0.0
  0
LINE
  5
190
330
1F
100
AcDbEntity
  8
0-2_本体（蓋）
  6
Continuous
 62
     6
370
     5
100
AcDbLine
 10
-92.59548523834587
 20
404.2892024575079
 30
0.0
 11
-75.18938040304181
 21
380.787961959197
 31
0.0
  0
LINE
  5
191
330
1F
100
AcDbEntity
  8
0-2_本体（蓋）
  6
Continuous
 62
     6
370
     5
100
AcDbLine
 10
-98.86254209011952
 20
398.9118402320011
 30
0.0
 11
-78.72579034814316
 21
377.6733874237241
 31
0.0
  0
LINE
  5
192
330
1F
100
AcDbEntity
  8
0-2_本体（蓋）
  6
Continuous
 62
     6
370
     5
100
AcDbLine
 10
-97.77400482238306
 20
399.9439612201768
 30
0.0
 11
-77.65239639755191
 21
378.7213445605484
 31
0.0
  0
LINE
  5
193
330
1F
100
AcDbEntity
  8
0-2_本体（蓋）
  6
Continuous
 62
     6
370
     5
100
AcDbLine
 10
29.77978859505787
 20
348.8939585808187
 30
0.0
 11
7.383317416848392
 21
346.3321646091126
 31
0.0
  0
LINE
  5
194
330
1F
100
AcDbEntity
  8
0-2_本体（蓋）
  6
Continuous
 62
     6
370
     5
100
AcDbLine
 10
29.60915409336871
 20
350.3842391445856
 30
0.0
 11
7.234655571409228
 21
347.8249195711058
 31
0.0
  0
LINE
  5
195
330
1F
100
AcDbEntity
  8
0-2_本体（蓋）
  6
Continuous
 62
     6
370
     5
100
AcDbLine
 10
-121.7529031543087
 20
359.2645574511734
 30
0.0
 11
-93.29138499552494
 21
352.444917987491
 31
0.0
  0
LINE
  5
196
330
1F
100
AcDbEntity
  8
0-2_本体（蓋）
  6
Continuous
 62
     6
370
     5
100
AcDbLine
 10
-122.1024366477631
 20
357.8058502087748
 30
0.0
 11
-93.66229728965493
 21
350.9913574934032
 31
0.0
  0
LINE
  5
197
330
1F
100
AcDbEntity
  8
0-2_本体（蓋）
  6
Continuous
 62
     6
370
     5
100
AcDbLine
 10
-115.4970305825182
 20
376.4524203629133
 30
0.0
 11
-89.31067210489994
 21
363.381956099822
 31
0.0
  0
LINE
  5
198
330
1F
100
AcDbEntity
  8
0-2_本体（蓋）
  6
Continuous
 62
     6
370
     5
100
AcDbLine
 10
-114.8271120067158
 20
377.7945339608862
 30
0.0
 11
-88.66044973897931
 21
364.7338683147714
 31
0.0
  0
LINE
  5
199
330
1F
100
AcDbEntity
  8
0-2_本体（蓋）
  6
Continuous
 62
     6
370
     5
100
AcDbLine
 10
-116.7657040411331
 20
348.8939585808187
 30
0.0
 11
-94.36923286292358
 21
346.3322635850416
 31
0.0
  0
LINE
  5
19A
330
1F
100
AcDbEntity
  8
0-2_本体（蓋）
  6
Continuous
 62
     6
370
     5
100
AcDbLine
 10
-116.5952180033374
 20
350.3842391445856
 30
0.0
 11
-94.22062050544889
 21
347.8250185470349
 31
0.0
  0
LINE
  5
19B
330
1F
100
AcDbEntity
  8
0-2_本体（蓋）
  6
Continuous
 62
     6
370
     5
100
AcDbLine
 10
52.42369959590246
 20
344.5126901053119
 30
0.0
 11
50.90738836279433
 21
344.5126901053119
 31
0.0
  0
LINE
  5
19C
330
1F
100
AcDbEntity
  8
0-2_本体（蓋）
  6
Continuous
 62
     6
370
     5
100
AcDbLine
 10
51.37534655536194
 20
345.5127428924741
 30
0.0
 11
49.10780802073349
 21
345.5127428924741
 31
0.0
  0
LINE
  5
19D
330
1F
100
AcDbEntity
  8
0-2_本体（蓋）
  6
Continuous
 62
     6
370
     5
100
AcDbLine
 10
33.50702413137548
 20
346.9069178291296
 30
0.0
 11
33.50702413137548
 21
340.5126769085214
 31
0.0
  0
LINE
  5
19E
330
1F
100
AcDbEntity
  8
0-2_本体（蓋）
  6
Continuous
 62
     6
370
     5
100
AcDbLine
 10
32.00694495063214
 20
340.5126769085214
 30
0.0
 11
32.00694495063214
 21
346.9069178291296
 31
0.0
  0
LINE
  5
19F
330
1F
100
AcDbEntity
  8
0-2_本体（蓋）
  6
Continuous
 62
     6
370
     5
100
AcDbLine
 10
-84.71363610405535
 20
347.0127230972883
 30
0.0
 11
-89.14637206267014
 21
345.8253088764268
 31
0.0
  0
LINE
  5
1A0
330
1F
100
AcDbEntity
  8
0-2_本体（蓋）
  6
Continuous
 62
     6
370
     5
100
AcDbLine
 10
-118.9929593726364
 20
340.5126769085214
 30
0.0
 11
-118.9929593726364
 21
346.9069178291296
 31
0.0
  0
LINE
  5
1A1
330
1F
100
AcDbEntity
  8
0-2_本体（蓋）
  6
Continuous
 62
     6
370
     5
100
AcDbLine
 10
-120.4929395774506
 20
346.9069178291296
 30
0.0
 11
-120.4929395774506
 21
340.5126769085214
 31
0.0
  0
LINE
  5
1A2
330
1F
100
AcDbEntity
  8
0-2_本体（蓋）
  6
Continuous
 62
     6
370
     5
100
AcDbLine
 10
-139.4096150419776
 20
344.5126901053119
 30
0.0
 11
-137.3933763912174
 21
344.5126901053119
 31
0.0
  0
LINE
  5
1A3
330
1F
100
AcDbEntity
  8
0-2_本体（蓋）
  6
Continuous
 62
     6
370
     5
100
AcDbLine
 10
-138.3613114894016
 20
345.5127428924741
 30
0.0
 11
-135.5937465611921
 21
345.5127428924741
 31
0.0
  0
LINE
  5
1A4
330
1F
100
AcDbEntity
  8
0-1_ピット
  6
Continuous
 62
     4
370
     9
100
AcDbLine
 10
-1.992969270229317
 20
399.402364936393
 30
0.0
 11
-5.745740596242861
 21
392.9024177235552
 31
0.0
  0
LINE
  5
1A5
330
1F
100
AcDbEntity
  8
0-1_ピット
  6
Continuous
 62
     4
370
     9
100
AcDbLine
 10
-13.24019794421577
 20
392.9024177235552
 30
0.0
 11
-5.745740596242861
 21
392.9024177235552
 31
0.0
  0
LINE
  5
1A6
330
1F
100
AcDbEntity
  8
0-1_ピット
  6
Continuous
 62
     4
370
     9
100
AcDbLine
 10
-16.99296927022932
 20
399.402364936393
 30
0.0
 11
-13.24019794421577
 21
392.9024177235552
 31
0.0
  0
LINE
  5
1A7
330
1F
100
AcDbEntity
  8
0-1_ピット
  6
Continuous
 62
     4
370
     9
100
AcDbLine
 10
-16.99296927022932
 20
399.402364936393
 30
0.0
 11
-13.24019794421577
 21
405.9023121492309
 31
0.0
  0
LINE
  5
1A8
330
1F
100
AcDbEntity
  8
0-1_ピット
  6
Continuous
 62
     4
370
     9
100
AcDbLine
 10
-103.9901880466228
 20
340.517427753116
 30
0.0
 11
-107.7374167206094
 21
347.0078732767647
 31
0.0
  0
LINE
  5
1A9
330
1F
100
AcDbEntity
  8
0-1_ピット
  6
Continuous
 62
     4
370
     9
100
AcDbLine
 10
-115.2429593726364
 20
347.0078732767647
 30
0.0
 11
-107.7374167206094
 21
347.0078732767647
 31
0.0
  0
LINE
  5
1AA
330
1F
100
AcDbEntity
  8
0-0_通り芯
  6
Continuous
 62
     3
370
     9
100
AcDbLine
 10
-114.4929692702293
 20
-76.79121878404618
 30
0.0
 11
-108.4929989630081
 21
-76.79121878404618
 31
0.0
  0
LINE
  5
1AB
330
1F
100
AcDbEntity
  8
0-0_通り芯
  6
Continuous
 62
     3
370
     9
100
AcDbLine
 10
-108.4929989630081
 20
-75.79126497281311
 30
0.0
 11
-108.4929989630081
 21
-76.79121878404618
 31
0.0
  0
LINE
  5
1AC
330
1F
100
AcDbEntity
  8
0-1_ピット
  6
Continuous
 62
     4
370
     9
100
AcDbLine
 10
-114.8164720943424
 20
-59.43479986512727
 30
0.0
 11
-114.8164720943424
 21
-75.79126497281311
 31
0.0
  0
LINE
  5
1AD
330
1F
100
AcDbEntity
  8
0-0_通り芯
  6
Continuous
 62
     3
370
     9
100
AcDbLine
 10
-114.4929692702293
 20
-75.79126497281311
 30
0.0
 11
-114.4929692702293
 21
-76.79121878404618
 31
0.0
  0
LINE
  5
1AE
330
1F
100
AcDbEntity
  8
0-0_通り芯
  6
Continuous
 62
     3
370
     9
100
AcDbLine
 10
-108.4929989630081
 20
-76.79121878404618
 30
0.0
 11
-111.4929593726364
 21
-78.52329754249217
 31
0.0
  0
LINE
  5
1AF
330
1F
100
AcDbEntity
  8
0-0_通り芯
  6
Continuous
 62
     3
370
     9
100
AcDbLine
 10
-114.4929692702293
 20
-76.79121878404618
 30
0.0
 11
-111.4929593726364
 21
-78.52329754249217
 31
0.0
  0
LINE
  5
1B0
330
1F
100
AcDbEntity
  8
0-2_本体（蓋）
  6
Continuous
 62
     6
370
     5
100
AcDbLine
 10
-94.60088602487451
 20
-38.12142227855634
 30
0.0
 11
-107.4929956638103
 21
-41.57588015440092
 31
0.0
  0
LINE
  5
1B1
330
1F
100
AcDbEntity
  8
0-2_本体（蓋）
  6
Continuous
 62
     6
370
     5
100
AcDbLine
 10
-115.4929725694269
 20
-43.71940184992457
 30
0.0
 11
-127.4930616477631
 21
-46.93483285710363
 31
0.0
  0
LINE
  5
1B2
330
1F
100
AcDbEntity
  8
0-2_本体（蓋）
  6
Continuous
 62
     6
370
     5
100
AcDbLine
 10
-85.49292308146244
 20
-41.89260312737389
 30
0.0
 11
-107.4929956638103
 21
-47.78751048590431
 31
0.0
  0
LINE
  5
1B3
330
1F
100
AcDbEntity
  8
0-2_本体（蓋）
  6
Continuous
 62
     6
370
     5
100
AcDbLine
 10
-115.4929725694269
 20
-49.93113115735702
 30
0.0
 11
-122.9929725694269
 21
-51.9407384208705
 31
0.0
  0
LINE
  5
1B4
330
1F
100
AcDbEntity
  8
0-2_本体（蓋）
  6
Continuous
 62
     6
370
     5
100
AcDbLine
 10
-137.9929725694269
 20
-52.93485265228946
 30
0.0
 11
-115.4929725694269
 21
-52.93485265228946
 31
0.0
  0
LINE
  5
1B5
330
1F
100
AcDbEntity
  8
0-2_本体（蓋）
  6
Continuous
 62
     6
370
     5
100
AcDbLine
 10
-107.4929956638103
 20
-52.93485265228946
 30
0.0
 11
44.50701093458485
 21
-52.93485265228946
 31
0.0
  0
LINE
  5
1B6
330
1F
100
AcDbEntity
  8
0-2_本体（蓋）
  6
JWW_CENTER1
 62
     4
370
     9
100
AcDbLine
 10
47.50697134421329
 20
-40.34739092298202
 30
0.0
 11
47.50697134421329
 21
-59.60929442804957
 31
0.0
  0
LINE
  5
1B7
330
1F
100
AcDbEntity
  8
0-4_寸法
  6
Continuous
 62
     7
370
     9
100
AcDbLine
 10
-139.4929527742411
 20
163.107380376638
 30
0.0
 11
52.507037328166
 21
163.107380376638
 31
0.0
  0
LINE
  5
1B8
330
1F
100
AcDbEntity
  8
0-4_寸法
  6
Continuous
 62
     7
370
     9
100
AcDbLine
 10
-139.4929527742411
 20
-36.93484935309181
 30
0.0
 11
-139.4929527742411
 21
164.3073645404892
 31
0.0
  0
LINE
  5
1B9
330
1F
100
AcDbEntity
  8
0-4_寸法
  6
Continuous
 62
     7
370
     9
100
AcDbLine
 10
52.507037328166
 20
-36.93484935309181
 30
0.0
 11
52.507037328166
 21
164.3073645404892
 31
0.0
  0
LINE
  5
1BA
330
1F
100
AcDbEntity
  8
0-4_寸法
  6
Continuous
 62
     7
370
     9
100
AcDbLine
 10
-139.4929527742411
 20
163.107380376638
 30
0.0
 11
-129.578484472932
 21
164.4126254410383
 31
0.0
  0
LINE
  5
1BB
330
1F
100
AcDbEntity
  8
0-4_寸法
  6
Continuous
 62
     7
370
     9
100
AcDbLine
 10
-139.4929527742411
 20
163.107380376638
 30
0.0
 11
-129.578484472932
 21
161.8021353122376
 31
0.0
  0
LINE
  5
1BC
330
1F
100
AcDbEntity
  8
0-4_寸法
  6
Continuous
 62
     7
370
     9
100
AcDbLine
 10
52.507037328166
 20
163.107380376638
 30
0.0
 11
42.59261851482142
 21
164.4126254410383
 31
0.0
  0
LINE
  5
1BD
330
1F
100
AcDbEntity
  8
0-4_寸法
  6
Continuous
 62
     7
370
     9
100
AcDbLine
 10
52.507037328166
 20
163.107380376638
 30
0.0
 11
42.59261851482142
 21
161.8021353122376
 31
0.0
  0
LINE
  5
1BE
330
1F
100
AcDbEntity
  8
0-4_寸法
  6
Continuous
 62
     7
370
     9
100
AcDbLine
 10
-160.9929989630081
 20
195.1073869750332
 30
0.0
 11
74.00698454100382
 21
195.1073869750332
 31
0.0
  0
LINE
  5
1BF
330
1F
100
AcDbEntity
  8
0-4_寸法
  6
Continuous
 62
     7
370
     9
100
AcDbLine
 10
-160.9929989630081
 20
-43.43474707796514
 30
0.0
 11
-160.9929989630081
 21
196.3073711388845
 31
0.0
  0
LINE
  5
1C0
330
1F
100
AcDbEntity
  8
0-4_寸法
  6
Continuous
 62
     7
370
     9
100
AcDbLine
 10
74.00698454100382
 20
-43.43474707796514
 30
0.0
 11
74.00698454100382
 21
196.3073711388845
 31
0.0
  0
LINE
  5
1C1
330
1F
100
AcDbEntity
  8
0-4_寸法
  6
Continuous
 62
     7
370
     9
100
AcDbLine
 10
-160.9929989630081
 20
195.1073869750332
 30
0.0
 11
-151.0785306616989
 21
196.4126320394335
 31
0.0
  0
LINE
  5
1C2
330
1F
100
AcDbEntity
  8
0-4_寸法
  6
Continuous
 62
     7
370
     9
100
AcDbLine
 10
-160.9929989630081
 20
195.1073869750332
 30
0.0
 11
-151.0785306616989
 21
193.8021419106329
 31
0.0
  0
LINE
  5
1C3
330
1F
100
AcDbEntity
  8
0-4_寸法
  6
Continuous
 62
     7
370
     9
100
AcDbLine
 10
74.00698454100382
 20
195.1073869750332
 30
0.0
 11
64.09256572765923
 21
196.4126320394335
 31
0.0
  0
LINE
  5
1C4
330
1F
100
AcDbEntity
  8
0-4_寸法
  6
Continuous
 62
     7
370
     9
100
AcDbLine
 10
74.00698454100382
 20
195.1073869750332
 30
0.0
 11
64.09256572765923
 21
193.8021419106329
 31
0.0
  0
LINE
  5
1C5
330
1F
100
AcDbEntity
  8
0-4_寸法
  6
Continuous
 62
     7
370
     9
100
AcDbLine
 10
-170.9930319549844
 20
227.1073935734285
 30
0.0
 11
84.00711650890923
 21
227.1073935734285
 31
0.0
  0
LINE
  5
1C6
330
1F
100
AcDbEntity
  8
0-4_寸法
  6
Continuous
 62
     7
370
     9
100
AcDbLine
 10
-170.9930319549844
 20
-49.29115280009347
 30
0.0
 11
-170.9930319549844
 21
228.3073777372799
 31
0.0
  0
LINE
  5
1C7
330
1F
100
AcDbEntity
  8
0-4_寸法
  6
Continuous
 62
     7
370
     9
100
AcDbLine
 10
84.00711650890923
 20
-49.29115280009347
 30
0.0
 11
84.00711650890923
 21
228.3073777372799
 31
0.0
  0
LINE
  5
1C8
330
1F
100
AcDbEntity
  8
0-4_寸法
  6
Continuous
 62
     7
370
     9
100
AcDbLine
 10
-170.9930319549844
 20
227.1073935734285
 30
0.0
 11
-161.0785636536752
 21
228.4126386378288
 31
0.0
  0
LINE
  5
1C9
330
1F
100
AcDbEntity
  8
0-4_寸法
  6
Continuous
 62
     7
370
     9
100
AcDbLine
 10
-170.9930319549844
 20
227.1073935734285
 30
0.0
 11
-161.0785636536752
 21
225.8021485090281
 31
0.0
  0
LINE
  5
1CA
330
1F
100
AcDbEntity
  8
0-4_寸法
  6
Continuous
 62
     7
370
     9
100
AcDbLine
 10
84.00711650890923
 20
227.1073935734285
 30
0.0
 11
74.09269769556465
 21
228.4126386378288
 31
0.0
  0
LINE
  5
1CB
330
1F
100
AcDbEntity
  8
0-4_寸法
  6
Continuous
 62
     7
370
     9
100
AcDbLine
 10
84.00711650890923
 20
227.1073935734285
 30
0.0
 11
74.09269769556465
 21
225.8021485090281
 31
0.0
  0
LINE
  5
1CC
330
1F
100
AcDbEntity
  8
0-4_寸法
  6
Continuous
 62
     7
370
     9
100
AcDbLine
 10
-100.2429593726364
 20
-276.9531104120023
 30
0.0
 11
13.25694495063214
 21
-276.9531104120023
 31
0.0
  0
LINE
  5
1CD
330
1F
100
AcDbEntity
  8
0-4_寸法
  6
Continuous
 62
     7
370
     9
100
AcDbLine
 10
-100.2429593726364
 20
-246.9531104120023
 30
0.0
 11
-100.2429593726364
 21
-278.1530945758537
 31
0.0
  0
LINE
  5
1CE
330
1F
100
AcDbEntity
  8
0-4_寸法
  6
Continuous
 62
     7
370
     9
100
AcDbLine
 10
13.25694495063214
 20
-246.9531104120023
 30
0.0
 11
13.25694495063214
 21
-278.1530945758537
 31
0.0
  0
LINE
  5
1CF
330
1F
100
AcDbEntity
  8
0-4_寸法
  6
Continuous
 62
     7
370
     9
100
AcDbLine
 10
-100.2429593726364
 20
-276.9531104120023
 30
0.0
 11
-90.32849107132722
 21
-275.6478158596374
 31
0.0
  0
LINE
  5
1D0
330
1F
100
AcDbEntity
  8
0-4_寸法
  6
Continuous
 62
     7
370
     9
100
AcDbLine
 10
-100.2429593726364
 20
-276.9531104120023
 30
0.0
 11
-90.32849107132722
 21
-278.2583554764026
 31
0.0
  0
LINE
  5
1D1
330
1F
100
AcDbEntity
  8
0-4_寸法
  6
Continuous
 62
     7
370
     9
100
AcDbLine
 10
13.25694495063214
 20
-276.9531104120023
 30
0.0
 11
3.342476649323082
 21
-275.6478158596374
 31
0.0
  0
LINE
  5
1D2
330
1F
100
AcDbEntity
  8
0-4_寸法
  6
Continuous
 62
     7
370
     9
100
AcDbLine
 10
13.25694495063214
 20
-276.9531104120023
 30
0.0
 11
3.342476649323082
 21
-278.2583554764026
 31
0.0
  0
LINE
  5
1D3
330
1F
100
AcDbEntity
  8
0-4_寸法
  6
Continuous
 62
     7
370
     9
100
AcDbLine
 10
124.0071495008856
 20
-236.9530774200259
 30
0.0
 11
124.0071495008856
 21
-86.79130126398707
 31
0.0
  0
LINE
  5
1D4
330
1F
100
AcDbEntity
  8
0-4_寸法
  6
Continuous
 62
     7
370
     9
100
AcDbLine
 10
23.25697794260849
 20
-236.9530774200259
 30
0.0
 11
125.2071336647369
 21
-236.9530774200259
 31
0.0
  0
LINE
  5
1D5
330
1F
100
AcDbEntity
  8
0-4_寸法
  6
Continuous
 62
     7
370
     9
100
AcDbLine
 10
29.00708351693287
 20
-86.79130126398707
 30
0.0
 11
125.2071336647369
 21
-86.79130126398707
 31
0.0
  0
LINE
  5
1D6
330
1F
100
AcDbEntity
  8
0-4_寸法
  6
Continuous
 62
     7
370
     9
100
AcDbLine
 10
124.0071495008856
 20
-236.9530774200259
 30
0.0
 11
122.7018549485207
 21
-227.0386586066813
 31
0.0
  0
LINE
  5
1D7
330
1F
100
AcDbEntity
  8
0-4_寸法
  6
Continuous
 62
     7
370
     9
100
AcDbLine
 10
124.0071495008856
 20
-236.9530774200259
 30
0.0
 11
125.3124440532505
 21
-227.0386586066813
 31
0.0
  0
LINE
  5
1D8
330
1F
100
AcDbEntity
  8
0-4_寸法
  6
Continuous
 62
     7
370
     9
100
AcDbLine
 10
124.0071495008856
 20
-86.79130126398707
 30
0.0
 11
122.7018549485207
 21
-96.70576956529618
 31
0.0
  0
LINE
  5
1D9
330
1F
100
AcDbEntity
  8
0-4_寸法
  6
Continuous
 62
     7
370
     9
100
AcDbLine
 10
124.0071495008856
 20
-86.79130126398707
 30
0.0
 11
125.3124440532505
 21
-96.70576956529618
 31
0.0
  0
LINE
  5
1DA
330
1F
100
AcDbEntity
  8
0-4_寸法
  6
Continuous
 62
     7
370
     9
100
AcDbLine
 10
124.0071495008856
 20
-86.79130126398707
 30
0.0
 11
124.0071495008856
 21
-51.29125837441779
 31
0.0
  0
LINE
  5
1DB
330
1F
100
AcDbEntity
  8
0-4_寸法
  6
Continuous
 62
     7
370
     9
100
AcDbLine
 10
92.00704392656121
 20
-51.29125837441779
 30
0.0
 11
125.2071336647369
 21
-51.29125837441779
 31
0.0
  0
LINE
  5
1DC
330
1F
100
AcDbEntity
  8
0-4_寸法
  6
Continuous
 62
     7
370
     9
100
AcDbLine
 10
124.0071495008856
 20
-86.79130126398707
 30
0.0
 11
122.7018549485207
 21
-76.87683296267795
 31
0.0
  0
LINE
  5
1DD
330
1F
100
AcDbEntity
  8
0-4_寸法
  6
Continuous
 62
     7
370
     9
100
AcDbLine
 10
124.0071495008856
 20
-86.79130126398707
 30
0.0
 11
125.3124440532505
 21
-76.87683296267795
 31
0.0
  0
LINE
  5
1DE
330
1F
100
AcDbEntity
  8
0-4_寸法
  6
Continuous
 62
     7
370
     9
100
AcDbLine
 10
124.0071495008856
 20
-51.29125837441779
 30
0.0
 11
122.7018549485207
 21
-61.20572667572696
 31
0.0
  0
LINE
  5
1DF
330
1F
100
AcDbEntity
  8
0-4_寸法
  6
Continuous
 62
     7
370
     9
100
AcDbLine
 10
124.0071495008856
 20
-51.29125837441779
 30
0.0
 11
125.3124440532505
 21
-61.20572667572696
 31
0.0
  0
LINE
  5
1E0
330
1F
100
AcDbEntity
  8
0-4_寸法
  6
Continuous
 62
     7
370
     9
100
AcDbLine
 10
124.0071495008856
 20
-51.29125837441779
 30
0.0
 11
124.0071495008856
 21
123.1073968726261
 31
0.0
  0
LINE
  5
1E1
330
1F
100
AcDbEntity
  8
0-4_寸法
  6
Continuous
 62
     7
370
     9
100
AcDbLine
 10
124.0071495008856
 20
-51.29125837441779
 30
0.0
 11
122.7018549485207
 21
-41.37679007310868
 31
0.0
  0
LINE
  5
1E2
330
1F
100
AcDbEntity
  8
0-4_寸法
  6
Continuous
 62
     7
370
     9
100
AcDbLine
 10
124.0071495008856
 20
-51.29125837441779
 30
0.0
 11
125.3124440532505
 21
-41.37679007310868
 31
0.0
  0
LINE
  5
1E3
330
1F
100
AcDbEntity
  8
0-4_寸法
  6
Continuous
 62
     7
370
     9
100
AcDbLine
 10
124.0071495008856
 20
123.1073968726261
 30
0.0
 11
122.7018549485207
 21
113.1929285713169
 31
0.0
  0
LINE
  5
1E4
330
1F
100
AcDbEntity
  8
0-4_寸法
  6
Continuous
 62
     7
370
     9
100
AcDbLine
 10
124.0071495008856
 20
123.1073968726261
 30
0.0
 11
125.3124440532505
 21
113.1929285713169
 31
0.0
  0
LINE
  5
1E5
330
1F
100
AcDbEntity
  8
0-4_寸法
  6
Continuous
 62
     7
370
     9
100
AcDbLine
 10
-210.9930154589962
 20
-52.93485265228946
 30
0.0
 11
-210.9930154589962
 21
123.1073968726261
 31
0.0
  0
LINE
  5
1E6
330
1F
100
AcDbEntity
  8
0-4_寸法
  6
Continuous
 62
     7
370
     9
100
AcDbLine
 10
-147.9929560734388
 20
-52.93485265228946
 30
0.0
 11
-212.1929996228475
 21
-52.93485265228946
 31
0.0
  0
LINE
  5
1E7
330
1F
100
AcDbEntity
  8
0-4_寸法
  6
Continuous
 62
     7
370
     9
100
AcDbLine
 10
-210.9930154589962
 20
-52.93485265228946
 30
0.0
 11
-212.2982605233965
 21
-43.02038435098029
 31
0.0
  0
LINE
  5
1E8
330
1F
100
AcDbEntity
  8
0-4_寸法
  6
Continuous
 62
     7
370
     9
100
AcDbLine
 10
-210.9930154589962
 20
-52.93485265228946
 30
0.0
 11
-209.6877703945959
 21
-43.02038435098029
 31
0.0
  0
LINE
  5
1E9
330
1F
100
AcDbEntity
  8
0-4_寸法
  6
Continuous
 62
     7
370
     9
100
AcDbLine
 10
-210.9930154589962
 20
123.1073968726261
 30
0.0
 11
-212.2982605233965
 21
113.1929285713169
 31
0.0
  0
LINE
  5
1EA
330
1F
100
AcDbEntity
  8
0-4_寸法
  6
Continuous
 62
     7
370
     9
100
AcDbLine
 10
-210.9930154589962
 20
123.1073968726261
 30
0.0
 11
-209.6877703945959
 21
113.1929285713169
 31
0.0
  0
LINE
  5
1EB
330
1F
100
AcDbEntity
  8
0-4_寸法
  6
Continuous
 62
     7
370
     9
100
AcDbLine
 10
-82.89896193281379
 20
-126.7912847679989
 30
0.0
 11
42.10110405113891
 21
-126.7912847679989
 31
0.0
  0
LINE
  5
1EC
330
1F
100
AcDbEntity
  8
0-4_寸法
  6
Continuous
 62
     7
370
     9
100
AcDbLine
 10
-82.89896193281379
 20
-126.7912847679989
 30
0.0
 11
-72.98449363150462
 21
-125.4860397035986
 31
0.0
  0
LINE
  5
1ED
330
1F
100
AcDbEntity
  8
0-4_寸法
  6
Continuous
 62
     7
370
     9
100
AcDbLine
 10
-82.89896193281379
 20
-126.7912847679989
 30
0.0
 11
-72.98449363150462
 21
-128.0965298323993
 31
0.0
  0
LINE
  5
1EE
330
1F
100
AcDbEntity
  8
0-4_寸法
  6
Continuous
 62
     7
370
     9
100
AcDbLine
 10
42.10110405113891
 20
-126.7912847679989
 30
0.0
 11
32.18668523779433
 21
-128.0965298323993
 31
0.0
  0
LINE
  5
1EF
330
1F
100
AcDbEntity
  8
0-4_寸法
  6
Continuous
 62
     7
370
     9
100
AcDbLine
 10
42.10110405113891
 20
-126.7912847679989
 30
0.0
 11
32.18668523779433
 21
-125.4860397035986
 31
0.0
  0
LINE
  5
1F0
330
1F
100
AcDbEntity
  8
0-4_寸法
  6
Continuous
 62
     7
370
     9
100
AcDbLine
 10
-105.9929659710317
 20
-86.79130126398707
 30
0.0
 11
-82.14540869696066
 21
-128.0965298323993
 31
0.0
  0
LINE
  5
1F1
330
1F
100
AcDbEntity
  8
0-4_寸法
  6
Continuous
 62
     7
370
     9
100
AcDbLine
 10
19.00705052495652
 20
-86.79130126398707
 30
0.0
 11
42.85460779902746
 21
-128.0965298323993
 31
0.0
  0
LINE
  5
1F2
330
1F
100
AcDbEntity
  8
0-4_寸法
  6
Continuous
 62
     7
370
     9
100
AcDbLine
 10
-68.49296597103171
 20
123.1073968726261
 30
0.0
 11
-212.1929996228475
 21
123.1073968726261
 31
0.0
  0
LINE
  5
1F3
330
1F
100
AcDbEntity
  8
0-4_寸法
  6
Continuous
 62
     7
370
     9
100
AcDbLine
 10
-12.90209617056713
 20
123.1073968726261
 30
0.0
 11
125.2071336647369
 21
123.1073968726261
 31
0.0
  0
LINE
  5
1F4
330
1F
100
AcDbEntity
  8
0-1_ピット
  6
JWW_CENTER1
 62
     4
370
     9
100
AcDbLine
 10
-111.4929593726364
 20
-34.0254519185479
 30
0.0
 11
-111.4929593726364
 21
-80.66840285288066
 31
0.0
  0
ARC
  5
1F5
330
1F
100
AcDbEntity
  8
0-1_ピット
  6
Continuous
 62
     2
370
     9
100
AcDbCircle
 10
-100.7226462127969
 20
-60.9347800699415
 30
0.0
 40
1.500000019331236
100
AcDbArc
 50
11.31021118164063
 51
90.00000000000001
  0
ARC
  5
1F6
330
1F
100
AcDbEntity
  8
0-1_ピット
  6
Continuous
 62
     4
370
     9
100
AcDbCircle
 10
-117.1165737096296
 20
-55.73498066115769
 30
0.0
 40
2.800173630585542
100
AcDbArc
 50
47.92556762695312
 51
132.0746307373047
  0
ARC
  5
1F7
330
1F
100
AcDbEntity
  8
0-1_ピット
  6
Continuous
 62
     4
370
     9
100
AcDbCircle
 10
-111.4929593726364
 20
-63.02416193227253
 30
0.0
 40
10.08940980241105
100
AcDbArc
 50
68.19786071777345
 51
111.8021392822266
  0
ARC
  5
1F8
330
1F
100
AcDbEntity
  8
0-1_ピット
  6
Continuous
 62
     4
370
     9
100
AcDbCircle
 10
-105.8693945236076
 20
-55.73498066115769
 30
0.0
 40
2.800189675511541
100
AcDbArc
 50
47.92572021484376
 51
132.0742797851562
  0
ARC
  5
1F9
330
1F
100
AcDbEntity
  8
0-1_ピット
  6
Continuous
 62
     2
370
     9
100
AcDbCircle
 10
-148.0170072241989
 20
-50.18243104122524
 30
0.0
 40
3.000000038662472
100
AcDbArc
 50
254.9999084472656
 51
352.4350128173828
  0
ARC
  5
1FA
330
1F
100
AcDbEntity
  8
0-1_ピット
  6
Continuous
 62
     2
370
     9
100
AcDbCircle
 10
61.03104229015923
 20
-50.18243104122524
 30
0.0
 40
3.000000038662472
100
AcDbArc
 50
187.5656890869141
 51
285.0000915527344
  0
ARC
  5
1FB
330
1F
100
AcDbEntity
  8
0-1_ピット
  6
Continuous
 62
     2
370
     9
100
AcDbCircle
 10
-138.2317025103054
 20
-53.83959161977253
 30
0.0
 40
2.000000025774982
100
AcDbArc
 50
189.4583892822265
 51
254.9999847412109
  0
ARC
  5
1FC
330
1F
100
AcDbEntity
  8
0-1_ピット
  6
JWW_DASHED1
 62
     2
370
     9
100
AcDbCircle
 10
51.2456880883011
 20
-53.83959161977253
 30
0.0
 40
2.000000025774982
100
AcDbArc
 50
285.0000152587891
 51
350.5416107177734
  0
ARC
  5
1FD
330
1F
100
AcDbEntity
  8
0-1_ピット
  6
Continuous
 62
     2
370
     9
100
AcDbCircle
 10
37.741412328166
 20
-57.45805261005972
 30
0.0
 40
2.000000025774982
100
AcDbArc
 50
285.0005187988281
 51
350.7215728759766
  0
ARC
  5
1FE
330
1F
100
AcDbEntity
  8
0-1_ピット
  6
Continuous
 62
     2
370
     9
100
AcDbCircle
 10
41.78180770401058
 20
-54.43483285710363
 30
0.0
 40
1.500000019331236
100
AcDbArc
 50
90.0
 51
170.7201690673828
  0
ARC
  5
1FF
330
1F
100
AcDbEntity
  8
0-1_ピット
  6
Continuous
 62
     2
370
     9
100
AcDbCircle
 10
52.15329735772684
 20
-51.43477347154618
 30
0.0
 40
1.500000019331236
100
AcDbArc
 50
270.0
 51
350.5404815673828
  0
ARC
  5
200
330
1F
100
AcDbEntity
  8
0-1_ピット
  6
Continuous
 62
     2
370
     9
100
AcDbCircle
 10
23.261431859416
 20
-61.93483285710363
 30
0.0
 40
1.000000012887491
100
AcDbArc
 50
90.0
 51
164.0540161132812
  0
ELLIPSE
  5
201
330
1F
100
AcDbEntity
  8
0-2_本体（蓋）
  6
Continuous
 62
     4
370
     9
100
AcDbEllipse
 10
47.50697134421329
 20
-45.9348790458705
 30
0.0
 11
5.249980204814189
 21
0.0
 31
0.0
210
0.0
220
0.0
230
1.0
 40
0.7428
 41
0.0
 42
1.475408288134874
  0
ELLIPSE
  5
202
330
1F
100
AcDbEntity
  8
0-2_本体（蓋）
  6
Continuous
 62
     4
370
     9
100
AcDbEllipse
 10
47.50697134421329
 20
-45.9348790458705
 30
0.0
 11
5.249980204814189
 21
0.0
 31
0.0
210
0.0
220
0.0
230
1.0
 40
0.7428
 41
1.666184365454919
 42
3.141592653589793
  0
ARC
  5
203
330
1F
100
AcDbEntity
  8
0-2_本体（蓋）
  6
Continuous
 62
     4
370
     9
100
AcDbCircle
 10
-133.9929593726364
 20
340.5126769085214
 30
0.0
 40
5.249999922675055
100
AcDbArc
 50
0.0
 51
180.0
  0
ARC
  5
204
330
1F
100
AcDbEntity
  8
0-2_本体（蓋）
  6
Continuous
 62
     4
370
     9
100
AcDbCircle
 10
47.50697134421329
 20
340.5126769085214
 30
0.0
 40
5.249999922675055
100
AcDbArc
 50
0.0
 51
180.0
  0
ARC
  5
205
330
1F
100
AcDbEntity
  8
0-0_通り芯
  6
Continuous
 62
     3
370
     9
100
AcDbCircle
 10
-138.6195396883036
 20
-60.98258544367457
 30
0.0
 40
1.500000019331236
100
AcDbArc
 50
254.9999084472656
 51
318.4355773925781
  0
ARC
  5
206
330
1F
100
AcDbEntity
  8
0-0_通り芯
  6
Continuous
 62
     3
370
     9
100
AcDbCircle
 10
-143.5899623815046
 20
-59.65086431825227
 30
0.0
 40
1.500000019331236
100
AcDbArc
 50
191.5648956298828
 51
254.9999084472656
  0
ARC
  5
207
330
1F
100
AcDbEntity
  8
0-0_通り芯
  6
Continuous
 62
     3
370
     9
100
AcDbCircle
 10
-149.7311218515215
 20
-55.80535254671514
 30
0.0
 40
1.625007487632133
100
AcDbArc
 50
187.620590209961
 51
322.37890625
  0
ARC
  5
208
330
1F
100
AcDbEntity
  8
0-0_通り芯
  6
Continuous
 62
     3
370
     9
100
AcDbCircle
 10
-146.4018685259304
 20
-58.37971646141108
 30
0.0
 40
1.000000012887491
100
AcDbArc
 50
11.56642150878907
 51
75.00077819824219
  0
ARC
  5
209
330
1F
100
AcDbEntity
  8
0-0_通り芯
  6
Continuous
 62
     3
370
     9
100
AcDbCircle
 10
-135.5487125134725
 20
-61.28782720887727
 30
0.0
 40
1.000000012887491
100
AcDbArc
 50
75.00022888183594
 51
138.4349822998047
  0
ARC
  5
20A
330
1F
100
AcDbEntity
  8
0-0_通り芯
  6
Continuous
 62
     3
370
     9
100
AcDbCircle
 10
-155.5267068652462
 20
-54.25242021985702
 30
0.0
 40
1.625007487632133
100
AcDbArc
 50
187.6192932128907
 51
322.3796997070313
  0
ARC
  5
20B
330
1F
100
AcDbEntity
  8
0-0_通り芯
  6
Continuous
 62
     3
370
     9
100
AcDbCircle
 10
-131.378460718709
 20
-60.72287260583676
 30
0.0
 40
1.625007487632133
100
AcDbArc
 50
187.620590209961
 51
322.3807373046876
  0
ARC
  5
20C
330
1F
100
AcDbEntity
  8
0-0_通り芯
  6
Continuous
 62
     3
370
     9
100
AcDbCircle
 10
-160.4609043684134
 20
-70.14171894240769
 30
0.0
 40
10.99999994845004
100
AcDbArc
 50
75.00028991699223
 51
126.4291534423828
  0
ARC
  5
20D
330
1F
100
AcDbEntity
  8
0-0_通り芯
  6
Continuous
 62
     3
370
     9
100
AcDbCircle
 10
-147.8690876982276
 20
-63.68066926968811
 30
0.0
 40
1.500000019331236
100
AcDbArc
 50
191.56640625
 51
255.0011596679688
  0
ARC
  5
20E
330
1F
100
AcDbEntity
  8
0-0_通り芯
  6
Continuous
 62
     3
370
     9
100
AcDbCircle
 10
-152.392584583785
 20
-64.02144339342118
 30
0.0
 40
3.000000038662472
100
AcDbArc
 50
11.56622314453126
 51
75.00025939941408
  0
ARC
  5
20F
330
1F
100
AcDbEntity
  8
0-0_通り芯
  6
Continuous
 62
     3
370
     9
100
AcDbCircle
 10
-119.8563264017749
 20
-77.80225789933337
 30
0.0
 40
8.000000103099927
100
AcDbArc
 50
186.9998626708985
 51
266.0000457763672
  0
ARC
  5
210
330
1F
100
AcDbEntity
  8
0-0_通り芯
  6
JWW_DASHED1
 62
     3
370
     9
100
AcDbCircle
 10
-119.8563264017749
 20
-77.80225789933337
 30
0.0
 40
3.000000038662472
100
AcDbArc
 50
186.9998626708985
 51
266.0000457763672
  0
ARC
  5
211
330
1F
100
AcDbEntity
  8
0-0_通り芯
  6
Continuous
 62
     3
370
     9
100
AcDbCircle
 10
-110.8176466087006
 20
-91.46608285710363
 30
0.0
 40
5.000000257749815
100
AcDbArc
 50
2.193252563476571
 51
85.99998474121097
  0
ARC
  5
212
330
1F
100
AcDbEntity
  8
0-0_通り芯
  6
Continuous
 62
     3
370
     9
100
AcDbCircle
 10
-127.4070020774506
 20
-65.53993209696847
 30
0.0
 40
3.000000038662472
100
AcDbArc
 50
7.000015258789069
 51
75.00001525878908
  0
ARC
  5
213
330
1F
100
AcDbEntity
  8
0-0_通り芯
  6
Continuous
 62
     3
370
     9
100
AcDbCircle
 10
-121.522883095187
 20
-68.3319440796543
 30
0.0
 40
2.500000128874908
100
AcDbArc
 50
186.9997406005859
 51
324.2872924804688
  0
ARC
  5
214
330
1F
100
AcDbEntity
  8
0-0_通り芯
  6
Continuous
 62
     3
370
     9
100
AcDbCircle
 10
-101.1029117322225
 20
-80.61723229755972
 30
0.0
 40
1.500000019331236
100
AcDbArc
 50
184.6740570068359
 51
265.9997406005859
  0
ARC
  5
215
330
1F
100
AcDbEntity
  8
0-0_通り芯
  6
Continuous
 62
     3
370
     9
100
AcDbCircle
 10
-104.4145473424421
 20
-70.79129796478946
 30
0.0
 40
1.000000012887491
100
AcDbArc
 50
4.675003051757804
 51
89.99999999999999
  0
ARC
  5
216
330
1F
100
AcDbEntity
  8
0-0_通り芯
  6
Continuous
 62
     3
370
     9
100
AcDbCircle
 10
51.63347577833485
 20
-60.98258544367457
 30
0.0
 40
1.500000019331236
100
AcDbArc
 50
221.5644226074219
 51
285.0000915527344
  0
ARC
  5
217
330
1F
100
AcDbEntity
  8
0-0_通り芯
  6
Continuous
 62
     3
370
     9
100
AcDbCircle
 10
56.60404693542954
 20
-59.65086431825227
 30
0.0
 40
1.500000019331236
100
AcDbArc
 50
285.0000915527344
 51
348.4351043701172
  0
ARC
  5
218
330
1F
100
AcDbEntity
  8
0-0_通り芯
  6
Continuous
 62
     3
370
     9
100
AcDbCircle
 10
62.74510742951735
 20
-55.80535254671514
 30
0.0
 40
1.625007487632133
100
AcDbArc
 50
217.62109375
 51
352.3794097900391
  0
ARC
  5
219
330
1F
100
AcDbEntity
  8
0-0_通り芯
  6
Continuous
 62
     3
370
     9
100
AcDbCircle
 10
59.41595307985516
 20
-58.37971646141108
 30
0.0
 40
1.000000012887491
100
AcDbArc
 50
104.9992218017578
 51
168.4335784912109
  0
ARC
  5
21A
330
1F
100
AcDbEntity
  8
0-0_通り芯
  6
Continuous
 62
     3
370
     9
100
AcDbCircle
 10
48.56264860350381
 20
-61.28782720887727
 30
0.0
 40
1.000000012887491
100
AcDbArc
 50
41.56501770019532
 51
104.9997711181641
  0
ARC
  5
21B
330
1F
100
AcDbEntity
  8
0-0_通り芯
  6
Continuous
 62
     3
370
     9
100
AcDbCircle
 10
68.54074193120653
 20
-54.25242021985702
 30
0.0
 40
1.625007487632133
100
AcDbArc
 50
217.6203002929688
 51
352.3807067871094
  0
ARC
  5
21C
330
1F
100
AcDbEntity
  8
0-0_通り芯
  6
Continuous
 62
     3
370
     9
100
AcDbCircle
 10
44.39239680874027
 20
-60.72287260583676
 30
0.0
 40
1.625007487632133
100
AcDbArc
 50
217.6192626953125
 51
352.3794097900391
  0
ARC
  5
21D
330
1F
100
AcDbEntity
  8
0-0_通り芯
  6
Continuous
 62
     3
370
     9
100
AcDbCircle
 10
73.47488994640923
 20
-70.14171894240769
 30
0.0
 40
10.99999994845004
100
AcDbArc
 50
53.57084655761721
 51
104.9997100830078
  0
ARC
  5
21E
330
1F
100
AcDbEntity
  8
0-0_通り芯
  6
Continuous
 62
     3
370
     9
100
AcDbCircle
 10
60.88317225215246
 20
-63.68066926968811
 30
0.0
 40
1.500000019331236
100
AcDbArc
 50
284.9988403320312
 51
348.4335937499999
  0
ARC
  5
21F
330
1F
100
AcDbEntity
  8
0-0_通り芯
  6
Continuous
 62
     3
370
     9
100
AcDbCircle
 10
65.4065701617809
 20
-64.02144339342118
 30
0.0
 40
3.000000038662472
100
AcDbArc
 50
104.999740600586
 51
168.4337768554688
  0
ARC
  5
220
330
1F
100
AcDbEntity
  8
0-0_通り芯
  6
Continuous
 62
     3
370
     9
100
AcDbCircle
 10
32.87041095569975
 20
-77.80225789933337
 30
0.0
 40
8.000000103099927
100
AcDbArc
 50
273.9999542236328
 51
353.0001373291016
  0
ARC
  5
221
330
1F
100
AcDbEntity
  8
0-0_通り芯
  6
Continuous
 62
     3
370
     9
100
AcDbCircle
 10
32.87041095569975
 20
-77.80225789933337
 30
0.0
 40
3.000000038662472
100
AcDbArc
 50
273.9999542236328
 51
353.0001373291016
  0
ARC
  5
222
330
1F
100
AcDbEntity
  8
0-0_通り芯
  6
Continuous
 62
     3
370
     9
100
AcDbCircle
 10
23.83173116262548
 20
-91.46608285710363
 30
0.0
 40
5.000000257749815
100
AcDbArc
 50
94.00001525878906
 51
177.8067474365235
  0
ARC
  5
223
330
1F
100
AcDbEntity
  8
0-0_通り芯
  6
Continuous
 62
     3
370
     9
100
AcDbCircle
 10
40.42108663137548
 20
-65.53993209696847
 30
0.0
 40
3.000000038662472
100
AcDbArc
 50
104.9999847412109
 51
172.9999847412109
  0
ARC
  5
224
330
1F
100
AcDbEntity
  8
0-0_通り芯
  6
Continuous
 62
     3
370
     9
100
AcDbCircle
 10
-43.49298246701984
 20
340.5126769085214
 30
0.0
 40
126.4999967008024
100
AcDbArc
 50
0.0
 51
180.0
  0
ARC
  5
225
330
1F
100
AcDbEntity
  8
0-0_通り芯
  6
Continuous
 62
     3
370
     9
100
AcDbCircle
 10
-43.49298246701984
 20
340.5126769085214
 30
0.0
 40
127.5
100
AcDbArc
 50
0.0
 51
180.0
  0
ARC
  5
226
330
1F
100
AcDbEntity
  8
0-0_通り芯
  6
Continuous
 62
     3
370
     9
100
AcDbCircle
 10
46.69338920738891
 20
-71.89379083852253
 30
0.0
 40
5.000000257749815
100
AcDbArc
 50
48.5148620605469
 51
173.000228881836
  0
ARC
  5
227
330
1F
100
AcDbEntity
  8
0-0_通り芯
  6
Continuous
 62
     3
370
     9
100
AcDbCircle
 10
-133.6794036293932
 20
-71.89379083852253
 30
0.0
 40
5.000000257749815
100
AcDbArc
 50
6.999771118164064
 51
131.4851379394532
  0
ARC
  5
228
330
1F
100
AcDbEntity
  8
0-0_通り芯
  6
Continuous
 62
     3
370
     9
100
AcDbCircle
 10
-169.1102623445536
 20
-52.29121218565092
 30
0.0
 40
1.000000012887491
100
AcDbArc
 50
90.0
 51
172.8760375976562
  0
ARC
  5
229
330
1F
100
AcDbEntity
  8
0-0_通り芯
  6
Continuous
 62
     3
370
     9
100
AcDbCircle
 10
82.12419843458486
 20
-52.29121218565092
 30
0.0
 40
1.000000012887491
100
AcDbArc
 50
7.126770019531255
 51
90.00000000000001
  0
ARC
  5
22A
330
1F
100
AcDbEntity
  8
0-2_本体（蓋）
  6
Continuous
 62
     6
370
     5
100
AcDbCircle
 10
-54.10478567647932
 20
91.59563853225443
 30
0.0
 40
21.99999989690007
100
AcDbArc
 50
106.2159576416016
 51
175.9999389648438
  0
ARC
  5
22B
330
1F
100
AcDbEntity
  8
0-2_本体（蓋）
  6
Continuous
 62
     6
370
     5
100
AcDbCircle
 10
-32.88117925756035
 20
91.59563853225443
 30
0.0
 40
21.99999989690007
100
AcDbArc
 50
4.000061035156254
 51
73.78404235839845
  0
ARC
  5
22C
330
1F
100
AcDbEntity
  8
0-2_本体（蓋）
  6
Continuous
 62
     6
370
     5
100
AcDbCircle
 10
-43.49298246701984
 20
55.10737047904507
 30
0.0
 40
60.0
100
AcDbArc
 50
73.78405761718753
 51
106.2159423828125
  0
ARC
  5
22D
330
1F
100
AcDbEntity
  8
0-2_本体（蓋）
  6
Continuous
 62
     6
370
     5
100
AcDbCircle
 10
-32.88117925756035
 20
91.59563853225443
 30
0.0
 40
30.0
100
AcDbArc
 50
4.000061035156254
 51
73.78404235839845
  0
ARC
  5
22E
330
1F
100
AcDbEntity
  8
0-2_本体（蓋）
  6
Continuous
 62
     6
370
     5
100
AcDbCircle
 10
-54.10478567647932
 20
91.59563853225443
 30
0.0
 40
30.0
100
AcDbArc
 50
106.2159576416016
 51
175.9999389648438
  0
ARC
  5
22F
330
1F
100
AcDbEntity
  8
0-2_本体（蓋）
  6
Continuous
 62
     6
370
     5
100
AcDbCircle
 10
-43.49298246701984
 20
55.10737047904507
 30
0.0
 40
68.00000164959881
100
AcDbArc
 50
73.78405761718753
 51
106.2159423828125
  0
ARC
  5
230
330
1F
100
AcDbEntity
  8
0-2_本体（蓋）
  6
Continuous
 62
     6
370
     5
100
AcDbCircle
 10
-1.982576797678583
 20
-36.39260972576915
 30
0.0
 40
1.500006785263886
100
AcDbArc
 50
270.0
 51
90.0
  0
ARC
  5
231
330
1F
100
AcDbEntity
  8
0-2_本体（蓋）
  6
Continuous
 62
     6
370
     5
100
AcDbCircle
 10
-85.00338813636108
 20
-36.39260972576915
 30
0.0
 40
1.500006785263886
100
AcDbArc
 50
90.0
 51
270.0
  0
ARC
  5
232
330
1F
100
AcDbEntity
  8
0-2_本体（蓋）
  6
Continuous
 62
     6
370
     5
100
AcDbCircle
 10
-95.11853013382722
 20
-36.18961009527931
 30
0.0
 40
2.000000025774982
100
AcDbArc
 50
285.0002136230469
 51
356.0010986328125
  0
ARC
  5
233
330
1F
100
AcDbEntity
  8
0-2_本体（蓋）
  6
Continuous
 62
     6
370
     5
100
AcDbCircle
 10
8.132565199787557
 20
-36.18961009527931
 30
0.0
 40
2.000000025774982
100
AcDbArc
 50
183.9989013671875
 51
254.9997863769531
  0
ARC
  5
234
330
1F
100
AcDbEntity
  8
0-2_本体（蓋）
  6
Continuous
 62
     6
370
     5
100
AcDbCircle
 10
-13.66663573454515
 20
60.52006711122401
 30
0.0
 40
2.000000025774982
100
AcDbArc
 50
102.2433624267578
 51
184.0003204345703
  0
ARC
  5
235
330
1F
100
AcDbEntity
  8
0-2_本体（蓋）
  6
Continuous
 62
     6
370
     5
100
AcDbCircle
 10
-13.33333429345567
 20
55.75328739205172
 30
0.0
 40
2.000000025774982
100
AcDbArc
 50
184.0003204345703
 51
258.1065826416016
  0
ARC
  5
236
330
1F
100
AcDbEntity
  8
0-2_本体（蓋）
  6
Continuous
 62
     6
370
     5
100
AcDbCircle
 10
-73.31932919949452
 20
60.52006711122401
 30
0.0
 40
2.000000025774982
100
AcDbArc
 50
355.9996795654296
 51
77.7566375732422
  0
ARC
  5
237
330
1F
100
AcDbEntity
  8
0-2_本体（蓋）
  6
Continuous
 62
     6
370
     5
100
AcDbCircle
 10
-73.652630640584
 20
55.75328739205172
 30
0.0
 40
2.000000025774982
100
AcDbArc
 50
281.8934173583984
 51
355.9996795654296
  0
ARC
  5
238
330
1F
100
AcDbEntity
  8
0-1_ピット
  6
Continuous
 62
     2
370
     9
100
AcDbCircle
 10
-43.49298246701984
 20
340.5126769085214
 30
0.0
 40
117.500004123997
100
AcDbArc
 50
0.0
 51
180.0
  0
ARC
  5
239
330
1F
100
AcDbEntity
  8
0-1_ピット
  6
Continuous
 62
     2
370
     9
100
AcDbCircle
 10
-43.49298246701984
 20
340.5126769085214
 30
0.0
 40
111.4410317910684
100
AcDbArc
 50
0.0
 51
180.0
  0
ARC
  5
23A
330
1F
100
AcDbEntity
  8
0-1_ピット
  6
Continuous
 62
     2
370
     9
100
AcDbCircle
 10
-43.49298246701984
 20
340.5126769085214
 30
0.0
 40
117.0000148463894
100
AcDbArc
 50
0.0
 51
180.0
  0
ARC
  5
23B
330
1F
100
AcDbEntity
  8
0-1_ピット
  6
Continuous
 62
     2
370
     9
100
AcDbCircle
 10
-43.49298246701984
 20
340.5126769085214
 30
0.0
 40
98.00000783559439
100
AcDbArc
 50
18.21725463867188
 51
41.78276062011719
  0
ARC
  5
23C
330
1F
100
AcDbEntity
  8
0-1_ピット
  6
Continuous
 62
     2
370
     9
100
AcDbCircle
 10
-43.49298246701984
 20
340.5126769085214
 30
0.0
 40
100.9999991752006
100
AcDbArc
 50
18.12159729003906
 51
41.87843322753906
  0
ARC
  5
23D
330
1F
100
AcDbEntity
  8
0-1_ピット
  6
Continuous
 62
     2
370
     9
100
AcDbCircle
 10
-43.49298246701984
 20
340.5126769085214
 30
0.0
 40
102.0000024743982
100
AcDbArc
 50
17.24745178222656
 51
42.75251770019531
  0
ARC
  5
23E
330
1F
100
AcDbEntity
  8
0-1_ピット
  6
Continuous
 62
     2
370
     9
100
AcDbCircle
 10
-43.49298246701984
 20
340.5126769085214
 30
0.0
 40
96.50000288679793
100
AcDbArc
 50
17.37562561035156
 51
42.62434387207031
  0
ARC
  5
23F
330
1F
100
AcDbEntity
  8
0-1_ピット
  6
Continuous
 62
     2
370
     9
100
AcDbCircle
 10
-43.49298246701984
 20
340.5126769085214
 30
0.0
 40
98.00000783559439
100
AcDbArc
 50
48.21725463867187
 51
71.78276062011719
  0
ARC
  5
240
330
1F
100
AcDbEntity
  8
0-1_ピット
  6
Continuous
 62
     2
370
     9
100
AcDbCircle
 10
-43.49298246701984
 20
340.5126769085214
 30
0.0
 40
100.9999991752006
100
AcDbArc
 50
48.12159729003906
 51
71.87843322753906
  0
ARC
  5
241
330
1F
100
AcDbEntity
  8
0-1_ピット
  6
Continuous
 62
     2
370
     9
100
AcDbCircle
 10
-43.49298246701984
 20
340.5126769085214
 30
0.0
 40
102.0000024743982
100
AcDbArc
 50
47.24745178222656
 51
72.75251770019531
  0
ARC
  5
242
330
1F
100
AcDbEntity
  8
0-1_ピット
  6
Continuous
 62
     2
370
     9
100
AcDbCircle
 10
-43.49298246701984
 20
340.5126769085214
 30
0.0
 40
96.50000288679793
100
AcDbArc
 50
47.37562561035156
 51
72.62434387207031
  0
ARC
  5
243
330
1F
100
AcDbEntity
  8
0-1_ピット
  6
Continuous
 62
     2
370
     9
100
AcDbCircle
 10
-43.49298246701984
 20
340.5126769085214
 30
0.0
 40
98.00000783559439
100
AcDbArc
 50
78.21725463867188
 51
101.7827606201172
  0
ARC
  5
244
330
1F
100
AcDbEntity
  8
0-1_ピット
  6
Continuous
 62
     2
370
     9
100
AcDbCircle
 10
-43.49298246701984
 20
340.5126769085214
 30
0.0
 40
100.9999991752006
100
AcDbArc
 50
78.12159729003906
 51
101.8784332275391
  0
ARC
  5
245
330
1F
100
AcDbEntity
  8
0-1_ピット
  6
Continuous
 62
     2
370
     9
100
AcDbCircle
 10
-43.49298246701984
 20
340.5126769085214
 30
0.0
 40
102.0000024743982
100
AcDbArc
 50
77.24745178222656
 51
102.7525177001953
  0
ARC
  5
246
330
1F
100
AcDbEntity
  8
0-1_ピット
  6
Continuous
 62
     2
370
     9
100
AcDbCircle
 10
-43.49298246701984
 20
340.5126769085214
 30
0.0
 40
98.00000783559439
100
AcDbArc
 50
108.2172546386719
 51
131.7827606201172
  0
ARC
  5
247
330
1F
100
AcDbEntity
  8
0-1_ピット
  6
Continuous
 62
     2
370
     9
100
AcDbCircle
 10
-43.49298246701984
 20
340.5126769085214
 30
0.0
 40
100.9999991752006
100
AcDbArc
 50
108.1215972900391
 51
131.8784332275391
  0
ARC
  5
248
330
1F
100
AcDbEntity
  8
0-1_ピット
  6
Continuous
 62
     2
370
     9
100
AcDbCircle
 10
-43.49298246701984
 20
340.5126769085214
 30
0.0
 40
102.0000024743982
100
AcDbArc
 50
107.2474517822266
 51
132.7525177001953
  0
ARC
  5
249
330
1F
100
AcDbEntity
  8
0-1_ピット
  6
Continuous
 62
     2
370
     9
100
AcDbCircle
 10
-43.49298246701984
 20
340.5126769085214
 30
0.0
 40
96.50000288679793
100
AcDbArc
 50
107.3756256103516
 51
132.6243438720703
  0
ARC
  5
24A
330
1F
100
AcDbEntity
  8
0-1_ピット
  6
Continuous
 62
     2
370
     9
100
AcDbCircle
 10
-43.49298246701984
 20
340.5126769085214
 30
0.0
 40
98.00000783559439
100
AcDbArc
 50
138.2172546386718
 51
161.7827606201172
  0
ARC
  5
24B
330
1F
100
AcDbEntity
  8
0-1_ピット
  6
Continuous
 62
     2
370
     9
100
AcDbCircle
 10
-43.49298246701984
 20
340.5126769085214
 30
0.0
 40
100.9999991752006
100
AcDbArc
 50
138.1215972900391
 51
161.878433227539
  0
ARC
  5
24C
330
1F
100
AcDbEntity
  8
0-1_ピット
  6
Continuous
 62
     2
370
     9
100
AcDbCircle
 10
-43.49298246701984
 20
340.5126769085214
 30
0.0
 40
102.0000024743982
100
AcDbArc
 50
137.2474517822265
 51
162.7525177001953
  0
ARC
  5
24D
330
1F
100
AcDbEntity
  8
0-1_ピット
  6
Continuous
 62
     2
370
     9
100
AcDbCircle
 10
-43.49298246701984
 20
340.5126769085214
 30
0.0
 40
96.50000288679793
100
AcDbArc
 50
137.3756256103516
 51
162.6243438720703
  0
ARC
  5
24E
330
1F
100
AcDbEntity
  8
0-1_ピット
  6
Continuous
 62
     2
370
     9
100
AcDbCircle
 10
-43.49298246701984
 20
340.5126769085214
 30
0.0
 40
96.50000288679793
100
AcDbArc
 50
6.074417114257797
 51
12.6243438720703
  0
ARC
  5
24F
330
1F
100
AcDbEntity
  8
0-1_ピット
  6
Continuous
 62
     2
370
     9
100
AcDbCircle
 10
-43.49298246701984
 20
340.5126769085214
 30
0.0
 40
96.91704414986276
100
AcDbArc
 50
0.0
 51
5.440963745117188
  0
ARC
  5
250
330
1F
100
AcDbEntity
  8
0-1_ピット
  6
Continuous
 62
     2
370
     9
100
AcDbCircle
 10
-43.49298246701984
 20
340.5126769085214
 30
0.0
 40
98.00000783559439
100
AcDbArc
 50
0.0
 51
11.78276062011717
  0
ARC
  5
251
330
1F
100
AcDbEntity
  8
0-1_ピット
  6
Continuous
 62
     2
370
     9
100
AcDbCircle
 10
-43.49298246701984
 20
340.5126769085214
 30
0.0
 40
100.9999991752006
100
AcDbArc
 50
0.0
 51
11.87843322753904
  0
ARC
  5
252
330
1F
100
AcDbEntity
  8
0-1_ピット
  6
Continuous
 62
     2
370
     9
100
AcDbCircle
 10
-43.49298246701984
 20
340.5126769085214
 30
0.0
 40
102.0000024743982
100
AcDbArc
 50
0.0
 51
12.75251770019529
  0
ARC
  5
253
330
1F
100
AcDbEntity
  8
0-1_ピット
  6
Continuous
 62
     2
370
     9
100
AcDbCircle
 10
-43.49298246701984
 20
340.5126769085214
 30
0.0
 40
96.50000288679793
100
AcDbArc
 50
167.3756561279297
 51
173.9255828857422
  0
ARC
  5
254
330
1F
100
AcDbEntity
  8
0-1_ピット
  6
Continuous
 62
     2
370
     9
100
AcDbCircle
 10
-43.49298246701984
 20
340.5126769085214
 30
0.0
 40
96.91704414986276
100
AcDbArc
 50
174.5590362548828
 51
180.0
  0
ARC
  5
255
330
1F
100
AcDbEntity
  8
0-1_ピット
  6
Continuous
 62
     2
370
     9
100
AcDbCircle
 10
-43.49298246701984
 20
340.5126769085214
 30
0.0
 40
98.00000783559439
100
AcDbArc
 50
168.2172241210938
 51
179.9999847412109
  0
ARC
  5
256
330
1F
100
AcDbEntity
  8
0-1_ピット
  6
Continuous
 62
     2
370
     9
100
AcDbCircle
 10
-43.49298246701984
 20
340.5126769085214
 30
0.0
 40
100.9999991752006
100
AcDbArc
 50
168.121566772461
 51
180.0
  0
ARC
  5
257
330
1F
100
AcDbEntity
  8
0-1_ピット
  6
Continuous
 62
     2
370
     9
100
AcDbCircle
 10
-43.49298246701984
 20
340.5126769085214
 30
0.0
 40
102.0000024743982
100
AcDbArc
 50
167.2474822998047
 51
180.0
  0
ARC
  5
258
330
1F
100
AcDbEntity
  8
0-1_ピット
  6
Continuous
 62
     2
370
     9
100
AcDbCircle
 10
-43.49298246701984
 20
340.5126769085214
 30
0.0
 40
96.50000288679793
100
AcDbArc
 50
93.64027404785156
 51
102.6243438720703
  0
ARC
  5
259
330
1F
100
AcDbEntity
  8
0-1_ピット
  6
Continuous
 62
     2
370
     9
100
AcDbCircle
 10
-43.49298246701984
 20
340.5126769085214
 30
0.0
 40
96.50000288679793
100
AcDbArc
 50
77.37562561035156
 51
86.35972595214844
  0
ARC
  5
25A
330
1F
100
AcDbEntity
  8
0-1_ピット
  6
Continuous
 62
     2
370
     9
100
AcDbCircle
 10
-43.49298246701984
 20
340.5126769085214
 30
0.0
 40
96.91704414986276
100
AcDbArc
 50
87.58473205566406
 51
92.41526794433594
  0
ARC
  5
25B
330
1F
100
AcDbEntity
  8
0-1_ピット
  6
Continuous
 62
     4
370
     9
100
AcDbCircle
 10
-111.4929593726364
 20
340.5182195605484
 30
0.0
 40
6.50000134029904
100
AcDbArc
 50
359.9509277343751
 51
180.049072265625
  0
ARC
  5
25C
330
1F
100
AcDbEntity
  8
0-1_ピット
  6
Continuous
 62
     4
370
     9
100
AcDbCircle
 10
-111.4929593726364
 20
340.5126769085214
 30
0.0
 40
4.000000051549963
100
AcDbArc
 50
0.0
 51
180.0
  0
ARC
  5
25D
330
1F
100
AcDbEntity
  8
0-1_ピット
  6
Continuous
 62
     4
370
     9
100
AcDbCircle
 10
-111.4929593726364
 20
340.5126769085214
 30
0.0
 40
3.323499963090227
100
AcDbArc
 50
0.0
 51
180.0
  0
CIRCLE
  5
25E
330
1F
100
AcDbEntity
  8
0-1_ピット
  6
Continuous
 62
     4
370
     9
100
AcDbCircle
 10
-9.488168937670146
 20
399.3996925863085
 30
0.0
 40
6.50000134029904
  0
CIRCLE
  5
25F
330
1F
100
AcDbEntity
  8
0-1_ピット
  6
Continuous
 62
     4
370
     9
100
AcDbCircle
 10
-9.492969270229317
 20
399.402364936393
 30
0.0
 40
4.000000051549963
  0
CIRCLE
  5
260
330
1F
100
AcDbEntity
  8
0-1_ピット
  6
Continuous
 62
     4
370
     9
100
AcDbCircle
 10
-9.492969270229317
 20
399.402364936393
 30
0.0
 40
3.323499963090227
  0
ARC
  5
261
330
1F
100
AcDbEntity
  8
0-1_ピット
  6
Continuous
 62
     2
370
     9
100
AcDbCircle
 10
50.47644716769297
 20
350.5127099004978
 30
0.0
 40
2.000000025774982
100
AcDbArc
 50
324.2645721435547
 51
6.07423400878909
  0
ARC
  5
262
330
1F
100
AcDbEntity
  8
0-1_ピット
  6
Continuous
 62
     2
370
     9
100
AcDbCircle
 10
50.99646669894297
 20
349.5127560892647
 30
0.0
 40
2.000000025774982
100
AcDbArc
 50
307.7183074951172
 51
5.441635131835945
  0
ARC
  5
263
330
1F
100
AcDbEntity
  8
0-1_ピット
  6
Continuous
 62
     2
370
     9
100
AcDbCircle
 10
-137.9823821450182
 20
349.5127560892647
 30
0.0
 40
2.000000025774982
100
AcDbArc
 50
174.5583648681641
 51
232.2798309326172
  0
ARC
  5
264
330
1F
100
AcDbEntity
  8
0-1_ピット
  6
Continuous
 62
     2
370
     9
100
AcDbCircle
 10
-137.4624121017326
 20
350.5127099004978
 30
0.0
 40
2.000000025774982
100
AcDbArc
 50
173.9257659912109
 51
215.7354278564453
  0
ARC
  5
265
330
1F
100
AcDbEntity
  8
0-1_ピット
  6
Continuous
 62
     2
370
     9
100
AcDbCircle
 10
-37.49301215979859
 20
434.8219898836059
 30
0.0
 40
2.000000025774982
100
AcDbArc
 50
86.35946655273439
 51
128.1675720214844
  0
ARC
  5
266
330
1F
100
AcDbEntity
  8
0-1_ピット
  6
Continuous
 62
     2
370
     9
100
AcDbCircle
 10
-39.49296927022932
 20
435.3454735723728
 30
0.0
 40
2.000000025774982
100
AcDbArc
 50
87.58457946777345
 51
145.3054962158203
  0
ARC
  5
267
330
1F
100
AcDbEntity
  8
0-1_ピット
  6
Continuous
 62
     2
370
     9
100
AcDbCircle
 10
-47.49299566381035
 20
435.3454735723728
 30
0.0
 40
2.000000025774982
100
AcDbArc
 50
34.69450378417969
 51
92.41542053222656
  0
ARC
  5
268
330
1F
100
AcDbEntity
  8
0-1_ピット
  6
Continuous
 62
     2
370
     9
100
AcDbCircle
 10
-49.49295277424108
 20
434.8219898836059
 30
0.0
 40
2.000000025774982
100
AcDbArc
 50
51.83242797851563
 51
93.64053344726562
  0
ARC
  5
269
330
1F
100
AcDbEntity
  8
0-2_本体（蓋）
  6
Continuous
 62
     6
370
     5
100
AcDbCircle
 10
-43.49298246701984
 20
340.5126769085214
 30
0.0
 40
95.00000412399704
100
AcDbArc
 50
3.01695251464844
 51
6.042327880859379
  0
ARC
  5
26A
330
1F
100
AcDbEntity
  8
0-2_本体（蓋）
  6
Continuous
 62
     6
370
     5
100
AcDbCircle
 10
-43.49298246701984
 20
340.5126769085214
 30
0.0
 40
95.00000412399704
100
AcDbArc
 50
173.9576721191407
 51
176.9830474853516
  0
ARC
  5
26B
330
1F
100
AcDbEntity
  8
0-2_本体（蓋）
  6
Continuous
 62
     6
370
     5
100
AcDbCircle
 10
-43.49298246701984
 20
340.5126769085214
 30
0.0
 40
96.00000123719911
100
AcDbArc
 50
2.388015747070304
 51
177.6119842529297
  0
ARC
  5
26C
330
1F
100
AcDbEntity
  8
0-2_本体（蓋）
  6
Continuous
 62
     6
370
     5
100
AcDbCircle
 10
-43.49298246701984
 20
340.5126769085214
 30
0.0
 40
83.99999876280089
100
AcDbArc
 50
7.524627685546873
 51
172.4753723144531
  0
ARC
  5
26D
330
1F
100
AcDbEntity
  8
0-2_本体（蓋）
  6
Continuous
 62
     6
370
     5
100
AcDbCircle
 10
-1.930366995102652
 20
355.640256881072
 30
0.0
 40
5.499999974225019
100
AcDbArc
 50
304.9989624023437
 51
95.00103759765628
  0
ARC
  5
26E
330
1F
100
AcDbEntity
  8
0-2_本体（蓋）
  6
Continuous
 62
     6
370
     5
100
AcDbCircle
 10
-21.37799883104015
 20
378.8169553080147
 30
0.0
 40
5.499999974225019
100
AcDbArc
 50
344.9989624023438
 51
135.0010375976562
  0
ARC
  5
26F
330
1F
100
AcDbEntity
  8
0-2_本体（蓋）
  6
Continuous
 62
     6
370
     5
100
AcDbCircle
 10
-20.60499682512796
 20
359.7180651580991
 30
0.0
 40
4.878182926693478
100
AcDbArc
 50
144.8751678466797
 51
295.124755859375
  0
ARC
  5
270
330
1F
100
AcDbEntity
  8
0-2_本体（蓋）
  6
Continuous
 62
     6
370
     5
100
AcDbCircle
 10
-16.95055808462963
 20
362.7844384161228
 30
0.0
 40
7.648712879902608
100
AcDbArc
 50
181.9460906982422
 51
258.0539855957031
  0
ARC
  5
271
330
1F
100
AcDbEntity
  8
0-2_本体（蓋）
  6
Continuous
 62
     6
370
     5
100
AcDbCircle
 10
-51.17346507364994
 20
384.0707955740619
 30
0.0
 40
5.499999974225019
100
AcDbArc
 50
24.99896240234375
 51
175.0010375976562
  0
ARC
  5
272
330
1F
100
AcDbEntity
  8
0-2_本体（蓋）
  6
Continuous
 62
     6
370
     5
100
AcDbCircle
 10
-38.30471375397088
 20
369.937032905143
 30
0.0
 40
4.878182926693478
100
AcDbArc
 50
184.8751678466797
 51
335.124755859375
  0
ARC
  5
273
330
1F
100
AcDbEntity
  8
0-2_本体（蓋）
  6
Continuous
 62
     6
370
     5
100
AcDbCircle
 10
-37.47628522778837
 20
374.6350243536228
 30
0.0
 40
7.648712879902608
100
AcDbArc
 50
221.9460906982422
 51
298.0539855957031
  0
ARC
  5
274
330
1F
100
AcDbEntity
  8
0-2_本体（蓋）
  6
Continuous
 62
     6
370
     5
100
AcDbCircle
 10
-77.37511533230702
 20
368.9432156015112
 30
0.0
 40
5.499999974225019
100
AcDbArc
 50
64.99896240234375
 51
215.0010375976563
  0
ARC
  5
275
330
1F
100
AcDbEntity
  8
0-2_本体（蓋）
  6
Continuous
 62
     6
370
     5
100
AcDbCircle
 10
-58.43206278268702
 20
366.3879540411228
 30
0.0
 40
4.878182926693478
100
AcDbArc
 50
224.8751678466797
 51
15.12475585937501
  0
ARC
  5
276
330
1F
100
AcDbEntity
  8
0-2_本体（蓋）
  6
Continuous
 62
     6
370
     5
100
AcDbCircle
 10
-60.81733318492525
 20
370.519407271697
 30
0.0
 40
7.648712879902608
100
AcDbArc
 50
261.9460906982422
 51
338.0539855957031
  0
ARC
  5
277
330
1F
100
AcDbEntity
  8
0-2_本体（蓋）
  6
Continuous
 62
     6
370
     5
100
AcDbCircle
 10
-71.56928630992525
 20
350.7316446555653
 30
0.0
 40
4.878182926693478
100
AcDbArc
 50
264.875244140625
 51
55.1248321533203
  0
ARC
  5
278
330
1F
100
AcDbEntity
  8
0-2_本体（蓋）
  6
Continuous
 62
     6
370
     5
100
AcDbCircle
 10
-76.0521040886415
 20
352.3632628460214
 30
0.0
 40
7.648712879902608
100
AcDbArc
 50
301.9460144042969
 51
18.05390930175782
  0
ARC
  5
279
330
1F
100
AcDbEntity
  8
0-2_本体（蓋）
  6
Continuous
 62
     6
370
     5
100
AcDbCircle
 10
-43.49298246701984
 20
340.5126769085214
 30
0.0
 40
41.72999923293655
100
AcDbArc
 50
28.9610595703125
 51
51.03892517089845
  0
ARC
  5
27A
330
1F
100
AcDbEntity
  8
0-2_本体（蓋）
  6
Continuous
 62
     6
370
     5
100
AcDbCircle
 10
-43.49298246701984
 20
340.5126769085214
 30
0.0
 40
41.72999923293655
100
AcDbArc
 50
68.96107482910155
 51
91.03892517089844
  0
ARC
  5
27B
330
1F
100
AcDbEntity
  8
0-2_本体（蓋）
  6
Continuous
 62
     6
370
     5
100
AcDbCircle
 10
-43.49298246701984
 20
340.5126769085214
 30
0.0
 40
41.72999923293655
100
AcDbArc
 50
108.9610748291016
 51
131.0389404296875
  0
ARC
  5
27C
330
1F
100
AcDbEntity
  8
0-2_本体（蓋）
  6
Continuous
 62
     6
370
     5
100
AcDbCircle
 10
-43.49298246701984
 20
340.5126769085214
 30
0.0
 40
41.72999923293655
100
AcDbArc
 50
148.9610748291016
 51
171.0389251708984
  0
ARC
  5
27D
330
1F
100
AcDbEntity
  8
0-2_本体（蓋）
  6
Continuous
 62
     6
370
     5
100
AcDbCircle
 10
-109.516608021285
 20
386.568453143741
 30
0.0
 40
2.000000025774982
100
AcDbArc
 50
145.1017608642578
 51
236.5254669189453
  0
ARC
  5
27E
330
1F
100
AcDbEntity
  8
0-2_本体（蓋）
  6
Continuous
 62
     6
370
     5
100
AcDbCircle
 10
-109.516608021285
 20
386.568453143741
 30
0.0
 40
3.499999948450037
100
AcDbArc
 50
145.1017608642578
 51
236.5254669189453
  0
ARC
  5
27F
330
1F
100
AcDbEntity
  8
0-2_本体（蓋）
  6
Continuous
 62
     6
370
     5
100
AcDbCircle
 10
-85.37979359455358
 20
370.0085925018491
 30
0.0
 40
1.500000019331236
100
AcDbArc
 50
236.5256652832032
 51
324.8476715087891
  0
ARC
  5
280
330
1F
100
AcDbEntity
  8
0-2_本体（蓋）
  6
Continuous
 62
     6
370
     5
100
AcDbCircle
 10
-86.22549342035597
 20
368.7695128460214
 30
0.0
 40
1.500000019331236
100
AcDbArc
 50
236.524887084961
 51
326.5254058837891
  0
ARC
  5
281
330
1F
100
AcDbEntity
  8
0-2_本体（蓋）
  6
Continuous
 62
     6
370
     5
100
AcDbCircle
 10
-116.3901893663019
 20
374.662935565616
 30
0.0
 40
2.000000025774982
100
AcDbArc
 50
63.47486877441408
 51
154.8985748291016
  0
ARC
  5
282
330
1F
100
AcDbEntity
  8
0-2_本体（蓋）
  6
Continuous
 62
     6
370
     5
100
AcDbCircle
 10
-116.3901893663019
 20
374.662935565616
 30
0.0
 40
3.499999948450037
100
AcDbArc
 50
63.47471618652344
 51
154.8984222412109
  0
ARC
  5
283
330
1F
100
AcDbEntity
  8
0-2_本体（蓋）
  6
Continuous
 62
     6
370
     5
100
AcDbCircle
 10
7.553753966679544
 20
344.8418840453457
 30
0.0
 40
1.500000019331236
100
AcDbArc
 50
96.52566528320312
 51
184.8476715087891
  0
ARC
  5
284
330
1F
100
AcDbEntity
  8
0-2_本体（蓋）
  6
Continuous
 62
     6
370
     5
100
AcDbCircle
 10
7.405092121240266
 20
346.3346390073389
 30
0.0
 40
1.500000019331236
100
AcDbArc
 50
96.52488708496094
 51
186.525405883789
  0
ARC
  5
285
330
1F
100
AcDbEntity
  8
0-2_本体（蓋）
  6
Continuous
 62
     6
370
     5
100
AcDbCircle
 10
34.30091005831797
 20
361.2095334330147
 30
0.0
 40
2.000000025774982
100
AcDbArc
 50
283.4748687744141
 51
14.89857482910156
  0
ARC
  5
286
330
1F
100
AcDbEntity
  8
0-2_本体（蓋）
  6
Continuous
 62
     6
370
     5
100
AcDbCircle
 10
34.30091005831797
 20
361.2095334330147
 30
0.0
 40
3.499999948450037
100
AcDbArc
 50
283.4747161865235
 51
14.89842224121094
  0
ARC
  5
287
330
1F
100
AcDbEntity
  8
0-2_本体（蓋）
  6
Continuous
 62
     6
370
     5
100
AcDbCircle
 10
5.955886568030785
 20
353.9035262539606
 30
0.0
 40
1.500000019331236
100
AcDbArc
 50
195.1523132324219
 51
283.4743194580078
  0
ARC
  5
288
330
1F
100
AcDbEntity
  8
0-2_本体（蓋）
  6
Continuous
 62
     6
370
     5
100
AcDbCircle
 10
6.326848350125481
 20
352.4499657598728
 30
0.0
 40
1.500000019331236
100
AcDbArc
 50
193.4745788574219
 51
283.47509765625
  0
ARC
  5
289
330
1F
100
AcDbEntity
  8
0-2_本体（蓋）
  6
Continuous
 62
     6
370
     5
100
AcDbCircle
 10
29.40427392022684
 20
374.662935565616
 30
0.0
 40
2.000000025774982
100
AcDbArc
 50
25.10176086425783
 51
116.5254669189453
  0
ARC
  5
28A
330
1F
100
AcDbEntity
  8
0-2_本体（蓋）
  6
Continuous
 62
     6
370
     5
100
AcDbCircle
 10
29.40427392022684
 20
374.662935565616
 30
0.0
 40
3.499999948450037
100
AcDbArc
 50
25.10176086425783
 51
116.5254669189453
  0
ARC
  5
28B
330
1F
100
AcDbEntity
  8
0-2_本体（蓋）
  6
Continuous
 62
     6
370
     5
100
AcDbCircle
 10
2.994625746662557
 20
362.0398425018491
 30
0.0
 40
1.500000019331236
100
AcDbArc
 50
116.5256652832032
 51
204.8476715087891
  0
ARC
  5
28C
330
1F
100
AcDbEntity
  8
0-2_本体（蓋）
  6
Continuous
 62
     6
370
     5
100
AcDbCircle
 10
2.344353892777455
 20
363.3917547167984
 30
0.0
 40
1.500000019331236
100
AcDbArc
 50
116.5248870849609
 51
206.525405883789
  0
ARC
  5
28D
330
1F
100
AcDbEntity
  8
0-2_本体（蓋）
  6
Continuous
 62
     6
370
     5
100
AcDbCircle
 10
22.53059359928078
 20
386.568453143741
 30
0.0
 40
2.000000025774982
100
AcDbArc
 50
303.4748687744141
 51
34.89857482910156
  0
ARC
  5
28E
330
1F
100
AcDbEntity
  8
0-2_本体（蓋）
  6
Continuous
 62
     6
370
     5
100
AcDbCircle
 10
22.53059359928078
 20
386.568453143741
 30
0.0
 40
3.499999948450037
100
AcDbArc
 50
303.4747161865234
 51
34.89842224121094
  0
ARC
  5
28F
330
1F
100
AcDbEntity
  8
0-2_本体（蓋）
  6
Continuous
 62
     6
370
     5
100
AcDbCircle
 10
-1.606171339486089
 20
370.0084935259201
 30
0.0
 40
1.500000019331236
100
AcDbArc
 50
215.1523132324218
 51
303.4743194580078
  0
ARC
  5
290
330
1F
100
AcDbEntity
  8
0-2_本体（蓋）
  6
Continuous
 62
     6
370
     5
100
AcDbCircle
 10
-0.7604715136836901
 20
368.7695128460214
 30
0.0
 40
1.500000019331236
100
AcDbArc
 50
213.4745788574218
 51
303.47509765625
  0
ARC
  5
291
330
1F
100
AcDbEntity
  8
0-2_本体（蓋）
  6
Continuous
 62
     6
370
     5
100
AcDbCircle
 10
13.32800966769297
 20
397.5357778903626
 30
0.0
 40
2.000000025774982
100
AcDbArc
 50
45.1017608642578
 51
136.5254669189453
  0
ARC
  5
292
330
1F
100
AcDbEntity
  8
0-2_本体（蓋）
  6
Continuous
 62
     6
370
     5
100
AcDbCircle
 10
13.32800966769297
 20
397.5357778903626
 30
0.0
 40
3.499999948450037
100
AcDbArc
 50
45.1017608642578
 51
136.5254669189453
  0
ARC
  5
293
330
1F
100
AcDbEntity
  8
0-2_本体（蓋）
  6
Continuous
 62
     6
370
     5
100
AcDbCircle
 10
-7.171637318160045
 20
376.6412664355484
 30
0.0
 40
1.500000019331236
100
AcDbArc
 50
136.5256652832032
 51
224.8476715087891
  0
ARC
  5
294
330
1F
100
AcDbEntity
  8
0-2_本体（蓋）
  6
Continuous
 62
     6
370
     5
100
AcDbCircle
 10
-8.245031268751298
 20
377.6892235723728
 30
0.0
 40
1.500000019331236
100
AcDbArc
 50
136.5248870849609
 51
226.5254058837891
  0
ARC
  5
295
330
1F
100
AcDbEntity
  8
0-2_本体（蓋）
  6
Continuous
 62
     6
370
     5
100
AcDbCircle
 10
2.796921328377145
 20
406.3723488363085
 30
0.0
 40
2.000000025774982
100
AcDbArc
 50
323.4748687744141
 51
54.89857482910156
  0
ARC
  5
296
330
1F
100
AcDbEntity
  8
0-2_本体（蓋）
  6
Continuous
 62
     6
370
     5
100
AcDbCircle
 10
2.796921328377145
 20
406.3723488363085
 30
0.0
 40
3.499999948450037
100
AcDbArc
 50
323.4747161865234
 51
54.89842224121094
  0
ARC
  5
297
330
1F
100
AcDbEntity
  8
0-2_本体（蓋）
  6
Continuous
 62
     6
370
     5
100
AcDbCircle
 10
-14.22040605760265
 20
382.5558700039606
 30
0.0
 40
1.500000019331236
100
AcDbArc
 50
235.1523132324219
 51
323.4743194580079
  0
ARC
  5
298
330
1F
100
AcDbEntity
  8
0-2_本体（蓋）
  6
Continuous
 62
     6
370
     5
100
AcDbCircle
 10
-13.00191339501817
 20
381.6807248392647
 30
0.0
 40
1.500000019331236
100
AcDbArc
 50
233.4745788574219
 51
323.47509765625
  0
ARC
  5
299
330
1F
100
AcDbEntity
  8
0-2_本体（蓋）
  6
Continuous
 62
     6
370
     5
100
AcDbCircle
 10
-9.60179330422421
 20
413.530782905143
 30
0.0
 40
2.000000025774982
100
AcDbArc
 50
65.10176086425781
 51
156.5254669189453
  0
ARC
  5
29A
330
1F
100
AcDbEntity
  8
0-2_本体（蓋）
  6
Continuous
 62
     6
370
     5
100
AcDbCircle
 10
-9.60179330422421
 20
413.530782905143
 30
0.0
 40
3.499999948450037
100
AcDbArc
 50
65.10176086425781
 51
156.5254669189453
  0
ARC
  5
29B
330
1F
100
AcDbEntity
  8
0-2_本体（蓋）
  6
Continuous
 62
     6
370
     5
100
AcDbCircle
 10
-21.71877295477316
 20
386.8850771407849
 30
0.0
 40
1.500000019331236
100
AcDbArc
 50
156.5256652832032
 51
244.8476715087891
  0
ARC
  5
29C
330
1F
100
AcDbEntity
  8
0-2_本体（蓋）
  6
Continuous
 62
     6
370
     5
100
AcDbCircle
 10
-23.08587797483234
 20
387.5026869380821
 30
0.0
 40
1.500000019331236
100
AcDbArc
 50
156.5248870849609
 51
246.5254058837891
  0
ARC
  5
29D
330
1F
100
AcDbEntity
  8
0-2_本体（蓋）
  6
Continuous
 62
     6
370
     5
100
AcDbCircle
 10
-22.52003258843036
 20
418.2326344148559
 30
0.0
 40
2.000000025774982
100
AcDbArc
 50
343.4748687744141
 51
74.89857482910155
  0
ARC
  5
29E
330
1F
100
AcDbEntity
  8
0-2_本体（蓋）
  6
Continuous
 62
     6
370
     5
100
AcDbCircle
 10
-22.52003258843036
 20
418.2326344148559
 30
0.0
 40
3.499999948450037
100
AcDbArc
 50
343.4747161865234
 51
74.89842224121092
  0
ARC
  5
29F
330
1F
100
AcDbEntity
  8
0-2_本体（蓋）
  6
Continuous
 62
     6
370
     5
100
AcDbCircle
 10
-30.36535960489994
 20
390.0321157809876
 30
0.0
 40
1.500000019331236
100
AcDbArc
 50
255.1523132324219
 51
343.4743194580078
  0
ARC
  5
2A0
330
1F
100
AcDbEntity
  8
0-2_本体（蓋）
  6
Continuous
 62
     6
370
     5
100
AcDbCircle
 10
-28.92105336017858
 20
389.6266113996532
 30
0.0
 40
1.500000019331236
100
AcDbArc
 50
253.4745788574219
 51
343.4750976562501
  0
ARC
  5
2A1
330
1F
100
AcDbEntity
  8
0-2_本体（蓋）
  6
Continuous
 62
     6
370
     5
100
AcDbCircle
 10
-36.61935163403837
 20
420.7187118008356
 30
0.0
 40
2.000000025774982
100
AcDbArc
 50
85.10176086425781
 51
176.5254669189453
  0
ARC
  5
2A2
330
1F
100
AcDbEntity
  8
0-2_本体（蓋）
  6
Continuous
 62
     6
370
     5
100
AcDbCircle
 10
-36.61935163403837
 20
420.7187118008356
 30
0.0
 40
3.499999948450037
100
AcDbArc
 50
85.10176086425781
 51
176.5254669189453
  0
ARC
  5
2A3
330
1F
100
AcDbEntity
  8
0-2_本体（蓋）
  6
Continuous
 62
     6
370
     5
100
AcDbCircle
 10
-38.89223486883566
 20
391.5357580951768
 30
0.0
 40
1.500000019331236
100
AcDbArc
 50
176.525665283203
 51
264.8476715087891
  0
ARC
  5
2A4
330
1F
100
AcDbEntity
  8
0-2_本体（蓋）
  6
Continuous
 62
     6
370
     5
100
AcDbCircle
 10
-40.38810757259422
 20
391.6485906542984
 30
0.0
 40
1.500000019331236
100
AcDbArc
 50
176.5248870849609
 51
266.5254058837891
  0
ARC
  5
2A5
330
1F
100
AcDbEntity
  8
0-2_本体（蓋）
  6
Continuous
 62
     6
370
     5
100
AcDbCircle
 10
-50.3666133000013
 20
420.7187118008356
 30
0.0
 40
2.000000025774982
100
AcDbArc
 50
3.474868774414062
 51
94.89857482910155
  0
ARC
  5
2A6
330
1F
100
AcDbEntity
  8
0-2_本体（蓋）
  6
Continuous
 62
     6
370
     5
100
AcDbCircle
 10
-50.3666133000013
 20
420.7187118008356
 30
0.0
 40
3.499999948450037
100
AcDbArc
 50
3.474716186523448
 51
94.89842224121095
  0
ARC
  5
2A7
330
1F
100
AcDbEntity
  8
0-2_本体（蓋）
  6
Continuous
 62
     6
370
     5
100
AcDbCircle
 10
-48.09373006520401
 20
391.5357580951768
 30
0.0
 40
1.500000019331236
100
AcDbArc
 50
275.1523132324219
 51
3.47431945800783
  0
ARC
  5
2A8
330
1F
100
AcDbEntity
  8
0-2_本体（蓋）
  6
Continuous
 62
     6
370
     5
100
AcDbCircle
 10
-46.59780787348098
 20
391.6484916783693
 30
0.0
 40
1.500000019331236
100
AcDbArc
 50
273.4745788574219
 51
3.475097656250007
  0
ARC
  5
2A9
330
1F
100
AcDbEntity
  8
0-2_本体（蓋）
  6
Continuous
 62
     6
370
     5
100
AcDbCircle
 10
-64.4659323456093
 20
418.2326344148559
 30
0.0
 40
2.000000025774982
100
AcDbArc
 50
105.1017608642578
 51
196.5254669189453
  0
ARC
  5
2AA
330
1F
100
AcDbEntity
  8
0-2_本体（蓋）
  6
Continuous
 62
     6
370
     5
100
AcDbCircle
 10
-64.4659323456093
 20
418.2326344148559
 30
0.0
 40
3.499999948450037
100
AcDbArc
 50
105.1017608642578
 51
196.5254669189453
  0
ARC
  5
2AB
330
1F
100
AcDbEntity
  8
0-2_本体（蓋）
  6
Continuous
 62
     6
370
     5
100
AcDbCircle
 10
-56.62055584117525
 20
390.0322147569166
 30
0.0
 40
1.500000019331236
100
AcDbArc
 50
196.5256652832031
 51
284.8476715087891
  0
ARC
  5
2AC
330
1F
100
AcDbEntity
  8
0-2_本体（蓋）
  6
Continuous
 62
     6
370
     5
100
AcDbCircle
 10
-58.0648620858965
 20
389.6266113996532
 30
0.0
 40
1.500000019331236
100
AcDbArc
 50
196.5248870849609
 51
286.5254058837891
  0
ARC
  5
2AD
330
1F
100
AcDbEntity
  8
0-2_本体（蓋）
  6
Continuous
 62
     6
370
     5
100
AcDbCircle
 10
-77.38412214185087
 20
413.530782905143
 30
0.0
 40
2.000000025774982
100
AcDbArc
 50
23.47486877441407
 51
114.8985748291016
  0
ARC
  5
2AE
330
1F
100
AcDbEntity
  8
0-2_本体（蓋）
  6
Continuous
 62
     6
370
     5
100
AcDbCircle
 10
-77.38412214185087
 20
413.530782905143
 30
0.0
 40
3.499999948450037
100
AcDbArc
 50
23.47471618652345
 51
114.898422241211
  0
ARC
  5
2AF
330
1F
100
AcDbEntity
  8
0-2_本体（蓋）
  6
Continuous
 62
     6
370
     5
100
AcDbCircle
 10
-65.26714249130191
 20
386.8850771407849
 30
0.0
 40
1.500000019331236
100
AcDbArc
 50
295.1523132324219
 51
23.47431945800782
  0
ARC
  5
2B0
330
1F
100
AcDbEntity
  8
0-2_本体（蓋）
  6
Continuous
 62
     6
370
     5
100
AcDbCircle
 10
-63.90003747124286
 20
387.5027859140112
 30
0.0
 40
1.500000019331236
100
AcDbArc
 50
293.4745788574219
 51
23.47509765625
  0
ARC
  5
2B1
330
1F
100
AcDbEntity
  8
0-2_本体（蓋）
  6
Continuous
 62
     6
370
     5
100
AcDbCircle
 10
-89.78288626241681
 20
406.3723488363085
 30
0.0
 40
2.000000025774982
100
AcDbArc
 50
125.1017608642578
 51
216.5254669189453
  0
ARC
  5
2B2
330
1F
100
AcDbEntity
  8
0-2_本体（蓋）
  6
Continuous
 62
     6
370
     5
100
AcDbCircle
 10
-89.78288626241681
 20
406.3723488363085
 30
0.0
 40
3.499999948450037
100
AcDbArc
 50
125.1017608642578
 51
216.5254669189453
  0
ARC
  5
2B3
330
1F
100
AcDbEntity
  8
0-2_本体（蓋）
  6
Continuous
 62
     6
370
     5
100
AcDbCircle
 10
-72.76555887643701
 20
382.5558700039606
 30
0.0
 40
1.500000019331236
100
AcDbArc
 50
216.5256652832032
 51
304.8476715087892
  0
ARC
  5
2B4
330
1F
100
AcDbEntity
  8
0-2_本体（蓋）
  6
Continuous
 62
     6
370
     5
100
AcDbCircle
 10
-73.98400205105702
 20
381.6807248392647
 30
0.0
 40
1.500000019331236
100
AcDbArc
 50
216.524887084961
 51
306.5254058837891
  0
ARC
  5
2B5
330
1F
100
AcDbEntity
  8
0-2_本体（蓋）
  6
Continuous
 62
     6
370
     5
100
AcDbCircle
 10
-100.3138756258036
 20
397.5357778903626
 30
0.0
 40
2.000000025774982
100
AcDbArc
 50
43.47486877441408
 51
134.8985748291016
  0
ARC
  5
2B6
330
1F
100
AcDbEntity
  8
0-2_本体（蓋）
  6
Continuous
 62
     6
370
     5
100
AcDbCircle
 10
-100.3138756258036
 20
397.5357778903626
 30
0.0
 40
3.499999948450037
100
AcDbArc
 50
43.47471618652344
 51
134.8984222412109
  0
ARC
  5
2B7
330
1F
100
AcDbEntity
  8
0-2_本体（蓋）
  6
Continuous
 62
     6
370
     5
100
AcDbCircle
 10
-79.81427812791514
 20
376.6412664355484
 30
0.0
 40
1.500000019331236
100
AcDbArc
 50
315.1523132324219
 51
43.47431945800782
  0
ARC
  5
2B8
330
1F
100
AcDbEntity
  8
0-2_本体（蓋）
  6
Continuous
 62
     6
370
     5
100
AcDbCircle
 10
-78.74088417732389
 20
377.6893225483018
 30
0.0
 40
1.500000019331236
100
AcDbArc
 50
313.4745788574218
 51
43.47509765625001
  0
ARC
  5
2B9
330
1F
100
AcDbEntity
  8
0-2_本体（蓋）
  6
Continuous
 62
     6
370
     5
100
AcDbCircle
 10
30.007037328166
 20
346.9069178291296
 30
0.0
 40
2.000000025774982
100
AcDbArc
 50
0.0
 51
96.52499389648439
  0
ARC
  5
2BA
330
1F
100
AcDbEntity
  8
0-2_本体（蓋）
  6
Continuous
 62
     6
370
     5
100
AcDbCircle
 10
30.007037328166
 20
346.9069178291296
 30
0.0
 40
3.499999948450037
100
AcDbArc
 50
0.0
 51
96.52499389648439
  0
ARC
  5
2BB
330
1F
100
AcDbEntity
  8
0-2_本体（蓋）
  6
Continuous
 62
     6
370
     5
100
AcDbCircle
 10
-92.94190099003504
 20
353.9036252298897
 30
0.0
 40
1.500000019331236
100
AcDbArc
 50
256.5256652832032
 51
344.8476715087891
  0
ARC
  5
2BC
330
1F
100
AcDbEntity
  8
0-2_本体（蓋）
  6
Continuous
 62
     6
370
     5
100
AcDbCircle
 10
-93.31276379620056
 20
352.4500647358018
 30
0.0
 40
1.500000019331236
100
AcDbArc
 50
256.524887084961
 51
346.5254058837891
  0
ARC
  5
2BD
330
1F
100
AcDbEntity
  8
0-2_本体（蓋）
  6
Continuous
 62
     6
370
     5
100
AcDbCircle
 10
-89.98054119273775
 20
362.0398425018491
 30
0.0
 40
1.500000019331236
100
AcDbArc
 50
335.1523132324218
 51
63.47431945800785
  0
ARC
  5
2BE
330
1F
100
AcDbEntity
  8
0-2_本体（蓋）
  6
Continuous
 62
     6
370
     5
100
AcDbCircle
 10
-89.33031882681712
 20
363.3917547167984
 30
0.0
 40
1.500000019331236
100
AcDbArc
 50
333.4745788574219
 51
63.47509765625003
  0
ARC
  5
2BF
330
1F
100
AcDbEntity
  8
0-2_本体（蓋）
  6
Continuous
 62
     6
370
     5
100
AcDbCircle
 10
-94.53971890071921
 20
344.8419830212748
 30
0.0
 40
1.500000019331236
100
AcDbArc
 50
355.1523132324219
 51
83.47431945800783
  0
ARC
  5
2C0
330
1F
100
AcDbEntity
  8
0-2_本体（蓋）
  6
Continuous
 62
     6
370
     5
100
AcDbCircle
 10
-94.39105705527993
 20
346.334737983268
 30
0.0
 40
1.500000019331236
100
AcDbArc
 50
353.4745788574219
 51
83.47509765625
  0
ARC
  5
2C1
330
1F
100
AcDbEntity
  8
0-2_本体（蓋）
  6
Continuous
 62
     6
370
     5
100
AcDbCircle
 10
-43.49298246701984
 20
340.5126769085214
 30
0.0
 40
82.5
100
AcDbArc
 50
134.8982543945312
 51
145.1017303466797
  0
ARC
  5
2C2
330
1F
100
AcDbEntity
  8
0-2_本体（蓋）
  6
Continuous
 62
     6
370
     5
100
AcDbCircle
 10
-121.2868749923576
 20
361.2095334330147
 30
0.0
 40
2.000000025774982
100
AcDbArc
 50
165.1017608642579
 51
256.5254669189454
  0
ARC
  5
2C3
330
1F
100
AcDbEntity
  8
0-2_本体（蓋）
  6
Continuous
 62
     6
370
     5
100
AcDbCircle
 10
-121.2868749923576
 20
361.2095334330147
 30
0.0
 40
3.499999948450037
100
AcDbArc
 50
165.1017608642579
 51
256.5254669189454
  0
ARC
  5
2C4
330
1F
100
AcDbEntity
  8
0-2_本体（蓋）
  6
Continuous
 62
     6
370
     5
100
AcDbCircle
 10
-43.49298246701984
 20
340.5126769085214
 30
0.0
 40
82.5
100
AcDbArc
 50
154.8982543945312
 51
165.0114593505859
  0
ARC
  5
2C5
330
1F
100
AcDbEntity
  8
0-2_本体（蓋）
  6
Continuous
 62
     6
370
     5
100
AcDbCircle
 10
-43.49298246701984
 20
340.5126769085214
 30
0.0
 40
82.5
100
AcDbArc
 50
114.8982543945312
 51
125.1017303466797
  0
ARC
  5
2C6
330
1F
100
AcDbEntity
  8
0-2_本体（蓋）
  6
Continuous
 62
     6
370
     5
100
AcDbCircle
 10
-43.49298246701984
 20
340.5126769085214
 30
0.0
 40
82.5
100
AcDbArc
 50
94.89825439453125
 51
105.1017303466797
  0
ARC
  5
2C7
330
1F
100
AcDbEntity
  8
0-2_本体（蓋）
  6
Continuous
 62
     6
370
     5
100
AcDbCircle
 10
-43.49298246701984
 20
340.5126769085214
 30
0.0
 40
82.5
100
AcDbArc
 50
74.89825439453125
 51
85.10173034667974
  0
ARC
  5
2C8
330
1F
100
AcDbEntity
  8
0-2_本体（蓋）
  6
Continuous
 62
     6
370
     5
100
AcDbCircle
 10
-43.49298246701984
 20
340.5126769085214
 30
0.0
 40
82.5
100
AcDbArc
 50
54.89825439453131
 51
65.10173034667976
  0
ARC
  5
2C9
330
1F
100
AcDbEntity
  8
0-2_本体（蓋）
  6
Continuous
 62
     6
370
     5
100
AcDbCircle
 10
-43.49298246701984
 20
340.5126769085214
 30
0.0
 40
82.5
100
AcDbArc
 50
34.89825439453125
 51
45.10173034667969
  0
ARC
  5
2CA
330
1F
100
AcDbEntity
  8
0-2_本体（蓋）
  6
Continuous
 62
     6
370
     5
100
AcDbCircle
 10
-43.49298246701984
 20
340.5126769085214
 30
0.0
 40
82.5
100
AcDbArc
 50
14.89825439453125
 51
25.10173034667969
  0
ARC
  5
2CB
330
1F
100
AcDbEntity
  8
0-2_本体（蓋）
  6
Continuous
 62
     6
370
     5
100
AcDbCircle
 10
-116.9929527742411
 20
346.9069178291296
 30
0.0
 40
2.000000025774982
100
AcDbArc
 50
83.47500610351565
 51
180.0
  0
ARC
  5
2CC
330
1F
100
AcDbEntity
  8
0-2_本体（蓋）
  6
Continuous
 62
     6
370
     5
100
AcDbCircle
 10
-116.9929527742411
 20
346.9069178291296
 30
0.0
 40
3.499999948450037
100
AcDbArc
 50
83.47500610351565
 51
180.0
  0
ARC
  5
2CD
330
1F
100
AcDbEntity
  8
0-2_本体（蓋）
  6
Continuous
 62
     6
370
     5
100
AcDbCircle
 10
-43.49298246701984
 20
340.5126769085214
 30
0.0
 40
80.26800000989759
100
AcDbArc
 50
0.0
 51
7.101470947265625
  0
ARC
  5
2CE
330
1F
100
AcDbEntity
  8
0-2_本体（蓋）
  6
Continuous
 62
     6
370
     5
100
AcDbCircle
 10
-43.49298246701984
 20
340.5126769085214
 30
0.0
 40
41.72999923293655
100
AcDbArc
 50
0.0
 51
11.03892517089844
  0
ARC
  5
2CF
330
1F
100
AcDbEntity
  8
0-2_本体（蓋）
  6
Continuous
 62
     6
370
     5
100
AcDbCircle
 10
-8.844231543244526
 20
340.5126769085214
 30
0.0
 40
7.648712879902608
100
AcDbArc
 50
141.9460906982422
 51
180.0001831054688
  0
ARC
  5
2D0
330
1F
100
AcDbEntity
  8
0-2_本体（蓋）
  6
Continuous
 62
     6
370
     5
100
AcDbCircle
 10
-13.61482183568535
 20
340.5126769085214
 30
0.0
 40
4.878182926693478
100
AcDbArc
 50
104.8751678466797
 51
180.0
  0
ARC
  5
2D1
330
1F
100
AcDbEntity
  8
0-2_本体（蓋）
  6
Continuous
 62
     6
370
     5
100
AcDbCircle
 10
-43.49298246701984
 20
340.5126769085214
 30
0.0
 40
49.73000088253537
100
AcDbArc
 50
0.0
 51
180.0
  0
ARC
  5
2D2
330
1F
100
AcDbEntity
  8
0-2_本体（蓋）
  6
Continuous
 62
     6
370
     5
100
AcDbCircle
 10
-87.72299922694378
 20
340.5126769085214
 30
0.0
 40
5.499999974225019
100
AcDbArc
 50
104.9989624023437
 51
180.0
  0
ARC
  5
2D3
330
1F
100
AcDbEntity
  8
0-2_本体（蓋）
  6
Continuous
 62
     6
370
     5
100
AcDbCircle
 10
-43.49298246701984
 20
340.5126769085214
 30
0.0
 40
80.26800000989759
100
AcDbArc
 50
172.8985290527344
 51
180.0
  0
TEXT
  5
2D4
330
1F
100
AcDbEntity
  8
0-4_寸法
  6
Continuous
 62
     2
370
     9
100
AcDbText
 10
-217.2490286557867
 20
22.08627211016835
 30
0.0
 40
12.192
  1
176
 50
90.0
 41
1.083333333333333
  7
ＭＳ ゴシック
100
AcDbText
  0
TEXT
  5
2D5
330
1F
100
AcDbEntity
  8
0-4_寸法
  6
Continuous
 62
     2
370
     9
100
AcDbText
 10
-65.49300721100207
 20
233.363406770219
 30
0.0
 40
12.192
  1
φ255
 41
1.1
  7
ＭＳ ゴシック
100
AcDbText
  0
TEXT
  5
2D6
330
1F
100
AcDbEntity
  8
0-4_寸法
  6
Continuous
 62
     2
370
     9
100
AcDbText
 10
-65.49305669896665
 20
201.3634001718237
 30
0.0
 40
12.192
  1
φ235
 41
1.1
  7
ＭＳ ゴシック
100
AcDbText
  0
TEXT
  5
2D7
330
1F
100
AcDbEntity
  8
0-4_寸法
  6
Continuous
 62
     2
370
     9
100
AcDbText
 10
-65.49300721100207
 20
169.3633935734285
 30
0.0
 40
12.192
  1
φ192
 41
1.1
  7
ＭＳ ゴシック
100
AcDbText
  0
TEXT
  5
2D8
330
1F
100
AcDbEntity
  8
0-4_寸法
  6
Continuous
 62
     2
370
     9
100
AcDbText
 10
-42.39895368481968
 20
-120.5352715712084
 30
0.0
 40
12.192
  1
φ125
 41
1.1
  7
ＭＳ ゴシック
100
AcDbText
  0
TEXT
  5
2D9
330
1F
100
AcDbEntity
  8
0-4_寸法
  6
Continuous
 62
     2
370
     9
100
AcDbText
 10
-65.49300721100207
 20
-270.6970972152118
 30
0.0
 40
12.192
  1
φ114
 41
1.1
  7
ＭＳ ゴシック
100
AcDbText
  0
TEXT
  5
2DA
330
1F
100
AcDbEntity
  8
0-4_寸法
  6
Continuous
 62
     2
370
     9
100
AcDbText
 10
117.7511363040951
 20
-174.8722017139976
 30
0.0
 40
12.192
  1
150
 50
90.0
 41
1.083333333333333
  7
ＭＳ ゴシック
100
AcDbText
  0
TEXT
  5
2DB
330
1F
100
AcDbEntity
  8
0-4_寸法
  6
Continuous
 62
     2
370
     9
100
AcDbText
 10
117.7511363040951
 20
-77.54130456318472
 30
0.0
 40
12.192
  1
35
 50
90.0
 41
1.0625
  7
ＭＳ ゴシック
100
AcDbText
  0
TEXT
  5
2DC
330
1F
100
AcDbEntity
  8
0-4_寸法
  6
Continuous
 62
     2
370
     9
100
AcDbText
 10
117.7511363040951
 20
22.9080197611396
 30
0.0
 40
12.192
  1
174
 50
90.0
 41
1.083333333333333
  7
ＭＳ ゴシック
100
AcDbText
  0
LINE
  5
2DD
330
1F
100
AcDbEntity
  8
0-0_通り芯
  6
JWW_CENTER1
 62
     3
370
     9
100
AcDbLine
 10
-43.49298246701984
 20
336.5447319127443
 30
0.0
 11
-43.49298246701984
 21
488.9578909109474
 31
0.0
  0
LINE
  5
2DE
330
1F
100
AcDbEntity
  8
0-0_通り芯
  6
JWW_CENTER1
 62
     3
370
     9
100
AcDbLine
 10
101.2085591789451
 20
340.5126769085214
 30
0.0
 11
-199.2476499697927
 21
340.5126769085214
 31
0.0
  0
LINE
  5
2DF
330
1F
100
AcDbEntity
  8
0-5_文字
  6
Continuous
 62
     7
370
     9
100
AcDbLine
 10
57.50710331211871
 20
-46.43470748759347
 30
0.0
 11
58.81239786448349
 21
-36.52023918628436
 31
0.0
  0
LINE
  5
2E0
330
1F
100
AcDbEntity
  8
0-5_文字
  6
Continuous
 62
     7
370
     9
100
AcDbLine
 10
57.50710331211871
 20
-46.43470748759347
 30
0.0
 11
61.33390863306465
 21
-37.19589836597186
 31
0.0
  0
LINE
  5
2E1
330
1F
100
AcDbEntity
  8
0-5_文字
  6
Continuous
 62
     7
370
     9
100
AcDbLine
 10
48.53176811363891
 20
-42.11020170739926
 30
0.0
 11
49.83706266600381
 21
-32.19573340609014
 31
0.0
  0
LINE
  5
2E2
330
1F
100
AcDbEntity
  8
0-5_文字
  6
Continuous
 62
     7
370
     9
100
AcDbLine
 10
48.53176811363891
 20
-42.11020170739926
 30
0.0
 11
52.35857343458485
 21
-32.87139258577764
 31
0.0
  0
LINE
  5
2E3
330
1F
100
AcDbEntity
  8
0-5_文字
  6
Continuous
 62
     7
370
     9
100
AcDbLine
 10
-111.4929593726364
 20
-35.79123198083676
 30
0.0
 11
-117.580572865035
 21
-27.85771741157998
 31
0.0
  0
LINE
  5
2E4
330
1F
100
AcDbEntity
  8
0-5_文字
  6
Continuous
 62
     7
370
     9
100
AcDbLine
 10
-111.4929593726364
 20
-35.79123198083676
 30
0.0
 11
-115.3198141815469
 21
-26.55242285921514
 31
0.0
  0
LINE
  5
2E5
330
1F
100
AcDbEntity
  8
0-5_文字
  6
Continuous
 62
     7
370
     9
100
AcDbLine
 10
-18.49299896300796
 20
117.9201674068321
 30
0.0
 11
-17.18775389860765
 21
127.8346357081413
 31
0.0
  0
LINE
  5
2E6
330
1F
100
AcDbEntity
  8
0-5_文字
  6
Continuous
 62
     7
370
     9
100
AcDbLine
 10
-18.49299896300796
 20
117.9201674068321
 30
0.0
 11
-14.66614415409754
 21
127.1589765284538
 31
0.0
  0
LINE
  5
2E7
330
1F
100
AcDbEntity
  8
0-5_文字
  6
Continuous
 62
     7
370
     9
100
AcDbLine
 10
-169.9930781437513
 20
-61.29119239046514
 30
0.0
 11
-173.8199329526617
 21
-70.53000151208676
 31
0.0
  0
LINE
  5
2E8
330
1F
100
AcDbEntity
  8
0-5_文字
  6
Continuous
 62
     7
370
     9
100
AcDbLine
 10
-169.9930781437513
 20
-61.29119239046514
 30
0.0
 11
-176.0806916361499
 21
-69.22470695972186
 31
0.0
  0
LINE
  5
2E9
330
1F
100
AcDbEntity
  8
0-5_文字
  6
Continuous
 62
     7
370
     9
100
AcDbLine
 10
57.50710331211871
 20
-46.43470748759347
 30
0.0
 11
113.6537724421862
 21
163.107380376638
 31
0.0
  0
LINE
  5
2EA
330
1F
100
AcDbEntity
  8
0-5_文字
  6
Continuous
 62
     7
370
     9
100
AcDbLine
 10
-18.49299896300796
 20
117.9201674068321
 30
0.0
 11
19.33802603171329
 21
259.1074001718237
 31
0.0
  0
LINE
  5
2EB
330
1F
100
AcDbEntity
  8
0-5_文字
  6
Continuous
 62
     7
370
     9
100
AcDbLine
 10
48.53176811363891
 20
-42.11020170739926
 30
0.0
 11
116.3812521191288
 21
211.1073902742308
 31
0.0
  0
LINE
  5
2EC
330
1F
100
AcDbEntity
  8
0-5_文字
  6
Continuous
 62
     7
370
     9
100
AcDbLine
 10
-169.9930781437513
 20
-61.29119239046514
 30
0.0
 11
-193.0870821819692
 21
-101.2912253824415
 31
0.0
  0
LINE
  5
2ED
330
1F
100
AcDbEntity
  8
0-5_文字
  6
Continuous
 62
     7
370
     9
100
AcDbLine
 10
113.6537724421862
 20
163.107380376638
 30
0.0
 11
267.7167343298553
 21
163.107380376638
 31
0.0
  0
LINE
  5
2EE
330
1F
100
AcDbEntity
  8
0-5_文字
  6
Continuous
 62
     7
370
     9
100
AcDbLine
 10
-310.1687274258459
 20
-101.2912253824415
 30
0.0
 11
-193.0870821819692
 21
-101.2912253824415
 31
0.0
  0
TEXT
  5
2EF
330
1F
100
AcDbEntity
  8
0-5_文字
  6
Continuous
 62
     7
370
     9
100
AcDbText
 10
116.5130913558264
 20
168.9938317860552
 30
0.0
 40
9.144
  1
防水層押え：ＦＣ１５０
 41
1.151515151515152
  7
ＭＳ ゴシック
100
AcDbText
  0
TEXT
  5
2F0
330
1F
100
AcDbEntity
  8
0-5_文字
  6
Continuous
 62
     7
370
     9
100
AcDbText
 10
152.410384034247
 20
149.1194157440366
 30
0.0
 40
9.144
  1
樹脂系塗装
 41
1.133333333333333
  7
ＭＳ ゴシック
100
AcDbText
  0
TEXT
  5
2F1
330
1F
100
AcDbEntity
  8
0-5_文字
  6
Continuous
 62
     7
370
     9
100
AcDbText
 10
-306.7826536689835
 20
-95.08334964342117
 30
0.0
 40
9.144
  1
本体：ＦＣ１５０
 41
1.145833333333333
  7
ＭＳ ゴシック
100
AcDbText
  0
TEXT
  5
2F2
330
1F
100
AcDbEntity
  8
0-5_文字
  6
Continuous
 62
     7
370
     9
100
AcDbText
 10
-291.7872758448704
 20
-114.9160473313435
 30
0.0
 40
9.144
  1
樹脂系塗装
 41
1.133333333333333
  7
ＭＳ ゴシック
100
AcDbText
  0
LINE
  5
2F3
330
1F
100
AcDbEntity
  8
0-5_文字
  6
Continuous
 62
     7
370
     9
100
AcDbLine
 10
-111.4929593726364
 20
-35.79123198083676
 30
0.0
 11
-211.7882781626995
 21
137.9253083685121
 31
0.0
  0
TEXT
  5
2F4
330
1F
100
AcDbEntity
  8
0-5_文字
  6
Continuous
 62
     7
370
     9
100
AcDbText
 10
20.72657111356119
 20
264.7234988310299
 30
0.0
 40
9.144
  1
ストレーナー：ＦＣ１５０
 41
1.152777777777778
  7
ＭＳ ゴシック
100
AcDbText
  0
TEXT
  5
2F5
330
1F
100
AcDbEntity
  8
0-5_文字
  6
Continuous
 62
     7
370
     9
100
AcDbText
 10
70.84772971218588
 20
244.8712039091549
 30
0.0
 40
9.144
  1
樹脂系塗装
 41
1.133333333333333
  7
ＭＳ ゴシック
100
AcDbText
  0
LINE
  5
2F6
330
1F
100
AcDbEntity
  8
0-5_文字
  6
Continuous
 62
     7
370
     9
100
AcDbLine
 10
19.33802603171329
 20
259.1074001718237
 30
0.0
 11
187.8134660104127
 21
259.1074001718237
 31
0.0
  0
TEXT
  5
2F7
330
1F
100
AcDbEntity
  8
F-4ﾚｲﾔ
  6
Continuous
 62
     6
370
     5
100
AcDbText
 10
-44.42463143391205
 20
-442.7661662404759
 30
0.0
 40
12.192
  1
鋳鉄製ルーフドレン　たて引き用　後付型　差し込み式
 41
0.7980000000000002
  7
ＭＳ ゴシック
100
AcDbText
  0
TEXT
  5
2F8
330
1F
100
AcDbEntity
  8
F-4ﾚｲﾔ
  6
Continuous
 62
     6
370
     5
100
AcDbText
 10
-10.22880560071832
 20
-460.7661637660776
 30
0.0
 40
12.192
  1
アスファルト・シート防水用　　ＥＳＰ－３－１２５
 41
0.7979166666666667
  7
ＭＳ ゴシック
100
AcDbText
  0
TEXT
  5
2F9
330
1F
100
AcDbEntity
  8
0-5_文字
  6
Continuous
 62
     7
370
     9
100
AcDbText
 10
120.1696349844161
 20
217.507279315616
 30
0.0
 40
9.144
  1
丸小ねじ：Ｃ２７００Ｗ
 41
1.151515151515152
  7
ＭＳ ゴシック
100
AcDbText
  0
TEXT
  5
2FA
330
1F
100
AcDbEntity
  8
0-5_文字
  6
Continuous
 62
     7
370
     9
100
AcDbText
 10
-350.9294450527614
 20
144.3588987137401
 30
0.0
 40
9.144
  1
ボルト：Ｃ３６０４Ｂ
 41
1.15
  7
ＭＳ ゴシック
100
AcDbText
  0
LINE
  5
2FB
330
1F
100
AcDbEntity
  8
0-5_文字
  6
Continuous
 62
     7
370
     9
100
AcDbLine
 10
-211.7882781626995
 20
137.9253083685121
 30
0.0
 11
-350.7124244417665
 21
137.9253083685121
 31
0.0
  0
LINE
  5
2FC
330
1F
100
AcDbEntity
  8
0-5_文字
  6
Continuous
 62
     7
370
     9
100
AcDbLine
 10
116.3812521191288
 20
211.1073902742308
 30
0.0
 11
274.8853004973033
 21
211.1073902742308
 31
0.0
  0
TEXT
  5
2FD
330
1F
100
AcDbEntity
  8
0-5_文字
  6
Continuous
 62
     7
370
     9
100
AcDbText
 10
161.6332763082161
 20
197.654984393741
 30
0.0
 40
9.144
  1
Ｍ６×１２
 41
1.133333333333333
  7
ＭＳ ゴシック
100
AcDbText
  0
TEXT
  5
2FE
330
1F
100
AcDbEntity
  8
0-5_文字
  6
Continuous
 62
     7
370
     9
100
AcDbText
 10
-315.250351302233
 20
123.7488935669918
 30
0.0
 40
9.144
  1
Ｍ８×４０
 41
1.133333333333333
  7
ＭＳ ゴシック
100
AcDbText
  0
TEXT
  5
2FF
330
1F
100
AcDbEntity
  8
F-0ﾚｲﾔ
  6
Continuous
 62
     9
370
     5
100
AcDbText
 10
0.0
 20
-3998.308
 30
0.0
 40
9.144
  1
Printer_Orientation = 1
 41
0.0
  7
ＭＳ ゴシック
100
AcDbText
  0
TEXT
  5
300
330
1F
100
AcDbEntity
  8
F-0ﾚｲﾔ
  6
Continuous
 62
     9
370
     5
100
AcDbText
 10
0.0
 20
-3998.308
 30
0.0
 40
9.144
  1
Printer_PaperSize = 9
 41
0.0
  7
ＭＳ ゴシック
100
AcDbText
  0
TEXT
  5
301
330
1F
100
AcDbEntity
  8
F-0ﾚｲﾔ
  6
Continuous
 62
     9
370
     5
100
AcDbText
 10
0.0
 20
-3998.308
 30
0.0
 40
9.144
  1
Printer_D2dBMP = 0
 41
0.0
  7
ＭＳ ゴシック
100
AcDbText
  0
TEXT
  5
302
330
1F
100
AcDbEntity
  8
F-0ﾚｲﾔ
  6
Continuous
 62
     9
370
     5
100
AcDbText
 10
0.0
 20
-3998.308
 30
0.0
 40
9.144
  1
Printer_BmpZENTAI = 0
 41
0.0
  7
ＭＳ ゴシック
100
AcDbText
  0
TEXT
  5
303
330
1F
100
AcDbEntity
  8
F-0ﾚｲﾔ
  6
Continuous
 62
     9
370
     5
100
AcDbText
 10
0.0
 20
-3998.308
 30
0.0
 40
9.144
  1
View_Direct2d = 0
 41
0.0
  7
ＭＳ ゴシック
100
AcDbText
  0
TEXT
  5
304
330
1F
100
AcDbEntity
  8
F-0ﾚｲﾔ
  6
Continuous
 62
     9
370
     5
100
AcDbText
 10
0.0
 20
-3998.308
 30
0.0
 40
9.144
  1
Draw_BmpTOUKA = 1
 41
0.0
  7
ＭＳ ゴシック
100
AcDbText
  0
ENDSEC
  0
SECTION
  2
OBJECTS
  0
DICTIONARY
  5
C
330
0
100
AcDbDictionary
281
     1
  3
ACAD_DETAILVIEWSTYLE
350
34A
  3
ACAD_GROUP
350
D
  3
ACAD_LAYOUT
350
1A
  3
ACAD_MATERIAL
350
43
  3
ACAD_MLEADERSTYLE
350
6B
  3
ACAD_MLINESTYLE
350
17
  3
ACAD_PLOTSETTINGS
350
19
  3
ACAD_PLOTSTYLENAME
350
E
  3
ACAD_SCALELIST
350
47
  3
ACAD_SECTIONVIEWSTYLE
350
34B
  3
ACAD_TABLESTYLE
350
69
  3
ACAD_VISUALSTYLE
350
2A
  3
ACDB_RECOMPOSE_DATA
350
347
  3
AcDbVariableDictionary
350
307
  0
DICTIONARY
  5
305
330
8
100
AcDbDictionary
280
     1
281
     1
  3
ACAD_XREC_ROUNDTRIP
360
306
  0
DICTIONARY
  5
34A
102
{ACAD_REACTORS
330
C
102
}
330
C
100
AcDbDictionary
281
     1
  0
DICTIONARY
  5
D
102
{ACAD_REACTORS
330
C
102
}
330
C
100
AcDbDictionary
281
     1
  0
DICTIONARY
  5
1A
102
{ACAD_REACTORS
330
C
102
}
330
C
100
AcDbDictionary
281
     1
  3
Layout1
350
1E
  3
Layout2
350
26
  3
Model
350
22
  0
DICTIONARY
  5
43
102
{ACAD_REACTORS
330
C
102
}
330
C
100
AcDbDictionary
281
     1
  3
ByBlock
350
45
  3
ByLayer
350
44
  3
Global
350
46
  0
DICTIONARY
  5
6B
102
{ACAD_REACTORS
330
C
102
}
330
C
100
AcDbDictionary
281
     1
  3
Standard
350
6C
  0
DICTIONARY
  5
17
102
{ACAD_REACTORS
330
C
102
}
330
C
100
AcDbDictionary
281
     1
  3
Standard
350
18
  0
DICTIONARY
  5
19
102
{ACAD_REACTORS
330
C
102
}
330
C
100
AcDbDictionary
281
     1
  0
ACDBDICTIONARYWDFLT
  5
E
102
{ACAD_REACTORS
330
C
102
}
330
C
100
AcDbDictionary
281
     1
  3
Normal
350
F
100
AcDbDictionaryWithDefault
340
F
  0
DICTIONARY
  5
47
102
{ACAD_REACTORS
330
C
102
}
330
C
100
AcDbDictionary
281
     1
  3
A0
350
48
  3
A1
350
49
  3
A2
350
4A
  3
A3
350
4B
  3
A4
350
4C
  3
A5
350
4D
  3
A6
350
4E
  3
A7
350
4F
  3
A8
350
50
  3
A9
350
51
  3
B0
350
52
  3
B1
350
53
  3
B2
350
54
  3
B3
350
55
  3
B4
350
56
  3
B5
350
57
  3
B6
350
58
  3
B7
350
59
  3
B8
350
5A
  3
B9
350
5B
  3
C0
350
5C
  3
C1
350
5D
  3
C2
350
5E
  3
C3
350
5F
  3
C4
350
60
  3
C5
350
61
  3
C6
350
62
  3
C7
350
63
  3
C8
350
64
  3
C9
350
65
  3
D0
350
66
  3
D1
350
67
  3
D2
350
68
  0
DICTIONARY
  5
34B
102
{ACAD_REACTORS
330
C
102
}
330
C
100
AcDbDictionary
281
     1
  0
DICTIONARY
  5
69
102
{ACAD_REACTORS
330
C
102
}
330
C
100
AcDbDictionary
281
     1
  3
Standard
350
6A
  0
DICTIONARY
  5
2A
102
{ACAD_REACTORS
330
C
102
}
330
C
100
AcDbDictionary
281
     1
  3
2dWireframe
350
2F
  3
Basic
350
32
  3
Brighten
350
36
  3
ColorChange
350
3A
  3
Conceptual
350
34
  3
Dim
350
35
  3
EdgeColorOff
350
3D
  3
Facepattern
350
39
  3
Flat
350
2B
  3
FlatWithEdges
350
2C
  3
Gouraud
350
2D
  3
GouraudWithEdges
350
2E
  3
Hidden
350
31
  3
JitterOff
350
3B
  3
Linepattern
350
38
  3
OverhangOff
350
3C
  3
Realistic
350
33
  3
Shaded
350
42
  3
Shaded with edges
350
41
  3
Shades of Gray
350
3E
  3
Sketchy
350
3F
  3
Thicken
350
37
  3
Wireframe
350
30
  3
X-Ray
350
40
  0
XRECORD
  5
347
102
{ACAD_REACTORS
330
C
102
}
330
C
100
AcDbXrecord
280
     1
 90
        1
330
6A
  0
DICTIONARY
  5
307
102
{ACAD_REACTORS
330
C
102
}
330
C
100
AcDbDictionary
281
     1
  3
CANNOSCALE
350
308
  3
CENTEREXE
350
34C
  3
CENTERLTYPEFILE
350
34D
  3
CMLEADERSTYLE
350
349
  3
CTABLESTYLE
350
348
  3
MSLTSCALE
350
309
  3
XCLIPFRAME
350
30A
  0
XRECORD
  5
306
102
{ACAD_REACTORS
330
305
102
}
330
305
100
AcDbXrecord
280
     1
102
VTR_0.000_0.000_1.000_1.000_VISUALSTYLE
340
2F
102
VTR_0.000_0.000_1.000_1.000_GRIDDISPLAY
 70
     3
102
VTR_0.000_0.000_1.000_1.000_GRIDMAJOR
 70
     5
102
VTR_0.000_0.000_1.000_1.000_DEFAULTLIGHTING
280
     1
102
VTR_0.000_0.000_1.000_1.000_DEFAULTLIGHTINGTYPE
 70
     1
102
VTR_0.000_0.000_1.000_1.000_BRIGHTNESS
141
0.0
102
VTR_0.000_0.000_1.000_1.000_CONTRAST
142
0.0
  0
LAYOUT
  5
1E
102
{ACAD_REACTORS
330
1A
102
}
330
1A
100
AcDbPlotSettings
  1

  2
none_device
  4

  6

 40
0.0
 41
0.0
 42
0.0
 43
0.0
 44
0.0
 45
0.0
 46
0.0
 47
0.0
 48
0.0
 49
0.0
140
0.0
141
0.0
142
1.0
143
1.0
 70
   688
 72
     1
 73
     0
 74
     5
  7

 75
    16
 76
     0
 77
     5
 78
   300
147
1.0
148
0.0
149
0.0
100
AcDbLayout
  1
Layout1
 70
     1
 71
     1
 10
0.0
 20
0.0
 11
420.0
 21
297.0
 12
0.0
 22
0.0
 32
0.0
 14
1.000000000000000E+20
 24
1.000000000000000E+20
 34
1.000000000000000E+20
 15
-1.000000000000000E+20
 25
-1.000000000000000E+20
 35
-1.000000000000000E+20
146
0.0
 13
0.0
 23
0.0
 33
0.0
 16
1.0
 26
0.0
 36
0.0
 17
0.0
 27
1.0
 37
0.0
 76
     0
330
1B
  0
LAYOUT
  5
26
102
{ACAD_REACTORS
330
1A
102
}
330
1A
100
AcDbPlotSettings
  1

  2
none_device
  4

  6

 40
0.0
 41
0.0
 42
0.0
 43
0.0
 44
0.0
 45
0.0
 46
0.0
 47
0.0
 48
0.0
 49
0.0
140
0.0
141
0.0
142
1.0
143
1.0
 70
   688
 72
     1
 73
     0
 74
     5
  7

 75
    16
 76
     0
 77
     5
 78
   300
147
1.0
148
0.0
149
0.0
100
AcDbLayout
  1
Layout2
 70
     1
 71
     2
 10
0.0
 20
0.0
 11
0.0
 21
0.0
 12
0.0
 22
0.0
 32
0.0
 14
0.0
 24
0.0
 34
0.0
 15
0.0
 25
0.0
 35
0.0
146
0.0
 13
0.0
 23
0.0
 33
0.0
 16
1.0
 26
0.0
 36
0.0
 17
0.0
 27
1.0
 37
0.0
 76
     0
330
23
  0
LAYOUT
  5
22
102
{ACAD_REACTORS
330
1A
102
}
330
1A
100
AcDbPlotSettings
  1

  2
none_device
  4
Letter_(8.50_x_11.00_Inches)
  6

 40
6.35
 41
6.35
 42
6.35000508
 43
6.35000508
 44
215.9
 45
279.4
 46
0.0
 47
0.0
 48
0.0
 49
0.0
140
0.0
141
0.0
142
1.0
143
1.0
 70
  1712
 72
     1
 73
     0
 74
     0
  7

 75
     0
 76
     0
 77
     5
 78
   300
147
1.0
148
0.0
149
0.0
100
AcDbLayout
  1
Model
 70
     1
 71
     0
 10
-840.0
 20
-594.0
 11
840.0
 21
594.0
 12
0.0
 22
0.0
 32
0.0
 14
-840.0
 24
-594.0
 34
0.0
 15
840.0
 25
594.0
 35
0.0
146
0.0
 13
0.0
 23
0.0
 33
0.0
 16
1.0
 26
0.0
 36
0.0
 17
0.0
 27
1.0
 37
0.0
 76
     0
330
1F
331
29
  0
MATERIAL
  5
45
102
{ACAD_REACTORS
330
43
102
}
102
{ACAD_XDICTIONARY
360
33D
102
}
330
43
100
AcDbMaterial
  1
ByBlock
  0
MATERIAL
  5
44
102
{ACAD_REACTORS
330
43
102
}
102
{ACAD_XDICTIONARY
360
33B
102
}
330
43
100
AcDbMaterial
  1
ByLayer
  0
MATERIAL
  5
46
102
{ACAD_REACTORS
330
43
102
}
102
{ACAD_XDICTIONARY
360
33F
102
}
330
43
100
AcDbMaterial
  1
Global
  0
MLEADERSTYLE
  5
6C
102
{ACAD_REACTORS
330
6B
102
}
102
{ACAD_XDICTIONARY
360
345
102
}
330
6B
100
AcDbMLeaderStyle
170
     2
171
     1
172
     0
 90
        2
 40
0.0
 41
0.0
173
     1
 91
-1056964608
340
14
 92
       -2
290
     1
 42
2.0
291
     1
 43
8.0
  3
Standard
341
0
 44
4.0
300

342
11
174
     1
178
     6
175
     1
176
     0
 93
-1056964608
 45
4.0
292
     0
297
     0
 46
4.0
343
0
 94
-1056964608
 47
1.0
 49
1.0
140
1.0
293
     1
141
0.0
294
     1
177
     0
142
1.0
295
     0
296
     0
143
3.75
1001
ACAD_MLEADERVER
1070
     2
  0
MLINESTYLE
  5
18
102
{ACAD_REACTORS
330
17
102
}
330
17
100
AcDbMlineStyle
  2
Standard
 70
     0
  3

 62
   256
 51
90.0
 52
90.0
 71
     2
 49
0.5
 62
   256
  6
BYLAYER
 49
-0.5
 62
   256
  6
BYLAYER
  0
ACDBPLACEHOLDER
  5
F
102
{ACAD_REACTORS
330
E
102
}
330
E
  0
SCALE
  5
48
102
{ACAD_REACTORS
330
47
102
}
330
47
100
AcDbScale
 70
     0
300
1:1
140
1.0
141
1.0
290
     1
  0
SCALE
  5
49
102
{ACAD_REACTORS
330
47
102
}
330
47
100
AcDbScale
 70
     0
300
1:2
140
1.0
141
2.0
290
     0
  0
SCALE
  5
4A
102
{ACAD_REACTORS
330
47
102
}
330
47
100
AcDbScale
 70
     0
300
1:4
140
1.0
141
4.0
290
     0
  0
SCALE
  5
4B
102
{ACAD_REACTORS
330
47
102
}
330
47
100
AcDbScale
 70
     0
300
1:5
140
1.0
141
5.0
290
     0
  0
SCALE
  5
4C
102
{ACAD_REACTORS
330
47
102
}
330
47
100
AcDbScale
 70
     0
300
1:8
140
1.0
141
8.0
290
     0
  0
SCALE
  5
4D
102
{ACAD_REACTORS
330
47
102
}
330
47
100
AcDbScale
 70
     0
300
1:10
140
1.0
141
10.0
290
     0
  0
SCALE
  5
4E
102
{ACAD_REACTORS
330
47
102
}
330
47
100
AcDbScale
 70
     0
300
1:16
140
1.0
141
16.0
290
     0
  0
SCALE
  5
4F
102
{ACAD_REACTORS
330
47
102
}
330
47
100
AcDbScale
 70
     0
300
1:20
140
1.0
141
20.0
290
     0
  0
SCALE
  5
50
102
{ACAD_REACTORS
330
47
102
}
330
47
100
AcDbScale
 70
     0
300
1:30
140
1.0
141
30.0
290
     0
  0
SCALE
  5
51
102
{ACAD_REACTORS
330
47
102
}
330
47
100
AcDbScale
 70
     0
300
1:40
140
1.0
141
40.0
290
     0
  0
SCALE
  5
52
102
{ACAD_REACTORS
330
47
102
}
330
47
100
AcDbScale
 70
     0
300
1:50
140
1.0
141
50.0
290
     0
  0
SCALE
  5
53
102
{ACAD_REACTORS
330
47
102
}
330
47
100
AcDbScale
 70
     0
300
1:100
140
1.0
141
100.0
290
     0
  0
SCALE
  5
54
102
{ACAD_REACTORS
330
47
102
}
330
47
100
AcDbScale
 70
     0
300
2:1
140
2.0
141
1.0
290
     0
  0
SCALE
  5
55
102
{ACAD_REACTORS
330
47
102
}
330
47
100
AcDbScale
 70
     0
300
4:1
140
4.0
141
1.0
290
     0
  0
SCALE
  5
56
102
{ACAD_REACTORS
330
47
102
}
330
47
100
AcDbScale
 70
     0
300
8:1
140
8.0
141
1.0
290
     0
  0
SCALE
  5
57
102
{ACAD_REACTORS
330
47
102
}
330
47
100
AcDbScale
 70
     0
300
10:1
140
10.0
141
1.0
290
     0
  0
SCALE
  5
58
102
{ACAD_REACTORS
330
47
102
}
330
47
100
AcDbScale
 70
     0
300
100:1
140
100.0
141
1.0
290
     0
  0
SCALE
  5
59
102
{ACAD_REACTORS
330
47
102
}
330
47
100
AcDbScale
 70
     0
300
1/128" = 1'-0"
140
0.0078125
141
12.0
290
     0
  0
SCALE
  5
5A
102
{ACAD_REACTORS
330
47
102
}
330
47
100
AcDbScale
 70
     0
300
1/64" = 1'-0"
140
0.015625
141
12.0
290
     0
  0
SCALE
  5
5B
102
{ACAD_REACTORS
330
47
102
}
330
47
100
AcDbScale
 70
     0
300
1/32" = 1'-0"
140
0.03125
141
12.0
290
     0
  0
SCALE
  5
5C
102
{ACAD_REACTORS
330
47
102
}
330
47
100
AcDbScale
 70
     0
300
1/16" = 1'-0"
140
0.0625
141
12.0
290
     0
  0
SCALE
  5
5D
102
{ACAD_REACTORS
330
47
102
}
330
47
100
AcDbScale
 70
     0
300
3/32" = 1'-0"
140
0.09375
141
12.0
290
     0
  0
SCALE
  5
5E
102
{ACAD_REACTORS
330
47
102
}
330
47
100
AcDbScale
 70
     0
300
1/8" = 1'-0"
140
0.125
141
12.0
290
     0
  0
SCALE
  5
5F
102
{ACAD_REACTORS
330
47
102
}
330
47
100
AcDbScale
 70
     0
300
3/16" = 1'-0"
140
0.1875
141
12.0
290
     0
  0
SCALE
  5
60
102
{ACAD_REACTORS
330
47
102
}
330
47
100
AcDbScale
 70
     0
300
1/4" = 1'-0"
140
0.25
141
12.0
290
     0
  0
SCALE
  5
61
102
{ACAD_REACTORS
330
47
102
}
330
47
100
AcDbScale
 70
     0
300
3/8" = 1'-0"
140
0.375
141
12.0
290
     0
  0
SCALE
  5
62
102
{ACAD_REACTORS
330
47
102
}
330
47
100
AcDbScale
 70
     0
300
1/2" = 1'-0"
140
0.5
141
12.0
290
     0
  0
SCALE
  5
63
102
{ACAD_REACTORS
330
47
102
}
330
47
100
AcDbScale
 70
     0
300
3/4" = 1'-0"
140
0.75
141
12.0
290
     0
  0
SCALE
  5
64
102
{ACAD_REACTORS
330
47
102
}
330
47
100
AcDbScale
 70
     0
300
1" = 1'-0"
140
1.0
141
12.0
290
     0
  0
SCALE
  5
65
102
{ACAD_REACTORS
330
47
102
}
330
47
100
AcDbScale
 70
     0
300
1-1/2" = 1'-0"
140
1.5
141
12.0
290
     0
  0
SCALE
  5
66
102
{ACAD_REACTORS
330
47
102
}
330
47
100
AcDbScale
 70
     0
300
3" = 1'-0"
140
3.0
141
12.0
290
     0
  0
SCALE
  5
67
102
{ACAD_REACTORS
330
47
102
}
330
47
100
AcDbScale
 70
     0
300
6" = 1'-0"
140
6.0
141
12.0
290
     0
  0
SCALE
  5
68
102
{ACAD_REACTORS
330
47
102
}
330
47
100
AcDbScale
 70
     0
300
1'-0" = 1'-0"
140
12.0
141
12.0
290
     0
  0
TABLESTYLE
  5
6A
102
{ACAD_REACTORS
330
69
102
}
102
{ACAD_XDICTIONARY
360
341
102
}
330
69
100
AcDbTableStyle
  3
Standard
 70
     0
 71
     0
 40
0.06
 41
0.06
280
     0
281
     0
  7
Standard
140
4.5
170
     2
 62
     0
 63
   257
283
     0
274
    -2
284
     1
 64
     0
275
    -2
285
     1
 65
     0
276
    -2
286
     1
 66
     0
277
    -2
287
     1
 67
     0
278
    -2
288
     1
 68
     0
279
    -2
289
     1
 69
     0
  7
Standard
140
6.0
170
     5
 62
     0
 63
   257
283
     0
274
    -2
284
     1
 64
     0
275
    -2
285
     1
 65
     0
276
    -2
286
     1
 66
     0
277
    -2
287
     1
 67
     0
278
    -2
288
     1
 68
     0
279
    -2
289
     1
 69
     0
  7
Standard
140
4.5
170
     5
 62
     0
 63
   257
283
     0
274
    -2
284
     1
 64
     0
275
    -2
285
     1
 65
     0
276
    -2
286
     1
 66
     0
277
    -2
287
     1
 67
     0
278
    -2
288
     1
 68
     0
279
    -2
289
     1
 69
     0
  0
VISUALSTYLE
  5
2F
102
{ACAD_REACTORS
330
2A
102
}
102
{ACAD_XDICTIONARY
360
313
102
}
330
2A
100
AcDbVisualStyle
  2
2dWireframe
 70
     4
 71
     0
 72
     2
 73
     0
 90
        0
 40
0.6
 41
30.0
 62
     5
 63
     7
421
 16777215
 74
     1
 91
        4
 64
     7
 65
   257
 75
     1
175
     1
 42
1.0
 92
        0
 66
   257
 43
1.0
 76
     1
 77
     6
 78
     2
 67
     7
 79
     5
170
     0
171
     0
290
     0
174
     0
 93
        1
 44
0.0
173
     0
291
     0
 45
0.0
1001
ACAD
1000
AcDbSavedByObjectVersion
1070
     0
  0
VISUALSTYLE
  5
32
102
{ACAD_REACTORS
330
2A
102
}
102
{ACAD_XDICTIONARY
360
319
102
}
330
2A
100
AcDbVisualStyle
  2
Basic
 70
     7
 71
     1
 72
     0
 73
     1
 90
        0
 40
0.6
 41
30.0
 62
     5
 63
     7
421
 16777215
 74
     0
 91
        4
 64
     7
 65
   257
 75
     1
175
     1
 42
1.0
 92
        8
 66
     7
 43
1.0
 76
     1
 77
     6
 78
     2
 67
     7
 79
     5
170
     0
171
     0
290
     0
174
     0
 93
        1
 44
0.0
173
     0
291
     1
 45
0.0
1001
ACAD
1000
AcDbSavedByObjectVersion
1070
     0
  0
VISUALSTYLE
  5
36
102
{ACAD_REACTORS
330
2A
102
}
102
{ACAD_XDICTIONARY
360
321
102
}
330
2A
100
AcDbVisualStyle
  2
Brighten
 70
    12
 71
     2
 72
     2
 73
     0
 90
        0
 40
0.6
 41
30.0
 62
     5
 63
     7
421
 16777215
 74
     1
 91
        4
 64
     7
 65
   257
 75
     1
175
     1
 42
1.0
 92
        8
 66
     7
 43
1.0
 76
     1
 77
     6
 78
     2
 67
     7
 79
     5
170
     0
171
     0
290
     0
174
     0
 93
        1
 44
50.0
173
     0
291
     1
 45
0.0
1001
ACAD
1000
AcDbSavedByObjectVersion
1070
     0
  0
VISUALSTYLE
  5
3A
102
{ACAD_REACTORS
330
2A
102
}
102
{ACAD_XDICTIONARY
360
329
102
}
330
2A
100
AcDbVisualStyle
  2
ColorChange
 70
    16
 71
     2
 72
     2
 73
     3
 90
        0
 40
0.6
 41
30.0
 62
     5
 63
     8
421
  8421504
 74
     1
 91
        4
 64
     7
 65
   257
 75
     1
175
     1
 42
1.0
 92
        8
 66
     8
424
  8421504
 43
1.0
 76
     1
 77
     6
 78
     2
 67
     7
 79
     5
170
     0
171
     0
290
     0
174
     0
 93
        1
 44
0.0
173
     0
291
     1
 45
0.0
1001
ACAD
1000
AcDbSavedByObjectVersion
1070
     0
  0
VISUALSTYLE
  5
34
102
{ACAD_REACTORS
330
2A
102
}
102
{ACAD_XDICTIONARY
360
31D
102
}
330
2A
100
AcDbVisualStyle
  2
Conceptual
 70
     9
 71
     3
 72
     2
 73
     0
 90
        0
 40
0.6
 41
30.0
 62
     5
 63
     7
421
 16777215
 74
     2
 91
        2
 64
     7
 65
   257
 75
     1
175
     1
 42
179.0
 92
        8
 66
     7
 43
1.0
 76
     1
 77
     6
 78
     2
 67
     7
 79
     3
170
     0
171
     0
290
     0
174
     0
 93
        1
 44
0.0
173
     0
291
     0
 45
0.0
1001
ACAD
1000
AcDbSavedByObjectVersion
1070
     0
  0
VISUALSTYLE
  5
35
102
{ACAD_REACTORS
330
2A
102
}
102
{ACAD_XDICTIONARY
360
31F
102
}
330
2A
100
AcDbVisualStyle
  2
Dim
 70
    11
 71
     2
 72
     2
 73
     0
 90
        0
 40
0.6
 41
30.0
 62
     5
 63
     7
421
 16777215
 74
     1
 91
        4
 64
     7
 65
   257
 75
     1
175
     1
 42
1.0
 92
        8
 66
     7
 43
1.0
 76
     1
 77
     6
 78
     2
 67
     7
 79
     5
170
     0
171
     0
290
     0
174
     0
 93
        1
 44
-50.0
173
     0
291
     1
 45
0.0
1001
ACAD
1000
AcDbSavedByObjectVersion
1070
     0
  0
VISUALSTYLE
  5
3D
102
{ACAD_REACTORS
330
2A
102
}
102
{ACAD_XDICTIONARY
360
32F
102
}
330
2A
100
AcDbVisualStyle
  2
EdgeColorOff
 70
    22
 71
     2
 72
     2
 73
     0
 90
        0
 40
0.6
 41
30.0
 62
     5
 63
     7
421
 16777215
 74
     1
 91
        4
 64
     7
 65
   257
 75
     1
175
     1
 42
1.0
 92
        8
 66
     7
 43
1.0
 76
     1
 77
     6
 78
     2
 67
     7
 79
     5
170
     0
171
     0
290
     0
174
     0
 93
        1
 44
0.0
173
     0
291
     1
 45
0.0
1001
ACAD
1000
AcDbSavedByObjectVersion
1070
     0
  0
VISUALSTYLE
  5
39
102
{ACAD_REACTORS
330
2A
102
}
102
{ACAD_XDICTIONARY
360
327
102
}
330
2A
100
AcDbVisualStyle
  2
Facepattern
 70
    15
 71
     2
 72
     2
 73
     0
 90
        0
 40
0.6
 41
30.0
 62
     5
 63
     7
421
 16777215
 74
     1
 91
        4
 64
     7
 65
   257
 75
     1
175
     1
 42
1.0
 92
        8
 66
     7
 43
1.0
 76
     1
 77
     6
 78
     2
 67
     7
 79
     5
170
     0
171
     0
290
     0
174
     0
 93
        1
 44
0.0
173
     0
291
     1
 45
0.0
1001
ACAD
1000
AcDbSavedByObjectVersion
1070
     0
  0
VISUALSTYLE
  5
2B
102
{ACAD_REACTORS
330
2A
102
}
102
{ACAD_XDICTIONARY
360
30B
102
}
330
2A
100
AcDbVisualStyle
  2
Flat
 70
     0
 71
     2
 72
     1
 73
     1
 90
        2
 40
0.6
 41
30.0
 62
     5
 63
     7
421
 16777215
 74
     0
 91
        0
 64
     7
 65
   257
 75
     1
175
     1
 42
1.0
 92
        8
 66
     7
 43
1.0
 76
     1
 77
     6
 78
     2
 67
     7
 79
     5
170
     0
171
     0
290
     0
174
     0
 93
       13
 44
0.0
173
     0
291
     1
 45
0.0
1001
ACAD
1000
AcDbSavedByObjectVersion
1070
     0
  0
VISUALSTYLE
  5
2C
102
{ACAD_REACTORS
330
2A
102
}
102
{ACAD_XDICTIONARY
360
30D
102
}
330
2A
100
AcDbVisualStyle
  2
FlatWithEdges
 70
     1
 71
     2
 72
     1
 73
     1
 90
        2
 40
0.6
 41
30.0
 62
     5
 63
     7
421
 16777215
 74
     1
 91
        0
 64
     7
 65
   257
 75
     1
175
     1
 42
1.0
 92
        0
 66
   257
 43
1.0
 76
     1
 77
     6
 78
     2
 67
     7
 79
     5
170
     0
171
     0
290
     0
174
     0
 93
       13
 44
0.0
173
     0
291
     1
 45
0.0
1001
ACAD
1000
AcDbSavedByObjectVersion
1070
     0
  0
VISUALSTYLE
  5
2D
102
{ACAD_REACTORS
330
2A
102
}
102
{ACAD_XDICTIONARY
360
30F
102
}
330
2A
100
AcDbVisualStyle
  2
Gouraud
 70
     2
 71
     2
 72
     2
 73
     1
 90
        2
 40
0.6
 41
30.0
 62
     5
 63
     7
421
 16777215
 74
     0
 91
        0
 64
     7
 65
   257
 75
     1
175
     1
 42
1.0
 92
        0
 66
     7
 43
1.0
 76
     1
 77
     6
 78
     2
 67
     7
 79
     5
170
     0
171
     0
290
     0
174
     0
 93
       13
 44
0.0
173
     0
291
     1
 45
0.0
1001
ACAD
1000
AcDbSavedByObjectVersion
1070
     0
  0
VISUALSTYLE
  5
2E
102
{ACAD_REACTORS
330
2A
102
}
102
{ACAD_XDICTIONARY
360
311
102
}
330
2A
100
AcDbVisualStyle
  2
GouraudWithEdges
 70
     3
 71
     2
 72
     2
 73
     1
 90
        2
 40
0.6
 41
30.0
 62
     5
 63
     7
421
 16777215
 74
     1
 91
        0
 64
     7
 65
   257
 75
     1
175
     1
 42
1.0
 92
        0
 66
   257
 43
1.0
 76
     1
 77
     6
 78
     2
 67
     7
 79
     5
170
     0
171
     0
290
     0
174
     0
 93
       13
 44
0.0
173
     0
291
     1
 45
0.0
1001
ACAD
1000
AcDbSavedByObjectVersion
1070
     0
  0
VISUALSTYLE
  5
31
102
{ACAD_REACTORS
330
2A
102
}
102
{ACAD_XDICTIONARY
360
317
102
}
330
2A
100
AcDbVisualStyle
  2
Hidden
 70
     6
 71
     1
 72
     2
 73
     2
 90
        0
 40
0.6
 41
30.0
 62
     5
 63
     7
421
 16777215
 74
     2
 91
        2
 64
     7
 65
   257
 75
     2
175
     1
 42
40.0
 92
        0
 66
   257
 43
1.0
 76
     1
 77
     6
 78
     2
 67
     7
 79
     3
170
     0
171
     0
290
     0
174
     0
 93
        1
 44
0.0
173
     0
291
     0
 45
0.0
1001
ACAD
1000
AcDbSavedByObjectVersion
1070
     0
  0
VISUALSTYLE
  5
3B
102
{ACAD_REACTORS
330
2A
102
}
102
{ACAD_XDICTIONARY
360
32B
102
}
330
2A
100
AcDbVisualStyle
  2
JitterOff
 70
    20
 71
     2
 72
     2
 73
     0
 90
        0
 40
0.6
 41
30.0
 62
     5
 63
     7
421
 16777215
 74
     1
 91
        4
 64
     7
 65
   257
 75
     1
175
     1
 42
1.0
 92
       10
 66
     7
 43
1.0
 76
     1
 77
     6
 78
     2
 67
     7
 79
     5
170
     0
171
     0
290
     0
174
     0
 93
        1
 44
0.0
173
     0
291
     1
 45
0.0
1001
ACAD
1000
AcDbSavedByObjectVersion
1070
     0
  0
VISUALSTYLE
  5
38
102
{ACAD_REACTORS
330
2A
102
}
102
{ACAD_XDICTIONARY
360
325
102
}
330
2A
100
AcDbVisualStyle
  2
Linepattern
 70
    14
 71
     2
 72
     2
 73
     0
 90
        0
 40
0.6
 41
30.0
 62
     5
 63
     7
421
 16777215
 74
     1
 91
        4
 64
     7
 65
   257
 75
     7
175
     7
 42
1.0
 92
        8
 66
     7
 43
1.0
 76
     1
 77
     6
 78
     2
 67
     7
 79
     5
170
     0
171
     0
290
     0
174
     0
 93
        1
 44
0.0
173
     0
291
     1
 45
0.0
1001
ACAD
1000
AcDbSavedByObjectVersion
1070
     0
  0
VISUALSTYLE
  5
3C
102
{ACAD_REACTORS
330
2A
102
}
102
{ACAD_XDICTIONARY
360
32D
102
}
330
2A
100
AcDbVisualStyle
  2
OverhangOff
 70
    21
 71
     2
 72
     2
 73
     0
 90
        0
 40
0.6
 41
30.0
 62
     5
 63
     7
421
 16777215
 74
     1
 91
        4
 64
     7
 65
   257
 75
     1
175
     1
 42
1.0
 92
        9
 66
     7
 43
1.0
 76
     1
 77
     6
 78
     2
 67
     7
 79
     5
170
     0
171
     0
290
     0
174
     0
 93
        1
 44
0.0
173
     0
291
     1
 45
0.0
1001
ACAD
1000
AcDbSavedByObjectVersion
1070
     0
  0
VISUALSTYLE
  5
33
102
{ACAD_REACTORS
330
2A
102
}
102
{ACAD_XDICTIONARY
360
31B
102
}
330
2A
100
AcDbVisualStyle
  2
Realistic
 70
     8
 71
     2
 72
     3
 73
     0
 90
        2
 40
0.6
 41
30.0
 62
     5
 63
     7
421
 16777215
 74
     0
 91
        0
 64
     7
 65
   257
 75
     1
175
     1
 42
1.0
 92
        8
 66
   257
 43
1.0
 76
     1
 77
     6
 78
     2
 67
     7
 79
     3
170
     0
171
     0
290
     0
174
     0
 93
       13
 44
0.0
173
     0
291
     0
 45
0.0
1001
ACAD
1000
AcDbSavedByObjectVersion
1070
     0
  0
VISUALSTYLE
  5
42
102
{ACAD_REACTORS
330
2A
102
}
102
{ACAD_XDICTIONARY
360
339
102
}
330
2A
100
AcDbVisualStyle
  2
Shaded
 70
    27
 71
     2
 72
     2
 73
     1
 90
        2
 40
0.6
 41
30.0
 62
     5
 63
     7
421
 16777215
 74
     0
 91
        4
 64
     7
 65
   257
 75
     1
175
     1
 42
1.0
 92
        8
 66
   257
 43
1.0
 76
     1
 77
     6
 78
     2
 67
     8
425
  7895160
 79
     3
170
     0
171
     0
290
     0
174
     0
 93
        5
 44
0.0
173
     0
291
     0
 45
0.0
1001
ACAD
1000
AcDbSavedByObjectVersion
1070
     0
  0
VISUALSTYLE
  5
41
102
{ACAD_REACTORS
330
2A
102
}
102
{ACAD_XDICTIONARY
360
337
102
}
330
2A
100
AcDbVisualStyle
  2
Shaded with edges
 70
    26
 71
     2
 72
     2
 73
     1
 90
        2
 40
0.6
 41
30.0
 62
     5
 63
     7
421
 16777215
 74
     1
 91
       10
 64
     7
 65
   257
 75
     2
175
     1
 42
1.0
 92
        8
 66
   257
 43
1.0
 76
     1
 77
     6
 78
     2
 67
     7
 79
     3
170
     0
171
     0
290
     0
174
     0
 93
        5
 44
0.0
173
     0
291
     0
 45
0.0
1001
ACAD
1000
AcDbSavedByObjectVersion
1070
     0
  0
VISUALSTYLE
  5
3E
102
{ACAD_REACTORS
330
2A
102
}
102
{ACAD_XDICTIONARY
360
331
102
}
330
2A
100
AcDbVisualStyle
  2
Shades of Gray
 70
    23
 71
     2
 72
     2
 73
     3
 90
        0
 40
0.6
 41
30.0
 62
     5
 63
     7
421
 16777215
 74
     2
 91
        2
 64
     7
 65
     7
 75
     1
175
     1
 42
40.0
 92
        8
 66
     7
 43
1.0
 76
     1
 77
     6
 78
     2
 67
     7
 79
     3
170
     0
171
     0
290
     0
174
     0
 93
        1
 44
0.0
173
     0
291
     0
 45
0.0
1001
ACAD
1000
AcDbSavedByObjectVersion
1070
     0
  0
VISUALSTYLE
  5
3F
102
{ACAD_REACTORS
330
2A
102
}
102
{ACAD_XDICTIONARY
360
333
102
}
330
2A
100
AcDbVisualStyle
  2
Sketchy
 70
    24
 71
     1
 72
     2
 73
     2
 90
        0
 40
0.6
 41
30.0
 62
     5
 63
     7
421
 16777215
 74
     2
 91
        2
 64
     7
 65
     7
 75
     1
175
     1
 42
40.0
 92
       11
 66
     7
 43
1.0
 76
     1
 77
     6
 78
     2
 67
     7
 79
     6
170
     0
171
     0
290
     0
174
     0
 93
        1
 44
0.0
173
     0
291
     0
 45
0.0
1001
ACAD
1000
AcDbSavedByObjectVersion
1070
     0
  0
VISUALSTYLE
  5
37
102
{ACAD_REACTORS
330
2A
102
}
102
{ACAD_XDICTIONARY
360
323
102
}
330
2A
100
AcDbVisualStyle
  2
Thicken
 70
    13
 71
     2
 72
     2
 73
     0
 90
        0
 40
0.6
 41
30.0
 62
     5
 63
     7
421
 16777215
 74
     1
 91
        4
 64
     7
 65
   257
 75
     1
175
     1
 42
1.0
 92
       12
 66
     7
 43
1.0
 76
     1
 77
     6
 78
     2
 67
     7
 79
     5
170
     0
171
     0
290
     0
174
     0
 93
        1
 44
0.0
173
     0
291
     1
 45
0.0
1001
ACAD
1000
AcDbSavedByObjectVersion
1070
     0
  0
VISUALSTYLE
  5
30
102
{ACAD_REACTORS
330
2A
102
}
102
{ACAD_XDICTIONARY
360
315
102
}
330
2A
100
AcDbVisualStyle
  2
Wireframe
 70
     5
 71
     0
 72
     2
 73
     0
 90
        0
 40
0.6
 41
30.0
 62
     5
 63
     7
421
 16777215
 74
     1
 91
        4
 64
     7
 65
   257
 75
     1
175
     1
 42
1.0
 92
        0
 66
   257
 43
1.0
 76
     1
 77
     6
 78
     2
 67
     7
 79
     3
170
     0
171
     0
290
     0
174
     0
 93
        1
 44
0.0
173
     0
291
     0
 45
0.0
1001
ACAD
1000
AcDbSavedByObjectVersion
1070
     0
  0
VISUALSTYLE
  5
40
102
{ACAD_REACTORS
330
2A
102
}
102
{ACAD_XDICTIONARY
360
335
102
}
330
2A
100
AcDbVisualStyle
  2
X-Ray
 70
    25
 71
     2
 72
     2
 73
     1
 90
        1
 40
0.5
 41
30.0
 62
     5
 63
     7
421
 16777215
 74
     1
 91
        0
 64
     7
 65
   257
 75
     1
175
     1
 42
1.0
 92
        8
 66
     7
 43
1.0
 76
     1
 77
     6
 78
     2
 67
     7
 79
     3
170
     0
171
     0
290
     0
174
     0
 93
       13
 44
0.0
173
     0
291
     0
 45
0.0
1001
ACAD
1000
AcDbSavedByObjectVersion
1070
     0
  0
DICTIONARYVAR
  5
308
102
{ACAD_REACTORS
330
307
102
}
330
307
100
DictionaryVariables
280
     0
  1
1:1
  0
DICTIONARYVAR
  5
34C
102
{ACAD_REACTORS
330
307
102
}
330
307
100
DictionaryVariables
280
     0
  1
3.500000
  0
DICTIONARYVAR
  5
34D
102
{ACAD_REACTORS
330
307
102
}
330
307
100
DictionaryVariables
280
     0
  1
acadiso.lin
  0
DICTIONARYVAR
  5
349
102
{ACAD_REACTORS
330
307
102
}
330
307
100
DictionaryVariables
280
     0
  1
Standard
  0
DICTIONARYVAR
  5
348
102
{ACAD_REACTORS
330
307
102
}
330
307
100
DictionaryVariables
280
     0
  1
Standard
  0
DICTIONARYVAR
  5
309
102
{ACAD_REACTORS
330
307
102
}
330
307
100
DictionaryVariables
280
     0
  1
1
  0
DICTIONARYVAR
  5
30A
102
{ACAD_REACTORS
330
307
102
}
330
307
100
DictionaryVariables
280
     0
  1
2
  0
DICTIONARY
  5
33D
330
45
100
AcDbDictionary
280
     1
281
     1
  3
ACAD_XREC_ROUNDTRIP
360
33E
  0
DICTIONARY
  5
33B
330
44
100
AcDbDictionary
280
     1
281
     1
  3
ACAD_XREC_ROUNDTRIP
360
33C
  0
DICTIONARY
  5
33F
330
46
100
AcDbDictionary
280
     1
281
     1
  3
ACAD_XREC_ROUNDTRIP
360
340
  0
DICTIONARY
  5
345
330
6C
100
AcDbDictionary
280
     1
281
     1
  3
ACAD_XREC_ROUNDTRIP
360
346
  0
DICTIONARY
  5
341
330
6A
100
AcDbDictionary
280
     1
281
     1
  3
ACAD_ROUNDTRIP_2008_TABLESTYLE_CELLSTYLEMAP
360
343
  3
ACAD_XREC_ROUNDTRIP
360
342
  0
DICTIONARY
  5
313
330
2F
100
AcDbDictionary
280
     1
281
     1
  3
ACAD_XREC_ROUNDTRIP
360
314
  0
DICTIONARY
  5
319
330
32
100
AcDbDictionary
280
     1
281
     1
  3
ACAD_XREC_ROUNDTRIP
360
31A
  0
DICTIONARY
  5
321
330
36
100
AcDbDictionary
280
     1
281
     1
  3
ACAD_XREC_ROUNDTRIP
360
322
  0
DICTIONARY
  5
329
330
3A
100
AcDbDictionary
280
     1
281
     1
  3
ACAD_XREC_ROUNDTRIP
360
32A
  0
DICTIONARY
  5
31D
330
34
100
AcDbDictionary
280
     1
281
     1
  3
ACAD_XREC_ROUNDTRIP
360
31E
  0
DICTIONARY
  5
31F
330
35
100
AcDbDictionary
280
     1
281
     1
  3
ACAD_XREC_ROUNDTRIP
360
320
  0
DICTIONARY
  5
32F
330
3D
100
AcDbDictionary
280
     1
281
     1
  3
ACAD_XREC_ROUNDTRIP
360
330
  0
DICTIONARY
  5
327
330
39
100
AcDbDictionary
280
     1
281
     1
  3
ACAD_XREC_ROUNDTRIP
360
328
  0
DICTIONARY
  5
30B
330
2B
100
AcDbDictionary
280
     1
281
     1
  3
ACAD_XREC_ROUNDTRIP
360
30C
  0
DICTIONARY
  5
30D
330
2C
100
AcDbDictionary
280
     1
281
     1
  3
ACAD_XREC_ROUNDTRIP
360
30E
  0
DICTIONARY
  5
30F
330
2D
100
AcDbDictionary
280
     1
281
     1
  3
ACAD_XREC_ROUNDTRIP
360
310
  0
DICTIONARY
  5
311
330
2E
100
AcDbDictionary
280
     1
281
     1
  3
ACAD_XREC_ROUNDTRIP
360
312
  0
DICTIONARY
  5
317
330
31
100
AcDbDictionary
280
     1
281
     1
  3
ACAD_XREC_ROUNDTRIP
360
318
  0
DICTIONARY
  5
32B
330
3B
100
AcDbDictionary
280
     1
281
     1
  3
ACAD_XREC_ROUNDTRIP
360
32C
  0
DICTIONARY
  5
325
330
38
100
AcDbDictionary
280
     1
281
     1
  3
ACAD_XREC_ROUNDTRIP
360
326
  0
DICTIONARY
  5
32D
330
3C
100
AcDbDictionary
280
     1
281
     1
  3
ACAD_XREC_ROUNDTRIP
360
32E
  0
DICTIONARY
  5
31B
330
33
100
AcDbDictionary
280
     1
281
     1
  3
ACAD_XREC_ROUNDTRIP
360
31C
  0
DICTIONARY
  5
339
330
42
100
AcDbDictionary
280
     1
281
     1
  3
ACAD_XREC_ROUNDTRIP
360
33A
  0
DICTIONARY
  5
337
330
41
100
AcDbDictionary
280
     1
281
     1
  3
ACAD_XREC_ROUNDTRIP
360
338
  0
DICTIONARY
  5
331
330
3E
100
AcDbDictionary
280
     1
281
     1
  3
ACAD_XREC_ROUNDTRIP
360
332
  0
DICTIONARY
  5
333
330
3F
100
AcDbDictionary
280
     1
281
     1
  3
ACAD_XREC_ROUNDTRIP
360
334
  0
DICTIONARY
  5
323
330
37
100
AcDbDictionary
280
     1
281
     1
  3
ACAD_XREC_ROUNDTRIP
360
324
  0
DICTIONARY
  5
315
330
30
100
AcDbDictionary
280
     1
281
     1
  3
ACAD_XREC_ROUNDTRIP
360
316
  0
DICTIONARY
  5
335
330
40
100
AcDbDictionary
280
     1
281
     1
  3
ACAD_XREC_ROUNDTRIP
360
336
  0
XRECORD
  5
33E
102
{ACAD_REACTORS
330
33D
102
}
330
33D
100
AcDbXrecord
280
     1
102
MATERIAL
148
0.0
149
0.0
149
0.0
 93
        0
 94
      127
282
     0
 72
     1
 77
     1
171
     1
175
     1
179
     1
273
     0
  0
XRECORD
  5
33C
102
{ACAD_REACTORS
330
33B
102
}
330
33B
100
AcDbXrecord
280
     1
102
MATERIAL
148
0.0
149
0.0
149
0.0
 93
        0
 94
      127
282
     0
 72
     1
 77
     1
171
     1
175
     1
179
     1
273
     0
  0
XRECORD
  5
340
102
{ACAD_REACTORS
330
33F
102
}
330
33F
100
AcDbXrecord
280
     1
102
MATERIAL
148
0.0
149
0.0
149
0.0
 93
        0
 94
      127
282
     0
 72
     1
 77
     1
171
     1
175
     1
179
     1
273
     0
  0
XRECORD
  5
346
102
{ACAD_REACTORS
330
345
102
}
330
345
100
AcDbXrecord
280
     1
102
ACAD_ROUNDTRIP_2010_MLEADER_STYLE
  0
CELLSTYLEMAP
  5
343
102
{ACAD_REACTORS
330
341
102
}
330
341
100
AcDbCellStyleMap
 90
        3
300
CELLSTYLE
  1
TABLEFORMAT_BEGIN
 90
        5
170
     1
 91
        0
 92
    32768
 62
   257
 93
        1
300
CONTENTFORMAT
  1
CONTENTFORMAT_BEGIN
 90
        0
 91
        0
 92
        4
 93
        0
300

 40
0.0
140
1.0
 94
        5
 62
     0
340
11
144
6.0
309
CONTENTFORMAT_END
171
     1
301
MARGIN
  1
CELLMARGIN_BEGIN
 40
1.5
 40
1.5
 40
1.5
 40
1.5
 40
1.5
 40
1.5
309
CELLMARGIN_END
 94
        6
 95
        1
302
GRIDFORMAT
  1
GRIDFORMAT_BEGIN
 90
        0
 91
        1
 62
     0
 92
       -2
340
14
 93
        0
 40
0.045
309
GRIDFORMAT_END
 95
        2
302
GRIDFORMAT
  1
GRIDFORMAT_BEGIN
 90
        0
 91
        1
 62
     0
 92
       -2
340
14
 93
        0
 40
0.045
309
GRIDFORMAT_END
 95
        4
302
GRIDFORMAT
  1
GRIDFORMAT_BEGIN
 90
        0
 91
        1
 62
     0
 92
       -2
340
14
 93
        0
 40
0.045
309
GRIDFORMAT_END
 95
        8
302
GRIDFORMAT
  1
GRIDFORMAT_BEGIN
 90
        0
 91
        1
 62
     0
 92
       -2
340
14
 93
        0
 40
0.045
309
GRIDFORMAT_END
 95
       16
302
GRIDFORMAT
  1
GRIDFORMAT_BEGIN
 90
        0
 91
        1
 62
     0
 92
       -2
340
14
 93
        0
 40
0.045
309
GRIDFORMAT_END
 95
       32
302
GRIDFORMAT
  1
GRIDFORMAT_BEGIN
 90
        0
 91
        1
 62
     0
 92
       -2
340
14
 93
        0
 40
0.045
309
GRIDFORMAT_END
309
TABLEFORMAT_END
  1
CELLSTYLE_BEGIN
 90
        1
 91
        1
300
_TITLE
309
CELLSTYLE_END
300
CELLSTYLE
  1
TABLEFORMAT_BEGIN
 90
        5
170
     1
 91
        0
 92
        0
 62
   257
 93
        1
300
CONTENTFORMAT
  1
CONTENTFORMAT_BEGIN
 90
        0
 91
        0
 92
        4
 93
        0
300

 40
0.0
140
1.0
 94
        5
 62
     0
340
11
144
4.5
309
CONTENTFORMAT_END
171
     1
301
MARGIN
  1
CELLMARGIN_BEGIN
 40
1.5
 40
1.5
 40
1.5
 40
1.5
 40
1.5
 40
1.5
309
CELLMARGIN_END
 94
        6
 95
        1
302
GRIDFORMAT
  1
GRIDFORMAT_BEGIN
 90
        0
 91
        1
 62
     0
 92
       -2
340
14
 93
        0
 40
0.045
309
GRIDFORMAT_END
 95
        2
302
GRIDFORMAT
  1
GRIDFORMAT_BEGIN
 90
        0
 91
        1
 62
     0
 92
       -2
340
14
 93
        0
 40
0.045
309
GRIDFORMAT_END
 95
        4
302
GRIDFORMAT
  1
GRIDFORMAT_BEGIN
 90
        0
 91
        1
 62
     0
 92
       -2
340
14
 93
        0
 40
0.045
309
GRIDFORMAT_END
 95
        8
302
GRIDFORMAT
  1
GRIDFORMAT_BEGIN
 90
        0
 91
        1
 62
     0
 92
       -2
340
14
 93
        0
 40
0.045
309
GRIDFORMAT_END
 95
       16
302
GRIDFORMAT
  1
GRIDFORMAT_BEGIN
 90
        0
 91
        1
 62
     0
 92
       -2
340
14
 93
        0
 40
0.045
309
GRIDFORMAT_END
 95
       32
302
GRIDFORMAT
  1
GRIDFORMAT_BEGIN
 90
        0
 91
        1
 62
     0
 92
       -2
340
14
 93
        0
 40
0.045
309
GRIDFORMAT_END
309
TABLEFORMAT_END
  1
CELLSTYLE_BEGIN
 90
        2
 91
        1
300
_HEADER
309
CELLSTYLE_END
300
CELLSTYLE
  1
TABLEFORMAT_BEGIN
 90
        5
170
     1
 91
        0
 92
        0
 62
   257
 93
        1
300
CONTENTFORMAT
  1
CONTENTFORMAT_BEGIN
 90
        0
 91
        0
 92
        4
 93
        0
300

 40
0.0
140
1.0
 94
        2
 62
     0
340
11
144
4.5
309
CONTENTFORMAT_END
171
     1
301
MARGIN
  1
CELLMARGIN_BEGIN
 40
1.5
 40
1.5
 40
1.5
 40
1.5
 40
1.5
 40
1.5
309
CELLMARGIN_END
 94
        6
 95
        1
302
GRIDFORMAT
  1
GRIDFORMAT_BEGIN
 90
        0
 91
        1
 62
     0
 92
       -2
340
14
 93
        0
 40
0.045
309
GRIDFORMAT_END
 95
        2
302
GRIDFORMAT
  1
GRIDFORMAT_BEGIN
 90
        0
 91
        1
 62
     0
 92
       -2
340
14
 93
        0
 40
0.045
309
GRIDFORMAT_END
 95
        4
302
GRIDFORMAT
  1
GRIDFORMAT_BEGIN
 90
        0
 91
        1
 62
     0
 92
       -2
340
14
 93
        0
 40
0.045
309
GRIDFORMAT_END
 95
        8
302
GRIDFORMAT
  1
GRIDFORMAT_BEGIN
 90
        0
 91
        1
 62
     0
 92
       -2
340
14
 93
        0
 40
0.045
309
GRIDFORMAT_END
 95
       16
302
GRIDFORMAT
  1
GRIDFORMAT_BEGIN
 90
        0
 91
        1
 62
     0
 92
       -2
340
14
 93
        0
 40
0.045
309
GRIDFORMAT_END
 95
       32
302
GRIDFORMAT
  1
GRIDFORMAT_BEGIN
 90
        0
 91
        1
 62
     0
 92
       -2
340
14
 93
        0
 40
0.045
309
GRIDFORMAT_END
309
TABLEFORMAT_END
  1
CELLSTYLE_BEGIN
 90
        3
 91
        2
300
_DATA
309
CELLSTYLE_END
  0
XRECORD
  5
342
102
{ACAD_REACTORS
330
341
102
}
330
341
100
AcDbXrecord
280
     1
102
ACAD_ROUNDTRIP_PRE2007_TABLESTYLE
 90
        4
 91
        0
  1

 92
        4
 93
        0
  2

 94
        4
 95
        0
  3

  0
XRECORD
  5
314
102
{ACAD_REACTORS
330
313
102
}
330
313
100
AcDbXrecord
280
     1
102
RTVSPropertyOp0
 70
     1
102
RTVSPropertyOp1
 70
     1
102
RTVSPropertyOp2
 70
     1
102
RTVSPropertyOp3
 70
     1
102
RTVSPropertyOp4
 70
     1
102
RTVSPropertyOp5
 70
     1
102
RTVSPropertyOp6
 70
     1
102
RTVSPropertyOp7
 70
     1
102
RTVSPropertyOp8
 70
     1
102
RTVSPropertyOp9
 70
     1
102
RTVSPropertyOp10
 70
     1
102
RTVSPropertyOp11
 70
     1
102
RTVSPropertyOp12
 70
     1
102
RTVSPropertyOp13
 70
     1
102
RTVSPropertyOp14
 70
     1
102
RTVSPropertyOp15
 70
     1
102
RTVSPropertyOp16
 70
     1
102
RTVSPropertyOp17
 70
     1
102
RTVSPropertyOp18
 70
     1
102
RTVSPropertyOp19
 70
     1
102
RTVSPropertyOp20
 70
     1
102
RTVSPropertyOp21
 70
     1
102
RTVSPropertyOp22
 70
     1
102
RTVSPropertyOp23
 70
     1
102
RTVSPropertyOp24
 70
     1
102
RTVSPropertyOp25
 70
     1
102
RTVSPropertyOp26
 70
     1
102
RTVSPropertyOp27
 70
     1
102
RTVSPropertyOp28
 70
     1
102
RTVSPropertyOp29
 70
     1
102
RTVSPropertyOp30
 70
     1
102
RTVSPropertyOp31
 70
     1
102
RTVSPropertyOp32
 70
     1
102
RTVSPropertyOp33
 70
     1
102
RTVSPropertyOp34
 70
     1
102
RTVSPropertyOp35
 70
     1
102
RTVSPropertyOp36
 70
     1
102
RTVSPropertyOp37
 70
     1
102
RTVSPropertyOp38
 70
     1
102
RTVSPropertyOp39
 70
     1
102
RTVSPropertyOp40
 70
     1
102
RTVSPropertyOp41
 70
     1
102
RTVSPropertyOp42
 70
     1
102
RTVSPropertyOp43
 70
     1
102
RTVSPropertyOp44
 70
     1
102
RTVSPropertyOp45
 70
     1
102
RTVSPropertyOp46
 70
     1
102
RTVSPropertyOp47
 70
     1
102
RTVSPropertyOp48
 70
     1
102
RTVSPropertyOp49
 70
     1
102
RTVSPropertyOp50
 70
     1
102
RTVSPropertyOp51
 70
     0
102
RTVSPropertyOp52
 70
     0
102
RTVSPropertyOp53
 70
     1
102
RTVSPropertyOp54
 70
     1
102
RTVSPropertyOp55
 70
     1
102
RTVSPropertyOp56
 70
     1
102
RTVSPropertyOp57
 70
     1
102
RTVSPost2010Prop28
280
     1
102
RTVSPost2010PropOp28
 70
     1
102
RTVSPost2010Prop29
280
     1
102
RTVSPost2010PropOp29
 70
     1
102
RTVSPost2010Prop30
280
     0
102
RTVSPost2010PropOp30
 70
     1
102
RTVSPost2010Prop31
280
     0
102
RTVSPost2010PropOp31
 70
     1
102
RTVSPost2010Prop32
280
     0
102
RTVSPost2010PropOp32
 70
     1
102
RTVSPost2010Prop33
280
     0
102
RTVSPost2010PropOp33
 70
     1
102
RTVSPost2010Prop34
280
     0
102
RTVSPost2010PropOp34
 70
     1
102
RTVSPost2010Prop35
280
     0
102
RTVSPost2010PropOp35
 70
     1
102
RTVSPost2010Prop36
280
     0
102
RTVSPost2010PropOp36
 70
     1
102
RTVSPost2010Prop37
 90
       50
102
RTVSPost2010PropOp37
 70
     1
102
RTVSPost2010Prop38
140
0.0
102
RTVSPost2010PropOp38
 70
     1
102
RTVSPost2010Prop39
140
1.0
102
RTVSPost2010PropOp39
 70
     1
102
RTVSPost2010Prop40
 90
        0
102
RTVSPost2010PropOp40
 70
     1
102
RTVSPost2010Prop41ColorIndex
 90
       18
102
RTVSPost2010Prop41ColorRGB
 90
        0
102
RTVSPost2010PropOp41
 70
     1
102
RTVSPost2010Prop42
 90
       50
102
RTVSPost2010PropOp42
 70
     1
102
RTVSPost2010Prop43
 90
        3
102
RTVSPost2010PropOp43
 70
     1
102
RTVSPost2010Prop44ColorIndex
 90
        5
102
RTVSPost2010Prop44ColorRGB
 90
      255
102
RTVSPost2010PropOp44
 70
     1
102
RTVSPost2010Prop45
280
     0
102
RTVSPost2010PropOp45
 70
     1
102
RTVSPost2010Prop46
 90
       50
102
RTVSPost2010PropOp46
 70
     1
102
RTVSPost2010Prop47
 90
       50
102
RTVSPost2010PropOp47
 70
     1
102
RTVSPost2010Prop48
 90
       50
102
RTVSPost2010PropOp48
 70
     1
102
RTVSPost2010Prop49
280
     0
102
RTVSPost2010PropOp49
 70
     1
102
RTVSPost2010Prop50
 90
       50
102
RTVSPost2010PropOp50
 70
     1
102
RTVSPost2010Prop51ColorIndex
 90
      256
102
RTVSPost2010Prop51ColorRGB
 90
-16777216
102
RTVSPost2010PropOp51
 70
     0
102
RTVSPost2010Prop52
140
1.0
102
RTVSPost2010PropOp52
 70
     0
102
RTVSPost2010Prop53
 90
        2
102
RTVSPost2010PropOp53
 70
     1
102
RTVSPost2010Prop54
  1
strokes_ogs.tif
102
RTVSPost2010PropOp54
 70
     1
102
RTVSPost2010Prop55
280
     0
102
RTVSPost2010PropOp55
 70
     1
102
RTVSPost2010Prop56
140
1.0
102
RTVSPost2010PropOp56
 70
     1
102
RTVSPost2010Prop57
140
1.0
102
RTVSPost2010PropOp57
 70
     1
  0
XRECORD
  5
31A
102
{ACAD_REACTORS
330
319
102
}
330
319
100
AcDbXrecord
280
     1
102
RTVSPropertyOp0
 70
     1
102
RTVSPropertyOp1
 70
     1
102
RTVSPropertyOp2
 70
     1
102
RTVSPropertyOp3
 70
     1
102
RTVSPropertyOp4
 70
     1
102
RTVSPropertyOp5
 70
     1
102
RTVSPropertyOp6
 70
     1
102
RTVSPropertyOp7
 70
     1
102
RTVSPropertyOp8
 70
     1
102
RTVSPropertyOp9
 70
     1
102
RTVSPropertyOp10
 70
     1
102
RTVSPropertyOp11
 70
     1
102
RTVSPropertyOp12
 70
     1
102
RTVSPropertyOp13
 70
     1
102
RTVSPropertyOp14
 70
     1
102
RTVSPropertyOp15
 70
     1
102
RTVSPropertyOp16
 70
     1
102
RTVSPropertyOp17
 70
     1
102
RTVSPropertyOp18
 70
     1
102
RTVSPropertyOp19
 70
     1
102
RTVSPropertyOp20
 70
     1
102
RTVSPropertyOp21
 70
     1
102
RTVSPropertyOp22
 70
     1
102
RTVSPropertyOp23
 70
     1
102
RTVSPropertyOp24
 70
     1
102
RTVSPropertyOp25
 70
     1
102
RTVSPropertyOp26
 70
     1
102
RTVSPropertyOp27
 70
     1
102
RTVSPropertyOp28
 70
     1
102
RTVSPropertyOp29
 70
     1
102
RTVSPropertyOp30
 70
     1
102
RTVSPropertyOp31
 70
     1
102
RTVSPropertyOp32
 70
     1
102
RTVSPropertyOp33
 70
     1
102
RTVSPropertyOp34
 70
     1
102
RTVSPropertyOp35
 70
     1
102
RTVSPropertyOp36
 70
     1
102
RTVSPropertyOp37
 70
     1
102
RTVSPropertyOp38
 70
     1
102
RTVSPropertyOp39
 70
     1
102
RTVSPropertyOp40
 70
     1
102
RTVSPropertyOp41
 70
     1
102
RTVSPropertyOp42
 70
     1
102
RTVSPropertyOp43
 70
     1
102
RTVSPropertyOp44
 70
     1
102
RTVSPropertyOp45
 70
     1
102
RTVSPropertyOp46
 70
     1
102
RTVSPropertyOp47
 70
     1
102
RTVSPropertyOp48
 70
     1
102
RTVSPropertyOp49
 70
     1
102
RTVSPropertyOp50
 70
     1
102
RTVSPropertyOp51
 70
     0
102
RTVSPropertyOp52
 70
     0
102
RTVSPropertyOp53
 70
     1
102
RTVSPropertyOp54
 70
     1
102
RTVSPropertyOp55
 70
     1
102
RTVSPropertyOp56
 70
     1
102
RTVSPropertyOp57
 70
     1
102
RTVSPost2010Prop28
280
     0
102
RTVSPost2010PropOp28
 70
     1
102
RTVSPost2010Prop29
280
     1
102
RTVSPost2010PropOp29
 70
     1
102
RTVSPost2010Prop30
280
     1
102
RTVSPost2010PropOp30
 70
     1
102
RTVSPost2010Prop31
280
     0
102
RTVSPost2010PropOp31
 70
     1
102
RTVSPost2010Prop32
280
     0
102
RTVSPost2010PropOp32
 70
     1
102
RTVSPost2010Prop33
280
     0
102
RTVSPost2010PropOp33
 70
     1
102
RTVSPost2010Prop34
280
     0
102
RTVSPost2010PropOp34
 70
     1
102
RTVSPost2010Prop35
280
     0
102
RTVSPost2010PropOp35
 70
     1
102
RTVSPost2010Prop36
280
     0
102
RTVSPost2010PropOp36
 70
     1
102
RTVSPost2010Prop37
 90
       50
102
RTVSPost2010PropOp37
 70
     1
102
RTVSPost2010Prop38
140
0.0
102
RTVSPost2010PropOp38
 70
     1
102
RTVSPost2010Prop39
140
1.0
102
RTVSPost2010PropOp39
 70
     1
102
RTVSPost2010Prop40
 90
        0
102
RTVSPost2010PropOp40
 70
     1
102
RTVSPost2010Prop41ColorIndex
 90
       18
102
RTVSPost2010Prop41ColorRGB
 90
        0
102
RTVSPost2010PropOp41
 70
     1
102
RTVSPost2010Prop42
 90
       50
102
RTVSPost2010PropOp42
 70
     1
102
RTVSPost2010Prop43
 90
        3
102
RTVSPost2010PropOp43
 70
     1
102
RTVSPost2010Prop44ColorIndex
 90
        5
102
RTVSPost2010Prop44ColorRGB
 90
      255
102
RTVSPost2010PropOp44
 70
     1
102
RTVSPost2010Prop45
280
     0
102
RTVSPost2010PropOp45
 70
     1
102
RTVSPost2010Prop46
 90
       50
102
RTVSPost2010PropOp46
 70
     1
102
RTVSPost2010Prop47
 90
       50
102
RTVSPost2010PropOp47
 70
     1
102
RTVSPost2010Prop48
 90
       50
102
RTVSPost2010PropOp48
 70
     1
102
RTVSPost2010Prop49
280
     0
102
RTVSPost2010PropOp49
 70
     1
102
RTVSPost2010Prop50
 90
       50
102
RTVSPost2010PropOp50
 70
     1
102
RTVSPost2010Prop51ColorIndex
 90
      256
102
RTVSPost2010Prop51ColorRGB
 90
-16777216
102
RTVSPost2010PropOp51
 70
     0
102
RTVSPost2010Prop52
140
1.0
102
RTVSPost2010PropOp52
 70
     0
102
RTVSPost2010Prop53
 90
        2
102
RTVSPost2010PropOp53
 70
     1
102
RTVSPost2010Prop54
  1
strokes_ogs.tif
102
RTVSPost2010PropOp54
 70
     1
102
RTVSPost2010Prop55
280
     0
102
RTVSPost2010PropOp55
 70
     1
102
RTVSPost2010Prop56
140
1.0
102
RTVSPost2010PropOp56
 70
     1
102
RTVSPost2010Prop57
140
1.0
102
RTVSPost2010PropOp57
 70
     1
  0
XRECORD
  5
322
102
{ACAD_REACTORS
330
321
102
}
330
321
100
AcDbXrecord
280
     1
102
RTVSPropertyOp0
 70
     1
102
RTVSPropertyOp1
 70
     1
102
RTVSPropertyOp2
 70
     1
102
RTVSPropertyOp3
 70
     1
102
RTVSPropertyOp4
 70
     1
102
RTVSPropertyOp5
 70
     1
102
RTVSPropertyOp6
 70
     1
102
RTVSPropertyOp7
 70
     1
102
RTVSPropertyOp8
 70
     1
102
RTVSPropertyOp9
 70
     1
102
RTVSPropertyOp10
 70
     1
102
RTVSPropertyOp11
 70
     1
102
RTVSPropertyOp12
 70
     1
102
RTVSPropertyOp13
 70
     1
102
RTVSPropertyOp14
 70
     1
102
RTVSPropertyOp15
 70
     1
102
RTVSPropertyOp16
 70
     1
102
RTVSPropertyOp17
 70
     1
102
RTVSPropertyOp18
 70
     1
102
RTVSPropertyOp19
 70
     1
102
RTVSPropertyOp20
 70
     1
102
RTVSPropertyOp21
 70
     1
102
RTVSPropertyOp22
 70
     1
102
RTVSPropertyOp23
 70
     1
102
RTVSPropertyOp24
 70
     1
102
RTVSPropertyOp25
 70
     1
102
RTVSPropertyOp26
 70
     1
102
RTVSPropertyOp27
 70
     1
102
RTVSPropertyOp28
 70
     1
102
RTVSPropertyOp29
 70
     1
102
RTVSPropertyOp30
 70
     1
102
RTVSPropertyOp31
 70
     1
102
RTVSPropertyOp32
 70
     1
102
RTVSPropertyOp33
 70
     1
102
RTVSPropertyOp34
 70
     1
102
RTVSPropertyOp35
 70
     1
102
RTVSPropertyOp36
 70
     1
102
RTVSPropertyOp37
 70
     1
102
RTVSPropertyOp38
 70
     1
102
RTVSPropertyOp39
 70
     1
102
RTVSPropertyOp40
 70
     1
102
RTVSPropertyOp41
 70
     1
102
RTVSPropertyOp42
 70
     1
102
RTVSPropertyOp43
 70
     1
102
RTVSPropertyOp44
 70
     1
102
RTVSPropertyOp45
 70
     1
102
RTVSPropertyOp46
 70
     1
102
RTVSPropertyOp47
 70
     1
102
RTVSPropertyOp48
 70
     1
102
RTVSPropertyOp49
 70
     1
102
RTVSPropertyOp50
 70
     1
102
RTVSPropertyOp51
 70
     0
102
RTVSPropertyOp52
 70
     0
102
RTVSPropertyOp53
 70
     1
102
RTVSPropertyOp54
 70
     1
102
RTVSPropertyOp55
 70
     1
102
RTVSPropertyOp56
 70
     1
102
RTVSPropertyOp57
 70
     1
102
RTVSPost2010Prop28
280
     0
102
RTVSPost2010PropOp28
 70
     1
102
RTVSPost2010Prop29
280
     1
102
RTVSPost2010PropOp29
 70
     1
102
RTVSPost2010Prop30
280
     1
102
RTVSPost2010PropOp30
 70
     1
102
RTVSPost2010Prop31
280
     0
102
RTVSPost2010PropOp31
 70
     1
102
RTVSPost2010Prop32
280
     0
102
RTVSPost2010PropOp32
 70
     1
102
RTVSPost2010Prop33
280
     0
102
RTVSPost2010PropOp33
 70
     1
102
RTVSPost2010Prop34
280
     0
102
RTVSPost2010PropOp34
 70
     1
102
RTVSPost2010Prop35
280
     0
102
RTVSPost2010PropOp35
 70
     1
102
RTVSPost2010Prop36
280
     0
102
RTVSPost2010PropOp36
 70
     1
102
RTVSPost2010Prop37
 90
       50
102
RTVSPost2010PropOp37
 70
     1
102
RTVSPost2010Prop38
140
0.0
102
RTVSPost2010PropOp38
 70
     1
102
RTVSPost2010Prop39
140
1.0
102
RTVSPost2010PropOp39
 70
     1
102
RTVSPost2010Prop40
 90
        0
102
RTVSPost2010PropOp40
 70
     1
102
RTVSPost2010Prop41ColorIndex
 90
       18
102
RTVSPost2010Prop41ColorRGB
 90
        0
102
RTVSPost2010PropOp41
 70
     1
102
RTVSPost2010Prop42
 90
       50
102
RTVSPost2010PropOp42
 70
     1
102
RTVSPost2010Prop43
 90
        3
102
RTVSPost2010PropOp43
 70
     1
102
RTVSPost2010Prop44ColorIndex
 90
        5
102
RTVSPost2010Prop44ColorRGB
 90
      255
102
RTVSPost2010PropOp44
 70
     1
102
RTVSPost2010Prop45
280
     0
102
RTVSPost2010PropOp45
 70
     1
102
RTVSPost2010Prop46
 90
       50
102
RTVSPost2010PropOp46
 70
     1
102
RTVSPost2010Prop47
 90
       50
102
RTVSPost2010PropOp47
 70
     1
102
RTVSPost2010Prop48
 90
       50
102
RTVSPost2010PropOp48
 70
     1
102
RTVSPost2010Prop49
280
     0
102
RTVSPost2010PropOp49
 70
     1
102
RTVSPost2010Prop50
 90
       50
102
RTVSPost2010PropOp50
 70
     1
102
RTVSPost2010Prop51ColorIndex
 90
      256
102
RTVSPost2010Prop51ColorRGB
 90
-16777216
102
RTVSPost2010PropOp51
 70
     0
102
RTVSPost2010Prop52
140
1.0
102
RTVSPost2010PropOp52
 70
     0
102
RTVSPost2010Prop53
 90
        2
102
RTVSPost2010PropOp53
 70
     1
102
RTVSPost2010Prop54
  1
strokes_ogs.tif
102
RTVSPost2010PropOp54
 70
     1
102
RTVSPost2010Prop55
280
     0
102
RTVSPost2010PropOp55
 70
     1
102
RTVSPost2010Prop56
140
1.0
102
RTVSPost2010PropOp56
 70
     1
102
RTVSPost2010Prop57
140
1.0
102
RTVSPost2010PropOp57
 70
     1
  0
XRECORD
  5
32A
102
{ACAD_REACTORS
330
329
102
}
330
329
100
AcDbXrecord
280
     1
102
RTVSPropertyOp0
 70
     1
102
RTVSPropertyOp1
 70
     1
102
RTVSPropertyOp2
 70
     1
102
RTVSPropertyOp3
 70
     1
102
RTVSPropertyOp4
 70
     1
102
RTVSPropertyOp5
 70
     1
102
RTVSPropertyOp6
 70
     1
102
RTVSPropertyOp7
 70
     1
102
RTVSPropertyOp8
 70
     1
102
RTVSPropertyOp9
 70
     1
102
RTVSPropertyOp10
 70
     1
102
RTVSPropertyOp11
 70
     1
102
RTVSPropertyOp12
 70
     1
102
RTVSPropertyOp13
 70
     1
102
RTVSPropertyOp14
 70
     1
102
RTVSPropertyOp15
 70
     1
102
RTVSPropertyOp16
 70
     1
102
RTVSPropertyOp17
 70
     1
102
RTVSPropertyOp18
 70
     1
102
RTVSPropertyOp19
 70
     1
102
RTVSPropertyOp20
 70
     1
102
RTVSPropertyOp21
 70
     1
102
RTVSPropertyOp22
 70
     1
102
RTVSPropertyOp23
 70
     1
102
RTVSPropertyOp24
 70
     1
102
RTVSPropertyOp25
 70
     1
102
RTVSPropertyOp26
 70
     1
102
RTVSPropertyOp27
 70
     1
102
RTVSPropertyOp28
 70
     1
102
RTVSPropertyOp29
 70
     1
102
RTVSPropertyOp30
 70
     1
102
RTVSPropertyOp31
 70
     1
102
RTVSPropertyOp32
 70
     1
102
RTVSPropertyOp33
 70
     1
102
RTVSPropertyOp34
 70
     1
102
RTVSPropertyOp35
 70
     1
102
RTVSPropertyOp36
 70
     1
102
RTVSPropertyOp37
 70
     1
102
RTVSPropertyOp38
 70
     1
102
RTVSPropertyOp39
 70
     1
102
RTVSPropertyOp40
 70
     1
102
RTVSPropertyOp41
 70
     1
102
RTVSPropertyOp42
 70
     1
102
RTVSPropertyOp43
 70
     1
102
RTVSPropertyOp44
 70
     1
102
RTVSPropertyOp45
 70
     1
102
RTVSPropertyOp46
 70
     1
102
RTVSPropertyOp47
 70
     1
102
RTVSPropertyOp48
 70
     1
102
RTVSPropertyOp49
 70
     1
102
RTVSPropertyOp50
 70
     1
102
RTVSPropertyOp51
 70
     0
102
RTVSPropertyOp52
 70
     0
102
RTVSPropertyOp53
 70
     1
102
RTVSPropertyOp54
 70
     1
102
RTVSPropertyOp55
 70
     1
102
RTVSPropertyOp56
 70
     1
102
RTVSPropertyOp57
 70
     1
102
RTVSPost2010Prop28
280
     0
102
RTVSPost2010PropOp28
 70
     1
102
RTVSPost2010Prop29
280
     1
102
RTVSPost2010PropOp29
 70
     1
102
RTVSPost2010Prop30
280
     1
102
RTVSPost2010PropOp30
 70
     1
102
RTVSPost2010Prop31
280
     0
102
RTVSPost2010PropOp31
 70
     1
102
RTVSPost2010Prop32
280
     0
102
RTVSPost2010PropOp32
 70
     1
102
RTVSPost2010Prop33
280
     0
102
RTVSPost2010PropOp33
 70
     1
102
RTVSPost2010Prop34
280
     0
102
RTVSPost2010PropOp34
 70
     1
102
RTVSPost2010Prop35
280
     0
102
RTVSPost2010PropOp35
 70
     1
102
RTVSPost2010Prop36
280
     0
102
RTVSPost2010PropOp36
 70
     1
102
RTVSPost2010Prop37
 90
       50
102
RTVSPost2010PropOp37
 70
     1
102
RTVSPost2010Prop38
140
0.0
102
RTVSPost2010PropOp38
 70
     1
102
RTVSPost2010Prop39
140
1.0
102
RTVSPost2010PropOp39
 70
     1
102
RTVSPost2010Prop40
 90
        0
102
RTVSPost2010PropOp40
 70
     1
102
RTVSPost2010Prop41ColorIndex
 90
       18
102
RTVSPost2010Prop41ColorRGB
 90
        0
102
RTVSPost2010PropOp41
 70
     1
102
RTVSPost2010Prop42
 90
       50
102
RTVSPost2010PropOp42
 70
     1
102
RTVSPost2010Prop43
 90
        3
102
RTVSPost2010PropOp43
 70
     1
102
RTVSPost2010Prop44ColorIndex
 90
        5
102
RTVSPost2010Prop44ColorRGB
 90
      255
102
RTVSPost2010PropOp44
 70
     1
102
RTVSPost2010Prop45
280
     0
102
RTVSPost2010PropOp45
 70
     1
102
RTVSPost2010Prop46
 90
       50
102
RTVSPost2010PropOp46
 70
     1
102
RTVSPost2010Prop47
 90
       50
102
RTVSPost2010PropOp47
 70
     1
102
RTVSPost2010Prop48
 90
       50
102
RTVSPost2010PropOp48
 70
     1
102
RTVSPost2010Prop49
280
     0
102
RTVSPost2010PropOp49
 70
     1
102
RTVSPost2010Prop50
 90
       50
102
RTVSPost2010PropOp50
 70
     1
102
RTVSPost2010Prop51ColorIndex
 90
      256
102
RTVSPost2010Prop51ColorRGB
 90
-16777216
102
RTVSPost2010PropOp51
 70
     0
102
RTVSPost2010Prop52
140
1.0
102
RTVSPost2010PropOp52
 70
     0
102
RTVSPost2010Prop53
 90
        2
102
RTVSPost2010PropOp53
 70
     1
102
RTVSPost2010Prop54
  1
strokes_ogs.tif
102
RTVSPost2010PropOp54
 70
     1
102
RTVSPost2010Prop55
280
     0
102
RTVSPost2010PropOp55
 70
     1
102
RTVSPost2010Prop56
140
1.0
102
RTVSPost2010PropOp56
 70
     1
102
RTVSPost2010Prop57
140
1.0
102
RTVSPost2010PropOp57
 70
     1
  0
XRECORD
  5
31E
102
{ACAD_REACTORS
330
31D
102
}
330
31D
100
AcDbXrecord
280
     1
102
RTVSPropertyOp0
 70
     1
102
RTVSPropertyOp1
 70
     1
102
RTVSPropertyOp2
 70
     1
102
RTVSPropertyOp3
 70
     1
102
RTVSPropertyOp4
 70
     1
102
RTVSPropertyOp5
 70
     1
102
RTVSPropertyOp6
 70
     1
102
RTVSPropertyOp7
 70
     1
102
RTVSPropertyOp8
 70
     1
102
RTVSPropertyOp9
 70
     1
102
RTVSPropertyOp10
 70
     1
102
RTVSPropertyOp11
 70
     1
102
RTVSPropertyOp12
 70
     1
102
RTVSPropertyOp13
 70
     1
102
RTVSPropertyOp14
 70
     1
102
RTVSPropertyOp15
 70
     1
102
RTVSPropertyOp16
 70
     1
102
RTVSPropertyOp17
 70
     1
102
RTVSPropertyOp18
 70
     1
102
RTVSPropertyOp19
 70
     1
102
RTVSPropertyOp20
 70
     1
102
RTVSPropertyOp21
 70
     1
102
RTVSPropertyOp22
 70
     1
102
RTVSPropertyOp23
 70
     1
102
RTVSPropertyOp24
 70
     1
102
RTVSPropertyOp25
 70
     1
102
RTVSPropertyOp26
 70
     1
102
RTVSPropertyOp27
 70
     1
102
RTVSPropertyOp28
 70
     1
102
RTVSPropertyOp29
 70
     1
102
RTVSPropertyOp30
 70
     1
102
RTVSPropertyOp31
 70
     1
102
RTVSPropertyOp32
 70
     1
102
RTVSPropertyOp33
 70
     1
102
RTVSPropertyOp34
 70
     1
102
RTVSPropertyOp35
 70
     1
102
RTVSPropertyOp36
 70
     1
102
RTVSPropertyOp37
 70
     1
102
RTVSPropertyOp38
 70
     1
102
RTVSPropertyOp39
 70
     1
102
RTVSPropertyOp40
 70
     1
102
RTVSPropertyOp41
 70
     1
102
RTVSPropertyOp42
 70
     1
102
RTVSPropertyOp43
 70
     1
102
RTVSPropertyOp44
 70
     1
102
RTVSPropertyOp45
 70
     1
102
RTVSPropertyOp46
 70
     1
102
RTVSPropertyOp47
 70
     1
102
RTVSPropertyOp48
 70
     1
102
RTVSPropertyOp49
 70
     1
102
RTVSPropertyOp50
 70
     1
102
RTVSPropertyOp51
 70
     0
102
RTVSPropertyOp52
 70
     0
102
RTVSPropertyOp53
 70
     1
102
RTVSPropertyOp54
 70
     1
102
RTVSPropertyOp55
 70
     1
102
RTVSPropertyOp56
 70
     1
102
RTVSPropertyOp57
 70
     1
102
RTVSPost2010Prop28
280
     0
102
RTVSPost2010PropOp28
 70
     1
102
RTVSPost2010Prop29
280
     1
102
RTVSPost2010PropOp29
 70
     1
102
RTVSPost2010Prop30
280
     1
102
RTVSPost2010PropOp30
 70
     1
102
RTVSPost2010Prop31
280
     0
102
RTVSPost2010PropOp31
 70
     1
102
RTVSPost2010Prop32
280
     0
102
RTVSPost2010PropOp32
 70
     1
102
RTVSPost2010Prop33
280
     0
102
RTVSPost2010PropOp33
 70
     1
102
RTVSPost2010Prop34
280
     0
102
RTVSPost2010PropOp34
 70
     1
102
RTVSPost2010Prop35
280
     0
102
RTVSPost2010PropOp35
 70
     1
102
RTVSPost2010Prop36
280
     0
102
RTVSPost2010PropOp36
 70
     1
102
RTVSPost2010Prop37
 90
       50
102
RTVSPost2010PropOp37
 70
     1
102
RTVSPost2010Prop38
140
0.0
102
RTVSPost2010PropOp38
 70
     1
102
RTVSPost2010Prop39
140
1.0
102
RTVSPost2010PropOp39
 70
     1
102
RTVSPost2010Prop40
 90
        0
102
RTVSPost2010PropOp40
 70
     1
102
RTVSPost2010Prop41ColorIndex
 90
       18
102
RTVSPost2010Prop41ColorRGB
 90
        0
102
RTVSPost2010PropOp41
 70
     1
102
RTVSPost2010Prop42
 90
       50
102
RTVSPost2010PropOp42
 70
     1
102
RTVSPost2010Prop43
 90
        3
102
RTVSPost2010PropOp43
 70
     1
102
RTVSPost2010Prop44ColorIndex
 90
        5
102
RTVSPost2010Prop44ColorRGB
 90
      255
102
RTVSPost2010PropOp44
 70
     1
102
RTVSPost2010Prop45
280
     0
102
RTVSPost2010PropOp45
 70
     1
102
RTVSPost2010Prop46
 90
       50
102
RTVSPost2010PropOp46
 70
     1
102
RTVSPost2010Prop47
 90
       50
102
RTVSPost2010PropOp47
 70
     1
102
RTVSPost2010Prop48
 90
       50
102
RTVSPost2010PropOp48
 70
     1
102
RTVSPost2010Prop49
280
     0
102
RTVSPost2010PropOp49
 70
     1
102
RTVSPost2010Prop50
 90
       50
102
RTVSPost2010PropOp50
 70
     1
102
RTVSPost2010Prop51ColorIndex
 90
      256
102
RTVSPost2010Prop51ColorRGB
 90
-16777216
102
RTVSPost2010PropOp51
 70
     0
102
RTVSPost2010Prop52
140
1.0
102
RTVSPost2010PropOp52
 70
     0
102
RTVSPost2010Prop53
 90
        2
102
RTVSPost2010PropOp53
 70
     1
102
RTVSPost2010Prop54
  1
strokes_ogs.tif
102
RTVSPost2010PropOp54
 70
     1
102
RTVSPost2010Prop55
280
     0
102
RTVSPost2010PropOp55
 70
     1
102
RTVSPost2010Prop56
140
1.0
102
RTVSPost2010PropOp56
 70
     1
102
RTVSPost2010Prop57
140
1.0
102
RTVSPost2010PropOp57
 70
     1
  0
XRECORD
  5
320
102
{ACAD_REACTORS
330
31F
102
}
330
31F
100
AcDbXrecord
280
     1
102
RTVSPropertyOp0
 70
     1
102
RTVSPropertyOp1
 70
     1
102
RTVSPropertyOp2
 70
     1
102
RTVSPropertyOp3
 70
     1
102
RTVSPropertyOp4
 70
     1
102
RTVSPropertyOp5
 70
     1
102
RTVSPropertyOp6
 70
     1
102
RTVSPropertyOp7
 70
     1
102
RTVSPropertyOp8
 70
     1
102
RTVSPropertyOp9
 70
     1
102
RTVSPropertyOp10
 70
     1
102
RTVSPropertyOp11
 70
     1
102
RTVSPropertyOp12
 70
     1
102
RTVSPropertyOp13
 70
     1
102
RTVSPropertyOp14
 70
     1
102
RTVSPropertyOp15
 70
     1
102
RTVSPropertyOp16
 70
     1
102
RTVSPropertyOp17
 70
     1
102
RTVSPropertyOp18
 70
     1
102
RTVSPropertyOp19
 70
     1
102
RTVSPropertyOp20
 70
     1
102
RTVSPropertyOp21
 70
     1
102
RTVSPropertyOp22
 70
     1
102
RTVSPropertyOp23
 70
     1
102
RTVSPropertyOp24
 70
     1
102
RTVSPropertyOp25
 70
     1
102
RTVSPropertyOp26
 70
     1
102
RTVSPropertyOp27
 70
     1
102
RTVSPropertyOp28
 70
     1
102
RTVSPropertyOp29
 70
     1
102
RTVSPropertyOp30
 70
     1
102
RTVSPropertyOp31
 70
     1
102
RTVSPropertyOp32
 70
     1
102
RTVSPropertyOp33
 70
     1
102
RTVSPropertyOp34
 70
     1
102
RTVSPropertyOp35
 70
     1
102
RTVSPropertyOp36
 70
     1
102
RTVSPropertyOp37
 70
     1
102
RTVSPropertyOp38
 70
     1
102
RTVSPropertyOp39
 70
     1
102
RTVSPropertyOp40
 70
     1
102
RTVSPropertyOp41
 70
     1
102
RTVSPropertyOp42
 70
     1
102
RTVSPropertyOp43
 70
     1
102
RTVSPropertyOp44
 70
     1
102
RTVSPropertyOp45
 70
     1
102
RTVSPropertyOp46
 70
     1
102
RTVSPropertyOp47
 70
     1
102
RTVSPropertyOp48
 70
     1
102
RTVSPropertyOp49
 70
     1
102
RTVSPropertyOp50
 70
     1
102
RTVSPropertyOp51
 70
     0
102
RTVSPropertyOp52
 70
     0
102
RTVSPropertyOp53
 70
     1
102
RTVSPropertyOp54
 70
     1
102
RTVSPropertyOp55
 70
     1
102
RTVSPropertyOp56
 70
     1
102
RTVSPropertyOp57
 70
     1
102
RTVSPost2010Prop28
280
     0
102
RTVSPost2010PropOp28
 70
     1
102
RTVSPost2010Prop29
280
     1
102
RTVSPost2010PropOp29
 70
     1
102
RTVSPost2010Prop30
280
     1
102
RTVSPost2010PropOp30
 70
     1
102
RTVSPost2010Prop31
280
     0
102
RTVSPost2010PropOp31
 70
     1
102
RTVSPost2010Prop32
280
     0
102
RTVSPost2010PropOp32
 70
     1
102
RTVSPost2010Prop33
280
     0
102
RTVSPost2010PropOp33
 70
     1
102
RTVSPost2010Prop34
280
     0
102
RTVSPost2010PropOp34
 70
     1
102
RTVSPost2010Prop35
280
     0
102
RTVSPost2010PropOp35
 70
     1
102
RTVSPost2010Prop36
280
     0
102
RTVSPost2010PropOp36
 70
     1
102
RTVSPost2010Prop37
 90
       50
102
RTVSPost2010PropOp37
 70
     1
102
RTVSPost2010Prop38
140
0.0
102
RTVSPost2010PropOp38
 70
     1
102
RTVSPost2010Prop39
140
1.0
102
RTVSPost2010PropOp39
 70
     1
102
RTVSPost2010Prop40
 90
        0
102
RTVSPost2010PropOp40
 70
     1
102
RTVSPost2010Prop41ColorIndex
 90
       18
102
RTVSPost2010Prop41ColorRGB
 90
        0
102
RTVSPost2010PropOp41
 70
     1
102
RTVSPost2010Prop42
 90
       50
102
RTVSPost2010PropOp42
 70
     1
102
RTVSPost2010Prop43
 90
        3
102
RTVSPost2010PropOp43
 70
     1
102
RTVSPost2010Prop44ColorIndex
 90
        5
102
RTVSPost2010Prop44ColorRGB
 90
      255
102
RTVSPost2010PropOp44
 70
     1
102
RTVSPost2010Prop45
280
     0
102
RTVSPost2010PropOp45
 70
     1
102
RTVSPost2010Prop46
 90
       50
102
RTVSPost2010PropOp46
 70
     1
102
RTVSPost2010Prop47
 90
       50
102
RTVSPost2010PropOp47
 70
     1
102
RTVSPost2010Prop48
 90
       50
102
RTVSPost2010PropOp48
 70
     1
102
RTVSPost2010Prop49
280
     0
102
RTVSPost2010PropOp49
 70
     1
102
RTVSPost2010Prop50
 90
       50
102
RTVSPost2010PropOp50
 70
     1
102
RTVSPost2010Prop51ColorIndex
 90
      256
102
RTVSPost2010Prop51ColorRGB
 90
-16777216
102
RTVSPost2010PropOp51
 70
     0
102
RTVSPost2010Prop52
140
1.0
102
RTVSPost2010PropOp52
 70
     0
102
RTVSPost2010Prop53
 90
        2
102
RTVSPost2010PropOp53
 70
     1
102
RTVSPost2010Prop54
  1
strokes_ogs.tif
102
RTVSPost2010PropOp54
 70
     1
102
RTVSPost2010Prop55
280
     0
102
RTVSPost2010PropOp55
 70
     1
102
RTVSPost2010Prop56
140
1.0
102
RTVSPost2010PropOp56
 70
     1
102
RTVSPost2010Prop57
140
1.0
102
RTVSPost2010PropOp57
 70
     1
  0
XRECORD
  5
330
102
{ACAD_REACTORS
330
32F
102
}
330
32F
100
AcDbXrecord
280
     1
102
RTVSPropertyOp0
 70
     0
102
RTVSPropertyOp1
 70
     0
102
RTVSPropertyOp2
 70
     0
102
RTVSPropertyOp3
 70
     0
102
RTVSPropertyOp4
 70
     0
102
RTVSPropertyOp5
 70
     0
102
RTVSPropertyOp6
 70
     0
102
RTVSPropertyOp7
 70
     0
102
RTVSPropertyOp8
 70
     0
102
RTVSPropertyOp9
 70
     0
102
RTVSPropertyOp10
 70
     0
102
RTVSPropertyOp11
 70
     0
102
RTVSPropertyOp12
 70
     0
102
RTVSPropertyOp13
 70
     0
102
RTVSPropertyOp14
 70
     2
102
RTVSPropertyOp15
 70
     0
102
RTVSPropertyOp16
 70
     0
102
RTVSPropertyOp17
 70
     0
102
RTVSPropertyOp18
 70
     0
102
RTVSPropertyOp19
 70
     0
102
RTVSPropertyOp20
 70
     0
102
RTVSPropertyOp21
 70
     0
102
RTVSPropertyOp22
 70
     0
102
RTVSPropertyOp23
 70
     0
102
RTVSPropertyOp24
 70
     0
102
RTVSPropertyOp25
 70
     0
102
RTVSPropertyOp26
 70
     0
102
RTVSPropertyOp27
 70
     0
102
RTVSPropertyOp28
 70
     0
102
RTVSPropertyOp29
 70
     0
102
RTVSPropertyOp30
 70
     0
102
RTVSPropertyOp31
 70
     0
102
RTVSPropertyOp32
 70
     0
102
RTVSPropertyOp33
 70
     0
102
RTVSPropertyOp34
 70
     0
102
RTVSPropertyOp35
 70
     0
102
RTVSPropertyOp36
 70
     0
102
RTVSPropertyOp37
 70
     0
102
RTVSPropertyOp38
 70
     0
102
RTVSPropertyOp39
 70
     0
102
RTVSPropertyOp40
 70
     0
102
RTVSPropertyOp41
 70
     0
102
RTVSPropertyOp42
 70
     0
102
RTVSPropertyOp43
 70
     0
102
RTVSPropertyOp44
 70
     0
102
RTVSPropertyOp45
 70
     0
102
RTVSPropertyOp46
 70
     0
102
RTVSPropertyOp47
 70
     0
102
RTVSPropertyOp48
 70
     0
102
RTVSPropertyOp49
 70
     0
102
RTVSPropertyOp50
 70
     0
102
RTVSPropertyOp51
 70
     0
102
RTVSPropertyOp52
 70
     0
102
RTVSPropertyOp53
 70
     0
102
RTVSPropertyOp54
 70
     0
102
RTVSPropertyOp55
 70
     0
102
RTVSPropertyOp56
 70
     0
102
RTVSPropertyOp57
 70
     0
102
RTVSPost2010Prop28
280
     0
102
RTVSPost2010PropOp28
 70
     0
102
RTVSPost2010Prop29
280
     1
102
RTVSPost2010PropOp29
 70
     0
102
RTVSPost2010Prop30
280
     1
102
RTVSPost2010PropOp30
 70
     0
102
RTVSPost2010Prop31
280
     0
102
RTVSPost2010PropOp31
 70
     0
102
RTVSPost2010Prop32
280
     0
102
RTVSPost2010PropOp32
 70
     0
102
RTVSPost2010Prop33
280
     0
102
RTVSPost2010PropOp33
 70
     0
102
RTVSPost2010Prop34
280
     0
102
RTVSPost2010PropOp34
 70
     0
102
RTVSPost2010Prop35
280
     0
102
RTVSPost2010PropOp35
 70
     0
102
RTVSPost2010Prop36
280
     0
102
RTVSPost2010PropOp36
 70
     0
102
RTVSPost2010Prop37
 90
       50
102
RTVSPost2010PropOp37
 70
     0
102
RTVSPost2010Prop38
140
0.0
102
RTVSPost2010PropOp38
 70
     0
102
RTVSPost2010Prop39
140
1.0
102
RTVSPost2010PropOp39
 70
     0
102
RTVSPost2010Prop40
 90
        0
102
RTVSPost2010PropOp40
 70
     0
102
RTVSPost2010Prop41ColorIndex
 90
       18
102
RTVSPost2010Prop41ColorRGB
 90
        0
102
RTVSPost2010PropOp41
 70
     0
102
RTVSPost2010Prop42
 90
       50
102
RTVSPost2010PropOp42
 70
     0
102
RTVSPost2010Prop43
 90
        3
102
RTVSPost2010PropOp43
 70
     0
102
RTVSPost2010Prop44ColorIndex
 90
        5
102
RTVSPost2010Prop44ColorRGB
 90
      255
102
RTVSPost2010PropOp44
 70
     0
102
RTVSPost2010Prop45
280
     0
102
RTVSPost2010PropOp45
 70
     0
102
RTVSPost2010Prop46
 90
       50
102
RTVSPost2010PropOp46
 70
     0
102
RTVSPost2010Prop47
 90
       50
102
RTVSPost2010PropOp47
 70
     0
102
RTVSPost2010Prop48
 90
       50
102
RTVSPost2010PropOp48
 70
     0
102
RTVSPost2010Prop49
280
     0
102
RTVSPost2010PropOp49
 70
     0
102
RTVSPost2010Prop50
 90
       50
102
RTVSPost2010PropOp50
 70
     0
102
RTVSPost2010Prop51ColorIndex
 90
      256
102
RTVSPost2010Prop51ColorRGB
 90
-16777216
102
RTVSPost2010PropOp51
 70
     0
102
RTVSPost2010Prop52
140
1.0
102
RTVSPost2010PropOp52
 70
     0
102
RTVSPost2010Prop53
 90
        2
102
RTVSPost2010PropOp53
 70
     0
102
RTVSPost2010Prop54
  1
strokes_ogs.tif
102
RTVSPost2010PropOp54
 70
     0
102
RTVSPost2010Prop55
280
     0
102
RTVSPost2010PropOp55
 70
     0
102
RTVSPost2010Prop56
140
1.0
102
RTVSPost2010PropOp56
 70
     0
102
RTVSPost2010Prop57
140
1.0
102
RTVSPost2010PropOp57
 70
     0
  0
XRECORD
  5
328
102
{ACAD_REACTORS
330
327
102
}
330
327
100
AcDbXrecord
280
     1
102
RTVSPropertyOp0
 70
     1
102
RTVSPropertyOp1
 70
     1
102
RTVSPropertyOp2
 70
     1
102
RTVSPropertyOp3
 70
     1
102
RTVSPropertyOp4
 70
     1
102
RTVSPropertyOp5
 70
     1
102
RTVSPropertyOp6
 70
     1
102
RTVSPropertyOp7
 70
     1
102
RTVSPropertyOp8
 70
     1
102
RTVSPropertyOp9
 70
     1
102
RTVSPropertyOp10
 70
     1
102
RTVSPropertyOp11
 70
     1
102
RTVSPropertyOp12
 70
     1
102
RTVSPropertyOp13
 70
     1
102
RTVSPropertyOp14
 70
     1
102
RTVSPropertyOp15
 70
     1
102
RTVSPropertyOp16
 70
     1
102
RTVSPropertyOp17
 70
     1
102
RTVSPropertyOp18
 70
     1
102
RTVSPropertyOp19
 70
     1
102
RTVSPropertyOp20
 70
     1
102
RTVSPropertyOp21
 70
     1
102
RTVSPropertyOp22
 70
     1
102
RTVSPropertyOp23
 70
     1
102
RTVSPropertyOp24
 70
     1
102
RTVSPropertyOp25
 70
     1
102
RTVSPropertyOp26
 70
     1
102
RTVSPropertyOp27
 70
     1
102
RTVSPropertyOp28
 70
     1
102
RTVSPropertyOp29
 70
     1
102
RTVSPropertyOp30
 70
     1
102
RTVSPropertyOp31
 70
     1
102
RTVSPropertyOp32
 70
     1
102
RTVSPropertyOp33
 70
     1
102
RTVSPropertyOp34
 70
     1
102
RTVSPropertyOp35
 70
     1
102
RTVSPropertyOp36
 70
     1
102
RTVSPropertyOp37
 70
     1
102
RTVSPropertyOp38
 70
     1
102
RTVSPropertyOp39
 70
     1
102
RTVSPropertyOp40
 70
     1
102
RTVSPropertyOp41
 70
     1
102
RTVSPropertyOp42
 70
     1
102
RTVSPropertyOp43
 70
     1
102
RTVSPropertyOp44
 70
     1
102
RTVSPropertyOp45
 70
     1
102
RTVSPropertyOp46
 70
     1
102
RTVSPropertyOp47
 70
     1
102
RTVSPropertyOp48
 70
     1
102
RTVSPropertyOp49
 70
     1
102
RTVSPropertyOp50
 70
     1
102
RTVSPropertyOp51
 70
     0
102
RTVSPropertyOp52
 70
     0
102
RTVSPropertyOp53
 70
     1
102
RTVSPropertyOp54
 70
     1
102
RTVSPropertyOp55
 70
     1
102
RTVSPropertyOp56
 70
     1
102
RTVSPropertyOp57
 70
     1
102
RTVSPost2010Prop28
280
     0
102
RTVSPost2010PropOp28
 70
     1
102
RTVSPost2010Prop29
280
     1
102
RTVSPost2010PropOp29
 70
     1
102
RTVSPost2010Prop30
280
     1
102
RTVSPost2010PropOp30
 70
     1
102
RTVSPost2010Prop31
280
     0
102
RTVSPost2010PropOp31
 70
     1
102
RTVSPost2010Prop32
280
     0
102
RTVSPost2010PropOp32
 70
     1
102
RTVSPost2010Prop33
280
     0
102
RTVSPost2010PropOp33
 70
     1
102
RTVSPost2010Prop34
280
     0
102
RTVSPost2010PropOp34
 70
     1
102
RTVSPost2010Prop35
280
     0
102
RTVSPost2010PropOp35
 70
     1
102
RTVSPost2010Prop36
280
     0
102
RTVSPost2010PropOp36
 70
     1
102
RTVSPost2010Prop37
 90
       50
102
RTVSPost2010PropOp37
 70
     1
102
RTVSPost2010Prop38
140
0.0
102
RTVSPost2010PropOp38
 70
     1
102
RTVSPost2010Prop39
140
1.0
102
RTVSPost2010PropOp39
 70
     1
102
RTVSPost2010Prop40
 90
        0
102
RTVSPost2010PropOp40
 70
     1
102
RTVSPost2010Prop41ColorIndex
 90
       18
102
RTVSPost2010Prop41ColorRGB
 90
        0
102
RTVSPost2010PropOp41
 70
     1
102
RTVSPost2010Prop42
 90
       50
102
RTVSPost2010PropOp42
 70
     1
102
RTVSPost2010Prop43
 90
        3
102
RTVSPost2010PropOp43
 70
     1
102
RTVSPost2010Prop44ColorIndex
 90
        5
102
RTVSPost2010Prop44ColorRGB
 90
      255
102
RTVSPost2010PropOp44
 70
     1
102
RTVSPost2010Prop45
280
     0
102
RTVSPost2010PropOp45
 70
     1
102
RTVSPost2010Prop46
 90
       50
102
RTVSPost2010PropOp46
 70
     1
102
RTVSPost2010Prop47
 90
       50
102
RTVSPost2010PropOp47
 70
     1
102
RTVSPost2010Prop48
 90
       50
102
RTVSPost2010PropOp48
 70
     1
102
RTVSPost2010Prop49
280
     0
102
RTVSPost2010PropOp49
 70
     1
102
RTVSPost2010Prop50
 90
       50
102
RTVSPost2010PropOp50
 70
     1
102
RTVSPost2010Prop51ColorIndex
 90
      256
102
RTVSPost2010Prop51ColorRGB
 90
-16777216
102
RTVSPost2010PropOp51
 70
     0
102
RTVSPost2010Prop52
140
1.0
102
RTVSPost2010PropOp52
 70
     0
102
RTVSPost2010Prop53
 90
        2
102
RTVSPost2010PropOp53
 70
     1
102
RTVSPost2010Prop54
  1
strokes_ogs.tif
102
RTVSPost2010PropOp54
 70
     1
102
RTVSPost2010Prop55
280
     0
102
RTVSPost2010PropOp55
 70
     1
102
RTVSPost2010Prop56
140
1.0
102
RTVSPost2010PropOp56
 70
     1
102
RTVSPost2010Prop57
140
1.0
102
RTVSPost2010PropOp57
 70
     1
  0
XRECORD
  5
30C
102
{ACAD_REACTORS
330
30B
102
}
330
30B
100
AcDbXrecord
280
     1
102
RTVSPropertyOp0
 70
     1
102
RTVSPropertyOp1
 70
     1
102
RTVSPropertyOp2
 70
     1
102
RTVSPropertyOp3
 70
     1
102
RTVSPropertyOp4
 70
     1
102
RTVSPropertyOp5
 70
     1
102
RTVSPropertyOp6
 70
     1
102
RTVSPropertyOp7
 70
     1
102
RTVSPropertyOp8
 70
     1
102
RTVSPropertyOp9
 70
     1
102
RTVSPropertyOp10
 70
     1
102
RTVSPropertyOp11
 70
     1
102
RTVSPropertyOp12
 70
     1
102
RTVSPropertyOp13
 70
     1
102
RTVSPropertyOp14
 70
     1
102
RTVSPropertyOp15
 70
     1
102
RTVSPropertyOp16
 70
     1
102
RTVSPropertyOp17
 70
     1
102
RTVSPropertyOp18
 70
     1
102
RTVSPropertyOp19
 70
     1
102
RTVSPropertyOp20
 70
     1
102
RTVSPropertyOp21
 70
     1
102
RTVSPropertyOp22
 70
     1
102
RTVSPropertyOp23
 70
     1
102
RTVSPropertyOp24
 70
     1
102
RTVSPropertyOp25
 70
     1
102
RTVSPropertyOp26
 70
     1
102
RTVSPropertyOp27
 70
     1
102
RTVSPropertyOp28
 70
     1
102
RTVSPropertyOp29
 70
     1
102
RTVSPropertyOp30
 70
     1
102
RTVSPropertyOp31
 70
     1
102
RTVSPropertyOp32
 70
     1
102
RTVSPropertyOp33
 70
     1
102
RTVSPropertyOp34
 70
     1
102
RTVSPropertyOp35
 70
     1
102
RTVSPropertyOp36
 70
     1
102
RTVSPropertyOp37
 70
     1
102
RTVSPropertyOp38
 70
     1
102
RTVSPropertyOp39
 70
     1
102
RTVSPropertyOp40
 70
     1
102
RTVSPropertyOp41
 70
     1
102
RTVSPropertyOp42
 70
     1
102
RTVSPropertyOp43
 70
     1
102
RTVSPropertyOp44
 70
     1
102
RTVSPropertyOp45
 70
     1
102
RTVSPropertyOp46
 70
     1
102
RTVSPropertyOp47
 70
     1
102
RTVSPropertyOp48
 70
     1
102
RTVSPropertyOp49
 70
     1
102
RTVSPropertyOp50
 70
     1
102
RTVSPropertyOp51
 70
     0
102
RTVSPropertyOp52
 70
     0
102
RTVSPropertyOp53
 70
     1
102
RTVSPropertyOp54
 70
     1
102
RTVSPropertyOp55
 70
     1
102
RTVSPropertyOp56
 70
     1
102
RTVSPropertyOp57
 70
     1
102
RTVSPost2010Prop28
280
     0
102
RTVSPost2010PropOp28
 70
     1
102
RTVSPost2010Prop29
280
     1
102
RTVSPost2010PropOp29
 70
     1
102
RTVSPost2010Prop30
280
     1
102
RTVSPost2010PropOp30
 70
     1
102
RTVSPost2010Prop31
280
     0
102
RTVSPost2010PropOp31
 70
     1
102
RTVSPost2010Prop32
280
     0
102
RTVSPost2010PropOp32
 70
     1
102
RTVSPost2010Prop33
280
     0
102
RTVSPost2010PropOp33
 70
     1
102
RTVSPost2010Prop34
280
     0
102
RTVSPost2010PropOp34
 70
     1
102
RTVSPost2010Prop35
280
     0
102
RTVSPost2010PropOp35
 70
     1
102
RTVSPost2010Prop36
280
     0
102
RTVSPost2010PropOp36
 70
     1
102
RTVSPost2010Prop37
 90
       50
102
RTVSPost2010PropOp37
 70
     1
102
RTVSPost2010Prop38
140
0.0
102
RTVSPost2010PropOp38
 70
     1
102
RTVSPost2010Prop39
140
1.0
102
RTVSPost2010PropOp39
 70
     1
102
RTVSPost2010Prop40
 90
        0
102
RTVSPost2010PropOp40
 70
     1
102
RTVSPost2010Prop41ColorIndex
 90
       18
102
RTVSPost2010Prop41ColorRGB
 90
        0
102
RTVSPost2010PropOp41
 70
     1
102
RTVSPost2010Prop42
 90
       50
102
RTVSPost2010PropOp42
 70
     1
102
RTVSPost2010Prop43
 90
        3
102
RTVSPost2010PropOp43
 70
     1
102
RTVSPost2010Prop44ColorIndex
 90
        5
102
RTVSPost2010Prop44ColorRGB
 90
      255
102
RTVSPost2010PropOp44
 70
     1
102
RTVSPost2010Prop45
280
     0
102
RTVSPost2010PropOp45
 70
     1
102
RTVSPost2010Prop46
 90
       50
102
RTVSPost2010PropOp46
 70
     1
102
RTVSPost2010Prop47
 90
       50
102
RTVSPost2010PropOp47
 70
     1
102
RTVSPost2010Prop48
 90
       50
102
RTVSPost2010PropOp48
 70
     1
102
RTVSPost2010Prop49
280
     0
102
RTVSPost2010PropOp49
 70
     1
102
RTVSPost2010Prop50
 90
       50
102
RTVSPost2010PropOp50
 70
     1
102
RTVSPost2010Prop51ColorIndex
 90
      256
102
RTVSPost2010Prop51ColorRGB
 90
-16777216
102
RTVSPost2010PropOp51
 70
     0
102
RTVSPost2010Prop52
140
1.0
102
RTVSPost2010PropOp52
 70
     0
102
RTVSPost2010Prop53
 90
        2
102
RTVSPost2010PropOp53
 70
     1
102
RTVSPost2010Prop54
  1
strokes_ogs.tif
102
RTVSPost2010PropOp54
 70
     1
102
RTVSPost2010Prop55
280
     0
102
RTVSPost2010PropOp55
 70
     1
102
RTVSPost2010Prop56
140
1.0
102
RTVSPost2010PropOp56
 70
     1
102
RTVSPost2010Prop57
140
1.0
102
RTVSPost2010PropOp57
 70
     1
  0
XRECORD
  5
30E
102
{ACAD_REACTORS
330
30D
102
}
330
30D
100
AcDbXrecord
280
     1
102
RTVSPropertyOp0
 70
     1
102
RTVSPropertyOp1
 70
     1
102
RTVSPropertyOp2
 70
     1
102
RTVSPropertyOp3
 70
     1
102
RTVSPropertyOp4
 70
     1
102
RTVSPropertyOp5
 70
     1
102
RTVSPropertyOp6
 70
     1
102
RTVSPropertyOp7
 70
     1
102
RTVSPropertyOp8
 70
     1
102
RTVSPropertyOp9
 70
     1
102
RTVSPropertyOp10
 70
     1
102
RTVSPropertyOp11
 70
     1
102
RTVSPropertyOp12
 70
     1
102
RTVSPropertyOp13
 70
     1
102
RTVSPropertyOp14
 70
     1
102
RTVSPropertyOp15
 70
     1
102
RTVSPropertyOp16
 70
     1
102
RTVSPropertyOp17
 70
     1
102
RTVSPropertyOp18
 70
     1
102
RTVSPropertyOp19
 70
     1
102
RTVSPropertyOp20
 70
     1
102
RTVSPropertyOp21
 70
     1
102
RTVSPropertyOp22
 70
     1
102
RTVSPropertyOp23
 70
     1
102
RTVSPropertyOp24
 70
     1
102
RTVSPropertyOp25
 70
     1
102
RTVSPropertyOp26
 70
     1
102
RTVSPropertyOp27
 70
     1
102
RTVSPropertyOp28
 70
     1
102
RTVSPropertyOp29
 70
     1
102
RTVSPropertyOp30
 70
     1
102
RTVSPropertyOp31
 70
     1
102
RTVSPropertyOp32
 70
     1
102
RTVSPropertyOp33
 70
     1
102
RTVSPropertyOp34
 70
     1
102
RTVSPropertyOp35
 70
     1
102
RTVSPropertyOp36
 70
     1
102
RTVSPropertyOp37
 70
     1
102
RTVSPropertyOp38
 70
     1
102
RTVSPropertyOp39
 70
     1
102
RTVSPropertyOp40
 70
     1
102
RTVSPropertyOp41
 70
     1
102
RTVSPropertyOp42
 70
     1
102
RTVSPropertyOp43
 70
     1
102
RTVSPropertyOp44
 70
     1
102
RTVSPropertyOp45
 70
     1
102
RTVSPropertyOp46
 70
     1
102
RTVSPropertyOp47
 70
     1
102
RTVSPropertyOp48
 70
     1
102
RTVSPropertyOp49
 70
     1
102
RTVSPropertyOp50
 70
     1
102
RTVSPropertyOp51
 70
     0
102
RTVSPropertyOp52
 70
     0
102
RTVSPropertyOp53
 70
     1
102
RTVSPropertyOp54
 70
     1
102
RTVSPropertyOp55
 70
     1
102
RTVSPropertyOp56
 70
     1
102
RTVSPropertyOp57
 70
     1
102
RTVSPost2010Prop28
280
     0
102
RTVSPost2010PropOp28
 70
     1
102
RTVSPost2010Prop29
280
     1
102
RTVSPost2010PropOp29
 70
     1
102
RTVSPost2010Prop30
280
     1
102
RTVSPost2010PropOp30
 70
     1
102
RTVSPost2010Prop31
280
     0
102
RTVSPost2010PropOp31
 70
     1
102
RTVSPost2010Prop32
280
     0
102
RTVSPost2010PropOp32
 70
     1
102
RTVSPost2010Prop33
280
     0
102
RTVSPost2010PropOp33
 70
     1
102
RTVSPost2010Prop34
280
     0
102
RTVSPost2010PropOp34
 70
     1
102
RTVSPost2010Prop35
280
     0
102
RTVSPost2010PropOp35
 70
     1
102
RTVSPost2010Prop36
280
     0
102
RTVSPost2010PropOp36
 70
     1
102
RTVSPost2010Prop37
 90
       50
102
RTVSPost2010PropOp37
 70
     1
102
RTVSPost2010Prop38
140
0.0
102
RTVSPost2010PropOp38
 70
     1
102
RTVSPost2010Prop39
140
1.0
102
RTVSPost2010PropOp39
 70
     1
102
RTVSPost2010Prop40
 90
        0
102
RTVSPost2010PropOp40
 70
     1
102
RTVSPost2010Prop41ColorIndex
 90
       18
102
RTVSPost2010Prop41ColorRGB
 90
        0
102
RTVSPost2010PropOp41
 70
     1
102
RTVSPost2010Prop42
 90
       50
102
RTVSPost2010PropOp42
 70
     1
102
RTVSPost2010Prop43
 90
        3
102
RTVSPost2010PropOp43
 70
     1
102
RTVSPost2010Prop44ColorIndex
 90
        5
102
RTVSPost2010Prop44ColorRGB
 90
      255
102
RTVSPost2010PropOp44
 70
     1
102
RTVSPost2010Prop45
280
     0
102
RTVSPost2010PropOp45
 70
     1
102
RTVSPost2010Prop46
 90
       50
102
RTVSPost2010PropOp46
 70
     1
102
RTVSPost2010Prop47
 90
       50
102
RTVSPost2010PropOp47
 70
     1
102
RTVSPost2010Prop48
 90
       50
102
RTVSPost2010PropOp48
 70
     1
102
RTVSPost2010Prop49
280
     0
102
RTVSPost2010PropOp49
 70
     1
102
RTVSPost2010Prop50
 90
       50
102
RTVSPost2010PropOp50
 70
     1
102
RTVSPost2010Prop51ColorIndex
 90
      256
102
RTVSPost2010Prop51ColorRGB
 90
-16777216
102
RTVSPost2010PropOp51
 70
     0
102
RTVSPost2010Prop52
140
1.0
102
RTVSPost2010PropOp52
 70
     0
102
RTVSPost2010Prop53
 90
        2
102
RTVSPost2010PropOp53
 70
     1
102
RTVSPost2010Prop54
  1
strokes_ogs.tif
102
RTVSPost2010PropOp54
 70
     1
102
RTVSPost2010Prop55
280
     0
102
RTVSPost2010PropOp55
 70
     1
102
RTVSPost2010Prop56
140
1.0
102
RTVSPost2010PropOp56
 70
     1
102
RTVSPost2010Prop57
140
1.0
102
RTVSPost2010PropOp57
 70
     1
  0
XRECORD
  5
310
102
{ACAD_REACTORS
330
30F
102
}
330
30F
100
AcDbXrecord
280
     1
102
RTVSPropertyOp0
 70
     1
102
RTVSPropertyOp1
 70
     1
102
RTVSPropertyOp2
 70
     1
102
RTVSPropertyOp3
 70
     1
102
RTVSPropertyOp4
 70
     1
102
RTVSPropertyOp5
 70
     1
102
RTVSPropertyOp6
 70
     1
102
RTVSPropertyOp7
 70
     1
102
RTVSPropertyOp8
 70
     1
102
RTVSPropertyOp9
 70
     1
102
RTVSPropertyOp10
 70
     1
102
RTVSPropertyOp11
 70
     1
102
RTVSPropertyOp12
 70
     1
102
RTVSPropertyOp13
 70
     1
102
RTVSPropertyOp14
 70
     1
102
RTVSPropertyOp15
 70
     1
102
RTVSPropertyOp16
 70
     1
102
RTVSPropertyOp17
 70
     1
102
RTVSPropertyOp18
 70
     1
102
RTVSPropertyOp19
 70
     1
102
RTVSPropertyOp20
 70
     1
102
RTVSPropertyOp21
 70
     1
102
RTVSPropertyOp22
 70
     1
102
RTVSPropertyOp23
 70
     1
102
RTVSPropertyOp24
 70
     1
102
RTVSPropertyOp25
 70
     1
102
RTVSPropertyOp26
 70
     1
102
RTVSPropertyOp27
 70
     1
102
RTVSPropertyOp28
 70
     1
102
RTVSPropertyOp29
 70
     1
102
RTVSPropertyOp30
 70
     1
102
RTVSPropertyOp31
 70
     1
102
RTVSPropertyOp32
 70
     1
102
RTVSPropertyOp33
 70
     1
102
RTVSPropertyOp34
 70
     1
102
RTVSPropertyOp35
 70
     1
102
RTVSPropertyOp36
 70
     1
102
RTVSPropertyOp37
 70
     1
102
RTVSPropertyOp38
 70
     1
102
RTVSPropertyOp39
 70
     1
102
RTVSPropertyOp40
 70
     1
102
RTVSPropertyOp41
 70
     1
102
RTVSPropertyOp42
 70
     1
102
RTVSPropertyOp43
 70
     1
102
RTVSPropertyOp44
 70
     1
102
RTVSPropertyOp45
 70
     1
102
RTVSPropertyOp46
 70
     1
102
RTVSPropertyOp47
 70
     1
102
RTVSPropertyOp48
 70
     1
102
RTVSPropertyOp49
 70
     1
102
RTVSPropertyOp50
 70
     1
102
RTVSPropertyOp51
 70
     0
102
RTVSPropertyOp52
 70
     0
102
RTVSPropertyOp53
 70
     1
102
RTVSPropertyOp54
 70
     1
102
RTVSPropertyOp55
 70
     1
102
RTVSPropertyOp56
 70
     1
102
RTVSPropertyOp57
 70
     1
102
RTVSPost2010Prop28
280
     0
102
RTVSPost2010PropOp28
 70
     1
102
RTVSPost2010Prop29
280
     1
102
RTVSPost2010PropOp29
 70
     1
102
RTVSPost2010Prop30
280
     1
102
RTVSPost2010PropOp30
 70
     1
102
RTVSPost2010Prop31
280
     0
102
RTVSPost2010PropOp31
 70
     1
102
RTVSPost2010Prop32
280
     0
102
RTVSPost2010PropOp32
 70
     1
102
RTVSPost2010Prop33
280
     0
102
RTVSPost2010PropOp33
 70
     1
102
RTVSPost2010Prop34
280
     0
102
RTVSPost2010PropOp34
 70
     1
102
RTVSPost2010Prop35
280
     0
102
RTVSPost2010PropOp35
 70
     1
102
RTVSPost2010Prop36
280
     0
102
RTVSPost2010PropOp36
 70
     1
102
RTVSPost2010Prop37
 90
       50
102
RTVSPost2010PropOp37
 70
     1
102
RTVSPost2010Prop38
140
0.0
102
RTVSPost2010PropOp38
 70
     1
102
RTVSPost2010Prop39
140
1.0
102
RTVSPost2010PropOp39
 70
     1
102
RTVSPost2010Prop40
 90
        0
102
RTVSPost2010PropOp40
 70
     1
102
RTVSPost2010Prop41ColorIndex
 90
       18
102
RTVSPost2010Prop41ColorRGB
 90
        0
102
RTVSPost2010PropOp41
 70
     1
102
RTVSPost2010Prop42
 90
       50
102
RTVSPost2010PropOp42
 70
     1
102
RTVSPost2010Prop43
 90
        3
102
RTVSPost2010PropOp43
 70
     1
102
RTVSPost2010Prop44ColorIndex
 90
        5
102
RTVSPost2010Prop44ColorRGB
 90
      255
102
RTVSPost2010PropOp44
 70
     1
102
RTVSPost2010Prop45
280
     0
102
RTVSPost2010PropOp45
 70
     1
102
RTVSPost2010Prop46
 90
       50
102
RTVSPost2010PropOp46
 70
     1
102
RTVSPost2010Prop47
 90
       50
102
RTVSPost2010PropOp47
 70
     1
102
RTVSPost2010Prop48
 90
       50
102
RTVSPost2010PropOp48
 70
     1
102
RTVSPost2010Prop49
280
     0
102
RTVSPost2010PropOp49
 70
     1
102
RTVSPost2010Prop50
 90
       50
102
RTVSPost2010PropOp50
 70
     1
102
RTVSPost2010Prop51ColorIndex
 90
      256
102
RTVSPost2010Prop51ColorRGB
 90
-16777216
102
RTVSPost2010PropOp51
 70
     0
102
RTVSPost2010Prop52
140
1.0
102
RTVSPost2010PropOp52
 70
     0
102
RTVSPost2010Prop53
 90
        2
102
RTVSPost2010PropOp53
 70
     1
102
RTVSPost2010Prop54
  1
strokes_ogs.tif
102
RTVSPost2010PropOp54
 70
     1
102
RTVSPost2010Prop55
280
     0
102
RTVSPost2010PropOp55
 70
     1
102
RTVSPost2010Prop56
140
1.0
102
RTVSPost2010PropOp56
 70
     1
102
RTVSPost2010Prop57
140
1.0
102
RTVSPost2010PropOp57
 70
     1
  0
XRECORD
  5
312
102
{ACAD_REACTORS
330
311
102
}
330
311
100
AcDbXrecord
280
     1
102
RTVSPropertyOp0
 70
     1
102
RTVSPropertyOp1
 70
     1
102
RTVSPropertyOp2
 70
     1
102
RTVSPropertyOp3
 70
     1
102
RTVSPropertyOp4
 70
     1
102
RTVSPropertyOp5
 70
     1
102
RTVSPropertyOp6
 70
     1
102
RTVSPropertyOp7
 70
     1
102
RTVSPropertyOp8
 70
     1
102
RTVSPropertyOp9
 70
     1
102
RTVSPropertyOp10
 70
     1
102
RTVSPropertyOp11
 70
     1
102
RTVSPropertyOp12
 70
     1
102
RTVSPropertyOp13
 70
     1
102
RTVSPropertyOp14
 70
     1
102
RTVSPropertyOp15
 70
     1
102
RTVSPropertyOp16
 70
     1
102
RTVSPropertyOp17
 70
     1
102
RTVSPropertyOp18
 70
     1
102
RTVSPropertyOp19
 70
     1
102
RTVSPropertyOp20
 70
     1
102
RTVSPropertyOp21
 70
     1
102
RTVSPropertyOp22
 70
     1
102
RTVSPropertyOp23
 70
     1
102
RTVSPropertyOp24
 70
     1
102
RTVSPropertyOp25
 70
     1
102
RTVSPropertyOp26
 70
     1
102
RTVSPropertyOp27
 70
     1
102
RTVSPropertyOp28
 70
     1
102
RTVSPropertyOp29
 70
     1
102
RTVSPropertyOp30
 70
     1
102
RTVSPropertyOp31
 70
     1
102
RTVSPropertyOp32
 70
     1
102
RTVSPropertyOp33
 70
     1
102
RTVSPropertyOp34
 70
     1
102
RTVSPropertyOp35
 70
     1
102
RTVSPropertyOp36
 70
     1
102
RTVSPropertyOp37
 70
     1
102
RTVSPropertyOp38
 70
     1
102
RTVSPropertyOp39
 70
     1
102
RTVSPropertyOp40
 70
     1
102
RTVSPropertyOp41
 70
     1
102
RTVSPropertyOp42
 70
     1
102
RTVSPropertyOp43
 70
     1
102
RTVSPropertyOp44
 70
     1
102
RTVSPropertyOp45
 70
     1
102
RTVSPropertyOp46
 70
     1
102
RTVSPropertyOp47
 70
     1
102
RTVSPropertyOp48
 70
     1
102
RTVSPropertyOp49
 70
     1
102
RTVSPropertyOp50
 70
     1
102
RTVSPropertyOp51
 70
     0
102
RTVSPropertyOp52
 70
     0
102
RTVSPropertyOp53
 70
     1
102
RTVSPropertyOp54
 70
     1
102
RTVSPropertyOp55
 70
     1
102
RTVSPropertyOp56
 70
     1
102
RTVSPropertyOp57
 70
     1
102
RTVSPost2010Prop28
280
     0
102
RTVSPost2010PropOp28
 70
     1
102
RTVSPost2010Prop29
280
     1
102
RTVSPost2010PropOp29
 70
     1
102
RTVSPost2010Prop30
280
     1
102
RTVSPost2010PropOp30
 70
     1
102
RTVSPost2010Prop31
280
     0
102
RTVSPost2010PropOp31
 70
     1
102
RTVSPost2010Prop32
280
     0
102
RTVSPost2010PropOp32
 70
     1
102
RTVSPost2010Prop33
280
     0
102
RTVSPost2010PropOp33
 70
     1
102
RTVSPost2010Prop34
280
     0
102
RTVSPost2010PropOp34
 70
     1
102
RTVSPost2010Prop35
280
     0
102
RTVSPost2010PropOp35
 70
     1
102
RTVSPost2010Prop36
280
     0
102
RTVSPost2010PropOp36
 70
     1
102
RTVSPost2010Prop37
 90
       50
102
RTVSPost2010PropOp37
 70
     1
102
RTVSPost2010Prop38
140
0.0
102
RTVSPost2010PropOp38
 70
     1
102
RTVSPost2010Prop39
140
1.0
102
RTVSPost2010PropOp39
 70
     1
102
RTVSPost2010Prop40
 90
        0
102
RTVSPost2010PropOp40
 70
     1
102
RTVSPost2010Prop41ColorIndex
 90
       18
102
RTVSPost2010Prop41ColorRGB
 90
        0
102
RTVSPost2010PropOp41
 70
     1
102
RTVSPost2010Prop42
 90
       50
102
RTVSPost2010PropOp42
 70
     1
102
RTVSPost2010Prop43
 90
        3
102
RTVSPost2010PropOp43
 70
     1
102
RTVSPost2010Prop44ColorIndex
 90
        5
102
RTVSPost2010Prop44ColorRGB
 90
      255
102
RTVSPost2010PropOp44
 70
     1
102
RTVSPost2010Prop45
280
     0
102
RTVSPost2010PropOp45
 70
     1
102
RTVSPost2010Prop46
 90
       50
102
RTVSPost2010PropOp46
 70
     1
102
RTVSPost2010Prop47
 90
       50
102
RTVSPost2010PropOp47
 70
     1
102
RTVSPost2010Prop48
 90
       50
102
RTVSPost2010PropOp48
 70
     1
102
RTVSPost2010Prop49
280
     0
102
RTVSPost2010PropOp49
 70
     1
102
RTVSPost2010Prop50
 90
       50
102
RTVSPost2010PropOp50
 70
     1
102
RTVSPost2010Prop51ColorIndex
 90
      256
102
RTVSPost2010Prop51ColorRGB
 90
-16777216
102
RTVSPost2010PropOp51
 70
     0
102
RTVSPost2010Prop52
140
1.0
102
RTVSPost2010PropOp52
 70
     0
102
RTVSPost2010Prop53
 90
        2
102
RTVSPost2010PropOp53
 70
     1
102
RTVSPost2010Prop54
  1
strokes_ogs.tif
102
RTVSPost2010PropOp54
 70
     1
102
RTVSPost2010Prop55
280
     0
102
RTVSPost2010PropOp55
 70
     1
102
RTVSPost2010Prop56
140
1.0
102
RTVSPost2010PropOp56
 70
     1
102
RTVSPost2010Prop57
140
1.0
102
RTVSPost2010PropOp57
 70
     1
  0
XRECORD
  5
318
102
{ACAD_REACTORS
330
317
102
}
330
317
100
AcDbXrecord
280
     1
102
RTVSPropertyOp0
 70
     1
102
RTVSPropertyOp1
 70
     1
102
RTVSPropertyOp2
 70
     1
102
RTVSPropertyOp3
 70
     1
102
RTVSPropertyOp4
 70
     1
102
RTVSPropertyOp5
 70
     1
102
RTVSPropertyOp6
 70
     1
102
RTVSPropertyOp7
 70
     1
102
RTVSPropertyOp8
 70
     1
102
RTVSPropertyOp9
 70
     1
102
RTVSPropertyOp10
 70
     1
102
RTVSPropertyOp11
 70
     1
102
RTVSPropertyOp12
 70
     1
102
RTVSPropertyOp13
 70
     1
102
RTVSPropertyOp14
 70
     1
102
RTVSPropertyOp15
 70
     1
102
RTVSPropertyOp16
 70
     1
102
RTVSPropertyOp17
 70
     1
102
RTVSPropertyOp18
 70
     1
102
RTVSPropertyOp19
 70
     1
102
RTVSPropertyOp20
 70
     1
102
RTVSPropertyOp21
 70
     1
102
RTVSPropertyOp22
 70
     1
102
RTVSPropertyOp23
 70
     1
102
RTVSPropertyOp24
 70
     1
102
RTVSPropertyOp25
 70
     1
102
RTVSPropertyOp26
 70
     1
102
RTVSPropertyOp27
 70
     1
102
RTVSPropertyOp28
 70
     1
102
RTVSPropertyOp29
 70
     1
102
RTVSPropertyOp30
 70
     1
102
RTVSPropertyOp31
 70
     1
102
RTVSPropertyOp32
 70
     1
102
RTVSPropertyOp33
 70
     1
102
RTVSPropertyOp34
 70
     1
102
RTVSPropertyOp35
 70
     1
102
RTVSPropertyOp36
 70
     1
102
RTVSPropertyOp37
 70
     1
102
RTVSPropertyOp38
 70
     1
102
RTVSPropertyOp39
 70
     1
102
RTVSPropertyOp40
 70
     1
102
RTVSPropertyOp41
 70
     1
102
RTVSPropertyOp42
 70
     1
102
RTVSPropertyOp43
 70
     1
102
RTVSPropertyOp44
 70
     1
102
RTVSPropertyOp45
 70
     1
102
RTVSPropertyOp46
 70
     1
102
RTVSPropertyOp47
 70
     1
102
RTVSPropertyOp48
 70
     1
102
RTVSPropertyOp49
 70
     1
102
RTVSPropertyOp50
 70
     1
102
RTVSPropertyOp51
 70
     0
102
RTVSPropertyOp52
 70
     0
102
RTVSPropertyOp53
 70
     1
102
RTVSPropertyOp54
 70
     1
102
RTVSPropertyOp55
 70
     1
102
RTVSPropertyOp56
 70
     1
102
RTVSPropertyOp57
 70
     1
102
RTVSPost2010Prop28
280
     0
102
RTVSPost2010PropOp28
 70
     1
102
RTVSPost2010Prop29
280
     1
102
RTVSPost2010PropOp29
 70
     1
102
RTVSPost2010Prop30
280
     1
102
RTVSPost2010PropOp30
 70
     1
102
RTVSPost2010Prop31
280
     0
102
RTVSPost2010PropOp31
 70
     1
102
RTVSPost2010Prop32
280
     0
102
RTVSPost2010PropOp32
 70
     1
102
RTVSPost2010Prop33
280
     0
102
RTVSPost2010PropOp33
 70
     1
102
RTVSPost2010Prop34
280
     0
102
RTVSPost2010PropOp34
 70
     1
102
RTVSPost2010Prop35
280
     0
102
RTVSPost2010PropOp35
 70
     1
102
RTVSPost2010Prop36
280
     0
102
RTVSPost2010PropOp36
 70
     1
102
RTVSPost2010Prop37
 90
       50
102
RTVSPost2010PropOp37
 70
     1
102
RTVSPost2010Prop38
140
0.0
102
RTVSPost2010PropOp38
 70
     1
102
RTVSPost2010Prop39
140
1.0
102
RTVSPost2010PropOp39
 70
     1
102
RTVSPost2010Prop40
 90
        0
102
RTVSPost2010PropOp40
 70
     1
102
RTVSPost2010Prop41ColorIndex
 90
       18
102
RTVSPost2010Prop41ColorRGB
 90
        0
102
RTVSPost2010PropOp41
 70
     1
102
RTVSPost2010Prop42
 90
       50
102
RTVSPost2010PropOp42
 70
     1
102
RTVSPost2010Prop43
 90
        3
102
RTVSPost2010PropOp43
 70
     1
102
RTVSPost2010Prop44ColorIndex
 90
        5
102
RTVSPost2010Prop44ColorRGB
 90
      255
102
RTVSPost2010PropOp44
 70
     1
102
RTVSPost2010Prop45
280
     0
102
RTVSPost2010PropOp45
 70
     1
102
RTVSPost2010Prop46
 90
       50
102
RTVSPost2010PropOp46
 70
     1
102
RTVSPost2010Prop47
 90
       50
102
RTVSPost2010PropOp47
 70
     1
102
RTVSPost2010Prop48
 90
       50
102
RTVSPost2010PropOp48
 70
     1
102
RTVSPost2010Prop49
280
     0
102
RTVSPost2010PropOp49
 70
     1
102
RTVSPost2010Prop50
 90
       50
102
RTVSPost2010PropOp50
 70
     1
102
RTVSPost2010Prop51ColorIndex
 90
      256
102
RTVSPost2010Prop51ColorRGB
 90
-16777216
102
RTVSPost2010PropOp51
 70
     0
102
RTVSPost2010Prop52
140
1.0
102
RTVSPost2010PropOp52
 70
     0
102
RTVSPost2010Prop53
 90
        2
102
RTVSPost2010PropOp53
 70
     1
102
RTVSPost2010Prop54
  1
strokes_ogs.tif
102
RTVSPost2010PropOp54
 70
     1
102
RTVSPost2010Prop55
280
     0
102
RTVSPost2010PropOp55
 70
     1
102
RTVSPost2010Prop56
140
1.0
102
RTVSPost2010PropOp56
 70
     1
102
RTVSPost2010Prop57
140
1.0
102
RTVSPost2010PropOp57
 70
     1
  0
XRECORD
  5
32C
102
{ACAD_REACTORS
330
32B
102
}
330
32B
100
AcDbXrecord
280
     1
102
RTVSPropertyOp0
 70
     0
102
RTVSPropertyOp1
 70
     0
102
RTVSPropertyOp2
 70
     0
102
RTVSPropertyOp3
 70
     0
102
RTVSPropertyOp4
 70
     0
102
RTVSPropertyOp5
 70
     0
102
RTVSPropertyOp6
 70
     0
102
RTVSPropertyOp7
 70
     0
102
RTVSPropertyOp8
 70
     0
102
RTVSPropertyOp9
 70
     0
102
RTVSPropertyOp10
 70
     0
102
RTVSPropertyOp11
 70
     0
102
RTVSPropertyOp12
 70
     0
102
RTVSPropertyOp13
 70
     0
102
RTVSPropertyOp14
 70
     2
102
RTVSPropertyOp15
 70
     0
102
RTVSPropertyOp16
 70
     0
102
RTVSPropertyOp17
 70
     0
102
RTVSPropertyOp18
 70
     0
102
RTVSPropertyOp19
 70
     0
102
RTVSPropertyOp20
 70
     0
102
RTVSPropertyOp21
 70
     0
102
RTVSPropertyOp22
 70
     0
102
RTVSPropertyOp23
 70
     0
102
RTVSPropertyOp24
 70
     0
102
RTVSPropertyOp25
 70
     0
102
RTVSPropertyOp26
 70
     0
102
RTVSPropertyOp27
 70
     0
102
RTVSPropertyOp28
 70
     0
102
RTVSPropertyOp29
 70
     0
102
RTVSPropertyOp30
 70
     0
102
RTVSPropertyOp31
 70
     0
102
RTVSPropertyOp32
 70
     0
102
RTVSPropertyOp33
 70
     0
102
RTVSPropertyOp34
 70
     0
102
RTVSPropertyOp35
 70
     0
102
RTVSPropertyOp36
 70
     0
102
RTVSPropertyOp37
 70
     0
102
RTVSPropertyOp38
 70
     0
102
RTVSPropertyOp39
 70
     0
102
RTVSPropertyOp40
 70
     0
102
RTVSPropertyOp41
 70
     0
102
RTVSPropertyOp42
 70
     0
102
RTVSPropertyOp43
 70
     0
102
RTVSPropertyOp44
 70
     0
102
RTVSPropertyOp45
 70
     0
102
RTVSPropertyOp46
 70
     0
102
RTVSPropertyOp47
 70
     0
102
RTVSPropertyOp48
 70
     0
102
RTVSPropertyOp49
 70
     0
102
RTVSPropertyOp50
 70
     0
102
RTVSPropertyOp51
 70
     0
102
RTVSPropertyOp52
 70
     0
102
RTVSPropertyOp53
 70
     0
102
RTVSPropertyOp54
 70
     0
102
RTVSPropertyOp55
 70
     0
102
RTVSPropertyOp56
 70
     0
102
RTVSPropertyOp57
 70
     0
102
RTVSPost2010Prop28
280
     0
102
RTVSPost2010PropOp28
 70
     0
102
RTVSPost2010Prop29
280
     1
102
RTVSPost2010PropOp29
 70
     0
102
RTVSPost2010Prop30
280
     1
102
RTVSPost2010PropOp30
 70
     0
102
RTVSPost2010Prop31
280
     0
102
RTVSPost2010PropOp31
 70
     0
102
RTVSPost2010Prop32
280
     0
102
RTVSPost2010PropOp32
 70
     0
102
RTVSPost2010Prop33
280
     0
102
RTVSPost2010PropOp33
 70
     0
102
RTVSPost2010Prop34
280
     0
102
RTVSPost2010PropOp34
 70
     0
102
RTVSPost2010Prop35
280
     0
102
RTVSPost2010PropOp35
 70
     0
102
RTVSPost2010Prop36
280
     0
102
RTVSPost2010PropOp36
 70
     0
102
RTVSPost2010Prop37
 90
       50
102
RTVSPost2010PropOp37
 70
     0
102
RTVSPost2010Prop38
140
0.0
102
RTVSPost2010PropOp38
 70
     0
102
RTVSPost2010Prop39
140
1.0
102
RTVSPost2010PropOp39
 70
     0
102
RTVSPost2010Prop40
 90
        0
102
RTVSPost2010PropOp40
 70
     0
102
RTVSPost2010Prop41ColorIndex
 90
       18
102
RTVSPost2010Prop41ColorRGB
 90
        0
102
RTVSPost2010PropOp41
 70
     0
102
RTVSPost2010Prop42
 90
       50
102
RTVSPost2010PropOp42
 70
     0
102
RTVSPost2010Prop43
 90
        3
102
RTVSPost2010PropOp43
 70
     0
102
RTVSPost2010Prop44ColorIndex
 90
        5
102
RTVSPost2010Prop44ColorRGB
 90
      255
102
RTVSPost2010PropOp44
 70
     0
102
RTVSPost2010Prop45
280
     0
102
RTVSPost2010PropOp45
 70
     0
102
RTVSPost2010Prop46
 90
       50
102
RTVSPost2010PropOp46
 70
     0
102
RTVSPost2010Prop47
 90
       50
102
RTVSPost2010PropOp47
 70
     0
102
RTVSPost2010Prop48
 90
       50
102
RTVSPost2010PropOp48
 70
     0
102
RTVSPost2010Prop49
280
     0
102
RTVSPost2010PropOp49
 70
     0
102
RTVSPost2010Prop50
 90
       50
102
RTVSPost2010PropOp50
 70
     0
102
RTVSPost2010Prop51ColorIndex
 90
      256
102
RTVSPost2010Prop51ColorRGB
 90
-16777216
102
RTVSPost2010PropOp51
 70
     0
102
RTVSPost2010Prop52
140
1.0
102
RTVSPost2010PropOp52
 70
     0
102
RTVSPost2010Prop53
 90
        2
102
RTVSPost2010PropOp53
 70
     0
102
RTVSPost2010Prop54
  1
strokes_ogs.tif
102
RTVSPost2010PropOp54
 70
     0
102
RTVSPost2010Prop55
280
     0
102
RTVSPost2010PropOp55
 70
     0
102
RTVSPost2010Prop56
140
1.0
102
RTVSPost2010PropOp56
 70
     0
102
RTVSPost2010Prop57
140
1.0
102
RTVSPost2010PropOp57
 70
     0
  0
XRECORD
  5
326
102
{ACAD_REACTORS
330
325
102
}
330
325
100
AcDbXrecord
280
     1
102
RTVSPropertyOp0
 70
     1
102
RTVSPropertyOp1
 70
     1
102
RTVSPropertyOp2
 70
     1
102
RTVSPropertyOp3
 70
     1
102
RTVSPropertyOp4
 70
     1
102
RTVSPropertyOp5
 70
     1
102
RTVSPropertyOp6
 70
     1
102
RTVSPropertyOp7
 70
     1
102
RTVSPropertyOp8
 70
     1
102
RTVSPropertyOp9
 70
     1
102
RTVSPropertyOp10
 70
     1
102
RTVSPropertyOp11
 70
     1
102
RTVSPropertyOp12
 70
     1
102
RTVSPropertyOp13
 70
     1
102
RTVSPropertyOp14
 70
     1
102
RTVSPropertyOp15
 70
     1
102
RTVSPropertyOp16
 70
     1
102
RTVSPropertyOp17
 70
     1
102
RTVSPropertyOp18
 70
     1
102
RTVSPropertyOp19
 70
     1
102
RTVSPropertyOp20
 70
     1
102
RTVSPropertyOp21
 70
     1
102
RTVSPropertyOp22
 70
     1
102
RTVSPropertyOp23
 70
     1
102
RTVSPropertyOp24
 70
     1
102
RTVSPropertyOp25
 70
     1
102
RTVSPropertyOp26
 70
     1
102
RTVSPropertyOp27
 70
     1
102
RTVSPropertyOp28
 70
     1
102
RTVSPropertyOp29
 70
     1
102
RTVSPropertyOp30
 70
     1
102
RTVSPropertyOp31
 70
     1
102
RTVSPropertyOp32
 70
     1
102
RTVSPropertyOp33
 70
     1
102
RTVSPropertyOp34
 70
     1
102
RTVSPropertyOp35
 70
     1
102
RTVSPropertyOp36
 70
     1
102
RTVSPropertyOp37
 70
     1
102
RTVSPropertyOp38
 70
     1
102
RTVSPropertyOp39
 70
     1
102
RTVSPropertyOp40
 70
     1
102
RTVSPropertyOp41
 70
     1
102
RTVSPropertyOp42
 70
     1
102
RTVSPropertyOp43
 70
     1
102
RTVSPropertyOp44
 70
     1
102
RTVSPropertyOp45
 70
     1
102
RTVSPropertyOp46
 70
     1
102
RTVSPropertyOp47
 70
     1
102
RTVSPropertyOp48
 70
     1
102
RTVSPropertyOp49
 70
     1
102
RTVSPropertyOp50
 70
     1
102
RTVSPropertyOp51
 70
     0
102
RTVSPropertyOp52
 70
     0
102
RTVSPropertyOp53
 70
     1
102
RTVSPropertyOp54
 70
     1
102
RTVSPropertyOp55
 70
     1
102
RTVSPropertyOp56
 70
     1
102
RTVSPropertyOp57
 70
     1
102
RTVSPost2010Prop28
280
     0
102
RTVSPost2010PropOp28
 70
     1
102
RTVSPost2010Prop29
280
     1
102
RTVSPost2010PropOp29
 70
     1
102
RTVSPost2010Prop30
280
     1
102
RTVSPost2010PropOp30
 70
     1
102
RTVSPost2010Prop31
280
     0
102
RTVSPost2010PropOp31
 70
     1
102
RTVSPost2010Prop32
280
     0
102
RTVSPost2010PropOp32
 70
     1
102
RTVSPost2010Prop33
280
     0
102
RTVSPost2010PropOp33
 70
     1
102
RTVSPost2010Prop34
280
     0
102
RTVSPost2010PropOp34
 70
     1
102
RTVSPost2010Prop35
280
     0
102
RTVSPost2010PropOp35
 70
     1
102
RTVSPost2010Prop36
280
     0
102
RTVSPost2010PropOp36
 70
     1
102
RTVSPost2010Prop37
 90
       50
102
RTVSPost2010PropOp37
 70
     1
102
RTVSPost2010Prop38
140
0.0
102
RTVSPost2010PropOp38
 70
     1
102
RTVSPost2010Prop39
140
1.0
102
RTVSPost2010PropOp39
 70
     1
102
RTVSPost2010Prop40
 90
        0
102
RTVSPost2010PropOp40
 70
     1
102
RTVSPost2010Prop41ColorIndex
 90
       18
102
RTVSPost2010Prop41ColorRGB
 90
        0
102
RTVSPost2010PropOp41
 70
     1
102
RTVSPost2010Prop42
 90
       50
102
RTVSPost2010PropOp42
 70
     1
102
RTVSPost2010Prop43
 90
        3
102
RTVSPost2010PropOp43
 70
     1
102
RTVSPost2010Prop44ColorIndex
 90
        5
102
RTVSPost2010Prop44ColorRGB
 90
      255
102
RTVSPost2010PropOp44
 70
     1
102
RTVSPost2010Prop45
280
     0
102
RTVSPost2010PropOp45
 70
     1
102
RTVSPost2010Prop46
 90
       50
102
RTVSPost2010PropOp46
 70
     1
102
RTVSPost2010Prop47
 90
       50
102
RTVSPost2010PropOp47
 70
     1
102
RTVSPost2010Prop48
 90
       50
102
RTVSPost2010PropOp48
 70
     1
102
RTVSPost2010Prop49
280
     0
102
RTVSPost2010PropOp49
 70
     1
102
RTVSPost2010Prop50
 90
       50
102
RTVSPost2010PropOp50
 70
     1
102
RTVSPost2010Prop51ColorIndex
 90
      256
102
RTVSPost2010Prop51ColorRGB
 90
-16777216
102
RTVSPost2010PropOp51
 70
     0
102
RTVSPost2010Prop52
140
1.0
102
RTVSPost2010PropOp52
 70
     0
102
RTVSPost2010Prop53
 90
        2
102
RTVSPost2010PropOp53
 70
     1
102
RTVSPost2010Prop54
  1
strokes_ogs.tif
102
RTVSPost2010PropOp54
 70
     1
102
RTVSPost2010Prop55
280
     0
102
RTVSPost2010PropOp55
 70
     1
102
RTVSPost2010Prop56
140
1.0
102
RTVSPost2010PropOp56
 70
     1
102
RTVSPost2010Prop57
140
1.0
102
RTVSPost2010PropOp57
 70
     1
  0
XRECORD
  5
32E
102
{ACAD_REACTORS
330
32D
102
}
330
32D
100
AcDbXrecord
280
     1
102
RTVSPropertyOp0
 70
     0
102
RTVSPropertyOp1
 70
     0
102
RTVSPropertyOp2
 70
     0
102
RTVSPropertyOp3
 70
     0
102
RTVSPropertyOp4
 70
     0
102
RTVSPropertyOp5
 70
     0
102
RTVSPropertyOp6
 70
     0
102
RTVSPropertyOp7
 70
     0
102
RTVSPropertyOp8
 70
     0
102
RTVSPropertyOp9
 70
     0
102
RTVSPropertyOp10
 70
     0
102
RTVSPropertyOp11
 70
     0
102
RTVSPropertyOp12
 70
     0
102
RTVSPropertyOp13
 70
     0
102
RTVSPropertyOp14
 70
     2
102
RTVSPropertyOp15
 70
     0
102
RTVSPropertyOp16
 70
     0
102
RTVSPropertyOp17
 70
     0
102
RTVSPropertyOp18
 70
     0
102
RTVSPropertyOp19
 70
     0
102
RTVSPropertyOp20
 70
     0
102
RTVSPropertyOp21
 70
     0
102
RTVSPropertyOp22
 70
     0
102
RTVSPropertyOp23
 70
     0
102
RTVSPropertyOp24
 70
     0
102
RTVSPropertyOp25
 70
     0
102
RTVSPropertyOp26
 70
     0
102
RTVSPropertyOp27
 70
     0
102
RTVSPropertyOp28
 70
     0
102
RTVSPropertyOp29
 70
     0
102
RTVSPropertyOp30
 70
     0
102
RTVSPropertyOp31
 70
     0
102
RTVSPropertyOp32
 70
     0
102
RTVSPropertyOp33
 70
     0
102
RTVSPropertyOp34
 70
     0
102
RTVSPropertyOp35
 70
     0
102
RTVSPropertyOp36
 70
     0
102
RTVSPropertyOp37
 70
     0
102
RTVSPropertyOp38
 70
     0
102
RTVSPropertyOp39
 70
     0
102
RTVSPropertyOp40
 70
     0
102
RTVSPropertyOp41
 70
     0
102
RTVSPropertyOp42
 70
     0
102
RTVSPropertyOp43
 70
     0
102
RTVSPropertyOp44
 70
     0
102
RTVSPropertyOp45
 70
     0
102
RTVSPropertyOp46
 70
     0
102
RTVSPropertyOp47
 70
     0
102
RTVSPropertyOp48
 70
     0
102
RTVSPropertyOp49
 70
     0
102
RTVSPropertyOp50
 70
     0
102
RTVSPropertyOp51
 70
     0
102
RTVSPropertyOp52
 70
     0
102
RTVSPropertyOp53
 70
     0
102
RTVSPropertyOp54
 70
     0
102
RTVSPropertyOp55
 70
     0
102
RTVSPropertyOp56
 70
     0
102
RTVSPropertyOp57
 70
     0
102
RTVSPost2010Prop28
280
     0
102
RTVSPost2010PropOp28
 70
     0
102
RTVSPost2010Prop29
280
     1
102
RTVSPost2010PropOp29
 70
     0
102
RTVSPost2010Prop30
280
     1
102
RTVSPost2010PropOp30
 70
     0
102
RTVSPost2010Prop31
280
     0
102
RTVSPost2010PropOp31
 70
     0
102
RTVSPost2010Prop32
280
     0
102
RTVSPost2010PropOp32
 70
     0
102
RTVSPost2010Prop33
280
     0
102
RTVSPost2010PropOp33
 70
     0
102
RTVSPost2010Prop34
280
     0
102
RTVSPost2010PropOp34
 70
     0
102
RTVSPost2010Prop35
280
     0
102
RTVSPost2010PropOp35
 70
     0
102
RTVSPost2010Prop36
280
     0
102
RTVSPost2010PropOp36
 70
     0
102
RTVSPost2010Prop37
 90
       50
102
RTVSPost2010PropOp37
 70
     0
102
RTVSPost2010Prop38
140
0.0
102
RTVSPost2010PropOp38
 70
     0
102
RTVSPost2010Prop39
140
1.0
102
RTVSPost2010PropOp39
 70
     0
102
RTVSPost2010Prop40
 90
        0
102
RTVSPost2010PropOp40
 70
     0
102
RTVSPost2010Prop41ColorIndex
 90
       18
102
RTVSPost2010Prop41ColorRGB
 90
        0
102
RTVSPost2010PropOp41
 70
     0
102
RTVSPost2010Prop42
 90
       50
102
RTVSPost2010PropOp42
 70
     0
102
RTVSPost2010Prop43
 90
        3
102
RTVSPost2010PropOp43
 70
     0
102
RTVSPost2010Prop44ColorIndex
 90
        5
102
RTVSPost2010Prop44ColorRGB
 90
      255
102
RTVSPost2010PropOp44
 70
     0
102
RTVSPost2010Prop45
280
     0
102
RTVSPost2010PropOp45
 70
     0
102
RTVSPost2010Prop46
 90
       50
102
RTVSPost2010PropOp46
 70
     0
102
RTVSPost2010Prop47
 90
       50
102
RTVSPost2010PropOp47
 70
     0
102
RTVSPost2010Prop48
 90
       50
102
RTVSPost2010PropOp48
 70
     0
102
RTVSPost2010Prop49
280
     0
102
RTVSPost2010PropOp49
 70
     0
102
RTVSPost2010Prop50
 90
       50
102
RTVSPost2010PropOp50
 70
     0
102
RTVSPost2010Prop51ColorIndex
 90
      256
102
RTVSPost2010Prop51ColorRGB
 90
-16777216
102
RTVSPost2010PropOp51
 70
     0
102
RTVSPost2010Prop52
140
1.0
102
RTVSPost2010PropOp52
 70
     0
102
RTVSPost2010Prop53
 90
        2
102
RTVSPost2010PropOp53
 70
     0
102
RTVSPost2010Prop54
  1
strokes_ogs.tif
102
RTVSPost2010PropOp54
 70
     0
102
RTVSPost2010Prop55
280
     0
102
RTVSPost2010PropOp55
 70
     0
102
RTVSPost2010Prop56
140
1.0
102
RTVSPost2010PropOp56
 70
     0
102
RTVSPost2010Prop57
140
1.0
102
RTVSPost2010PropOp57
 70
     0
  0
XRECORD
  5
31C
102
{ACAD_REACTORS
330
31B
102
}
330
31B
100
AcDbXrecord
280
     1
102
RTVSPropertyOp0
 70
     1
102
RTVSPropertyOp1
 70
     1
102
RTVSPropertyOp2
 70
     1
102
RTVSPropertyOp3
 70
     1
102
RTVSPropertyOp4
 70
     1
102
RTVSPropertyOp5
 70
     1
102
RTVSPropertyOp6
 70
     1
102
RTVSPropertyOp7
 70
     1
102
RTVSPropertyOp8
 70
     1
102
RTVSPropertyOp9
 70
     1
102
RTVSPropertyOp10
 70
     1
102
RTVSPropertyOp11
 70
     1
102
RTVSPropertyOp12
 70
     1
102
RTVSPropertyOp13
 70
     1
102
RTVSPropertyOp14
 70
     1
102
RTVSPropertyOp15
 70
     1
102
RTVSPropertyOp16
 70
     1
102
RTVSPropertyOp17
 70
     1
102
RTVSPropertyOp18
 70
     1
102
RTVSPropertyOp19
 70
     1
102
RTVSPropertyOp20
 70
     1
102
RTVSPropertyOp21
 70
     1
102
RTVSPropertyOp22
 70
     1
102
RTVSPropertyOp23
 70
     1
102
RTVSPropertyOp24
 70
     1
102
RTVSPropertyOp25
 70
     1
102
RTVSPropertyOp26
 70
     1
102
RTVSPropertyOp27
 70
     1
102
RTVSPropertyOp28
 70
     1
102
RTVSPropertyOp29
 70
     1
102
RTVSPropertyOp30
 70
     1
102
RTVSPropertyOp31
 70
     1
102
RTVSPropertyOp32
 70
     1
102
RTVSPropertyOp33
 70
     1
102
RTVSPropertyOp34
 70
     1
102
RTVSPropertyOp35
 70
     1
102
RTVSPropertyOp36
 70
     1
102
RTVSPropertyOp37
 70
     1
102
RTVSPropertyOp38
 70
     1
102
RTVSPropertyOp39
 70
     1
102
RTVSPropertyOp40
 70
     1
102
RTVSPropertyOp41
 70
     1
102
RTVSPropertyOp42
 70
     1
102
RTVSPropertyOp43
 70
     1
102
RTVSPropertyOp44
 70
     1
102
RTVSPropertyOp45
 70
     1
102
RTVSPropertyOp46
 70
     1
102
RTVSPropertyOp47
 70
     1
102
RTVSPropertyOp48
 70
     1
102
RTVSPropertyOp49
 70
     1
102
RTVSPropertyOp50
 70
     1
102
RTVSPropertyOp51
 70
     0
102
RTVSPropertyOp52
 70
     0
102
RTVSPropertyOp53
 70
     1
102
RTVSPropertyOp54
 70
     1
102
RTVSPropertyOp55
 70
     1
102
RTVSPropertyOp56
 70
     1
102
RTVSPropertyOp57
 70
     1
102
RTVSPost2010Prop28
280
     0
102
RTVSPost2010PropOp28
 70
     1
102
RTVSPost2010Prop29
280
     1
102
RTVSPost2010PropOp29
 70
     1
102
RTVSPost2010Prop30
280
     1
102
RTVSPost2010PropOp30
 70
     1
102
RTVSPost2010Prop31
280
     0
102
RTVSPost2010PropOp31
 70
     1
102
RTVSPost2010Prop32
280
     0
102
RTVSPost2010PropOp32
 70
     1
102
RTVSPost2010Prop33
280
     0
102
RTVSPost2010PropOp33
 70
     1
102
RTVSPost2010Prop34
280
     0
102
RTVSPost2010PropOp34
 70
     1
102
RTVSPost2010Prop35
280
     0
102
RTVSPost2010PropOp35
 70
     1
102
RTVSPost2010Prop36
280
     0
102
RTVSPost2010PropOp36
 70
     1
102
RTVSPost2010Prop37
 90
       50
102
RTVSPost2010PropOp37
 70
     1
102
RTVSPost2010Prop38
140
0.0
102
RTVSPost2010PropOp38
 70
     1
102
RTVSPost2010Prop39
140
1.0
102
RTVSPost2010PropOp39
 70
     1
102
RTVSPost2010Prop40
 90
        0
102
RTVSPost2010PropOp40
 70
     1
102
RTVSPost2010Prop41ColorIndex
 90
       18
102
RTVSPost2010Prop41ColorRGB
 90
        0
102
RTVSPost2010PropOp41
 70
     1
102
RTVSPost2010Prop42
 90
       50
102
RTVSPost2010PropOp42
 70
     1
102
RTVSPost2010Prop43
 90
        3
102
RTVSPost2010PropOp43
 70
     1
102
RTVSPost2010Prop44ColorIndex
 90
        5
102
RTVSPost2010Prop44ColorRGB
 90
      255
102
RTVSPost2010PropOp44
 70
     1
102
RTVSPost2010Prop45
280
     0
102
RTVSPost2010PropOp45
 70
     1
102
RTVSPost2010Prop46
 90
       50
102
RTVSPost2010PropOp46
 70
     1
102
RTVSPost2010Prop47
 90
       50
102
RTVSPost2010PropOp47
 70
     1
102
RTVSPost2010Prop48
 90
       50
102
RTVSPost2010PropOp48
 70
     1
102
RTVSPost2010Prop49
280
     0
102
RTVSPost2010PropOp49
 70
     1
102
RTVSPost2010Prop50
 90
       50
102
RTVSPost2010PropOp50
 70
     1
102
RTVSPost2010Prop51ColorIndex
 90
      256
102
RTVSPost2010Prop51ColorRGB
 90
-16777216
102
RTVSPost2010PropOp51
 70
     0
102
RTVSPost2010Prop52
140
1.0
102
RTVSPost2010PropOp52
 70
     0
102
RTVSPost2010Prop53
 90
        2
102
RTVSPost2010PropOp53
 70
     1
102
RTVSPost2010Prop54
  1
strokes_ogs.tif
102
RTVSPost2010PropOp54
 70
     1
102
RTVSPost2010Prop55
280
     0
102
RTVSPost2010PropOp55
 70
     1
102
RTVSPost2010Prop56
140
1.0
102
RTVSPost2010PropOp56
 70
     1
102
RTVSPost2010Prop57
140
1.0
102
RTVSPost2010PropOp57
 70
     1
  0
XRECORD
  5
33A
102
{ACAD_REACTORS
330
339
102
}
330
339
100
AcDbXrecord
280
     1
102
RTVSPropertyOp0
 70
     1
102
RTVSPropertyOp1
 70
     1
102
RTVSPropertyOp2
 70
     1
102
RTVSPropertyOp3
 70
     1
102
RTVSPropertyOp4
 70
     1
102
RTVSPropertyOp5
 70
     1
102
RTVSPropertyOp6
 70
     1
102
RTVSPropertyOp7
 70
     1
102
RTVSPropertyOp8
 70
     1
102
RTVSPropertyOp9
 70
     1
102
RTVSPropertyOp10
 70
     1
102
RTVSPropertyOp11
 70
     1
102
RTVSPropertyOp12
 70
     1
102
RTVSPropertyOp13
 70
     1
102
RTVSPropertyOp14
 70
     1
102
RTVSPropertyOp15
 70
     1
102
RTVSPropertyOp16
 70
     1
102
RTVSPropertyOp17
 70
     1
102
RTVSPropertyOp18
 70
     1
102
RTVSPropertyOp19
 70
     1
102
RTVSPropertyOp20
 70
     1
102
RTVSPropertyOp21
 70
     1
102
RTVSPropertyOp22
 70
     1
102
RTVSPropertyOp23
 70
     1
102
RTVSPropertyOp24
 70
     1
102
RTVSPropertyOp25
 70
     1
102
RTVSPropertyOp26
 70
     1
102
RTVSPropertyOp27
 70
     1
102
RTVSPropertyOp28
 70
     1
102
RTVSPropertyOp29
 70
     1
102
RTVSPropertyOp30
 70
     1
102
RTVSPropertyOp31
 70
     1
102
RTVSPropertyOp32
 70
     1
102
RTVSPropertyOp33
 70
     1
102
RTVSPropertyOp34
 70
     1
102
RTVSPropertyOp35
 70
     1
102
RTVSPropertyOp36
 70
     1
102
RTVSPropertyOp37
 70
     1
102
RTVSPropertyOp38
 70
     1
102
RTVSPropertyOp39
 70
     1
102
RTVSPropertyOp40
 70
     1
102
RTVSPropertyOp41
 70
     1
102
RTVSPropertyOp42
 70
     1
102
RTVSPropertyOp43
 70
     1
102
RTVSPropertyOp44
 70
     1
102
RTVSPropertyOp45
 70
     1
102
RTVSPropertyOp46
 70
     1
102
RTVSPropertyOp47
 70
     1
102
RTVSPropertyOp48
 70
     1
102
RTVSPropertyOp49
 70
     1
102
RTVSPropertyOp50
 70
     1
102
RTVSPropertyOp51
 70
     0
102
RTVSPropertyOp52
 70
     0
102
RTVSPropertyOp53
 70
     1
102
RTVSPropertyOp54
 70
     1
102
RTVSPropertyOp55
 70
     1
102
RTVSPropertyOp56
 70
     1
102
RTVSPropertyOp57
 70
     1
102
RTVSPost2010Prop28
280
     0
102
RTVSPost2010PropOp28
 70
     1
102
RTVSPost2010Prop29
280
     1
102
RTVSPost2010PropOp29
 70
     1
102
RTVSPost2010Prop30
280
     1
102
RTVSPost2010PropOp30
 70
     1
102
RTVSPost2010Prop31
280
     0
102
RTVSPost2010PropOp31
 70
     1
102
RTVSPost2010Prop32
280
     0
102
RTVSPost2010PropOp32
 70
     1
102
RTVSPost2010Prop33
280
     0
102
RTVSPost2010PropOp33
 70
     1
102
RTVSPost2010Prop34
280
     0
102
RTVSPost2010PropOp34
 70
     1
102
RTVSPost2010Prop35
280
     0
102
RTVSPost2010PropOp35
 70
     1
102
RTVSPost2010Prop36
280
     0
102
RTVSPost2010PropOp36
 70
     1
102
RTVSPost2010Prop37
 90
       50
102
RTVSPost2010PropOp37
 70
     1
102
RTVSPost2010Prop38
140
0.0
102
RTVSPost2010PropOp38
 70
     1
102
RTVSPost2010Prop39
140
1.0
102
RTVSPost2010PropOp39
 70
     1
102
RTVSPost2010Prop40
 90
        0
102
RTVSPost2010PropOp40
 70
     1
102
RTVSPost2010Prop41ColorIndex
 90
       18
102
RTVSPost2010Prop41ColorRGB
 90
        0
102
RTVSPost2010PropOp41
 70
     1
102
RTVSPost2010Prop42
 90
       50
102
RTVSPost2010PropOp42
 70
     1
102
RTVSPost2010Prop43
 90
        3
102
RTVSPost2010PropOp43
 70
     1
102
RTVSPost2010Prop44ColorIndex
 90
        5
102
RTVSPost2010Prop44ColorRGB
 90
      255
102
RTVSPost2010PropOp44
 70
     1
102
RTVSPost2010Prop45
280
     0
102
RTVSPost2010PropOp45
 70
     1
102
RTVSPost2010Prop46
 90
       50
102
RTVSPost2010PropOp46
 70
     1
102
RTVSPost2010Prop47
 90
       50
102
RTVSPost2010PropOp47
 70
     1
102
RTVSPost2010Prop48
 90
       50
102
RTVSPost2010PropOp48
 70
     1
102
RTVSPost2010Prop49
280
     0
102
RTVSPost2010PropOp49
 70
     1
102
RTVSPost2010Prop50
 90
       50
102
RTVSPost2010PropOp50
 70
     1
102
RTVSPost2010Prop51ColorIndex
 90
      256
102
RTVSPost2010Prop51ColorRGB
 90
-16777216
102
RTVSPost2010PropOp51
 70
     0
102
RTVSPost2010Prop52
140
1.0
102
RTVSPost2010PropOp52
 70
     0
102
RTVSPost2010Prop53
 90
        2
102
RTVSPost2010PropOp53
 70
     1
102
RTVSPost2010Prop54
  1
strokes_ogs.tif
102
RTVSPost2010PropOp54
 70
     1
102
RTVSPost2010Prop55
280
     0
102
RTVSPost2010PropOp55
 70
     1
102
RTVSPost2010Prop56
140
1.0
102
RTVSPost2010PropOp56
 70
     1
102
RTVSPost2010Prop57
140
1.0
102
RTVSPost2010PropOp57
 70
     1
  0
XRECORD
  5
338
102
{ACAD_REACTORS
330
337
102
}
330
337
100
AcDbXrecord
280
     1
102
RTVSPropertyOp0
 70
     1
102
RTVSPropertyOp1
 70
     1
102
RTVSPropertyOp2
 70
     1
102
RTVSPropertyOp3
 70
     1
102
RTVSPropertyOp4
 70
     1
102
RTVSPropertyOp5
 70
     1
102
RTVSPropertyOp6
 70
     1
102
RTVSPropertyOp7
 70
     1
102
RTVSPropertyOp8
 70
     1
102
RTVSPropertyOp9
 70
     1
102
RTVSPropertyOp10
 70
     1
102
RTVSPropertyOp11
 70
     1
102
RTVSPropertyOp12
 70
     1
102
RTVSPropertyOp13
 70
     1
102
RTVSPropertyOp14
 70
     1
102
RTVSPropertyOp15
 70
     1
102
RTVSPropertyOp16
 70
     1
102
RTVSPropertyOp17
 70
     1
102
RTVSPropertyOp18
 70
     1
102
RTVSPropertyOp19
 70
     1
102
RTVSPropertyOp20
 70
     1
102
RTVSPropertyOp21
 70
     1
102
RTVSPropertyOp22
 70
     1
102
RTVSPropertyOp23
 70
     1
102
RTVSPropertyOp24
 70
     1
102
RTVSPropertyOp25
 70
     1
102
RTVSPropertyOp26
 70
     1
102
RTVSPropertyOp27
 70
     1
102
RTVSPropertyOp28
 70
     1
102
RTVSPropertyOp29
 70
     1
102
RTVSPropertyOp30
 70
     1
102
RTVSPropertyOp31
 70
     1
102
RTVSPropertyOp32
 70
     1
102
RTVSPropertyOp33
 70
     1
102
RTVSPropertyOp34
 70
     1
102
RTVSPropertyOp35
 70
     1
102
RTVSPropertyOp36
 70
     1
102
RTVSPropertyOp37
 70
     1
102
RTVSPropertyOp38
 70
     1
102
RTVSPropertyOp39
 70
     1
102
RTVSPropertyOp40
 70
     1
102
RTVSPropertyOp41
 70
     1
102
RTVSPropertyOp42
 70
     1
102
RTVSPropertyOp43
 70
     1
102
RTVSPropertyOp44
 70
     1
102
RTVSPropertyOp45
 70
     1
102
RTVSPropertyOp46
 70
     1
102
RTVSPropertyOp47
 70
     1
102
RTVSPropertyOp48
 70
     1
102
RTVSPropertyOp49
 70
     1
102
RTVSPropertyOp50
 70
     1
102
RTVSPropertyOp51
 70
     0
102
RTVSPropertyOp52
 70
     0
102
RTVSPropertyOp53
 70
     1
102
RTVSPropertyOp54
 70
     1
102
RTVSPropertyOp55
 70
     1
102
RTVSPropertyOp56
 70
     1
102
RTVSPropertyOp57
 70
     1
102
RTVSPost2010Prop28
280
     0
102
RTVSPost2010PropOp28
 70
     1
102
RTVSPost2010Prop29
280
     1
102
RTVSPost2010PropOp29
 70
     1
102
RTVSPost2010Prop30
280
     1
102
RTVSPost2010PropOp30
 70
     1
102
RTVSPost2010Prop31
280
     0
102
RTVSPost2010PropOp31
 70
     1
102
RTVSPost2010Prop32
280
     0
102
RTVSPost2010PropOp32
 70
     1
102
RTVSPost2010Prop33
280
     0
102
RTVSPost2010PropOp33
 70
     1
102
RTVSPost2010Prop34
280
     0
102
RTVSPost2010PropOp34
 70
     1
102
RTVSPost2010Prop35
280
     0
102
RTVSPost2010PropOp35
 70
     1
102
RTVSPost2010Prop36
280
     0
102
RTVSPost2010PropOp36
 70
     1
102
RTVSPost2010Prop37
 90
       50
102
RTVSPost2010PropOp37
 70
     1
102
RTVSPost2010Prop38
140
0.0
102
RTVSPost2010PropOp38
 70
     1
102
RTVSPost2010Prop39
140
1.0
102
RTVSPost2010PropOp39
 70
     1
102
RTVSPost2010Prop40
 90
        0
102
RTVSPost2010PropOp40
 70
     1
102
RTVSPost2010Prop41ColorIndex
 90
       18
102
RTVSPost2010Prop41ColorRGB
 90
        0
102
RTVSPost2010PropOp41
 70
     1
102
RTVSPost2010Prop42
 90
       50
102
RTVSPost2010PropOp42
 70
     1
102
RTVSPost2010Prop43
 90
        3
102
RTVSPost2010PropOp43
 70
     1
102
RTVSPost2010Prop44ColorIndex
 90
        5
102
RTVSPost2010Prop44ColorRGB
 90
      255
102
RTVSPost2010PropOp44
 70
     1
102
RTVSPost2010Prop45
280
     0
102
RTVSPost2010PropOp45
 70
     1
102
RTVSPost2010Prop46
 90
       50
102
RTVSPost2010PropOp46
 70
     1
102
RTVSPost2010Prop47
 90
       50
102
RTVSPost2010PropOp47
 70
     1
102
RTVSPost2010Prop48
 90
       50
102
RTVSPost2010PropOp48
 70
     1
102
RTVSPost2010Prop49
280
     0
102
RTVSPost2010PropOp49
 70
     1
102
RTVSPost2010Prop50
 90
       50
102
RTVSPost2010PropOp50
 70
     1
102
RTVSPost2010Prop51ColorIndex
 90
      256
102
RTVSPost2010Prop51ColorRGB
 90
-16777216
102
RTVSPost2010PropOp51
 70
     0
102
RTVSPost2010Prop52
140
1.0
102
RTVSPost2010PropOp52
 70
     0
102
RTVSPost2010Prop53
 90
        2
102
RTVSPost2010PropOp53
 70
     1
102
RTVSPost2010Prop54
  1
strokes_ogs.tif
102
RTVSPost2010PropOp54
 70
     1
102
RTVSPost2010Prop55
280
     0
102
RTVSPost2010PropOp55
 70
     1
102
RTVSPost2010Prop56
140
1.0
102
RTVSPost2010PropOp56
 70
     1
102
RTVSPost2010Prop57
140
1.0
102
RTVSPost2010PropOp57
 70
     1
  0
XRECORD
  5
332
102
{ACAD_REACTORS
330
331
102
}
330
331
100
AcDbXrecord
280
     1
102
RTVSPropertyOp0
 70
     1
102
RTVSPropertyOp1
 70
     1
102
RTVSPropertyOp2
 70
     1
102
RTVSPropertyOp3
 70
     1
102
RTVSPropertyOp4
 70
     1
102
RTVSPropertyOp5
 70
     1
102
RTVSPropertyOp6
 70
     1
102
RTVSPropertyOp7
 70
     1
102
RTVSPropertyOp8
 70
     1
102
RTVSPropertyOp9
 70
     1
102
RTVSPropertyOp10
 70
     1
102
RTVSPropertyOp11
 70
     1
102
RTVSPropertyOp12
 70
     1
102
RTVSPropertyOp13
 70
     1
102
RTVSPropertyOp14
 70
     1
102
RTVSPropertyOp15
 70
     1
102
RTVSPropertyOp16
 70
     1
102
RTVSPropertyOp17
 70
     1
102
RTVSPropertyOp18
 70
     1
102
RTVSPropertyOp19
 70
     1
102
RTVSPropertyOp20
 70
     1
102
RTVSPropertyOp21
 70
     1
102
RTVSPropertyOp22
 70
     1
102
RTVSPropertyOp23
 70
     1
102
RTVSPropertyOp24
 70
     1
102
RTVSPropertyOp25
 70
     1
102
RTVSPropertyOp26
 70
     1
102
RTVSPropertyOp27
 70
     1
102
RTVSPropertyOp28
 70
     1
102
RTVSPropertyOp29
 70
     1
102
RTVSPropertyOp30
 70
     1
102
RTVSPropertyOp31
 70
     1
102
RTVSPropertyOp32
 70
     1
102
RTVSPropertyOp33
 70
     1
102
RTVSPropertyOp34
 70
     1
102
RTVSPropertyOp35
 70
     1
102
RTVSPropertyOp36
 70
     1
102
RTVSPropertyOp37
 70
     1
102
RTVSPropertyOp38
 70
     1
102
RTVSPropertyOp39
 70
     1
102
RTVSPropertyOp40
 70
     1
102
RTVSPropertyOp41
 70
     1
102
RTVSPropertyOp42
 70
     1
102
RTVSPropertyOp43
 70
     1
102
RTVSPropertyOp44
 70
     1
102
RTVSPropertyOp45
 70
     1
102
RTVSPropertyOp46
 70
     1
102
RTVSPropertyOp47
 70
     1
102
RTVSPropertyOp48
 70
     1
102
RTVSPropertyOp49
 70
     1
102
RTVSPropertyOp50
 70
     1
102
RTVSPropertyOp51
 70
     0
102
RTVSPropertyOp52
 70
     0
102
RTVSPropertyOp53
 70
     1
102
RTVSPropertyOp54
 70
     1
102
RTVSPropertyOp55
 70
     1
102
RTVSPropertyOp56
 70
     1
102
RTVSPropertyOp57
 70
     1
102
RTVSPost2010Prop28
280
     0
102
RTVSPost2010PropOp28
 70
     1
102
RTVSPost2010Prop29
280
     1
102
RTVSPost2010PropOp29
 70
     1
102
RTVSPost2010Prop30
280
     1
102
RTVSPost2010PropOp30
 70
     1
102
RTVSPost2010Prop31
280
     0
102
RTVSPost2010PropOp31
 70
     1
102
RTVSPost2010Prop32
280
     0
102
RTVSPost2010PropOp32
 70
     1
102
RTVSPost2010Prop33
280
     0
102
RTVSPost2010PropOp33
 70
     1
102
RTVSPost2010Prop34
280
     0
102
RTVSPost2010PropOp34
 70
     1
102
RTVSPost2010Prop35
280
     0
102
RTVSPost2010PropOp35
 70
     1
102
RTVSPost2010Prop36
280
     0
102
RTVSPost2010PropOp36
 70
     1
102
RTVSPost2010Prop37
 90
       50
102
RTVSPost2010PropOp37
 70
     1
102
RTVSPost2010Prop38
140
0.0
102
RTVSPost2010PropOp38
 70
     1
102
RTVSPost2010Prop39
140
1.0
102
RTVSPost2010PropOp39
 70
     1
102
RTVSPost2010Prop40
 90
        0
102
RTVSPost2010PropOp40
 70
     1
102
RTVSPost2010Prop41ColorIndex
 90
       18
102
RTVSPost2010Prop41ColorRGB
 90
        0
102
RTVSPost2010PropOp41
 70
     1
102
RTVSPost2010Prop42
 90
       50
102
RTVSPost2010PropOp42
 70
     1
102
RTVSPost2010Prop43
 90
        3
102
RTVSPost2010PropOp43
 70
     1
102
RTVSPost2010Prop44ColorIndex
 90
        5
102
RTVSPost2010Prop44ColorRGB
 90
      255
102
RTVSPost2010PropOp44
 70
     1
102
RTVSPost2010Prop45
280
     0
102
RTVSPost2010PropOp45
 70
     1
102
RTVSPost2010Prop46
 90
       50
102
RTVSPost2010PropOp46
 70
     1
102
RTVSPost2010Prop47
 90
       50
102
RTVSPost2010PropOp47
 70
     1
102
RTVSPost2010Prop48
 90
       50
102
RTVSPost2010PropOp48
 70
     1
102
RTVSPost2010Prop49
280
     0
102
RTVSPost2010PropOp49
 70
     1
102
RTVSPost2010Prop50
 90
       50
102
RTVSPost2010PropOp50
 70
     1
102
RTVSPost2010Prop51ColorIndex
 90
      256
102
RTVSPost2010Prop51ColorRGB
 90
-16777216
102
RTVSPost2010PropOp51
 70
     0
102
RTVSPost2010Prop52
140
1.0
102
RTVSPost2010PropOp52
 70
     0
102
RTVSPost2010Prop53
 90
        2
102
RTVSPost2010PropOp53
 70
     1
102
RTVSPost2010Prop54
  1
strokes_ogs.tif
102
RTVSPost2010PropOp54
 70
     1
102
RTVSPost2010Prop55
280
     0
102
RTVSPost2010PropOp55
 70
     1
102
RTVSPost2010Prop56
140
1.0
102
RTVSPost2010PropOp56
 70
     1
102
RTVSPost2010Prop57
140
1.0
102
RTVSPost2010PropOp57
 70
     1
  0
XRECORD
  5
334
102
{ACAD_REACTORS
330
333
102
}
330
333
100
AcDbXrecord
280
     1
102
RTVSPropertyOp0
 70
     1
102
RTVSPropertyOp1
 70
     1
102
RTVSPropertyOp2
 70
     1
102
RTVSPropertyOp3
 70
     1
102
RTVSPropertyOp4
 70
     1
102
RTVSPropertyOp5
 70
     1
102
RTVSPropertyOp6
 70
     1
102
RTVSPropertyOp7
 70
     1
102
RTVSPropertyOp8
 70
     1
102
RTVSPropertyOp9
 70
     1
102
RTVSPropertyOp10
 70
     1
102
RTVSPropertyOp11
 70
     1
102
RTVSPropertyOp12
 70
     1
102
RTVSPropertyOp13
 70
     1
102
RTVSPropertyOp14
 70
     1
102
RTVSPropertyOp15
 70
     1
102
RTVSPropertyOp16
 70
     1
102
RTVSPropertyOp17
 70
     1
102
RTVSPropertyOp18
 70
     1
102
RTVSPropertyOp19
 70
     1
102
RTVSPropertyOp20
 70
     1
102
RTVSPropertyOp21
 70
     1
102
RTVSPropertyOp22
 70
     1
102
RTVSPropertyOp23
 70
     1
102
RTVSPropertyOp24
 70
     1
102
RTVSPropertyOp25
 70
     1
102
RTVSPropertyOp26
 70
     1
102
RTVSPropertyOp27
 70
     1
102
RTVSPropertyOp28
 70
     1
102
RTVSPropertyOp29
 70
     1
102
RTVSPropertyOp30
 70
     1
102
RTVSPropertyOp31
 70
     1
102
RTVSPropertyOp32
 70
     1
102
RTVSPropertyOp33
 70
     1
102
RTVSPropertyOp34
 70
     1
102
RTVSPropertyOp35
 70
     1
102
RTVSPropertyOp36
 70
     1
102
RTVSPropertyOp37
 70
     1
102
RTVSPropertyOp38
 70
     1
102
RTVSPropertyOp39
 70
     1
102
RTVSPropertyOp40
 70
     1
102
RTVSPropertyOp41
 70
     1
102
RTVSPropertyOp42
 70
     1
102
RTVSPropertyOp43
 70
     1
102
RTVSPropertyOp44
 70
     1
102
RTVSPropertyOp45
 70
     1
102
RTVSPropertyOp46
 70
     1
102
RTVSPropertyOp47
 70
     1
102
RTVSPropertyOp48
 70
     1
102
RTVSPropertyOp49
 70
     1
102
RTVSPropertyOp50
 70
     1
102
RTVSPropertyOp51
 70
     0
102
RTVSPropertyOp52
 70
     0
102
RTVSPropertyOp53
 70
     1
102
RTVSPropertyOp54
 70
     1
102
RTVSPropertyOp55
 70
     1
102
RTVSPropertyOp56
 70
     1
102
RTVSPropertyOp57
 70
     1
102
RTVSPost2010Prop28
280
     0
102
RTVSPost2010PropOp28
 70
     1
102
RTVSPost2010Prop29
280
     1
102
RTVSPost2010PropOp29
 70
     1
102
RTVSPost2010Prop30
280
     1
102
RTVSPost2010PropOp30
 70
     1
102
RTVSPost2010Prop31
280
     0
102
RTVSPost2010PropOp31
 70
     1
102
RTVSPost2010Prop32
280
     0
102
RTVSPost2010PropOp32
 70
     1
102
RTVSPost2010Prop33
280
     0
102
RTVSPost2010PropOp33
 70
     1
102
RTVSPost2010Prop34
280
     0
102
RTVSPost2010PropOp34
 70
     1
102
RTVSPost2010Prop35
280
     0
102
RTVSPost2010PropOp35
 70
     1
102
RTVSPost2010Prop36
280
     0
102
RTVSPost2010PropOp36
 70
     1
102
RTVSPost2010Prop37
 90
       50
102
RTVSPost2010PropOp37
 70
     1
102
RTVSPost2010Prop38
140
0.0
102
RTVSPost2010PropOp38
 70
     1
102
RTVSPost2010Prop39
140
1.0
102
RTVSPost2010PropOp39
 70
     1
102
RTVSPost2010Prop40
 90
        0
102
RTVSPost2010PropOp40
 70
     1
102
RTVSPost2010Prop41ColorIndex
 90
       18
102
RTVSPost2010Prop41ColorRGB
 90
        0
102
RTVSPost2010PropOp41
 70
     1
102
RTVSPost2010Prop42
 90
       50
102
RTVSPost2010PropOp42
 70
     1
102
RTVSPost2010Prop43
 90
        3
102
RTVSPost2010PropOp43
 70
     1
102
RTVSPost2010Prop44ColorIndex
 90
        5
102
RTVSPost2010Prop44ColorRGB
 90
      255
102
RTVSPost2010PropOp44
 70
     1
102
RTVSPost2010Prop45
280
     0
102
RTVSPost2010PropOp45
 70
     1
102
RTVSPost2010Prop46
 90
       50
102
RTVSPost2010PropOp46
 70
     1
102
RTVSPost2010Prop47
 90
       50
102
RTVSPost2010PropOp47
 70
     1
102
RTVSPost2010Prop48
 90
       50
102
RTVSPost2010PropOp48
 70
     1
102
RTVSPost2010Prop49
280
     0
102
RTVSPost2010PropOp49
 70
     1
102
RTVSPost2010Prop50
 90
       50
102
RTVSPost2010PropOp50
 70
     1
102
RTVSPost2010Prop51ColorIndex
 90
      256
102
RTVSPost2010Prop51ColorRGB
 90
-16777216
102
RTVSPost2010PropOp51
 70
     0
102
RTVSPost2010Prop52
140
1.0
102
RTVSPost2010PropOp52
 70
     0
102
RTVSPost2010Prop53
 90
        2
102
RTVSPost2010PropOp53
 70
     1
102
RTVSPost2010Prop54
  1
strokes_ogs.tif
102
RTVSPost2010PropOp54
 70
     1
102
RTVSPost2010Prop55
280
     0
102
RTVSPost2010PropOp55
 70
     1
102
RTVSPost2010Prop56
140
1.0
102
RTVSPost2010PropOp56
 70
     1
102
RTVSPost2010Prop57
140
1.0
102
RTVSPost2010PropOp57
 70
     1
  0
XRECORD
  5
324
102
{ACAD_REACTORS
330
323
102
}
330
323
100
AcDbXrecord
280
     1
102
RTVSPropertyOp0
 70
     1
102
RTVSPropertyOp1
 70
     1
102
RTVSPropertyOp2
 70
     1
102
RTVSPropertyOp3
 70
     1
102
RTVSPropertyOp4
 70
     1
102
RTVSPropertyOp5
 70
     1
102
RTVSPropertyOp6
 70
     1
102
RTVSPropertyOp7
 70
     1
102
RTVSPropertyOp8
 70
     1
102
RTVSPropertyOp9
 70
     1
102
RTVSPropertyOp10
 70
     1
102
RTVSPropertyOp11
 70
     1
102
RTVSPropertyOp12
 70
     1
102
RTVSPropertyOp13
 70
     1
102
RTVSPropertyOp14
 70
     1
102
RTVSPropertyOp15
 70
     1
102
RTVSPropertyOp16
 70
     1
102
RTVSPropertyOp17
 70
     1
102
RTVSPropertyOp18
 70
     1
102
RTVSPropertyOp19
 70
     1
102
RTVSPropertyOp20
 70
     1
102
RTVSPropertyOp21
 70
     1
102
RTVSPropertyOp22
 70
     1
102
RTVSPropertyOp23
 70
     1
102
RTVSPropertyOp24
 70
     1
102
RTVSPropertyOp25
 70
     1
102
RTVSPropertyOp26
 70
     1
102
RTVSPropertyOp27
 70
     1
102
RTVSPropertyOp28
 70
     1
102
RTVSPropertyOp29
 70
     1
102
RTVSPropertyOp30
 70
     1
102
RTVSPropertyOp31
 70
     1
102
RTVSPropertyOp32
 70
     1
102
RTVSPropertyOp33
 70
     1
102
RTVSPropertyOp34
 70
     1
102
RTVSPropertyOp35
 70
     1
102
RTVSPropertyOp36
 70
     1
102
RTVSPropertyOp37
 70
     1
102
RTVSPropertyOp38
 70
     1
102
RTVSPropertyOp39
 70
     1
102
RTVSPropertyOp40
 70
     1
102
RTVSPropertyOp41
 70
     1
102
RTVSPropertyOp42
 70
     1
102
RTVSPropertyOp43
 70
     1
102
RTVSPropertyOp44
 70
     1
102
RTVSPropertyOp45
 70
     1
102
RTVSPropertyOp46
 70
     1
102
RTVSPropertyOp47
 70
     1
102
RTVSPropertyOp48
 70
     1
102
RTVSPropertyOp49
 70
     1
102
RTVSPropertyOp50
 70
     1
102
RTVSPropertyOp51
 70
     0
102
RTVSPropertyOp52
 70
     0
102
RTVSPropertyOp53
 70
     1
102
RTVSPropertyOp54
 70
     1
102
RTVSPropertyOp55
 70
     1
102
RTVSPropertyOp56
 70
     1
102
RTVSPropertyOp57
 70
     1
102
RTVSPost2010Prop28
280
     0
102
RTVSPost2010PropOp28
 70
     1
102
RTVSPost2010Prop29
280
     1
102
RTVSPost2010PropOp29
 70
     1
102
RTVSPost2010Prop30
280
     1
102
RTVSPost2010PropOp30
 70
     1
102
RTVSPost2010Prop31
280
     0
102
RTVSPost2010PropOp31
 70
     1
102
RTVSPost2010Prop32
280
     0
102
RTVSPost2010PropOp32
 70
     1
102
RTVSPost2010Prop33
280
     0
102
RTVSPost2010PropOp33
 70
     1
102
RTVSPost2010Prop34
280
     0
102
RTVSPost2010PropOp34
 70
     1
102
RTVSPost2010Prop35
280
     0
102
RTVSPost2010PropOp35
 70
     1
102
RTVSPost2010Prop36
280
     0
102
RTVSPost2010PropOp36
 70
     1
102
RTVSPost2010Prop37
 90
       50
102
RTVSPost2010PropOp37
 70
     1
102
RTVSPost2010Prop38
140
0.0
102
RTVSPost2010PropOp38
 70
     1
102
RTVSPost2010Prop39
140
1.0
102
RTVSPost2010PropOp39
 70
     1
102
RTVSPost2010Prop40
 90
        0
102
RTVSPost2010PropOp40
 70
     1
102
RTVSPost2010Prop41ColorIndex
 90
       18
102
RTVSPost2010Prop41ColorRGB
 90
        0
102
RTVSPost2010PropOp41
 70
     1
102
RTVSPost2010Prop42
 90
       50
102
RTVSPost2010PropOp42
 70
     1
102
RTVSPost2010Prop43
 90
        3
102
RTVSPost2010PropOp43
 70
     1
102
RTVSPost2010Prop44ColorIndex
 90
        5
102
RTVSPost2010Prop44ColorRGB
 90
      255
102
RTVSPost2010PropOp44
 70
     1
102
RTVSPost2010Prop45
280
     0
102
RTVSPost2010PropOp45
 70
     1
102
RTVSPost2010Prop46
 90
       50
102
RTVSPost2010PropOp46
 70
     1
102
RTVSPost2010Prop47
 90
       50
102
RTVSPost2010PropOp47
 70
     1
102
RTVSPost2010Prop48
 90
       50
102
RTVSPost2010PropOp48
 70
     1
102
RTVSPost2010Prop49
280
     0
102
RTVSPost2010PropOp49
 70
     1
102
RTVSPost2010Prop50
 90
       50
102
RTVSPost2010PropOp50
 70
     1
102
RTVSPost2010Prop51ColorIndex
 90
      256
102
RTVSPost2010Prop51ColorRGB
 90
-16777216
102
RTVSPost2010PropOp51
 70
     0
102
RTVSPost2010Prop52
140
1.0
102
RTVSPost2010PropOp52
 70
     0
102
RTVSPost2010Prop53
 90
        2
102
RTVSPost2010PropOp53
 70
     1
102
RTVSPost2010Prop54
  1
strokes_ogs.tif
102
RTVSPost2010PropOp54
 70
     1
102
RTVSPost2010Prop55
280
     0
102
RTVSPost2010PropOp55
 70
     1
102
RTVSPost2010Prop56
140
1.0
102
RTVSPost2010PropOp56
 70
     1
102
RTVSPost2010Prop57
140
1.0
102
RTVSPost2010PropOp57
 70
     1
  0
XRECORD
  5
316
102
{ACAD_REACTORS
330
315
102
}
330
315
100
AcDbXrecord
280
     1
102
RTVSPropertyOp0
 70
     1
102
RTVSPropertyOp1
 70
     1
102
RTVSPropertyOp2
 70
     1
102
RTVSPropertyOp3
 70
     1
102
RTVSPropertyOp4
 70
     1
102
RTVSPropertyOp5
 70
     1
102
RTVSPropertyOp6
 70
     1
102
RTVSPropertyOp7
 70
     1
102
RTVSPropertyOp8
 70
     1
102
RTVSPropertyOp9
 70
     1
102
RTVSPropertyOp10
 70
     1
102
RTVSPropertyOp11
 70
     1
102
RTVSPropertyOp12
 70
     1
102
RTVSPropertyOp13
 70
     1
102
RTVSPropertyOp14
 70
     1
102
RTVSPropertyOp15
 70
     1
102
RTVSPropertyOp16
 70
     1
102
RTVSPropertyOp17
 70
     1
102
RTVSPropertyOp18
 70
     1
102
RTVSPropertyOp19
 70
     1
102
RTVSPropertyOp20
 70
     1
102
RTVSPropertyOp21
 70
     1
102
RTVSPropertyOp22
 70
     1
102
RTVSPropertyOp23
 70
     1
102
RTVSPropertyOp24
 70
     1
102
RTVSPropertyOp25
 70
     1
102
RTVSPropertyOp26
 70
     1
102
RTVSPropertyOp27
 70
     1
102
RTVSPropertyOp28
 70
     1
102
RTVSPropertyOp29
 70
     1
102
RTVSPropertyOp30
 70
     1
102
RTVSPropertyOp31
 70
     1
102
RTVSPropertyOp32
 70
     1
102
RTVSPropertyOp33
 70
     1
102
RTVSPropertyOp34
 70
     1
102
RTVSPropertyOp35
 70
     1
102
RTVSPropertyOp36
 70
     1
102
RTVSPropertyOp37
 70
     1
102
RTVSPropertyOp38
 70
     1
102
RTVSPropertyOp39
 70
     1
102
RTVSPropertyOp40
 70
     1
102
RTVSPropertyOp41
 70
     1
102
RTVSPropertyOp42
 70
     1
102
RTVSPropertyOp43
 70
     1
102
RTVSPropertyOp44
 70
     1
102
RTVSPropertyOp45
 70
     1
102
RTVSPropertyOp46
 70
     1
102
RTVSPropertyOp47
 70
     1
102
RTVSPropertyOp48
 70
     1
102
RTVSPropertyOp49
 70
     1
102
RTVSPropertyOp50
 70
     1
102
RTVSPropertyOp51
 70
     0
102
RTVSPropertyOp52
 70
     0
102
RTVSPropertyOp53
 70
     1
102
RTVSPropertyOp54
 70
     1
102
RTVSPropertyOp55
 70
     1
102
RTVSPropertyOp56
 70
     1
102
RTVSPropertyOp57
 70
     1
102
RTVSPost2010Prop28
280
     0
102
RTVSPost2010PropOp28
 70
     1
102
RTVSPost2010Prop29
280
     1
102
RTVSPost2010PropOp29
 70
     1
102
RTVSPost2010Prop30
280
     1
102
RTVSPost2010PropOp30
 70
     1
102
RTVSPost2010Prop31
280
     0
102
RTVSPost2010PropOp31
 70
     1
102
RTVSPost2010Prop32
280
     0
102
RTVSPost2010PropOp32
 70
     1
102
RTVSPost2010Prop33
280
     0
102
RTVSPost2010PropOp33
 70
     1
102
RTVSPost2010Prop34
280
     0
102
RTVSPost2010PropOp34
 70
     1
102
RTVSPost2010Prop35
280
     0
102
RTVSPost2010PropOp35
 70
     1
102
RTVSPost2010Prop36
280
     0
102
RTVSPost2010PropOp36
 70
     1
102
RTVSPost2010Prop37
 90
       50
102
RTVSPost2010PropOp37
 70
     1
102
RTVSPost2010Prop38
140
0.0
102
RTVSPost2010PropOp38
 70
     1
102
RTVSPost2010Prop39
140
1.0
102
RTVSPost2010PropOp39
 70
     1
102
RTVSPost2010Prop40
 90
        0
102
RTVSPost2010PropOp40
 70
     1
102
RTVSPost2010Prop41ColorIndex
 90
       18
102
RTVSPost2010Prop41ColorRGB
 90
        0
102
RTVSPost2010PropOp41
 70
     1
102
RTVSPost2010Prop42
 90
       50
102
RTVSPost2010PropOp42
 70
     1
102
RTVSPost2010Prop43
 90
        3
102
RTVSPost2010PropOp43
 70
     1
102
RTVSPost2010Prop44ColorIndex
 90
        5
102
RTVSPost2010Prop44ColorRGB
 90
      255
102
RTVSPost2010PropOp44
 70
     1
102
RTVSPost2010Prop45
280
     0
102
RTVSPost2010PropOp45
 70
     1
102
RTVSPost2010Prop46
 90
       50
102
RTVSPost2010PropOp46
 70
     1
102
RTVSPost2010Prop47
 90
       50
102
RTVSPost2010PropOp47
 70
     1
102
RTVSPost2010Prop48
 90
       50
102
RTVSPost2010PropOp48
 70
     1
102
RTVSPost2010Prop49
280
     0
102
RTVSPost2010PropOp49
 70
     1
102
RTVSPost2010Prop50
 90
       50
102
RTVSPost2010PropOp50
 70
     1
102
RTVSPost2010Prop51ColorIndex
 90
      256
102
RTVSPost2010Prop51ColorRGB
 90
-16777216
102
RTVSPost2010PropOp51
 70
     0
102
RTVSPost2010Prop52
140
1.0
102
RTVSPost2010PropOp52
 70
     0
102
RTVSPost2010Prop53
 90
        2
102
RTVSPost2010PropOp53
 70
     1
102
RTVSPost2010Prop54
  1
strokes_ogs.tif
102
RTVSPost2010PropOp54
 70
     1
102
RTVSPost2010Prop55
280
     0
102
RTVSPost2010PropOp55
 70
     1
102
RTVSPost2010Prop56
140
1.0
102
RTVSPost2010PropOp56
 70
     1
102
RTVSPost2010Prop57
140
1.0
102
RTVSPost2010PropOp57
 70
     1
  0
XRECORD
  5
336
102
{ACAD_REACTORS
330
335
102
}
330
335
100
AcDbXrecord
280
     1
102
RTVSPropertyOp0
 70
     1
102
RTVSPropertyOp1
 70
     1
102
RTVSPropertyOp2
 70
     1
102
RTVSPropertyOp3
 70
     1
102
RTVSPropertyOp4
 70
     1
102
RTVSPropertyOp5
 70
     1
102
RTVSPropertyOp6
 70
     1
102
RTVSPropertyOp7
 70
     1
102
RTVSPropertyOp8
 70
     1
102
RTVSPropertyOp9
 70
     1
102
RTVSPropertyOp10
 70
     1
102
RTVSPropertyOp11
 70
     1
102
RTVSPropertyOp12
 70
     1
102
RTVSPropertyOp13
 70
     1
102
RTVSPropertyOp14
 70
     1
102
RTVSPropertyOp15
 70
     1
102
RTVSPropertyOp16
 70
     1
102
RTVSPropertyOp17
 70
     1
102
RTVSPropertyOp18
 70
     1
102
RTVSPropertyOp19
 70
     1
102
RTVSPropertyOp20
 70
     1
102
RTVSPropertyOp21
 70
     1
102
RTVSPropertyOp22
 70
     1
102
RTVSPropertyOp23
 70
     1
102
RTVSPropertyOp24
 70
     1
102
RTVSPropertyOp25
 70
     1
102
RTVSPropertyOp26
 70
     1
102
RTVSPropertyOp27
 70
     1
102
RTVSPropertyOp28
 70
     1
102
RTVSPropertyOp29
 70
     1
102
RTVSPropertyOp30
 70
     1
102
RTVSPropertyOp31
 70
     1
102
RTVSPropertyOp32
 70
     1
102
RTVSPropertyOp33
 70
     1
102
RTVSPropertyOp34
 70
     1
102
RTVSPropertyOp35
 70
     1
102
RTVSPropertyOp36
 70
     1
102
RTVSPropertyOp37
 70
     1
102
RTVSPropertyOp38
 70
     1
102
RTVSPropertyOp39
 70
     1
102
RTVSPropertyOp40
 70
     1
102
RTVSPropertyOp41
 70
     1
102
RTVSPropertyOp42
 70
     1
102
RTVSPropertyOp43
 70
     1
102
RTVSPropertyOp44
 70
     1
102
RTVSPropertyOp45
 70
     1
102
RTVSPropertyOp46
 70
     1
102
RTVSPropertyOp47
 70
     1
102
RTVSPropertyOp48
 70
     1
102
RTVSPropertyOp49
 70
     1
102
RTVSPropertyOp50
 70
     1
102
RTVSPropertyOp51
 70
     0
102
RTVSPropertyOp52
 70
     0
102
RTVSPropertyOp53
 70
     1
102
RTVSPropertyOp54
 70
     1
102
RTVSPropertyOp55
 70
     1
102
RTVSPropertyOp56
 70
     1
102
RTVSPropertyOp57
 70
     1
102
RTVSPost2010Prop28
280
     0
102
RTVSPost2010PropOp28
 70
     1
102
RTVSPost2010Prop29
280
     1
102
RTVSPost2010PropOp29
 70
     1
102
RTVSPost2010Prop30
280
     1
102
RTVSPost2010PropOp30
 70
     1
102
RTVSPost2010Prop31
280
     0
102
RTVSPost2010PropOp31
 70
     1
102
RTVSPost2010Prop32
280
     0
102
RTVSPost2010PropOp32
 70
     1
102
RTVSPost2010Prop33
280
     0
102
RTVSPost2010PropOp33
 70
     1
102
RTVSPost2010Prop34
280
     0
102
RTVSPost2010PropOp34
 70
     1
102
RTVSPost2010Prop35
280
     0
102
RTVSPost2010PropOp35
 70
     1
102
RTVSPost2010Prop36
280
     0
102
RTVSPost2010PropOp36
 70
     1
102
RTVSPost2010Prop37
 90
       50
102
RTVSPost2010PropOp37
 70
     1
102
RTVSPost2010Prop38
140
0.0
102
RTVSPost2010PropOp38
 70
     1
102
RTVSPost2010Prop39
140
1.0
102
RTVSPost2010PropOp39
 70
     1
102
RTVSPost2010Prop40
 90
        0
102
RTVSPost2010PropOp40
 70
     1
102
RTVSPost2010Prop41ColorIndex
 90
       18
102
RTVSPost2010Prop41ColorRGB
 90
        0
102
RTVSPost2010PropOp41
 70
     1
102
RTVSPost2010Prop42
 90
       50
102
RTVSPost2010PropOp42
 70
     1
102
RTVSPost2010Prop43
 90
        3
102
RTVSPost2010PropOp43
 70
     1
102
RTVSPost2010Prop44ColorIndex
 90
        5
102
RTVSPost2010Prop44ColorRGB
 90
      255
102
RTVSPost2010PropOp44
 70
     1
102
RTVSPost2010Prop45
280
     0
102
RTVSPost2010PropOp45
 70
     1
102
RTVSPost2010Prop46
 90
       50
102
RTVSPost2010PropOp46
 70
     1
102
RTVSPost2010Prop47
 90
       50
102
RTVSPost2010PropOp47
 70
     1
102
RTVSPost2010Prop48
 90
       50
102
RTVSPost2010PropOp48
 70
     1
102
RTVSPost2010Prop49
280
     0
102
RTVSPost2010PropOp49
 70
     1
102
RTVSPost2010Prop50
 90
       50
102
RTVSPost2010PropOp50
 70
     1
102
RTVSPost2010Prop51ColorIndex
 90
      256
102
RTVSPost2010Prop51ColorRGB
 90
-16777216
102
RTVSPost2010PropOp51
 70
     0
102
RTVSPost2010Prop52
140
1.0
102
RTVSPost2010PropOp52
 70
     0
102
RTVSPost2010Prop53
 90
        2
102
RTVSPost2010PropOp53
 70
     1
102
RTVSPost2010Prop54
  1
strokes_ogs.tif
102
RTVSPost2010PropOp54
 70
     1
102
RTVSPost2010Prop55
280
     0
102
RTVSPost2010PropOp55
 70
     1
102
RTVSPost2010Prop56
140
1.0
102
RTVSPost2010PropOp56
 70
     1
102
RTVSPost2010Prop57
140
1.0
102
RTVSPost2010PropOp57
 70
     1
  0
ENDSEC
  0
EOF
