  0
SECTION
  2
HEADER
  9
$ACADVER
  1
AC1018
  9
$ACADMAINTVER
 70
     0
  9
$DWGCODEPAGE
  3
ANSI_932
  9
$INSBASE
 10
0.0
 20
0.0
 30
0.0
  9
$EXTMIN
 10
-630.0
 20
-445.5
 30
0.0
  9
$EXTMAX
 10
630.0
 20
445.5
 30
0.0
  9
$LIMMIN
 10
-630.0
 20
-445.5
  9
$LIMMAX
 10
630.0
 20
445.5
  9
$ORTHOMODE
 70
     0
  9
$REGENMODE
 70
     1
  9
$FILLMODE
 70
     1
  9
$QTEXTMODE
 70
     0
  9
$MIRRTEXT
 70
     1
  9
$LTSCALE
 40
3.0
  9
$ATTMODE
 70
     1
  9
$TEXTSIZE
 40
2.5
  9
$TRACEWID
 40
1.0
  9
$TEXTSTYLE
  7
Standard
  9
$CLAYER
  8
0
  9
$CELTYPE
  6
ByLayer
  9
$CECOLOR
 62
   256
  9
$CELTSCALE
 40
1.0
  9
$DISPSILH
 70
     0
  9
$DIMSCALE
 40
1.0
  9
$DIMASZ
 40
2.5
  9
$DIMEXO
 40
0.625
  9
$DIMDLI
 40
3.75
  9
$DIMRND
 40
0.0
  9
$DIMDLE
 40
0.0
  9
$DIMEXE
 40
1.25
  9
$DIMTP
 40
0.0
  9
$DIMTM
 40
0.0
  9
$DIMTXT
 40
2.5
  9
$DIMCEN
 40
2.5
  9
$DIMTSZ
 40
0.0
  9
$DIMTOL
 70
     0
  9
$DIMLIM
 70
     0
  9
$DIMTIH
 70
     0
  9
$DIMTOH
 70
     0
  9
$DIMSE1
 70
     0
  9
$DIMSE2
 70
     0
  9
$DIMTAD
 70
     1
  9
$DIMZIN
 70
     8
  9
$DIMBLK
  1

  9
$DIMASO
 70
     1
  9
$DIMSHO
 70
     1
  9
$DIMPOST
  1

  9
$DIMAPOST
  1

  9
$DIMALT
 70
     0
  9
$DIMALTD
 70
     3
  9
$DIMALTF
 40
0.03937007874016
  9
$DIMLFAC
 40
1.0
  9
$DIMTOFL
 70
     1
  9
$DIMTVP
 40
0.0
  9
$DIMTIX
 70
     0
  9
$DIMSOXD
 70
     0
  9
$DIMSAH
 70
     0
  9
$DIMBLK1
  1

  9
$DIMBLK2
  1

  9
$DIMSTYLE
  2
ISO-25
  9
$DIMCLRD
 70
     0
  9
$DIMCLRE
 70
     0
  9
$DIMCLRT
 70
     0
  9
$DIMTFAC
 40
1.0
  9
$DIMGAP
 40
0.625
  9
$DIMJUST
 70
     0
  9
$DIMSD1
 70
     0
  9
$DIMSD2
 70
     0
  9
$DIMTOLJ
 70
     0
  9
$DIMTZIN
 70
     8
  9
$DIMALTZ
 70
     0
  9
$DIMALTTZ
 70
     0
  9
$DIMUPT
 70
     0
  9
$DIMDEC
 70
     2
  9
$DIMTDEC
 70
     2
  9
$DIMALTU
 70
     2
  9
$DIMALTTD
 70
     3
  9
$DIMTXSTY
  7
Standard
  9
$DIMAUNIT
 70
     0
  9
$DIMADEC
 70
     0
  9
$DIMALTRND
 40
0.0
  9
$DIMAZIN
 70
     0
  9
$DIMDSEP
 70
    44
  9
$DIMATFIT
 70
     3
  9
$DIMFRAC
 70
     0
  9
$DIMLDRBLK
  1

  9
$DIMLUNIT
 70
     2
  9
$DIMLWD
 70
    -2
  9
$DIMLWE
 70
    -2
  9
$DIMTMOVE
 70
     0
  9
$LUNITS
 70
     2
  9
$LUPREC
 70
     4
  9
$SKETCHINC
 40
1.0
  9
$FILLETRAD
 40
10.0
  9
$AUNITS
 70
     0
  9
$AUPREC
 70
     0
  9
$MENU
  1
.
  9
$ELEVATION
 40
0.0
  9
$PELEVATION
 40
0.0
  9
$THICKNESS
 40
0.0
  9
$LIMCHECK
 70
     0
  9
$CHAMFERA
 40
0.0
  9
$CHAMFERB
 40
0.0
  9
$CHAMFERC
 40
0.0
  9
$CHAMFERD
 40
0.0
  9
$SKPOLY
 70
     0
  9
$TDCREATE
 40
2461033.408176065
  9
$TDUCREATE
 40
2461033.033176065
  9
$TDUPDATE
 40
2461033.408181227
  9
$TDUUPDATE
 40
2461033.033181227
  9
$TDINDWG
 40
0.0000000116
  9
$TDUSRTIMER
 40
0.0000000116
  9
$USRTIMER
 70
     1
  9
$ANGBASE
 50
0.0
  9
$ANGDIR
 70
     0
  9
$PDMODE
 70
     0
  9
$PDSIZE
 40
0.0
  9
$PLINEWID
 40
0.0
  9
$SPLFRAME
 70
     0
  9
$SPLINETYPE
 70
     6
  9
$SPLINESEGS
 70
     8
  9
$HANDSEED
  5
395
  9
$SURFTAB1
 70
     6
  9
$SURFTAB2
 70
     6
  9
$SURFTYPE
 70
     6
  9
$SURFU
 70
     6
  9
$SURFV
 70
     6
  9
$UCSBASE
  2

  9
$UCSNAME
  2

  9
$UCSORG
 10
0.0
 20
0.0
 30
0.0
  9
$UCSXDIR
 10
1.0
 20
0.0
 30
0.0
  9
$UCSYDIR
 10
0.0
 20
1.0
 30
0.0
  9
$UCSORTHOREF
  2

  9
$UCSORTHOVIEW
 70
     0
  9
$UCSORGTOP
 10
0.0
 20
0.0
 30
0.0
  9
$UCSORGBOTTOM
 10
0.0
 20
0.0
 30
0.0
  9
$UCSORGLEFT
 10
0.0
 20
0.0
 30
0.0
  9
$UCSORGRIGHT
 10
0.0
 20
0.0
 30
0.0
  9
$UCSORGFRONT
 10
0.0
 20
0.0
 30
0.0
  9
$UCSORGBACK
 10
0.0
 20
0.0
 30
0.0
  9
$PUCSBASE
  2

  9
$PUCSNAME
  2

  9
$PUCSORG
 10
0.0
 20
0.0
 30
0.0
  9
$PUCSXDIR
 10
1.0
 20
0.0
 30
0.0
  9
$PUCSYDIR
 10
0.0
 20
1.0
 30
0.0
  9
$PUCSORTHOREF
  2

  9
$PUCSORTHOVIEW
 70
     0
  9
$PUCSORGTOP
 10
0.0
 20
0.0
 30
0.0
  9
$PUCSORGBOTTOM
 10
0.0
 20
0.0
 30
0.0
  9
$PUCSORGLEFT
 10
0.0
 20
0.0
 30
0.0
  9
$PUCSORGRIGHT
 10
0.0
 20
0.0
 30
0.0
  9
$PUCSORGFRONT
 10
0.0
 20
0.0
 30
0.0
  9
$PUCSORGBACK
 10
0.0
 20
0.0
 30
0.0
  9
$USERI1
 70
     0
  9
$USERI2
 70
     0
  9
$USERI3
 70
     0
  9
$USERI4
 70
     0
  9
$USERI5
 70
     0
  9
$USERR1
 40
0.0
  9
$USERR2
 40
0.0
  9
$USERR3
 40
0.0
  9
$USERR4
 40
0.0
  9
$USERR5
 40
0.0
  9
$WORLDVIEW
 70
     1
  9
$SHADEDGE
 70
     3
  9
$SHADEDIF
 70
    70
  9
$TILEMODE
 70
     1
  9
$MAXACTVP
 70
    64
  9
$PINSBASE
 10
0.0
 20
0.0
 30
0.0
  9
$PLIMCHECK
 70
     0
  9
$PEXTMIN
 10
1.000000000000000E+20
 20
1.000000000000000E+20
 30
1.000000000000000E+20
  9
$PEXTMAX
 10
-1.000000000000000E+20
 20
-1.000000000000000E+20
 30
-1.000000000000000E+20
  9
$PLIMMIN
 10
0.0
 20
0.0
  9
$PLIMMAX
 10
420.0
 20
297.0
  9
$UNITMODE
 70
     0
  9
$VISRETAIN
 70
     1
  9
$PLINEGEN
 70
     0
  9
$PSLTSCALE
 70
     1
  9
$TREEDEPTH
 70
  3020
  9
$CMLSTYLE
  2
Standard
  9
$CMLJUST
 70
     0
  9
$CMLSCALE
 40
20.0
  9
$PROXYGRAPHICS
 70
     1
  9
$MEASUREMENT
 70
     1
  9
$CELWEIGHT
370
    -1
  9
$ENDCAPS
280
     0
  9
$JOINSTYLE
280
     0
  9
$LWDISPLAY
290
     0
  9
$INSUNITS
 70
     4
  9
$HYPERLINKBASE
  1

  9
$STYLESHEET
  1

  9
$XEDIT
290
     1
  9
$CEPSNTYPE
380
     0
  9
$PSTYLEMODE
290
     1
  9
$FINGERPRINTGUID
  2
{BD1CFFD0-150B-4483-9444-9467670F642B}
  9
$VERSIONGUID
  2
{FAEB1C32-E019-11D5-929B-00C0DF256EC4}
  9
$EXTNAMES
290
     1
  9
$PSVPSCALE
 40
0.0
  9
$OLESTARTUP
290
     0
  9
$SORTENTS
280
   127
  9
$INDEXCTL
280
     0
  9
$HIDETEXT
280
     1
  9
$XCLIPFRAME
290
     0
  9
$HALOGAP
280
     0
  9
$OBSCOLOR
 70
   257
  9
$OBSLTYPE
280
     0
  9
$INTERSECTIONDISPLAY
280
     0
  9
$INTERSECTIONCOLOR
 70
   257
  9
$DIMASSOC
280
     2
  9
$PROJECTNAME
  1

  0
ENDSEC
  0
SECTION
  2
CLASSES
  0
CLASS
  1
ACDBDICTIONARYWDFLT
  2
AcDbDictionaryWithDefault
  3
ObjectDBX Classes
 90
        0
 91
        4
280
     0
281
     0
  0
CLASS
  1
VISUALSTYLE
  2
AcDbVisualStyle
  3
ObjectDBX Classes
 90
     4095
 91
        4
280
     0
281
     0
  0
CLASS
  1
MATERIAL
  2
AcDbMaterial
  3
ObjectDBX Classes
 90
     1153
 91
        4
280
     0
281
     0
  0
CLASS
  1
SCALE
  2
AcDbScale
  3
ObjectDBX Classes
 90
     1153
 91
        4
280
     0
281
     0
  0
CLASS
  1
TABLESTYLE
  2
AcDbTableStyle
  3
ObjectDBX Classes
 90
     4095
 91
        4
280
     0
281
     0
  0
CLASS
  1
MLEADERSTYLE
  2
AcDbMLeaderStyle
  3
ACDB_MLEADERSTYLE_CLASS
 90
     4095
 91
        4
280
     0
281
     0
  0
CLASS
  1
SUN
  2
AcDbSun
  3
SCENEOE
 90
     1153
 91
        4
280
     0
281
     0
  0
CLASS
  1
DICTIONARYVAR
  2
AcDbDictionaryVar
  3
ObjectDBX Classes
 90
        0
 91
        4
280
     0
281
     0
  0
CLASS
  1
CELLSTYLEMAP
  2
AcDbCellStyleMap
  3
ObjectDBX Classes
 90
     1152
 91
        4
280
     0
281
     0
  0
ENDSEC
  0
SECTION
  2
TABLES
  0
TABLE
  2
VPORT
  5
8
102
{ACAD_XDICTIONARY
360
34C
102
}
330
0
100
AcDbSymbolTable
 70
     1
  0
VPORT
  5
29
330
8
100
AcDbSymbolTableRecord
100
AcDbViewportTableRecord
  2
*Active
 70
     0
 10
0.0
 20
0.0
 11
1.0
 21
1.0
 12
0.0
 22
0.0
 13
0.0
 23
0.0
 14
10.0
 24
10.0
 15
10.0
 25
10.0
 16
0.0
 26
0.0
 36
1.0
 17
0.0
 27
0.0
 37
0.0
 40
980.1
 41
1.414141414141414
 42
50.0
 43
0.0
 44
0.0
 50
0.0
 51
0.0
 71
     0
 72
 10000
 73
     1
 74
     3
 75
     0
 76
     0
 77
     0
 78
     0
281
     0
 65
     1
110
0.0
120
0.0
130
0.0
111
1.0
121
0.0
131
0.0
112
0.0
122
1.0
132
0.0
 79
     0
146
0.0
  0
ENDTAB
  0
TABLE
  2
LTYPE
  5
5
330
0
100
AcDbSymbolTable
 70
     4
  0
LTYPE
  5
14
330
5
100
AcDbSymbolTableRecord
100
AcDbLinetypeTableRecord
  2
ByBlock
 70
     0
  3

 72
    65
 73
     0
 40
0.0
  0
LTYPE
  5
15
330
5
100
AcDbSymbolTableRecord
100
AcDbLinetypeTableRecord
  2
ByLayer
 70
     0
  3

 72
    65
 73
     0
 40
0.0
  0
LTYPE
  5
16
330
5
100
AcDbSymbolTableRecord
100
AcDbLinetypeTableRecord
  2
Continuous
 70
     0
  3
Solid line
 72
    65
 73
     0
 40
0.0
  0
LTYPE
  5
6F
330
5
100
AcDbSymbolTableRecord
100
AcDbLinetypeTableRecord
  2
JWW_DASHED1
 70
     0
  3
-  --  --  --  --  --  --  --  -
 72
    65
 73
     2
 40
1.693333333333333
 49
0.8466666666666667
 74
     0
 49
-0.8466666666666667
 74
     0
  0
LTYPE
  5
70
330
5
100
AcDbSymbolTableRecord
100
AcDbLinetypeTableRecord
  2
JWW_PHANTOM1
 70
     0
  3
----  -  -  --------  -  -  ----
 72
    65
 73
     6
 40
6.773333333333333
 49
3.386666666666667
 74
     0
 49
-0.8466666666666667
 74
     0
 49
0.4233333333333333
 74
     0
 49
-0.8466666666666667
 74
     0
 49
0.4233333333333333
 74
     0
 49
-0.8466666666666667
 74
     0
  0
LTYPE
  5
71
330
5
100
AcDbSymbolTableRecord
100
AcDbLinetypeTableRecord
  2
JWW_CENTER1
 70
     0
  3
-----  --  ----------  --  -----
 72
    65
 73
     4
 40
6.773333333333333
 49
4.233333333333333
 74
     0
 49
-0.8466666666666667
 74
     0
 49
0.8466666666666667
 74
     0
 49
-0.8466666666666667
 74
     0
  0
ENDTAB
  0
TABLE
  2
LAYER
  5
2
330
0
100
AcDbSymbolTable
 70
    10
  0
LAYER
  5
10
330
2
100
AcDbSymbolTableRecord
100
AcDbLayerTableRecord
  2
0
 70
     0
 62
     7
  6
Continuous
370
    -3
390
F
  0
LAYER
  5
72
330
2
100
AcDbSymbolTableRecord
100
AcDbLayerTableRecord
  2
F-4
 70
     0
 62
     7
  6
Continuous
370
    -3
390
F
  0
LAYER
  5
73
330
2
100
AcDbSymbolTableRecord
100
AcDbLayerTableRecord
  2
F-5
 70
     0
 62
     7
  6
Continuous
370
    -3
390
F
  0
LAYER
  5
74
330
2
100
AcDbSymbolTableRecord
100
AcDbLayerTableRecord
  2
0-0
 70
     0
 62
     7
  6
Continuous
370
    -3
390
F
  0
LAYER
  5
75
330
2
100
AcDbSymbolTableRecord
100
AcDbLayerTableRecord
  2
0-3
 70
     0
 62
     7
  6
Continuous
370
    -3
390
F
  0
LAYER
  5
76
330
2
100
AcDbSymbolTableRecord
100
AcDbLayerTableRecord
  2
0-1
 70
     0
 62
     7
  6
Continuous
370
    -3
390
F
  0
LAYER
  5
77
330
2
100
AcDbSymbolTableRecord
100
AcDbLayerTableRecord
  2
0-2
 70
     0
 62
     7
  6
Continuous
370
    -3
390
F
  0
LAYER
  5
78
330
2
100
AcDbSymbolTableRecord
100
AcDbLayerTableRecord
  2
0-5
 70
     0
 62
     7
  6
Continuous
370
    -3
390
F
  0
LAYER
  5
79
330
2
100
AcDbSymbolTableRecord
100
AcDbLayerTableRecord
  2
0-4
 70
     0
 62
     7
  6
Continuous
370
    -3
390
F
  0
LAYER
  5
7A
330
2
100
AcDbSymbolTableRecord
100
AcDbLayerTableRecord
  2
F-0
 70
     0
 62
     7
  6
Continuous
370
    -3
390
F
  0
ENDTAB
  0
TABLE
  2
STYLE
  5
3
330
0
100
AcDbSymbolTable
 70
     2
  0
STYLE
  5
11
330
3
100
AcDbSymbolTableRecord
100
AcDbTextStyleTableRecord
  2
Standard
 70
     0
 40
0.0
 41
1.0
 50
0.0
 71
     0
 42
2.5
  3
txt
  4

  0
STYLE
  5
6E
330
3
100
AcDbSymbolTableRecord
100
AcDbTextStyleTableRecord
  2
ＭＳ ゴシック
 70
     0
 40
1.0
 41
1.0
 50
0.0
 71
     0
 42
2.5
  3

  4

1001
ACAD
1000
MS Gothic
1071
    32817
  0
ENDTAB
  0
TABLE
  2
VIEW
  5
6
330
0
100
AcDbSymbolTable
 70
     0
  0
ENDTAB
  0
TABLE
  2
UCS
  5
7
330
0
100
AcDbSymbolTable
 70
     0
  0
ENDTAB
  0
TABLE
  2
APPID
  5
9
330
0
100
AcDbSymbolTable
 70
     2
  0
APPID
  5
12
330
9
100
AcDbSymbolTableRecord
100
AcDbRegAppTableRecord
  2
ACAD
 70
     0
  0
APPID
  5
38B
330
9
100
AcDbSymbolTableRecord
100
AcDbRegAppTableRecord
  2
ACAD_MLEADERVER
 70
     0
  0
ENDTAB
  0
TABLE
  2
DIMSTYLE
  5
A
330
0
100
AcDbSymbolTable
 70
     1
100
AcDbDimStyleTable
  0
DIMSTYLE
105
27
330
A
100
AcDbSymbolTableRecord
100
AcDbDimStyleTableRecord
  2
ISO-25
 70
     0
 41
2.5
 42
0.625
 43
3.75
 44
1.25
 73
     0
 74
     0
 77
     1
 78
     8
140
2.5
141
2.5
143
0.03937007874016
147
0.625
171
     3
172
     1
178
     0
271
     2
272
     2
274
     3
278
    44
283
     0
284
     8
340
11
  0
ENDTAB
  0
TABLE
  2
BLOCK_RECORD
  5
1
330
0
100
AcDbSymbolTable
 70
     1
  0
BLOCK_RECORD
  5
1F
330
1
100
AcDbSymbolTableRecord
100
AcDbBlockTableRecord
  2
*Model_Space
340
22
  0
BLOCK_RECORD
  5
1B
330
1
100
AcDbSymbolTableRecord
100
AcDbBlockTableRecord
  2
*Paper_Space
340
1E
  0
BLOCK_RECORD
  5
23
330
1
100
AcDbSymbolTableRecord
100
AcDbBlockTableRecord
  2
*Paper_Space0
340
26
  0
ENDTAB
  0
ENDSEC
  0
SECTION
  2
BLOCKS
  0
BLOCK
  5
20
330
1F
100
AcDbEntity
  8
0
100
AcDbBlockBegin
  2
*Model_Space
 70
     0
 10
0.0
 20
0.0
 30
0.0
  3
*Model_Space
  1

  0
ENDBLK
  5
21
330
1F
100
AcDbEntity
  8
0
100
AcDbBlockEnd
  0
BLOCK
  5
1C
330
1B
100
AcDbEntity
 67
     1
  8
0
100
AcDbBlockBegin
  2
*Paper_Space
 70
     0
 10
0.0
 20
0.0
 30
0.0
  3
*Paper_Space
  1

  0
ENDBLK
  5
1D
330
1B
100
AcDbEntity
 67
     1
  8
0
100
AcDbBlockEnd
  0
BLOCK
  5
24
330
23
100
AcDbEntity
  8
0
100
AcDbBlockBegin
  2
*Paper_Space0
 70
     0
 10
0.0
 20
0.0
 30
0.0
  3
*Paper_Space0
  1

  0
ENDBLK
  5
25
330
23
100
AcDbEntity
  8
0
100
AcDbBlockEnd
  0
ENDSEC
  0
SECTION
  2
ENTITIES
  0
TEXT
  5
7B
330
1F
100
AcDbEntity
  8
F-4
  6
Continuous
 62
     2
370
     9
100
AcDbText
 10
-38.40483884127262
 20
-331.9742954739348
 30
0.0
 40
9.144
  1
鋳鉄製高耐食性ルーフドレン　たて引き用　打込型　ねじ込み式
 41
0.75
  7
ＭＳ ゴシック
100
AcDbText
  0
TEXT
  5
7C
330
1F
100
AcDbEntity
  8
F-5
  6
Continuous
 62
     2
370
     9
100
AcDbText
 10
-48.1109875323322
 20
-272.3879249673964
 30
0.0
 40
9.144
  1
※ご注文の際はＣ寸法をご指示ください。
 41
1.118421052631579
  7
ＭＳ ゴシック
100
AcDbText
  0
TEXT
  5
7D
330
1F
100
AcDbEntity
  8
F-4
  6
Continuous
 62
     2
370
     9
100
AcDbText
 10
-38.00914357271789
 20
-345.7406526931133
 30
0.0
 40
9.144
  1
アスファルト・シート防水用　ＥＳＲ－２Ｒ－１００　Ｃ＝指示
 41
0.75
  7
ＭＳ ゴシック
100
AcDbText
  0
LINE
  5
7E
330
1F
100
AcDbEntity
  8
0-0
  6
Continuous
 62
     3
370
     9
100
AcDbLine
 10
-155.3613618896406
 20
-0.6361958568160873
 30
0.0
 11
-152.3613519920477
 21
-0.6361958568160873
 31
0.0
  0
LINE
  5
7F
330
1F
100
AcDbEntity
  8
0-0
  6
Continuous
 62
     3
370
     9
100
AcDbLine
 10
-128.34657488584
 20
-2.444671660500617
 30
0.0
 11
-123.3760779606922
 21
-3.776504133843119
 31
0.0
  0
LINE
  5
80
330
1F
100
AcDbEntity
  8
0-0
  6
Continuous
 62
     3
370
     9
100
AcDbLine
 10
-138.6078795865367
 20
3.410670070390481
 30
0.0
 11
-135.7100870796744
 21
2.634203906961417
 31
0.0
  0
LINE
  5
81
330
1F
100
AcDbEntity
  8
0-0
  6
Continuous
 62
     3
370
     9
100
AcDbLine
 10
-130.5114753820393
 20
1.241241425436883
 30
0.0
 11
-132.8123688047589
 21
1.857737743532354
 31
0.0
  0
LINE
  5
82
330
1F
100
AcDbEntity
  8
0-0
  6
Continuous
 62
     3
370
     9
100
AcDbLine
 10
-129.7906831787031
 20
0.4757987061062607
 30
0.0
 11
-129.4279858866845
 21
-1.29652613949132
 31
0.0
  0
LINE
  5
83
330
1F
100
AcDbEntity
  8
0-0
  6
Continuous
 62
     3
370
     9
100
AcDbLine
 10
-120.665349959742
 20
-1.969290273253975
 30
0.0
 11
-121.8655320754515
 21
-3.322835591032728
 31
0.0
  0
LINE
  5
84
330
1F
100
AcDbEntity
  8
0-0
  6
Continuous
 62
     3
370
     9
100
AcDbLine
 10
-117.3574259468619
 20
-2.283365640124757
 30
0.0
 11
-119.6583193695814
 21
-1.666869322029285
 31
0.0
  0
LINE
  5
85
330
1F
100
AcDbEntity
  8
0-0
  6
Continuous
 62
     3
370
     9
100
AcDbLine
 10
-153.3613305472631
 20
7.363818164773917
 30
0.0
 11
-141.5056720933991
 21
4.187136233819544
 31
0.0
  0
LINE
  5
86
330
1F
100
AcDbEntity
  8
0-0
  6
Continuous
 62
     3
370
     9
100
AcDbLine
 10
-134.5316549243746
 20
-1.822682178342646
 30
0.0
 11
-143.7194172105866
 21
0.6391461050188383
 31
0.0
  0
LINE
  5
87
330
1F
100
AcDbEntity
  8
0-0
  6
Continuous
 62
     3
370
     9
100
AcDbLine
 10
-132.8511178809835
 20
-4.52041958860444
 30
0.0
 11
-133.0898478218619
 21
-3.353530501030619
 31
0.0
  0
LINE
  5
88
330
1F
100
AcDbEntity
  8
0-0
  6
JWW_DASHED1
 62
     3
370
     9
100
AcDbLine
 10
-122.0233491943281
 20
-8.28004499770499
 30
0.0
 11
-131.769706880139
 21
-5.668565109613738
 31
0.0
  0
LINE
  5
89
330
1F
100
AcDbEntity
  8
0-0
  6
JWW_DASHED1
 62
     3
370
     9
100
AcDbLine
 10
-120.5128775410342
 20
-7.826339338921244
 30
0.0
 11
-119.7227526993957
 21
-6.935296165620926
 31
0.0
  0
LINE
  5
8A
330
1F
100
AcDbEntity
  8
0-0
  6
Continuous
 62
     3
370
     9
100
AcDbLine
 10
-155.3613618896406
 20
-0.6361958568160873
 30
0.0
 11
-154.3613833344253
 21
7.363818164773917
 31
0.0
  0
LINE
  5
8B
330
1F
100
AcDbEntity
  8
0-0
  6
Continuous
 62
     3
370
     9
100
AcDbLine
 10
-107.8781548056035
 20
-32.63617771122905
 30
0.0
 11
-112.8613453936525
 21
-32.63617771122905
 31
0.0
  0
LINE
  5
8C
330
1F
100
AcDbEntity
  8
0-0
  6
Continuous
 62
     3
370
     9
100
AcDbLine
 10
-114.1697576877825
 20
-23.91366415152679
 30
0.0
 11
-112.8613453936525
 21
-32.63617771122905
 31
0.0
  0
LINE
  5
8D
330
1F
100
AcDbEntity
  8
0-0
  6
Continuous
 62
     3
370
     9
100
AcDbLine
 10
-105.508077208475
 20
-50.79501923097148
 30
0.0
 11
-106.8812197602064
 21
-33.55676519935194
 31
0.0
  0
LINE
  5
8E
330
1F
100
AcDbEntity
  8
0-0
  6
JWW_DASHED1
 62
     3
370
     9
100
AcDbLine
 10
-110.2307136632893
 20
-10.40040632582999
 30
0.0
 11
-108.4593909489734
 21
-32.63617771122905
 31
0.0
  0
LINE
  5
8F
330
1F
100
AcDbEntity
  8
0-0
  6
JWW_DASHED1
 62
     3
370
     9
100
AcDbLine
 10
-112.444755708264
 20
-7.740824136218507
 30
0.0
 11
-117.7086915190747
 21
-6.330342915251478
 31
0.0
  0
LINE
  5
90
330
1F
100
AcDbEntity
  8
0-0
  6
Continuous
 62
     3
370
     9
100
AcDbLine
 10
-107.1440750837918
 20
-5.019963474531394
 30
0.0
 11
-114.4597076719464
 21
-3.05983180355382
 31
0.0
  0
LINE
  5
91
330
1F
100
AcDbEntity
  8
0-0
  6
JWW_DASHED1
 62
     3
370
     9
100
AcDbLine
 10
-104.5726062150207
 20
-12.16593894829624
 30
0.0
 11
-104.9299588068704
 21
-7.679545664142879
 31
0.0
  0
LINE
  5
92
330
1F
100
AcDbEntity
  8
0-0
  6
JWW_DASHED1
 62
     3
370
     9
100
AcDbLine
 10
-96.48904413731802
 20
-15.51105316651835
 30
0.0
 11
-101.9128755615156
 21
-14.90940323778101
 31
0.0
  0
LINE
  5
93
330
1F
100
AcDbEntity
  8
0-0
  6
Continuous
 62
     3
370
     9
100
AcDbLine
 10
-100.3613536416465
 20
-20.63617523683085
 30
0.0
 11
-100.3613536416465
 21
-31.6361620400403
 31
0.0
  0
LINE
  5
94
330
1F
100
AcDbEntity
  8
0-0
  6
JWW_DASHED1
 62
     3
370
     9
100
AcDbLine
 10
-95.17484175133825
 20
-16.7553290586214
 30
0.0
 11
-94.52798456700552
 21
-20.63617523683085
 31
0.0
  0
LINE
  5
95
330
1F
100
AcDbEntity
  8
0-0
  6
Continuous
 62
     3
370
     9
100
AcDbLine
 10
-100.3613536416465
 20
-20.63617523683085
 30
0.0
 11
14.63862986236535
 21
-20.63617523683085
 31
0.0
  0
LINE
  5
96
330
1F
100
AcDbEntity
  8
0-0
  6
Continuous
 62
     3
370
     9
100
AcDbLine
 10
-91.74888894306122
 20
-7.008229053342646
 30
0.0
 11
-89.99040835554013
 21
-20.63617523683085
 31
0.0
  0
LINE
  5
97
330
1F
100
AcDbEntity
  8
0-0
  6
Continuous
 62
     3
370
     9
100
AcDbLine
 10
-99.37636993968286
 20
-52.63619420721726
 30
0.0
 11
-98.06380065653246
 21
-31.6361620400403
 31
0.0
  0
LINE
  5
98
330
1F
100
AcDbEntity
  8
0-0
  6
Continuous
 62
     3
370
     9
100
AcDbLine
 10
14.63862986236535
 20
-31.6361620400403
 30
0.0
 11
-100.3613536416465
 21
-31.6361620400403
 31
0.0
  0
LINE
  5
99
330
1F
100
AcDbEntity
  8
0-0
  6
Continuous
 62
     3
370
     9
100
AcDbLine
 10
-103.5143555815747
 20
-52.63619420721726
 30
0.0
 11
17.79163180229355
 21
-52.63619420721726
 31
0.0
  0
LINE
  5
9A
330
1F
100
AcDbEntity
  8
0-0
  6
Continuous
 62
     3
370
     9
100
AcDbLine
 10
69.63863811035941
 20
-0.6361958568160873
 30
0.0
 11
66.63862821276652
 21
-0.6361958568160873
 31
0.0
  0
LINE
  5
9B
330
1F
100
AcDbEntity
  8
0-0
  6
Continuous
 62
     3
370
     9
100
AcDbLine
 10
52.88515580725549
 20
3.410670070390481
 30
0.0
 11
49.98736330039315
 21
2.634203906961417
 31
0.0
  0
LINE
  5
9C
330
1F
100
AcDbEntity
  8
0-0
  6
Continuous
 62
     3
370
     9
100
AcDbLine
 10
67.63860676798183
 20
7.363818164773917
 30
0.0
 11
55.78294831411784
 21
4.187136233819544
 31
0.0
  0
LINE
  5
9D
330
1F
100
AcDbEntity
  8
0-0
  6
Continuous
 62
     3
370
     9
100
AcDbLine
 10
48.8089311450933
 20
-1.822682178342646
 30
0.0
 11
57.99669343130534
 21
0.6391461050188383
 31
0.0
  0
LINE
  5
9E
330
1F
100
AcDbEntity
  8
0-0
  6
Continuous
 62
     3
370
     9
100
AcDbLine
 10
47.1283941017023
 20
-4.52041958860444
 30
0.0
 11
47.36712404258066
 21
-3.353530501030619
 31
0.0
  0
LINE
  5
9F
330
1F
100
AcDbEntity
  8
0-0
  6
Continuous
 62
     3
370
     9
100
AcDbLine
 10
36.30062541504691
 20
-8.28004499770499
 30
0.0
 11
46.04698310085769
 21
-5.668565109613738
 31
0.0
  0
LINE
  5
A0
330
1F
100
AcDbEntity
  8
0-0
  6
Continuous
 62
     3
370
     9
100
AcDbLine
 10
34.790153761753
 20
-7.826339338921244
 30
0.0
 11
34.00002892011449
 21
-6.935296165620926
 31
0.0
  0
LINE
  5
A1
330
1F
100
AcDbEntity
  8
0-0
  6
Continuous
 62
     3
370
     9
100
AcDbLine
 10
69.63863811035941
 20
-0.6361958568160873
 30
0.0
 11
68.63865955514402
 21
7.363818164773917
 31
0.0
  0
LINE
  5
A2
330
1F
100
AcDbEntity
  8
0-0
  6
JWW_PHANTOM1
 62
     3
370
     9
100
AcDbLine
 10
28.44703390850128
 20
-23.91366415152679
 30
0.0
 11
27.1386216143712
 21
-32.63617771122905
 31
0.0
  0
LINE
  5
A3
330
1F
100
AcDbEntity
  8
0-0
  6
Continuous
 62
     3
370
     9
100
AcDbLine
 10
19.78535342919386
 20
-50.79501923097148
 30
0.0
 11
21.15849598092527
 21
-33.55676519935194
 31
0.0
  0
LINE
  5
A4
330
1F
100
AcDbEntity
  8
0-0
  6
JWW_PHANTOM1
 62
     3
370
     9
100
AcDbLine
 10
43.32846074549457
 20
-21.35622512069905
 30
0.0
 11
45.46693466863644
 21
-6.936075601062257
 31
0.0
  0
LINE
  5
A5
330
1F
100
AcDbEntity
  8
0-0
  6
Continuous
 62
     3
370
     9
100
AcDbLine
 10
24.50798988400808
 20
-10.40040632582999
 30
0.0
 11
22.73666716969214
 21
-32.63617771122905
 31
0.0
  0
LINE
  5
A6
330
1F
100
AcDbEntity
  8
0-0
  6
Continuous
 62
     3
370
     9
100
AcDbLine
 10
26.72203192898269
 20
-7.740824136218507
 30
0.0
 11
31.98596773979355
 21
-6.330342915251478
 31
0.0
  0
LINE
  5
A7
330
1F
100
AcDbEntity
  8
0-0
  6
Continuous
 62
     3
370
     9
100
AcDbLine
 10
14.63862986236535
 20
-20.63617523683085
 30
0.0
 11
14.63862986236535
 21
-31.6361620400403
 31
0.0
  0
LINE
  5
A8
330
1F
100
AcDbEntity
  8
0-0
  6
Continuous
 62
     3
370
     9
100
AcDbLine
 10
13.65364616040159
 20
-52.63619420721726
 30
0.0
 11
12.34107687725128
 21
-31.6361620400403
 31
0.0
  0
LINE
  5
A9
330
1F
100
AcDbEntity
  8
0-0
  6
JWW_PHANTOM1
 62
     3
370
     9
100
AcDbLine
 10
41.84471259304519
 20
-22.63620657920835
 30
0.0
 11
29.93041090121667
 21
-22.63620657920835
 31
0.0
  0
LINE
  5
AA
330
1F
100
AcDbEntity
  8
0-0
  6
Continuous
 62
     3
370
     9
100
AcDbLine
 10
22.15543102632222
 20
-32.63617771122905
 30
0.0
 11
22.73666716969214
 21
-32.63617771122905
 31
0.0
  0
LINE
  5
AB
330
1F
100
AcDbEntity
  8
0-0
  6
JWW_PHANTOM1
 62
     3
370
     9
100
AcDbLine
 10
22.73666716969214
 20
-32.63617771122905
 30
0.0
 11
27.1386216143712
 21
-32.63617771122905
 31
0.0
  0
LINE
  5
AC
330
1F
100
AcDbEntity
  8
0-0
  6
Continuous
 62
     3
370
     9
100
AcDbLine
 10
44.78867737081129
 20
1.241241425436883
 30
0.0
 11
47.08964502547761
 21
1.857737743532354
 31
0.0
  0
LINE
  5
AD
330
1F
100
AcDbEntity
  8
0-0
  6
Continuous
 62
     3
370
     9
100
AcDbLine
 10
44.06795939942191
 20
0.4757615901328194
 30
0.0
 11
43.70526210740331
 21
-1.29652613949132
 31
0.0
  0
LINE
  5
AE
330
1F
100
AcDbEntity
  8
0-0
  6
Continuous
 62
     3
370
     9
100
AcDbLine
 10
42.6238511065587
 20
-2.444671660500617
 30
0.0
 11
37.65342841335769
 21
-3.776504133843119
 31
0.0
  0
LINE
  5
AF
330
1F
100
AcDbEntity
  8
0-0
  6
Continuous
 62
     3
370
     9
100
AcDbLine
 10
34.94262618046073
 20
-1.969290273253975
 30
0.0
 11
36.14280829617019
 21
-3.322835591032728
 31
0.0
  0
LINE
  5
B0
330
1F
100
AcDbEntity
  8
0-0
  6
Continuous
 62
     3
370
     9
100
AcDbLine
 10
31.63470216758066
 20
-2.283365640124757
 30
0.0
 11
33.93559559030027
 21
-1.666869322029285
 31
0.0
  0
LINE
  5
B1
330
1F
100
AcDbEntity
  8
0-0
  6
Continuous
 62
     3
370
     9
100
AcDbLine
 10
21.42135130451058
 20
-5.019963474531394
 30
0.0
 11
28.73698389266511
 21
-3.05983180355382
 31
0.0
  0
LINE
  5
B2
330
1F
100
AcDbEntity
  8
0-0
  6
Continuous
 62
     3
370
     9
100
AcDbLine
 10
18.84988243573949
 20
-12.1659018323228
 30
0.0
 11
19.20723502758909
 21
-7.679545664142879
 31
0.0
  0
LINE
  5
B3
330
1F
100
AcDbEntity
  8
0-0
  6
Continuous
 62
     3
370
     9
100
AcDbLine
 10
9.452117972057065
 20
-16.7553290586214
 30
0.0
 11
8.805260787724249
 21
-20.63617523683085
 31
0.0
  0
LINE
  5
B4
330
1F
100
AcDbEntity
  8
0-0
  6
Continuous
 62
     3
370
     9
100
AcDbLine
 10
10.76632035803675
 20
-15.51105316651835
 30
0.0
 11
16.19015178223441
 21
-14.90940323778101
 31
0.0
  0
LINE
  5
B5
330
1F
100
AcDbEntity
  8
0-0
  6
Continuous
 62
     3
370
     9
100
AcDbLine
 10
-97.79875549051684
 20
-51.05854264207788
 30
0.0
 11
-96.58480334867778
 21
-31.6361620400403
 31
0.0
  0
LINE
  5
B6
330
1F
100
AcDbEntity
  8
0-0
  6
Continuous
 62
     3
370
     9
100
AcDbLine
 10
-99.37636993968286
 20
-52.63619420721726
 30
0.0
 11
-97.79875549051684
 21
-51.05854264207788
 31
0.0
  0
LINE
  5
B7
330
1F
100
AcDbEntity
  8
0-0
  6
Continuous
 62
     3
370
     9
100
AcDbLine
 10
13.65364616040159
 20
-52.63619420721726
 30
0.0
 11
12.0760688272091
 21
-51.05854264207788
 31
0.0
  0
LINE
  5
B8
330
1F
100
AcDbEntity
  8
0-0
  6
Continuous
 62
     3
370
     9
100
AcDbLine
 10
-97.79875549051684
 20
-51.05854264207788
 30
0.0
 11
12.0760688272091
 21
-51.05854264207788
 31
0.0
  0
LINE
  5
B9
330
1F
100
AcDbEntity
  8
0-0
  6
Continuous
 62
     3
370
     9
100
AcDbLine
 10
12.0760688272091
 20
-51.05854264207788
 30
0.0
 11
10.8620795693966
 21
-31.6361620400403
 31
0.0
  0
LINE
  5
BA
330
1F
100
AcDbEntity
  8
0-3
  6
Continuous
 62
     7
370
     9
100
AcDbLine
 10
-117.974738816372
 20
-70.29103792422526
 30
0.0
 11
-104.187639338965
 21
-67.85994166683507
 31
0.0
  0
LINE
  5
BB
330
1F
100
AcDbEntity
  8
0-3
  6
Continuous
 62
     7
370
     9
100
AcDbLine
 10
-117.2800762583061
 20
-74.2302304126121
 30
0.0
 11
-103.4931252447926
 21
-71.79920838716866
 31
0.0
  0
LINE
  5
BC
330
1F
100
AcDbEntity
  8
0-3
  6
Continuous
 62
     7
370
     9
100
AcDbLine
 10
17.5252875772091
 20
-70.29103792422526
 30
0.0
 11
31.31246128656292
 21
-67.85994166683507
 31
0.0
  0
LINE
  5
BD
330
1F
100
AcDbEntity
  8
0-3
  6
Continuous
 62
     7
370
     9
100
AcDbLine
 10
18.21995013527496
 20
-74.2302304126121
 30
0.0
 11
32.00690114878847
 21
-71.79920838716866
 31
0.0
  0
LINE
  5
BE
330
1F
100
AcDbEntity
  8
0-3
  6
Continuous
 62
     4
370
     9
100
AcDbLine
 10
27.1386216143712
 20
-72.65758950388108
 30
0.0
 11
27.1386216143712
 21
-92.63611585127339
 31
0.0
  0
LINE
  5
BF
330
1F
100
AcDbEntity
  8
0-3
  6
Continuous
 62
     4
370
     9
100
AcDbLine
 10
22.63875523187542
 20
-73.45105478312519
 30
0.0
 11
22.63875523187542
 21
-92.63611585127339
 31
0.0
  0
LINE
  5
C0
330
1F
100
AcDbEntity
  8
0-3
  6
Continuous
 62
     4
370
     9
100
AcDbLine
 10
-108.3614047792099
 20
-32.63614059525565
 30
0.0
 11
-108.3614047792099
 21
-68.59591430328987
 31
0.0
  0
LINE
  5
C1
330
1F
100
AcDbEntity
  8
0-3
  6
Continuous
 62
     4
370
     9
100
AcDbLine
 10
-112.8613453936525
 20
-32.63614059525565
 30
0.0
 11
-112.8613453936525
 21
-69.38937958253398
 31
0.0
  0
LINE
  5
C2
330
1F
100
AcDbEntity
  8
0-3
  6
Continuous
 62
     4
370
     9
100
AcDbLine
 10
27.1386216143712
 20
-32.63614059525565
 30
0.0
 11
27.1386216143712
 21
-68.59591430328987
 31
0.0
  0
LINE
  5
C3
330
1F
100
AcDbEntity
  8
0-3
  6
Continuous
 62
     4
370
     9
100
AcDbLine
 10
22.63875523187542
 20
-32.63614059525565
 30
0.0
 11
22.63875523187542
 21
-69.38937958253398
 31
0.0
  0
LINE
  5
C4
330
1F
100
AcDbEntity
  8
0-3
  6
Continuous
 62
     4
370
     9
100
AcDbLine
 10
22.63875523187542
 20
-32.63614059525565
 30
0.0
 11
27.1386216143712
 21
-32.63614059525565
 31
0.0
  0
LINE
  5
C5
330
1F
100
AcDbEntity
  8
0-3
  6
Continuous
 62
     4
370
     9
100
AcDbLine
 10
-108.3614047792099
 20
-32.63614059525565
 30
0.0
 11
-112.8613453936525
 21
-32.63614059525565
 31
0.0
  0
LINE
  5
C6
330
1F
100
AcDbEntity
  8
0-3
  6
Continuous
 62
     4
370
     9
100
AcDbLine
 10
-108.3614047792099
 20
-72.65758950388108
 30
0.0
 11
-108.3614047792099
 21
-92.63611585127339
 31
0.0
  0
LINE
  5
C7
330
1F
100
AcDbEntity
  8
0-3
  6
Continuous
 62
     4
370
     9
100
AcDbLine
 10
27.1386216143712
 20
-92.63611585127339
 30
0.0
 11
-112.8613453936525
 21
-92.63611585127339
 31
0.0
  0
LINE
  5
C8
330
1F
100
AcDbEntity
  8
0-3
  6
Continuous
 62
     4
370
     9
100
AcDbLine
 10
-112.8613453936525
 20
-73.45105478312519
 30
0.0
 11
-112.8613453936525
 21
-92.63611585127339
 31
0.0
  0
LINE
  5
C9
330
1F
100
AcDbEntity
  8
0-0
  6
JWW_DASHED1
 62
     3
370
     9
100
AcDbLine
 10
-115.6531346804979
 20
-22.63620657920835
 30
0.0
 11
-110.641216329041
 21
-22.63620657920835
 31
0.0
  0
LINE
  5
CA
330
1F
100
AcDbEntity
  8
0-0
  6
Continuous
 62
     3
370
     9
100
AcDbLine
 10
-129.0511845247757
 20
-21.35622512069905
 30
0.0
 11
-131.1896584479176
 21
-6.936075601062257
 31
0.0
  0
LINE
  5
CB
330
1F
100
AcDbEntity
  8
0-0
  6
Continuous
 62
     3
370
     9
100
AcDbLine
 10
-136.8612389945287
 20
-39.63617606163022
 30
0.0
 11
-136.8612389945287
 21
-45.63619585681604
 31
0.0
  0
LINE
  5
CC
330
1F
100
AcDbEntity
  8
0-0
  6
Continuous
 62
     3
370
     9
100
AcDbLine
 10
-120.6862833687369
 20
-15.43615313220671
 30
0.0
 11
-127.0362325610933
 21
-15.43615313220671
 31
0.0
  0
LINE
  5
CD
330
1F
100
AcDbEntity
  8
0-0
  6
Continuous
 62
     3
370
     9
100
AcDbLine
 10
-120.6862833687369
 20
-15.43615313220671
 30
0.0
 11
-121.501350144497
 21
-14.63615544164499
 31
0.0
  0
LINE
  5
CE
330
1F
100
AcDbEntity
  8
0-0
  6
Continuous
 62
     3
370
     9
100
AcDbLine
 10
-126.2213142492268
 20
-14.63615544164499
 30
0.0
 11
-127.0362325610933
 21
-15.43615313220671
 31
0.0
  0
LINE
  5
CF
330
1F
100
AcDbEntity
  8
0-0
  6
Continuous
 62
     3
370
     9
100
AcDbLine
 10
-121.501350144497
 20
-14.63615544164499
 30
0.0
 11
-126.2213142492268
 21
-14.63615544164499
 31
0.0
  0
LINE
  5
D0
330
1F
100
AcDbEntity
  8
0-0
  6
Continuous
 62
     3
370
     9
100
AcDbLine
 10
-128.8611878569654
 20
-39.63617606163022
 30
0.0
 11
-136.8612389945287
 21
-39.63617606163022
 31
0.0
  0
LINE
  5
D1
330
1F
100
AcDbEntity
  8
0-0
  6
Continuous
 62
     3
370
     9
100
AcDbLine
 10
-120.8611738353754
 20
-37.63618183522613
 30
0.0
 11
-120.8611738353754
 21
-24.63620080561249
 31
0.0
  0
LINE
  5
D2
330
1F
100
AcDbEntity
  8
0-0
  6
Continuous
 62
     3
370
     9
100
AcDbLine
 10
-128.8611878569654
 20
-45.63619585681604
 30
0.0
 11
-136.8612389945287
 21
-45.63619585681604
 31
0.0
  0
LINE
  5
D3
330
1F
100
AcDbEntity
  8
0-0
  6
JWW_CENTER1
 62
     3
370
     9
100
AcDbLine
 10
-128.8613734368323
 20
-42.63618595922316
 30
0.0
 11
-139.8612488921216
 21
-42.63618595922316
 31
0.0
  0
LINE
  5
D4
330
1F
100
AcDbEntity
  8
0-0
  6
JWW_CENTER1
 62
     3
370
     9
100
AcDbLine
 10
-123.8613321968619
 20
-37.63618183522613
 30
0.0
 11
-123.8613321968619
 21
-11.6361455440521
 31
0.0
  0
LINE
  5
D5
330
1F
100
AcDbEntity
  8
0-0
  6
Continuous
 62
     3
370
     9
100
AcDbLine
 10
-126.8611936305612
 20
-37.63618183522613
 30
0.0
 11
-126.8611936305612
 21
-24.63620080561249
 31
0.0
  0
LINE
  5
D6
330
1F
100
AcDbEntity
  8
0-0
  6
Continuous
 62
     3
370
     9
100
AcDbLine
 10
-126.2213142492268
 20
-24.63620080561249
 30
0.0
 11
-126.2213142492268
 21
-14.63615544164499
 31
0.0
  0
LINE
  5
D7
330
1F
100
AcDbEntity
  8
0-0
  6
Continuous
 62
     3
370
     9
100
AcDbLine
 10
-121.501350144497
 20
-24.63620080561249
 30
0.0
 11
-121.501350144497
 21
-14.63615544164499
 31
0.0
  0
LINE
  5
D8
330
1F
100
AcDbEntity
  8
0-0
  6
Continuous
 62
     3
370
     9
100
AcDbLine
 10
-120.6862833687369
 20
-24.63620080561249
 30
0.0
 11
-120.6862833687369
 21
-15.43615313220671
 31
0.0
  0
LINE
  5
D9
330
1F
100
AcDbEntity
  8
0-0
  6
Continuous
 62
     3
370
     9
100
AcDbLine
 10
-127.0362325610933
 20
-24.63620080561249
 30
0.0
 11
-127.0362325610933
 21
-15.43615313220671
 31
0.0
  0
LINE
  5
DA
330
1F
100
AcDbEntity
  8
0-0
  6
Continuous
 62
     3
370
     9
100
AcDbLine
 10
-120.6862833687369
 20
-24.63620080561249
 30
0.0
 11
-127.0362325610933
 21
-24.63620080561249
 31
0.0
  0
LINE
  5
DB
330
1F
100
AcDbEntity
  8
0-0
  6
Continuous
 62
     3
370
     9
100
AcDbLine
 10
-127.5673621403797
 20
-22.63620657920835
 30
0.0
 11
-127.0362325610933
 21
-22.63620657920835
 31
0.0
  0
LINE
  5
DC
330
1F
100
AcDbEntity
  8
0-0
  6
Continuous
 62
     3
370
     9
100
AcDbLine
 10
-120.6862833687369
 20
-22.63620657920835
 30
0.0
 11
-115.6531346804979
 21
-22.63620657920835
 31
0.0
  0
LINE
  5
DD
330
1F
100
AcDbEntity
  8
0-1
  6
Continuous
 62
     2
370
     9
100
AcDbLine
 10
-145.3613536416465
 20
5.220222237303446
 30
0.0
 11
-144.8613643640388
 21
7.220216463707587
 31
0.0
  0
LINE
  5
DE
330
1F
100
AcDbEntity
  8
0-1
  6
Continuous
 62
     2
370
     9
100
AcDbLine
 10
-139.302393680709
 20
7.220216463707587
 30
0.0
 11
-144.8613643640388
 21
7.220216463707587
 31
0.0
  0
LINE
  5
DF
330
1F
100
AcDbEntity
  8
0-1
  6
Continuous
 62
     2
370
     9
100
AcDbLine
 10
-125.8612893072926
 20
11.22016780054251
 30
0.0
 11
-128.8613734368323
 21
11.22016780054251
 31
0.0
  0
LINE
  5
E0
330
1F
100
AcDbEntity
  8
0-1
  6
Continuous
 62
     2
370
     9
100
AcDbLine
 10
-129.3543849114417
 20
8.00095096407712
 30
0.0
 11
-128.8613734368323
 21
11.22016780054251
 31
0.0
  0
LINE
  5
E1
330
1F
100
AcDbEntity
  8
0-1
  6
Continuous
 62
     2
370
     9
100
AcDbLine
 10
-125.8612893072926
 20
11.22016780054251
 30
0.0
 11
-124.5932591922166
 21
4.454297010318683
 31
0.0
  0
LINE
  5
E2
330
1F
100
AcDbEntity
  8
0-1
  6
Continuous
 62
     2
370
     9
100
AcDbLine
 10
59.63862986236534
 20
5.220222237303446
 30
0.0
 11
59.13860346878425
 21
7.220216463707587
 31
0.0
  0
LINE
  5
E3
330
1F
100
AcDbEntity
  8
0-1
  6
Continuous
 62
     2
370
     9
100
AcDbLine
 10
53.57966990142784
 20
7.220216463707587
 30
0.0
 11
59.13860346878425
 21
7.220216463707587
 31
0.0
  0
LINE
  5
E4
330
1F
100
AcDbEntity
  8
0-1
  6
Continuous
 62
     2
370
     9
100
AcDbLine
 10
-103.8613899328205
 20
-0.2798082802746791
 30
0.0
 11
-102.8613742616318
 21
-5.279812404271709
 31
0.0
  0
LINE
  5
E5
330
1F
100
AcDbEntity
  8
0-1
  6
Continuous
 62
     2
370
     9
100
AcDbLine
 10
-91.86135034244887
 20
-0.2798082802746791
 30
0.0
 11
-92.86140312961106
 21
-5.279812404271709
 31
0.0
  0
LINE
  5
E6
330
1F
100
AcDbEntity
  8
0-1
  6
Continuous
 62
     2
370
     9
100
AcDbLine
 10
-111.3118277363467
 20
-0.2798082802746791
 30
0.0
 11
-123.1451052582533
 21
2.890897978963054
 31
0.0
  0
LINE
  5
E7
330
1F
100
AcDbEntity
  8
0-1
  6
Continuous
 62
     2
370
     9
100
AcDbLine
 10
-133.0962688852593
 20
5.557235275732509
 30
0.0
 11
-139.302393680709
 21
7.220216463707587
 31
0.0
  0
LINE
  5
E8
330
1F
100
AcDbEntity
  8
0-1
  6
JWW_DASHED1
 62
     2
370
     9
100
AcDbLine
 10
-123.1451052582533
 20
2.890897978963054
 30
0.0
 11
-133.0962688852593
 21
5.557235275732509
 31
0.0
  0
LINE
  5
E9
330
1F
100
AcDbEntity
  8
0-1
  6
Continuous
 62
     2
370
     9
100
AcDbLine
 10
47.37358222195144
 20
5.557309507679307
 30
0.0
 11
53.57966990142784
 21
7.220216463707587
 31
0.0
  0
LINE
  5
EA
330
1F
100
AcDbEntity
  8
0-1
  6
Continuous
 62
     2
370
     9
100
AcDbLine
 10
40.13863975995824
 20
11.22016780054251
 30
0.0
 11
43.13864965755113
 21
11.22016780054251
 31
0.0
  0
LINE
  5
EB
330
1F
100
AcDbEntity
  8
0-1
  6
Continuous
 62
     4
370
     9
100
AcDbLine
 10
-93.86138168482645
 20
-11.45973332250436
 30
0.0
 11
-101.861358590443
 21
-11.45973332250436
 31
0.0
  0
LINE
  5
EC
330
1F
100
AcDbEntity
  8
0-1
  6
Continuous
 62
     4
370
     9
100
AcDbLine
 10
-101.861358590443
 20
-11.45973332250436
 30
0.0
 11
-101.1848828593407
 21
-12.13617193763319
 31
0.0
  0
LINE
  5
ED
330
1F
100
AcDbEntity
  8
0-1
  6
Continuous
 62
     4
370
     9
100
AcDbLine
 10
-101.1848828593407
 20
-12.13617193763319
 30
0.0
 11
-94.53785741592864
 21
-12.13617193763319
 31
0.0
  0
LINE
  5
EE
330
1F
100
AcDbEntity
  8
0-1
  6
Continuous
 62
     4
370
     9
100
AcDbLine
 10
-94.53785741592864
 20
-12.13617193763319
 30
0.0
 11
-93.86138168482645
 21
-11.45973332250436
 31
0.0
  0
LINE
  5
EF
330
1F
100
AcDbEntity
  8
0-1
  6
Continuous
 62
     4
370
     9
100
AcDbLine
 10
-105.361394881617
 20
5.498480689847824
 30
0.0
 11
-105.361394881617
 21
-0.2798082802746791
 31
0.0
  0
LINE
  5
F0
330
1F
100
AcDbEntity
  8
0-1
  6
Continuous
 62
     4
370
     9
100
AcDbLine
 10
-90.36134539365247
 20
5.498480689847824
 30
0.0
 11
-90.36134539365247
 21
-0.2798082802746791
 31
0.0
  0
LINE
  5
F1
330
1F
100
AcDbEntity
  8
0-1
  6
Continuous
 62
     4
370
     9
100
AcDbLine
 10
-105.361394881617
 20
-0.2798082802746791
 30
0.0
 11
-90.36134539365247
 21
-0.2798082802746791
 31
0.0
  0
LINE
  5
F2
330
1F
100
AcDbEntity
  8
0-1
  6
Continuous
 62
     4
370
     9
100
AcDbLine
 10
-101.6085988116212
 20
5.498480689847824
 30
0.0
 11
-101.6085988116212
 21
-0.2798082802746791
 31
0.0
  0
LINE
  5
F3
330
1F
100
AcDbEntity
  8
0-1
  6
Continuous
 62
     4
370
     9
100
AcDbLine
 10
-94.11414146364825
 20
5.498480689847824
 30
0.0
 11
-94.11414146364825
 21
-0.2798082802746791
 31
0.0
  0
LINE
  5
F4
330
1F
100
AcDbEntity
  8
0-1
  6
Continuous
 62
     4
370
     9
100
AcDbLine
 10
-103.4849597306457
 20
6.220200792518838
 30
0.0
 11
-92.23778054462372
 21
6.220200792518838
 31
0.0
  0
LINE
  5
F5
330
1F
100
AcDbEntity
  8
0-1
  6
Continuous
 62
     4
370
     9
100
AcDbLine
 10
-101.1848828593407
 20
-0.2798082802746791
 30
0.0
 11
-101.1848828593407
 21
-12.13617193763319
 31
0.0
  0
LINE
  5
F6
330
1F
100
AcDbEntity
  8
0-1
  6
Continuous
 62
     4
370
     9
100
AcDbLine
 10
-101.861358590443
 20
-0.2798082802746791
 30
0.0
 11
-101.861358590443
 21
-11.45973332250436
 31
0.0
  0
LINE
  5
F7
330
1F
100
AcDbEntity
  8
0-1
  6
Continuous
 62
     4
370
     9
100
AcDbLine
 10
-94.53785741592864
 20
-0.2798082802746791
 30
0.0
 11
-94.53785741592864
 21
-12.13617193763319
 31
0.0
  0
LINE
  5
F8
330
1F
100
AcDbEntity
  8
0-1
  6
Continuous
 62
     4
370
     9
100
AcDbLine
 10
-93.86138168482645
 20
-0.2798082802746791
 30
0.0
 11
-93.86138168482645
 21
-11.45973332250436
 31
0.0
  0
LINE
  5
F9
330
1F
100
AcDbEntity
  8
0-1
  6
Continuous
 62
     4
370
     9
100
AcDbLine
 10
-93.86138168482645
 20
27.18723685934735
 30
0.0
 11
-101.861358590443
 21
27.18723685934735
 31
0.0
  0
LINE
  5
FA
330
1F
100
AcDbEntity
  8
0-1
  6
Continuous
 62
     4
370
     9
100
AcDbLine
 10
-101.861358590443
 20
27.18723685934735
 30
0.0
 11
-101.1848828593407
 21
27.86378682239634
 31
0.0
  0
LINE
  5
FB
330
1F
100
AcDbEntity
  8
0-1
  6
Continuous
 62
     4
370
     9
100
AcDbLine
 10
-101.1848828593407
 20
27.86378682239634
 30
0.0
 11
-94.53785741592864
 21
27.86378682239634
 31
0.0
  0
LINE
  5
FC
330
1F
100
AcDbEntity
  8
0-1
  6
Continuous
 62
     4
370
     9
100
AcDbLine
 10
-94.53785741592864
 20
27.86378682239634
 30
0.0
 11
-93.86138168482645
 21
27.18723685934735
 31
0.0
  0
LINE
  5
FD
330
1F
100
AcDbEntity
  8
0-1
  6
Continuous
 62
     4
370
     9
100
AcDbLine
 10
-101.1848828593407
 20
6.220200792518838
 30
0.0
 11
-101.1848828593407
 21
27.86378682239634
 31
0.0
  0
LINE
  5
FE
330
1F
100
AcDbEntity
  8
0-1
  6
Continuous
 62
     4
370
     9
100
AcDbLine
 10
-101.861358590443
 20
6.220200792518838
 30
0.0
 11
-101.861358590443
 21
27.18723685934735
 31
0.0
  0
LINE
  5
FF
330
1F
100
AcDbEntity
  8
0-1
  6
Continuous
 62
     4
370
     9
100
AcDbLine
 10
-94.53785741592864
 20
6.220200792518838
 30
0.0
 11
-94.53785741592864
 21
27.86378682239634
 31
0.0
  0
LINE
  5
100
330
1F
100
AcDbEntity
  8
0-1
  6
Continuous
 62
     4
370
     9
100
AcDbLine
 10
-93.86138168482645
 20
6.220200792518838
 30
0.0
 11
-93.86138168482645
 21
27.18723685934735
 31
0.0
  0
LINE
  5
101
330
1F
100
AcDbEntity
  8
0-1
  6
Continuous
 62
     2
370
     9
100
AcDbLine
 10
-101.861358590443
 20
-5.279812404271709
 30
0.0
 11
-106.1744945107872
 21
-5.279812404271709
 31
0.0
  0
LINE
  5
102
330
1F
100
AcDbEntity
  8
0-1
  6
JWW_CENTER1
 62
     2
370
     9
100
AcDbLine
 10
33.13864140955707
 20
18.73611529711134
 30
0.0
 11
33.13864140955707
 21
-3.687834073401788
 31
0.0
  0
LINE
  5
103
330
1F
100
AcDbEntity
  8
0-1
  6
Continuous
 62
     2
370
     9
100
AcDbLine
 10
39.13858697279605
 20
-0.7903384943266332
 30
0.0
 11
41.13861831517355
 21
-0.2544209544723373
 31
0.0
  0
LINE
  5
104
330
1F
100
AcDbEntity
  8
0-1
  6
Continuous
 62
     2
370
     9
100
AcDbLine
 10
39.13858697279605
 20
-0.7903384943266332
 30
0.0
 11
38.13860841758066
 21
-0.5406964572699877
 31
0.0
  0
LINE
  5
105
330
1F
100
AcDbEntity
  8
0-1
  6
Continuous
 62
     2
370
     9
100
AcDbLine
 10
20.45173361553253
 20
-5.279812404271709
 30
0.0
 11
38.13860841758066
 21
-0.5406964572699877
 31
0.0
  0
LINE
  5
106
330
1F
100
AcDbEntity
  8
0-1
  6
Continuous
 62
     2
370
     9
100
AcDbLine
 10
41.13861831517355
 20
-0.2544209544723373
 30
0.0
 11
42.13867110233573
 21
0.5311757384119602
 31
0.0
  0
LINE
  5
107
330
1F
100
AcDbEntity
  8
0-1
  6
Continuous
 62
     2
370
     9
100
AcDbLine
 10
42.13867110233573
 20
0.5311757384119602
 30
0.0
 11
59.63862986236534
 21
5.220222237303446
 31
0.0
  0
LINE
  5
108
330
1F
100
AcDbEntity
  8
0-1
  6
Continuous
 62
     2
370
     9
100
AcDbLine
 10
-124.8613107520772
 20
-0.7903384943266332
 30
0.0
 11
-126.8613420944548
 21
-0.2544209544723373
 31
0.0
  0
LINE
  5
109
330
1F
100
AcDbEntity
  8
0-1
  6
Continuous
 62
     2
370
     9
100
AcDbLine
 10
-126.8613420944548
 20
-0.2544209544723373
 30
0.0
 11
-127.861394881617
 21
0.5311386224386041
 31
0.0
  0
LINE
  5
10A
330
1F
100
AcDbEntity
  8
0-1
  6
Continuous
 62
     2
370
     9
100
AcDbLine
 10
-127.861394881617
 20
0.5311386224386041
 30
0.0
 11
-145.3613536416465
 21
5.220222237303446
 31
0.0
  0
LINE
  5
10B
330
1F
100
AcDbEntity
  8
0-1
  6
Continuous
 62
     2
370
     9
100
AcDbLine
 10
-124.8613107520772
 20
-0.7903384943266332
 30
0.0
 11
-123.8613321968619
 21
-0.5406964572699877
 31
0.0
  0
LINE
  5
10C
330
1F
100
AcDbEntity
  8
0-1
  6
Continuous
 62
     2
370
     9
100
AcDbLine
 10
-106.1744945107872
 20
-5.279812404271709
 30
0.0
 11
-123.8613321968619
 21
-0.5406964572699877
 31
0.0
  0
LINE
  5
10D
330
1F
100
AcDbEntity
  8
0-1
  6
Continuous
 62
     2
370
     9
100
AcDbLine
 10
-93.86138168482645
 20
-5.279812404271709
 30
0.0
 11
20.45173361553253
 21
-5.279812404271709
 31
0.0
  0
LINE
  5
10E
330
1F
100
AcDbEntity
  8
0-1
  6
Continuous
 62
     2
370
     9
100
AcDbLine
 10
43.63169824813386
 20
8.00095096407712
 30
0.0
 11
43.13864965755113
 21
11.22016780054251
 31
0.0
  0
LINE
  5
10F
330
1F
100
AcDbEntity
  8
0-1
  6
Continuous
 62
     2
370
     9
100
AcDbLine
 10
39.24347671361105
 20
6.443861648198762
 30
0.0
 11
40.13863975995824
 21
11.22016780054251
 31
0.0
  0
LINE
  5
110
330
1F
100
AcDbEntity
  8
0-1
  6
JWW_DASHED1
 62
     2
370
     9
100
AcDbLine
 10
39.24347671361105
 20
6.443861648198762
 30
0.0
 11
38.87053541293542
 21
4.454297010318683
 31
0.0
  0
LINE
  5
111
330
1F
100
AcDbEntity
  8
0-1
  6
Continuous
 62
     2
370
     9
100
AcDbLine
 10
25.36143457625886
 20
0.8518206325737623
 30
0.0
 11
25.91854533692191
 21
3.982924148198762
 31
0.0
  0
LINE
  5
112
330
1F
100
AcDbEntity
  8
0-1
  6
Continuous
 62
     2
370
     9
100
AcDbLine
 10
23.90997732066347
 20
-0.7297281097720969
 30
0.0
 11
19.99097592180362
 21
-1.779813229071081
 31
0.0
  0
LINE
  5
113
330
1F
100
AcDbEntity
  8
0-1
  6
JWW_DASHED1
 62
     2
370
     9
100
AcDbLine
 10
23.90997732066347
 20
-0.7297281097720969
 30
0.0
 11
47.37358222195144
 21
5.557309507679307
 31
0.0
  0
LINE
  5
114
330
1F
100
AcDbEntity
  8
0-1
  6
JWW_CENTER1
 62
     4
370
     9
100
AcDbLine
 10
-97.86137013763474
 20
30.86383383596267
 30
0.0
 11
-97.86137013763474
 21
-15.13618183522608
 31
0.0
  0
LINE
  5
115
330
1F
100
AcDbEntity
  8
0-1
  6
Continuous
 62
     2
370
     9
100
AcDbLine
 10
-85.62018806811403
 20
-1.485669139913583
 30
0.0
 11
-84.8613519920477
 21
-5.279812404271709
 31
0.0
  0
LINE
  5
116
330
1F
100
AcDbEntity
  8
0-1
  6
Continuous
 62
     2
370
     9
100
AcDbLine
 10
-87.0910569777952
 20
-0.2798082802746791
 30
0.0
 11
-111.3118277363467
 21
-0.2798082802746791
 31
0.0
  0
LINE
  5
117
330
1F
100
AcDbEntity
  8
0-1
  6
Continuous
 62
     2
370
     9
100
AcDbLine
 10
35.71077836584925
 20
295.1922532893516
 30
0.0
 11
38.61473212429519
 21
295.9703525556101
 31
0.0
  0
LINE
  5
118
330
1F
100
AcDbEntity
  8
0-1
  6
Continuous
 62
     2
370
     9
100
AcDbLine
 10
34.73143629184167
 20
293.3769852625357
 30
0.0
 11
40.05008104743706
 21
294.8020901770205
 31
0.0
  0
LINE
  5
119
330
1F
100
AcDbEntity
  8
0-1
  6
Continuous
 62
     2
370
     9
100
AcDbLine
 10
19.58863877019894
 20
323.1166785691236
 30
0.0
 11
21.71441903043964
 21
325.2425330613111
 31
0.0
  0
LINE
  5
11A
330
1F
100
AcDbEntity
  8
0-1
  6
Continuous
 62
     2
370
     9
100
AcDbLine
 10
17.52684644809167
 20
323.1762125904496
 30
0.0
 11
21.4203120572555
 21
327.0696781996135
 31
0.0
  0
LINE
  5
11B
330
1F
100
AcDbEntity
  8
0-1
  6
Continuous
 62
     2
370
     9
100
AcDbLine
 10
34.73143629184167
 20
293.3769852625357
 30
0.0
 11
35.71077836584925
 21
295.1922532893516
 31
0.0
  0
LINE
  5
11C
330
1F
100
AcDbEntity
  8
0-1
  6
Continuous
 62
     2
370
     9
100
AcDbLine
 10
40.05008104743706
 20
294.8020901770205
 30
0.0
 11
38.61473212429519
 21
295.9703525556101
 31
0.0
  0
LINE
  5
11D
330
1F
100
AcDbEntity
  8
0-1
  6
Continuous
 62
     2
370
     9
100
AcDbLine
 10
21.71441903043964
 20
325.2425330613111
 30
0.0
 11
21.4203120572555
 21
327.0696781996135
 31
0.0
  0
LINE
  5
11E
330
1F
100
AcDbEntity
  8
0-1
  6
Continuous
 62
     2
370
     9
100
AcDbLine
 10
19.58863877019894
 20
323.1166785691236
 30
0.0
 11
17.52684644809167
 21
323.1762125904496
 31
0.0
  0
LINE
  5
11F
330
1F
100
AcDbEntity
  8
0-1
  6
Continuous
 62
     2
370
     9
100
AcDbLine
 10
11.81046692159253
 20
330.89485041773
 30
0.0
 11
13.93624718183324
 21
333.0207049099175
 31
0.0
  0
LINE
  5
120
330
1F
100
AcDbEntity
  8
0-1
  6
Continuous
 62
     2
370
     9
100
AcDbLine
 10
11.86992671097175
 20
328.8331323275696
 30
0.0
 11
15.76346655208238
 21
332.7265979367334
 31
0.0
  0
LINE
  5
121
330
1F
100
AcDbEntity
  8
0-1
  6
Continuous
 62
     2
370
     9
100
AcDbLine
 10
-16.11395835817942
 20
347.0170642453271
 30
0.0
 11
-15.33585909192098
 21
349.921018003773
 31
0.0
  0
LINE
  5
122
330
1F
100
AcDbEntity
  8
0-1
  6
Continuous
 62
     2
370
     9
100
AcDbLine
 10
-17.92930061694216
 20
346.0377221713196
 30
0.0
 11
-16.50419570245731
 21
351.3562926949681
 31
0.0
  0
LINE
  5
123
330
1F
100
AcDbEntity
  8
0-1
  6
Continuous
 62
     2
370
     9
100
AcDbLine
 10
11.86992671097175
 20
328.8331323275696
 30
0.0
 11
11.81046692159253
 21
330.89485041773
 31
0.0
  0
LINE
  5
124
330
1F
100
AcDbEntity
  8
0-1
  6
Continuous
 62
     2
370
     9
100
AcDbLine
 10
15.76346655208238
 20
332.7265979367334
 30
0.0
 11
13.93624718183324
 21
333.0207049099175
 31
0.0
  0
LINE
  5
125
330
1F
100
AcDbEntity
  8
0-1
  6
Continuous
 62
     2
370
     9
100
AcDbLine
 10
-15.33585909192098
 20
349.921018003773
 30
0.0
 11
-16.50419570245731
 21
351.3562926949681
 31
0.0
  0
LINE
  5
126
330
1F
100
AcDbEntity
  8
0-1
  6
Continuous
 62
     2
370
     9
100
AcDbLine
 10
-16.11395835817942
 20
347.0170642453271
 30
0.0
 11
-17.92930061694216
 21
346.0377221713196
 31
0.0
  0
LINE
  5
127
330
1F
100
AcDbEntity
  8
0-1
  6
Continuous
 62
     2
370
     9
100
AcDbLine
 10
-26.73914806204348
 20
349.8640821005847
 30
0.0
 11
-25.96104879578505
 21
352.7679616270839
 31
0.0
  0
LINE
  5
128
330
1F
100
AcDbEntity
  8
0-1
  6
Continuous
 62
     2
370
     9
100
AcDbLine
 10
-25.65677204589059
 20
348.108273863148
 30
0.0
 11
-24.23166713140583
 21
353.4269186187435
 31
0.0
  0
LINE
  5
129
330
1F
100
AcDbEntity
  8
0-1
  6
Continuous
 62
     2
370
     9
100
AcDbLine
 10
-58.98350148529099
 20
349.8640821005847
 30
0.0
 11
-59.76160075154943
 21
352.7679616270839
 31
0.0
  0
LINE
  5
12A
330
1F
100
AcDbEntity
  8
0-1
  6
Continuous
 62
     2
370
     9
100
AcDbLine
 10
-60.0659517333906
 20
348.108273863148
 30
0.0
 11
-61.49105664787545
 21
353.4268443867967
 31
0.0
  0
LINE
  5
12B
330
1F
100
AcDbEntity
  8
0-1
  6
Continuous
 62
     2
370
     9
100
AcDbLine
 10
-25.65677204589059
 20
348.108273863148
 30
0.0
 11
-26.73914806204348
 21
349.8640821005847
 31
0.0
  0
LINE
  5
12C
330
1F
100
AcDbEntity
  8
0-1
  6
Continuous
 62
     2
370
     9
100
AcDbLine
 10
-24.23166713140583
 20
353.4269186187435
 30
0.0
 11
-25.96104879578505
 21
352.7679616270839
 31
0.0
  0
LINE
  5
12D
330
1F
100
AcDbEntity
  8
0-1
  6
Continuous
 62
     2
370
     9
100
AcDbLine
 10
-59.76160075154943
 20
352.7679616270839
 30
0.0
 11
-61.49105664787545
 21
353.4268443867967
 31
0.0
  0
LINE
  5
12E
330
1F
100
AcDbEntity
  8
0-1
  6
Continuous
 62
     2
370
     9
100
AcDbLine
 10
-58.98350148529099
 20
349.8640821005847
 30
0.0
 11
-60.0659517333906
 21
348.108273863148
 31
0.0
  0
LINE
  5
12F
330
1F
100
AcDbEntity
  8
0-1
  6
Continuous
 62
     2
370
     9
100
AcDbLine
 10
-69.60869118915497
 20
347.0170642453271
 30
0.0
 11
-70.3867904554134
 21
349.921018003773
 31
0.0
  0
LINE
  5
130
330
1F
100
AcDbEntity
  8
0-1
  6
Continuous
 62
     2
370
     9
100
AcDbLine
 10
-67.79342316233911
 20
346.0377221713196
 30
0.0
 11
-69.21852807682387
 21
351.3563669269149
 31
0.0
  0
LINE
  5
131
330
1F
100
AcDbEntity
  8
0-1
  6
Continuous
 62
     2
370
     9
100
AcDbLine
 10
-97.53311646892692
 20
330.8949246496768
 30
0.0
 11
-99.65897096111442
 21
333.0207049099175
 31
0.0
  0
LINE
  5
132
330
1F
100
AcDbEntity
  8
0-1
  6
Continuous
 62
     2
370
     9
100
AcDbLine
 10
-97.59265049025294
 20
328.8331323275696
 30
0.0
 11
-101.4861160994168
 21
332.7265979367334
 31
0.0
  0
LINE
  5
133
330
1F
100
AcDbEntity
  8
0-1
  6
Continuous
 62
     2
370
     9
100
AcDbLine
 10
-67.79342316233911
 20
346.0377221713196
 30
0.0
 11
-69.60869118915497
 21
347.0170642453271
 31
0.0
  0
LINE
  5
134
330
1F
100
AcDbEntity
  8
0-1
  6
Continuous
 62
     2
370
     9
100
AcDbLine
 10
-69.21852807682387
 20
351.3563669269149
 30
0.0
 11
-70.3867904554134
 21
349.921018003773
 31
0.0
  0
LINE
  5
135
330
1F
100
AcDbEntity
  8
0-1
  6
Continuous
 62
     2
370
     9
100
AcDbLine
 10
-97.53311646892692
 20
330.8949246496768
 30
0.0
 11
-97.59265049025294
 21
328.8331323275696
 31
0.0
  0
LINE
  5
136
330
1F
100
AcDbEntity
  8
0-1
  6
Continuous
 62
     2
370
     9
100
AcDbLine
 10
-105.3112883175333
 20
323.1167528010704
 30
0.0
 11
-107.437068577774
 21
325.2425330613111
 31
0.0
  0
LINE
  5
137
330
1F
100
AcDbEntity
  8
0-1
  6
Continuous
 62
     2
370
     9
100
AcDbLine
 10
-103.2495702273729
 20
323.1762125904496
 30
0.0
 11
-107.1430358365368
 21
327.0697524315602
 31
0.0
  0
LINE
  5
138
330
1F
100
AcDbEntity
  8
0-1
  6
Continuous
 62
     2
370
     9
100
AcDbLine
 10
-121.4334650291571
 20
295.1923275212984
 30
0.0
 11
-124.337418787603
 21
295.9703525556101
 31
0.0
  0
LINE
  5
139
330
1F
100
AcDbEntity
  8
0-1
  6
Continuous
 62
     2
370
     9
100
AcDbLine
 10
-120.4541600711229
 20
293.3769852625357
 30
0.0
 11
-125.7727305947715
 21
294.8020901770205
 31
0.0
  0
LINE
  5
13A
330
1F
100
AcDbEntity
  8
0-1
  6
Continuous
 62
     2
370
     9
100
AcDbLine
 10
-103.2495702273729
 20
323.1762125904496
 30
0.0
 11
-105.3112883175333
 21
323.1167528010704
 31
0.0
  0
LINE
  5
13B
330
1F
100
AcDbEntity
  8
0-1
  6
Continuous
 62
     2
370
     9
100
AcDbLine
 10
-107.1430358365368
 20
327.0697524315602
 30
0.0
 11
-107.437068577774
 21
325.2425330613111
 31
0.0
  0
LINE
  5
13C
330
1F
100
AcDbEntity
  8
0-1
  6
Continuous
 62
     2
370
     9
100
AcDbLine
 10
-124.337418787603
 20
295.9703525556101
 30
0.0
 11
-125.7727305947715
 21
294.8020901770205
 31
0.0
  0
LINE
  5
13D
330
1F
100
AcDbEntity
  8
0-1
  6
Continuous
 62
     2
370
     9
100
AcDbLine
 10
-121.4334650291571
 20
295.1923275212984
 30
0.0
 11
-120.4541600711229
 21
293.3769852625357
 31
0.0
  0
LINE
  5
13E
330
1F
100
AcDbEntity
  8
0-1
  6
Continuous
 62
     2
370
     9
100
AcDbLine
 10
38.55772198916003
 20
284.5670635854876
 30
0.0
 11
41.46167574760605
 21
285.3452370836928
 31
0.0
  0
LINE
  5
13F
330
1F
100
AcDbEntity
  8
0-1
  6
Continuous
 62
     2
370
     9
100
AcDbLine
 10
36.80198798367019
 20
285.6495138335873
 30
0.0
 11
42.12055850731886
 21
287.0746187480721
 31
0.0
  0
LINE
  5
140
330
1F
100
AcDbEntity
  8
0-1
  6
Continuous
 62
     2
370
     9
100
AcDbLine
 10
41.46167574760605
 20
285.3452370836928
 30
0.0
 11
42.12055850731886
 21
287.0746187480721
 31
0.0
  0
LINE
  5
141
330
1F
100
AcDbEntity
  8
0-1
  6
Continuous
 62
     2
370
     9
100
AcDbLine
 10
38.55772198916003
 20
284.5670635854876
 30
0.0
 11
36.80198798367019
 21
285.6495138335873
 31
0.0
  0
LINE
  5
142
330
1F
100
AcDbEntity
  8
0-1
  6
Continuous
 62
     2
370
     9
100
AcDbLine
 10
-124.2804828844147
 20
284.5670635854876
 30
0.0
 11
-127.1844366428606
 21
285.3452370836928
 31
0.0
  0
LINE
  5
143
330
1F
100
AcDbEntity
  8
0-1
  6
Continuous
 62
     2
370
     9
100
AcDbLine
 10
-122.5247117629515
 20
285.6495138335873
 30
0.0
 11
-127.8432822866
 21
287.0746187480721
 31
0.0
  0
LINE
  5
144
330
1F
100
AcDbEntity
  8
0-1
  6
Continuous
 62
     2
370
     9
100
AcDbLine
 10
-127.1844366428606
 20
285.3452370836928
 30
0.0
 11
-127.8432822866
 21
287.0746187480721
 31
0.0
  0
LINE
  5
145
330
1F
100
AcDbEntity
  8
0-1
  6
Continuous
 62
     2
370
     9
100
AcDbLine
 10
-124.2804828844147
 20
284.5670635854876
 30
0.0
 11
-122.5247117629515
 21
285.6495138335873
 31
0.0
  0
LINE
  5
146
330
1F
100
AcDbEntity
  8
0-1
  6
Continuous
 62
     2
370
     9
100
AcDbLine
 10
11.93146499486104
 20
-2.505096465188117
 30
0.0
 11
11.13866780313808
 21
-5.279812404271709
 31
0.0
  0
LINE
  5
147
330
1F
100
AcDbEntity
  8
0-1
  6
Continuous
 62
     2
370
     9
100
AcDbLine
 10
-85.56135925028246
 20
-1.779813229071081
 30
0.0
 11
19.99097592180362
 21
-1.779813229071081
 31
0.0
  0
LINE
  5
148
330
1F
100
AcDbEntity
  8
0-2
  6
Continuous
 62
     6
370
     5
100
AcDbLine
 10
30.13863151196409
 20
5.220222237303446
 30
0.0
 11
-90.36134539365247
 21
5.220222237303446
 31
0.0
  0
LINE
  5
149
330
1F
100
AcDbEntity
  8
0-2
  6
Continuous
 62
     6
370
     5
100
AcDbLine
 10
27.88866120474285
 20
12.23695989170587
 30
0.0
 11
38.3886216143712
 21
12.23695989170587
 31
0.0
  0
LINE
  5
14A
330
1F
100
AcDbEntity
  8
0-2
  6
Continuous
 62
     6
370
     5
100
AcDbLine
 10
32.63861501597597
 20
13.23693844692126
 30
0.0
 11
33.63874203508487
 21
13.23693844692126
 31
0.0
  0
LINE
  5
14B
330
1F
100
AcDbEntity
  8
0-2
  6
Continuous
 62
     6
370
     5
100
AcDbLine
 10
33.63874203508487
 20
16.11891954911719
 30
0.0
 11
33.63874203508487
 21
13.23693844692126
 31
0.0
  0
LINE
  5
14C
330
1F
100
AcDbEntity
  8
0-2
  6
Continuous
 62
     6
370
     5
100
AcDbLine
 10
32.63861501597597
 20
16.11891954911719
 30
0.0
 11
32.63861501597597
 21
13.23693844692126
 31
0.0
  0
LINE
  5
14D
330
1F
100
AcDbEntity
  8
0-2
  6
Continuous
 62
     6
370
     5
100
AcDbLine
 10
30.63865790554519
 20
0.2369574173076643
 30
0.0
 11
35.63862491356886
 21
0.2369574173076643
 31
0.0
  0
LINE
  5
14E
330
1F
100
AcDbEntity
  8
0-2
  6
Continuous
 62
     6
370
     5
100
AcDbLine
 10
30.13863151196409
 20
0.7369095789419617
 30
0.0
 11
36.13865130714996
 21
0.7369095789419617
 31
0.0
  0
LINE
  5
14F
330
1F
100
AcDbEntity
  8
0-2
  6
Continuous
 62
     6
370
     5
100
AcDbLine
 10
30.13863151196409
 20
0.7369095789419617
 30
0.0
 11
30.63865790554519
 21
0.2369574173076643
 31
0.0
  0
LINE
  5
150
330
1F
100
AcDbEntity
  8
0-2
  6
Continuous
 62
     6
370
     5
100
AcDbLine
 10
36.13865130714996
 20
0.7369095789419617
 30
0.0
 11
35.63862491356886
 21
0.2369574173076643
 31
0.0
  0
LINE
  5
151
330
1F
100
AcDbEntity
  8
0-2
  6
Continuous
 62
     6
370
     5
100
AcDbLine
 10
36.13865130714996
 20
12.23695989170587
 30
0.0
 11
36.13865130714996
 21
0.7369095789419617
 31
0.0
  0
LINE
  5
152
330
1F
100
AcDbEntity
  8
0-2
  6
Continuous
 62
     6
370
     5
100
AcDbLine
 10
35.63862491356886
 20
12.23695989170587
 30
0.0
 11
35.63862491356886
 21
0.2369574173076643
 31
0.0
  0
LINE
  5
153
330
1F
100
AcDbEntity
  8
0-2
  6
Continuous
 62
     6
370
     5
100
AcDbLine
 10
30.63865790554519
 20
12.23695989170587
 30
0.0
 11
30.63865790554519
 21
0.2369574173076643
 31
0.0
  0
LINE
  5
154
330
1F
100
AcDbEntity
  8
0-2
  6
Continuous
 62
     6
370
     5
100
AcDbLine
 10
30.13863151196409
 20
12.23695989170587
 30
0.0
 11
30.13863151196409
 21
0.7369095789419617
 31
0.0
  0
LINE
  5
155
330
1F
100
AcDbEntity
  8
0-2
  6
JWW_CENTER1
 62
     6
370
     5
100
AcDbLine
 10
33.13864140955707
 20
267.1699160717629
 30
0.0
 11
33.13864140955707
 21
276.0521396649851
 31
0.0
  0
LINE
  5
156
330
1F
100
AcDbEntity
  8
0-2
  6
JWW_CENTER1
 62
     6
370
     5
100
AcDbLine
 10
-118.8612909568915
 20
267.1699160717629
 30
0.0
 11
-118.8612909568915
 21
276.0521396649851
 31
0.0
  0
LINE
  5
157
330
1F
100
AcDbEntity
  8
0-2
  6
Continuous
 62
     6
370
     5
100
AcDbLine
 10
37.13870409431206
 20
11.76666339281446
 30
0.0
 11
38.13860841758066
 21
10.72017852293477
 31
0.0
  0
LINE
  5
158
330
1F
100
AcDbEntity
  8
0-2
  6
Continuous
 62
     6
370
     5
100
AcDbLine
 10
-37.36136848803591
 20
55.16893208606821
 30
0.0
 11
-35.86128930729262
 21
60.13853822785454
 31
0.0
  0
LINE
  5
159
330
1F
100
AcDbEntity
  8
0-2
  6
Continuous
 62
     6
370
     5
100
AcDbLine
 10
-24.86130250408317
 20
59.67971056474219
 30
0.0
 11
-23.36137178723348
 21
54.57500227979712
 31
0.0
  0
LINE
  5
15A
330
1F
100
AcDbEntity
  8
0-2
  6
Continuous
 62
     6
370
     5
100
AcDbLine
 10
-108.6968218307829
 20
7.443765971467272
 30
0.0
 11
-98.8990956377931
 21
44.00942082920595
 31
0.0
  0
LINE
  5
15B
330
1F
100
AcDbEntity
  8
0-2
  6
Continuous
 62
     6
370
     5
100
AcDbLine
 10
-123.8613321968619
 20
10.72017852293477
 30
0.0
 11
-122.8613165256731
 21
5.220222237303446
 31
0.0
  0
LINE
  5
15C
330
1F
100
AcDbEntity
  8
0-2
  6
Continuous
 62
     6
370
     5
100
AcDbLine
 10
-114.3235291655591
 20
11.15365597621813
 30
0.0
 11
-123.8613321968619
 21
10.72017852293477
 31
0.0
  0
LINE
  5
15D
330
1F
100
AcDbEntity
  8
0-2
  6
Continuous
 62
     6
370
     5
100
AcDbLine
 10
-48.36128105929857
 20
55.16893208606821
 30
0.0
 11
-49.86128600809497
 21
60.13853822785454
 31
0.0
  0
LINE
  5
15E
330
1F
100
AcDbEntity
  8
0-2
  6
Continuous
 62
     6
370
     5
100
AcDbLine
 10
-60.86127281130451
 20
59.67971056474219
 30
0.0
 11
-62.36127776010091
 21
54.57500227979712
 31
0.0
  0
LINE
  5
15F
330
1F
100
AcDbEntity
  8
0-2
  6
Continuous
 62
     6
370
     5
100
AcDbLine
 10
-67.86127116170567
 20
58.17324743657501
 30
0.0
 11
-66.86121837454348
 21
59.25866696254626
 31
0.0
  0
LINE
  5
160
330
1F
100
AcDbEntity
  8
0-2
  6
Continuous
 62
     6
370
     5
100
AcDbLine
 10
-67.86127116170567
 20
58.17324743657501
 30
0.0
 11
-66.36126621290919
 21
54.28267687333594
 31
0.0
  0
LINE
  5
161
330
1F
100
AcDbEntity
  8
0-2
  6
Continuous
 62
     6
370
     5
100
AcDbLine
 10
-93.86134456885301
 20
54.83859992285032
 30
0.0
 11
-94.8613973560152
 21
55.3280111480404
 31
0.0
  0
LINE
  5
162
330
1F
100
AcDbEntity
  8
0-2
  6
Continuous
 62
     6
370
     5
100
AcDbLine
 10
-93.86134456885301
 20
54.83859992285032
 30
0.0
 11
-94.8613973560152
 21
49.69165366018142
 31
0.0
  0
LINE
  5
163
330
1F
100
AcDbEntity
  8
0-2
  6
Continuous
 62
     6
370
     5
100
AcDbLine
 10
-97.38676818582934
 20
47.2201752237372
 30
0.0
 11
-103.0735291655591
 21
47.2201752237372
 31
0.0
  0
LINE
  5
164
330
1F
100
AcDbEntity
  8
0-2
  6
JWW_DASHED1
 62
     6
370
     5
100
AcDbLine
 10
11.6640815225216
 20
47.2201752237372
 30
0.0
 11
17.35084250225128
 21
47.2201752237372
 31
0.0
  0
LINE
  5
165
330
1F
100
AcDbEntity
  8
0-2
  6
Continuous
 62
     6
370
     5
100
AcDbLine
 10
28.60084250225128
 20
11.15365597621813
 30
0.0
 11
30.13863151196409
 21
11.08387794623501
 31
0.0
  0
LINE
  5
166
330
1F
100
AcDbEntity
  8
0-2
  6
Continuous
 62
     6
370
     5
100
AcDbLine
 10
36.13865130714996
 20
10.81111265775321
 30
0.0
 11
38.13860841758066
 21
10.72017852293477
 31
0.0
  0
LINE
  5
167
330
1F
100
AcDbEntity
  8
0-2
  6
Continuous
 62
     6
370
     5
100
AcDbLine
 10
28.32930204089152
 20
12.16710762977603
 30
0.0
 11
30.13863151196409
 21
12.08485863273212
 31
0.0
  0
LINE
  5
168
330
1F
100
AcDbEntity
  8
0-2
  6
Continuous
 62
     6
370
     5
100
AcDbLine
 10
36.13865130714996
 20
11.81213046022368
 30
0.0
 11
37.13870409431206
 21
11.76666339281446
 31
0.0
  0
LINE
  5
169
330
1F
100
AcDbEntity
  8
0-2
  6
Continuous
 62
     6
370
     5
100
AcDbLine
 10
36.13865130714996
 20
5.220222237303446
 30
0.0
 11
37.13870409431206
 21
5.220222237303446
 31
0.0
  0
LINE
  5
16A
330
1F
100
AcDbEntity
  8
0-2
  6
Continuous
 62
     6
370
     5
100
AcDbLine
 10
-55.10874232671834
 20
275.4449223402385
 30
0.0
 11
-30.61383298866934
 21
275.4449223402385
 31
0.0
  0
LINE
  5
16B
330
1F
100
AcDbEntity
  8
0-2
  6
Continuous
 62
     6
370
     5
100
AcDbLine
 10
-92.19947686007981
 20
270.9449074938491
 30
0.0
 11
-69.0576674481288
 21
270.9449074938491
 31
0.0
  0
LINE
  5
16C
330
1F
100
AcDbEntity
  8
0-2
  6
Continuous
 62
     6
370
     5
100
AcDbLine
 10
-68.02027599173098
 20
276.1601471475653
 30
0.0
 11
-89.40052419036911
 21
285.0160926316236
 31
0.0
  0
LINE
  5
16D
330
1F
100
AcDbEntity
  8
0-2
  6
Continuous
 62
     6
370
     5
100
AcDbLine
 10
-66.83063481246575
 20
276.7496972689758
 30
0.0
 11
-90.00889211029099
 21
286.3504118751835
 31
0.0
  0
LINE
  5
16E
330
1F
100
AcDbEntity
  8
0-2
  6
Continuous
 62
     6
370
     5
100
AcDbLine
 10
-93.2720542592563
 20
269.9449289386337
 30
0.0
 11
-68.1841801302445
 21
269.9449289386337
 31
0.0
  0
LINE
  5
16F
330
1F
100
AcDbEntity
  8
0-2
  6
Continuous
 62
     6
370
     5
100
AcDbLine
 10
-68.43033326580192
 20
274.1652378095163
 30
0.0
 11
-89.97823431626645
 21
283.0905901638238
 31
0.0
  0
LINE
  5
170
330
1F
100
AcDbEntity
  8
0-2
  6
Continuous
 62
     6
370
     5
100
AcDbLine
 10
-87.48704729794935
 20
289.6354724484521
 30
0.0
 11
-66.10687333125802
 21
280.7796011963406
 31
0.0
  0
LINE
  5
171
330
1F
100
AcDbEntity
  8
0-2
  6
Continuous
 62
     6
370
     5
100
AcDbLine
 10
-63.1527387767817
 20
285.2007074832916
 30
0.0
 11
-79.51646624326185
 21
301.5643978337984
 31
0.0
  0
LINE
  5
172
330
1F
100
AcDbEntity
  8
0-2
  6
Continuous
 62
     6
370
     5
100
AcDbLine
 10
-61.82799545435771
 20
285.290231211121
 30
0.0
 11
-79.56783475044082
 21
303.0301076231777
 31
0.0
  0
LINE
  5
173
330
1F
100
AcDbEntity
  8
0-2
  6
Continuous
 62
     6
370
     5
100
AcDbLine
 10
-88.86082082122849
 20
289.1220843044488
 30
0.0
 11
-65.68256352340325
 21
279.521369698241
 31
0.0
  0
LINE
  5
174
330
1F
100
AcDbEntity
  8
0-2
  6
Continuous
 62
     6
370
     5
100
AcDbLine
 10
-64.2950199739945
 20
283.5146030438913
 30
0.0
 11
-80.78698312855528
 21
300.0066404303989
 31
0.0
  0
LINE
  5
175
330
1F
100
AcDbEntity
  8
0-2
  6
Continuous
 62
     6
370
     5
100
AcDbLine
 10
-75.98083573360177
 20
305.1000654594319
 30
0.0
 11
-59.61714538309497
 21
288.7363751089251
 31
0.0
  0
LINE
  5
176
330
1F
100
AcDbEntity
  8
0-2
  6
Continuous
 62
     6
370
     5
100
AcDbLine
 10
-55.19603909614396
 20
291.6905096634014
 30
0.0
 11
-64.05183611630872
 21
313.0706465141194
 31
0.0
  0
LINE
  5
177
330
1F
100
AcDbEntity
  8
0-2
  6
Continuous
 62
     6
370
     5
100
AcDbLine
 10
-53.93773336609755
 20
291.2661998555467
 30
0.0
 11
-63.53852220425208
 21
314.4443829214251
 31
0.0
  0
LINE
  5
178
330
1F
100
AcDbEntity
  8
0-2
  6
Continuous
 62
     6
370
     5
100
AcDbLine
 10
-77.44647129103419
 20
305.1514339666109
 30
0.0
 11
-59.70659487897763
 21
287.4116317865011
 31
0.0
  0
LINE
  5
179
330
1F
100
AcDbEntity
  8
0-2
  6
Continuous
 62
     6
370
     5
100
AcDbLine
 10
-56.8964703012749
 20
290.5698299627046
 30
0.0
 11
-65.8218968875291
 21
312.1176567812224
 31
0.0
  0
LINE
  5
17A
330
1F
100
AcDbEntity
  8
0-2
  6
Continuous
 62
     6
370
     5
100
AcDbLine
 10
-59.43245629948013
 20
314.9840491745924
 30
0.0
 11
-50.57651081542185
 21
293.6039123238744
 31
0.0
  0
LINE
  5
17B
330
1F
100
AcDbEntity
  8
0-2
  6
Continuous
 62
     6
370
     5
100
AcDbLine
 10
-45.36127116170567
 20
294.6412295483254
 30
0.0
 11
-45.36127116170567
 21
317.7830389602764
 31
0.0
  0
LINE
  5
17C
330
1F
100
AcDbEntity
  8
0-2
  6
Continuous
 62
     6
370
     5
100
AcDbLine
 10
-44.36136683843708
 20
293.7678164623879
 30
0.0
 11
-44.36136683843708
 21
318.8556905913998
 31
0.0
  0
LINE
  5
17D
330
1F
100
AcDbEntity
  8
0-2
  6
Continuous
 62
     6
370
     5
100
AcDbLine
 10
-60.76684977498693
 20
315.5924542104876
 30
0.0
 11
-51.16613516877911
 21
292.4142711446092
 31
0.0
  0
LINE
  5
17E
330
1F
100
AcDbEntity
  8
0-2
  6
Continuous
 62
     6
370
     5
100
AcDbLine
 10
-47.36130250408317
 20
294.2567080639504
 30
0.0
 11
-47.36122827213637
 21
317.5799403538575
 31
0.0
  0
LINE
  5
17F
330
1F
100
AcDbEntity
  8
0-2
  6
Continuous
 62
     6
370
     5
100
AcDbLine
 10
-40.361304153682
 20
317.7830389602764
 30
0.0
 11
-40.361304153682
 21
294.6413037802722
 31
0.0
  0
LINE
  5
180
330
1F
100
AcDbEntity
  8
0-2
  6
Continuous
 62
     6
370
     5
100
AcDbLine
 10
-35.14613873191254
 20
293.6039123238744
 30
0.0
 11
-26.29011901590746
 21
314.9840491745924
 31
0.0
  0
LINE
  5
181
330
1F
100
AcDbEntity
  8
0-2
  6
Continuous
 62
     6
370
     5
100
AcDbLine
 10
-34.55658861050208
 20
292.4142711446092
 30
0.0
 11
-24.95587400429434
 21
315.5924542104876
 31
0.0
  0
LINE
  5
182
330
1F
100
AcDbEntity
  8
0-2
  6
Continuous
 62
     6
370
     5
100
AcDbLine
 10
-41.36128270889739
 20
318.8556905913998
 30
0.0
 11
-41.36128270889739
 21
293.7678164623879
 31
0.0
  0
LINE
  5
183
330
1F
100
AcDbEntity
  8
0-2
  6
Continuous
 62
     6
370
     5
100
AcDbLine
 10
-37.14104806996153
 20
294.0139695979454
 30
0.0
 11
-28.21569571565411
 21
315.5618706484099
 31
0.0
  0
LINE
  5
184
330
1F
100
AcDbEntity
  8
0-2
  6
Continuous
 62
     6
370
     5
100
AcDbLine
 10
-21.67081343102575
 20
313.0706465141194
 30
0.0
 11
-30.52668468313723
 21
291.6905096634014
 31
0.0
  0
LINE
  5
185
330
1F
100
AcDbEntity
  8
0-2
  6
Continuous
 62
     6
370
     5
100
AcDbLine
 10
-26.10542993229262
 20
288.7363751089251
 30
0.0
 11
-9.741813813732707
 21
305.1000654594319
 31
0.0
  0
LINE
  5
186
330
1F
100
AcDbEntity
  8
0-2
  6
Continuous
 62
     6
370
     5
100
AcDbLine
 10
-26.01605466835684
 20
287.4116317865011
 30
0.0
 11
-8.2761782563002
 21
305.1514339666109
 31
0.0
  0
LINE
  5
187
330
1F
100
AcDbEntity
  8
0-2
  6
Continuous
 62
     6
370
     5
100
AcDbLine
 10
-22.18420157502911
 20
314.4443829214251
 30
0.0
 11
-31.78491618123692
 21
291.2661998555467
 31
0.0
  0
LINE
  5
188
330
1F
100
AcDbEntity
  8
0-2
  6
Continuous
 62
     6
370
     5
100
AcDbLine
 10
-27.79168283558653
 20
289.8786563061379
 30
0.0
 11
-11.29957121713216
 21
306.3706194606988
 31
0.0
  0
LINE
  5
189
330
1F
100
AcDbEntity
  8
0-2
  6
Continuous
 62
     6
370
     5
100
AcDbLine
 10
-6.206220420045982
 20
301.5643978337984
 30
0.0
 11
-22.56991077055278
 21
285.2007817152385
 31
0.0
  0
LINE
  5
18A
330
1F
100
AcDbEntity
  8
0-2
  6
Continuous
 62
     6
370
     5
100
AcDbLine
 10
-19.61577621607645
 20
280.7796011963406
 30
0.0
 11
1.764509098535028
 21
289.6354724484521
 31
0.0
  0
LINE
  5
18B
330
1F
100
AcDbEntity
  8
0-2
  6
Continuous
 62
     6
370
     5
100
AcDbLine
 10
-20.04008602393114
 20
279.521369698241
 30
0.0
 11
3.138097041947217
 21
289.1221585363955
 31
0.0
  0
LINE
  5
18C
330
1F
100
AcDbEntity
  8
0-2
  6
Continuous
 62
     6
370
     5
100
AcDbLine
 10
-6.154851912866919
 20
303.0301076231777
 30
0.0
 11
-23.89457986102997
 21
285.290231211121
 31
0.0
  0
LINE
  5
18D
330
1F
100
AcDbEntity
  8
0-2
  6
Continuous
 62
     6
370
     5
100
AcDbLine
 10
-20.73638168482645
 20
282.4801066334184
 30
0.0
 11
0.8113709017445654
 21
291.4055332196726
 31
0.0
  0
LINE
  5
18E
330
1F
100
AcDbEntity
  8
0-2
  6
Continuous
 62
     6
370
     5
100
AcDbLine
 10
3.677911759008081
 20
285.0160926316236
 30
0.0
 11
-17.70237355560349
 21
276.1601471475653
 31
0.0
  0
LINE
  5
18F
330
1F
100
AcDbEntity
  8
0-2
  6
Continuous
 62
     6
370
     5
100
AcDbLine
 10
-16.66505633115247
 20
270.9449074938491
 30
0.0
 11
6.476753080798543
 21
270.9449074938491
 31
0.0
  0
LINE
  5
190
330
1F
100
AcDbEntity
  8
0-2
  6
Continuous
 62
     6
370
     5
100
AcDbLine
 10
-17.53846941708997
 20
269.9450031705805
 30
0.0
 11
7.549404711921907
 21
269.9450031705805
 31
0.0
  0
LINE
  5
191
330
1F
100
AcDbEntity
  8
0-2
  6
Continuous
 62
     6
370
     5
100
AcDbLine
 10
4.286168331009717
 20
286.3504861071303
 30
0.0
 11
-18.89201473486864
 21
276.7497715009226
 31
0.0
  0
LINE
  5
192
330
1F
100
AcDbEntity
  8
0-2
  6
Continuous
 62
     6
370
     5
100
AcDbLine
 10
-17.04957781552747
 20
272.9449388362266
 30
0.0
 11
6.273654474379638
 21
272.9448646042799
 31
0.0
  0
LINE
  5
193
330
1F
100
AcDbEntity
  8
0-2
  6
Continuous
 62
     6
370
     5
100
AcDbLine
 10
-110.4498834861883
 20
286.6601075571937
 30
0.0
 11
-102.4299753028585
 21
284.4987701944403
 31
0.0
  0
LINE
  5
194
330
1F
100
AcDbEntity
  8
0-2
  6
Continuous
 62
     6
370
     5
100
AcDbLine
 10
-112.6037234223158
 20
274.444943785023
 30
0.0
 11
-104.3281975302129
 21
273.732985183355
 31
0.0
  0
LINE
  5
195
330
1F
100
AcDbEntity
  8
0-2
  6
Continuous
 62
     6
370
     5
100
AcDbLine
 10
-100.1438169215768
 20
308.6781937586294
 30
0.0
 11
-93.34673159772763
 21
303.9041887966363
 31
0.0
  0
LINE
  5
196
330
1F
100
AcDbEntity
  8
0-2
  6
Continuous
 62
     6
370
     5
100
AcDbLine
 10
-106.3456362641127
 20
297.9363856663575
 30
0.0
 11
-98.81272676770223
 21
294.4370174627046
 31
0.0
  0
LINE
  5
197
330
1F
100
AcDbEntity
  8
0-2
  6
Continuous
 62
     6
370
     5
100
AcDbLine
 10
-82.92861190943583
 20
325.8435891344741
 30
0.0
 11
-78.17438976126223
 21
319.0328080164419
 31
0.0
  0
LINE
  5
198
330
1F
100
AcDbEntity
  8
0-2
  6
Continuous
 62
     6
370
     5
100
AcDbLine
 10
-92.43037533057176
 20
317.8706326574893
 30
0.0
 11
-86.54860702662333
 21
312.0060119332494
 31
0.0
  0
LINE
  5
199
330
1F
100
AcDbEntity
  8
0-2
  6
Continuous
 62
     6
370
     5
100
AcDbLine
 10
-60.88072158136357
 20
336.0858162248457
 30
0.0
 11
-58.74261881795568
 21
328.0597096739589
 31
0.0
  0
LINE
  5
19A
330
1F
100
AcDbEntity
  8
0-2
  6
Continuous
 62
     6
370
     5
100
AcDbLine
 10
-72.53639917057387
 20
331.8436089296599
 30
0.0
 11
-69.01513254261778
 21
324.3207949780129
 31
0.0
  0
LINE
  5
19B
330
1F
100
AcDbEntity
  8
0-2
  6
Continuous
 62
     6
370
     5
100
AcDbLine
 10
-36.65957966307809
 20
338.1696554351498
 30
0.0
 11
-37.39536671966599
 21
329.8962080375569
 31
0.0
  0
LINE
  5
19C
330
1F
100
AcDbEntity
  8
0-2
  6
Continuous
 62
     6
370
     5
100
AcDbLine
 10
-49.0630698842563
 20
338.1696554351498
 30
0.0
 11
-48.3271343637749
 21
329.8962080375569
 31
0.0
  0
LINE
  5
19D
330
1F
100
AcDbEntity
  8
0-2
  6
Continuous
 62
     6
370
     5
100
AcDbLine
 10
-13.18625037676051
 20
331.8436089296599
 30
0.0
 11
-16.70751700471661
 21
324.3207949780129
 31
0.0
  0
LINE
  5
19E
330
1F
100
AcDbEntity
  8
0-2
  6
Continuous
 62
     6
370
     5
100
AcDbLine
 10
-24.84192796597083
 20
336.0858162248457
 30
0.0
 11
-26.9800307293788
 21
328.0597096739589
 31
0.0
  0
LINE
  5
19F
330
1F
100
AcDbEntity
  8
0-2
  6
Continuous
 62
     6
370
     5
100
AcDbLine
 10
6.707762899210733
 20
317.8706326574893
 30
0.0
 11
0.8259203633155021
 21
312.0058634693559
 31
0.0
  0
LINE
  5
1A0
330
1F
100
AcDbEntity
  8
0-2
  6
Continuous
 62
     6
370
     5
100
AcDbLine
 10
-2.793926289978488
 20
325.8435891344741
 30
0.0
 11
-7.54833401801895
 21
319.0328080164419
 31
0.0
  0
LINE
  5
1A1
330
1F
100
AcDbEntity
  8
0-2
  6
Continuous
 62
     6
370
     5
100
AcDbLine
 10
20.62298671677831
 20
297.9363856663575
 30
0.0
 11
13.09007722036784
 21
294.4369432307579
 31
0.0
  0
LINE
  5
1A2
330
1F
100
AcDbEntity
  8
0-2
  6
Continuous
 62
     6
370
     5
100
AcDbLine
 10
14.42120449021581
 20
308.6781937586294
 30
0.0
 11
7.624230514286749
 21
303.9041887966363
 31
0.0
  0
LINE
  5
1A3
330
1F
100
AcDbEntity
  8
0-2
  6
Continuous
 62
     6
370
     5
100
AcDbLine
 10
26.88103675900808
 20
274.4448695530763
 30
0.0
 11
18.60551086690504
 21
273.7329109514082
 31
0.0
  0
LINE
  5
1A4
330
1F
100
AcDbEntity
  8
0-2
  6
Continuous
 62
     6
370
     5
100
AcDbLine
 10
24.7271968228805
 20
286.6601075571937
 30
0.0
 11
16.7072515235773
 21
284.4986959624935
 31
0.0
  0
LINE
  5
1A5
330
1F
100
AcDbEntity
  8
0-2
  6
Continuous
 62
     6
370
     5
100
AcDbLine
 10
36.53905842813808
 20
272.4449124426455
 30
0.0
 11
38.03987992834925
 21
272.4449124426455
 31
0.0
  0
LINE
  5
1A6
330
1F
100
AcDbEntity
  8
0-2
  6
Continuous
 62
     6
370
     5
100
AcDbLine
 10
34.73937911014823
 20
273.4448909978609
 30
0.0
 11
36.98222315047761
 21
273.4448909978609
 31
0.0
  0
LINE
  5
1A7
330
1F
100
AcDbEntity
  8
0-2
  6
Continuous
 62
     6
370
     5
100
AcDbLine
 10
26.42072445695987
 20
278.4449322378313
 30
0.0
 11
36.51114721614488
 21
278.4449322378313
 31
0.0
  0
LINE
  5
1A8
330
1F
100
AcDbEntity
  8
0-2
  6
Continuous
 62
     6
370
     5
100
AcDbLine
 10
26.26892012577323
 20
279.4449107930467
 30
0.0
 11
37.38827189942191
 21
279.4449107930467
 31
0.0
  0
LINE
  5
1A9
330
1F
100
AcDbEntity
  8
0-2
  6
Continuous
 62
     6
370
     5
100
AcDbLine
 10
36.98222315047761
 20
273.4448909978609
 30
0.0
 11
38.03987992834925
 21
272.4449124426455
 31
0.0
  0
LINE
  5
1AA
330
1F
100
AcDbEntity
  8
0-2
  6
Continuous
 62
     6
370
     5
100
AcDbLine
 10
36.51114721614488
 20
278.4449322378313
 30
0.0
 11
37.38827189942191
 21
279.4449107930467
 31
0.0
  0
LINE
  5
1AB
330
1F
100
AcDbEntity
  8
0-2
  6
Continuous
 62
     6
370
     5
100
AcDbLine
 10
-122.2617450914459
 20
272.4449124426455
 30
0.0
 11
-123.7624923597103
 21
272.4449124426455
 31
0.0
  0
LINE
  5
1AC
330
1F
100
AcDbEntity
  8
0-2
  6
Continuous
 62
     6
370
     5
100
AcDbLine
 10
-120.4620286574827
 20
273.4448909978609
 30
0.0
 11
-122.7049098137854
 21
273.4448909978609
 31
0.0
  0
LINE
  5
1AD
330
1F
100
AcDbEntity
  8
0-2
  6
Continuous
 62
     6
370
     5
100
AcDbLine
 10
-112.1433368883209
 20
278.4449322378313
 30
0.0
 11
-122.2338709954261
 21
278.4449322378313
 31
0.0
  0
LINE
  5
1AE
330
1F
100
AcDbEntity
  8
0-2
  6
Continuous
 62
     6
370
     5
100
AcDbLine
 10
-111.9915696731077
 20
279.4449107930467
 30
0.0
 11
-123.1109214467563
 21
279.4449107930467
 31
0.0
  0
LINE
  5
1AF
330
1F
100
AcDbEntity
  8
0-2
  6
Continuous
 62
     6
370
     5
100
AcDbLine
 10
-122.7049098137854
 20
273.4448909978609
 30
0.0
 11
-123.7624923597103
 21
272.4449124426455
 31
0.0
  0
LINE
  5
1B0
330
1F
100
AcDbEntity
  8
0-2
  6
Continuous
 62
     6
370
     5
100
AcDbLine
 10
-122.2338709954261
 20
278.4449322378313
 30
0.0
 11
-123.1109214467563
 21
279.4449107930467
 31
0.0
  0
LINE
  5
1B1
330
1F
100
AcDbEntity
  8
0-2
  6
Continuous
 62
     6
370
     5
100
AcDbLine
 10
-114.0718457499657
 20
6.702559982763759
 30
0.0
 11
-103.728663211959
 21
45.3035805895522
 31
0.0
  0
LINE
  5
1B2
330
1F
100
AcDbEntity
  8
0-2
  6
Continuous
 62
     6
370
     5
100
AcDbLine
 10
27.6385737760055
 20
5.220222237303446
 30
0.0
 11
29.13857872480199
 21
11.12927078169743
 31
0.0
  0
LINE
  5
1B3
330
1F
100
AcDbEntity
  8
0-2
  6
Continuous
 62
     6
370
     5
100
AcDbLine
 10
-122.8613536416465
 20
268.4449239898373
 30
0.0
 11
-122.8613536416465
 21
269.0449408157452
 31
0.0
  0
LINE
  5
1B4
330
1F
100
AcDbEntity
  8
0-2
  6
Continuous
 62
     6
370
     5
100
AcDbLine
 10
-114.8614138520033
 20
269.0449408157452
 30
0.0
 11
-122.8613536416465
 21
269.0449408157452
 31
0.0
  0
LINE
  5
1B5
330
1F
100
AcDbEntity
  8
0-2
  6
Continuous
 62
     6
370
     5
100
AcDbLine
 10
-114.8614138520033
 20
268.4449239898373
 30
0.0
 11
-114.8614138520033
 21
269.0449408157452
 31
0.0
  0
LINE
  5
1B6
330
1F
100
AcDbEntity
  8
0-2
  6
Continuous
 62
     6
370
     5
100
AcDbLine
 10
37.13870409431206
 20
268.4449239898373
 30
0.0
 11
37.13870409431206
 21
269.0449408157452
 31
0.0
  0
LINE
  5
1B7
330
1F
100
AcDbEntity
  8
0-2
  6
Continuous
 62
     6
370
     5
100
AcDbLine
 10
29.13872718869558
 20
269.0449408157452
 30
0.0
 11
37.13870409431206
 21
269.0449408157452
 31
0.0
  0
LINE
  5
1B8
330
1F
100
AcDbEntity
  8
0-2
  6
Continuous
 62
     6
370
     5
100
AcDbLine
 10
29.13872718869558
 20
268.4449239898373
 30
0.0
 11
29.13872718869558
 21
269.0449408157452
 31
0.0
  0
LINE
  5
1B9
330
1F
100
AcDbEntity
  8
0-2
  6
Continuous
 62
     6
370
     5
100
AcDbLine
 10
22.97420939942191
 20
7.443765971467272
 30
0.0
 11
13.17648320643207
 21
44.00942082920595
 31
0.0
  0
LINE
  5
1BA
330
1F
100
AcDbEntity
  8
0-2
  6
Continuous
 62
     6
370
     5
100
AcDbLine
 10
26.75989022184589
 20
12.63402657508853
 30
0.0
 11
18.00601366462456
 21
45.3035805895522
 31
0.0
  0
LINE
  5
1BB
330
1F
100
AcDbEntity
  8
0-0
  6
JWW_CENTER1
 62
     3
370
     9
100
AcDbLine
 10
-42.86136188964059
 20
70.82300214123079
 30
0.0
 11
-42.86136188964059
 21
-101.8949552265373
 31
0.0
  0
LINE
  5
1BC
330
1F
100
AcDbEntity
  8
0-0
  6
Continuous
 62
     3
370
     9
100
AcDbLine
 10
-154.3613833344253
 20
7.363818164773917
 30
0.0
 11
-129.5253039689269
 21
7.363818164773917
 31
0.0
  0
LINE
  5
1BD
330
1F
100
AcDbEntity
  8
0-0
  6
Continuous
 62
     3
370
     9
100
AcDbLine
 10
43.80265442159254
 20
7.363818164773917
 30
0.0
 11
68.63865955514402
 21
7.363818164773917
 31
0.0
  0
LINE
  5
1BE
330
1F
100
AcDbEntity
  8
0-2
  6
Continuous
 62
     6
370
     5
100
AcDbLine
 10
-105.361394881617
 20
5.220222237303446
 30
0.0
 11
-122.8613165256731
 21
5.220222237303446
 31
0.0
  0
LINE
  5
1BF
330
1F
100
AcDbEntity
  8
0-0
  6
Continuous
 62
     3
370
     9
100
AcDbLine
 10
-92.74062775218286
 20
-6.136189258420771
 30
0.0
 11
-93.86138168482645
 21
-6.136189258420771
 31
0.0
  0
LINE
  5
1C0
330
1F
100
AcDbEntity
  8
0-0
  6
Continuous
 62
     3
370
     9
100
AcDbLine
 10
-101.861358590443
 20
-6.136189258420771
 30
0.0
 11
-105.5068152653797
 21
-6.136189258420771
 31
0.0
  0
LINE
  5
1C1
330
1F
100
AcDbEntity
  8
0-2
  6
Continuous
 62
     6
370
     5
100
AcDbLine
 10
38.13860841758066
 20
10.72017852293477
 30
0.0
 11
37.13870409431206
 21
5.220222237303446
 31
0.0
  0
LINE
  5
1C2
330
1F
100
AcDbEntity
  8
0-1
  6
Continuous
 62
     2
370
     9
100
AcDbLine
 10
37.76915601840417
 20
5.220222237303446
 30
0.0
 11
36.13865130714996
 21
5.220222237303446
 31
0.0
  0
LINE
  5
1C3
330
1F
100
AcDbEntity
  8
0-1
  6
Continuous
 62
     2
370
     9
100
AcDbLine
 10
-99.65897096111442
 20
333.0207049099175
 30
0.0
 11
-101.4861160994168
 21
332.7265979367334
 31
0.0
  0
LINE
  5
1C4
330
1F
100
AcDbEntity
  8
0-0
  6
JWW_CENTER1
 62
     3
370
     9
100
AcDbLine
 10
-160.4956887213551
 20
268.4449239898373
 30
0.0
 11
77.18565167666011
 21
268.4449239898373
 31
0.0
  0
LINE
  5
1C5
330
1F
100
AcDbEntity
  8
0-0
  6
JWW_CENTER1
 62
     3
370
     9
100
AcDbLine
 10
-42.86136188964059
 20
388.0571610437858
 30
0.0
 11
-42.86136188964059
 21
262.0465755681734
 31
0.0
  0
ARC
  5
1C6
330
1F
100
AcDbEntity
  8
0-0
  6
Continuous
 62
     3
370
     9
100
AcDbCircle
 10
-146.5664350658442
 20
-9.986006482871787
 30
0.0
 40
10.99999956182532
100
AcDbArc
 50
74.99996948242188
 51
121.7902069091797
  0
ARC
  5
1C7
330
1F
100
AcDbEntity
  8
0-0
  6
Continuous
 62
     3
370
     9
100
AcDbCircle
 10
-122.9879191109244
 20
-2.327607880411946
 30
0.0
 40
1.500000019331236
100
AcDbArc
 50
254.9999084472656
 51
318.4355773925781
  0
ARC
  5
1C8
330
1F
100
AcDbEntity
  8
0-0
  6
Continuous
 62
     3
370
     9
100
AcDbCircle
 10
-127.9583418041254
 20
-0.9957754070694449
 30
0.0
 40
1.500000019331236
100
AcDbArc
 50
191.5648956298828
 51
254.9999084472656
  0
ARC
  5
1C9
330
1F
100
AcDbEntity
  8
0-0
  6
Continuous
 62
     3
370
     9
100
AcDbCircle
 10
-134.09947653016
 20
2.849699248494304
 30
0.0
 40
1.625007632616404
100
AcDbArc
 50
187.620590209961
 51
322.37890625
  0
ARC
  5
1CA
330
1F
100
AcDbEntity
  8
0-0
  6
Continuous
 62
     3
370
     9
100
AcDbCircle
 10
-130.7702479485511
 20
0.2752982178250107
 30
0.0
 40
1.000000012887491
100
AcDbArc
 50
11.56642150878906
 51
75.00077819824217
  0
ARC
  5
1CB
330
1F
100
AcDbEntity
  8
0-0
  6
Continuous
 62
     3
370
     9
100
AcDbCircle
 10
-119.9170919360933
 20
-2.632775413667801
 30
0.0
 40
1.000000012887491
100
AcDbArc
 50
75.00022888183594
 51
138.4349822998047
  0
ARC
  5
1CC
330
1F
100
AcDbEntity
  8
0-0
  6
Continuous
 62
     3
370
     9
100
AcDbCircle
 10
-139.8950615438847
 20
4.402594459379074
 30
0.0
 40
1.625007632616404
100
AcDbArc
 50
187.6192932128906
 51
322.3796997070312
  0
ARC
  5
1CD
330
1F
100
AcDbEntity
  8
0-0
  6
Continuous
 62
     3
370
     9
100
AcDbCircle
 10
-115.7468153973475
 20
-2.067870298591785
 30
0.0
 40
1.625007632616404
100
AcDbArc
 50
187.620590209961
 51
322.3807373046876
  0
ARC
  5
1CE
330
1F
100
AcDbEntity
  8
0-0
  6
Continuous
 62
     3
370
     9
100
AcDbCircle
 10
-135.049274289345
 20
-3.754531477593119
 30
0.0
 40
2.000000025774982
100
AcDbArc
 50
11.56620788574219
 51
75.00050354003906
  0
ARC
  5
1CF
330
1F
100
AcDbEntity
  8
0-0
  6
JWW_DASHED1
 62
     3
370
     9
100
AcDbCircle
 10
-118.226385115992
 20
-8.262229330475222
 30
0.0
 40
2.000000025774982
100
AcDbArc
 50
74.999755859375
 51
138.435073852539
  0
ARC
  5
1D0
330
1F
100
AcDbEntity
  8
0-0
  6
JWW_DASHED1
 62
     3
370
     9
100
AcDbCircle
 10
-121.6351903445604
 20
-6.831148744273818
 30
0.0
 40
1.500000019331236
100
AcDbArc
 50
255.0012817382812
 51
318.4365081787109
  0
ARC
  5
1D1
330
1F
100
AcDbEntity
  8
0-0
  6
Continuous
 62
     3
370
     9
100
AcDbCircle
 10
-107.8781548056035
 20
-33.63619338241784
 30
0.0
 40
1.000000012887491
100
AcDbArc
 50
4.554550170898438
 51
90.00000000000001
  0
ARC
  5
1D2
330
1F
100
AcDbEntity
  8
0-0
  6
Continuous
 62
     3
370
     9
100
AcDbCircle
 10
-115.6531346804979
 20
-24.13621152800484
 30
0.0
 40
1.500000019331236
100
AcDbArc
 50
8.53070068359375
 51
90.0
  0
ARC
  5
1D3
330
1F
100
AcDbEntity
  8
0-0
  6
JWW_DASHED1
 62
     3
370
     9
100
AcDbCircle
 10
-110.641216329041
 20
-24.13621152800484
 30
0.0
 40
1.500000019331236
100
AcDbArc
 50
4.555007934570312
 51
90.0
  0
ARC
  5
1D4
330
1F
100
AcDbEntity
  8
0-0
  6
Continuous
 62
     3
370
     9
100
AcDbCircle
 10
-103.5143555815747
 20
-50.63619998081312
 30
0.0
 40
2.000000025774982
100
AcDbArc
 50
184.5546264648438
 51
270.0
  0
ARC
  5
1D5
330
1F
100
AcDbEntity
  8
0-0
  6
Continuous
 62
     3
370
     9
100
AcDbCircle
 10
-133.1679398298855
 20
-7.22944025477851
 30
0.0
 40
2.000000025774982
100
AcDbArc
 50
8.43475341796875
 51
59.30958557128908
  0
ARC
  5
1D6
330
1F
100
AcDbEntity
  8
0-0
  6
JWW_DASHED1
 62
     3
370
     9
100
AcDbCircle
 10
-113.221221871693
 20
-10.63861664308085
 30
0.0
 40
3.000000038662472
100
AcDbArc
 50
4.554595947265626
 51
74.99990844726564
  0
ARC
  5
1D7
330
1F
100
AcDbEntity
  8
0-0
  6
JWW_DASHED1
 62
     3
370
     9
100
AcDbCircle
 10
-101.582098006617
 20
-11.92769151507194
 30
0.0
 40
3.000000038662472
100
AcDbArc
 50
184.5545959472656
 51
263.6697540283203
  0
ARC
  5
1D8
330
1F
100
AcDbEntity
  8
0-0
  6
JWW_DASHED1
 62
     3
370
     9
100
AcDbCircle
 10
-96.65443291476731
 20
-17.00192758585952
 30
0.0
 40
1.500000019331236
100
AcDbArc
 50
9.462326049804688
 51
83.67115783691406
  0
ARC
  5
1D9
330
1F
100
AcDbEntity
  8
0-0
  6
Continuous
 62
     3
370
     9
100
AcDbCircle
 10
-92.74062775218286
 20
-7.136204929609519
 30
0.0
 40
1.000000012887491
100
AcDbArc
 50
7.352645874023438
 51
90.0
  0
ARC
  5
1DA
330
1F
100
AcDbEntity
  8
0-0
  6
Continuous
 62
     3
370
     9
100
AcDbCircle
 10
60.84371128656291
 20
-9.986006482871787
 30
0.0
 40
10.99999956182532
100
AcDbArc
 50
58.20979309082032
 51
105.0000305175781
  0
ARC
  5
1DB
330
1F
100
AcDbEntity
  8
0-0
  6
Continuous
 62
     3
370
     9
100
AcDbCircle
 10
37.26519533164316
 20
-2.327607880411946
 30
0.0
 40
1.500000019331236
100
AcDbArc
 50
221.5644226074219
 51
285.0000915527344
  0
ARC
  5
1DC
330
1F
100
AcDbEntity
  8
0-0
  6
Continuous
 62
     3
370
     9
100
AcDbCircle
 10
42.23561802484417
 20
-0.9957754070694449
 30
0.0
 40
1.500000019331236
100
AcDbArc
 50
285.0000915527344
 51
348.4351043701172
  0
ARC
  5
1DD
330
1F
100
AcDbEntity
  8
0-0
  6
Continuous
 62
     3
370
     9
100
AcDbCircle
 10
48.37675275087886
 20
2.849699248494304
 30
0.0
 40
1.625007632616404
100
AcDbArc
 50
217.62109375
 51
352.3794097900391
  0
ARC
  5
1DE
330
1F
100
AcDbEntity
  8
0-0
  6
Continuous
 62
     3
370
     9
100
AcDbCircle
 10
45.04752416926988
 20
0.2752982178250107
 30
0.0
 40
1.000000012887491
100
AcDbArc
 50
104.9992218017578
 51
168.4335784912109
  0
ARC
  5
1DF
330
1F
100
AcDbEntity
  8
0-0
  6
Continuous
 62
     3
370
     9
100
AcDbCircle
 10
34.19436815681206
 20
-2.632775413667801
 30
0.0
 40
1.000000012887491
100
AcDbArc
 50
41.56501770019532
 51
104.9997711181641
  0
ARC
  5
1E0
330
1F
100
AcDbEntity
  8
0-0
  6
Continuous
 62
     3
370
     9
100
AcDbCircle
 10
54.17233776460346
 20
4.402594459379074
 30
0.0
 40
1.625007632616404
100
AcDbArc
 50
217.6203002929688
 51
352.3807067871095
  0
ARC
  5
1E1
330
1F
100
AcDbEntity
  8
0-0
  6
Continuous
 62
     3
370
     9
100
AcDbCircle
 10
30.02409161806628
 20
-2.067870298591785
 30
0.0
 40
1.625007632616404
100
AcDbArc
 50
217.6192626953125
 51
352.3794097900391
  0
ARC
  5
1E2
330
1F
100
AcDbEntity
  8
0-0
  6
Continuous
 62
     3
370
     9
100
AcDbCircle
 10
49.32655051006378
 20
-3.754531477593119
 30
0.0
 40
2.000000025774982
100
AcDbArc
 50
104.9994964599609
 51
168.4337921142578
  0
ARC
  5
1E3
330
1F
100
AcDbEntity
  8
0-0
  6
Continuous
 62
     3
370
     9
100
AcDbCircle
 10
32.50366133671073
 20
-8.262229330475222
 30
0.0
 40
2.000000025774982
100
AcDbArc
 50
41.56492614746094
 51
105.000244140625
  0
ARC
  5
1E4
330
1F
100
AcDbEntity
  8
0-0
  6
Continuous
 62
     3
370
     9
100
AcDbCircle
 10
45.65882425108995
 20
-4.219668856182565
 30
0.0
 40
1.500000019331236
100
AcDbArc
 50
284.9987182617188
 51
348.4337158203125
  0
ARC
  5
1E5
330
1F
100
AcDbEntity
  8
0-0
  6
Continuous
 62
     3
370
     9
100
AcDbCircle
 10
35.91246656527917
 20
-6.831148744273818
 30
0.0
 40
1.500000019331236
100
AcDbArc
 50
221.563491821289
 51
284.9987182617188
  0
ARC
  5
1E6
330
1F
100
AcDbEntity
  8
0-0
  6
Continuous
 62
     3
370
     9
100
AcDbCircle
 10
22.15543102632222
 20
-33.63619338241784
 30
0.0
 40
1.000000012887491
100
AcDbArc
 50
90.0
 51
175.4454498291016
  0
ARC
  5
1E7
330
1F
100
AcDbEntity
  8
0-0
  6
JWW_PHANTOM1
 62
     3
370
     9
100
AcDbCircle
 10
29.93041090121667
 20
-24.13621152800484
 30
0.0
 40
1.500000019331236
100
AcDbArc
 50
90.0
 51
171.4692993164062
  0
ARC
  5
1E8
330
1F
100
AcDbEntity
  8
0-0
  6
Continuous
 62
     3
370
     9
100
AcDbCircle
 10
17.79163180229355
 20
-50.63619998081312
 30
0.0
 40
2.000000025774982
100
AcDbArc
 50
270.0
 51
355.4453735351563
  0
ARC
  5
1E9
330
1F
100
AcDbEntity
  8
0-0
  6
JWW_PHANTOM1
 62
     3
370
     9
100
AcDbCircle
 10
41.84471259304519
 20
-21.13620163041195
 30
0.0
 40
1.500000019331236
100
AcDbArc
 50
270.0
 51
351.5646362304687
  0
ARC
  5
1EA
330
1F
100
AcDbEntity
  8
0-0
  6
JWW_PHANTOM1
 62
     3
370
     9
100
AcDbCircle
 10
47.44521605060433
 20
-7.22944025477851
 30
0.0
 40
2.000000025774982
100
AcDbArc
 50
120.690414428711
 51
171.5652465820313
  0
ARC
  5
1EB
330
1F
100
AcDbEntity
  8
0-0
  6
Continuous
 62
     3
370
     9
100
AcDbCircle
 10
27.49849809241175
 20
-10.63861664308085
 30
0.0
 40
3.000000038662472
100
AcDbArc
 50
105.0000915527344
 51
175.4454040527344
  0
ARC
  5
1EC
330
1F
100
AcDbEntity
  8
0-0
  6
Continuous
 62
     3
370
     9
100
AcDbCircle
 10
15.85937422733573
 20
-11.92769151507194
 30
0.0
 40
3.000000038662472
100
AcDbArc
 50
276.3302459716797
 51
355.4454040527344
  0
ARC
  5
1ED
330
1F
100
AcDbEntity
  8
0-0
  6
Continuous
 62
     3
370
     9
100
AcDbCircle
 10
10.93170913548604
 20
-17.00192758585952
 30
0.0
 40
1.500000019331236
100
AcDbArc
 50
96.32884216308594
 51
170.5376739501953
  0
ARC
  5
1EE
330
1F
100
AcDbEntity
  8
0-0
  6
Continuous
 62
     3
370
     9
100
AcDbCircle
 10
22.19781746793964
 20
-7.917755981393739
 30
0.0
 40
3.000000038662472
100
AcDbArc
 50
105.0000915527344
 51
175.4457550048828
  0
ARC
  5
1EF
330
1F
100
AcDbEntity
  8
0-0
  6
Continuous
 62
     3
370
     9
100
AcDbCircle
 10
-107.9205412472208
 20
-7.917755981393739
 30
0.0
 40
3.000000038662472
100
AcDbArc
 50
36.43096923828126
 51
74.99990844726562
  0
ARC
  5
1F0
330
1F
100
AcDbEntity
  8
0-0
  6
JWW_DASHED1
 62
     3
370
     9
100
AcDbCircle
 10
-107.9205412472208
 20
-7.917755981393739
 30
0.0
 40
3.000000038662472
100
AcDbArc
 50
4.554244995117188
 51
36.43096923828126
  0
ARC
  5
1F1
330
1F
100
AcDbEntity
  8
0-0
  6
JWW_DASHED1
 62
     3
370
     9
100
AcDbCircle
 10
-131.3815480303712
 20
-4.219668856182565
 30
0.0
 40
1.500000019331236
100
AcDbArc
 50
239.3083190917969
 51
255.0012817382812
  0
ARC
  5
1F2
330
1F
100
AcDbEntity
  8
0-0
  6
Continuous
 62
     3
370
     9
100
AcDbCircle
 10
-131.3815480303712
 20
-4.219668856182565
 30
0.0
 40
1.500000019331236
100
AcDbArc
 50
191.5662841796875
 51
239.3083190917969
  0
ARC
  5
1F3
330
1F
100
AcDbEntity
  8
0-0
  6
Continuous
 62
     3
370
     9
100
AcDbCircle
 10
-42.86136188964059
 20
268.4449239898373
 30
0.0
 40
111.5000028867979
100
AcDbArc
 50
0.0
 51
180.0
  0
ARC
  5
1F4
330
1F
100
AcDbEntity
  8
0-0
  6
Continuous
 62
     3
370
     9
100
AcDbCircle
 10
-42.86136188964059
 20
268.4449239898373
 30
0.0
 40
112.5
100
AcDbArc
 50
0.0
 51
180.0
  0
ARC
  5
1F5
330
1F
100
AcDbEntity
  8
0-0
  6
Continuous
 62
     3
370
     9
100
AcDbCircle
 10
-127.5673621403797
 20
-21.13620163041195
 30
0.0
 40
1.500000019331236
100
AcDbArc
 50
188.4351501464844
 51
270.0
  0
ARC
  5
1F6
330
1F
100
AcDbEntity
  8
0-0
  6
Continuous
 62
     3
370
     9
100
AcDbCircle
 10
-128.8611878569654
 20
-37.63618183522613
 30
0.0
 40
2.000000025774982
100
AcDbArc
 50
270.0
 51
0.0
  0
ARC
  5
1F7
330
1F
100
AcDbEntity
  8
0-0
  6
Continuous
 62
     3
370
     9
100
AcDbCircle
 10
-128.8611878569654
 20
-37.63618183522613
 30
0.0
 40
8.000000103099927
100
AcDbArc
 50
270.0
 51
0.0
  0
ARC
  5
1F8
330
1F
100
AcDbEntity
  8
0-0
  6
JWW_CENTER1
 62
     3
370
     9
100
AcDbCircle
 10
-128.8613734368323
 20
-37.63618183522613
 30
0.0
 40
5.000000064437454
100
AcDbArc
 50
270.0
 51
0.0
  0
ARC
  5
1F9
330
1F
100
AcDbEntity
  8
0-1
  6
Continuous
 62
     2
370
     9
100
AcDbCircle
 10
-122.6274858932829
 20
4.822710162240085
 30
0.0
 40
2.000000025774982
100
AcDbArc
 50
190.6148834228515
 51
255.0005035400391
  0
ARC
  5
1FA
330
1F
100
AcDbEntity
  8
0-1
  6
JWW_DASHED1
 62
     2
370
     9
100
AcDbCircle
 10
36.90479922997511
 20
4.822710162240085
 30
0.0
 40
2.000000025774982
100
AcDbArc
 50
284.9994964599609
 51
349.3851165771484
  0
ARC
  5
1FB
330
1F
100
AcDbEntity
  8
0-1
  6
Continuous
 62
     2
370
     9
100
AcDbCircle
 10
-87.0910569777952
 20
-1.779813229071081
 30
0.0
 40
1.500000019331236
100
AcDbArc
 50
11.31021118164062
 51
90.00000000000001
  0
ARC
  5
1FC
330
1F
100
AcDbEntity
  8
0-1
  6
Continuous
 62
     2
370
     9
100
AcDbCircle
 10
46.59711605852237
 20
8.45506489856821
 30
0.0
 40
3.000000038662472
100
AcDbArc
 50
188.7071380615234
 51
285.0002746582031
  0
ARC
  5
1FD
330
1F
100
AcDbEntity
  8
0-1
  6
Continuous
 62
     2
370
     9
100
AcDbCircle
 10
-132.3198027218302
 20
8.45506489856821
 30
0.0
 40
3.000000038662472
100
AcDbArc
 50
254.9997253417969
 51
351.2928619384766
  0
ARC
  5
1FE
330
1F
100
AcDbEntity
  8
0-1
  6
Continuous
 62
     4
370
     9
100
AcDbCircle
 10
-103.4849597306457
 20
3.419986179712666
 30
0.0
 40
2.80017343727318
100
AcDbArc
 50
47.92556762695312
 51
132.0746307373047
  0
ARC
  5
1FF
330
1F
100
AcDbEntity
  8
0-1
  6
Continuous
 62
     4
370
     9
100
AcDbCircle
 10
-97.86137013763474
 20
-3.869219835384442
 30
0.0
 40
10.08941018903578
100
AcDbArc
 50
68.19786071777344
 51
111.8021392822266
  0
ARC
  5
200
330
1F
100
AcDbEntity
  8
0-1
  6
Continuous
 62
     4
370
     9
100
AcDbCircle
 10
-92.23778054462372
 20
3.419986179712666
 30
0.0
 40
2.800189675511541
100
AcDbArc
 50
47.92572021484374
 51
132.0742797851562
  0
ARC
  5
201
330
1F
100
AcDbEntity
  8
0-1
  6
Continuous
 62
     2
370
     9
100
AcDbCircle
 10
27.39531568637292
 20
3.720217288507044
 30
0.0
 40
1.500000019331236
100
AcDbArc
 50
90.0
 51
169.911865234375
  0
ARC
  5
202
330
1F
100
AcDbEntity
  8
0-1
  6
Continuous
 62
     2
370
     9
100
AcDbCircle
 10
37.76915601840417
 20
6.720227186099933
 30
0.0
 40
1.500000019331236
100
AcDbArc
 50
270.0
 51
349.3843536376953
  0
ARC
  5
203
330
1F
100
AcDbEntity
  8
0-1
  6
Continuous
 62
     2
370
     9
100
AcDbCircle
 10
23.392357955693
 20
1.202121189478291
 30
0.0
 40
2.000000025774982
100
AcDbArc
 50
284.9994964599609
 51
349.9125671386718
  0
ARC
  5
204
330
1F
100
AcDbEntity
  8
0-1
  6
Continuous
 62
     2
370
     9
100
AcDbCircle
 10
-42.86136188964059
 20
268.4449239898373
 30
0.0
 40
83.00000164959881
100
AcDbArc
 50
18.79946899414062
 51
41.20048522949219
  0
ARC
  5
205
330
1F
100
AcDbEntity
  8
0-1
  6
Continuous
 62
     2
370
     9
100
AcDbCircle
 10
-42.86136188964059
 20
268.4449239898373
 30
0.0
 40
86.00000226819839
100
AcDbArc
 50
18.666748046875
 51
41.33323669433593
  0
ARC
  5
206
330
1F
100
AcDbEntity
  8
0-1
  6
Continuous
 62
     2
370
     9
100
AcDbCircle
 10
-42.86136188964059
 20
268.4449239898373
 30
0.0
 40
86.99999938140044
100
AcDbArc
 50
17.63522338867188
 51
42.36474609375
  0
ARC
  5
207
330
1F
100
AcDbEntity
  8
0-1
  6
Continuous
 62
     2
370
     9
100
AcDbCircle
 10
-42.86136188964059
 20
268.4449239898373
 30
0.0
 40
81.49999670080237
100
AcDbArc
 50
17.81321716308594
 51
42.186767578125
  0
ARC
  5
208
330
1F
100
AcDbEntity
  8
0-1
  6
Continuous
 62
     2
370
     9
100
AcDbCircle
 10
-42.86136188964059
 20
268.4449239898373
 30
0.0
 40
83.00000164959881
100
AcDbArc
 50
48.79946899414062
 51
71.20048522949219
  0
ARC
  5
209
330
1F
100
AcDbEntity
  8
0-1
  6
Continuous
 62
     2
370
     9
100
AcDbCircle
 10
-42.86136188964059
 20
268.4449239898373
 30
0.0
 40
86.00000226819839
100
AcDbArc
 50
48.66674804687499
 51
71.33323669433594
  0
ARC
  5
20A
330
1F
100
AcDbEntity
  8
0-1
  6
Continuous
 62
     2
370
     9
100
AcDbCircle
 10
-42.86136188964059
 20
268.4449239898373
 30
0.0
 40
86.99999938140044
100
AcDbArc
 50
47.63522338867188
 51
72.36474609374999
  0
ARC
  5
20B
330
1F
100
AcDbEntity
  8
0-1
  6
Continuous
 62
     2
370
     9
100
AcDbCircle
 10
-42.86136188964059
 20
268.4449239898373
 30
0.0
 40
81.49999670080237
100
AcDbArc
 50
47.81321716308594
 51
72.186767578125
  0
ARC
  5
20C
330
1F
100
AcDbEntity
  8
0-1
  6
Continuous
 62
     2
370
     9
100
AcDbCircle
 10
-42.86136188964059
 20
268.4449239898373
 30
0.0
 40
83.00000164959881
100
AcDbArc
 50
78.79946899414062
 51
101.2004852294922
  0
ARC
  5
20D
330
1F
100
AcDbEntity
  8
0-1
  6
Continuous
 62
     2
370
     9
100
AcDbCircle
 10
-42.86136188964059
 20
268.4449239898373
 30
0.0
 40
86.00000226819839
100
AcDbArc
 50
78.666748046875
 51
101.3332366943359
  0
ARC
  5
20E
330
1F
100
AcDbEntity
  8
0-1
  6
Continuous
 62
     2
370
     9
100
AcDbCircle
 10
-42.86136188964059
 20
268.4449239898373
 30
0.0
 40
86.99999938140044
100
AcDbArc
 50
77.63522338867188
 51
102.36474609375
  0
ARC
  5
20F
330
1F
100
AcDbEntity
  8
0-1
  6
Continuous
 62
     2
370
     9
100
AcDbCircle
 10
-42.86136188964059
 20
268.4449239898373
 30
0.0
 40
83.00000164959881
100
AcDbArc
 50
108.7994689941406
 51
131.2004852294922
  0
ARC
  5
210
330
1F
100
AcDbEntity
  8
0-1
  6
Continuous
 62
     2
370
     9
100
AcDbCircle
 10
-42.86136188964059
 20
268.4449239898373
 30
0.0
 40
86.00000226819839
100
AcDbArc
 50
108.666748046875
 51
131.3332366943359
  0
ARC
  5
211
330
1F
100
AcDbEntity
  8
0-1
  6
Continuous
 62
     2
370
     9
100
AcDbCircle
 10
-42.86136188964059
 20
268.4449239898373
 30
0.0
 40
86.99999938140044
100
AcDbArc
 50
107.6352233886719
 51
132.36474609375
  0
ARC
  5
212
330
1F
100
AcDbEntity
  8
0-1
  6
Continuous
 62
     2
370
     9
100
AcDbCircle
 10
-42.86136188964059
 20
268.4449239898373
 30
0.0
 40
81.49999670080237
100
AcDbArc
 50
107.8132171630859
 51
132.186767578125
  0
ARC
  5
213
330
1F
100
AcDbEntity
  8
0-1
  6
Continuous
 62
     2
370
     9
100
AcDbCircle
 10
-42.86136188964059
 20
268.4449239898373
 30
0.0
 40
83.00000164959881
100
AcDbArc
 50
138.7994689941406
 51
161.2004852294922
  0
ARC
  5
214
330
1F
100
AcDbEntity
  8
0-1
  6
Continuous
 62
     2
370
     9
100
AcDbCircle
 10
-42.86136188964059
 20
268.4449239898373
 30
0.0
 40
86.00000226819839
100
AcDbArc
 50
138.666748046875
 51
161.3332366943359
  0
ARC
  5
215
330
1F
100
AcDbEntity
  8
0-1
  6
Continuous
 62
     2
370
     9
100
AcDbCircle
 10
-42.86136188964059
 20
268.4449239898373
 30
0.0
 40
86.99999938140044
100
AcDbArc
 50
137.6352233886719
 51
162.36474609375
  0
ARC
  5
216
330
1F
100
AcDbEntity
  8
0-1
  6
Continuous
 62
     2
370
     9
100
AcDbCircle
 10
-42.86136188964059
 20
268.4449239898373
 30
0.0
 40
81.49999670080237
100
AcDbArc
 50
137.8132171630859
 51
162.186767578125
  0
ARC
  5
217
330
1F
100
AcDbEntity
  8
0-1
  6
Continuous
 62
     2
370
     9
100
AcDbCircle
 10
-42.86136188964059
 20
268.4449239898373
 30
0.0
 40
96.44103179106841
100
AcDbArc
 50
0.0
 51
180.0
  0
ARC
  5
218
330
1F
100
AcDbEntity
  8
0-1
  6
Continuous
 62
     2
370
     9
100
AcDbCircle
 10
-42.86136188964059
 20
268.4449239898373
 30
0.0
 40
102.0000024743982
100
AcDbArc
 50
0.0
 51
180.0
  0
ARC
  5
219
330
1F
100
AcDbEntity
  8
0-1
  6
Continuous
 62
     2
370
     9
100
AcDbCircle
 10
-42.86136188964059
 20
268.4449239898373
 30
0.0
 40
102.5000010309993
100
AcDbArc
 50
0.0
 51
180.0
  0
ARC
  5
21A
330
1F
100
AcDbEntity
  8
0-1
  6
Continuous
 62
     2
370
     9
100
AcDbCircle
 10
-42.86136188964059
 20
268.4449239898373
 30
0.0
 40
81.49999670080237
100
AcDbArc
 50
7.22616577148436
 51
12.18676757812498
  0
ARC
  5
21B
330
1F
100
AcDbEntity
  8
0-1
  6
Continuous
 62
     2
370
     9
100
AcDbCircle
 10
-42.86136188964059
 20
268.4449239898373
 30
0.0
 40
81.87546188766893
100
AcDbArc
 50
0.0
 51
6.469604492187501
  0
ARC
  5
21C
330
1F
100
AcDbEntity
  8
0-1
  6
Continuous
 62
     2
370
     9
100
AcDbCircle
 10
-42.86136188964059
 20
268.4449239898373
 30
0.0
 40
83.00000164959881
100
AcDbArc
 50
0.0
 51
11.20048522949217
  0
ARC
  5
21D
330
1F
100
AcDbEntity
  8
0-1
  6
Continuous
 62
     2
370
     9
100
AcDbCircle
 10
-42.86136188964059
 20
268.4449239898373
 30
0.0
 40
86.00000226819839
100
AcDbArc
 50
0.0
 51
11.33323669433592
  0
ARC
  5
21E
330
1F
100
AcDbEntity
  8
0-1
  6
Continuous
 62
     2
370
     9
100
AcDbCircle
 10
-42.86136188964059
 20
268.4449239898373
 30
0.0
 40
86.99999938140044
100
AcDbArc
 50
0.0
 51
12.36474609374998
  0
ARC
  5
21F
330
1F
100
AcDbEntity
  8
0-1
  6
Continuous
 62
     2
370
     9
100
AcDbCircle
 10
-42.86136188964059
 20
268.4449239898373
 30
0.0
 40
81.49999670080237
100
AcDbArc
 50
167.8132324218751
 51
172.7738342285157
  0
ARC
  5
220
330
1F
100
AcDbEntity
  8
0-1
  6
Continuous
 62
     2
370
     9
100
AcDbCircle
 10
-42.86136188964059
 20
268.4449239898373
 30
0.0
 40
81.87546188766893
100
AcDbArc
 50
173.5303955078126
 51
180.0
  0
ARC
  5
221
330
1F
100
AcDbEntity
  8
0-1
  6
Continuous
 62
     2
370
     9
100
AcDbCircle
 10
-42.86136188964059
 20
268.4449239898373
 30
0.0
 40
83.00000164959881
100
AcDbArc
 50
168.7995147705079
 51
180.0
  0
ARC
  5
222
330
1F
100
AcDbEntity
  8
0-1
  6
Continuous
 62
     2
370
     9
100
AcDbCircle
 10
-42.86136188964059
 20
268.4449239898373
 30
0.0
 40
86.00000226819839
100
AcDbArc
 50
168.6667633056641
 51
180.0
  0
ARC
  5
223
330
1F
100
AcDbEntity
  8
0-1
  6
Continuous
 62
     2
370
     9
100
AcDbCircle
 10
-42.86136188964059
 20
268.4449239898373
 30
0.0
 40
86.99999938140044
100
AcDbArc
 50
167.63525390625
 51
180.0
  0
ARC
  5
224
330
1F
100
AcDbEntity
  8
0-1
  6
Continuous
 62
     2
370
     9
100
AcDbCircle
 10
-42.86136188964059
 20
268.4449239898373
 30
0.0
 40
81.49999670080237
100
AcDbArc
 50
94.32832336425781
 51
102.186767578125
  0
ARC
  5
225
330
1F
100
AcDbEntity
  8
0-1
  6
Continuous
 62
     2
370
     9
100
AcDbCircle
 10
-42.86136188964059
 20
268.4449239898373
 30
0.0
 40
81.49999670080237
100
AcDbArc
 50
77.81321716308594
 51
85.67167663574219
  0
ARC
  5
226
330
1F
100
AcDbEntity
  8
0-1
  6
Continuous
 62
     2
370
     9
100
AcDbCircle
 10
-42.86136188964059
 20
268.4449239898373
 30
0.0
 40
81.87546188766893
100
AcDbArc
 50
87.12954711914062
 51
92.87045288085938
  0
ARC
  5
227
330
1F
100
AcDbEntity
  8
0-1
  6
Continuous
 62
     2
370
     9
100
AcDbCircle
 10
12.89291716969214
 20
-2.779828900259915
 30
0.0
 40
1.000000012887491
100
AcDbArc
 50
90.0
 51
164.0540161132812
  0
ELLIPSE
  5
228
330
1F
100
AcDbEntity
  8
0-2
  6
Continuous
 62
     6
370
     5
100
AcDbEllipse
 10
33.13864140955707
 20
12.23695989170587
 30
0.0
 11
5.249980204814189
 21
0.0
 31
0.0
210
0.0
220
0.0
230
1.0
 40
0.7428
 41
0.0
 42
1.475408288134874
  0
ELLIPSE
  5
229
330
1F
100
AcDbEntity
  8
0-2
  6
Continuous
 62
     6
370
     5
100
AcDbEllipse
 10
33.13864140955707
 20
12.23695989170587
 30
0.0
 11
5.249980204814189
 21
0.0
 31
0.0
210
0.0
220
0.0
230
1.0
 40
0.7428
 41
1.666184365454919
 42
3.141592653589793
  0
ARC
  5
22A
330
1F
100
AcDbEntity
  8
0-2
  6
Continuous
 62
     6
370
     5
100
AcDbCircle
 10
33.13864140955707
 20
268.4449239898373
 30
0.0
 40
5.249999922675055
100
AcDbArc
 50
0.0
 51
180.0
  0
ARC
  5
22B
330
1F
100
AcDbEntity
  8
0-2
  6
Continuous
 62
     6
370
     5
100
AcDbCircle
 10
-118.8612909568915
 20
268.4449239898373
 30
0.0
 40
5.249999922675055
100
AcDbArc
 50
0.0
 51
180.0
  0
ARC
  5
22C
330
1F
100
AcDbEntity
  8
0-2
  6
Continuous
 62
     6
370
     5
100
AcDbCircle
 10
3.517273826153312
 20
41.42124977240688
 30
0.0
 40
10.00000128874908
100
AcDbArc
 50
14.99996948242188
 51
80.634521484375
  0
ARC
  5
22D
330
1F
100
AcDbEntity
  8
0-2
  6
Continuous
 62
     6
370
     5
100
AcDbCircle
 10
3.517125362259717
 20
41.42124977240688
 30
0.0
 40
15.00000077324945
100
AcDbArc
 50
15.00003051757813
 51
80.63453674316406
  0
ARC
  5
22E
330
1F
100
AcDbEntity
  8
0-2
  6
Continuous
 62
     6
370
     5
100
AcDbCircle
 10
-42.86128765769379
 20
-239.7797942586848
 30
0.0
 40
295.0000391779719
100
AcDbArc
 50
80.63450622558594
 51
90.0
  0
ARC
  5
22F
330
1F
100
AcDbEntity
  8
0-2
  6
Continuous
 62
     6
370
     5
100
AcDbCircle
 10
-42.86128765769379
 20
-239.7797942586848
 30
0.0
 40
300.0000061859956
100
AcDbArc
 50
80.634521484375
 51
90.0
  0
ARC
  5
230
330
1F
100
AcDbEntity
  8
0-2
  6
Continuous
 62
     6
370
     5
100
AcDbCircle
 10
25.87207613823105
 20
8.220232134896335
 30
0.0
 40
3.000000038662472
100
AcDbArc
 50
194.9997253417968
 51
270.0
  0
ARC
  5
231
330
1F
100
AcDbEntity
  8
0-2
  6
Continuous
 62
     6
370
     5
100
AcDbCircle
 10
28.42016194376308
 20
14.16506047764337
 30
0.0
 40
2.000000025774982
100
AcDbArc
 50
195.0008087158203
 51
267.3983001708984
  0
ARC
  5
232
330
1F
100
AcDbEntity
  8
0-2
  6
Continuous
 62
     6
370
     5
100
AcDbCircle
 10
28.69170240512292
 20
13.15160882408556
 30
0.0
 40
2.000000025774982
100
AcDbArc
 50
194.9997711181641
 51
267.3983001708984
  0
ARC
  5
233
330
1F
100
AcDbEntity
  8
0-2
  6
Continuous
 62
     6
370
     5
100
AcDbCircle
 10
-89.23988625751434
 20
41.42124977240688
 30
0.0
 40
10.00000128874908
100
AcDbArc
 50
99.36547851562503
 51
165.0000305175782
  0
ARC
  5
234
330
1F
100
AcDbEntity
  8
0-2
  6
Continuous
 62
     6
370
     5
100
AcDbCircle
 10
-89.23984914154099
 20
41.42124977240688
 30
0.0
 40
15.00000077324945
100
AcDbArc
 50
99.36546325683597
 51
164.9999694824219
  0
ARC
  5
235
330
1F
100
AcDbEntity
  8
0-2
  6
Continuous
 62
     6
370
     5
100
AcDbCircle
 10
-42.86128765769379
 20
-239.7797942586848
 30
0.0
 40
295.0000391779719
100
AcDbArc
 50
90.0
 51
99.36549377441406
  0
ARC
  5
236
330
1F
100
AcDbEntity
  8
0-2
  6
Continuous
 62
     6
370
     5
100
AcDbCircle
 10
-42.86128765769379
 20
-239.7797942586848
 30
0.0
 40
300.0000061859956
100
AcDbArc
 50
90.0
 51
99.365478515625
  0
ARC
  5
237
330
1F
100
AcDbEntity
  8
0-2
  6
Continuous
 62
     6
370
     5
100
AcDbCircle
 10
-111.5946885695921
 20
8.220232134896335
 30
0.0
 40
3.000000038662472
100
AcDbArc
 50
270.0
 51
345.0002746582032
  0
ARC
  5
238
330
1F
100
AcDbEntity
  8
0-2
  6
Continuous
 62
     6
370
     5
100
AcDbCircle
 10
-114.414314836484
 20
13.15160882408556
 30
0.0
 40
2.000000025774982
100
AcDbArc
 50
272.6016998291016
 51
345.0002288818359
  0
ARC
  5
239
330
1F
100
AcDbEntity
  8
0-2
  6
Continuous
 62
     6
370
     5
100
AcDbCircle
 10
-42.86128765769379
 20
-239.7797942586848
 30
0.0
 40
299.0000090727935
100
AcDbArc
 50
94.7962188720703
 51
99.8208770751953
  0
ARC
  5
23A
330
1F
100
AcDbEntity
  8
0-2
  6
Continuous
 62
     6
370
     5
100
AcDbCircle
 10
-42.86128765769379
 20
268.4449239898373
 30
0.0
 40
70.00000206199853
100
AcDbArc
 50
0.0
 51
180.0
  0
ARC
  5
23B
330
1F
100
AcDbEntity
  8
0-2
  6
Continuous
 62
     6
370
     5
100
AcDbCircle
 10
-42.86128765769379
 20
268.4449239898373
 30
0.0
 40
18.00000255172317
100
AcDbArc
 50
37.7996826171875
 51
142.2003173828125
  0
ARC
  5
23C
330
1F
100
AcDbEntity
  8
0-2
  6
Continuous
 62
     6
370
     5
100
AcDbCircle
 10
-30.61383298866934
 20
277.9449058442502
 30
0.0
 40
2.500000322187269
100
AcDbArc
 50
270.0
 51
37.79985046386719
  0
ARC
  5
23D
330
1F
100
AcDbEntity
  8
0-2
  6
Continuous
 62
     6
370
     5
100
AcDbCircle
 10
-55.10874232671834
 20
277.9449058442502
 30
0.0
 40
2.500000322187269
100
AcDbArc
 50
142.2001495361328
 51
270.0
  0
ARC
  5
23E
330
1F
100
AcDbEntity
  8
0-2
  6
Continuous
 62
     6
370
     5
100
AcDbCircle
 10
-68.59431163626223
 20
274.7743109329327
 30
0.0
 40
1.500000019331236
100
AcDbArc
 50
346.1810760498046
 51
67.49932861328122
  0
ARC
  5
23F
330
1F
100
AcDbEntity
  8
0-2
  6
Continuous
 62
     6
370
     5
100
AcDbCircle
 10
-69.0576674481288
 20
272.4449866745924
 30
0.0
 40
1.500000019331236
100
AcDbArc
 50
270.0
 51
351.3187255859374
  0
ARC
  5
240
330
1F
100
AcDbEntity
  8
0-2
  6
Continuous
 62
     6
370
     5
100
AcDbCircle
 10
-42.86128765769379
 20
268.4449239898373
 30
0.0
 40
25.00000206199853
100
AcDbArc
 50
166.1816558837891
 51
171.3183288574219
  0
ARC
  5
241
330
1F
100
AcDbEntity
  8
0-2
  6
Continuous
 62
     6
370
     5
100
AcDbCircle
 10
-89.97455983490036
 20
283.630256416991
 30
0.0
 40
1.500000019331236
100
AcDbArc
 50
67.4998779296875
 51
162.1348876953125
  0
ARC
  5
242
330
1F
100
AcDbEntity
  8
0-2
  6
Continuous
 62
     6
370
     5
100
AcDbCircle
 10
-92.19947686007981
 20
272.4449866745924
 30
0.0
 40
1.500000019331236
100
AcDbArc
 50
175.3646850585938
 51
270.0
  0
ARC
  5
243
330
1F
100
AcDbEntity
  8
0-2
  6
Continuous
 62
     6
370
     5
100
AcDbCircle
 10
-42.86128765769379
 20
268.4449239898373
 30
0.0
 40
51.00000123719911
100
AcDbArc
 50
162.1350555419922
 51
175.3649444580078
  0
ARC
  5
244
330
1F
100
AcDbEntity
  8
0-2
  6
Continuous
 62
     6
370
     5
100
AcDbCircle
 10
-90.58292775482224
 20
284.9646498924977
 30
0.0
 40
1.500000019331236
100
AcDbArc
 50
67.49932861328125
 51
160.9064636230469
  0
ARC
  5
245
330
1F
100
AcDbEntity
  8
0-2
  6
Continuous
 62
     6
370
     5
100
AcDbCircle
 10
-93.2720542592563
 20
271.4449338874302
 30
0.0
 40
1.500000019331236
100
AcDbArc
 50
176.5940856933594
 51
270.0
  0
ARC
  5
246
330
1F
100
AcDbEntity
  8
0-2
  6
Continuous
 62
     6
370
     5
100
AcDbCircle
 10
-67.404670456997
 20
275.3639352862899
 30
0.0
 40
1.500000019331236
100
AcDbArc
 50
344.2559661865234
 51
67.49932861328125
  0
ARC
  5
247
330
1F
100
AcDbEntity
  8
0-2
  6
Continuous
 62
     6
370
     5
100
AcDbCircle
 10
-68.1841801302445
 20
271.4449338874302
 30
0.0
 40
1.500000019331236
100
AcDbArc
 50
270.0
 51
353.2432098388672
  0
ARC
  5
248
330
1F
100
AcDbEntity
  8
0-2
  6
Continuous
 62
     6
370
     5
100
AcDbCircle
 10
-42.86128765769379
 20
268.4449239898373
 30
0.0
 40
24.00000030929978
100
AcDbArc
 50
164.2563781738282
 51
173.2436828613282
  0
ARC
  5
249
330
1F
100
AcDbEntity
  8
0-2
  6
Continuous
 62
     6
370
     5
100
AcDbCircle
 10
-42.86128765769379
 20
268.4449239898373
 30
0.0
 40
52.00000762939453
100
AcDbArc
 50
160.90576171875
 51
176.5942687988282
  0
ARC
  5
24A
330
1F
100
AcDbEntity
  8
0-2
  6
Continuous
 62
     6
370
     5
100
AcDbCircle
 10
-90.55223284482435
 20
281.7048281811379
 30
0.0
 40
1.500000019331236
100
AcDbArc
 50
67.4998779296875
 51
164.4620056152344
  0
ARC
  5
24B
330
1F
100
AcDbEntity
  8
0-2
  6
Continuous
 62
     6
370
     5
100
AcDbCircle
 10
-69.00444314227997
 20
272.7794015948837
 30
0.0
 40
1.500000019331236
100
AcDbArc
 50
350.5866241455078
 51
67.49932861328129
  0
ARC
  5
24C
330
1F
100
AcDbEntity
  8
0-2
  6
Continuous
 62
     6
370
     5
100
AcDbCircle
 10
-64.21336483252489
 20
284.1400814275484
 30
0.0
 40
1.500000019331236
100
AcDbArc
 50
323.6810760498047
 51
44.99932861328125
  0
ARC
  5
24D
330
1F
100
AcDbEntity
  8
0-2
  6
Continuous
 62
     6
370
     5
100
AcDbCircle
 10
-65.53283768672677
 20
282.1653631790264
 30
0.0
 40
1.500000019331236
100
AcDbArc
 50
247.5
 51
328.8187255859375
  0
ARC
  5
24E
330
1F
100
AcDbEntity
  8
0-2
  6
Continuous
 62
     6
370
     5
100
AcDbCircle
 10
-42.86128765769379
 20
268.4449239898373
 30
0.0
 40
25.00000206199853
100
AcDbArc
 50
143.6816558837891
 51
148.8183288574219
  0
ARC
  5
24F
330
1F
100
AcDbEntity
  8
0-2
  6
Continuous
 62
     6
370
     5
100
AcDbCircle
 10
-80.57712941497849
 20
300.5037717780552
 30
0.0
 40
1.500000019331236
100
AcDbArc
 50
44.99987792968753
 51
139.6348876953125
  0
ARC
  5
250
330
1F
100
AcDbEntity
  8
0-2
  6
Continuous
 62
     6
370
     5
100
AcDbCircle
 10
-86.91304876939145
 20
291.0213828950315
 30
0.0
 40
1.500000019331236
100
AcDbArc
 50
152.8646850585938
 51
247.5
  0
ARC
  5
251
330
1F
100
AcDbEntity
  8
0-2
  6
Continuous
 62
     6
370
     5
100
AcDbCircle
 10
-42.86128765769379
 20
268.4449239898373
 30
0.0
 40
51.00000123719911
100
AcDbArc
 50
139.6350555419922
 51
152.8649444580078
  0
ARC
  5
252
330
1F
100
AcDbEntity
  8
0-2
  6
Continuous
 62
     6
370
     5
100
AcDbCircle
 10
-80.62846080618411
 20
301.9694073354876
 30
0.0
 40
1.500000019331236
100
AcDbArc
 50
44.99932861328127
 51
138.4064636230469
  0
ARC
  5
253
330
1F
100
AcDbEntity
  8
0-2
  6
Continuous
 62
     6
370
     5
100
AcDbCircle
 10
-88.28682229267059
 20
290.5079947510281
 30
0.0
 40
1.500000019331236
100
AcDbArc
 50
154.0940856933594
 51
247.5
  0
ARC
  5
254
330
1F
100
AcDbEntity
  8
0-2
  6
Continuous
 62
     6
370
     5
100
AcDbCircle
 10
-62.88862151010091
 20
284.2296051553778
 30
0.0
 40
1.500000019331236
100
AcDbArc
 50
321.7559661865234
 51
44.99932861328127
  0
ARC
  5
255
330
1F
100
AcDbEntity
  8
0-2
  6
Continuous
 62
     6
370
     5
100
AcDbCircle
 10
-65.1086021108188
 20
280.9072801448204
 30
0.0
 40
1.500000019331236
100
AcDbArc
 50
247.5
 51
330.7432098388672
  0
ARC
  5
256
330
1F
100
AcDbEntity
  8
0-2
  6
Continuous
 62
     6
370
     5
100
AcDbCircle
 10
-42.86128765769379
 20
268.4449239898373
 30
0.0
 40
24.00000030929978
100
AcDbArc
 50
141.7563781738282
 51
150.7436828613282
  0
ARC
  5
257
330
1F
100
AcDbEntity
  8
0-2
  6
Continuous
 62
     6
370
     5
100
AcDbCircle
 10
-42.86128765769379
 20
268.4449239898373
 30
0.0
 40
52.00000762939453
100
AcDbArc
 50
138.40576171875
 51
154.0942687988282
  0
ARC
  5
258
330
1F
100
AcDbEntity
  8
0-2
  6
Continuous
 62
     6
370
     5
100
AcDbCircle
 10
-81.84764630027192
 20
298.9459401427089
 30
0.0
 40
1.500000019331236
100
AcDbArc
 50
44.99987792968753
 51
141.9620056152344
  0
ARC
  5
259
330
1F
100
AcDbEntity
  8
0-2
  6
Continuous
 62
     6
370
     5
100
AcDbCircle
 10
-65.3556460297377
 20
282.453976988148
 30
0.0
 40
1.500000019331236
100
AcDbArc
 50
328.0866241455079
 51
44.99932861328131
  0
ARC
  5
25A
330
1F
100
AcDbEntity
  8
0-2
  6
Continuous
 62
     6
370
     5
100
AcDbCircle
 10
-56.58172684688302
 20
291.1164740188702
 30
0.0
 40
1.500000019331236
100
AcDbArc
 50
301.1810760498047
 51
22.49932861328127
  0
ARC
  5
25B
330
1F
100
AcDbEntity
  8
0-2
  6
Continuous
 62
     6
370
     5
100
AcDbCircle
 10
-58.55644509540497
 20
289.7970011646684
 30
0.0
 40
1.500000019331236
100
AcDbArc
 50
225.0000000000001
 51
306.3187255859376
  0
ARC
  5
25C
330
1F
100
AcDbEntity
  8
0-2
  6
Continuous
 62
     6
370
     5
100
AcDbCircle
 10
-42.86128765769379
 20
268.4449239898373
 30
0.0
 40
25.00000206199853
100
AcDbArc
 50
121.1816558837891
 51
126.3183288574219
  0
ARC
  5
25D
330
1F
100
AcDbEntity
  8
0-2
  6
Continuous
 62
     6
370
     5
100
AcDbCircle
 10
-65.4377465628881
 20
312.4966851015349
 30
0.0
 40
1.500000019331236
100
AcDbArc
 50
22.49987792968755
 51
117.1348876953126
  0
ARC
  5
25E
330
1F
100
AcDbEntity
  8
0-2
  6
Continuous
 62
     6
370
     5
100
AcDbCircle
 10
-74.92013544591168
 20
306.1606915151751
 30
0.0
 40
1.500000019331236
100
AcDbArc
 50
130.3646850585938
 51
225.0
  0
ARC
  5
25F
330
1F
100
AcDbEntity
  8
0-2
  6
Continuous
 62
     6
370
     5
100
AcDbCircle
 10
-42.86128765769379
 20
268.4449239898373
 30
0.0
 40
51.00000123719911
100
AcDbArc
 50
117.1350555419923
 51
130.3649444580079
  0
ARC
  5
260
330
1F
100
AcDbEntity
  8
0-2
  6
Continuous
 62
     6
370
     5
100
AcDbCircle
 10
-64.92435841888474
 20
313.8704215088406
 30
0.0
 40
1.500000019331236
100
AcDbArc
 50
22.4993286132813
 51
115.9064636230469
  0
ARC
  5
261
330
1F
100
AcDbEntity
  8
0-2
  6
Continuous
 62
     6
370
     5
100
AcDbCircle
 10
-76.38577100334419
 20
306.2120600223541
 30
0.0
 40
1.500000019331236
100
AcDbArc
 50
131.5940856933594
 51
225.0
  0
ARC
  5
262
330
1F
100
AcDbEntity
  8
0-2
  6
Continuous
 62
     6
370
     5
100
AcDbCircle
 10
-55.32364381267693
 20
290.6922384429623
 30
0.0
 40
1.500000019331236
100
AcDbArc
 50
299.2559661865235
 51
22.4993286132813
  0
ARC
  5
263
330
1F
100
AcDbEntity
  8
0-2
  6
Continuous
 62
     6
370
     5
100
AcDbCircle
 10
-58.64596882323435
 20
288.4722578422444
 30
0.0
 40
1.500000019331236
100
AcDbArc
 50
225.0000000000001
 51
308.2432098388672
  0
ARC
  5
264
330
1F
100
AcDbEntity
  8
0-2
  6
Continuous
 62
     6
370
     5
100
AcDbCircle
 10
-42.86128765769379
 20
268.4449239898373
 30
0.0
 40
24.00000030929978
100
AcDbArc
 50
119.2563781738282
 51
128.2436828613282
  0
ARC
  5
265
330
1F
100
AcDbEntity
  8
0-2
  6
Continuous
 62
     6
370
     5
100
AcDbCircle
 10
-42.86128765769379
 20
268.4449239898373
 30
0.0
 40
52.00000762939453
100
AcDbArc
 50
115.9057617187501
 51
131.5942687988282
  0
ARC
  5
266
330
1F
100
AcDbEntity
  8
0-2
  6
Continuous
 62
     6
370
     5
100
AcDbCircle
 10
-67.20773310216168
 20
311.5436953686379
 30
0.0
 40
1.500000019331236
100
AcDbArc
 50
22.49987792968755
 51
119.4620056152344
  0
ARC
  5
267
330
1F
100
AcDbEntity
  8
0-2
  6
Continuous
 62
     6
370
     5
100
AcDbCircle
 10
-58.28230651590747
 20
289.9957943181734
 30
0.0
 40
1.500000019331236
100
AcDbArc
 50
305.5866241455079
 51
22.49932861328134
  0
ARC
  5
268
330
1F
100
AcDbEntity
  8
0-2
  6
Continuous
 62
     6
370
     5
100
AcDbCircle
 10
-46.86135034244887
 20
294.6413037802722
 30
0.0
 40
1.500000019331236
100
AcDbArc
 50
278.6810760498047
 51
359.9993286132812
  0
ARC
  5
269
330
1F
100
AcDbEntity
  8
0-2
  6
Continuous
 62
     6
370
     5
100
AcDbCircle
 10
-49.19067460078927
 20
294.1779479684056
 30
0.0
 40
1.500000019331236
100
AcDbArc
 50
202.5
 51
283.8187255859375
  0
ARC
  5
26A
330
1F
100
AcDbEntity
  8
0-2
  6
Continuous
 62
     6
370
     5
100
AcDbCircle
 10
-42.86128765769379
 20
268.4449239898373
 30
0.0
 40
25.00000206199853
100
AcDbArc
 50
98.68165588378909
 51
103.8183288574219
  0
ARC
  5
26B
330
1F
100
AcDbEntity
  8
0-2
  6
Continuous
 62
     6
370
     5
100
AcDbCircle
 10
-46.86135034244887
 20
317.7830389602764
 30
0.0
 40
1.500000019331236
100
AcDbArc
 50
359.9998779296876
 51
94.63488769531251
  0
ARC
  5
26C
330
1F
100
AcDbEntity
  8
0-2
  6
Continuous
 62
     6
370
     5
100
AcDbCircle
 10
-58.04662008484755
 20
315.5581590510704
 30
0.0
 40
1.500000019331236
100
AcDbArc
 50
107.8646850585938
 51
202.5
  0
ARC
  5
26D
330
1F
100
AcDbEntity
  8
0-2
  6
Continuous
 62
     6
370
     5
100
AcDbCircle
 10
-42.86128765769379
 20
268.4449239898373
 30
0.0
 40
51.00000123719911
100
AcDbArc
 50
94.63505554199222
 51
107.8649444580078
  0
ARC
  5
26E
330
1F
100
AcDbEntity
  8
0-2
  6
Continuous
 62
     6
370
     5
100
AcDbCircle
 10
-45.86129755528668
 20
318.8556905913998
 30
0.0
 40
1.500000019331236
100
AcDbArc
 50
359.9993286132812
 51
93.4064636230469
  0
ARC
  5
26F
330
1F
100
AcDbEntity
  8
0-2
  6
Continuous
 62
     6
370
     5
100
AcDbCircle
 10
-59.38101356035427
 20
316.1664156230721
 30
0.0
 40
1.500000019331236
100
AcDbArc
 50
109.0940856933594
 51
202.5
  0
ARC
  5
270
330
1F
100
AcDbEntity
  8
0-2
  6
Continuous
 62
     6
370
     5
100
AcDbCircle
 10
-45.86129755528668
 20
293.7678164623879
 30
0.0
 40
1.500000019331236
100
AcDbArc
 50
276.7559661865235
 51
359.9993286132812
  0
ARC
  5
271
330
1F
100
AcDbEntity
  8
0-2
  6
Continuous
 62
     6
370
     5
100
AcDbCircle
 10
-49.78029895414654
 20
292.9883067891405
 30
0.0
 40
1.500000019331236
100
AcDbArc
 50
202.5
 51
285.7432098388672
  0
ARC
  5
272
330
1F
100
AcDbEntity
  8
0-2
  6
Continuous
 62
     6
370
     5
100
AcDbCircle
 10
-42.86128765769379
 20
268.4449239898373
 30
0.0
 40
24.00000030929978
100
AcDbArc
 50
96.75637817382817
 51
105.7436828613282
  0
ARC
  5
273
330
1F
100
AcDbEntity
  8
0-2
  6
Continuous
 62
     6
370
     5
100
AcDbCircle
 10
-42.86128765769379
 20
268.4449239898373
 30
0.0
 40
52.00000762939453
100
AcDbArc
 50
93.40576171875004
 51
109.0942687988282
  0
ARC
  5
274
330
1F
100
AcDbEntity
  8
0-2
  6
Continuous
 62
     6
370
     5
100
AcDbCircle
 10
-48.86138168482646
 20
317.5799403538575
 30
0.0
 40
1.500000019331236
100
AcDbArc
 50
359.9998779296876
 51
96.9620056152344
  0
ARC
  5
275
330
1F
100
AcDbEntity
  8
0-2
  6
Continuous
 62
     6
370
     5
100
AcDbCircle
 10
-48.86138168482646
 20
294.2567080639504
 30
0.0
 40
1.500000019331236
100
AcDbArc
 50
283.0866241455079
 51
359.9993286132813
  0
ARC
  5
276
330
1F
100
AcDbEntity
  8
0-2
  6
Continuous
 62
     6
370
     5
100
AcDbCircle
 10
-36.53190071459841
 20
294.1779479684056
 30
0.0
 40
1.500000019331236
100
AcDbArc
 50
256.1810760498046
 51
337.4993286132813
  0
ARC
  5
277
330
1F
100
AcDbEntity
  8
0-2
  6
Continuous
 62
     6
370
     5
100
AcDbCircle
 10
-38.86122497293871
 20
294.6413037802722
 30
0.0
 40
1.500000019331236
100
AcDbArc
 50
180.0
 51
261.3187255859376
  0
ARC
  5
278
330
1F
100
AcDbEntity
  8
0-2
  6
Continuous
 62
     6
370
     5
100
AcDbCircle
 10
-42.86128765769379
 20
268.4449239898373
 30
0.0
 40
25.00000206199853
100
AcDbArc
 50
76.18165588378908
 51
81.31832885742189
  0
ARC
  5
279
330
1F
100
AcDbEntity
  8
0-2
  6
Continuous
 62
     6
370
     5
100
AcDbCircle
 10
-27.67602946248692
 20
315.5581590510704
 30
0.0
 40
1.500000019331236
100
AcDbArc
 50
337.4998779296876
 51
72.1348876953125
  0
ARC
  5
27A
330
1F
100
AcDbEntity
  8
0-2
  6
Continuous
 62
     6
370
     5
100
AcDbCircle
 10
-38.86122497293871
 20
317.7830389602764
 30
0.0
 40
1.500000019331236
100
AcDbArc
 50
85.36468505859374
 51
180.0
  0
ARC
  5
27B
330
1F
100
AcDbEntity
  8
0-2
  6
Continuous
 62
     6
370
     5
100
AcDbCircle
 10
-42.86128765769379
 20
268.4449239898373
 30
0.0
 40
51.00000123719911
100
AcDbArc
 50
72.13505554199219
 51
85.36494445800783
  0
ARC
  5
27C
330
1F
100
AcDbEntity
  8
0-2
  6
Continuous
 62
     6
370
     5
100
AcDbCircle
 10
-26.34163598698012
 20
316.1664156230721
 30
0.0
 40
1.500000019331236
100
AcDbArc
 50
337.4993286132813
 51
70.90646362304688
  0
ARC
  5
27D
330
1F
100
AcDbEntity
  8
0-2
  6
Continuous
 62
     6
370
     5
100
AcDbCircle
 10
-39.8613519920477
 20
318.8556905913998
 30
0.0
 40
1.500000019331236
100
AcDbArc
 50
86.59408569335936
 51
180.0
  0
ARC
  5
27E
330
1F
100
AcDbEntity
  8
0-2
  6
Continuous
 62
     6
370
     5
100
AcDbCircle
 10
-35.94235059318794
 20
292.9883067891405
 30
0.0
 40
1.500000019331236
100
AcDbArc
 50
254.2559661865234
 51
337.4993286132813
  0
ARC
  5
27F
330
1F
100
AcDbEntity
  8
0-2
  6
Continuous
 62
     6
370
     5
100
AcDbCircle
 10
-39.8613519920477
 20
293.7678164623879
 30
0.0
 40
1.500000019331236
100
AcDbArc
 50
180.0
 51
263.2432098388672
  0
ARC
  5
280
330
1F
100
AcDbEntity
  8
0-2
  6
Continuous
 62
     6
370
     5
100
AcDbCircle
 10
-42.86128765769379
 20
268.4449239898373
 30
0.0
 40
24.00000030929978
100
AcDbArc
 50
74.25637817382815
 51
83.24368286132814
  0
ARC
  5
281
330
1F
100
AcDbEntity
  8
0-2
  6
Continuous
 62
     6
370
     5
100
AcDbCircle
 10
-42.86128765769379
 20
268.4449239898373
 30
0.0
 40
52.00000762939453
100
AcDbArc
 50
70.90576171875001
 51
86.59426879882814
  0
ARC
  5
282
330
1F
100
AcDbEntity
  8
0-2
  6
Continuous
 62
     6
370
     5
100
AcDbCircle
 10
-29.60145769833997
 20
316.1358320609944
 30
0.0
 40
1.500000019331236
100
AcDbArc
 50
337.4998779296876
 51
74.46200561523438
  0
ARC
  5
283
330
1F
100
AcDbEntity
  8
0-2
  6
Continuous
 62
     6
370
     5
100
AcDbCircle
 10
-38.52681005264739
 20
294.5880794744234
 30
0.0
 40
1.500000019331236
100
AcDbArc
 50
260.5866241455078
 51
337.4993286132813
  0
ARC
  5
284
330
1F
100
AcDbEntity
  8
0-2
  6
Continuous
 62
     6
370
     5
100
AcDbCircle
 10
-27.16620445192942
 20
289.7970011646684
 30
0.0
 40
1.500000019331236
100
AcDbArc
 50
233.6810760498047
 51
314.9993286132812
  0
ARC
  5
285
330
1F
100
AcDbEntity
  8
0-2
  6
Continuous
 62
     6
370
     5
100
AcDbCircle
 10
-29.14092270045145
 20
291.1164740188702
 30
0.0
 40
1.500000019331236
100
AcDbArc
 50
157.5
 51
238.8187255859375
  0
ARC
  5
286
330
1F
100
AcDbEntity
  8
0-2
  6
Continuous
 62
     6
370
     5
100
AcDbCircle
 10
-42.86128765769379
 20
268.4449239898373
 30
0.0
 40
25.00000206199853
100
AcDbArc
 50
53.6816558837891
 51
58.81832885742192
  0
ARC
  5
287
330
1F
100
AcDbEntity
  8
0-2
  6
Continuous
 62
     6
370
     5
100
AcDbCircle
 10
-10.8025141014227
 20
306.1606915151751
 30
0.0
 40
1.500000019331236
100
AcDbArc
 50
314.9998779296874
 51
49.63488769531252
  0
ARC
  5
288
330
1F
100
AcDbEntity
  8
0-2
  6
Continuous
 62
     6
370
     5
100
AcDbCircle
 10
-20.28490298444638
 20
312.4966851015349
 30
0.0
 40
1.500000019331236
100
AcDbArc
 50
62.86468505859376
 51
157.5
  0
ARC
  5
289
330
1F
100
AcDbEntity
  8
0-2
  6
Continuous
 62
     6
370
     5
100
AcDbCircle
 10
-42.86128765769379
 20
268.4449239898373
 30
0.0
 40
51.00000123719911
100
AcDbArc
 50
49.63505554199222
 51
62.86494445800786
  0
ARC
  5
28A
330
1F
100
AcDbEntity
  8
0-2
  6
Continuous
 62
     6
370
     5
100
AcDbCircle
 10
-9.336878543990283
 20
306.2120600223541
 30
0.0
 40
1.500000019331236
100
AcDbArc
 50
314.9993286132812
 51
48.4064636230469
  0
ARC
  5
28B
330
1F
100
AcDbEntity
  8
0-2
  6
Continuous
 62
     6
370
     5
100
AcDbCircle
 10
-20.79829112844973
 20
313.8704215088406
 30
0.0
 40
1.500000019331236
100
AcDbArc
 50
64.0940856933594
 51
157.5
  0
ARC
  5
28C
330
1F
100
AcDbEntity
  8
0-2
  6
Continuous
 62
     6
370
     5
100
AcDbCircle
 10
-27.07668072410004
 20
288.4722578422444
 30
0.0
 40
1.500000019331236
100
AcDbArc
 50
231.7559661865235
 51
314.9993286132812
  0
ARC
  5
28D
330
1F
100
AcDbEntity
  8
0-2
  6
Continuous
 62
     6
370
     5
100
AcDbCircle
 10
-30.39900573465746
 20
290.6922384429623
 30
0.0
 40
1.500000019331236
100
AcDbArc
 50
157.5
 51
240.7432098388672
  0
ARC
  5
28E
330
1F
100
AcDbEntity
  8
0-2
  6
Continuous
 62
     6
370
     5
100
AcDbCircle
 10
-42.86128765769379
 20
268.4449239898373
 30
0.0
 40
24.00000030929978
100
AcDbArc
 50
51.75637817382817
 51
60.74368286132817
  0
ARC
  5
28F
330
1F
100
AcDbEntity
  8
0-2
  6
Continuous
 62
     6
370
     5
100
AcDbCircle
 10
-42.86128765769379
 20
268.4449239898373
 30
0.0
 40
52.00000762939453
100
AcDbArc
 50
48.40576171875004
 51
64.09426879882817
  0
ARC
  5
290
330
1F
100
AcDbEntity
  8
0-2
  6
Continuous
 62
     6
370
     5
100
AcDbCircle
 10
-12.36034573676895
 20
307.4312455164419
 30
0.0
 40
1.500000019331236
100
AcDbArc
 50
314.9998779296874
 51
51.9620056152344
  0
ARC
  5
291
330
1F
100
AcDbEntity
  8
0-2
  6
Continuous
 62
     6
370
     5
100
AcDbCircle
 10
-28.85230889132981
 20
290.9392823618812
 30
0.0
 40
1.500000019331236
100
AcDbArc
 50
238.0866241455079
 51
314.9993286132813
  0
ARC
  5
292
330
1F
100
AcDbEntity
  8
0-2
  6
Continuous
 62
     6
370
     5
100
AcDbCircle
 10
-20.18973762866091
 20
282.1653631790264
 30
0.0
 40
1.500000019331236
100
AcDbArc
 50
211.1810760498047
 51
292.4993286132812
  0
ARC
  5
293
330
1F
100
AcDbEntity
  8
0-2
  6
Continuous
 62
     6
370
     5
100
AcDbCircle
 10
-21.5092847148095
 20
284.1400814275484
 30
0.0
 40
1.500000019331236
100
AcDbArc
 50
135.0
 51
216.3187255859375
  0
ARC
  5
294
330
1F
100
AcDbEntity
  8
0-2
  6
Continuous
 62
     6
370
     5
100
AcDbCircle
 10
-42.86128765769379
 20
268.4449239898373
 30
0.0
 40
25.00000206199853
100
AcDbArc
 50
31.18165588378908
 51
36.31832885742189
  0
ARC
  5
295
330
1F
100
AcDbEntity
  8
0-2
  6
Continuous
 62
     6
370
     5
100
AcDbCircle
 10
1.190399222057065
 20
291.0213828950315
 30
0.0
 40
1.500000019331236
100
AcDbArc
 50
292.4998779296875
 51
27.1348876953125
  0
ARC
  5
296
330
1F
100
AcDbEntity
  8
0-2
  6
Continuous
 62
     6
370
     5
100
AcDbCircle
 10
-5.145594364302783
 20
300.5037717780552
 30
0.0
 40
1.500000019331236
100
AcDbArc
 50
40.36468505859374
 51
135.0
  0
ARC
  5
297
330
1F
100
AcDbEntity
  8
0-2
  6
Continuous
 62
     6
370
     5
100
AcDbCircle
 10
-42.86128765769379
 20
268.4449239898373
 30
0.0
 40
51.00000123719911
100
AcDbArc
 50
27.13505554199219
 51
40.36494445800782
  0
ARC
  5
298
330
1F
100
AcDbEntity
  8
0-2
  6
Continuous
 62
     6
370
     5
100
AcDbCircle
 10
2.564135629362765
 20
290.5079947510281
 30
0.0
 40
1.500000019331236
100
AcDbArc
 50
292.4993286132812
 51
25.90646362304687
  0
ARC
  5
299
330
1F
100
AcDbEntity
  8
0-2
  6
Continuous
 62
     6
370
     5
100
AcDbCircle
 10
-5.094225857123719
 20
301.9694073354876
 30
0.0
 40
1.500000019331236
100
AcDbArc
 50
41.59408569335938
 51
135.0
  0
ARC
  5
29A
330
1F
100
AcDbEntity
  8
0-2
  6
Continuous
 62
     6
370
     5
100
AcDbCircle
 10
-20.61404743651559
 20
280.9072801448204
 30
0.0
 40
1.500000019331236
100
AcDbArc
 50
209.2559661865234
 51
292.4993286132812
  0
ARC
  5
29B
330
1F
100
AcDbEntity
  8
0-2
  6
Continuous
 62
     6
370
     5
100
AcDbCircle
 10
-22.83402803723348
 20
284.2296051553778
 30
0.0
 40
1.500000019331236
100
AcDbArc
 50
135.0
 51
218.2432098388671
  0
ARC
  5
29C
330
1F
100
AcDbEntity
  8
0-2
  6
Continuous
 62
     6
370
     5
100
AcDbCircle
 10
-42.86128765769379
 20
268.4449239898373
 30
0.0
 40
24.00000030929978
100
AcDbArc
 50
29.25637817382814
 51
38.24368286132814
  0
ARC
  5
29D
330
1F
100
AcDbEntity
  8
0-2
  6
Continuous
 62
     6
370
     5
100
AcDbCircle
 10
-42.86128765769379
 20
268.4449239898373
 30
0.0
 40
52.00000762939453
100
AcDbArc
 50
25.90576171875001
 51
41.59426879882814
  0
ARC
  5
29E
330
1F
100
AcDbEntity
  8
0-2
  6
Continuous
 62
     6
370
     5
100
AcDbCircle
 10
0.2374094891600276
 20
292.7913694343052
 30
0.0
 40
1.500000019331236
100
AcDbArc
 50
292.4998779296875
 51
29.46200561523438
  0
ARC
  5
29F
330
1F
100
AcDbEntity
  8
0-2
  6
Continuous
 62
     6
370
     5
100
AcDbCircle
 10
-21.31049156130442
 20
283.865942848051
 30
0.0
 40
1.500000019331236
100
AcDbArc
 50
215.5866241455078
 51
292.4993286132814
  0
ARC
  5
2A0
330
1F
100
AcDbEntity
  8
0-2
  6
Continuous
 62
     6
370
     5
100
AcDbCircle
 10
-16.66490786725888
 20
272.4449866745924
 30
0.0
 40
1.500000019331236
100
AcDbArc
 50
188.6810760498047
 51
269.9993286132812
  0
ARC
  5
2A1
330
1F
100
AcDbEntity
  8
0-2
  6
Continuous
 62
     6
370
     5
100
AcDbCircle
 10
-17.12826367912544
 20
274.7743109329327
 30
0.0
 40
1.500000019331236
100
AcDbArc
 50
112.5
 51
193.8187255859376
  0
ARC
  5
2A2
330
1F
100
AcDbEntity
  8
0-2
  6
Continuous
 62
     6
370
     5
100
AcDbCircle
 10
-42.86128765769379
 20
268.4449239898373
 30
0.0
 40
25.00000206199853
100
AcDbArc
 50
8.681655883789075
 51
13.81832885742189
  0
ARC
  5
2A3
330
1F
100
AcDbEntity
  8
0-2
  6
Continuous
 62
     6
370
     5
100
AcDbCircle
 10
6.476753080798543
 20
272.4449866745924
 30
0.0
 40
1.500000019331236
100
AcDbArc
 50
269.9998779296874
 51
4.634887695312499
  0
ARC
  5
2A4
330
1F
100
AcDbEntity
  8
0-2
  6
Continuous
 62
     6
370
     5
100
AcDbCircle
 10
4.251873171592534
 20
283.630256416991
 30
0.0
 40
1.500000019331236
100
AcDbArc
 50
17.86468505859374
 51
112.5
  0
ARC
  5
2A5
330
1F
100
AcDbEntity
  8
0-2
  6
Continuous
 62
     6
370
     5
100
AcDbCircle
 10
-42.86128765769379
 20
268.4449239898373
 30
0.0
 40
51.00000123719911
100
AcDbArc
 50
4.635055541992196
 51
17.86494445800782
  0
ARC
  5
2A6
330
1F
100
AcDbEntity
  8
0-2
  6
Continuous
 62
     6
370
     5
100
AcDbCircle
 10
7.549404711921907
 20
271.4449338874302
 30
0.0
 40
1.500000019331236
100
AcDbArc
 50
269.9993286132812
 51
3.406463623046872
  0
ARC
  5
2A7
330
1F
100
AcDbEntity
  8
0-2
  6
Continuous
 62
     6
370
     5
100
AcDbCircle
 10
4.860278207487765
 20
284.9646498924977
 30
0.0
 40
1.500000019331236
100
AcDbArc
 50
19.09408569335937
 51
112.5
  0
ARC
  5
2A8
330
1F
100
AcDbEntity
  8
0-2
  6
Continuous
 62
     6
370
     5
100
AcDbCircle
 10
-17.53846941708997
 20
271.4449338874302
 30
0.0
 40
1.500000019331236
100
AcDbArc
 50
186.7559661865234
 51
269.9993286132812
  0
ARC
  5
2A9
330
1F
100
AcDbEntity
  8
0-2
  6
Continuous
 62
     6
370
     5
100
AcDbCircle
 10
-18.31790485839059
 20
275.3639352862899
 30
0.0
 40
1.500000019331236
100
AcDbArc
 50
112.5
 51
195.7432098388672
  0
ARC
  5
2AA
330
1F
100
AcDbEntity
  8
0-2
  6
Continuous
 62
     6
370
     5
100
AcDbCircle
 10
-42.86128765769379
 20
268.4449239898373
 30
0.0
 40
24.00000030929978
100
AcDbArc
 50
6.756378173828143
 51
15.74368286132814
  0
ARC
  5
2AB
330
1F
100
AcDbEntity
  8
0-2
  6
Continuous
 62
     6
370
     5
100
AcDbCircle
 10
-42.86128765769379
 20
268.4449239898373
 30
0.0
 40
52.00000762939453
100
AcDbArc
 50
3.405761718750015
 51
19.09426879882814
  0
ARC
  5
2AC
330
1F
100
AcDbEntity
  8
0-2
  6
Continuous
 62
     6
370
     5
100
AcDbCircle
 10
6.273654474379638
 20
274.444943785023
 30
0.0
 40
1.500000019331236
100
AcDbArc
 50
269.9998779296874
 51
6.962005615234375
  0
ARC
  5
2AD
330
1F
100
AcDbEntity
  8
0-2
  6
Continuous
 62
     6
370
     5
100
AcDbCircle
 10
-17.04957781552747
 20
274.444943785023
 30
0.0
 40
1.500000019331236
100
AcDbArc
 50
193.0866241455078
 51
269.9993286132813
  0
ARC
  5
2AE
330
1F
100
AcDbEntity
  8
0-2
  6
Continuous
 62
     6
370
     5
100
AcDbCircle
 10
-104.1996277983716
 20
275.2274969680889
 30
0.0
 40
1.500000019331236
100
AcDbArc
 50
265.0829467773438
 51
353.6897125244141
  0
ARC
  5
2AF
330
1F
100
AcDbEntity
  8
0-2
  6
Continuous
 62
     6
370
     5
100
AcDbCircle
 10
-102.8202126471364
 20
283.0503564486633
 30
0.0
 40
1.500000019331236
100
AcDbArc
 50
346.3096618652343
 51
74.91770935058594
  0
ARC
  5
2B0
330
1F
100
AcDbEntity
  8
0-2
  6
Continuous
 62
     6
370
     5
100
AcDbCircle
 10
-42.86128765769379
 20
268.4449239898373
 30
0.0
 40
60.21220439189189
100
AcDbArc
 50
166.3098754882812
 51
173.6901245117188
  0
ARC
  5
2B1
330
1F
100
AcDbEntity
  8
0-2
  6
Continuous
 62
     6
370
     5
100
AcDbCircle
 10
-98.18071597272763
 20
295.7973178876413
 30
0.0
 40
1.500000019331236
100
AcDbArc
 50
245.0829467773438
 51
333.6897125244141
  0
ARC
  5
2B2
330
1F
100
AcDbEntity
  8
0-2
  6
Continuous
 62
     6
370
     5
100
AcDbCircle
 10
-94.20897277567309
 20
302.6767635564546
 30
0.0
 40
1.500000019331236
100
AcDbArc
 50
326.3096618652344
 51
54.91770935058596
  0
ARC
  5
2B3
330
1F
100
AcDbEntity
  8
0-2
  6
Continuous
 62
     6
370
     5
100
AcDbCircle
 10
-42.86128765769379
 20
268.4449239898373
 30
0.0
 40
60.21220439189189
100
AcDbArc
 50
146.3098754882813
 51
153.6901245117188
  0
ARC
  5
2B4
330
1F
100
AcDbEntity
  8
0-2
  6
Continuous
 62
     6
370
     5
100
AcDbCircle
 10
-85.48946560981582
 20
313.0681226279285
 30
0.0
 40
1.500000019331236
100
AcDbArc
 50
225.0829467773438
 51
313.6897125244141
  0
ARC
  5
2B5
330
1F
100
AcDbEntity
  8
0-2
  6
Continuous
 62
     6
370
     5
100
AcDbCircle
 10
-79.40437600360809
 20
318.1742413198626
 30
0.0
 40
1.500000019331236
100
AcDbArc
 50
306.3096618652344
 51
34.91770935058593
  0
ARC
  5
2B6
330
1F
100
AcDbEntity
  8
0-2
  6
Continuous
 62
     6
370
     5
100
AcDbCircle
 10
-42.86128765769379
 20
268.4449239898373
 30
0.0
 40
60.21220439189189
100
AcDbArc
 50
126.3098754882812
 51
133.6901245117188
  0
ARC
  5
2B7
330
1F
100
AcDbEntity
  8
0-2
  6
Continuous
 62
     6
370
     5
100
AcDbCircle
 10
-67.6566136844041
 20
324.9566658342207
 30
0.0
 40
1.500000019331236
100
AcDbArc
 50
205.0829467773438
 51
293.6897125244141
  0
ARC
  5
2B8
330
1F
100
AcDbEntity
  8
0-2
  6
Continuous
 62
     6
370
     5
100
AcDbCircle
 10
-60.19207181098771
 20
327.6735550867544
 30
0.0
 40
1.500000019331236
100
AcDbArc
 50
286.3096618652344
 51
14.91770935058595
  0
ARC
  5
2B9
330
1F
100
AcDbEntity
  8
0-2
  6
Continuous
 62
     6
370
     5
100
AcDbCircle
 10
-42.86128765769379
 20
268.4449239898373
 30
0.0
 40
60.21220439189189
100
AcDbArc
 50
106.3098754882813
 51
113.6901245117188
  0
ARC
  5
2BA
330
1F
100
AcDbEntity
  8
0-2
  6
Continuous
 62
     6
370
     5
100
AcDbCircle
 10
-46.83306797072169
 20
330.0290832223119
 30
0.0
 40
1.500000019331236
100
AcDbArc
 50
185.0829467773438
 51
273.689712524414
  0
ARC
  5
2BB
330
1F
100
AcDbEntity
  8
0-2
  6
Continuous
 62
     6
370
     5
100
AcDbCircle
 10
-38.88943311271919
 20
330.0290832223119
 30
0.0
 40
1.500000019331236
100
AcDbArc
 50
266.3096618652344
 51
354.9177093505859
  0
ARC
  5
2BC
330
1F
100
AcDbEntity
  8
0-2
  6
Continuous
 62
     6
370
     5
100
AcDbCircle
 10
-42.86128765769379
 20
268.4449239898373
 30
0.0
 40
60.21220439189189
100
AcDbArc
 50
86.30987548828124
 51
93.69012451171872
  0
ARC
  5
2BD
330
1F
100
AcDbEntity
  8
0-2
  6
Continuous
 62
     6
370
     5
100
AcDbCircle
 10
-25.53050350439989
 20
327.6735550867544
 30
0.0
 40
1.500000019331236
100
AcDbArc
 50
165.0829467773438
 51
253.6897125244141
  0
ARC
  5
2BE
330
1F
100
AcDbEntity
  8
0-2
  6
Continuous
 62
     6
370
     5
100
AcDbCircle
 10
-18.06596163098348
 20
324.9566658342207
 30
0.0
 40
1.500000019331236
100
AcDbArc
 50
246.3096618652344
 51
334.9177093505859
  0
ARC
  5
2BF
330
1F
100
AcDbEntity
  8
0-2
  6
Continuous
 62
     6
370
     5
100
AcDbCircle
 10
-42.86128765769379
 20
268.4449239898373
 30
0.0
 40
60.21220439189189
100
AcDbArc
 50
66.30987548828126
 51
73.69012451171876
  0
ARC
  5
2C0
330
1F
100
AcDbEntity
  8
0-2
  6
Continuous
 62
     6
370
     5
100
AcDbCircle
 10
-6.318310659699735
 20
318.1742413198626
 30
0.0
 40
1.500000019331236
100
AcDbArc
 50
145.0829467773438
 51
233.689712524414
  0
ARC
  5
2C1
330
1F
100
AcDbEntity
  8
0-2
  6
Continuous
 62
     6
370
     5
100
AcDbCircle
 10
-0.2330725895984092
 20
313.0681226279285
 30
0.0
 40
1.500000019331236
100
AcDbArc
 50
226.3096618652344
 51
314.9177093505859
  0
ARC
  5
2C2
330
1F
100
AcDbEntity
  8
0-2
  6
Continuous
 62
     6
370
     5
100
AcDbCircle
 10
-42.86128765769379
 20
268.4449239898373
 30
0.0
 40
60.21220439189189
100
AcDbArc
 50
46.30987548828124
 51
53.69012451171873
  0
ARC
  5
2C3
330
1F
100
AcDbEntity
  8
0-2
  6
Continuous
 62
     6
370
     5
100
AcDbCircle
 10
8.48636034431206
 20
302.6767635564546
 30
0.0
 40
1.500000019331236
100
AcDbArc
 50
125.0829467773438
 51
213.6897125244141
  0
ARC
  5
2C4
330
1F
100
AcDbEntity
  8
0-2
  6
Continuous
 62
     6
370
     5
100
AcDbCircle
 10
12.45806642539315
 20
295.7973178876413
 30
0.0
 40
1.500000019331236
100
AcDbArc
 50
206.3096618652344
 51
294.9177093505859
  0
ARC
  5
2C5
330
1F
100
AcDbEntity
  8
0-2
  6
Continuous
 62
     6
370
     5
100
AcDbCircle
 10
-42.86128765769379
 20
268.4449239898373
 30
0.0
 40
60.21220439189189
100
AcDbArc
 50
26.30987548828128
 51
33.69012451171878
  0
ARC
  5
2C6
330
1F
100
AcDbEntity
  8
0-2
  6
Continuous
 62
     6
370
     5
100
AcDbCircle
 10
17.09756309980199
 20
283.0503564486633
 30
0.0
 40
1.500000019331236
100
AcDbArc
 50
105.0829467773438
 51
193.6897125244141
  0
ARC
  5
2C7
330
1F
100
AcDbEntity
  8
0-2
  6
Continuous
 62
     6
370
     5
100
AcDbCircle
 10
18.47708959895738
 20
275.2274969680889
 30
0.0
 40
1.500000019331236
100
AcDbArc
 50
186.3096618652344
 51
274.9177093505859
  0
ARC
  5
2C8
330
1F
100
AcDbEntity
  8
0-2
  6
Continuous
 62
     6
370
     5
100
AcDbCircle
 10
-42.86128765769379
 20
268.4449239898373
 30
0.0
 40
60.21220439189189
100
AcDbArc
 50
6.309875488281277
 51
13.69012451171878
  0
ARC
  5
2C9
330
1F
100
AcDbEntity
  8
0-2
  6
Continuous
 62
     6
370
     5
100
AcDbCircle
 10
-42.86128765769379
 20
268.4449239898373
 30
0.0
 40
79.99999175200591
100
AcDbArc
 50
3.583328247070313
 51
7.180770874023438
  0
ARC
  5
2CA
330
1F
100
AcDbEntity
  8
0-2
  6
Continuous
 62
     6
370
     5
100
AcDbCircle
 10
-42.86128765769379
 20
268.4449239898373
 30
0.0
 40
79.99999175200591
100
AcDbArc
 50
172.8192291259766
 51
176.4166717529297
  0
ARC
  5
2CB
330
1F
100
AcDbEntity
  8
0-2
  6
Continuous
 62
     6
370
     5
100
AcDbCircle
 10
-42.86128765769379
 20
268.4449239898373
 30
0.0
 40
81.00000742319469
100
AcDbArc
 50
2.83056640625
 51
177.1694335937501
  0
ARC
  5
2CC
330
1F
100
AcDbEntity
  8
0-2
  6
Continuous
 62
     6
370
     5
100
AcDbCircle
 10
-116.0036579332428
 20
7.220179347734231
 30
0.0
 40
2.000000025774982
100
AcDbArc
 50
270.0
 51
344.999984741211
  0
ARC
  5
2CD
330
1F
100
AcDbEntity
  8
0-1
  6
Continuous
 62
     2
370
     9
100
AcDbCircle
 10
-121.7299103086651
 20
278.4449322378313
 30
0.0
 40
2.000000025774982
100
AcDbArc
 50
172.7738342285156
 51
214.6603240966797
  0
ARC
  5
2CE
330
1F
100
AcDbEntity
  8
0-1
  6
Continuous
 62
     2
370
     9
100
AcDbCircle
 10
-122.2281551355233
 20
277.444953682616
 30
0.0
 40
2.000000025774982
100
AcDbArc
 50
173.5299377441407
 51
229.9082489013672
  0
ARC
  5
2CF
330
1F
100
AcDbEntity
  8
0-1
  6
Continuous
 62
     2
370
     9
100
AcDbCircle
 10
-48.86138168482646
 20
347.7181849827638
 30
0.0
 40
2.000000025774982
100
AcDbArc
 50
52.44320678710938
 51
94.3284912109375
  0
ARC
  5
2D0
330
1F
100
AcDbEntity
  8
0-1
  6
Continuous
 62
     2
370
     9
100
AcDbCircle
 10
-46.86135034244887
 20
348.2201414069614
 30
0.0
 40
2.000000025774982
100
AcDbArc
 50
36.49266052246094
 51
92.87048339843751
  0
ARC
  5
2D1
330
1F
100
AcDbEntity
  8
0-1
  6
Continuous
 62
     2
370
     9
100
AcDbCircle
 10
-38.86137343683231
 20
348.2201414069614
 30
0.0
 40
2.000000025774982
100
AcDbArc
 50
87.1295166015625
 51
143.5073394775391
  0
ARC
  5
2D2
330
1F
100
AcDbEntity
  8
0-1
  6
Continuous
 62
     2
370
     9
100
AcDbCircle
 10
-36.86134209445481
 20
347.7181849827638
 30
0.0
 40
2.000000025774982
100
AcDbArc
 50
85.67150878906251
 51
127.5567932128906
  0
ARC
  5
2D3
330
1F
100
AcDbEntity
  8
0-1
  6
Continuous
 62
     2
370
     9
100
AcDbCircle
 10
36.00718652938386
 20
278.4449322378313
 30
0.0
 40
2.000000025774982
100
AcDbArc
 50
325.3443908691406
 51
7.226165771484387
  0
ARC
  5
2D4
330
1F
100
AcDbEntity
  8
0-1
  6
Continuous
 62
     2
370
     9
100
AcDbCircle
 10
36.50543135624198
 20
277.444953682616
 30
0.0
 40
2.000000025774982
100
AcDbArc
 50
310.0920104980469
 51
6.470062255859386
  0
LINE
  5
2D5
330
1F
100
AcDbEntity
  8
0-5
  6
Continuous
 62
     7
370
     9
100
AcDbLine
 10
35.20785692634331
 20
15.82095251470001
 30
0.0
 11
38.07796091705285
 21
22.75005935591618
 31
0.0
  0
LINE
  5
2D6
330
1F
100
AcDbEntity
  8
0-5
  6
Continuous
 62
     7
370
     9
100
AcDbLine
 10
35.20785692634331
 20
15.82095251470001
 30
0.0
 11
39.7735670456423
 21
21.77108844164259
 31
0.0
  0
LINE
  5
2D7
330
1F
100
AcDbEntity
  8
0-5
  6
Continuous
 62
     7
370
     9
100
AcDbLine
 10
43.13864965755113
 20
11.22016780054251
 30
0.0
 11
46.00875364826058
 21
18.14927464175868
 31
0.0
  0
LINE
  5
2D8
330
1F
100
AcDbEntity
  8
0-5
  6
Continuous
 62
     7
370
     9
100
AcDbLine
 10
43.13864965755113
 20
11.22016780054251
 30
0.0
 11
47.70435977685011
 21
17.17030372748501
 31
0.0
  0
LINE
  5
2D9
330
1F
100
AcDbEntity
  8
0-5
  6
Continuous
 62
     7
370
     9
100
AcDbLine
 10
11.01715010624198
 20
54.41161776491118
 30
0.0
 11
13.88725409695144
 21
61.34072460612735
 31
0.0
  0
LINE
  5
2DA
330
1F
100
AcDbEntity
  8
0-5
  6
Continuous
 62
     7
370
     9
100
AcDbLine
 10
11.01715010624198
 20
54.41161776491118
 30
0.0
 11
15.58286022554097
 21
60.36175369185368
 31
0.0
  0
LINE
  5
2DB
330
1F
100
AcDbEntity
  8
0-5
  6
Continuous
 62
     7
370
     9
100
AcDbLine
 10
-155.3613618896406
 20
-0.6361958568160873
 30
0.0
 11
-158.2315029963235
 21
-7.565302698032255
 31
0.0
  0
LINE
  5
2DC
330
1F
100
AcDbEntity
  8
0-5
  6
Continuous
 62
     7
370
     9
100
AcDbLine
 10
-155.3613618896406
 20
-0.6361958568160873
 30
0.0
 11
-159.9270720089396
 21
-6.586331783758581
 31
0.0
  0
LINE
  5
2DD
330
1F
100
AcDbEntity
  8
0-5
  6
Continuous
 62
     7
370
     9
100
AcDbLine
 10
-136.8612389945287
 20
-45.63619585681604
 30
0.0
 11
-139.7313801012116
 21
-52.56526558205886
 31
0.0
  0
LINE
  5
2DE
330
1F
100
AcDbEntity
  8
0-5
  6
Continuous
 62
     7
370
     9
100
AcDbLine
 10
-136.8612389945287
 20
-45.63619585681604
 30
0.0
 11
-141.4269491138277
 21
-51.58636889973202
 31
0.0
  0
LINE
  5
2DF
330
1F
100
AcDbEntity
  8
0-5
  6
Continuous
 62
     7
370
     9
100
AcDbLine
 10
-112.8613453936525
 20
-92.63611585127339
 30
0.0
 11
-115.7314865003353
 21
-99.56518557651624
 31
0.0
  0
LINE
  5
2E0
330
1F
100
AcDbEntity
  8
0-5
  6
Continuous
 62
     7
370
     9
100
AcDbLine
 10
-112.8613453936525
 20
-92.63611585127339
 30
0.0
 11
-117.4270555129515
 21
-98.58625177821597
 31
0.0
  0
LINE
  5
2E1
330
1F
100
AcDbEntity
  8
0-5
  6
Continuous
 62
     7
370
     9
100
AcDbLine
 10
-101.1848828593407
 20
27.86378682239634
 30
0.0
 11
-105.7505929786397
 21
33.81392274933891
 31
0.0
  0
LINE
  5
2E2
330
1F
100
AcDbEntity
  8
0-5
  6
Continuous
 62
     7
370
     9
100
AcDbLine
 10
-101.1848828593407
 20
27.86378682239634
 30
0.0
 11
-104.0549868500502
 21
34.79289366361259
 31
0.0
  0
LINE
  5
2E3
330
1F
100
AcDbEntity
  8
0-5
  6
Continuous
 62
     7
370
     9
100
AcDbLine
 10
43.13864965755113
 20
11.22016780054251
 30
0.0
 11
88.74935588379691
 21
90.22018099733306
 31
0.0
  0
LINE
  5
2E4
330
1F
100
AcDbEntity
  8
0-5
  6
Continuous
 62
     7
370
     9
100
AcDbLine
 10
88.74935588379691
 20
90.22018099733306
 30
0.0
 11
205.9146481597155
 21
90.22018099733306
 31
0.0
  0
LINE
  5
2E5
330
1F
100
AcDbEntity
  8
0-5
  6
Continuous
 62
     7
370
     9
100
AcDbLine
 10
11.01715010624198
 20
54.41161776491118
 30
0.0
 11
73.26041479426988
 21
162.2201958437224
 31
0.0
  0
LINE
  5
2E6
330
1F
100
AcDbEntity
  8
0-5
  6
Continuous
 62
     7
370
     9
100
AcDbLine
 10
35.20785692634331
 20
15.82095251470001
 30
0.0
 11
98.94689534220058
 21
126.2201884205277
 31
0.0
  0
LINE
  5
2E7
330
1F
100
AcDbEntity
  8
0-5
  6
Continuous
 62
     7
370
     9
100
AcDbLine
 10
-101.1848828593407
 20
27.86378682239634
 30
0.0
 11
-164.8992020369168
 21
138.2202651268727
 31
0.0
  0
LINE
  5
2E8
330
1F
100
AcDbEntity
  8
0-5
  6
Continuous
 62
     7
370
     9
100
AcDbLine
 10
-112.8613453936525
 20
-92.63611585127339
 30
0.0
 11
-133.6459564512433
 21
-128.6360861584947
 31
0.0
  0
LINE
  5
2E9
330
1F
100
AcDbEntity
  8
0-5
  6
Continuous
 62
     7
370
     9
100
AcDbLine
 10
-155.3613618896406
 20
-0.6361958568160873
 30
0.0
 11
-176.1459729472314
 21
-36.63620328001073
 31
0.0
  0
LINE
  5
2EA
330
1F
100
AcDbEntity
  8
0-5
  6
Continuous
 62
     7
370
     9
100
AcDbLine
 10
73.26041479426988
 20
162.2201958437224
 30
0.0
 11
201.318948333913
 21
162.2201958437224
 31
0.0
  0
TEXT
  5
2EB
330
1F
100
AcDbEntity
  8
0-5
  6
Continuous
 62
     7
370
     9
100
AcDbText
 10
-215.6170494774233
 20
-122.7435122366725
 30
0.0
 40
6.858000000000001
  1
スペーサー
 41
1.133333333333333
  7
ＭＳ ゴシック
100
AcDbText
  0
LINE
  5
2EC
330
1F
100
AcDbEntity
  8
0-5
  6
Continuous
 62
     7
370
     9
100
AcDbLine
 10
-133.6459564512433
 20
-128.6360861584947
 30
0.0
 11
-238.4444700285653
 21
-128.6360861584947
 31
0.0
  0
LINE
  5
2ED
330
1F
100
AcDbEntity
  8
0-4
  6
Continuous
 62
     7
370
     9
100
AcDbLine
 10
-97.85008688172255
 20
-122.6361034792823
 30
0.0
 11
12.12751156633487
 21
-122.6361034792823
 31
0.0
  0
LINE
  5
2EE
330
1F
100
AcDbEntity
  8
0-4
  6
Continuous
 62
     7
370
     9
100
AcDbLine
 10
-97.85008688172255
 20
-55.63620410481015
 30
0.0
 11
-97.85008688172255
 21
-123.5361287181442
 31
0.0
  0
LINE
  5
2EF
330
1F
100
AcDbEntity
  8
0-4
  6
Continuous
 62
     7
370
     9
100
AcDbLine
 10
12.12751156633487
 20
-55.63620410481015
 30
0.0
 11
12.12751156633487
 21
-123.5361287181442
 31
0.0
  0
LINE
  5
2F0
330
1F
100
AcDbEntity
  8
0-4
  6
Continuous
 62
     7
370
     9
100
AcDbLine
 10
-97.85008688172255
 20
-122.6361034792823
 30
0.0
 11
-90.41419853976731
 21
-121.657169680982
 31
0.0
  0
LINE
  5
2F1
330
1F
100
AcDbEntity
  8
0-4
  6
Continuous
 62
     7
370
     9
100
AcDbLine
 10
-97.85008688172255
 20
-122.6361034792823
 30
0.0
 11
-90.41419853976731
 21
-123.6150001616091
 31
0.0
  0
LINE
  5
2F2
330
1F
100
AcDbEntity
  8
0-4
  6
Continuous
 62
     7
370
     9
100
AcDbLine
 10
12.12751156633487
 20
-122.6361034792823
 30
0.0
 11
4.691697456326436
 21
-121.657169680982
 31
0.0
  0
LINE
  5
2F3
330
1F
100
AcDbEntity
  8
0-4
  6
Continuous
 62
     7
370
     9
100
AcDbLine
 10
12.12751156633487
 20
-122.6361034792823
 30
0.0
 11
4.691697456326436
 21
-123.6150001616091
 31
0.0
  0
LINE
  5
2F4
330
1F
100
AcDbEntity
  8
0-4
  6
Continuous
 62
     7
370
     9
100
AcDbLine
 10
-112.8613453936525
 20
-146.6361084280787
 30
0.0
 11
27.1386216143712
 21
-146.6361084280787
 31
0.0
  0
LINE
  5
2F5
330
1F
100
AcDbEntity
  8
0-4
  6
Continuous
 62
     7
370
     9
100
AcDbLine
 10
-112.8613453936525
 20
-95.63608863289292
 30
0.0
 11
-112.8613453936525
 21
-147.5361336669407
 31
0.0
  0
LINE
  5
2F6
330
1F
100
AcDbEntity
  8
0-4
  6
Continuous
 62
     7
370
     9
100
AcDbLine
 10
27.1386216143712
 20
-95.63608863289292
 30
0.0
 11
27.1386216143712
 21
-147.5361336669407
 31
0.0
  0
LINE
  5
2F7
330
1F
100
AcDbEntity
  8
0-4
  6
Continuous
 62
     7
370
     9
100
AcDbLine
 10
-112.8613453936525
 20
-146.6361084280787
 30
0.0
 11
-105.4254570516972
 21
-145.6571746297785
 31
0.0
  0
LINE
  5
2F8
330
1F
100
AcDbEntity
  8
0-4
  6
Continuous
 62
     7
370
     9
100
AcDbLine
 10
-112.8613453936525
 20
-146.6361084280787
 30
0.0
 11
-105.4254570516972
 21
-147.6151164583258
 31
0.0
  0
LINE
  5
2F9
330
1F
100
AcDbEntity
  8
0-4
  6
Continuous
 62
     7
370
     9
100
AcDbLine
 10
27.1386216143712
 20
-146.6361084280787
 30
0.0
 11
19.70280750436277
 21
-145.6571746297785
 31
0.0
  0
LINE
  5
2FA
330
1F
100
AcDbEntity
  8
0-4
  6
Continuous
 62
     7
370
     9
100
AcDbLine
 10
27.1386216143712
 20
-146.6361084280787
 30
0.0
 11
19.70280750436277
 21
-147.6151164583258
 31
0.0
  0
LINE
  5
2FB
330
1F
100
AcDbEntity
  8
0-4
  6
Continuous
 62
     7
370
     9
100
AcDbLine
 10
99.63866285434167
 20
-32.63617771122905
 30
0.0
 11
99.63866285434167
 21
7.363818164773917
 31
0.0
  0
LINE
  5
2FC
330
1F
100
AcDbEntity
  8
0-4
  6
Continuous
 62
     7
370
     9
100
AcDbLine
 10
30.13863151196409
 20
-32.63617771122905
 30
0.0
 11
100.5386509772302
 21
-32.63617771122905
 31
0.0
  0
LINE
  5
2FD
330
1F
100
AcDbEntity
  8
0-4
  6
Continuous
 62
     7
370
     9
100
AcDbLine
 10
99.63866285434167
 20
-32.63617771122905
 30
0.0
 11
98.659691940068
 21
-25.20032648524722
 31
0.0
  0
LINE
  5
2FE
330
1F
100
AcDbEntity
  8
0-4
  6
Continuous
 62
     7
370
     9
100
AcDbLine
 10
99.63866285434167
 20
-32.63617771122905
 30
0.0
 11
100.6176337686153
 21
-25.20032648524722
 31
0.0
  0
LINE
  5
2FF
330
1F
100
AcDbEntity
  8
0-4
  6
Continuous
 62
     7
370
     9
100
AcDbLine
 10
99.63866285434167
 20
7.363818164773917
 30
0.0
 11
98.659691940068
 21
-0.0720701771813168
 31
0.0
  0
LINE
  5
300
330
1F
100
AcDbEntity
  8
0-4
  6
Continuous
 62
     7
370
     9
100
AcDbLine
 10
99.63866285434167
 20
7.363818164773917
 30
0.0
 11
100.6176337686153
 21
-0.0720701771813168
 31
0.0
  0
LINE
  5
301
330
1F
100
AcDbEntity
  8
0-4
  6
Continuous
 62
     7
370
     9
100
AcDbLine
 10
123.6386306871647
 20
-92.63611585127339
 30
0.0
 11
123.6386306871647
 21
7.363818164773917
 31
0.0
  0
LINE
  5
302
330
1F
100
AcDbEntity
  8
0-4
  6
Continuous
 62
     7
370
     9
100
AcDbLine
 10
123.6386306871647
 20
-92.63611585127339
 30
0.0
 11
124.6176016014384
 21
-85.20026462529155
 31
0.0
  0
LINE
  5
303
330
1F
100
AcDbEntity
  8
0-4
  6
Continuous
 62
     7
370
     9
100
AcDbLine
 10
123.6386306871647
 20
7.363818164773917
 30
0.0
 11
124.6176016014384
 21
-0.0720701771813168
 31
0.0
  0
LINE
  5
304
330
1F
100
AcDbEntity
  8
0-4
  6
Continuous
 62
     7
370
     9
100
AcDbLine
 10
30.13863151196409
 20
-92.63611585127339
 30
0.0
 11
124.5386188100532
 21
-92.63611585127339
 31
0.0
  0
LINE
  5
305
330
1F
100
AcDbEntity
  8
0-4
  6
Continuous
 62
     7
370
     9
100
AcDbLine
 10
-123.8613321968619
 20
90.22018099733306
 30
0.0
 11
38.13860841758066
 21
90.22018099733306
 31
0.0
  0
LINE
  5
306
330
1F
100
AcDbEntity
  8
0-4
  6
Continuous
 62
     7
370
     9
100
AcDbLine
 10
-123.8613321968619
 20
13.72015130455431
 30
0.0
 11
-123.8613321968619
 21
91.12016912022158
 31
0.0
  0
LINE
  5
307
330
1F
100
AcDbEntity
  8
0-4
  6
Continuous
 62
     7
370
     9
100
AcDbLine
 10
38.13860841758066
 20
13.72015130455431
 30
0.0
 11
38.13860841758066
 21
91.12016912022158
 31
0.0
  0
LINE
  5
308
330
1F
100
AcDbEntity
  8
0-4
  6
Continuous
 62
     7
370
     9
100
AcDbLine
 10
-123.8613321968619
 20
90.22018099733306
 30
0.0
 11
-116.4255180868535
 21
91.19911479563329
 31
0.0
  0
LINE
  5
309
330
1F
100
AcDbEntity
  8
0-4
  6
Continuous
 62
     7
370
     9
100
AcDbLine
 10
-123.8613321968619
 20
90.22018099733306
 30
0.0
 11
-116.4255180868535
 21
89.24124719903274
 31
0.0
  0
LINE
  5
30A
330
1F
100
AcDbEntity
  8
0-4
  6
Continuous
 62
     7
370
     9
100
AcDbLine
 10
38.13860841758066
 20
90.22018099733306
 30
0.0
 11
30.70279430757222
 21
91.19911479563329
 31
0.0
  0
LINE
  5
30B
330
1F
100
AcDbEntity
  8
0-4
  6
Continuous
 62
     7
370
     9
100
AcDbLine
 10
38.13860841758066
 20
90.22018099733306
 30
0.0
 11
30.70279430757222
 21
89.24124719903274
 31
0.0
  0
LINE
  5
30C
330
1F
100
AcDbEntity
  8
0-4
  6
Continuous
 62
     7
370
     9
100
AcDbLine
 10
-145.3613536416465
 20
114.2202230621029
 30
0.0
 11
59.63862986236534
 21
114.2202230621029
 31
0.0
  0
LINE
  5
30D
330
1F
100
AcDbEntity
  8
0-4
  6
Continuous
 62
     7
370
     9
100
AcDbLine
 10
-145.3613536416465
 20
14.22021481410876
 30
0.0
 11
-145.3613536416465
 21
115.1202111849914
 31
0.0
  0
LINE
  5
30E
330
1F
100
AcDbEntity
  8
0-4
  6
Continuous
 62
     7
370
     9
100
AcDbLine
 10
59.63862986236534
 20
14.22021481410876
 30
0.0
 11
59.63862986236534
 21
115.1202111849914
 31
0.0
  0
LINE
  5
30F
330
1F
100
AcDbEntity
  8
0-4
  6
Continuous
 62
     7
370
     9
100
AcDbLine
 10
-145.3613536416465
 20
114.2202230621029
 30
0.0
 11
-137.9255024156647
 21
115.1991568604031
 31
0.0
  0
LINE
  5
310
330
1F
100
AcDbEntity
  8
0-4
  6
Continuous
 62
     7
370
     9
100
AcDbLine
 10
-145.3613536416465
 20
114.2202230621029
 30
0.0
 11
-137.9255024156647
 21
113.2412892638026
 31
0.0
  0
LINE
  5
311
330
1F
100
AcDbEntity
  8
0-4
  6
Continuous
 62
     7
370
     9
100
AcDbLine
 10
59.63862986236534
 20
114.2202230621029
 30
0.0
 11
52.20281575235682
 21
115.1991568604031
 31
0.0
  0
LINE
  5
312
330
1F
100
AcDbEntity
  8
0-4
  6
Continuous
 62
     7
370
     9
100
AcDbLine
 10
59.63862986236534
 20
114.2202230621029
 30
0.0
 11
52.20281575235682
 21
113.2412892638026
 31
0.0
  0
LINE
  5
313
330
1F
100
AcDbEntity
  8
0-4
  6
Continuous
 62
     7
370
     9
100
AcDbLine
 10
-155.3613618896406
 20
138.2202651268727
 30
0.0
 11
69.63863811035941
 21
138.2202651268727
 31
0.0
  0
LINE
  5
314
330
1F
100
AcDbEntity
  8
0-4
  6
Continuous
 62
     7
370
     9
100
AcDbLine
 10
-155.3613618896406
 20
8.36379671998931
 30
0.0
 11
-155.3613618896406
 21
139.1201790178145
 31
0.0
  0
LINE
  5
315
330
1F
100
AcDbEntity
  8
0-4
  6
Continuous
 62
     7
370
     9
100
AcDbLine
 10
69.63863811035941
 20
8.36379671998931
 30
0.0
 11
69.63863811035941
 21
139.1201790178145
 31
0.0
  0
LINE
  5
316
330
1F
100
AcDbEntity
  8
0-4
  6
Continuous
 62
     7
370
     9
100
AcDbLine
 10
-155.3613618896406
 20
138.2202651268727
 30
0.0
 11
-147.9255106636588
 21
139.1991618091996
 31
0.0
  0
LINE
  5
317
330
1F
100
AcDbEntity
  8
0-4
  6
Continuous
 62
     7
370
     9
100
AcDbLine
 10
-155.3613618896406
 20
138.2202651268727
 30
0.0
 11
-147.9255106636588
 21
137.2412942125991
 31
0.0
  0
LINE
  5
318
330
1F
100
AcDbEntity
  8
0-4
  6
Continuous
 62
     7
370
     9
100
AcDbLine
 10
69.63863811035941
 20
138.2202651268727
 30
0.0
 11
62.20282400035097
 21
139.1991618091996
 31
0.0
  0
LINE
  5
319
330
1F
100
AcDbEntity
  8
0-4
  6
Continuous
 62
     7
370
     9
100
AcDbLine
 10
69.63863811035941
 20
138.2202651268727
 30
0.0
 11
62.20282400035097
 21
137.2412942125991
 31
0.0
  0
LINE
  5
31A
330
1F
100
AcDbEntity
  8
0-4
  6
Continuous
 62
     7
370
     9
100
AcDbLine
 10
123.6386306871647
 20
7.363818164773917
 30
0.0
 11
123.6386306871647
 21
60.22023048529751
 31
0.0
  0
LINE
  5
31B
330
1F
100
AcDbEntity
  8
0-4
  6
Continuous
 62
     7
370
     9
100
AcDbLine
 10
123.6386306871647
 20
7.363818164773917
 30
0.0
 11
122.659659772891
 21
14.79966939075571
 31
0.0
  0
LINE
  5
31C
330
1F
100
AcDbEntity
  8
0-4
  6
Continuous
 62
     7
370
     9
100
AcDbLine
 10
123.6386306871647
 20
7.363818164773917
 30
0.0
 11
124.6176016014384
 21
14.79966939075571
 31
0.0
  0
LINE
  5
31D
330
1F
100
AcDbEntity
  8
0-4
  6
Continuous
 62
     7
370
     9
100
AcDbLine
 10
123.6386306871647
 20
60.22023048529751
 30
0.0
 11
122.659659772891
 21
52.78437925931571
 31
0.0
  0
LINE
  5
31E
330
1F
100
AcDbEntity
  8
0-4
  6
Continuous
 62
     7
370
     9
100
AcDbLine
 10
123.6386306871647
 20
60.22023048529751
 30
0.0
 11
124.6176016014384
 21
52.78437925931571
 31
0.0
  0
LINE
  5
31F
330
1F
100
AcDbEntity
  8
0-4
  6
Continuous
 62
     7
370
     9
100
AcDbLine
 10
71.6386694527369
 20
7.363818164773917
 30
0.0
 11
124.5386188100532
 21
7.363818164773917
 31
0.0
  0
LINE
  5
320
330
1F
100
AcDbEntity
  8
0-4
  6
Continuous
 62
     7
370
     9
100
AcDbLine
 10
-185.3613495176495
 20
5.220222237303446
 30
0.0
 11
-185.3613495176495
 21
60.22023048529751
 31
0.0
  0
LINE
  5
321
330
1F
100
AcDbEntity
  8
0-4
  6
Continuous
 62
     7
370
     9
100
AcDbLine
 10
-130.361304153682
 20
5.220222237303446
 30
0.0
 11
-186.261337640538
 21
5.220222237303446
 31
0.0
  0
LINE
  5
322
330
1F
100
AcDbEntity
  8
0-4
  6
Continuous
 62
     7
370
     9
100
AcDbLine
 10
-185.3613495176495
 20
5.220222237303446
 30
0.0
 11
-186.3402833159497
 21
12.65607346328532
 31
0.0
  0
LINE
  5
323
330
1F
100
AcDbEntity
  8
0-4
  6
Continuous
 62
     7
370
     9
100
AcDbLine
 10
-185.3613495176495
 20
5.220222237303446
 30
0.0
 11
-184.3824157193492
 21
12.65607346328532
 31
0.0
  0
LINE
  5
324
330
1F
100
AcDbEntity
  8
0-4
  6
Continuous
 62
     7
370
     9
100
AcDbLine
 10
-185.3613495176495
 20
60.22023048529751
 30
0.0
 11
-186.3402833159497
 21
52.78437925931571
 31
0.0
  0
LINE
  5
325
330
1F
100
AcDbEntity
  8
0-4
  6
Continuous
 62
     7
370
     9
100
AcDbLine
 10
-185.3613495176495
 20
60.22023048529751
 30
0.0
 11
-184.3824157193492
 21
52.78437925931571
 31
0.0
  0
LINE
  5
326
330
1F
100
AcDbEntity
  8
0-4
  6
Continuous
 62
     7
370
     9
100
AcDbLine
 10
-80.73375882270645
 20
60.22023048529751
 30
0.0
 11
-186.261337640538
 21
60.22023048529751
 31
0.0
  0
LINE
  5
327
330
1F
100
AcDbEntity
  8
0-4
  6
Continuous
 62
     7
370
     9
100
AcDbLine
 10
-14.01230348064567
 20
60.22023048529751
 30
0.0
 11
124.5386188100532
 21
60.22023048529751
 31
0.0
  0
LINE
  5
328
330
1F
100
AcDbEntity
  8
0-4
  6
Continuous
 62
     7
370
     9
100
AcDbLine
 10
123.6386306871647
 20
-92.63611585127339
 30
0.0
 11
122.659659772891
 21
-85.20026462529155
 31
0.0
  0
LINE
  5
329
330
1F
100
AcDbEntity
  8
0-4
  6
Continuous
 62
     7
370
     9
100
AcDbLine
 10
123.6386306871647
 20
7.363818164773917
 30
0.0
 11
122.659659772891
 21
-0.0720701771813168
 31
0.0
  0
TEXT
  5
32A
330
1F
100
AcDbEntity
  8
0-4
  6
Continuous
 62
     2
370
     9
100
AcDbText
 10
-59.36134333165392
 20
-141.9440985304858
 30
0.0
 40
9.144
  1
φ140
 41
1.1
  7
ＭＳ ゴシック
100
AcDbText
  0
TEXT
  5
32B
330
1F
100
AcDbEntity
  8
0-4
  6
Continuous
 62
     2
370
     9
100
AcDbText
 10
-52.61128765769384
 20
-117.9440935816894
 30
0.0
 40
9.144
  1
Rc4
 41
1.083333333333334
  7
ＭＳ ゴシック
100
AcDbText
  0
TEXT
  5
32C
330
1F
100
AcDbEntity
  8
0-4
  6
Continuous
 62
     2
370
     9
100
AcDbText
 10
94.94665295674878
 20
-19.01116121524089
 30
0.0
 40
9.144
  1
40
 50
90.0
 41
1.0625
  7
ＭＳ ゴシック
100
AcDbText
  0
TEXT
  5
32D
330
1F
100
AcDbEntity
  8
0-4
  6
Continuous
 62
     2
370
     9
100
AcDbText
 10
-59.36134333165392
 20
94.91219089492594
 30
0.0
 40
9.144
  1
φ162
 41
1.1
  7
ＭＳ ゴシック
100
AcDbText
  0
TEXT
  5
32E
330
1F
100
AcDbEntity
  8
0-4
  6
Continuous
 62
     2
370
     9
100
AcDbText
 10
118.9466207895718
 20
27.41702432503571
 30
0.0
 40
9.144
  1
53
 50
90.0
 41
1.0625
  7
ＭＳ ゴシック
100
AcDbText
  0
TEXT
  5
32F
330
1F
100
AcDbEntity
  8
0-4
  6
Continuous
 62
     2
370
     9
100
AcDbText
 10
-59.36134333165392
 20
118.9121958437223
 30
0.0
 40
9.144
  1
φ205
 41
1.1
  7
ＭＳ ゴシック
100
AcDbText
  0
TEXT
  5
330
330
1F
100
AcDbEntity
  8
0-4
  6
Continuous
 62
     2
370
     9
100
AcDbText
 10
-59.36134333165392
 20
142.9122007925188
 30
0.0
 40
9.144
  1
φ225
 41
1.1
  7
ＭＳ ゴシック
100
AcDbText
  0
TEXT
  5
331
330
1F
100
AcDbEntity
  8
0-4
  6
Continuous
 62
     2
370
     9
100
AcDbText
 10
-190.0533594152424
 20
26.34522636130052
 30
0.0
 40
9.144
  1
55
 50
90.0
 41
1.0625
  7
ＭＳ ゴシック
100
AcDbText
  0
LINE
  5
332
330
1F
100
AcDbEntity
  8
0-0
  6
Continuous
 62
     3
370
     9
100
AcDbLine
 10
8.526534750187407
 20
-15.51105316651835
 30
0.0
 11
-88.98845222443362
 21
-15.51105316651835
 31
0.0
  0
LINE
  5
333
330
1F
100
AcDbEntity
  8
0-5
  6
Continuous
 62
     7
370
     9
100
AcDbLine
 10
-280.3239960915892
 20
-36.63620328001073
 30
0.0
 11
-176.1459729472314
 21
-36.63620328001073
 31
0.0
  0
LINE
  5
334
330
1F
100
AcDbEntity
  8
0-5
  6
Continuous
 62
     7
370
     9
100
AcDbLine
 10
-157.3265846932944
 20
-81.08321772392735
 30
0.0
 11
-264.3947395174546
 21
-81.08321772392735
 31
0.0
  0
LINE
  5
335
330
1F
100
AcDbEntity
  8
0-5
  6
Continuous
 62
     7
370
     9
100
AcDbLine
 10
-136.8612389945287
 20
-45.63619585681604
 30
0.0
 11
-157.3265846932944
 21
-81.08321772392735
 31
0.0
  0
LINE
  5
336
330
1F
100
AcDbEntity
  8
0-5
  6
Continuous
 62
     7
370
     9
100
AcDbLine
 10
98.94689534220058
 20
126.2201884205277
 30
0.0
 11
213.3953077661325
 21
126.2201884205277
 31
0.0
  0
LINE
  5
337
330
1F
100
AcDbEntity
  8
0-5
  6
Continuous
 62
     7
370
     9
100
AcDbLine
 10
-164.8992020369168
 20
138.2202651268727
 30
0.0
 11
-269.9405255474688
 21
138.2202651268727
 31
0.0
  0
TEXT
  5
338
330
1F
100
AcDbEntity
  8
0-5
  6
Continuous
 62
     7
370
     9
100
AcDbText
 10
-269.1698637921928
 20
143.5749172462773
 30
0.0
 40
6.858000000000001
  1
ボルト：Ｃ３６０４Ｂ
 41
1.15
  7
ＭＳ ゴシック
100
AcDbText
  0
TEXT
  5
339
330
1F
100
AcDbEntity
  8
0-5
  6
Continuous
 62
     7
370
     9
100
AcDbText
 10
-242.9198661435929
 20
127.5904036799826
 30
0.0
 40
6.858000000000001
  1
Ｍ８×４０
 50
359.9999583021696
 41
1.133333333333333
  7
ＭＳ ゴシック
100
AcDbText
  0
TEXT
  5
33A
330
1F
100
AcDbEntity
  8
0-5
  6
Continuous
 62
     7
370
     9
100
AcDbText
 10
75.03968156409145
 20
167.2716846924344
 30
0.0
 40
6.858000000000001
  1
ストレーナー：ＦＣ１５０
 41
1.152777777777777
  7
ＭＳ ゴシック
100
AcDbText
  0
TEXT
  5
33B
330
1F
100
AcDbEntity
  8
0-5
  6
Continuous
 62
     7
370
     9
100
AcDbText
 10
85.53968156409145
 20
151.0900853074049
 30
0.0
 40
6.858000000000001
  1
ナイロンコーティング
 41
1.15
  7
ＭＳ ゴシック
100
AcDbText
  0
TEXT
  5
33C
330
1F
100
AcDbEntity
  8
0-5
  6
Continuous
 62
     7
370
     9
100
AcDbText
 10
99.1711003955064
 20
131.0248950448273
 30
0.0
 40
6.858000000000001
  1
丸小ねじ：Ｃ２７００Ｗ
 50
359.9999794532515
 41
1.151515151515151
  7
ＭＳ ゴシック
100
AcDbText
  0
TEXT
  5
33D
330
1F
100
AcDbEntity
  8
0-5
  6
Continuous
 62
     7
370
     9
100
AcDbText
 10
130.6711015541665
 20
116.1378246971853
 30
0.0
 40
6.858000000000001
  1
Ｍ６×１２
 41
1.133333333333333
  7
ＭＳ ゴシック
100
AcDbText
  0
TEXT
  5
33E
330
1F
100
AcDbEntity
  8
0-5
  6
Continuous
 62
     7
370
     9
100
AcDbText
 10
90.33200202175618
 20
94.13083617179463
 30
0.0
 40
6.858000000000001
  1
防水層押え：ＦＣ１５０
 41
1.151515151515151
  7
ＭＳ ゴシック
100
AcDbText
  0
TEXT
  5
33F
330
1F
100
AcDbEntity
  8
0-5
  6
Continuous
 62
     7
370
     9
100
AcDbText
 10
95.58200202175618
 20
80.3186643594976
 30
0.0
 40
6.858000000000001
  1
ナイロンコーティング
 41
1.15
  7
ＭＳ ゴシック
100
AcDbText
  0
TEXT
  5
340
330
1F
100
AcDbEntity
  8
0-5
  6
Continuous
 62
     7
370
     9
100
AcDbText
 10
-269.4849845194103
 20
-32.81379512372956
 30
0.0
 40
6.858000000000001
  1
本体：ＦＣ１５０
 41
1.145833333333333
  7
ＭＳ ゴシック
100
AcDbText
  0
TEXT
  5
341
330
1F
100
AcDbEntity
  8
0-5
  6
Continuous
 62
     7
370
     9
100
AcDbText
 10
-279.9849845194103
 20
-46.6384751666135
 30
0.0
 40
6.858000000000001
  1
ナイロンコーティング
 41
1.15
  7
ＭＳ ゴシック
100
AcDbText
  0
TEXT
  5
342
330
1F
100
AcDbEntity
  8
0-5
  6
Continuous
 62
     7
370
     9
100
AcDbText
 10
-262.6106621053746
 20
-76.78625126698292
 30
0.0
 40
6.858000000000001
  1
アンカー：ＳＷＲＭ８
 41
1.15
  7
ＭＳ ゴシック
100
AcDbText
  0
TEXT
  5
343
330
1F
100
AcDbEntity
  8
0-5
  6
Continuous
 62
     7
370
     9
100
AcDbText
 10
-262.6106621053746
 20
-90.83756540893054
 30
0.0
 40
6.858000000000001
  1
ナイロンコーティング
 41
1.15
  7
ＭＳ ゴシック
100
AcDbText
  0
TEXT
  5
344
330
1F
100
AcDbEntity
  8
0-5
  6
Continuous
 62
     7
370
     9
100
AcDbText
 10
-231.9701821167366
 20
-139.6805079896553
 30
0.0
 40
6.858000000000001
  1
硬質ポリ塩化ビニル
 41
1.148148148148148
  7
ＭＳ ゴシック
100
AcDbText
  0
TEXT
  5
345
330
1F
100
AcDbEntity
  8
0-4
  6
Continuous
 62
     2
370
     9
100
AcDbText
 10
118.9466207895718
 20
-48.63614884324976
 30
0.0
 40
9.144
  1
Ｃ
 50
90.0
  7
ＭＳ ゴシック
100
AcDbText
  0
TEXT
  5
346
330
1F
100
AcDbEntity
  8
F-0
  6
Continuous
 62
     9
370
     5
100
AcDbText
 10
0.0
 20
-2998.731
 30
0.0
 40
6.858000000000001
  1
Printer_Orientation = 0
 41
0.0
  7
ＭＳ ゴシック
100
AcDbText
  0
TEXT
  5
347
330
1F
100
AcDbEntity
  8
F-0
  6
Continuous
 62
     9
370
     5
100
AcDbText
 10
0.0
 20
-2998.731
 30
0.0
 40
6.858000000000001
  1
Printer_PaperSize = 0
 41
0.0
  7
ＭＳ ゴシック
100
AcDbText
  0
TEXT
  5
348
330
1F
100
AcDbEntity
  8
F-0
  6
Continuous
 62
     9
370
     5
100
AcDbText
 10
0.0
 20
-2998.731
 30
0.0
 40
6.858000000000001
  1
Printer_D2dBMP = 0
 41
0.0
  7
ＭＳ ゴシック
100
AcDbText
  0
TEXT
  5
349
330
1F
100
AcDbEntity
  8
F-0
  6
Continuous
 62
     9
370
     5
100
AcDbText
 10
0.0
 20
-2998.731
 30
0.0
 40
6.858000000000001
  1
Printer_BmpZENTAI = 0
 41
0.0
  7
ＭＳ ゴシック
100
AcDbText
  0
TEXT
  5
34A
330
1F
100
AcDbEntity
  8
F-0
  6
Continuous
 62
     9
370
     5
100
AcDbText
 10
0.0
 20
-2998.731
 30
0.0
 40
6.858000000000001
  1
View_Direct2d = 0
 41
0.0
  7
ＭＳ ゴシック
100
AcDbText
  0
TEXT
  5
34B
330
1F
100
AcDbEntity
  8
F-0
  6
Continuous
 62
     9
370
     5
100
AcDbText
 10
0.0
 20
-2998.731
 30
0.0
 40
6.858000000000001
  1
Draw_BmpTOUKA = 1
 41
0.0
  7
ＭＳ ゴシック
100
AcDbText
  0
ENDSEC
  0
SECTION
  2
OBJECTS
  0
DICTIONARY
  5
C
330
0
100
AcDbDictionary
281
     1
  3
ACAD_DETAILVIEWSTYLE
350
391
  3
ACAD_GROUP
350
D
  3
ACAD_LAYOUT
350
1A
  3
ACAD_MATERIAL
350
43
  3
ACAD_MLEADERSTYLE
350
6B
  3
ACAD_MLINESTYLE
350
17
  3
ACAD_PLOTSETTINGS
350
19
  3
ACAD_PLOTSTYLENAME
350
E
  3
ACAD_SCALELIST
350
47
  3
ACAD_SECTIONVIEWSTYLE
350
392
  3
ACAD_TABLESTYLE
350
69
  3
ACAD_VISUALSTYLE
350
2A
  3
ACDB_RECOMPOSE_DATA
350
38E
  3
AcDbVariableDictionary
350
34E
  0
DICTIONARY
  5
34C
330
8
100
AcDbDictionary
280
     1
281
     1
  3
ACAD_XREC_ROUNDTRIP
360
34D
  0
DICTIONARY
  5
391
102
{ACAD_REACTORS
330
C
102
}
330
C
100
AcDbDictionary
281
     1
  0
DICTIONARY
  5
D
102
{ACAD_REACTORS
330
C
102
}
330
C
100
AcDbDictionary
281
     1
  0
DICTIONARY
  5
1A
102
{ACAD_REACTORS
330
C
102
}
330
C
100
AcDbDictionary
281
     1
  3
Layout1
350
1E
  3
Layout2
350
26
  3
Model
350
22
  0
DICTIONARY
  5
43
102
{ACAD_REACTORS
330
C
102
}
330
C
100
AcDbDictionary
281
     1
  3
ByBlock
350
45
  3
ByLayer
350
44
  3
Global
350
46
  0
DICTIONARY
  5
6B
102
{ACAD_REACTORS
330
C
102
}
330
C
100
AcDbDictionary
281
     1
  3
Standard
350
6C
  0
DICTIONARY
  5
17
102
{ACAD_REACTORS
330
C
102
}
330
C
100
AcDbDictionary
281
     1
  3
Standard
350
18
  0
DICTIONARY
  5
19
102
{ACAD_REACTORS
330
C
102
}
330
C
100
AcDbDictionary
281
     1
  0
ACDBDICTIONARYWDFLT
  5
E
102
{ACAD_REACTORS
330
C
102
}
330
C
100
AcDbDictionary
281
     1
  3
Normal
350
F
100
AcDbDictionaryWithDefault
340
F
  0
DICTIONARY
  5
47
102
{ACAD_REACTORS
330
C
102
}
330
C
100
AcDbDictionary
281
     1
  3
A0
350
48
  3
A1
350
49
  3
A2
350
4A
  3
A3
350
4B
  3
A4
350
4C
  3
A5
350
4D
  3
A6
350
4E
  3
A7
350
4F
  3
A8
350
50
  3
A9
350
51
  3
B0
350
52
  3
B1
350
53
  3
B2
350
54
  3
B3
350
55
  3
B4
350
56
  3
B5
350
57
  3
B6
350
58
  3
B7
350
59
  3
B8
350
5A
  3
B9
350
5B
  3
C0
350
5C
  3
C1
350
5D
  3
C2
350
5E
  3
C3
350
5F
  3
C4
350
60
  3
C5
350
61
  3
C6
350
62
  3
C7
350
63
  3
C8
350
64
  3
C9
350
65
  3
D0
350
66
  3
D1
350
67
  3
D2
350
68
  0
DICTIONARY
  5
392
102
{ACAD_REACTORS
330
C
102
}
330
C
100
AcDbDictionary
281
     1
  0
DICTIONARY
  5
69
102
{ACAD_REACTORS
330
C
102
}
330
C
100
AcDbDictionary
281
     1
  3
Standard
350
6A
  0
DICTIONARY
  5
2A
102
{ACAD_REACTORS
330
C
102
}
330
C
100
AcDbDictionary
281
     1
  3
2dWireframe
350
2F
  3
Basic
350
32
  3
Brighten
350
36
  3
ColorChange
350
3A
  3
Conceptual
350
34
  3
Dim
350
35
  3
EdgeColorOff
350
3D
  3
Facepattern
350
39
  3
Flat
350
2B
  3
FlatWithEdges
350
2C
  3
Gouraud
350
2D
  3
GouraudWithEdges
350
2E
  3
Hidden
350
31
  3
JitterOff
350
3B
  3
Linepattern
350
38
  3
OverhangOff
350
3C
  3
Realistic
350
33
  3
Shaded
350
42
  3
Shaded with edges
350
41
  3
Shades of Gray
350
3E
  3
Sketchy
350
3F
  3
Thicken
350
37
  3
Wireframe
350
30
  3
X-Ray
350
40
  0
XRECORD
  5
38E
102
{ACAD_REACTORS
330
C
102
}
330
C
100
AcDbXrecord
280
     1
 90
        1
330
6A
  0
DICTIONARY
  5
34E
102
{ACAD_REACTORS
330
C
102
}
330
C
100
AcDbDictionary
281
     1
  3
CANNOSCALE
350
34F
  3
CENTEREXE
350
393
  3
CENTERLTYPEFILE
350
394
  3
CMLEADERSTYLE
350
390
  3
CTABLESTYLE
350
38F
  3
MSLTSCALE
350
350
  3
XCLIPFRAME
350
351
  0
XRECORD
  5
34D
102
{ACAD_REACTORS
330
34C
102
}
330
34C
100
AcDbXrecord
280
     1
102
VTR_0.000_0.000_1.000_1.000_VISUALSTYLE
340
2F
102
VTR_0.000_0.000_1.000_1.000_GRIDDISPLAY
 70
     3
102
VTR_0.000_0.000_1.000_1.000_GRIDMAJOR
 70
     5
102
VTR_0.000_0.000_1.000_1.000_DEFAULTLIGHTING
280
     1
102
VTR_0.000_0.000_1.000_1.000_DEFAULTLIGHTINGTYPE
 70
     1
102
VTR_0.000_0.000_1.000_1.000_BRIGHTNESS
141
0.0
102
VTR_0.000_0.000_1.000_1.000_CONTRAST
142
0.0
  0
LAYOUT
  5
1E
102
{ACAD_REACTORS
330
1A
102
}
330
1A
100
AcDbPlotSettings
  1

  2
none_device
  4

  6

 40
0.0
 41
0.0
 42
0.0
 43
0.0
 44
0.0
 45
0.0
 46
0.0
 47
0.0
 48
0.0
 49
0.0
140
0.0
141
0.0
142
1.0
143
1.0
 70
   688
 72
     1
 73
     0
 74
     5
  7

 75
    16
 76
     0
 77
     5
 78
   300
147
1.0
148
0.0
149
0.0
100
AcDbLayout
  1
Layout1
 70
     1
 71
     1
 10
0.0
 20
0.0
 11
420.0
 21
297.0
 12
0.0
 22
0.0
 32
0.0
 14
1.000000000000000E+20
 24
1.000000000000000E+20
 34
1.000000000000000E+20
 15
-1.000000000000000E+20
 25
-1.000000000000000E+20
 35
-1.000000000000000E+20
146
0.0
 13
0.0
 23
0.0
 33
0.0
 16
1.0
 26
0.0
 36
0.0
 17
0.0
 27
1.0
 37
0.0
 76
     0
330
1B
  0
LAYOUT
  5
26
102
{ACAD_REACTORS
330
1A
102
}
330
1A
100
AcDbPlotSettings
  1

  2
none_device
  4

  6

 40
0.0
 41
0.0
 42
0.0
 43
0.0
 44
0.0
 45
0.0
 46
0.0
 47
0.0
 48
0.0
 49
0.0
140
0.0
141
0.0
142
1.0
143
1.0
 70
   688
 72
     1
 73
     0
 74
     5
  7

 75
    16
 76
     0
 77
     5
 78
   300
147
1.0
148
0.0
149
0.0
100
AcDbLayout
  1
Layout2
 70
     1
 71
     2
 10
0.0
 20
0.0
 11
0.0
 21
0.0
 12
0.0
 22
0.0
 32
0.0
 14
0.0
 24
0.0
 34
0.0
 15
0.0
 25
0.0
 35
0.0
146
0.0
 13
0.0
 23
0.0
 33
0.0
 16
1.0
 26
0.0
 36
0.0
 17
0.0
 27
1.0
 37
0.0
 76
     0
330
23
  0
LAYOUT
  5
22
102
{ACAD_REACTORS
330
1A
102
}
330
1A
100
AcDbPlotSettings
  1

  2
none_device
  4
Letter_(8.50_x_11.00_Inches)
  6

 40
6.35
 41
6.35
 42
6.35000508
 43
6.35000508
 44
215.9
 45
279.4
 46
0.0
 47
0.0
 48
0.0
 49
0.0
140
0.0
141
0.0
142
1.0
143
1.0
 70
  1712
 72
     1
 73
     0
 74
     0
  7

 75
     0
 76
     0
 77
     5
 78
   300
147
1.0
148
0.0
149
0.0
100
AcDbLayout
  1
Model
 70
     1
 71
     0
 10
-630.0
 20
-445.5
 11
630.0
 21
445.5
 12
0.0
 22
0.0
 32
0.0
 14
-630.0
 24
-445.5
 34
0.0
 15
630.0
 25
445.5
 35
0.0
146
0.0
 13
0.0
 23
0.0
 33
0.0
 16
1.0
 26
0.0
 36
0.0
 17
0.0
 27
1.0
 37
0.0
 76
     0
330
1F
331
29
  0
MATERIAL
  5
45
102
{ACAD_REACTORS
330
43
102
}
102
{ACAD_XDICTIONARY
360
384
102
}
330
43
100
AcDbMaterial
  1
ByBlock
  0
MATERIAL
  5
44
102
{ACAD_REACTORS
330
43
102
}
102
{ACAD_XDICTIONARY
360
382
102
}
330
43
100
AcDbMaterial
  1
ByLayer
  0
MATERIAL
  5
46
102
{ACAD_REACTORS
330
43
102
}
102
{ACAD_XDICTIONARY
360
386
102
}
330
43
100
AcDbMaterial
  1
Global
  0
MLEADERSTYLE
  5
6C
102
{ACAD_REACTORS
330
6B
102
}
102
{ACAD_XDICTIONARY
360
38C
102
}
330
6B
100
AcDbMLeaderStyle
170
     2
171
     1
172
     0
 90
        2
 40
0.0
 41
0.0
173
     1
 91
-1056964608
340
14
 92
       -2
290
     1
 42
2.0
291
     1
 43
8.0
  3
Standard
341
0
 44
4.0
300

342
11
174
     1
178
     6
175
     1
176
     0
 93
-1056964608
 45
4.0
292
     0
297
     0
 46
4.0
343
0
 94
-1056964608
 47
1.0
 49
1.0
140
1.0
293
     1
141
0.0
294
     1
177
     0
142
1.0
295
     0
296
     0
143
3.75
1001
ACAD_MLEADERVER
1070
     2
  0
MLINESTYLE
  5
18
102
{ACAD_REACTORS
330
17
102
}
330
17
100
AcDbMlineStyle
  2
Standard
 70
     0
  3

 62
   256
 51
90.0
 52
90.0
 71
     2
 49
0.5
 62
   256
  6
BYLAYER
 49
-0.5
 62
   256
  6
BYLAYER
  0
ACDBPLACEHOLDER
  5
F
102
{ACAD_REACTORS
330
E
102
}
330
E
  0
SCALE
  5
48
102
{ACAD_REACTORS
330
47
102
}
330
47
100
AcDbScale
 70
     0
300
1:1
140
1.0
141
1.0
290
     1
  0
SCALE
  5
49
102
{ACAD_REACTORS
330
47
102
}
330
47
100
AcDbScale
 70
     0
300
1:2
140
1.0
141
2.0
290
     0
  0
SCALE
  5
4A
102
{ACAD_REACTORS
330
47
102
}
330
47
100
AcDbScale
 70
     0
300
1:4
140
1.0
141
4.0
290
     0
  0
SCALE
  5
4B
102
{ACAD_REACTORS
330
47
102
}
330
47
100
AcDbScale
 70
     0
300
1:5
140
1.0
141
5.0
290
     0
  0
SCALE
  5
4C
102
{ACAD_REACTORS
330
47
102
}
330
47
100
AcDbScale
 70
     0
300
1:8
140
1.0
141
8.0
290
     0
  0
SCALE
  5
4D
102
{ACAD_REACTORS
330
47
102
}
330
47
100
AcDbScale
 70
     0
300
1:10
140
1.0
141
10.0
290
     0
  0
SCALE
  5
4E
102
{ACAD_REACTORS
330
47
102
}
330
47
100
AcDbScale
 70
     0
300
1:16
140
1.0
141
16.0
290
     0
  0
SCALE
  5
4F
102
{ACAD_REACTORS
330
47
102
}
330
47
100
AcDbScale
 70
     0
300
1:20
140
1.0
141
20.0
290
     0
  0
SCALE
  5
50
102
{ACAD_REACTORS
330
47
102
}
330
47
100
AcDbScale
 70
     0
300
1:30
140
1.0
141
30.0
290
     0
  0
SCALE
  5
51
102
{ACAD_REACTORS
330
47
102
}
330
47
100
AcDbScale
 70
     0
300
1:40
140
1.0
141
40.0
290
     0
  0
SCALE
  5
52
102
{ACAD_REACTORS
330
47
102
}
330
47
100
AcDbScale
 70
     0
300
1:50
140
1.0
141
50.0
290
     0
  0
SCALE
  5
53
102
{ACAD_REACTORS
330
47
102
}
330
47
100
AcDbScale
 70
     0
300
1:100
140
1.0
141
100.0
290
     0
  0
SCALE
  5
54
102
{ACAD_REACTORS
330
47
102
}
330
47
100
AcDbScale
 70
     0
300
2:1
140
2.0
141
1.0
290
     0
  0
SCALE
  5
55
102
{ACAD_REACTORS
330
47
102
}
330
47
100
AcDbScale
 70
     0
300
4:1
140
4.0
141
1.0
290
     0
  0
SCALE
  5
56
102
{ACAD_REACTORS
330
47
102
}
330
47
100
AcDbScale
 70
     0
300
8:1
140
8.0
141
1.0
290
     0
  0
SCALE
  5
57
102
{ACAD_REACTORS
330
47
102
}
330
47
100
AcDbScale
 70
     0
300
10:1
140
10.0
141
1.0
290
     0
  0
SCALE
  5
58
102
{ACAD_REACTORS
330
47
102
}
330
47
100
AcDbScale
 70
     0
300
100:1
140
100.0
141
1.0
290
     0
  0
SCALE
  5
59
102
{ACAD_REACTORS
330
47
102
}
330
47
100
AcDbScale
 70
     0
300
1/128" = 1'-0"
140
0.0078125
141
12.0
290
     0
  0
SCALE
  5
5A
102
{ACAD_REACTORS
330
47
102
}
330
47
100
AcDbScale
 70
     0
300
1/64" = 1'-0"
140
0.015625
141
12.0
290
     0
  0
SCALE
  5
5B
102
{ACAD_REACTORS
330
47
102
}
330
47
100
AcDbScale
 70
     0
300
1/32" = 1'-0"
140
0.03125
141
12.0
290
     0
  0
SCALE
  5
5C
102
{ACAD_REACTORS
330
47
102
}
330
47
100
AcDbScale
 70
     0
300
1/16" = 1'-0"
140
0.0625
141
12.0
290
     0
  0
SCALE
  5
5D
102
{ACAD_REACTORS
330
47
102
}
330
47
100
AcDbScale
 70
     0
300
3/32" = 1'-0"
140
0.09375
141
12.0
290
     0
  0
SCALE
  5
5E
102
{ACAD_REACTORS
330
47
102
}
330
47
100
AcDbScale
 70
     0
300
1/8" = 1'-0"
140
0.125
141
12.0
290
     0
  0
SCALE
  5
5F
102
{ACAD_REACTORS
330
47
102
}
330
47
100
AcDbScale
 70
     0
300
3/16" = 1'-0"
140
0.1875
141
12.0
290
     0
  0
SCALE
  5
60
102
{ACAD_REACTORS
330
47
102
}
330
47
100
AcDbScale
 70
     0
300
1/4" = 1'-0"
140
0.25
141
12.0
290
     0
  0
SCALE
  5
61
102
{ACAD_REACTORS
330
47
102
}
330
47
100
AcDbScale
 70
     0
300
3/8" = 1'-0"
140
0.375
141
12.0
290
     0
  0
SCALE
  5
62
102
{ACAD_REACTORS
330
47
102
}
330
47
100
AcDbScale
 70
     0
300
1/2" = 1'-0"
140
0.5
141
12.0
290
     0
  0
SCALE
  5
63
102
{ACAD_REACTORS
330
47
102
}
330
47
100
AcDbScale
 70
     0
300
3/4" = 1'-0"
140
0.75
141
12.0
290
     0
  0
SCALE
  5
64
102
{ACAD_REACTORS
330
47
102
}
330
47
100
AcDbScale
 70
     0
300
1" = 1'-0"
140
1.0
141
12.0
290
     0
  0
SCALE
  5
65
102
{ACAD_REACTORS
330
47
102
}
330
47
100
AcDbScale
 70
     0
300
1-1/2" = 1'-0"
140
1.5
141
12.0
290
     0
  0
SCALE
  5
66
102
{ACAD_REACTORS
330
47
102
}
330
47
100
AcDbScale
 70
     0
300
3" = 1'-0"
140
3.0
141
12.0
290
     0
  0
SCALE
  5
67
102
{ACAD_REACTORS
330
47
102
}
330
47
100
AcDbScale
 70
     0
300
6" = 1'-0"
140
6.0
141
12.0
290
     0
  0
SCALE
  5
68
102
{ACAD_REACTORS
330
47
102
}
330
47
100
AcDbScale
 70
     0
300
1'-0" = 1'-0"
140
12.0
141
12.0
290
     0
  0
TABLESTYLE
  5
6A
102
{ACAD_REACTORS
330
69
102
}
102
{ACAD_XDICTIONARY
360
388
102
}
330
69
100
AcDbTableStyle
  3
Standard
 70
     0
 71
     0
 40
0.06
 41
0.06
280
     0
281
     0
  7
Standard
140
4.5
170
     2
 62
     0
 63
   257
283
     0
274
    -2
284
     1
 64
     0
275
    -2
285
     1
 65
     0
276
    -2
286
     1
 66
     0
277
    -2
287
     1
 67
     0
278
    -2
288
     1
 68
     0
279
    -2
289
     1
 69
     0
  7
Standard
140
6.0
170
     5
 62
     0
 63
   257
283
     0
274
    -2
284
     1
 64
     0
275
    -2
285
     1
 65
     0
276
    -2
286
     1
 66
     0
277
    -2
287
     1
 67
     0
278
    -2
288
     1
 68
     0
279
    -2
289
     1
 69
     0
  7
Standard
140
4.5
170
     5
 62
     0
 63
   257
283
     0
274
    -2
284
     1
 64
     0
275
    -2
285
     1
 65
     0
276
    -2
286
     1
 66
     0
277
    -2
287
     1
 67
     0
278
    -2
288
     1
 68
     0
279
    -2
289
     1
 69
     0
  0
VISUALSTYLE
  5
2F
102
{ACAD_REACTORS
330
2A
102
}
102
{ACAD_XDICTIONARY
360
35A
102
}
330
2A
100
AcDbVisualStyle
  2
2dWireframe
 70
     4
 71
     0
 72
     2
 73
     0
 90
        0
 40
0.6
 41
30.0
 62
     5
 63
     7
421
 16777215
 74
     1
 91
        4
 64
     7
 65
   257
 75
     1
175
     1
 42
1.0
 92
        0
 66
   257
 43
1.0
 76
     1
 77
     6
 78
     2
 67
     7
 79
     5
170
     0
171
     0
290
     0
174
     0
 93
        1
 44
0.0
173
     0
291
     0
 45
0.0
1001
ACAD
1000
AcDbSavedByObjectVersion
1070
     0
  0
VISUALSTYLE
  5
32
102
{ACAD_REACTORS
330
2A
102
}
102
{ACAD_XDICTIONARY
360
360
102
}
330
2A
100
AcDbVisualStyle
  2
Basic
 70
     7
 71
     1
 72
     0
 73
     1
 90
        0
 40
0.6
 41
30.0
 62
     5
 63
     7
421
 16777215
 74
     0
 91
        4
 64
     7
 65
   257
 75
     1
175
     1
 42
1.0
 92
        8
 66
     7
 43
1.0
 76
     1
 77
     6
 78
     2
 67
     7
 79
     5
170
     0
171
     0
290
     0
174
     0
 93
        1
 44
0.0
173
     0
291
     1
 45
0.0
1001
ACAD
1000
AcDbSavedByObjectVersion
1070
     0
  0
VISUALSTYLE
  5
36
102
{ACAD_REACTORS
330
2A
102
}
102
{ACAD_XDICTIONARY
360
368
102
}
330
2A
100
AcDbVisualStyle
  2
Brighten
 70
    12
 71
     2
 72
     2
 73
     0
 90
        0
 40
0.6
 41
30.0
 62
     5
 63
     7
421
 16777215
 74
     1
 91
        4
 64
     7
 65
   257
 75
     1
175
     1
 42
1.0
 92
        8
 66
     7
 43
1.0
 76
     1
 77
     6
 78
     2
 67
     7
 79
     5
170
     0
171
     0
290
     0
174
     0
 93
        1
 44
50.0
173
     0
291
     1
 45
0.0
1001
ACAD
1000
AcDbSavedByObjectVersion
1070
     0
  0
VISUALSTYLE
  5
3A
102
{ACAD_REACTORS
330
2A
102
}
102
{ACAD_XDICTIONARY
360
370
102
}
330
2A
100
AcDbVisualStyle
  2
ColorChange
 70
    16
 71
     2
 72
     2
 73
     3
 90
        0
 40
0.6
 41
30.0
 62
     5
 63
     8
421
  8421504
 74
     1
 91
        4
 64
     7
 65
   257
 75
     1
175
     1
 42
1.0
 92
        8
 66
     8
424
  8421504
 43
1.0
 76
     1
 77
     6
 78
     2
 67
     7
 79
     5
170
     0
171
     0
290
     0
174
     0
 93
        1
 44
0.0
173
     0
291
     1
 45
0.0
1001
ACAD
1000
AcDbSavedByObjectVersion
1070
     0
  0
VISUALSTYLE
  5
34
102
{ACAD_REACTORS
330
2A
102
}
102
{ACAD_XDICTIONARY
360
364
102
}
330
2A
100
AcDbVisualStyle
  2
Conceptual
 70
     9
 71
     3
 72
     2
 73
     0
 90
        0
 40
0.6
 41
30.0
 62
     5
 63
     7
421
 16777215
 74
     2
 91
        2
 64
     7
 65
   257
 75
     1
175
     1
 42
179.0
 92
        8
 66
     7
 43
1.0
 76
     1
 77
     6
 78
     2
 67
     7
 79
     3
170
     0
171
     0
290
     0
174
     0
 93
        1
 44
0.0
173
     0
291
     0
 45
0.0
1001
ACAD
1000
AcDbSavedByObjectVersion
1070
     0
  0
VISUALSTYLE
  5
35
102
{ACAD_REACTORS
330
2A
102
}
102
{ACAD_XDICTIONARY
360
366
102
}
330
2A
100
AcDbVisualStyle
  2
Dim
 70
    11
 71
     2
 72
     2
 73
     0
 90
        0
 40
0.6
 41
30.0
 62
     5
 63
     7
421
 16777215
 74
     1
 91
        4
 64
     7
 65
   257
 75
     1
175
     1
 42
1.0
 92
        8
 66
     7
 43
1.0
 76
     1
 77
     6
 78
     2
 67
     7
 79
     5
170
     0
171
     0
290
     0
174
     0
 93
        1
 44
-50.0
173
     0
291
     1
 45
0.0
1001
ACAD
1000
AcDbSavedByObjectVersion
1070
     0
  0
VISUALSTYLE
  5
3D
102
{ACAD_REACTORS
330
2A
102
}
102
{ACAD_XDICTIONARY
360
376
102
}
330
2A
100
AcDbVisualStyle
  2
EdgeColorOff
 70
    22
 71
     2
 72
     2
 73
     0
 90
        0
 40
0.6
 41
30.0
 62
     5
 63
     7
421
 16777215
 74
     1
 91
        4
 64
     7
 65
   257
 75
     1
175
     1
 42
1.0
 92
        8
 66
     7
 43
1.0
 76
     1
 77
     6
 78
     2
 67
     7
 79
     5
170
     0
171
     0
290
     0
174
     0
 93
        1
 44
0.0
173
     0
291
     1
 45
0.0
1001
ACAD
1000
AcDbSavedByObjectVersion
1070
     0
  0
VISUALSTYLE
  5
39
102
{ACAD_REACTORS
330
2A
102
}
102
{ACAD_XDICTIONARY
360
36E
102
}
330
2A
100
AcDbVisualStyle
  2
Facepattern
 70
    15
 71
     2
 72
     2
 73
     0
 90
        0
 40
0.6
 41
30.0
 62
     5
 63
     7
421
 16777215
 74
     1
 91
        4
 64
     7
 65
   257
 75
     1
175
     1
 42
1.0
 92
        8
 66
     7
 43
1.0
 76
     1
 77
     6
 78
     2
 67
     7
 79
     5
170
     0
171
     0
290
     0
174
     0
 93
        1
 44
0.0
173
     0
291
     1
 45
0.0
1001
ACAD
1000
AcDbSavedByObjectVersion
1070
     0
  0
VISUALSTYLE
  5
2B
102
{ACAD_REACTORS
330
2A
102
}
102
{ACAD_XDICTIONARY
360
352
102
}
330
2A
100
AcDbVisualStyle
  2
Flat
 70
     0
 71
     2
 72
     1
 73
     1
 90
        2
 40
0.6
 41
30.0
 62
     5
 63
     7
421
 16777215
 74
     0
 91
        0
 64
     7
 65
   257
 75
     1
175
     1
 42
1.0
 92
        8
 66
     7
 43
1.0
 76
     1
 77
     6
 78
     2
 67
     7
 79
     5
170
     0
171
     0
290
     0
174
     0
 93
       13
 44
0.0
173
     0
291
     1
 45
0.0
1001
ACAD
1000
AcDbSavedByObjectVersion
1070
     0
  0
VISUALSTYLE
  5
2C
102
{ACAD_REACTORS
330
2A
102
}
102
{ACAD_XDICTIONARY
360
354
102
}
330
2A
100
AcDbVisualStyle
  2
FlatWithEdges
 70
     1
 71
     2
 72
     1
 73
     1
 90
        2
 40
0.6
 41
30.0
 62
     5
 63
     7
421
 16777215
 74
     1
 91
        0
 64
     7
 65
   257
 75
     1
175
     1
 42
1.0
 92
        0
 66
   257
 43
1.0
 76
     1
 77
     6
 78
     2
 67
     7
 79
     5
170
     0
171
     0
290
     0
174
     0
 93
       13
 44
0.0
173
     0
291
     1
 45
0.0
1001
ACAD
1000
AcDbSavedByObjectVersion
1070
     0
  0
VISUALSTYLE
  5
2D
102
{ACAD_REACTORS
330
2A
102
}
102
{ACAD_XDICTIONARY
360
356
102
}
330
2A
100
AcDbVisualStyle
  2
Gouraud
 70
     2
 71
     2
 72
     2
 73
     1
 90
        2
 40
0.6
 41
30.0
 62
     5
 63
     7
421
 16777215
 74
     0
 91
        0
 64
     7
 65
   257
 75
     1
175
     1
 42
1.0
 92
        0
 66
     7
 43
1.0
 76
     1
 77
     6
 78
     2
 67
     7
 79
     5
170
     0
171
     0
290
     0
174
     0
 93
       13
 44
0.0
173
     0
291
     1
 45
0.0
1001
ACAD
1000
AcDbSavedByObjectVersion
1070
     0
  0
VISUALSTYLE
  5
2E
102
{ACAD_REACTORS
330
2A
102
}
102
{ACAD_XDICTIONARY
360
358
102
}
330
2A
100
AcDbVisualStyle
  2
GouraudWithEdges
 70
     3
 71
     2
 72
     2
 73
     1
 90
        2
 40
0.6
 41
30.0
 62
     5
 63
     7
421
 16777215
 74
     1
 91
        0
 64
     7
 65
   257
 75
     1
175
     1
 42
1.0
 92
        0
 66
   257
 43
1.0
 76
     1
 77
     6
 78
     2
 67
     7
 79
     5
170
     0
171
     0
290
     0
174
     0
 93
       13
 44
0.0
173
     0
291
     1
 45
0.0
1001
ACAD
1000
AcDbSavedByObjectVersion
1070
     0
  0
VISUALSTYLE
  5
31
102
{ACAD_REACTORS
330
2A
102
}
102
{ACAD_XDICTIONARY
360
35E
102
}
330
2A
100
AcDbVisualStyle
  2
Hidden
 70
     6
 71
     1
 72
     2
 73
     2
 90
        0
 40
0.6
 41
30.0
 62
     5
 63
     7
421
 16777215
 74
     2
 91
        2
 64
     7
 65
   257
 75
     2
175
     1
 42
40.0
 92
        0
 66
   257
 43
1.0
 76
     1
 77
     6
 78
     2
 67
     7
 79
     3
170
     0
171
     0
290
     0
174
     0
 93
        1
 44
0.0
173
     0
291
     0
 45
0.0
1001
ACAD
1000
AcDbSavedByObjectVersion
1070
     0
  0
VISUALSTYLE
  5
3B
102
{ACAD_REACTORS
330
2A
102
}
102
{ACAD_XDICTIONARY
360
372
102
}
330
2A
100
AcDbVisualStyle
  2
JitterOff
 70
    20
 71
     2
 72
     2
 73
     0
 90
        0
 40
0.6
 41
30.0
 62
     5
 63
     7
421
 16777215
 74
     1
 91
        4
 64
     7
 65
   257
 75
     1
175
     1
 42
1.0
 92
       10
 66
     7
 43
1.0
 76
     1
 77
     6
 78
     2
 67
     7
 79
     5
170
     0
171
     0
290
     0
174
     0
 93
        1
 44
0.0
173
     0
291
     1
 45
0.0
1001
ACAD
1000
AcDbSavedByObjectVersion
1070
     0
  0
VISUALSTYLE
  5
38
102
{ACAD_REACTORS
330
2A
102
}
102
{ACAD_XDICTIONARY
360
36C
102
}
330
2A
100
AcDbVisualStyle
  2
Linepattern
 70
    14
 71
     2
 72
     2
 73
     0
 90
        0
 40
0.6
 41
30.0
 62
     5
 63
     7
421
 16777215
 74
     1
 91
        4
 64
     7
 65
   257
 75
     7
175
     7
 42
1.0
 92
        8
 66
     7
 43
1.0
 76
     1
 77
     6
 78
     2
 67
     7
 79
     5
170
     0
171
     0
290
     0
174
     0
 93
        1
 44
0.0
173
     0
291
     1
 45
0.0
1001
ACAD
1000
AcDbSavedByObjectVersion
1070
     0
  0
VISUALSTYLE
  5
3C
102
{ACAD_REACTORS
330
2A
102
}
102
{ACAD_XDICTIONARY
360
374
102
}
330
2A
100
AcDbVisualStyle
  2
OverhangOff
 70
    21
 71
     2
 72
     2
 73
     0
 90
        0
 40
0.6
 41
30.0
 62
     5
 63
     7
421
 16777215
 74
     1
 91
        4
 64
     7
 65
   257
 75
     1
175
     1
 42
1.0
 92
        9
 66
     7
 43
1.0
 76
     1
 77
     6
 78
     2
 67
     7
 79
     5
170
     0
171
     0
290
     0
174
     0
 93
        1
 44
0.0
173
     0
291
     1
 45
0.0
1001
ACAD
1000
AcDbSavedByObjectVersion
1070
     0
  0
VISUALSTYLE
  5
33
102
{ACAD_REACTORS
330
2A
102
}
102
{ACAD_XDICTIONARY
360
362
102
}
330
2A
100
AcDbVisualStyle
  2
Realistic
 70
     8
 71
     2
 72
     3
 73
     0
 90
        2
 40
0.6
 41
30.0
 62
     5
 63
     7
421
 16777215
 74
     0
 91
        0
 64
     7
 65
   257
 75
     1
175
     1
 42
1.0
 92
        8
 66
   257
 43
1.0
 76
     1
 77
     6
 78
     2
 67
     7
 79
     3
170
     0
171
     0
290
     0
174
     0
 93
       13
 44
0.0
173
     0
291
     0
 45
0.0
1001
ACAD
1000
AcDbSavedByObjectVersion
1070
     0
  0
VISUALSTYLE
  5
42
102
{ACAD_REACTORS
330
2A
102
}
102
{ACAD_XDICTIONARY
360
380
102
}
330
2A
100
AcDbVisualStyle
  2
Shaded
 70
    27
 71
     2
 72
     2
 73
     1
 90
        2
 40
0.6
 41
30.0
 62
     5
 63
     7
421
 16777215
 74
     0
 91
        4
 64
     7
 65
   257
 75
     1
175
     1
 42
1.0
 92
        8
 66
   257
 43
1.0
 76
     1
 77
     6
 78
     2
 67
     8
425
  7895160
 79
     3
170
     0
171
     0
290
     0
174
     0
 93
        5
 44
0.0
173
     0
291
     0
 45
0.0
1001
ACAD
1000
AcDbSavedByObjectVersion
1070
     0
  0
VISUALSTYLE
  5
41
102
{ACAD_REACTORS
330
2A
102
}
102
{ACAD_XDICTIONARY
360
37E
102
}
330
2A
100
AcDbVisualStyle
  2
Shaded with edges
 70
    26
 71
     2
 72
     2
 73
     1
 90
        2
 40
0.6
 41
30.0
 62
     5
 63
     7
421
 16777215
 74
     1
 91
       10
 64
     7
 65
   257
 75
     2
175
     1
 42
1.0
 92
        8
 66
   257
 43
1.0
 76
     1
 77
     6
 78
     2
 67
     7
 79
     3
170
     0
171
     0
290
     0
174
     0
 93
        5
 44
0.0
173
     0
291
     0
 45
0.0
1001
ACAD
1000
AcDbSavedByObjectVersion
1070
     0
  0
VISUALSTYLE
  5
3E
102
{ACAD_REACTORS
330
2A
102
}
102
{ACAD_XDICTIONARY
360
378
102
}
330
2A
100
AcDbVisualStyle
  2
Shades of Gray
 70
    23
 71
     2
 72
     2
 73
     3
 90
        0
 40
0.6
 41
30.0
 62
     5
 63
     7
421
 16777215
 74
     2
 91
        2
 64
     7
 65
     7
 75
     1
175
     1
 42
40.0
 92
        8
 66
     7
 43
1.0
 76
     1
 77
     6
 78
     2
 67
     7
 79
     3
170
     0
171
     0
290
     0
174
     0
 93
        1
 44
0.0
173
     0
291
     0
 45
0.0
1001
ACAD
1000
AcDbSavedByObjectVersion
1070
     0
  0
VISUALSTYLE
  5
3F
102
{ACAD_REACTORS
330
2A
102
}
102
{ACAD_XDICTIONARY
360
37A
102
}
330
2A
100
AcDbVisualStyle
  2
Sketchy
 70
    24
 71
     1
 72
     2
 73
     2
 90
        0
 40
0.6
 41
30.0
 62
     5
 63
     7
421
 16777215
 74
     2
 91
        2
 64
     7
 65
     7
 75
     1
175
     1
 42
40.0
 92
       11
 66
     7
 43
1.0
 76
     1
 77
     6
 78
     2
 67
     7
 79
     6
170
     0
171
     0
290
     0
174
     0
 93
        1
 44
0.0
173
     0
291
     0
 45
0.0
1001
ACAD
1000
AcDbSavedByObjectVersion
1070
     0
  0
VISUALSTYLE
  5
37
102
{ACAD_REACTORS
330
2A
102
}
102
{ACAD_XDICTIONARY
360
36A
102
}
330
2A
100
AcDbVisualStyle
  2
Thicken
 70
    13
 71
     2
 72
     2
 73
     0
 90
        0
 40
0.6
 41
30.0
 62
     5
 63
     7
421
 16777215
 74
     1
 91
        4
 64
     7
 65
   257
 75
     1
175
     1
 42
1.0
 92
       12
 66
     7
 43
1.0
 76
     1
 77
     6
 78
     2
 67
     7
 79
     5
170
     0
171
     0
290
     0
174
     0
 93
        1
 44
0.0
173
     0
291
     1
 45
0.0
1001
ACAD
1000
AcDbSavedByObjectVersion
1070
     0
  0
VISUALSTYLE
  5
30
102
{ACAD_REACTORS
330
2A
102
}
102
{ACAD_XDICTIONARY
360
35C
102
}
330
2A
100
AcDbVisualStyle
  2
Wireframe
 70
     5
 71
     0
 72
     2
 73
     0
 90
        0
 40
0.6
 41
30.0
 62
     5
 63
     7
421
 16777215
 74
     1
 91
        4
 64
     7
 65
   257
 75
     1
175
     1
 42
1.0
 92
        0
 66
   257
 43
1.0
 76
     1
 77
     6
 78
     2
 67
     7
 79
     3
170
     0
171
     0
290
     0
174
     0
 93
        1
 44
0.0
173
     0
291
     0
 45
0.0
1001
ACAD
1000
AcDbSavedByObjectVersion
1070
     0
  0
VISUALSTYLE
  5
40
102
{ACAD_REACTORS
330
2A
102
}
102
{ACAD_XDICTIONARY
360
37C
102
}
330
2A
100
AcDbVisualStyle
  2
X-Ray
 70
    25
 71
     2
 72
     2
 73
     1
 90
        1
 40
0.5
 41
30.0
 62
     5
 63
     7
421
 16777215
 74
     1
 91
        0
 64
     7
 65
   257
 75
     1
175
     1
 42
1.0
 92
        8
 66
     7
 43
1.0
 76
     1
 77
     6
 78
     2
 67
     7
 79
     3
170
     0
171
     0
290
     0
174
     0
 93
       13
 44
0.0
173
     0
291
     0
 45
0.0
1001
ACAD
1000
AcDbSavedByObjectVersion
1070
     0
  0
DICTIONARYVAR
  5
34F
102
{ACAD_REACTORS
330
34E
102
}
330
34E
100
DictionaryVariables
280
     0
  1
1:1
  0
DICTIONARYVAR
  5
393
102
{ACAD_REACTORS
330
34E
102
}
330
34E
100
DictionaryVariables
280
     0
  1
3.500000
  0
DICTIONARYVAR
  5
394
102
{ACAD_REACTORS
330
34E
102
}
330
34E
100
DictionaryVariables
280
     0
  1
acadiso.lin
  0
DICTIONARYVAR
  5
390
102
{ACAD_REACTORS
330
34E
102
}
330
34E
100
DictionaryVariables
280
     0
  1
Standard
  0
DICTIONARYVAR
  5
38F
102
{ACAD_REACTORS
330
34E
102
}
330
34E
100
DictionaryVariables
280
     0
  1
Standard
  0
DICTIONARYVAR
  5
350
102
{ACAD_REACTORS
330
34E
102
}
330
34E
100
DictionaryVariables
280
     0
  1
1
  0
DICTIONARYVAR
  5
351
102
{ACAD_REACTORS
330
34E
102
}
330
34E
100
DictionaryVariables
280
     0
  1
2
  0
DICTIONARY
  5
384
330
45
100
AcDbDictionary
280
     1
281
     1
  3
ACAD_XREC_ROUNDTRIP
360
385
  0
DICTIONARY
  5
382
330
44
100
AcDbDictionary
280
     1
281
     1
  3
ACAD_XREC_ROUNDTRIP
360
383
  0
DICTIONARY
  5
386
330
46
100
AcDbDictionary
280
     1
281
     1
  3
ACAD_XREC_ROUNDTRIP
360
387
  0
DICTIONARY
  5
38C
330
6C
100
AcDbDictionary
280
     1
281
     1
  3
ACAD_XREC_ROUNDTRIP
360
38D
  0
DICTIONARY
  5
388
330
6A
100
AcDbDictionary
280
     1
281
     1
  3
ACAD_ROUNDTRIP_2008_TABLESTYLE_CELLSTYLEMAP
360
38A
  3
ACAD_XREC_ROUNDTRIP
360
389
  0
DICTIONARY
  5
35A
330
2F
100
AcDbDictionary
280
     1
281
     1
  3
ACAD_XREC_ROUNDTRIP
360
35B
  0
DICTIONARY
  5
360
330
32
100
AcDbDictionary
280
     1
281
     1
  3
ACAD_XREC_ROUNDTRIP
360
361
  0
DICTIONARY
  5
368
330
36
100
AcDbDictionary
280
     1
281
     1
  3
ACAD_XREC_ROUNDTRIP
360
369
  0
DICTIONARY
  5
370
330
3A
100
AcDbDictionary
280
     1
281
     1
  3
ACAD_XREC_ROUNDTRIP
360
371
  0
DICTIONARY
  5
364
330
34
100
AcDbDictionary
280
     1
281
     1
  3
ACAD_XREC_ROUNDTRIP
360
365
  0
DICTIONARY
  5
366
330
35
100
AcDbDictionary
280
     1
281
     1
  3
ACAD_XREC_ROUNDTRIP
360
367
  0
DICTIONARY
  5
376
330
3D
100
AcDbDictionary
280
     1
281
     1
  3
ACAD_XREC_ROUNDTRIP
360
377
  0
DICTIONARY
  5
36E
330
39
100
AcDbDictionary
280
     1
281
     1
  3
ACAD_XREC_ROUNDTRIP
360
36F
  0
DICTIONARY
  5
352
330
2B
100
AcDbDictionary
280
     1
281
     1
  3
ACAD_XREC_ROUNDTRIP
360
353
  0
DICTIONARY
  5
354
330
2C
100
AcDbDictionary
280
     1
281
     1
  3
ACAD_XREC_ROUNDTRIP
360
355
  0
DICTIONARY
  5
356
330
2D
100
AcDbDictionary
280
     1
281
     1
  3
ACAD_XREC_ROUNDTRIP
360
357
  0
DICTIONARY
  5
358
330
2E
100
AcDbDictionary
280
     1
281
     1
  3
ACAD_XREC_ROUNDTRIP
360
359
  0
DICTIONARY
  5
35E
330
31
100
AcDbDictionary
280
     1
281
     1
  3
ACAD_XREC_ROUNDTRIP
360
35F
  0
DICTIONARY
  5
372
330
3B
100
AcDbDictionary
280
     1
281
     1
  3
ACAD_XREC_ROUNDTRIP
360
373
  0
DICTIONARY
  5
36C
330
38
100
AcDbDictionary
280
     1
281
     1
  3
ACAD_XREC_ROUNDTRIP
360
36D
  0
DICTIONARY
  5
374
330
3C
100
AcDbDictionary
280
     1
281
     1
  3
ACAD_XREC_ROUNDTRIP
360
375
  0
DICTIONARY
  5
362
330
33
100
AcDbDictionary
280
     1
281
     1
  3
ACAD_XREC_ROUNDTRIP
360
363
  0
DICTIONARY
  5
380
330
42
100
AcDbDictionary
280
     1
281
     1
  3
ACAD_XREC_ROUNDTRIP
360
381
  0
DICTIONARY
  5
37E
330
41
100
AcDbDictionary
280
     1
281
     1
  3
ACAD_XREC_ROUNDTRIP
360
37F
  0
DICTIONARY
  5
378
330
3E
100
AcDbDictionary
280
     1
281
     1
  3
ACAD_XREC_ROUNDTRIP
360
379
  0
DICTIONARY
  5
37A
330
3F
100
AcDbDictionary
280
     1
281
     1
  3
ACAD_XREC_ROUNDTRIP
360
37B
  0
DICTIONARY
  5
36A
330
37
100
AcDbDictionary
280
     1
281
     1
  3
ACAD_XREC_ROUNDTRIP
360
36B
  0
DICTIONARY
  5
35C
330
30
100
AcDbDictionary
280
     1
281
     1
  3
ACAD_XREC_ROUNDTRIP
360
35D
  0
DICTIONARY
  5
37C
330
40
100
AcDbDictionary
280
     1
281
     1
  3
ACAD_XREC_ROUNDTRIP
360
37D
  0
XRECORD
  5
385
102
{ACAD_REACTORS
330
384
102
}
330
384
100
AcDbXrecord
280
     1
102
MATERIAL
148
0.0
149
0.0
149
0.0
 93
        0
 94
      127
282
     0
 72
     1
 77
     1
171
     1
175
     1
179
     1
273
     0
  0
XRECORD
  5
383
102
{ACAD_REACTORS
330
382
102
}
330
382
100
AcDbXrecord
280
     1
102
MATERIAL
148
0.0
149
0.0
149
0.0
 93
        0
 94
      127
282
     0
 72
     1
 77
     1
171
     1
175
     1
179
     1
273
     0
  0
XRECORD
  5
387
102
{ACAD_REACTORS
330
386
102
}
330
386
100
AcDbXrecord
280
     1
102
MATERIAL
148
0.0
149
0.0
149
0.0
 93
        0
 94
      127
282
     0
 72
     1
 77
     1
171
     1
175
     1
179
     1
273
     0
  0
XRECORD
  5
38D
102
{ACAD_REACTORS
330
38C
102
}
330
38C
100
AcDbXrecord
280
     1
102
ACAD_ROUNDTRIP_2010_MLEADER_STYLE
  0
CELLSTYLEMAP
  5
38A
102
{ACAD_REACTORS
330
388
102
}
330
388
100
AcDbCellStyleMap
 90
        3
300
CELLSTYLE
  1
TABLEFORMAT_BEGIN
 90
        5
170
     1
 91
        0
 92
    32768
 62
   257
 93
        1
300
CONTENTFORMAT
  1
CONTENTFORMAT_BEGIN
 90
        0
 91
        0
 92
        4
 93
        0
300

 40
0.0
140
1.0
 94
        5
 62
     0
340
11
144
6.0
309
CONTENTFORMAT_END
171
     1
301
MARGIN
  1
CELLMARGIN_BEGIN
 40
1.5
 40
1.5
 40
1.5
 40
1.5
 40
1.5
 40
1.5
309
CELLMARGIN_END
 94
        6
 95
        1
302
GRIDFORMAT
  1
GRIDFORMAT_BEGIN
 90
        0
 91
        1
 62
     0
 92
       -2
340
14
 93
        0
 40
0.045
309
GRIDFORMAT_END
 95
        2
302
GRIDFORMAT
  1
GRIDFORMAT_BEGIN
 90
        0
 91
        1
 62
     0
 92
       -2
340
14
 93
        0
 40
0.045
309
GRIDFORMAT_END
 95
        4
302
GRIDFORMAT
  1
GRIDFORMAT_BEGIN
 90
        0
 91
        1
 62
     0
 92
       -2
340
14
 93
        0
 40
0.045
309
GRIDFORMAT_END
 95
        8
302
GRIDFORMAT
  1
GRIDFORMAT_BEGIN
 90
        0
 91
        1
 62
     0
 92
       -2
340
14
 93
        0
 40
0.045
309
GRIDFORMAT_END
 95
       16
302
GRIDFORMAT
  1
GRIDFORMAT_BEGIN
 90
        0
 91
        1
 62
     0
 92
       -2
340
14
 93
        0
 40
0.045
309
GRIDFORMAT_END
 95
       32
302
GRIDFORMAT
  1
GRIDFORMAT_BEGIN
 90
        0
 91
        1
 62
     0
 92
       -2
340
14
 93
        0
 40
0.045
309
GRIDFORMAT_END
309
TABLEFORMAT_END
  1
CELLSTYLE_BEGIN
 90
        1
 91
        1
300
_TITLE
309
CELLSTYLE_END
300
CELLSTYLE
  1
TABLEFORMAT_BEGIN
 90
        5
170
     1
 91
        0
 92
        0
 62
   257
 93
        1
300
CONTENTFORMAT
  1
CONTENTFORMAT_BEGIN
 90
        0
 91
        0
 92
        4
 93
        0
300

 40
0.0
140
1.0
 94
        5
 62
     0
340
11
144
4.5
309
CONTENTFORMAT_END
171
     1
301
MARGIN
  1
CELLMARGIN_BEGIN
 40
1.5
 40
1.5
 40
1.5
 40
1.5
 40
1.5
 40
1.5
309
CELLMARGIN_END
 94
        6
 95
        1
302
GRIDFORMAT
  1
GRIDFORMAT_BEGIN
 90
        0
 91
        1
 62
     0
 92
       -2
340
14
 93
        0
 40
0.045
309
GRIDFORMAT_END
 95
        2
302
GRIDFORMAT
  1
GRIDFORMAT_BEGIN
 90
        0
 91
        1
 62
     0
 92
       -2
340
14
 93
        0
 40
0.045
309
GRIDFORMAT_END
 95
        4
302
GRIDFORMAT
  1
GRIDFORMAT_BEGIN
 90
        0
 91
        1
 62
     0
 92
       -2
340
14
 93
        0
 40
0.045
309
GRIDFORMAT_END
 95
        8
302
GRIDFORMAT
  1
GRIDFORMAT_BEGIN
 90
        0
 91
        1
 62
     0
 92
       -2
340
14
 93
        0
 40
0.045
309
GRIDFORMAT_END
 95
       16
302
GRIDFORMAT
  1
GRIDFORMAT_BEGIN
 90
        0
 91
        1
 62
     0
 92
       -2
340
14
 93
        0
 40
0.045
309
GRIDFORMAT_END
 95
       32
302
GRIDFORMAT
  1
GRIDFORMAT_BEGIN
 90
        0
 91
        1
 62
     0
 92
       -2
340
14
 93
        0
 40
0.045
309
GRIDFORMAT_END
309
TABLEFORMAT_END
  1
CELLSTYLE_BEGIN
 90
        2
 91
        1
300
_HEADER
309
CELLSTYLE_END
300
CELLSTYLE
  1
TABLEFORMAT_BEGIN
 90
        5
170
     1
 91
        0
 92
        0
 62
   257
 93
        1
300
CONTENTFORMAT
  1
CONTENTFORMAT_BEGIN
 90
        0
 91
        0
 92
        4
 93
        0
300

 40
0.0
140
1.0
 94
        2
 62
     0
340
11
144
4.5
309
CONTENTFORMAT_END
171
     1
301
MARGIN
  1
CELLMARGIN_BEGIN
 40
1.5
 40
1.5
 40
1.5
 40
1.5
 40
1.5
 40
1.5
309
CELLMARGIN_END
 94
        6
 95
        1
302
GRIDFORMAT
  1
GRIDFORMAT_BEGIN
 90
        0
 91
        1
 62
     0
 92
       -2
340
14
 93
        0
 40
0.045
309
GRIDFORMAT_END
 95
        2
302
GRIDFORMAT
  1
GRIDFORMAT_BEGIN
 90
        0
 91
        1
 62
     0
 92
       -2
340
14
 93
        0
 40
0.045
309
GRIDFORMAT_END
 95
        4
302
GRIDFORMAT
  1
GRIDFORMAT_BEGIN
 90
        0
 91
        1
 62
     0
 92
       -2
340
14
 93
        0
 40
0.045
309
GRIDFORMAT_END
 95
        8
302
GRIDFORMAT
  1
GRIDFORMAT_BEGIN
 90
        0
 91
        1
 62
     0
 92
       -2
340
14
 93
        0
 40
0.045
309
GRIDFORMAT_END
 95
       16
302
GRIDFORMAT
  1
GRIDFORMAT_BEGIN
 90
        0
 91
        1
 62
     0
 92
       -2
340
14
 93
        0
 40
0.045
309
GRIDFORMAT_END
 95
       32
302
GRIDFORMAT
  1
GRIDFORMAT_BEGIN
 90
        0
 91
        1
 62
     0
 92
       -2
340
14
 93
        0
 40
0.045
309
GRIDFORMAT_END
309
TABLEFORMAT_END
  1
CELLSTYLE_BEGIN
 90
        3
 91
        2
300
_DATA
309
CELLSTYLE_END
  0
XRECORD
  5
389
102
{ACAD_REACTORS
330
388
102
}
330
388
100
AcDbXrecord
280
     1
102
ACAD_ROUNDTRIP_PRE2007_TABLESTYLE
 90
        4
 91
        0
  1

 92
        4
 93
        0
  2

 94
        4
 95
        0
  3

  0
XRECORD
  5
35B
102
{ACAD_REACTORS
330
35A
102
}
330
35A
100
AcDbXrecord
280
     1
102
RTVSPropertyOp0
 70
     1
102
RTVSPropertyOp1
 70
     1
102
RTVSPropertyOp2
 70
     1
102
RTVSPropertyOp3
 70
     1
102
RTVSPropertyOp4
 70
     1
102
RTVSPropertyOp5
 70
     1
102
RTVSPropertyOp6
 70
     1
102
RTVSPropertyOp7
 70
     1
102
RTVSPropertyOp8
 70
     1
102
RTVSPropertyOp9
 70
     1
102
RTVSPropertyOp10
 70
     1
102
RTVSPropertyOp11
 70
     1
102
RTVSPropertyOp12
 70
     1
102
RTVSPropertyOp13
 70
     1
102
RTVSPropertyOp14
 70
     1
102
RTVSPropertyOp15
 70
     1
102
RTVSPropertyOp16
 70
     1
102
RTVSPropertyOp17
 70
     1
102
RTVSPropertyOp18
 70
     1
102
RTVSPropertyOp19
 70
     1
102
RTVSPropertyOp20
 70
     1
102
RTVSPropertyOp21
 70
     1
102
RTVSPropertyOp22
 70
     1
102
RTVSPropertyOp23
 70
     1
102
RTVSPropertyOp24
 70
     1
102
RTVSPropertyOp25
 70
     1
102
RTVSPropertyOp26
 70
     1
102
RTVSPropertyOp27
 70
     1
102
RTVSPropertyOp28
 70
     1
102
RTVSPropertyOp29
 70
     1
102
RTVSPropertyOp30
 70
     1
102
RTVSPropertyOp31
 70
     1
102
RTVSPropertyOp32
 70
     1
102
RTVSPropertyOp33
 70
     1
102
RTVSPropertyOp34
 70
     1
102
RTVSPropertyOp35
 70
     1
102
RTVSPropertyOp36
 70
     1
102
RTVSPropertyOp37
 70
     1
102
RTVSPropertyOp38
 70
     1
102
RTVSPropertyOp39
 70
     1
102
RTVSPropertyOp40
 70
     1
102
RTVSPropertyOp41
 70
     1
102
RTVSPropertyOp42
 70
     1
102
RTVSPropertyOp43
 70
     1
102
RTVSPropertyOp44
 70
     1
102
RTVSPropertyOp45
 70
     1
102
RTVSPropertyOp46
 70
     1
102
RTVSPropertyOp47
 70
     1
102
RTVSPropertyOp48
 70
     1
102
RTVSPropertyOp49
 70
     1
102
RTVSPropertyOp50
 70
     1
102
RTVSPropertyOp51
 70
     0
102
RTVSPropertyOp52
 70
     0
102
RTVSPropertyOp53
 70
     1
102
RTVSPropertyOp54
 70
     1
102
RTVSPropertyOp55
 70
     1
102
RTVSPropertyOp56
 70
     1
102
RTVSPropertyOp57
 70
     1
102
RTVSPost2010Prop28
280
     1
102
RTVSPost2010PropOp28
 70
     1
102
RTVSPost2010Prop29
280
     1
102
RTVSPost2010PropOp29
 70
     1
102
RTVSPost2010Prop30
280
     0
102
RTVSPost2010PropOp30
 70
     1
102
RTVSPost2010Prop31
280
     0
102
RTVSPost2010PropOp31
 70
     1
102
RTVSPost2010Prop32
280
     0
102
RTVSPost2010PropOp32
 70
     1
102
RTVSPost2010Prop33
280
     0
102
RTVSPost2010PropOp33
 70
     1
102
RTVSPost2010Prop34
280
     0
102
RTVSPost2010PropOp34
 70
     1
102
RTVSPost2010Prop35
280
     0
102
RTVSPost2010PropOp35
 70
     1
102
RTVSPost2010Prop36
280
     0
102
RTVSPost2010PropOp36
 70
     1
102
RTVSPost2010Prop37
 90
       50
102
RTVSPost2010PropOp37
 70
     1
102
RTVSPost2010Prop38
140
0.0
102
RTVSPost2010PropOp38
 70
     1
102
RTVSPost2010Prop39
140
1.0
102
RTVSPost2010PropOp39
 70
     1
102
RTVSPost2010Prop40
 90
        0
102
RTVSPost2010PropOp40
 70
     1
102
RTVSPost2010Prop41ColorIndex
 90
       18
102
RTVSPost2010Prop41ColorRGB
 90
        0
102
RTVSPost2010PropOp41
 70
     1
102
RTVSPost2010Prop42
 90
       50
102
RTVSPost2010PropOp42
 70
     1
102
RTVSPost2010Prop43
 90
        3
102
RTVSPost2010PropOp43
 70
     1
102
RTVSPost2010Prop44ColorIndex
 90
        5
102
RTVSPost2010Prop44ColorRGB
 90
      255
102
RTVSPost2010PropOp44
 70
     1
102
RTVSPost2010Prop45
280
     0
102
RTVSPost2010PropOp45
 70
     1
102
RTVSPost2010Prop46
 90
       50
102
RTVSPost2010PropOp46
 70
     1
102
RTVSPost2010Prop47
 90
       50
102
RTVSPost2010PropOp47
 70
     1
102
RTVSPost2010Prop48
 90
       50
102
RTVSPost2010PropOp48
 70
     1
102
RTVSPost2010Prop49
280
     0
102
RTVSPost2010PropOp49
 70
     1
102
RTVSPost2010Prop50
 90
       50
102
RTVSPost2010PropOp50
 70
     1
102
RTVSPost2010Prop51ColorIndex
 90
      256
102
RTVSPost2010Prop51ColorRGB
 90
-16777216
102
RTVSPost2010PropOp51
 70
     0
102
RTVSPost2010Prop52
140
1.0
102
RTVSPost2010PropOp52
 70
     0
102
RTVSPost2010Prop53
 90
        2
102
RTVSPost2010PropOp53
 70
     1
102
RTVSPost2010Prop54
  1
strokes_ogs.tif
102
RTVSPost2010PropOp54
 70
     1
102
RTVSPost2010Prop55
280
     0
102
RTVSPost2010PropOp55
 70
     1
102
RTVSPost2010Prop56
140
1.0
102
RTVSPost2010PropOp56
 70
     1
102
RTVSPost2010Prop57
140
1.0
102
RTVSPost2010PropOp57
 70
     1
  0
XRECORD
  5
361
102
{ACAD_REACTORS
330
360
102
}
330
360
100
AcDbXrecord
280
     1
102
RTVSPropertyOp0
 70
     1
102
RTVSPropertyOp1
 70
     1
102
RTVSPropertyOp2
 70
     1
102
RTVSPropertyOp3
 70
     1
102
RTVSPropertyOp4
 70
     1
102
RTVSPropertyOp5
 70
     1
102
RTVSPropertyOp6
 70
     1
102
RTVSPropertyOp7
 70
     1
102
RTVSPropertyOp8
 70
     1
102
RTVSPropertyOp9
 70
     1
102
RTVSPropertyOp10
 70
     1
102
RTVSPropertyOp11
 70
     1
102
RTVSPropertyOp12
 70
     1
102
RTVSPropertyOp13
 70
     1
102
RTVSPropertyOp14
 70
     1
102
RTVSPropertyOp15
 70
     1
102
RTVSPropertyOp16
 70
     1
102
RTVSPropertyOp17
 70
     1
102
RTVSPropertyOp18
 70
     1
102
RTVSPropertyOp19
 70
     1
102
RTVSPropertyOp20
 70
     1
102
RTVSPropertyOp21
 70
     1
102
RTVSPropertyOp22
 70
     1
102
RTVSPropertyOp23
 70
     1
102
RTVSPropertyOp24
 70
     1
102
RTVSPropertyOp25
 70
     1
102
RTVSPropertyOp26
 70
     1
102
RTVSPropertyOp27
 70
     1
102
RTVSPropertyOp28
 70
     1
102
RTVSPropertyOp29
 70
     1
102
RTVSPropertyOp30
 70
     1
102
RTVSPropertyOp31
 70
     1
102
RTVSPropertyOp32
 70
     1
102
RTVSPropertyOp33
 70
     1
102
RTVSPropertyOp34
 70
     1
102
RTVSPropertyOp35
 70
     1
102
RTVSPropertyOp36
 70
     1
102
RTVSPropertyOp37
 70
     1
102
RTVSPropertyOp38
 70
     1
102
RTVSPropertyOp39
 70
     1
102
RTVSPropertyOp40
 70
     1
102
RTVSPropertyOp41
 70
     1
102
RTVSPropertyOp42
 70
     1
102
RTVSPropertyOp43
 70
     1
102
RTVSPropertyOp44
 70
     1
102
RTVSPropertyOp45
 70
     1
102
RTVSPropertyOp46
 70
     1
102
RTVSPropertyOp47
 70
     1
102
RTVSPropertyOp48
 70
     1
102
RTVSPropertyOp49
 70
     1
102
RTVSPropertyOp50
 70
     1
102
RTVSPropertyOp51
 70
     0
102
RTVSPropertyOp52
 70
     0
102
RTVSPropertyOp53
 70
     1
102
RTVSPropertyOp54
 70
     1
102
RTVSPropertyOp55
 70
     1
102
RTVSPropertyOp56
 70
     1
102
RTVSPropertyOp57
 70
     1
102
RTVSPost2010Prop28
280
     0
102
RTVSPost2010PropOp28
 70
     1
102
RTVSPost2010Prop29
280
     1
102
RTVSPost2010PropOp29
 70
     1
102
RTVSPost2010Prop30
280
     1
102
RTVSPost2010PropOp30
 70
     1
102
RTVSPost2010Prop31
280
     0
102
RTVSPost2010PropOp31
 70
     1
102
RTVSPost2010Prop32
280
     0
102
RTVSPost2010PropOp32
 70
     1
102
RTVSPost2010Prop33
280
     0
102
RTVSPost2010PropOp33
 70
     1
102
RTVSPost2010Prop34
280
     0
102
RTVSPost2010PropOp34
 70
     1
102
RTVSPost2010Prop35
280
     0
102
RTVSPost2010PropOp35
 70
     1
102
RTVSPost2010Prop36
280
     0
102
RTVSPost2010PropOp36
 70
     1
102
RTVSPost2010Prop37
 90
       50
102
RTVSPost2010PropOp37
 70
     1
102
RTVSPost2010Prop38
140
0.0
102
RTVSPost2010PropOp38
 70
     1
102
RTVSPost2010Prop39
140
1.0
102
RTVSPost2010PropOp39
 70
     1
102
RTVSPost2010Prop40
 90
        0
102
RTVSPost2010PropOp40
 70
     1
102
RTVSPost2010Prop41ColorIndex
 90
       18
102
RTVSPost2010Prop41ColorRGB
 90
        0
102
RTVSPost2010PropOp41
 70
     1
102
RTVSPost2010Prop42
 90
       50
102
RTVSPost2010PropOp42
 70
     1
102
RTVSPost2010Prop43
 90
        3
102
RTVSPost2010PropOp43
 70
     1
102
RTVSPost2010Prop44ColorIndex
 90
        5
102
RTVSPost2010Prop44ColorRGB
 90
      255
102
RTVSPost2010PropOp44
 70
     1
102
RTVSPost2010Prop45
280
     0
102
RTVSPost2010PropOp45
 70
     1
102
RTVSPost2010Prop46
 90
       50
102
RTVSPost2010PropOp46
 70
     1
102
RTVSPost2010Prop47
 90
       50
102
RTVSPost2010PropOp47
 70
     1
102
RTVSPost2010Prop48
 90
       50
102
RTVSPost2010PropOp48
 70
     1
102
RTVSPost2010Prop49
280
     0
102
RTVSPost2010PropOp49
 70
     1
102
RTVSPost2010Prop50
 90
       50
102
RTVSPost2010PropOp50
 70
     1
102
RTVSPost2010Prop51ColorIndex
 90
      256
102
RTVSPost2010Prop51ColorRGB
 90
-16777216
102
RTVSPost2010PropOp51
 70
     0
102
RTVSPost2010Prop52
140
1.0
102
RTVSPost2010PropOp52
 70
     0
102
RTVSPost2010Prop53
 90
        2
102
RTVSPost2010PropOp53
 70
     1
102
RTVSPost2010Prop54
  1
strokes_ogs.tif
102
RTVSPost2010PropOp54
 70
     1
102
RTVSPost2010Prop55
280
     0
102
RTVSPost2010PropOp55
 70
     1
102
RTVSPost2010Prop56
140
1.0
102
RTVSPost2010PropOp56
 70
     1
102
RTVSPost2010Prop57
140
1.0
102
RTVSPost2010PropOp57
 70
     1
  0
XRECORD
  5
369
102
{ACAD_REACTORS
330
368
102
}
330
368
100
AcDbXrecord
280
     1
102
RTVSPropertyOp0
 70
     1
102
RTVSPropertyOp1
 70
     1
102
RTVSPropertyOp2
 70
     1
102
RTVSPropertyOp3
 70
     1
102
RTVSPropertyOp4
 70
     1
102
RTVSPropertyOp5
 70
     1
102
RTVSPropertyOp6
 70
     1
102
RTVSPropertyOp7
 70
     1
102
RTVSPropertyOp8
 70
     1
102
RTVSPropertyOp9
 70
     1
102
RTVSPropertyOp10
 70
     1
102
RTVSPropertyOp11
 70
     1
102
RTVSPropertyOp12
 70
     1
102
RTVSPropertyOp13
 70
     1
102
RTVSPropertyOp14
 70
     1
102
RTVSPropertyOp15
 70
     1
102
RTVSPropertyOp16
 70
     1
102
RTVSPropertyOp17
 70
     1
102
RTVSPropertyOp18
 70
     1
102
RTVSPropertyOp19
 70
     1
102
RTVSPropertyOp20
 70
     1
102
RTVSPropertyOp21
 70
     1
102
RTVSPropertyOp22
 70
     1
102
RTVSPropertyOp23
 70
     1
102
RTVSPropertyOp24
 70
     1
102
RTVSPropertyOp25
 70
     1
102
RTVSPropertyOp26
 70
     1
102
RTVSPropertyOp27
 70
     1
102
RTVSPropertyOp28
 70
     1
102
RTVSPropertyOp29
 70
     1
102
RTVSPropertyOp30
 70
     1
102
RTVSPropertyOp31
 70
     1
102
RTVSPropertyOp32
 70
     1
102
RTVSPropertyOp33
 70
     1
102
RTVSPropertyOp34
 70
     1
102
RTVSPropertyOp35
 70
     1
102
RTVSPropertyOp36
 70
     1
102
RTVSPropertyOp37
 70
     1
102
RTVSPropertyOp38
 70
     1
102
RTVSPropertyOp39
 70
     1
102
RTVSPropertyOp40
 70
     1
102
RTVSPropertyOp41
 70
     1
102
RTVSPropertyOp42
 70
     1
102
RTVSPropertyOp43
 70
     1
102
RTVSPropertyOp44
 70
     1
102
RTVSPropertyOp45
 70
     1
102
RTVSPropertyOp46
 70
     1
102
RTVSPropertyOp47
 70
     1
102
RTVSPropertyOp48
 70
     1
102
RTVSPropertyOp49
 70
     1
102
RTVSPropertyOp50
 70
     1
102
RTVSPropertyOp51
 70
     0
102
RTVSPropertyOp52
 70
     0
102
RTVSPropertyOp53
 70
     1
102
RTVSPropertyOp54
 70
     1
102
RTVSPropertyOp55
 70
     1
102
RTVSPropertyOp56
 70
     1
102
RTVSPropertyOp57
 70
     1
102
RTVSPost2010Prop28
280
     0
102
RTVSPost2010PropOp28
 70
     1
102
RTVSPost2010Prop29
280
     1
102
RTVSPost2010PropOp29
 70
     1
102
RTVSPost2010Prop30
280
     1
102
RTVSPost2010PropOp30
 70
     1
102
RTVSPost2010Prop31
280
     0
102
RTVSPost2010PropOp31
 70
     1
102
RTVSPost2010Prop32
280
     0
102
RTVSPost2010PropOp32
 70
     1
102
RTVSPost2010Prop33
280
     0
102
RTVSPost2010PropOp33
 70
     1
102
RTVSPost2010Prop34
280
     0
102
RTVSPost2010PropOp34
 70
     1
102
RTVSPost2010Prop35
280
     0
102
RTVSPost2010PropOp35
 70
     1
102
RTVSPost2010Prop36
280
     0
102
RTVSPost2010PropOp36
 70
     1
102
RTVSPost2010Prop37
 90
       50
102
RTVSPost2010PropOp37
 70
     1
102
RTVSPost2010Prop38
140
0.0
102
RTVSPost2010PropOp38
 70
     1
102
RTVSPost2010Prop39
140
1.0
102
RTVSPost2010PropOp39
 70
     1
102
RTVSPost2010Prop40
 90
        0
102
RTVSPost2010PropOp40
 70
     1
102
RTVSPost2010Prop41ColorIndex
 90
       18
102
RTVSPost2010Prop41ColorRGB
 90
        0
102
RTVSPost2010PropOp41
 70
     1
102
RTVSPost2010Prop42
 90
       50
102
RTVSPost2010PropOp42
 70
     1
102
RTVSPost2010Prop43
 90
        3
102
RTVSPost2010PropOp43
 70
     1
102
RTVSPost2010Prop44ColorIndex
 90
        5
102
RTVSPost2010Prop44ColorRGB
 90
      255
102
RTVSPost2010PropOp44
 70
     1
102
RTVSPost2010Prop45
280
     0
102
RTVSPost2010PropOp45
 70
     1
102
RTVSPost2010Prop46
 90
       50
102
RTVSPost2010PropOp46
 70
     1
102
RTVSPost2010Prop47
 90
       50
102
RTVSPost2010PropOp47
 70
     1
102
RTVSPost2010Prop48
 90
       50
102
RTVSPost2010PropOp48
 70
     1
102
RTVSPost2010Prop49
280
     0
102
RTVSPost2010PropOp49
 70
     1
102
RTVSPost2010Prop50
 90
       50
102
RTVSPost2010PropOp50
 70
     1
102
RTVSPost2010Prop51ColorIndex
 90
      256
102
RTVSPost2010Prop51ColorRGB
 90
-16777216
102
RTVSPost2010PropOp51
 70
     0
102
RTVSPost2010Prop52
140
1.0
102
RTVSPost2010PropOp52
 70
     0
102
RTVSPost2010Prop53
 90
        2
102
RTVSPost2010PropOp53
 70
     1
102
RTVSPost2010Prop54
  1
strokes_ogs.tif
102
RTVSPost2010PropOp54
 70
     1
102
RTVSPost2010Prop55
280
     0
102
RTVSPost2010PropOp55
 70
     1
102
RTVSPost2010Prop56
140
1.0
102
RTVSPost2010PropOp56
 70
     1
102
RTVSPost2010Prop57
140
1.0
102
RTVSPost2010PropOp57
 70
     1
  0
XRECORD
  5
371
102
{ACAD_REACTORS
330
370
102
}
330
370
100
AcDbXrecord
280
     1
102
RTVSPropertyOp0
 70
     1
102
RTVSPropertyOp1
 70
     1
102
RTVSPropertyOp2
 70
     1
102
RTVSPropertyOp3
 70
     1
102
RTVSPropertyOp4
 70
     1
102
RTVSPropertyOp5
 70
     1
102
RTVSPropertyOp6
 70
     1
102
RTVSPropertyOp7
 70
     1
102
RTVSPropertyOp8
 70
     1
102
RTVSPropertyOp9
 70
     1
102
RTVSPropertyOp10
 70
     1
102
RTVSPropertyOp11
 70
     1
102
RTVSPropertyOp12
 70
     1
102
RTVSPropertyOp13
 70
     1
102
RTVSPropertyOp14
 70
     1
102
RTVSPropertyOp15
 70
     1
102
RTVSPropertyOp16
 70
     1
102
RTVSPropertyOp17
 70
     1
102
RTVSPropertyOp18
 70
     1
102
RTVSPropertyOp19
 70
     1
102
RTVSPropertyOp20
 70
     1
102
RTVSPropertyOp21
 70
     1
102
RTVSPropertyOp22
 70
     1
102
RTVSPropertyOp23
 70
     1
102
RTVSPropertyOp24
 70
     1
102
RTVSPropertyOp25
 70
     1
102
RTVSPropertyOp26
 70
     1
102
RTVSPropertyOp27
 70
     1
102
RTVSPropertyOp28
 70
     1
102
RTVSPropertyOp29
 70
     1
102
RTVSPropertyOp30
 70
     1
102
RTVSPropertyOp31
 70
     1
102
RTVSPropertyOp32
 70
     1
102
RTVSPropertyOp33
 70
     1
102
RTVSPropertyOp34
 70
     1
102
RTVSPropertyOp35
 70
     1
102
RTVSPropertyOp36
 70
     1
102
RTVSPropertyOp37
 70
     1
102
RTVSPropertyOp38
 70
     1
102
RTVSPropertyOp39
 70
     1
102
RTVSPropertyOp40
 70
     1
102
RTVSPropertyOp41
 70
     1
102
RTVSPropertyOp42
 70
     1
102
RTVSPropertyOp43
 70
     1
102
RTVSPropertyOp44
 70
     1
102
RTVSPropertyOp45
 70
     1
102
RTVSPropertyOp46
 70
     1
102
RTVSPropertyOp47
 70
     1
102
RTVSPropertyOp48
 70
     1
102
RTVSPropertyOp49
 70
     1
102
RTVSPropertyOp50
 70
     1
102
RTVSPropertyOp51
 70
     0
102
RTVSPropertyOp52
 70
     0
102
RTVSPropertyOp53
 70
     1
102
RTVSPropertyOp54
 70
     1
102
RTVSPropertyOp55
 70
     1
102
RTVSPropertyOp56
 70
     1
102
RTVSPropertyOp57
 70
     1
102
RTVSPost2010Prop28
280
     0
102
RTVSPost2010PropOp28
 70
     1
102
RTVSPost2010Prop29
280
     1
102
RTVSPost2010PropOp29
 70
     1
102
RTVSPost2010Prop30
280
     1
102
RTVSPost2010PropOp30
 70
     1
102
RTVSPost2010Prop31
280
     0
102
RTVSPost2010PropOp31
 70
     1
102
RTVSPost2010Prop32
280
     0
102
RTVSPost2010PropOp32
 70
     1
102
RTVSPost2010Prop33
280
     0
102
RTVSPost2010PropOp33
 70
     1
102
RTVSPost2010Prop34
280
     0
102
RTVSPost2010PropOp34
 70
     1
102
RTVSPost2010Prop35
280
     0
102
RTVSPost2010PropOp35
 70
     1
102
RTVSPost2010Prop36
280
     0
102
RTVSPost2010PropOp36
 70
     1
102
RTVSPost2010Prop37
 90
       50
102
RTVSPost2010PropOp37
 70
     1
102
RTVSPost2010Prop38
140
0.0
102
RTVSPost2010PropOp38
 70
     1
102
RTVSPost2010Prop39
140
1.0
102
RTVSPost2010PropOp39
 70
     1
102
RTVSPost2010Prop40
 90
        0
102
RTVSPost2010PropOp40
 70
     1
102
RTVSPost2010Prop41ColorIndex
 90
       18
102
RTVSPost2010Prop41ColorRGB
 90
        0
102
RTVSPost2010PropOp41
 70
     1
102
RTVSPost2010Prop42
 90
       50
102
RTVSPost2010PropOp42
 70
     1
102
RTVSPost2010Prop43
 90
        3
102
RTVSPost2010PropOp43
 70
     1
102
RTVSPost2010Prop44ColorIndex
 90
        5
102
RTVSPost2010Prop44ColorRGB
 90
      255
102
RTVSPost2010PropOp44
 70
     1
102
RTVSPost2010Prop45
280
     0
102
RTVSPost2010PropOp45
 70
     1
102
RTVSPost2010Prop46
 90
       50
102
RTVSPost2010PropOp46
 70
     1
102
RTVSPost2010Prop47
 90
       50
102
RTVSPost2010PropOp47
 70
     1
102
RTVSPost2010Prop48
 90
       50
102
RTVSPost2010PropOp48
 70
     1
102
RTVSPost2010Prop49
280
     0
102
RTVSPost2010PropOp49
 70
     1
102
RTVSPost2010Prop50
 90
       50
102
RTVSPost2010PropOp50
 70
     1
102
RTVSPost2010Prop51ColorIndex
 90
      256
102
RTVSPost2010Prop51ColorRGB
 90
-16777216
102
RTVSPost2010PropOp51
 70
     0
102
RTVSPost2010Prop52
140
1.0
102
RTVSPost2010PropOp52
 70
     0
102
RTVSPost2010Prop53
 90
        2
102
RTVSPost2010PropOp53
 70
     1
102
RTVSPost2010Prop54
  1
strokes_ogs.tif
102
RTVSPost2010PropOp54
 70
     1
102
RTVSPost2010Prop55
280
     0
102
RTVSPost2010PropOp55
 70
     1
102
RTVSPost2010Prop56
140
1.0
102
RTVSPost2010PropOp56
 70
     1
102
RTVSPost2010Prop57
140
1.0
102
RTVSPost2010PropOp57
 70
     1
  0
XRECORD
  5
365
102
{ACAD_REACTORS
330
364
102
}
330
364
100
AcDbXrecord
280
     1
102
RTVSPropertyOp0
 70
     1
102
RTVSPropertyOp1
 70
     1
102
RTVSPropertyOp2
 70
     1
102
RTVSPropertyOp3
 70
     1
102
RTVSPropertyOp4
 70
     1
102
RTVSPropertyOp5
 70
     1
102
RTVSPropertyOp6
 70
     1
102
RTVSPropertyOp7
 70
     1
102
RTVSPropertyOp8
 70
     1
102
RTVSPropertyOp9
 70
     1
102
RTVSPropertyOp10
 70
     1
102
RTVSPropertyOp11
 70
     1
102
RTVSPropertyOp12
 70
     1
102
RTVSPropertyOp13
 70
     1
102
RTVSPropertyOp14
 70
     1
102
RTVSPropertyOp15
 70
     1
102
RTVSPropertyOp16
 70
     1
102
RTVSPropertyOp17
 70
     1
102
RTVSPropertyOp18
 70
     1
102
RTVSPropertyOp19
 70
     1
102
RTVSPropertyOp20
 70
     1
102
RTVSPropertyOp21
 70
     1
102
RTVSPropertyOp22
 70
     1
102
RTVSPropertyOp23
 70
     1
102
RTVSPropertyOp24
 70
     1
102
RTVSPropertyOp25
 70
     1
102
RTVSPropertyOp26
 70
     1
102
RTVSPropertyOp27
 70
     1
102
RTVSPropertyOp28
 70
     1
102
RTVSPropertyOp29
 70
     1
102
RTVSPropertyOp30
 70
     1
102
RTVSPropertyOp31
 70
     1
102
RTVSPropertyOp32
 70
     1
102
RTVSPropertyOp33
 70
     1
102
RTVSPropertyOp34
 70
     1
102
RTVSPropertyOp35
 70
     1
102
RTVSPropertyOp36
 70
     1
102
RTVSPropertyOp37
 70
     1
102
RTVSPropertyOp38
 70
     1
102
RTVSPropertyOp39
 70
     1
102
RTVSPropertyOp40
 70
     1
102
RTVSPropertyOp41
 70
     1
102
RTVSPropertyOp42
 70
     1
102
RTVSPropertyOp43
 70
     1
102
RTVSPropertyOp44
 70
     1
102
RTVSPropertyOp45
 70
     1
102
RTVSPropertyOp46
 70
     1
102
RTVSPropertyOp47
 70
     1
102
RTVSPropertyOp48
 70
     1
102
RTVSPropertyOp49
 70
     1
102
RTVSPropertyOp50
 70
     1
102
RTVSPropertyOp51
 70
     0
102
RTVSPropertyOp52
 70
     0
102
RTVSPropertyOp53
 70
     1
102
RTVSPropertyOp54
 70
     1
102
RTVSPropertyOp55
 70
     1
102
RTVSPropertyOp56
 70
     1
102
RTVSPropertyOp57
 70
     1
102
RTVSPost2010Prop28
280
     0
102
RTVSPost2010PropOp28
 70
     1
102
RTVSPost2010Prop29
280
     1
102
RTVSPost2010PropOp29
 70
     1
102
RTVSPost2010Prop30
280
     1
102
RTVSPost2010PropOp30
 70
     1
102
RTVSPost2010Prop31
280
     0
102
RTVSPost2010PropOp31
 70
     1
102
RTVSPost2010Prop32
280
     0
102
RTVSPost2010PropOp32
 70
     1
102
RTVSPost2010Prop33
280
     0
102
RTVSPost2010PropOp33
 70
     1
102
RTVSPost2010Prop34
280
     0
102
RTVSPost2010PropOp34
 70
     1
102
RTVSPost2010Prop35
280
     0
102
RTVSPost2010PropOp35
 70
     1
102
RTVSPost2010Prop36
280
     0
102
RTVSPost2010PropOp36
 70
     1
102
RTVSPost2010Prop37
 90
       50
102
RTVSPost2010PropOp37
 70
     1
102
RTVSPost2010Prop38
140
0.0
102
RTVSPost2010PropOp38
 70
     1
102
RTVSPost2010Prop39
140
1.0
102
RTVSPost2010PropOp39
 70
     1
102
RTVSPost2010Prop40
 90
        0
102
RTVSPost2010PropOp40
 70
     1
102
RTVSPost2010Prop41ColorIndex
 90
       18
102
RTVSPost2010Prop41ColorRGB
 90
        0
102
RTVSPost2010PropOp41
 70
     1
102
RTVSPost2010Prop42
 90
       50
102
RTVSPost2010PropOp42
 70
     1
102
RTVSPost2010Prop43
 90
        3
102
RTVSPost2010PropOp43
 70
     1
102
RTVSPost2010Prop44ColorIndex
 90
        5
102
RTVSPost2010Prop44ColorRGB
 90
      255
102
RTVSPost2010PropOp44
 70
     1
102
RTVSPost2010Prop45
280
     0
102
RTVSPost2010PropOp45
 70
     1
102
RTVSPost2010Prop46
 90
       50
102
RTVSPost2010PropOp46
 70
     1
102
RTVSPost2010Prop47
 90
       50
102
RTVSPost2010PropOp47
 70
     1
102
RTVSPost2010Prop48
 90
       50
102
RTVSPost2010PropOp48
 70
     1
102
RTVSPost2010Prop49
280
     0
102
RTVSPost2010PropOp49
 70
     1
102
RTVSPost2010Prop50
 90
       50
102
RTVSPost2010PropOp50
 70
     1
102
RTVSPost2010Prop51ColorIndex
 90
      256
102
RTVSPost2010Prop51ColorRGB
 90
-16777216
102
RTVSPost2010PropOp51
 70
     0
102
RTVSPost2010Prop52
140
1.0
102
RTVSPost2010PropOp52
 70
     0
102
RTVSPost2010Prop53
 90
        2
102
RTVSPost2010PropOp53
 70
     1
102
RTVSPost2010Prop54
  1
strokes_ogs.tif
102
RTVSPost2010PropOp54
 70
     1
102
RTVSPost2010Prop55
280
     0
102
RTVSPost2010PropOp55
 70
     1
102
RTVSPost2010Prop56
140
1.0
102
RTVSPost2010PropOp56
 70
     1
102
RTVSPost2010Prop57
140
1.0
102
RTVSPost2010PropOp57
 70
     1
  0
XRECORD
  5
367
102
{ACAD_REACTORS
330
366
102
}
330
366
100
AcDbXrecord
280
     1
102
RTVSPropertyOp0
 70
     1
102
RTVSPropertyOp1
 70
     1
102
RTVSPropertyOp2
 70
     1
102
RTVSPropertyOp3
 70
     1
102
RTVSPropertyOp4
 70
     1
102
RTVSPropertyOp5
 70
     1
102
RTVSPropertyOp6
 70
     1
102
RTVSPropertyOp7
 70
     1
102
RTVSPropertyOp8
 70
     1
102
RTVSPropertyOp9
 70
     1
102
RTVSPropertyOp10
 70
     1
102
RTVSPropertyOp11
 70
     1
102
RTVSPropertyOp12
 70
     1
102
RTVSPropertyOp13
 70
     1
102
RTVSPropertyOp14
 70
     1
102
RTVSPropertyOp15
 70
     1
102
RTVSPropertyOp16
 70
     1
102
RTVSPropertyOp17
 70
     1
102
RTVSPropertyOp18
 70
     1
102
RTVSPropertyOp19
 70
     1
102
RTVSPropertyOp20
 70
     1
102
RTVSPropertyOp21
 70
     1
102
RTVSPropertyOp22
 70
     1
102
RTVSPropertyOp23
 70
     1
102
RTVSPropertyOp24
 70
     1
102
RTVSPropertyOp25
 70
     1
102
RTVSPropertyOp26
 70
     1
102
RTVSPropertyOp27
 70
     1
102
RTVSPropertyOp28
 70
     1
102
RTVSPropertyOp29
 70
     1
102
RTVSPropertyOp30
 70
     1
102
RTVSPropertyOp31
 70
     1
102
RTVSPropertyOp32
 70
     1
102
RTVSPropertyOp33
 70
     1
102
RTVSPropertyOp34
 70
     1
102
RTVSPropertyOp35
 70
     1
102
RTVSPropertyOp36
 70
     1
102
RTVSPropertyOp37
 70
     1
102
RTVSPropertyOp38
 70
     1
102
RTVSPropertyOp39
 70
     1
102
RTVSPropertyOp40
 70
     1
102
RTVSPropertyOp41
 70
     1
102
RTVSPropertyOp42
 70
     1
102
RTVSPropertyOp43
 70
     1
102
RTVSPropertyOp44
 70
     1
102
RTVSPropertyOp45
 70
     1
102
RTVSPropertyOp46
 70
     1
102
RTVSPropertyOp47
 70
     1
102
RTVSPropertyOp48
 70
     1
102
RTVSPropertyOp49
 70
     1
102
RTVSPropertyOp50
 70
     1
102
RTVSPropertyOp51
 70
     0
102
RTVSPropertyOp52
 70
     0
102
RTVSPropertyOp53
 70
     1
102
RTVSPropertyOp54
 70
     1
102
RTVSPropertyOp55
 70
     1
102
RTVSPropertyOp56
 70
     1
102
RTVSPropertyOp57
 70
     1
102
RTVSPost2010Prop28
280
     0
102
RTVSPost2010PropOp28
 70
     1
102
RTVSPost2010Prop29
280
     1
102
RTVSPost2010PropOp29
 70
     1
102
RTVSPost2010Prop30
280
     1
102
RTVSPost2010PropOp30
 70
     1
102
RTVSPost2010Prop31
280
     0
102
RTVSPost2010PropOp31
 70
     1
102
RTVSPost2010Prop32
280
     0
102
RTVSPost2010PropOp32
 70
     1
102
RTVSPost2010Prop33
280
     0
102
RTVSPost2010PropOp33
 70
     1
102
RTVSPost2010Prop34
280
     0
102
RTVSPost2010PropOp34
 70
     1
102
RTVSPost2010Prop35
280
     0
102
RTVSPost2010PropOp35
 70
     1
102
RTVSPost2010Prop36
280
     0
102
RTVSPost2010PropOp36
 70
     1
102
RTVSPost2010Prop37
 90
       50
102
RTVSPost2010PropOp37
 70
     1
102
RTVSPost2010Prop38
140
0.0
102
RTVSPost2010PropOp38
 70
     1
102
RTVSPost2010Prop39
140
1.0
102
RTVSPost2010PropOp39
 70
     1
102
RTVSPost2010Prop40
 90
        0
102
RTVSPost2010PropOp40
 70
     1
102
RTVSPost2010Prop41ColorIndex
 90
       18
102
RTVSPost2010Prop41ColorRGB
 90
        0
102
RTVSPost2010PropOp41
 70
     1
102
RTVSPost2010Prop42
 90
       50
102
RTVSPost2010PropOp42
 70
     1
102
RTVSPost2010Prop43
 90
        3
102
RTVSPost2010PropOp43
 70
     1
102
RTVSPost2010Prop44ColorIndex
 90
        5
102
RTVSPost2010Prop44ColorRGB
 90
      255
102
RTVSPost2010PropOp44
 70
     1
102
RTVSPost2010Prop45
280
     0
102
RTVSPost2010PropOp45
 70
     1
102
RTVSPost2010Prop46
 90
       50
102
RTVSPost2010PropOp46
 70
     1
102
RTVSPost2010Prop47
 90
       50
102
RTVSPost2010PropOp47
 70
     1
102
RTVSPost2010Prop48
 90
       50
102
RTVSPost2010PropOp48
 70
     1
102
RTVSPost2010Prop49
280
     0
102
RTVSPost2010PropOp49
 70
     1
102
RTVSPost2010Prop50
 90
       50
102
RTVSPost2010PropOp50
 70
     1
102
RTVSPost2010Prop51ColorIndex
 90
      256
102
RTVSPost2010Prop51ColorRGB
 90
-16777216
102
RTVSPost2010PropOp51
 70
     0
102
RTVSPost2010Prop52
140
1.0
102
RTVSPost2010PropOp52
 70
     0
102
RTVSPost2010Prop53
 90
        2
102
RTVSPost2010PropOp53
 70
     1
102
RTVSPost2010Prop54
  1
strokes_ogs.tif
102
RTVSPost2010PropOp54
 70
     1
102
RTVSPost2010Prop55
280
     0
102
RTVSPost2010PropOp55
 70
     1
102
RTVSPost2010Prop56
140
1.0
102
RTVSPost2010PropOp56
 70
     1
102
RTVSPost2010Prop57
140
1.0
102
RTVSPost2010PropOp57
 70
     1
  0
XRECORD
  5
377
102
{ACAD_REACTORS
330
376
102
}
330
376
100
AcDbXrecord
280
     1
102
RTVSPropertyOp0
 70
     0
102
RTVSPropertyOp1
 70
     0
102
RTVSPropertyOp2
 70
     0
102
RTVSPropertyOp3
 70
     0
102
RTVSPropertyOp4
 70
     0
102
RTVSPropertyOp5
 70
     0
102
RTVSPropertyOp6
 70
     0
102
RTVSPropertyOp7
 70
     0
102
RTVSPropertyOp8
 70
     0
102
RTVSPropertyOp9
 70
     0
102
RTVSPropertyOp10
 70
     0
102
RTVSPropertyOp11
 70
     0
102
RTVSPropertyOp12
 70
     0
102
RTVSPropertyOp13
 70
     0
102
RTVSPropertyOp14
 70
     2
102
RTVSPropertyOp15
 70
     0
102
RTVSPropertyOp16
 70
     0
102
RTVSPropertyOp17
 70
     0
102
RTVSPropertyOp18
 70
     0
102
RTVSPropertyOp19
 70
     0
102
RTVSPropertyOp20
 70
     0
102
RTVSPropertyOp21
 70
     0
102
RTVSPropertyOp22
 70
     0
102
RTVSPropertyOp23
 70
     0
102
RTVSPropertyOp24
 70
     0
102
RTVSPropertyOp25
 70
     0
102
RTVSPropertyOp26
 70
     0
102
RTVSPropertyOp27
 70
     0
102
RTVSPropertyOp28
 70
     0
102
RTVSPropertyOp29
 70
     0
102
RTVSPropertyOp30
 70
     0
102
RTVSPropertyOp31
 70
     0
102
RTVSPropertyOp32
 70
     0
102
RTVSPropertyOp33
 70
     0
102
RTVSPropertyOp34
 70
     0
102
RTVSPropertyOp35
 70
     0
102
RTVSPropertyOp36
 70
     0
102
RTVSPropertyOp37
 70
     0
102
RTVSPropertyOp38
 70
     0
102
RTVSPropertyOp39
 70
     0
102
RTVSPropertyOp40
 70
     0
102
RTVSPropertyOp41
 70
     0
102
RTVSPropertyOp42
 70
     0
102
RTVSPropertyOp43
 70
     0
102
RTVSPropertyOp44
 70
     0
102
RTVSPropertyOp45
 70
     0
102
RTVSPropertyOp46
 70
     0
102
RTVSPropertyOp47
 70
     0
102
RTVSPropertyOp48
 70
     0
102
RTVSPropertyOp49
 70
     0
102
RTVSPropertyOp50
 70
     0
102
RTVSPropertyOp51
 70
     0
102
RTVSPropertyOp52
 70
     0
102
RTVSPropertyOp53
 70
     0
102
RTVSPropertyOp54
 70
     0
102
RTVSPropertyOp55
 70
     0
102
RTVSPropertyOp56
 70
     0
102
RTVSPropertyOp57
 70
     0
102
RTVSPost2010Prop28
280
     0
102
RTVSPost2010PropOp28
 70
     0
102
RTVSPost2010Prop29
280
     1
102
RTVSPost2010PropOp29
 70
     0
102
RTVSPost2010Prop30
280
     1
102
RTVSPost2010PropOp30
 70
     0
102
RTVSPost2010Prop31
280
     0
102
RTVSPost2010PropOp31
 70
     0
102
RTVSPost2010Prop32
280
     0
102
RTVSPost2010PropOp32
 70
     0
102
RTVSPost2010Prop33
280
     0
102
RTVSPost2010PropOp33
 70
     0
102
RTVSPost2010Prop34
280
     0
102
RTVSPost2010PropOp34
 70
     0
102
RTVSPost2010Prop35
280
     0
102
RTVSPost2010PropOp35
 70
     0
102
RTVSPost2010Prop36
280
     0
102
RTVSPost2010PropOp36
 70
     0
102
RTVSPost2010Prop37
 90
       50
102
RTVSPost2010PropOp37
 70
     0
102
RTVSPost2010Prop38
140
0.0
102
RTVSPost2010PropOp38
 70
     0
102
RTVSPost2010Prop39
140
1.0
102
RTVSPost2010PropOp39
 70
     0
102
RTVSPost2010Prop40
 90
        0
102
RTVSPost2010PropOp40
 70
     0
102
RTVSPost2010Prop41ColorIndex
 90
       18
102
RTVSPost2010Prop41ColorRGB
 90
        0
102
RTVSPost2010PropOp41
 70
     0
102
RTVSPost2010Prop42
 90
       50
102
RTVSPost2010PropOp42
 70
     0
102
RTVSPost2010Prop43
 90
        3
102
RTVSPost2010PropOp43
 70
     0
102
RTVSPost2010Prop44ColorIndex
 90
        5
102
RTVSPost2010Prop44ColorRGB
 90
      255
102
RTVSPost2010PropOp44
 70
     0
102
RTVSPost2010Prop45
280
     0
102
RTVSPost2010PropOp45
 70
     0
102
RTVSPost2010Prop46
 90
       50
102
RTVSPost2010PropOp46
 70
     0
102
RTVSPost2010Prop47
 90
       50
102
RTVSPost2010PropOp47
 70
     0
102
RTVSPost2010Prop48
 90
       50
102
RTVSPost2010PropOp48
 70
     0
102
RTVSPost2010Prop49
280
     0
102
RTVSPost2010PropOp49
 70
     0
102
RTVSPost2010Prop50
 90
       50
102
RTVSPost2010PropOp50
 70
     0
102
RTVSPost2010Prop51ColorIndex
 90
      256
102
RTVSPost2010Prop51ColorRGB
 90
-16777216
102
RTVSPost2010PropOp51
 70
     0
102
RTVSPost2010Prop52
140
1.0
102
RTVSPost2010PropOp52
 70
     0
102
RTVSPost2010Prop53
 90
        2
102
RTVSPost2010PropOp53
 70
     0
102
RTVSPost2010Prop54
  1
strokes_ogs.tif
102
RTVSPost2010PropOp54
 70
     0
102
RTVSPost2010Prop55
280
     0
102
RTVSPost2010PropOp55
 70
     0
102
RTVSPost2010Prop56
140
1.0
102
RTVSPost2010PropOp56
 70
     0
102
RTVSPost2010Prop57
140
1.0
102
RTVSPost2010PropOp57
 70
     0
  0
XRECORD
  5
36F
102
{ACAD_REACTORS
330
36E
102
}
330
36E
100
AcDbXrecord
280
     1
102
RTVSPropertyOp0
 70
     1
102
RTVSPropertyOp1
 70
     1
102
RTVSPropertyOp2
 70
     1
102
RTVSPropertyOp3
 70
     1
102
RTVSPropertyOp4
 70
     1
102
RTVSPropertyOp5
 70
     1
102
RTVSPropertyOp6
 70
     1
102
RTVSPropertyOp7
 70
     1
102
RTVSPropertyOp8
 70
     1
102
RTVSPropertyOp9
 70
     1
102
RTVSPropertyOp10
 70
     1
102
RTVSPropertyOp11
 70
     1
102
RTVSPropertyOp12
 70
     1
102
RTVSPropertyOp13
 70
     1
102
RTVSPropertyOp14
 70
     1
102
RTVSPropertyOp15
 70
     1
102
RTVSPropertyOp16
 70
     1
102
RTVSPropertyOp17
 70
     1
102
RTVSPropertyOp18
 70
     1
102
RTVSPropertyOp19
 70
     1
102
RTVSPropertyOp20
 70
     1
102
RTVSPropertyOp21
 70
     1
102
RTVSPropertyOp22
 70
     1
102
RTVSPropertyOp23
 70
     1
102
RTVSPropertyOp24
 70
     1
102
RTVSPropertyOp25
 70
     1
102
RTVSPropertyOp26
 70
     1
102
RTVSPropertyOp27
 70
     1
102
RTVSPropertyOp28
 70
     1
102
RTVSPropertyOp29
 70
     1
102
RTVSPropertyOp30
 70
     1
102
RTVSPropertyOp31
 70
     1
102
RTVSPropertyOp32
 70
     1
102
RTVSPropertyOp33
 70
     1
102
RTVSPropertyOp34
 70
     1
102
RTVSPropertyOp35
 70
     1
102
RTVSPropertyOp36
 70
     1
102
RTVSPropertyOp37
 70
     1
102
RTVSPropertyOp38
 70
     1
102
RTVSPropertyOp39
 70
     1
102
RTVSPropertyOp40
 70
     1
102
RTVSPropertyOp41
 70
     1
102
RTVSPropertyOp42
 70
     1
102
RTVSPropertyOp43
 70
     1
102
RTVSPropertyOp44
 70
     1
102
RTVSPropertyOp45
 70
     1
102
RTVSPropertyOp46
 70
     1
102
RTVSPropertyOp47
 70
     1
102
RTVSPropertyOp48
 70
     1
102
RTVSPropertyOp49
 70
     1
102
RTVSPropertyOp50
 70
     1
102
RTVSPropertyOp51
 70
     0
102
RTVSPropertyOp52
 70
     0
102
RTVSPropertyOp53
 70
     1
102
RTVSPropertyOp54
 70
     1
102
RTVSPropertyOp55
 70
     1
102
RTVSPropertyOp56
 70
     1
102
RTVSPropertyOp57
 70
     1
102
RTVSPost2010Prop28
280
     0
102
RTVSPost2010PropOp28
 70
     1
102
RTVSPost2010Prop29
280
     1
102
RTVSPost2010PropOp29
 70
     1
102
RTVSPost2010Prop30
280
     1
102
RTVSPost2010PropOp30
 70
     1
102
RTVSPost2010Prop31
280
     0
102
RTVSPost2010PropOp31
 70
     1
102
RTVSPost2010Prop32
280
     0
102
RTVSPost2010PropOp32
 70
     1
102
RTVSPost2010Prop33
280
     0
102
RTVSPost2010PropOp33
 70
     1
102
RTVSPost2010Prop34
280
     0
102
RTVSPost2010PropOp34
 70
     1
102
RTVSPost2010Prop35
280
     0
102
RTVSPost2010PropOp35
 70
     1
102
RTVSPost2010Prop36
280
     0
102
RTVSPost2010PropOp36
 70
     1
102
RTVSPost2010Prop37
 90
       50
102
RTVSPost2010PropOp37
 70
     1
102
RTVSPost2010Prop38
140
0.0
102
RTVSPost2010PropOp38
 70
     1
102
RTVSPost2010Prop39
140
1.0
102
RTVSPost2010PropOp39
 70
     1
102
RTVSPost2010Prop40
 90
        0
102
RTVSPost2010PropOp40
 70
     1
102
RTVSPost2010Prop41ColorIndex
 90
       18
102
RTVSPost2010Prop41ColorRGB
 90
        0
102
RTVSPost2010PropOp41
 70
     1
102
RTVSPost2010Prop42
 90
       50
102
RTVSPost2010PropOp42
 70
     1
102
RTVSPost2010Prop43
 90
        3
102
RTVSPost2010PropOp43
 70
     1
102
RTVSPost2010Prop44ColorIndex
 90
        5
102
RTVSPost2010Prop44ColorRGB
 90
      255
102
RTVSPost2010PropOp44
 70
     1
102
RTVSPost2010Prop45
280
     0
102
RTVSPost2010PropOp45
 70
     1
102
RTVSPost2010Prop46
 90
       50
102
RTVSPost2010PropOp46
 70
     1
102
RTVSPost2010Prop47
 90
       50
102
RTVSPost2010PropOp47
 70
     1
102
RTVSPost2010Prop48
 90
       50
102
RTVSPost2010PropOp48
 70
     1
102
RTVSPost2010Prop49
280
     0
102
RTVSPost2010PropOp49
 70
     1
102
RTVSPost2010Prop50
 90
       50
102
RTVSPost2010PropOp50
 70
     1
102
RTVSPost2010Prop51ColorIndex
 90
      256
102
RTVSPost2010Prop51ColorRGB
 90
-16777216
102
RTVSPost2010PropOp51
 70
     0
102
RTVSPost2010Prop52
140
1.0
102
RTVSPost2010PropOp52
 70
     0
102
RTVSPost2010Prop53
 90
        2
102
RTVSPost2010PropOp53
 70
     1
102
RTVSPost2010Prop54
  1
strokes_ogs.tif
102
RTVSPost2010PropOp54
 70
     1
102
RTVSPost2010Prop55
280
     0
102
RTVSPost2010PropOp55
 70
     1
102
RTVSPost2010Prop56
140
1.0
102
RTVSPost2010PropOp56
 70
     1
102
RTVSPost2010Prop57
140
1.0
102
RTVSPost2010PropOp57
 70
     1
  0
XRECORD
  5
353
102
{ACAD_REACTORS
330
352
102
}
330
352
100
AcDbXrecord
280
     1
102
RTVSPropertyOp0
 70
     1
102
RTVSPropertyOp1
 70
     1
102
RTVSPropertyOp2
 70
     1
102
RTVSPropertyOp3
 70
     1
102
RTVSPropertyOp4
 70
     1
102
RTVSPropertyOp5
 70
     1
102
RTVSPropertyOp6
 70
     1
102
RTVSPropertyOp7
 70
     1
102
RTVSPropertyOp8
 70
     1
102
RTVSPropertyOp9
 70
     1
102
RTVSPropertyOp10
 70
     1
102
RTVSPropertyOp11
 70
     1
102
RTVSPropertyOp12
 70
     1
102
RTVSPropertyOp13
 70
     1
102
RTVSPropertyOp14
 70
     1
102
RTVSPropertyOp15
 70
     1
102
RTVSPropertyOp16
 70
     1
102
RTVSPropertyOp17
 70
     1
102
RTVSPropertyOp18
 70
     1
102
RTVSPropertyOp19
 70
     1
102
RTVSPropertyOp20
 70
     1
102
RTVSPropertyOp21
 70
     1
102
RTVSPropertyOp22
 70
     1
102
RTVSPropertyOp23
 70
     1
102
RTVSPropertyOp24
 70
     1
102
RTVSPropertyOp25
 70
     1
102
RTVSPropertyOp26
 70
     1
102
RTVSPropertyOp27
 70
     1
102
RTVSPropertyOp28
 70
     1
102
RTVSPropertyOp29
 70
     1
102
RTVSPropertyOp30
 70
     1
102
RTVSPropertyOp31
 70
     1
102
RTVSPropertyOp32
 70
     1
102
RTVSPropertyOp33
 70
     1
102
RTVSPropertyOp34
 70
     1
102
RTVSPropertyOp35
 70
     1
102
RTVSPropertyOp36
 70
     1
102
RTVSPropertyOp37
 70
     1
102
RTVSPropertyOp38
 70
     1
102
RTVSPropertyOp39
 70
     1
102
RTVSPropertyOp40
 70
     1
102
RTVSPropertyOp41
 70
     1
102
RTVSPropertyOp42
 70
     1
102
RTVSPropertyOp43
 70
     1
102
RTVSPropertyOp44
 70
     1
102
RTVSPropertyOp45
 70
     1
102
RTVSPropertyOp46
 70
     1
102
RTVSPropertyOp47
 70
     1
102
RTVSPropertyOp48
 70
     1
102
RTVSPropertyOp49
 70
     1
102
RTVSPropertyOp50
 70
     1
102
RTVSPropertyOp51
 70
     0
102
RTVSPropertyOp52
 70
     0
102
RTVSPropertyOp53
 70
     1
102
RTVSPropertyOp54
 70
     1
102
RTVSPropertyOp55
 70
     1
102
RTVSPropertyOp56
 70
     1
102
RTVSPropertyOp57
 70
     1
102
RTVSPost2010Prop28
280
     0
102
RTVSPost2010PropOp28
 70
     1
102
RTVSPost2010Prop29
280
     1
102
RTVSPost2010PropOp29
 70
     1
102
RTVSPost2010Prop30
280
     1
102
RTVSPost2010PropOp30
 70
     1
102
RTVSPost2010Prop31
280
     0
102
RTVSPost2010PropOp31
 70
     1
102
RTVSPost2010Prop32
280
     0
102
RTVSPost2010PropOp32
 70
     1
102
RTVSPost2010Prop33
280
     0
102
RTVSPost2010PropOp33
 70
     1
102
RTVSPost2010Prop34
280
     0
102
RTVSPost2010PropOp34
 70
     1
102
RTVSPost2010Prop35
280
     0
102
RTVSPost2010PropOp35
 70
     1
102
RTVSPost2010Prop36
280
     0
102
RTVSPost2010PropOp36
 70
     1
102
RTVSPost2010Prop37
 90
       50
102
RTVSPost2010PropOp37
 70
     1
102
RTVSPost2010Prop38
140
0.0
102
RTVSPost2010PropOp38
 70
     1
102
RTVSPost2010Prop39
140
1.0
102
RTVSPost2010PropOp39
 70
     1
102
RTVSPost2010Prop40
 90
        0
102
RTVSPost2010PropOp40
 70
     1
102
RTVSPost2010Prop41ColorIndex
 90
       18
102
RTVSPost2010Prop41ColorRGB
 90
        0
102
RTVSPost2010PropOp41
 70
     1
102
RTVSPost2010Prop42
 90
       50
102
RTVSPost2010PropOp42
 70
     1
102
RTVSPost2010Prop43
 90
        3
102
RTVSPost2010PropOp43
 70
     1
102
RTVSPost2010Prop44ColorIndex
 90
        5
102
RTVSPost2010Prop44ColorRGB
 90
      255
102
RTVSPost2010PropOp44
 70
     1
102
RTVSPost2010Prop45
280
     0
102
RTVSPost2010PropOp45
 70
     1
102
RTVSPost2010Prop46
 90
       50
102
RTVSPost2010PropOp46
 70
     1
102
RTVSPost2010Prop47
 90
       50
102
RTVSPost2010PropOp47
 70
     1
102
RTVSPost2010Prop48
 90
       50
102
RTVSPost2010PropOp48
 70
     1
102
RTVSPost2010Prop49
280
     0
102
RTVSPost2010PropOp49
 70
     1
102
RTVSPost2010Prop50
 90
       50
102
RTVSPost2010PropOp50
 70
     1
102
RTVSPost2010Prop51ColorIndex
 90
      256
102
RTVSPost2010Prop51ColorRGB
 90
-16777216
102
RTVSPost2010PropOp51
 70
     0
102
RTVSPost2010Prop52
140
1.0
102
RTVSPost2010PropOp52
 70
     0
102
RTVSPost2010Prop53
 90
        2
102
RTVSPost2010PropOp53
 70
     1
102
RTVSPost2010Prop54
  1
strokes_ogs.tif
102
RTVSPost2010PropOp54
 70
     1
102
RTVSPost2010Prop55
280
     0
102
RTVSPost2010PropOp55
 70
     1
102
RTVSPost2010Prop56
140
1.0
102
RTVSPost2010PropOp56
 70
     1
102
RTVSPost2010Prop57
140
1.0
102
RTVSPost2010PropOp57
 70
     1
  0
XRECORD
  5
355
102
{ACAD_REACTORS
330
354
102
}
330
354
100
AcDbXrecord
280
     1
102
RTVSPropertyOp0
 70
     1
102
RTVSPropertyOp1
 70
     1
102
RTVSPropertyOp2
 70
     1
102
RTVSPropertyOp3
 70
     1
102
RTVSPropertyOp4
 70
     1
102
RTVSPropertyOp5
 70
     1
102
RTVSPropertyOp6
 70
     1
102
RTVSPropertyOp7
 70
     1
102
RTVSPropertyOp8
 70
     1
102
RTVSPropertyOp9
 70
     1
102
RTVSPropertyOp10
 70
     1
102
RTVSPropertyOp11
 70
     1
102
RTVSPropertyOp12
 70
     1
102
RTVSPropertyOp13
 70
     1
102
RTVSPropertyOp14
 70
     1
102
RTVSPropertyOp15
 70
     1
102
RTVSPropertyOp16
 70
     1
102
RTVSPropertyOp17
 70
     1
102
RTVSPropertyOp18
 70
     1
102
RTVSPropertyOp19
 70
     1
102
RTVSPropertyOp20
 70
     1
102
RTVSPropertyOp21
 70
     1
102
RTVSPropertyOp22
 70
     1
102
RTVSPropertyOp23
 70
     1
102
RTVSPropertyOp24
 70
     1
102
RTVSPropertyOp25
 70
     1
102
RTVSPropertyOp26
 70
     1
102
RTVSPropertyOp27
 70
     1
102
RTVSPropertyOp28
 70
     1
102
RTVSPropertyOp29
 70
     1
102
RTVSPropertyOp30
 70
     1
102
RTVSPropertyOp31
 70
     1
102
RTVSPropertyOp32
 70
     1
102
RTVSPropertyOp33
 70
     1
102
RTVSPropertyOp34
 70
     1
102
RTVSPropertyOp35
 70
     1
102
RTVSPropertyOp36
 70
     1
102
RTVSPropertyOp37
 70
     1
102
RTVSPropertyOp38
 70
     1
102
RTVSPropertyOp39
 70
     1
102
RTVSPropertyOp40
 70
     1
102
RTVSPropertyOp41
 70
     1
102
RTVSPropertyOp42
 70
     1
102
RTVSPropertyOp43
 70
     1
102
RTVSPropertyOp44
 70
     1
102
RTVSPropertyOp45
 70
     1
102
RTVSPropertyOp46
 70
     1
102
RTVSPropertyOp47
 70
     1
102
RTVSPropertyOp48
 70
     1
102
RTVSPropertyOp49
 70
     1
102
RTVSPropertyOp50
 70
     1
102
RTVSPropertyOp51
 70
     0
102
RTVSPropertyOp52
 70
     0
102
RTVSPropertyOp53
 70
     1
102
RTVSPropertyOp54
 70
     1
102
RTVSPropertyOp55
 70
     1
102
RTVSPropertyOp56
 70
     1
102
RTVSPropertyOp57
 70
     1
102
RTVSPost2010Prop28
280
     0
102
RTVSPost2010PropOp28
 70
     1
102
RTVSPost2010Prop29
280
     1
102
RTVSPost2010PropOp29
 70
     1
102
RTVSPost2010Prop30
280
     1
102
RTVSPost2010PropOp30
 70
     1
102
RTVSPost2010Prop31
280
     0
102
RTVSPost2010PropOp31
 70
     1
102
RTVSPost2010Prop32
280
     0
102
RTVSPost2010PropOp32
 70
     1
102
RTVSPost2010Prop33
280
     0
102
RTVSPost2010PropOp33
 70
     1
102
RTVSPost2010Prop34
280
     0
102
RTVSPost2010PropOp34
 70
     1
102
RTVSPost2010Prop35
280
     0
102
RTVSPost2010PropOp35
 70
     1
102
RTVSPost2010Prop36
280
     0
102
RTVSPost2010PropOp36
 70
     1
102
RTVSPost2010Prop37
 90
       50
102
RTVSPost2010PropOp37
 70
     1
102
RTVSPost2010Prop38
140
0.0
102
RTVSPost2010PropOp38
 70
     1
102
RTVSPost2010Prop39
140
1.0
102
RTVSPost2010PropOp39
 70
     1
102
RTVSPost2010Prop40
 90
        0
102
RTVSPost2010PropOp40
 70
     1
102
RTVSPost2010Prop41ColorIndex
 90
       18
102
RTVSPost2010Prop41ColorRGB
 90
        0
102
RTVSPost2010PropOp41
 70
     1
102
RTVSPost2010Prop42
 90
       50
102
RTVSPost2010PropOp42
 70
     1
102
RTVSPost2010Prop43
 90
        3
102
RTVSPost2010PropOp43
 70
     1
102
RTVSPost2010Prop44ColorIndex
 90
        5
102
RTVSPost2010Prop44ColorRGB
 90
      255
102
RTVSPost2010PropOp44
 70
     1
102
RTVSPost2010Prop45
280
     0
102
RTVSPost2010PropOp45
 70
     1
102
RTVSPost2010Prop46
 90
       50
102
RTVSPost2010PropOp46
 70
     1
102
RTVSPost2010Prop47
 90
       50
102
RTVSPost2010PropOp47
 70
     1
102
RTVSPost2010Prop48
 90
       50
102
RTVSPost2010PropOp48
 70
     1
102
RTVSPost2010Prop49
280
     0
102
RTVSPost2010PropOp49
 70
     1
102
RTVSPost2010Prop50
 90
       50
102
RTVSPost2010PropOp50
 70
     1
102
RTVSPost2010Prop51ColorIndex
 90
      256
102
RTVSPost2010Prop51ColorRGB
 90
-16777216
102
RTVSPost2010PropOp51
 70
     0
102
RTVSPost2010Prop52
140
1.0
102
RTVSPost2010PropOp52
 70
     0
102
RTVSPost2010Prop53
 90
        2
102
RTVSPost2010PropOp53
 70
     1
102
RTVSPost2010Prop54
  1
strokes_ogs.tif
102
RTVSPost2010PropOp54
 70
     1
102
RTVSPost2010Prop55
280
     0
102
RTVSPost2010PropOp55
 70
     1
102
RTVSPost2010Prop56
140
1.0
102
RTVSPost2010PropOp56
 70
     1
102
RTVSPost2010Prop57
140
1.0
102
RTVSPost2010PropOp57
 70
     1
  0
XRECORD
  5
357
102
{ACAD_REACTORS
330
356
102
}
330
356
100
AcDbXrecord
280
     1
102
RTVSPropertyOp0
 70
     1
102
RTVSPropertyOp1
 70
     1
102
RTVSPropertyOp2
 70
     1
102
RTVSPropertyOp3
 70
     1
102
RTVSPropertyOp4
 70
     1
102
RTVSPropertyOp5
 70
     1
102
RTVSPropertyOp6
 70
     1
102
RTVSPropertyOp7
 70
     1
102
RTVSPropertyOp8
 70
     1
102
RTVSPropertyOp9
 70
     1
102
RTVSPropertyOp10
 70
     1
102
RTVSPropertyOp11
 70
     1
102
RTVSPropertyOp12
 70
     1
102
RTVSPropertyOp13
 70
     1
102
RTVSPropertyOp14
 70
     1
102
RTVSPropertyOp15
 70
     1
102
RTVSPropertyOp16
 70
     1
102
RTVSPropertyOp17
 70
     1
102
RTVSPropertyOp18
 70
     1
102
RTVSPropertyOp19
 70
     1
102
RTVSPropertyOp20
 70
     1
102
RTVSPropertyOp21
 70
     1
102
RTVSPropertyOp22
 70
     1
102
RTVSPropertyOp23
 70
     1
102
RTVSPropertyOp24
 70
     1
102
RTVSPropertyOp25
 70
     1
102
RTVSPropertyOp26
 70
     1
102
RTVSPropertyOp27
 70
     1
102
RTVSPropertyOp28
 70
     1
102
RTVSPropertyOp29
 70
     1
102
RTVSPropertyOp30
 70
     1
102
RTVSPropertyOp31
 70
     1
102
RTVSPropertyOp32
 70
     1
102
RTVSPropertyOp33
 70
     1
102
RTVSPropertyOp34
 70
     1
102
RTVSPropertyOp35
 70
     1
102
RTVSPropertyOp36
 70
     1
102
RTVSPropertyOp37
 70
     1
102
RTVSPropertyOp38
 70
     1
102
RTVSPropertyOp39
 70
     1
102
RTVSPropertyOp40
 70
     1
102
RTVSPropertyOp41
 70
     1
102
RTVSPropertyOp42
 70
     1
102
RTVSPropertyOp43
 70
     1
102
RTVSPropertyOp44
 70
     1
102
RTVSPropertyOp45
 70
     1
102
RTVSPropertyOp46
 70
     1
102
RTVSPropertyOp47
 70
     1
102
RTVSPropertyOp48
 70
     1
102
RTVSPropertyOp49
 70
     1
102
RTVSPropertyOp50
 70
     1
102
RTVSPropertyOp51
 70
     0
102
RTVSPropertyOp52
 70
     0
102
RTVSPropertyOp53
 70
     1
102
RTVSPropertyOp54
 70
     1
102
RTVSPropertyOp55
 70
     1
102
RTVSPropertyOp56
 70
     1
102
RTVSPropertyOp57
 70
     1
102
RTVSPost2010Prop28
280
     0
102
RTVSPost2010PropOp28
 70
     1
102
RTVSPost2010Prop29
280
     1
102
RTVSPost2010PropOp29
 70
     1
102
RTVSPost2010Prop30
280
     1
102
RTVSPost2010PropOp30
 70
     1
102
RTVSPost2010Prop31
280
     0
102
RTVSPost2010PropOp31
 70
     1
102
RTVSPost2010Prop32
280
     0
102
RTVSPost2010PropOp32
 70
     1
102
RTVSPost2010Prop33
280
     0
102
RTVSPost2010PropOp33
 70
     1
102
RTVSPost2010Prop34
280
     0
102
RTVSPost2010PropOp34
 70
     1
102
RTVSPost2010Prop35
280
     0
102
RTVSPost2010PropOp35
 70
     1
102
RTVSPost2010Prop36
280
     0
102
RTVSPost2010PropOp36
 70
     1
102
RTVSPost2010Prop37
 90
       50
102
RTVSPost2010PropOp37
 70
     1
102
RTVSPost2010Prop38
140
0.0
102
RTVSPost2010PropOp38
 70
     1
102
RTVSPost2010Prop39
140
1.0
102
RTVSPost2010PropOp39
 70
     1
102
RTVSPost2010Prop40
 90
        0
102
RTVSPost2010PropOp40
 70
     1
102
RTVSPost2010Prop41ColorIndex
 90
       18
102
RTVSPost2010Prop41ColorRGB
 90
        0
102
RTVSPost2010PropOp41
 70
     1
102
RTVSPost2010Prop42
 90
       50
102
RTVSPost2010PropOp42
 70
     1
102
RTVSPost2010Prop43
 90
        3
102
RTVSPost2010PropOp43
 70
     1
102
RTVSPost2010Prop44ColorIndex
 90
        5
102
RTVSPost2010Prop44ColorRGB
 90
      255
102
RTVSPost2010PropOp44
 70
     1
102
RTVSPost2010Prop45
280
     0
102
RTVSPost2010PropOp45
 70
     1
102
RTVSPost2010Prop46
 90
       50
102
RTVSPost2010PropOp46
 70
     1
102
RTVSPost2010Prop47
 90
       50
102
RTVSPost2010PropOp47
 70
     1
102
RTVSPost2010Prop48
 90
       50
102
RTVSPost2010PropOp48
 70
     1
102
RTVSPost2010Prop49
280
     0
102
RTVSPost2010PropOp49
 70
     1
102
RTVSPost2010Prop50
 90
       50
102
RTVSPost2010PropOp50
 70
     1
102
RTVSPost2010Prop51ColorIndex
 90
      256
102
RTVSPost2010Prop51ColorRGB
 90
-16777216
102
RTVSPost2010PropOp51
 70
     0
102
RTVSPost2010Prop52
140
1.0
102
RTVSPost2010PropOp52
 70
     0
102
RTVSPost2010Prop53
 90
        2
102
RTVSPost2010PropOp53
 70
     1
102
RTVSPost2010Prop54
  1
strokes_ogs.tif
102
RTVSPost2010PropOp54
 70
     1
102
RTVSPost2010Prop55
280
     0
102
RTVSPost2010PropOp55
 70
     1
102
RTVSPost2010Prop56
140
1.0
102
RTVSPost2010PropOp56
 70
     1
102
RTVSPost2010Prop57
140
1.0
102
RTVSPost2010PropOp57
 70
     1
  0
XRECORD
  5
359
102
{ACAD_REACTORS
330
358
102
}
330
358
100
AcDbXrecord
280
     1
102
RTVSPropertyOp0
 70
     1
102
RTVSPropertyOp1
 70
     1
102
RTVSPropertyOp2
 70
     1
102
RTVSPropertyOp3
 70
     1
102
RTVSPropertyOp4
 70
     1
102
RTVSPropertyOp5
 70
     1
102
RTVSPropertyOp6
 70
     1
102
RTVSPropertyOp7
 70
     1
102
RTVSPropertyOp8
 70
     1
102
RTVSPropertyOp9
 70
     1
102
RTVSPropertyOp10
 70
     1
102
RTVSPropertyOp11
 70
     1
102
RTVSPropertyOp12
 70
     1
102
RTVSPropertyOp13
 70
     1
102
RTVSPropertyOp14
 70
     1
102
RTVSPropertyOp15
 70
     1
102
RTVSPropertyOp16
 70
     1
102
RTVSPropertyOp17
 70
     1
102
RTVSPropertyOp18
 70
     1
102
RTVSPropertyOp19
 70
     1
102
RTVSPropertyOp20
 70
     1
102
RTVSPropertyOp21
 70
     1
102
RTVSPropertyOp22
 70
     1
102
RTVSPropertyOp23
 70
     1
102
RTVSPropertyOp24
 70
     1
102
RTVSPropertyOp25
 70
     1
102
RTVSPropertyOp26
 70
     1
102
RTVSPropertyOp27
 70
     1
102
RTVSPropertyOp28
 70
     1
102
RTVSPropertyOp29
 70
     1
102
RTVSPropertyOp30
 70
     1
102
RTVSPropertyOp31
 70
     1
102
RTVSPropertyOp32
 70
     1
102
RTVSPropertyOp33
 70
     1
102
RTVSPropertyOp34
 70
     1
102
RTVSPropertyOp35
 70
     1
102
RTVSPropertyOp36
 70
     1
102
RTVSPropertyOp37
 70
     1
102
RTVSPropertyOp38
 70
     1
102
RTVSPropertyOp39
 70
     1
102
RTVSPropertyOp40
 70
     1
102
RTVSPropertyOp41
 70
     1
102
RTVSPropertyOp42
 70
     1
102
RTVSPropertyOp43
 70
     1
102
RTVSPropertyOp44
 70
     1
102
RTVSPropertyOp45
 70
     1
102
RTVSPropertyOp46
 70
     1
102
RTVSPropertyOp47
 70
     1
102
RTVSPropertyOp48
 70
     1
102
RTVSPropertyOp49
 70
     1
102
RTVSPropertyOp50
 70
     1
102
RTVSPropertyOp51
 70
     0
102
RTVSPropertyOp52
 70
     0
102
RTVSPropertyOp53
 70
     1
102
RTVSPropertyOp54
 70
     1
102
RTVSPropertyOp55
 70
     1
102
RTVSPropertyOp56
 70
     1
102
RTVSPropertyOp57
 70
     1
102
RTVSPost2010Prop28
280
     0
102
RTVSPost2010PropOp28
 70
     1
102
RTVSPost2010Prop29
280
     1
102
RTVSPost2010PropOp29
 70
     1
102
RTVSPost2010Prop30
280
     1
102
RTVSPost2010PropOp30
 70
     1
102
RTVSPost2010Prop31
280
     0
102
RTVSPost2010PropOp31
 70
     1
102
RTVSPost2010Prop32
280
     0
102
RTVSPost2010PropOp32
 70
     1
102
RTVSPost2010Prop33
280
     0
102
RTVSPost2010PropOp33
 70
     1
102
RTVSPost2010Prop34
280
     0
102
RTVSPost2010PropOp34
 70
     1
102
RTVSPost2010Prop35
280
     0
102
RTVSPost2010PropOp35
 70
     1
102
RTVSPost2010Prop36
280
     0
102
RTVSPost2010PropOp36
 70
     1
102
RTVSPost2010Prop37
 90
       50
102
RTVSPost2010PropOp37
 70
     1
102
RTVSPost2010Prop38
140
0.0
102
RTVSPost2010PropOp38
 70
     1
102
RTVSPost2010Prop39
140
1.0
102
RTVSPost2010PropOp39
 70
     1
102
RTVSPost2010Prop40
 90
        0
102
RTVSPost2010PropOp40
 70
     1
102
RTVSPost2010Prop41ColorIndex
 90
       18
102
RTVSPost2010Prop41ColorRGB
 90
        0
102
RTVSPost2010PropOp41
 70
     1
102
RTVSPost2010Prop42
 90
       50
102
RTVSPost2010PropOp42
 70
     1
102
RTVSPost2010Prop43
 90
        3
102
RTVSPost2010PropOp43
 70
     1
102
RTVSPost2010Prop44ColorIndex
 90
        5
102
RTVSPost2010Prop44ColorRGB
 90
      255
102
RTVSPost2010PropOp44
 70
     1
102
RTVSPost2010Prop45
280
     0
102
RTVSPost2010PropOp45
 70
     1
102
RTVSPost2010Prop46
 90
       50
102
RTVSPost2010PropOp46
 70
     1
102
RTVSPost2010Prop47
 90
       50
102
RTVSPost2010PropOp47
 70
     1
102
RTVSPost2010Prop48
 90
       50
102
RTVSPost2010PropOp48
 70
     1
102
RTVSPost2010Prop49
280
     0
102
RTVSPost2010PropOp49
 70
     1
102
RTVSPost2010Prop50
 90
       50
102
RTVSPost2010PropOp50
 70
     1
102
RTVSPost2010Prop51ColorIndex
 90
      256
102
RTVSPost2010Prop51ColorRGB
 90
-16777216
102
RTVSPost2010PropOp51
 70
     0
102
RTVSPost2010Prop52
140
1.0
102
RTVSPost2010PropOp52
 70
     0
102
RTVSPost2010Prop53
 90
        2
102
RTVSPost2010PropOp53
 70
     1
102
RTVSPost2010Prop54
  1
strokes_ogs.tif
102
RTVSPost2010PropOp54
 70
     1
102
RTVSPost2010Prop55
280
     0
102
RTVSPost2010PropOp55
 70
     1
102
RTVSPost2010Prop56
140
1.0
102
RTVSPost2010PropOp56
 70
     1
102
RTVSPost2010Prop57
140
1.0
102
RTVSPost2010PropOp57
 70
     1
  0
XRECORD
  5
35F
102
{ACAD_REACTORS
330
35E
102
}
330
35E
100
AcDbXrecord
280
     1
102
RTVSPropertyOp0
 70
     1
102
RTVSPropertyOp1
 70
     1
102
RTVSPropertyOp2
 70
     1
102
RTVSPropertyOp3
 70
     1
102
RTVSPropertyOp4
 70
     1
102
RTVSPropertyOp5
 70
     1
102
RTVSPropertyOp6
 70
     1
102
RTVSPropertyOp7
 70
     1
102
RTVSPropertyOp8
 70
     1
102
RTVSPropertyOp9
 70
     1
102
RTVSPropertyOp10
 70
     1
102
RTVSPropertyOp11
 70
     1
102
RTVSPropertyOp12
 70
     1
102
RTVSPropertyOp13
 70
     1
102
RTVSPropertyOp14
 70
     1
102
RTVSPropertyOp15
 70
     1
102
RTVSPropertyOp16
 70
     1
102
RTVSPropertyOp17
 70
     1
102
RTVSPropertyOp18
 70
     1
102
RTVSPropertyOp19
 70
     1
102
RTVSPropertyOp20
 70
     1
102
RTVSPropertyOp21
 70
     1
102
RTVSPropertyOp22
 70
     1
102
RTVSPropertyOp23
 70
     1
102
RTVSPropertyOp24
 70
     1
102
RTVSPropertyOp25
 70
     1
102
RTVSPropertyOp26
 70
     1
102
RTVSPropertyOp27
 70
     1
102
RTVSPropertyOp28
 70
     1
102
RTVSPropertyOp29
 70
     1
102
RTVSPropertyOp30
 70
     1
102
RTVSPropertyOp31
 70
     1
102
RTVSPropertyOp32
 70
     1
102
RTVSPropertyOp33
 70
     1
102
RTVSPropertyOp34
 70
     1
102
RTVSPropertyOp35
 70
     1
102
RTVSPropertyOp36
 70
     1
102
RTVSPropertyOp37
 70
     1
102
RTVSPropertyOp38
 70
     1
102
RTVSPropertyOp39
 70
     1
102
RTVSPropertyOp40
 70
     1
102
RTVSPropertyOp41
 70
     1
102
RTVSPropertyOp42
 70
     1
102
RTVSPropertyOp43
 70
     1
102
RTVSPropertyOp44
 70
     1
102
RTVSPropertyOp45
 70
     1
102
RTVSPropertyOp46
 70
     1
102
RTVSPropertyOp47
 70
     1
102
RTVSPropertyOp48
 70
     1
102
RTVSPropertyOp49
 70
     1
102
RTVSPropertyOp50
 70
     1
102
RTVSPropertyOp51
 70
     0
102
RTVSPropertyOp52
 70
     0
102
RTVSPropertyOp53
 70
     1
102
RTVSPropertyOp54
 70
     1
102
RTVSPropertyOp55
 70
     1
102
RTVSPropertyOp56
 70
     1
102
RTVSPropertyOp57
 70
     1
102
RTVSPost2010Prop28
280
     0
102
RTVSPost2010PropOp28
 70
     1
102
RTVSPost2010Prop29
280
     1
102
RTVSPost2010PropOp29
 70
     1
102
RTVSPost2010Prop30
280
     1
102
RTVSPost2010PropOp30
 70
     1
102
RTVSPost2010Prop31
280
     0
102
RTVSPost2010PropOp31
 70
     1
102
RTVSPost2010Prop32
280
     0
102
RTVSPost2010PropOp32
 70
     1
102
RTVSPost2010Prop33
280
     0
102
RTVSPost2010PropOp33
 70
     1
102
RTVSPost2010Prop34
280
     0
102
RTVSPost2010PropOp34
 70
     1
102
RTVSPost2010Prop35
280
     0
102
RTVSPost2010PropOp35
 70
     1
102
RTVSPost2010Prop36
280
     0
102
RTVSPost2010PropOp36
 70
     1
102
RTVSPost2010Prop37
 90
       50
102
RTVSPost2010PropOp37
 70
     1
102
RTVSPost2010Prop38
140
0.0
102
RTVSPost2010PropOp38
 70
     1
102
RTVSPost2010Prop39
140
1.0
102
RTVSPost2010PropOp39
 70
     1
102
RTVSPost2010Prop40
 90
        0
102
RTVSPost2010PropOp40
 70
     1
102
RTVSPost2010Prop41ColorIndex
 90
       18
102
RTVSPost2010Prop41ColorRGB
 90
        0
102
RTVSPost2010PropOp41
 70
     1
102
RTVSPost2010Prop42
 90
       50
102
RTVSPost2010PropOp42
 70
     1
102
RTVSPost2010Prop43
 90
        3
102
RTVSPost2010PropOp43
 70
     1
102
RTVSPost2010Prop44ColorIndex
 90
        5
102
RTVSPost2010Prop44ColorRGB
 90
      255
102
RTVSPost2010PropOp44
 70
     1
102
RTVSPost2010Prop45
280
     0
102
RTVSPost2010PropOp45
 70
     1
102
RTVSPost2010Prop46
 90
       50
102
RTVSPost2010PropOp46
 70
     1
102
RTVSPost2010Prop47
 90
       50
102
RTVSPost2010PropOp47
 70
     1
102
RTVSPost2010Prop48
 90
       50
102
RTVSPost2010PropOp48
 70
     1
102
RTVSPost2010Prop49
280
     0
102
RTVSPost2010PropOp49
 70
     1
102
RTVSPost2010Prop50
 90
       50
102
RTVSPost2010PropOp50
 70
     1
102
RTVSPost2010Prop51ColorIndex
 90
      256
102
RTVSPost2010Prop51ColorRGB
 90
-16777216
102
RTVSPost2010PropOp51
 70
     0
102
RTVSPost2010Prop52
140
1.0
102
RTVSPost2010PropOp52
 70
     0
102
RTVSPost2010Prop53
 90
        2
102
RTVSPost2010PropOp53
 70
     1
102
RTVSPost2010Prop54
  1
strokes_ogs.tif
102
RTVSPost2010PropOp54
 70
     1
102
RTVSPost2010Prop55
280
     0
102
RTVSPost2010PropOp55
 70
     1
102
RTVSPost2010Prop56
140
1.0
102
RTVSPost2010PropOp56
 70
     1
102
RTVSPost2010Prop57
140
1.0
102
RTVSPost2010PropOp57
 70
     1
  0
XRECORD
  5
373
102
{ACAD_REACTORS
330
372
102
}
330
372
100
AcDbXrecord
280
     1
102
RTVSPropertyOp0
 70
     0
102
RTVSPropertyOp1
 70
     0
102
RTVSPropertyOp2
 70
     0
102
RTVSPropertyOp3
 70
     0
102
RTVSPropertyOp4
 70
     0
102
RTVSPropertyOp5
 70
     0
102
RTVSPropertyOp6
 70
     0
102
RTVSPropertyOp7
 70
     0
102
RTVSPropertyOp8
 70
     0
102
RTVSPropertyOp9
 70
     0
102
RTVSPropertyOp10
 70
     0
102
RTVSPropertyOp11
 70
     0
102
RTVSPropertyOp12
 70
     0
102
RTVSPropertyOp13
 70
     0
102
RTVSPropertyOp14
 70
     2
102
RTVSPropertyOp15
 70
     0
102
RTVSPropertyOp16
 70
     0
102
RTVSPropertyOp17
 70
     0
102
RTVSPropertyOp18
 70
     0
102
RTVSPropertyOp19
 70
     0
102
RTVSPropertyOp20
 70
     0
102
RTVSPropertyOp21
 70
     0
102
RTVSPropertyOp22
 70
     0
102
RTVSPropertyOp23
 70
     0
102
RTVSPropertyOp24
 70
     0
102
RTVSPropertyOp25
 70
     0
102
RTVSPropertyOp26
 70
     0
102
RTVSPropertyOp27
 70
     0
102
RTVSPropertyOp28
 70
     0
102
RTVSPropertyOp29
 70
     0
102
RTVSPropertyOp30
 70
     0
102
RTVSPropertyOp31
 70
     0
102
RTVSPropertyOp32
 70
     0
102
RTVSPropertyOp33
 70
     0
102
RTVSPropertyOp34
 70
     0
102
RTVSPropertyOp35
 70
     0
102
RTVSPropertyOp36
 70
     0
102
RTVSPropertyOp37
 70
     0
102
RTVSPropertyOp38
 70
     0
102
RTVSPropertyOp39
 70
     0
102
RTVSPropertyOp40
 70
     0
102
RTVSPropertyOp41
 70
     0
102
RTVSPropertyOp42
 70
     0
102
RTVSPropertyOp43
 70
     0
102
RTVSPropertyOp44
 70
     0
102
RTVSPropertyOp45
 70
     0
102
RTVSPropertyOp46
 70
     0
102
RTVSPropertyOp47
 70
     0
102
RTVSPropertyOp48
 70
     0
102
RTVSPropertyOp49
 70
     0
102
RTVSPropertyOp50
 70
     0
102
RTVSPropertyOp51
 70
     0
102
RTVSPropertyOp52
 70
     0
102
RTVSPropertyOp53
 70
     0
102
RTVSPropertyOp54
 70
     0
102
RTVSPropertyOp55
 70
     0
102
RTVSPropertyOp56
 70
     0
102
RTVSPropertyOp57
 70
     0
102
RTVSPost2010Prop28
280
     0
102
RTVSPost2010PropOp28
 70
     0
102
RTVSPost2010Prop29
280
     1
102
RTVSPost2010PropOp29
 70
     0
102
RTVSPost2010Prop30
280
     1
102
RTVSPost2010PropOp30
 70
     0
102
RTVSPost2010Prop31
280
     0
102
RTVSPost2010PropOp31
 70
     0
102
RTVSPost2010Prop32
280
     0
102
RTVSPost2010PropOp32
 70
     0
102
RTVSPost2010Prop33
280
     0
102
RTVSPost2010PropOp33
 70
     0
102
RTVSPost2010Prop34
280
     0
102
RTVSPost2010PropOp34
 70
     0
102
RTVSPost2010Prop35
280
     0
102
RTVSPost2010PropOp35
 70
     0
102
RTVSPost2010Prop36
280
     0
102
RTVSPost2010PropOp36
 70
     0
102
RTVSPost2010Prop37
 90
       50
102
RTVSPost2010PropOp37
 70
     0
102
RTVSPost2010Prop38
140
0.0
102
RTVSPost2010PropOp38
 70
     0
102
RTVSPost2010Prop39
140
1.0
102
RTVSPost2010PropOp39
 70
     0
102
RTVSPost2010Prop40
 90
        0
102
RTVSPost2010PropOp40
 70
     0
102
RTVSPost2010Prop41ColorIndex
 90
       18
102
RTVSPost2010Prop41ColorRGB
 90
        0
102
RTVSPost2010PropOp41
 70
     0
102
RTVSPost2010Prop42
 90
       50
102
RTVSPost2010PropOp42
 70
     0
102
RTVSPost2010Prop43
 90
        3
102
RTVSPost2010PropOp43
 70
     0
102
RTVSPost2010Prop44ColorIndex
 90
        5
102
RTVSPost2010Prop44ColorRGB
 90
      255
102
RTVSPost2010PropOp44
 70
     0
102
RTVSPost2010Prop45
280
     0
102
RTVSPost2010PropOp45
 70
     0
102
RTVSPost2010Prop46
 90
       50
102
RTVSPost2010PropOp46
 70
     0
102
RTVSPost2010Prop47
 90
       50
102
RTVSPost2010PropOp47
 70
     0
102
RTVSPost2010Prop48
 90
       50
102
RTVSPost2010PropOp48
 70
     0
102
RTVSPost2010Prop49
280
     0
102
RTVSPost2010PropOp49
 70
     0
102
RTVSPost2010Prop50
 90
       50
102
RTVSPost2010PropOp50
 70
     0
102
RTVSPost2010Prop51ColorIndex
 90
      256
102
RTVSPost2010Prop51ColorRGB
 90
-16777216
102
RTVSPost2010PropOp51
 70
     0
102
RTVSPost2010Prop52
140
1.0
102
RTVSPost2010PropOp52
 70
     0
102
RTVSPost2010Prop53
 90
        2
102
RTVSPost2010PropOp53
 70
     0
102
RTVSPost2010Prop54
  1
strokes_ogs.tif
102
RTVSPost2010PropOp54
 70
     0
102
RTVSPost2010Prop55
280
     0
102
RTVSPost2010PropOp55
 70
     0
102
RTVSPost2010Prop56
140
1.0
102
RTVSPost2010PropOp56
 70
     0
102
RTVSPost2010Prop57
140
1.0
102
RTVSPost2010PropOp57
 70
     0
  0
XRECORD
  5
36D
102
{ACAD_REACTORS
330
36C
102
}
330
36C
100
AcDbXrecord
280
     1
102
RTVSPropertyOp0
 70
     1
102
RTVSPropertyOp1
 70
     1
102
RTVSPropertyOp2
 70
     1
102
RTVSPropertyOp3
 70
     1
102
RTVSPropertyOp4
 70
     1
102
RTVSPropertyOp5
 70
     1
102
RTVSPropertyOp6
 70
     1
102
RTVSPropertyOp7
 70
     1
102
RTVSPropertyOp8
 70
     1
102
RTVSPropertyOp9
 70
     1
102
RTVSPropertyOp10
 70
     1
102
RTVSPropertyOp11
 70
     1
102
RTVSPropertyOp12
 70
     1
102
RTVSPropertyOp13
 70
     1
102
RTVSPropertyOp14
 70
     1
102
RTVSPropertyOp15
 70
     1
102
RTVSPropertyOp16
 70
     1
102
RTVSPropertyOp17
 70
     1
102
RTVSPropertyOp18
 70
     1
102
RTVSPropertyOp19
 70
     1
102
RTVSPropertyOp20
 70
     1
102
RTVSPropertyOp21
 70
     1
102
RTVSPropertyOp22
 70
     1
102
RTVSPropertyOp23
 70
     1
102
RTVSPropertyOp24
 70
     1
102
RTVSPropertyOp25
 70
     1
102
RTVSPropertyOp26
 70
     1
102
RTVSPropertyOp27
 70
     1
102
RTVSPropertyOp28
 70
     1
102
RTVSPropertyOp29
 70
     1
102
RTVSPropertyOp30
 70
     1
102
RTVSPropertyOp31
 70
     1
102
RTVSPropertyOp32
 70
     1
102
RTVSPropertyOp33
 70
     1
102
RTVSPropertyOp34
 70
     1
102
RTVSPropertyOp35
 70
     1
102
RTVSPropertyOp36
 70
     1
102
RTVSPropertyOp37
 70
     1
102
RTVSPropertyOp38
 70
     1
102
RTVSPropertyOp39
 70
     1
102
RTVSPropertyOp40
 70
     1
102
RTVSPropertyOp41
 70
     1
102
RTVSPropertyOp42
 70
     1
102
RTVSPropertyOp43
 70
     1
102
RTVSPropertyOp44
 70
     1
102
RTVSPropertyOp45
 70
     1
102
RTVSPropertyOp46
 70
     1
102
RTVSPropertyOp47
 70
     1
102
RTVSPropertyOp48
 70
     1
102
RTVSPropertyOp49
 70
     1
102
RTVSPropertyOp50
 70
     1
102
RTVSPropertyOp51
 70
     0
102
RTVSPropertyOp52
 70
     0
102
RTVSPropertyOp53
 70
     1
102
RTVSPropertyOp54
 70
     1
102
RTVSPropertyOp55
 70
     1
102
RTVSPropertyOp56
 70
     1
102
RTVSPropertyOp57
 70
     1
102
RTVSPost2010Prop28
280
     0
102
RTVSPost2010PropOp28
 70
     1
102
RTVSPost2010Prop29
280
     1
102
RTVSPost2010PropOp29
 70
     1
102
RTVSPost2010Prop30
280
     1
102
RTVSPost2010PropOp30
 70
     1
102
RTVSPost2010Prop31
280
     0
102
RTVSPost2010PropOp31
 70
     1
102
RTVSPost2010Prop32
280
     0
102
RTVSPost2010PropOp32
 70
     1
102
RTVSPost2010Prop33
280
     0
102
RTVSPost2010PropOp33
 70
     1
102
RTVSPost2010Prop34
280
     0
102
RTVSPost2010PropOp34
 70
     1
102
RTVSPost2010Prop35
280
     0
102
RTVSPost2010PropOp35
 70
     1
102
RTVSPost2010Prop36
280
     0
102
RTVSPost2010PropOp36
 70
     1
102
RTVSPost2010Prop37
 90
       50
102
RTVSPost2010PropOp37
 70
     1
102
RTVSPost2010Prop38
140
0.0
102
RTVSPost2010PropOp38
 70
     1
102
RTVSPost2010Prop39
140
1.0
102
RTVSPost2010PropOp39
 70
     1
102
RTVSPost2010Prop40
 90
        0
102
RTVSPost2010PropOp40
 70
     1
102
RTVSPost2010Prop41ColorIndex
 90
       18
102
RTVSPost2010Prop41ColorRGB
 90
        0
102
RTVSPost2010PropOp41
 70
     1
102
RTVSPost2010Prop42
 90
       50
102
RTVSPost2010PropOp42
 70
     1
102
RTVSPost2010Prop43
 90
        3
102
RTVSPost2010PropOp43
 70
     1
102
RTVSPost2010Prop44ColorIndex
 90
        5
102
RTVSPost2010Prop44ColorRGB
 90
      255
102
RTVSPost2010PropOp44
 70
     1
102
RTVSPost2010Prop45
280
     0
102
RTVSPost2010PropOp45
 70
     1
102
RTVSPost2010Prop46
 90
       50
102
RTVSPost2010PropOp46
 70
     1
102
RTVSPost2010Prop47
 90
       50
102
RTVSPost2010PropOp47
 70
     1
102
RTVSPost2010Prop48
 90
       50
102
RTVSPost2010PropOp48
 70
     1
102
RTVSPost2010Prop49
280
     0
102
RTVSPost2010PropOp49
 70
     1
102
RTVSPost2010Prop50
 90
       50
102
RTVSPost2010PropOp50
 70
     1
102
RTVSPost2010Prop51ColorIndex
 90
      256
102
RTVSPost2010Prop51ColorRGB
 90
-16777216
102
RTVSPost2010PropOp51
 70
     0
102
RTVSPost2010Prop52
140
1.0
102
RTVSPost2010PropOp52
 70
     0
102
RTVSPost2010Prop53
 90
        2
102
RTVSPost2010PropOp53
 70
     1
102
RTVSPost2010Prop54
  1
strokes_ogs.tif
102
RTVSPost2010PropOp54
 70
     1
102
RTVSPost2010Prop55
280
     0
102
RTVSPost2010PropOp55
 70
     1
102
RTVSPost2010Prop56
140
1.0
102
RTVSPost2010PropOp56
 70
     1
102
RTVSPost2010Prop57
140
1.0
102
RTVSPost2010PropOp57
 70
     1
  0
XRECORD
  5
375
102
{ACAD_REACTORS
330
374
102
}
330
374
100
AcDbXrecord
280
     1
102
RTVSPropertyOp0
 70
     0
102
RTVSPropertyOp1
 70
     0
102
RTVSPropertyOp2
 70
     0
102
RTVSPropertyOp3
 70
     0
102
RTVSPropertyOp4
 70
     0
102
RTVSPropertyOp5
 70
     0
102
RTVSPropertyOp6
 70
     0
102
RTVSPropertyOp7
 70
     0
102
RTVSPropertyOp8
 70
     0
102
RTVSPropertyOp9
 70
     0
102
RTVSPropertyOp10
 70
     0
102
RTVSPropertyOp11
 70
     0
102
RTVSPropertyOp12
 70
     0
102
RTVSPropertyOp13
 70
     0
102
RTVSPropertyOp14
 70
     2
102
RTVSPropertyOp15
 70
     0
102
RTVSPropertyOp16
 70
     0
102
RTVSPropertyOp17
 70
     0
102
RTVSPropertyOp18
 70
     0
102
RTVSPropertyOp19
 70
     0
102
RTVSPropertyOp20
 70
     0
102
RTVSPropertyOp21
 70
     0
102
RTVSPropertyOp22
 70
     0
102
RTVSPropertyOp23
 70
     0
102
RTVSPropertyOp24
 70
     0
102
RTVSPropertyOp25
 70
     0
102
RTVSPropertyOp26
 70
     0
102
RTVSPropertyOp27
 70
     0
102
RTVSPropertyOp28
 70
     0
102
RTVSPropertyOp29
 70
     0
102
RTVSPropertyOp30
 70
     0
102
RTVSPropertyOp31
 70
     0
102
RTVSPropertyOp32
 70
     0
102
RTVSPropertyOp33
 70
     0
102
RTVSPropertyOp34
 70
     0
102
RTVSPropertyOp35
 70
     0
102
RTVSPropertyOp36
 70
     0
102
RTVSPropertyOp37
 70
     0
102
RTVSPropertyOp38
 70
     0
102
RTVSPropertyOp39
 70
     0
102
RTVSPropertyOp40
 70
     0
102
RTVSPropertyOp41
 70
     0
102
RTVSPropertyOp42
 70
     0
102
RTVSPropertyOp43
 70
     0
102
RTVSPropertyOp44
 70
     0
102
RTVSPropertyOp45
 70
     0
102
RTVSPropertyOp46
 70
     0
102
RTVSPropertyOp47
 70
     0
102
RTVSPropertyOp48
 70
     0
102
RTVSPropertyOp49
 70
     0
102
RTVSPropertyOp50
 70
     0
102
RTVSPropertyOp51
 70
     0
102
RTVSPropertyOp52
 70
     0
102
RTVSPropertyOp53
 70
     0
102
RTVSPropertyOp54
 70
     0
102
RTVSPropertyOp55
 70
     0
102
RTVSPropertyOp56
 70
     0
102
RTVSPropertyOp57
 70
     0
102
RTVSPost2010Prop28
280
     0
102
RTVSPost2010PropOp28
 70
     0
102
RTVSPost2010Prop29
280
     1
102
RTVSPost2010PropOp29
 70
     0
102
RTVSPost2010Prop30
280
     1
102
RTVSPost2010PropOp30
 70
     0
102
RTVSPost2010Prop31
280
     0
102
RTVSPost2010PropOp31
 70
     0
102
RTVSPost2010Prop32
280
     0
102
RTVSPost2010PropOp32
 70
     0
102
RTVSPost2010Prop33
280
     0
102
RTVSPost2010PropOp33
 70
     0
102
RTVSPost2010Prop34
280
     0
102
RTVSPost2010PropOp34
 70
     0
102
RTVSPost2010Prop35
280
     0
102
RTVSPost2010PropOp35
 70
     0
102
RTVSPost2010Prop36
280
     0
102
RTVSPost2010PropOp36
 70
     0
102
RTVSPost2010Prop37
 90
       50
102
RTVSPost2010PropOp37
 70
     0
102
RTVSPost2010Prop38
140
0.0
102
RTVSPost2010PropOp38
 70
     0
102
RTVSPost2010Prop39
140
1.0
102
RTVSPost2010PropOp39
 70
     0
102
RTVSPost2010Prop40
 90
        0
102
RTVSPost2010PropOp40
 70
     0
102
RTVSPost2010Prop41ColorIndex
 90
       18
102
RTVSPost2010Prop41ColorRGB
 90
        0
102
RTVSPost2010PropOp41
 70
     0
102
RTVSPost2010Prop42
 90
       50
102
RTVSPost2010PropOp42
 70
     0
102
RTVSPost2010Prop43
 90
        3
102
RTVSPost2010PropOp43
 70
     0
102
RTVSPost2010Prop44ColorIndex
 90
        5
102
RTVSPost2010Prop44ColorRGB
 90
      255
102
RTVSPost2010PropOp44
 70
     0
102
RTVSPost2010Prop45
280
     0
102
RTVSPost2010PropOp45
 70
     0
102
RTVSPost2010Prop46
 90
       50
102
RTVSPost2010PropOp46
 70
     0
102
RTVSPost2010Prop47
 90
       50
102
RTVSPost2010PropOp47
 70
     0
102
RTVSPost2010Prop48
 90
       50
102
RTVSPost2010PropOp48
 70
     0
102
RTVSPost2010Prop49
280
     0
102
RTVSPost2010PropOp49
 70
     0
102
RTVSPost2010Prop50
 90
       50
102
RTVSPost2010PropOp50
 70
     0
102
RTVSPost2010Prop51ColorIndex
 90
      256
102
RTVSPost2010Prop51ColorRGB
 90
-16777216
102
RTVSPost2010PropOp51
 70
     0
102
RTVSPost2010Prop52
140
1.0
102
RTVSPost2010PropOp52
 70
     0
102
RTVSPost2010Prop53
 90
        2
102
RTVSPost2010PropOp53
 70
     0
102
RTVSPost2010Prop54
  1
strokes_ogs.tif
102
RTVSPost2010PropOp54
 70
     0
102
RTVSPost2010Prop55
280
     0
102
RTVSPost2010PropOp55
 70
     0
102
RTVSPost2010Prop56
140
1.0
102
RTVSPost2010PropOp56
 70
     0
102
RTVSPost2010Prop57
140
1.0
102
RTVSPost2010PropOp57
 70
     0
  0
XRECORD
  5
363
102
{ACAD_REACTORS
330
362
102
}
330
362
100
AcDbXrecord
280
     1
102
RTVSPropertyOp0
 70
     1
102
RTVSPropertyOp1
 70
     1
102
RTVSPropertyOp2
 70
     1
102
RTVSPropertyOp3
 70
     1
102
RTVSPropertyOp4
 70
     1
102
RTVSPropertyOp5
 70
     1
102
RTVSPropertyOp6
 70
     1
102
RTVSPropertyOp7
 70
     1
102
RTVSPropertyOp8
 70
     1
102
RTVSPropertyOp9
 70
     1
102
RTVSPropertyOp10
 70
     1
102
RTVSPropertyOp11
 70
     1
102
RTVSPropertyOp12
 70
     1
102
RTVSPropertyOp13
 70
     1
102
RTVSPropertyOp14
 70
     1
102
RTVSPropertyOp15
 70
     1
102
RTVSPropertyOp16
 70
     1
102
RTVSPropertyOp17
 70
     1
102
RTVSPropertyOp18
 70
     1
102
RTVSPropertyOp19
 70
     1
102
RTVSPropertyOp20
 70
     1
102
RTVSPropertyOp21
 70
     1
102
RTVSPropertyOp22
 70
     1
102
RTVSPropertyOp23
 70
     1
102
RTVSPropertyOp24
 70
     1
102
RTVSPropertyOp25
 70
     1
102
RTVSPropertyOp26
 70
     1
102
RTVSPropertyOp27
 70
     1
102
RTVSPropertyOp28
 70
     1
102
RTVSPropertyOp29
 70
     1
102
RTVSPropertyOp30
 70
     1
102
RTVSPropertyOp31
 70
     1
102
RTVSPropertyOp32
 70
     1
102
RTVSPropertyOp33
 70
     1
102
RTVSPropertyOp34
 70
     1
102
RTVSPropertyOp35
 70
     1
102
RTVSPropertyOp36
 70
     1
102
RTVSPropertyOp37
 70
     1
102
RTVSPropertyOp38
 70
     1
102
RTVSPropertyOp39
 70
     1
102
RTVSPropertyOp40
 70
     1
102
RTVSPropertyOp41
 70
     1
102
RTVSPropertyOp42
 70
     1
102
RTVSPropertyOp43
 70
     1
102
RTVSPropertyOp44
 70
     1
102
RTVSPropertyOp45
 70
     1
102
RTVSPropertyOp46
 70
     1
102
RTVSPropertyOp47
 70
     1
102
RTVSPropertyOp48
 70
     1
102
RTVSPropertyOp49
 70
     1
102
RTVSPropertyOp50
 70
     1
102
RTVSPropertyOp51
 70
     0
102
RTVSPropertyOp52
 70
     0
102
RTVSPropertyOp53
 70
     1
102
RTVSPropertyOp54
 70
     1
102
RTVSPropertyOp55
 70
     1
102
RTVSPropertyOp56
 70
     1
102
RTVSPropertyOp57
 70
     1
102
RTVSPost2010Prop28
280
     0
102
RTVSPost2010PropOp28
 70
     1
102
RTVSPost2010Prop29
280
     1
102
RTVSPost2010PropOp29
 70
     1
102
RTVSPost2010Prop30
280
     1
102
RTVSPost2010PropOp30
 70
     1
102
RTVSPost2010Prop31
280
     0
102
RTVSPost2010PropOp31
 70
     1
102
RTVSPost2010Prop32
280
     0
102
RTVSPost2010PropOp32
 70
     1
102
RTVSPost2010Prop33
280
     0
102
RTVSPost2010PropOp33
 70
     1
102
RTVSPost2010Prop34
280
     0
102
RTVSPost2010PropOp34
 70
     1
102
RTVSPost2010Prop35
280
     0
102
RTVSPost2010PropOp35
 70
     1
102
RTVSPost2010Prop36
280
     0
102
RTVSPost2010PropOp36
 70
     1
102
RTVSPost2010Prop37
 90
       50
102
RTVSPost2010PropOp37
 70
     1
102
RTVSPost2010Prop38
140
0.0
102
RTVSPost2010PropOp38
 70
     1
102
RTVSPost2010Prop39
140
1.0
102
RTVSPost2010PropOp39
 70
     1
102
RTVSPost2010Prop40
 90
        0
102
RTVSPost2010PropOp40
 70
     1
102
RTVSPost2010Prop41ColorIndex
 90
       18
102
RTVSPost2010Prop41ColorRGB
 90
        0
102
RTVSPost2010PropOp41
 70
     1
102
RTVSPost2010Prop42
 90
       50
102
RTVSPost2010PropOp42
 70
     1
102
RTVSPost2010Prop43
 90
        3
102
RTVSPost2010PropOp43
 70
     1
102
RTVSPost2010Prop44ColorIndex
 90
        5
102
RTVSPost2010Prop44ColorRGB
 90
      255
102
RTVSPost2010PropOp44
 70
     1
102
RTVSPost2010Prop45
280
     0
102
RTVSPost2010PropOp45
 70
     1
102
RTVSPost2010Prop46
 90
       50
102
RTVSPost2010PropOp46
 70
     1
102
RTVSPost2010Prop47
 90
       50
102
RTVSPost2010PropOp47
 70
     1
102
RTVSPost2010Prop48
 90
       50
102
RTVSPost2010PropOp48
 70
     1
102
RTVSPost2010Prop49
280
     0
102
RTVSPost2010PropOp49
 70
     1
102
RTVSPost2010Prop50
 90
       50
102
RTVSPost2010PropOp50
 70
     1
102
RTVSPost2010Prop51ColorIndex
 90
      256
102
RTVSPost2010Prop51ColorRGB
 90
-16777216
102
RTVSPost2010PropOp51
 70
     0
102
RTVSPost2010Prop52
140
1.0
102
RTVSPost2010PropOp52
 70
     0
102
RTVSPost2010Prop53
 90
        2
102
RTVSPost2010PropOp53
 70
     1
102
RTVSPost2010Prop54
  1
strokes_ogs.tif
102
RTVSPost2010PropOp54
 70
     1
102
RTVSPost2010Prop55
280
     0
102
RTVSPost2010PropOp55
 70
     1
102
RTVSPost2010Prop56
140
1.0
102
RTVSPost2010PropOp56
 70
     1
102
RTVSPost2010Prop57
140
1.0
102
RTVSPost2010PropOp57
 70
     1
  0
XRECORD
  5
381
102
{ACAD_REACTORS
330
380
102
}
330
380
100
AcDbXrecord
280
     1
102
RTVSPropertyOp0
 70
     1
102
RTVSPropertyOp1
 70
     1
102
RTVSPropertyOp2
 70
     1
102
RTVSPropertyOp3
 70
     1
102
RTVSPropertyOp4
 70
     1
102
RTVSPropertyOp5
 70
     1
102
RTVSPropertyOp6
 70
     1
102
RTVSPropertyOp7
 70
     1
102
RTVSPropertyOp8
 70
     1
102
RTVSPropertyOp9
 70
     1
102
RTVSPropertyOp10
 70
     1
102
RTVSPropertyOp11
 70
     1
102
RTVSPropertyOp12
 70
     1
102
RTVSPropertyOp13
 70
     1
102
RTVSPropertyOp14
 70
     1
102
RTVSPropertyOp15
 70
     1
102
RTVSPropertyOp16
 70
     1
102
RTVSPropertyOp17
 70
     1
102
RTVSPropertyOp18
 70
     1
102
RTVSPropertyOp19
 70
     1
102
RTVSPropertyOp20
 70
     1
102
RTVSPropertyOp21
 70
     1
102
RTVSPropertyOp22
 70
     1
102
RTVSPropertyOp23
 70
     1
102
RTVSPropertyOp24
 70
     1
102
RTVSPropertyOp25
 70
     1
102
RTVSPropertyOp26
 70
     1
102
RTVSPropertyOp27
 70
     1
102
RTVSPropertyOp28
 70
     1
102
RTVSPropertyOp29
 70
     1
102
RTVSPropertyOp30
 70
     1
102
RTVSPropertyOp31
 70
     1
102
RTVSPropertyOp32
 70
     1
102
RTVSPropertyOp33
 70
     1
102
RTVSPropertyOp34
 70
     1
102
RTVSPropertyOp35
 70
     1
102
RTVSPropertyOp36
 70
     1
102
RTVSPropertyOp37
 70
     1
102
RTVSPropertyOp38
 70
     1
102
RTVSPropertyOp39
 70
     1
102
RTVSPropertyOp40
 70
     1
102
RTVSPropertyOp41
 70
     1
102
RTVSPropertyOp42
 70
     1
102
RTVSPropertyOp43
 70
     1
102
RTVSPropertyOp44
 70
     1
102
RTVSPropertyOp45
 70
     1
102
RTVSPropertyOp46
 70
     1
102
RTVSPropertyOp47
 70
     1
102
RTVSPropertyOp48
 70
     1
102
RTVSPropertyOp49
 70
     1
102
RTVSPropertyOp50
 70
     1
102
RTVSPropertyOp51
 70
     0
102
RTVSPropertyOp52
 70
     0
102
RTVSPropertyOp53
 70
     1
102
RTVSPropertyOp54
 70
     1
102
RTVSPropertyOp55
 70
     1
102
RTVSPropertyOp56
 70
     1
102
RTVSPropertyOp57
 70
     1
102
RTVSPost2010Prop28
280
     0
102
RTVSPost2010PropOp28
 70
     1
102
RTVSPost2010Prop29
280
     1
102
RTVSPost2010PropOp29
 70
     1
102
RTVSPost2010Prop30
280
     1
102
RTVSPost2010PropOp30
 70
     1
102
RTVSPost2010Prop31
280
     0
102
RTVSPost2010PropOp31
 70
     1
102
RTVSPost2010Prop32
280
     0
102
RTVSPost2010PropOp32
 70
     1
102
RTVSPost2010Prop33
280
     0
102
RTVSPost2010PropOp33
 70
     1
102
RTVSPost2010Prop34
280
     0
102
RTVSPost2010PropOp34
 70
     1
102
RTVSPost2010Prop35
280
     0
102
RTVSPost2010PropOp35
 70
     1
102
RTVSPost2010Prop36
280
     0
102
RTVSPost2010PropOp36
 70
     1
102
RTVSPost2010Prop37
 90
       50
102
RTVSPost2010PropOp37
 70
     1
102
RTVSPost2010Prop38
140
0.0
102
RTVSPost2010PropOp38
 70
     1
102
RTVSPost2010Prop39
140
1.0
102
RTVSPost2010PropOp39
 70
     1
102
RTVSPost2010Prop40
 90
        0
102
RTVSPost2010PropOp40
 70
     1
102
RTVSPost2010Prop41ColorIndex
 90
       18
102
RTVSPost2010Prop41ColorRGB
 90
        0
102
RTVSPost2010PropOp41
 70
     1
102
RTVSPost2010Prop42
 90
       50
102
RTVSPost2010PropOp42
 70
     1
102
RTVSPost2010Prop43
 90
        3
102
RTVSPost2010PropOp43
 70
     1
102
RTVSPost2010Prop44ColorIndex
 90
        5
102
RTVSPost2010Prop44ColorRGB
 90
      255
102
RTVSPost2010PropOp44
 70
     1
102
RTVSPost2010Prop45
280
     0
102
RTVSPost2010PropOp45
 70
     1
102
RTVSPost2010Prop46
 90
       50
102
RTVSPost2010PropOp46
 70
     1
102
RTVSPost2010Prop47
 90
       50
102
RTVSPost2010PropOp47
 70
     1
102
RTVSPost2010Prop48
 90
       50
102
RTVSPost2010PropOp48
 70
     1
102
RTVSPost2010Prop49
280
     0
102
RTVSPost2010PropOp49
 70
     1
102
RTVSPost2010Prop50
 90
       50
102
RTVSPost2010PropOp50
 70
     1
102
RTVSPost2010Prop51ColorIndex
 90
      256
102
RTVSPost2010Prop51ColorRGB
 90
-16777216
102
RTVSPost2010PropOp51
 70
     0
102
RTVSPost2010Prop52
140
1.0
102
RTVSPost2010PropOp52
 70
     0
102
RTVSPost2010Prop53
 90
        2
102
RTVSPost2010PropOp53
 70
     1
102
RTVSPost2010Prop54
  1
strokes_ogs.tif
102
RTVSPost2010PropOp54
 70
     1
102
RTVSPost2010Prop55
280
     0
102
RTVSPost2010PropOp55
 70
     1
102
RTVSPost2010Prop56
140
1.0
102
RTVSPost2010PropOp56
 70
     1
102
RTVSPost2010Prop57
140
1.0
102
RTVSPost2010PropOp57
 70
     1
  0
XRECORD
  5
37F
102
{ACAD_REACTORS
330
37E
102
}
330
37E
100
AcDbXrecord
280
     1
102
RTVSPropertyOp0
 70
     1
102
RTVSPropertyOp1
 70
     1
102
RTVSPropertyOp2
 70
     1
102
RTVSPropertyOp3
 70
     1
102
RTVSPropertyOp4
 70
     1
102
RTVSPropertyOp5
 70
     1
102
RTVSPropertyOp6
 70
     1
102
RTVSPropertyOp7
 70
     1
102
RTVSPropertyOp8
 70
     1
102
RTVSPropertyOp9
 70
     1
102
RTVSPropertyOp10
 70
     1
102
RTVSPropertyOp11
 70
     1
102
RTVSPropertyOp12
 70
     1
102
RTVSPropertyOp13
 70
     1
102
RTVSPropertyOp14
 70
     1
102
RTVSPropertyOp15
 70
     1
102
RTVSPropertyOp16
 70
     1
102
RTVSPropertyOp17
 70
     1
102
RTVSPropertyOp18
 70
     1
102
RTVSPropertyOp19
 70
     1
102
RTVSPropertyOp20
 70
     1
102
RTVSPropertyOp21
 70
     1
102
RTVSPropertyOp22
 70
     1
102
RTVSPropertyOp23
 70
     1
102
RTVSPropertyOp24
 70
     1
102
RTVSPropertyOp25
 70
     1
102
RTVSPropertyOp26
 70
     1
102
RTVSPropertyOp27
 70
     1
102
RTVSPropertyOp28
 70
     1
102
RTVSPropertyOp29
 70
     1
102
RTVSPropertyOp30
 70
     1
102
RTVSPropertyOp31
 70
     1
102
RTVSPropertyOp32
 70
     1
102
RTVSPropertyOp33
 70
     1
102
RTVSPropertyOp34
 70
     1
102
RTVSPropertyOp35
 70
     1
102
RTVSPropertyOp36
 70
     1
102
RTVSPropertyOp37
 70
     1
102
RTVSPropertyOp38
 70
     1
102
RTVSPropertyOp39
 70
     1
102
RTVSPropertyOp40
 70
     1
102
RTVSPropertyOp41
 70
     1
102
RTVSPropertyOp42
 70
     1
102
RTVSPropertyOp43
 70
     1
102
RTVSPropertyOp44
 70
     1
102
RTVSPropertyOp45
 70
     1
102
RTVSPropertyOp46
 70
     1
102
RTVSPropertyOp47
 70
     1
102
RTVSPropertyOp48
 70
     1
102
RTVSPropertyOp49
 70
     1
102
RTVSPropertyOp50
 70
     1
102
RTVSPropertyOp51
 70
     0
102
RTVSPropertyOp52
 70
     0
102
RTVSPropertyOp53
 70
     1
102
RTVSPropertyOp54
 70
     1
102
RTVSPropertyOp55
 70
     1
102
RTVSPropertyOp56
 70
     1
102
RTVSPropertyOp57
 70
     1
102
RTVSPost2010Prop28
280
     0
102
RTVSPost2010PropOp28
 70
     1
102
RTVSPost2010Prop29
280
     1
102
RTVSPost2010PropOp29
 70
     1
102
RTVSPost2010Prop30
280
     1
102
RTVSPost2010PropOp30
 70
     1
102
RTVSPost2010Prop31
280
     0
102
RTVSPost2010PropOp31
 70
     1
102
RTVSPost2010Prop32
280
     0
102
RTVSPost2010PropOp32
 70
     1
102
RTVSPost2010Prop33
280
     0
102
RTVSPost2010PropOp33
 70
     1
102
RTVSPost2010Prop34
280
     0
102
RTVSPost2010PropOp34
 70
     1
102
RTVSPost2010Prop35
280
     0
102
RTVSPost2010PropOp35
 70
     1
102
RTVSPost2010Prop36
280
     0
102
RTVSPost2010PropOp36
 70
     1
102
RTVSPost2010Prop37
 90
       50
102
RTVSPost2010PropOp37
 70
     1
102
RTVSPost2010Prop38
140
0.0
102
RTVSPost2010PropOp38
 70
     1
102
RTVSPost2010Prop39
140
1.0
102
RTVSPost2010PropOp39
 70
     1
102
RTVSPost2010Prop40
 90
        0
102
RTVSPost2010PropOp40
 70
     1
102
RTVSPost2010Prop41ColorIndex
 90
       18
102
RTVSPost2010Prop41ColorRGB
 90
        0
102
RTVSPost2010PropOp41
 70
     1
102
RTVSPost2010Prop42
 90
       50
102
RTVSPost2010PropOp42
 70
     1
102
RTVSPost2010Prop43
 90
        3
102
RTVSPost2010PropOp43
 70
     1
102
RTVSPost2010Prop44ColorIndex
 90
        5
102
RTVSPost2010Prop44ColorRGB
 90
      255
102
RTVSPost2010PropOp44
 70
     1
102
RTVSPost2010Prop45
280
     0
102
RTVSPost2010PropOp45
 70
     1
102
RTVSPost2010Prop46
 90
       50
102
RTVSPost2010PropOp46
 70
     1
102
RTVSPost2010Prop47
 90
       50
102
RTVSPost2010PropOp47
 70
     1
102
RTVSPost2010Prop48
 90
       50
102
RTVSPost2010PropOp48
 70
     1
102
RTVSPost2010Prop49
280
     0
102
RTVSPost2010PropOp49
 70
     1
102
RTVSPost2010Prop50
 90
       50
102
RTVSPost2010PropOp50
 70
     1
102
RTVSPost2010Prop51ColorIndex
 90
      256
102
RTVSPost2010Prop51ColorRGB
 90
-16777216
102
RTVSPost2010PropOp51
 70
     0
102
RTVSPost2010Prop52
140
1.0
102
RTVSPost2010PropOp52
 70
     0
102
RTVSPost2010Prop53
 90
        2
102
RTVSPost2010PropOp53
 70
     1
102
RTVSPost2010Prop54
  1
strokes_ogs.tif
102
RTVSPost2010PropOp54
 70
     1
102
RTVSPost2010Prop55
280
     0
102
RTVSPost2010PropOp55
 70
     1
102
RTVSPost2010Prop56
140
1.0
102
RTVSPost2010PropOp56
 70
     1
102
RTVSPost2010Prop57
140
1.0
102
RTVSPost2010PropOp57
 70
     1
  0
XRECORD
  5
379
102
{ACAD_REACTORS
330
378
102
}
330
378
100
AcDbXrecord
280
     1
102
RTVSPropertyOp0
 70
     1
102
RTVSPropertyOp1
 70
     1
102
RTVSPropertyOp2
 70
     1
102
RTVSPropertyOp3
 70
     1
102
RTVSPropertyOp4
 70
     1
102
RTVSPropertyOp5
 70
     1
102
RTVSPropertyOp6
 70
     1
102
RTVSPropertyOp7
 70
     1
102
RTVSPropertyOp8
 70
     1
102
RTVSPropertyOp9
 70
     1
102
RTVSPropertyOp10
 70
     1
102
RTVSPropertyOp11
 70
     1
102
RTVSPropertyOp12
 70
     1
102
RTVSPropertyOp13
 70
     1
102
RTVSPropertyOp14
 70
     1
102
RTVSPropertyOp15
 70
     1
102
RTVSPropertyOp16
 70
     1
102
RTVSPropertyOp17
 70
     1
102
RTVSPropertyOp18
 70
     1
102
RTVSPropertyOp19
 70
     1
102
RTVSPropertyOp20
 70
     1
102
RTVSPropertyOp21
 70
     1
102
RTVSPropertyOp22
 70
     1
102
RTVSPropertyOp23
 70
     1
102
RTVSPropertyOp24
 70
     1
102
RTVSPropertyOp25
 70
     1
102
RTVSPropertyOp26
 70
     1
102
RTVSPropertyOp27
 70
     1
102
RTVSPropertyOp28
 70
     1
102
RTVSPropertyOp29
 70
     1
102
RTVSPropertyOp30
 70
     1
102
RTVSPropertyOp31
 70
     1
102
RTVSPropertyOp32
 70
     1
102
RTVSPropertyOp33
 70
     1
102
RTVSPropertyOp34
 70
     1
102
RTVSPropertyOp35
 70
     1
102
RTVSPropertyOp36
 70
     1
102
RTVSPropertyOp37
 70
     1
102
RTVSPropertyOp38
 70
     1
102
RTVSPropertyOp39
 70
     1
102
RTVSPropertyOp40
 70
     1
102
RTVSPropertyOp41
 70
     1
102
RTVSPropertyOp42
 70
     1
102
RTVSPropertyOp43
 70
     1
102
RTVSPropertyOp44
 70
     1
102
RTVSPropertyOp45
 70
     1
102
RTVSPropertyOp46
 70
     1
102
RTVSPropertyOp47
 70
     1
102
RTVSPropertyOp48
 70
     1
102
RTVSPropertyOp49
 70
     1
102
RTVSPropertyOp50
 70
     1
102
RTVSPropertyOp51
 70
     0
102
RTVSPropertyOp52
 70
     0
102
RTVSPropertyOp53
 70
     1
102
RTVSPropertyOp54
 70
     1
102
RTVSPropertyOp55
 70
     1
102
RTVSPropertyOp56
 70
     1
102
RTVSPropertyOp57
 70
     1
102
RTVSPost2010Prop28
280
     0
102
RTVSPost2010PropOp28
 70
     1
102
RTVSPost2010Prop29
280
     1
102
RTVSPost2010PropOp29
 70
     1
102
RTVSPost2010Prop30
280
     1
102
RTVSPost2010PropOp30
 70
     1
102
RTVSPost2010Prop31
280
     0
102
RTVSPost2010PropOp31
 70
     1
102
RTVSPost2010Prop32
280
     0
102
RTVSPost2010PropOp32
 70
     1
102
RTVSPost2010Prop33
280
     0
102
RTVSPost2010PropOp33
 70
     1
102
RTVSPost2010Prop34
280
     0
102
RTVSPost2010PropOp34
 70
     1
102
RTVSPost2010Prop35
280
     0
102
RTVSPost2010PropOp35
 70
     1
102
RTVSPost2010Prop36
280
     0
102
RTVSPost2010PropOp36
 70
     1
102
RTVSPost2010Prop37
 90
       50
102
RTVSPost2010PropOp37
 70
     1
102
RTVSPost2010Prop38
140
0.0
102
RTVSPost2010PropOp38
 70
     1
102
RTVSPost2010Prop39
140
1.0
102
RTVSPost2010PropOp39
 70
     1
102
RTVSPost2010Prop40
 90
        0
102
RTVSPost2010PropOp40
 70
     1
102
RTVSPost2010Prop41ColorIndex
 90
       18
102
RTVSPost2010Prop41ColorRGB
 90
        0
102
RTVSPost2010PropOp41
 70
     1
102
RTVSPost2010Prop42
 90
       50
102
RTVSPost2010PropOp42
 70
     1
102
RTVSPost2010Prop43
 90
        3
102
RTVSPost2010PropOp43
 70
     1
102
RTVSPost2010Prop44ColorIndex
 90
        5
102
RTVSPost2010Prop44ColorRGB
 90
      255
102
RTVSPost2010PropOp44
 70
     1
102
RTVSPost2010Prop45
280
     0
102
RTVSPost2010PropOp45
 70
     1
102
RTVSPost2010Prop46
 90
       50
102
RTVSPost2010PropOp46
 70
     1
102
RTVSPost2010Prop47
 90
       50
102
RTVSPost2010PropOp47
 70
     1
102
RTVSPost2010Prop48
 90
       50
102
RTVSPost2010PropOp48
 70
     1
102
RTVSPost2010Prop49
280
     0
102
RTVSPost2010PropOp49
 70
     1
102
RTVSPost2010Prop50
 90
       50
102
RTVSPost2010PropOp50
 70
     1
102
RTVSPost2010Prop51ColorIndex
 90
      256
102
RTVSPost2010Prop51ColorRGB
 90
-16777216
102
RTVSPost2010PropOp51
 70
     0
102
RTVSPost2010Prop52
140
1.0
102
RTVSPost2010PropOp52
 70
     0
102
RTVSPost2010Prop53
 90
        2
102
RTVSPost2010PropOp53
 70
     1
102
RTVSPost2010Prop54
  1
strokes_ogs.tif
102
RTVSPost2010PropOp54
 70
     1
102
RTVSPost2010Prop55
280
     0
102
RTVSPost2010PropOp55
 70
     1
102
RTVSPost2010Prop56
140
1.0
102
RTVSPost2010PropOp56
 70
     1
102
RTVSPost2010Prop57
140
1.0
102
RTVSPost2010PropOp57
 70
     1
  0
XRECORD
  5
37B
102
{ACAD_REACTORS
330
37A
102
}
330
37A
100
AcDbXrecord
280
     1
102
RTVSPropertyOp0
 70
     1
102
RTVSPropertyOp1
 70
     1
102
RTVSPropertyOp2
 70
     1
102
RTVSPropertyOp3
 70
     1
102
RTVSPropertyOp4
 70
     1
102
RTVSPropertyOp5
 70
     1
102
RTVSPropertyOp6
 70
     1
102
RTVSPropertyOp7
 70
     1
102
RTVSPropertyOp8
 70
     1
102
RTVSPropertyOp9
 70
     1
102
RTVSPropertyOp10
 70
     1
102
RTVSPropertyOp11
 70
     1
102
RTVSPropertyOp12
 70
     1
102
RTVSPropertyOp13
 70
     1
102
RTVSPropertyOp14
 70
     1
102
RTVSPropertyOp15
 70
     1
102
RTVSPropertyOp16
 70
     1
102
RTVSPropertyOp17
 70
     1
102
RTVSPropertyOp18
 70
     1
102
RTVSPropertyOp19
 70
     1
102
RTVSPropertyOp20
 70
     1
102
RTVSPropertyOp21
 70
     1
102
RTVSPropertyOp22
 70
     1
102
RTVSPropertyOp23
 70
     1
102
RTVSPropertyOp24
 70
     1
102
RTVSPropertyOp25
 70
     1
102
RTVSPropertyOp26
 70
     1
102
RTVSPropertyOp27
 70
     1
102
RTVSPropertyOp28
 70
     1
102
RTVSPropertyOp29
 70
     1
102
RTVSPropertyOp30
 70
     1
102
RTVSPropertyOp31
 70
     1
102
RTVSPropertyOp32
 70
     1
102
RTVSPropertyOp33
 70
     1
102
RTVSPropertyOp34
 70
     1
102
RTVSPropertyOp35
 70
     1
102
RTVSPropertyOp36
 70
     1
102
RTVSPropertyOp37
 70
     1
102
RTVSPropertyOp38
 70
     1
102
RTVSPropertyOp39
 70
     1
102
RTVSPropertyOp40
 70
     1
102
RTVSPropertyOp41
 70
     1
102
RTVSPropertyOp42
 70
     1
102
RTVSPropertyOp43
 70
     1
102
RTVSPropertyOp44
 70
     1
102
RTVSPropertyOp45
 70
     1
102
RTVSPropertyOp46
 70
     1
102
RTVSPropertyOp47
 70
     1
102
RTVSPropertyOp48
 70
     1
102
RTVSPropertyOp49
 70
     1
102
RTVSPropertyOp50
 70
     1
102
RTVSPropertyOp51
 70
     0
102
RTVSPropertyOp52
 70
     0
102
RTVSPropertyOp53
 70
     1
102
RTVSPropertyOp54
 70
     1
102
RTVSPropertyOp55
 70
     1
102
RTVSPropertyOp56
 70
     1
102
RTVSPropertyOp57
 70
     1
102
RTVSPost2010Prop28
280
     0
102
RTVSPost2010PropOp28
 70
     1
102
RTVSPost2010Prop29
280
     1
102
RTVSPost2010PropOp29
 70
     1
102
RTVSPost2010Prop30
280
     1
102
RTVSPost2010PropOp30
 70
     1
102
RTVSPost2010Prop31
280
     0
102
RTVSPost2010PropOp31
 70
     1
102
RTVSPost2010Prop32
280
     0
102
RTVSPost2010PropOp32
 70
     1
102
RTVSPost2010Prop33
280
     0
102
RTVSPost2010PropOp33
 70
     1
102
RTVSPost2010Prop34
280
     0
102
RTVSPost2010PropOp34
 70
     1
102
RTVSPost2010Prop35
280
     0
102
RTVSPost2010PropOp35
 70
     1
102
RTVSPost2010Prop36
280
     0
102
RTVSPost2010PropOp36
 70
     1
102
RTVSPost2010Prop37
 90
       50
102
RTVSPost2010PropOp37
 70
     1
102
RTVSPost2010Prop38
140
0.0
102
RTVSPost2010PropOp38
 70
     1
102
RTVSPost2010Prop39
140
1.0
102
RTVSPost2010PropOp39
 70
     1
102
RTVSPost2010Prop40
 90
        0
102
RTVSPost2010PropOp40
 70
     1
102
RTVSPost2010Prop41ColorIndex
 90
       18
102
RTVSPost2010Prop41ColorRGB
 90
        0
102
RTVSPost2010PropOp41
 70
     1
102
RTVSPost2010Prop42
 90
       50
102
RTVSPost2010PropOp42
 70
     1
102
RTVSPost2010Prop43
 90
        3
102
RTVSPost2010PropOp43
 70
     1
102
RTVSPost2010Prop44ColorIndex
 90
        5
102
RTVSPost2010Prop44ColorRGB
 90
      255
102
RTVSPost2010PropOp44
 70
     1
102
RTVSPost2010Prop45
280
     0
102
RTVSPost2010PropOp45
 70
     1
102
RTVSPost2010Prop46
 90
       50
102
RTVSPost2010PropOp46
 70
     1
102
RTVSPost2010Prop47
 90
       50
102
RTVSPost2010PropOp47
 70
     1
102
RTVSPost2010Prop48
 90
       50
102
RTVSPost2010PropOp48
 70
     1
102
RTVSPost2010Prop49
280
     0
102
RTVSPost2010PropOp49
 70
     1
102
RTVSPost2010Prop50
 90
       50
102
RTVSPost2010PropOp50
 70
     1
102
RTVSPost2010Prop51ColorIndex
 90
      256
102
RTVSPost2010Prop51ColorRGB
 90
-16777216
102
RTVSPost2010PropOp51
 70
     0
102
RTVSPost2010Prop52
140
1.0
102
RTVSPost2010PropOp52
 70
     0
102
RTVSPost2010Prop53
 90
        2
102
RTVSPost2010PropOp53
 70
     1
102
RTVSPost2010Prop54
  1
strokes_ogs.tif
102
RTVSPost2010PropOp54
 70
     1
102
RTVSPost2010Prop55
280
     0
102
RTVSPost2010PropOp55
 70
     1
102
RTVSPost2010Prop56
140
1.0
102
RTVSPost2010PropOp56
 70
     1
102
RTVSPost2010Prop57
140
1.0
102
RTVSPost2010PropOp57
 70
     1
  0
XRECORD
  5
36B
102
{ACAD_REACTORS
330
36A
102
}
330
36A
100
AcDbXrecord
280
     1
102
RTVSPropertyOp0
 70
     1
102
RTVSPropertyOp1
 70
     1
102
RTVSPropertyOp2
 70
     1
102
RTVSPropertyOp3
 70
     1
102
RTVSPropertyOp4
 70
     1
102
RTVSPropertyOp5
 70
     1
102
RTVSPropertyOp6
 70
     1
102
RTVSPropertyOp7
 70
     1
102
RTVSPropertyOp8
 70
     1
102
RTVSPropertyOp9
 70
     1
102
RTVSPropertyOp10
 70
     1
102
RTVSPropertyOp11
 70
     1
102
RTVSPropertyOp12
 70
     1
102
RTVSPropertyOp13
 70
     1
102
RTVSPropertyOp14
 70
     1
102
RTVSPropertyOp15
 70
     1
102
RTVSPropertyOp16
 70
     1
102
RTVSPropertyOp17
 70
     1
102
RTVSPropertyOp18
 70
     1
102
RTVSPropertyOp19
 70
     1
102
RTVSPropertyOp20
 70
     1
102
RTVSPropertyOp21
 70
     1
102
RTVSPropertyOp22
 70
     1
102
RTVSPropertyOp23
 70
     1
102
RTVSPropertyOp24
 70
     1
102
RTVSPropertyOp25
 70
     1
102
RTVSPropertyOp26
 70
     1
102
RTVSPropertyOp27
 70
     1
102
RTVSPropertyOp28
 70
     1
102
RTVSPropertyOp29
 70
     1
102
RTVSPropertyOp30
 70
     1
102
RTVSPropertyOp31
 70
     1
102
RTVSPropertyOp32
 70
     1
102
RTVSPropertyOp33
 70
     1
102
RTVSPropertyOp34
 70
     1
102
RTVSPropertyOp35
 70
     1
102
RTVSPropertyOp36
 70
     1
102
RTVSPropertyOp37
 70
     1
102
RTVSPropertyOp38
 70
     1
102
RTVSPropertyOp39
 70
     1
102
RTVSPropertyOp40
 70
     1
102
RTVSPropertyOp41
 70
     1
102
RTVSPropertyOp42
 70
     1
102
RTVSPropertyOp43
 70
     1
102
RTVSPropertyOp44
 70
     1
102
RTVSPropertyOp45
 70
     1
102
RTVSPropertyOp46
 70
     1
102
RTVSPropertyOp47
 70
     1
102
RTVSPropertyOp48
 70
     1
102
RTVSPropertyOp49
 70
     1
102
RTVSPropertyOp50
 70
     1
102
RTVSPropertyOp51
 70
     0
102
RTVSPropertyOp52
 70
     0
102
RTVSPropertyOp53
 70
     1
102
RTVSPropertyOp54
 70
     1
102
RTVSPropertyOp55
 70
     1
102
RTVSPropertyOp56
 70
     1
102
RTVSPropertyOp57
 70
     1
102
RTVSPost2010Prop28
280
     0
102
RTVSPost2010PropOp28
 70
     1
102
RTVSPost2010Prop29
280
     1
102
RTVSPost2010PropOp29
 70
     1
102
RTVSPost2010Prop30
280
     1
102
RTVSPost2010PropOp30
 70
     1
102
RTVSPost2010Prop31
280
     0
102
RTVSPost2010PropOp31
 70
     1
102
RTVSPost2010Prop32
280
     0
102
RTVSPost2010PropOp32
 70
     1
102
RTVSPost2010Prop33
280
     0
102
RTVSPost2010PropOp33
 70
     1
102
RTVSPost2010Prop34
280
     0
102
RTVSPost2010PropOp34
 70
     1
102
RTVSPost2010Prop35
280
     0
102
RTVSPost2010PropOp35
 70
     1
102
RTVSPost2010Prop36
280
     0
102
RTVSPost2010PropOp36
 70
     1
102
RTVSPost2010Prop37
 90
       50
102
RTVSPost2010PropOp37
 70
     1
102
RTVSPost2010Prop38
140
0.0
102
RTVSPost2010PropOp38
 70
     1
102
RTVSPost2010Prop39
140
1.0
102
RTVSPost2010PropOp39
 70
     1
102
RTVSPost2010Prop40
 90
        0
102
RTVSPost2010PropOp40
 70
     1
102
RTVSPost2010Prop41ColorIndex
 90
       18
102
RTVSPost2010Prop41ColorRGB
 90
        0
102
RTVSPost2010PropOp41
 70
     1
102
RTVSPost2010Prop42
 90
       50
102
RTVSPost2010PropOp42
 70
     1
102
RTVSPost2010Prop43
 90
        3
102
RTVSPost2010PropOp43
 70
     1
102
RTVSPost2010Prop44ColorIndex
 90
        5
102
RTVSPost2010Prop44ColorRGB
 90
      255
102
RTVSPost2010PropOp44
 70
     1
102
RTVSPost2010Prop45
280
     0
102
RTVSPost2010PropOp45
 70
     1
102
RTVSPost2010Prop46
 90
       50
102
RTVSPost2010PropOp46
 70
     1
102
RTVSPost2010Prop47
 90
       50
102
RTVSPost2010PropOp47
 70
     1
102
RTVSPost2010Prop48
 90
       50
102
RTVSPost2010PropOp48
 70
     1
102
RTVSPost2010Prop49
280
     0
102
RTVSPost2010PropOp49
 70
     1
102
RTVSPost2010Prop50
 90
       50
102
RTVSPost2010PropOp50
 70
     1
102
RTVSPost2010Prop51ColorIndex
 90
      256
102
RTVSPost2010Prop51ColorRGB
 90
-16777216
102
RTVSPost2010PropOp51
 70
     0
102
RTVSPost2010Prop52
140
1.0
102
RTVSPost2010PropOp52
 70
     0
102
RTVSPost2010Prop53
 90
        2
102
RTVSPost2010PropOp53
 70
     1
102
RTVSPost2010Prop54
  1
strokes_ogs.tif
102
RTVSPost2010PropOp54
 70
     1
102
RTVSPost2010Prop55
280
     0
102
RTVSPost2010PropOp55
 70
     1
102
RTVSPost2010Prop56
140
1.0
102
RTVSPost2010PropOp56
 70
     1
102
RTVSPost2010Prop57
140
1.0
102
RTVSPost2010PropOp57
 70
     1
  0
XRECORD
  5
35D
102
{ACAD_REACTORS
330
35C
102
}
330
35C
100
AcDbXrecord
280
     1
102
RTVSPropertyOp0
 70
     1
102
RTVSPropertyOp1
 70
     1
102
RTVSPropertyOp2
 70
     1
102
RTVSPropertyOp3
 70
     1
102
RTVSPropertyOp4
 70
     1
102
RTVSPropertyOp5
 70
     1
102
RTVSPropertyOp6
 70
     1
102
RTVSPropertyOp7
 70
     1
102
RTVSPropertyOp8
 70
     1
102
RTVSPropertyOp9
 70
     1
102
RTVSPropertyOp10
 70
     1
102
RTVSPropertyOp11
 70
     1
102
RTVSPropertyOp12
 70
     1
102
RTVSPropertyOp13
 70
     1
102
RTVSPropertyOp14
 70
     1
102
RTVSPropertyOp15
 70
     1
102
RTVSPropertyOp16
 70
     1
102
RTVSPropertyOp17
 70
     1
102
RTVSPropertyOp18
 70
     1
102
RTVSPropertyOp19
 70
     1
102
RTVSPropertyOp20
 70
     1
102
RTVSPropertyOp21
 70
     1
102
RTVSPropertyOp22
 70
     1
102
RTVSPropertyOp23
 70
     1
102
RTVSPropertyOp24
 70
     1
102
RTVSPropertyOp25
 70
     1
102
RTVSPropertyOp26
 70
     1
102
RTVSPropertyOp27
 70
     1
102
RTVSPropertyOp28
 70
     1
102
RTVSPropertyOp29
 70
     1
102
RTVSPropertyOp30
 70
     1
102
RTVSPropertyOp31
 70
     1
102
RTVSPropertyOp32
 70
     1
102
RTVSPropertyOp33
 70
     1
102
RTVSPropertyOp34
 70
     1
102
RTVSPropertyOp35
 70
     1
102
RTVSPropertyOp36
 70
     1
102
RTVSPropertyOp37
 70
     1
102
RTVSPropertyOp38
 70
     1
102
RTVSPropertyOp39
 70
     1
102
RTVSPropertyOp40
 70
     1
102
RTVSPropertyOp41
 70
     1
102
RTVSPropertyOp42
 70
     1
102
RTVSPropertyOp43
 70
     1
102
RTVSPropertyOp44
 70
     1
102
RTVSPropertyOp45
 70
     1
102
RTVSPropertyOp46
 70
     1
102
RTVSPropertyOp47
 70
     1
102
RTVSPropertyOp48
 70
     1
102
RTVSPropertyOp49
 70
     1
102
RTVSPropertyOp50
 70
     1
102
RTVSPropertyOp51
 70
     0
102
RTVSPropertyOp52
 70
     0
102
RTVSPropertyOp53
 70
     1
102
RTVSPropertyOp54
 70
     1
102
RTVSPropertyOp55
 70
     1
102
RTVSPropertyOp56
 70
     1
102
RTVSPropertyOp57
 70
     1
102
RTVSPost2010Prop28
280
     0
102
RTVSPost2010PropOp28
 70
     1
102
RTVSPost2010Prop29
280
     1
102
RTVSPost2010PropOp29
 70
     1
102
RTVSPost2010Prop30
280
     1
102
RTVSPost2010PropOp30
 70
     1
102
RTVSPost2010Prop31
280
     0
102
RTVSPost2010PropOp31
 70
     1
102
RTVSPost2010Prop32
280
     0
102
RTVSPost2010PropOp32
 70
     1
102
RTVSPost2010Prop33
280
     0
102
RTVSPost2010PropOp33
 70
     1
102
RTVSPost2010Prop34
280
     0
102
RTVSPost2010PropOp34
 70
     1
102
RTVSPost2010Prop35
280
     0
102
RTVSPost2010PropOp35
 70
     1
102
RTVSPost2010Prop36
280
     0
102
RTVSPost2010PropOp36
 70
     1
102
RTVSPost2010Prop37
 90
       50
102
RTVSPost2010PropOp37
 70
     1
102
RTVSPost2010Prop38
140
0.0
102
RTVSPost2010PropOp38
 70
     1
102
RTVSPost2010Prop39
140
1.0
102
RTVSPost2010PropOp39
 70
     1
102
RTVSPost2010Prop40
 90
        0
102
RTVSPost2010PropOp40
 70
     1
102
RTVSPost2010Prop41ColorIndex
 90
       18
102
RTVSPost2010Prop41ColorRGB
 90
        0
102
RTVSPost2010PropOp41
 70
     1
102
RTVSPost2010Prop42
 90
       50
102
RTVSPost2010PropOp42
 70
     1
102
RTVSPost2010Prop43
 90
        3
102
RTVSPost2010PropOp43
 70
     1
102
RTVSPost2010Prop44ColorIndex
 90
        5
102
RTVSPost2010Prop44ColorRGB
 90
      255
102
RTVSPost2010PropOp44
 70
     1
102
RTVSPost2010Prop45
280
     0
102
RTVSPost2010PropOp45
 70
     1
102
RTVSPost2010Prop46
 90
       50
102
RTVSPost2010PropOp46
 70
     1
102
RTVSPost2010Prop47
 90
       50
102
RTVSPost2010PropOp47
 70
     1
102
RTVSPost2010Prop48
 90
       50
102
RTVSPost2010PropOp48
 70
     1
102
RTVSPost2010Prop49
280
     0
102
RTVSPost2010PropOp49
 70
     1
102
RTVSPost2010Prop50
 90
       50
102
RTVSPost2010PropOp50
 70
     1
102
RTVSPost2010Prop51ColorIndex
 90
      256
102
RTVSPost2010Prop51ColorRGB
 90
-16777216
102
RTVSPost2010PropOp51
 70
     0
102
RTVSPost2010Prop52
140
1.0
102
RTVSPost2010PropOp52
 70
     0
102
RTVSPost2010Prop53
 90
        2
102
RTVSPost2010PropOp53
 70
     1
102
RTVSPost2010Prop54
  1
strokes_ogs.tif
102
RTVSPost2010PropOp54
 70
     1
102
RTVSPost2010Prop55
280
     0
102
RTVSPost2010PropOp55
 70
     1
102
RTVSPost2010Prop56
140
1.0
102
RTVSPost2010PropOp56
 70
     1
102
RTVSPost2010Prop57
140
1.0
102
RTVSPost2010PropOp57
 70
     1
  0
XRECORD
  5
37D
102
{ACAD_REACTORS
330
37C
102
}
330
37C
100
AcDbXrecord
280
     1
102
RTVSPropertyOp0
 70
     1
102
RTVSPropertyOp1
 70
     1
102
RTVSPropertyOp2
 70
     1
102
RTVSPropertyOp3
 70
     1
102
RTVSPropertyOp4
 70
     1
102
RTVSPropertyOp5
 70
     1
102
RTVSPropertyOp6
 70
     1
102
RTVSPropertyOp7
 70
     1
102
RTVSPropertyOp8
 70
     1
102
RTVSPropertyOp9
 70
     1
102
RTVSPropertyOp10
 70
     1
102
RTVSPropertyOp11
 70
     1
102
RTVSPropertyOp12
 70
     1
102
RTVSPropertyOp13
 70
     1
102
RTVSPropertyOp14
 70
     1
102
RTVSPropertyOp15
 70
     1
102
RTVSPropertyOp16
 70
     1
102
RTVSPropertyOp17
 70
     1
102
RTVSPropertyOp18
 70
     1
102
RTVSPropertyOp19
 70
     1
102
RTVSPropertyOp20
 70
     1
102
RTVSPropertyOp21
 70
     1
102
RTVSPropertyOp22
 70
     1
102
RTVSPropertyOp23
 70
     1
102
RTVSPropertyOp24
 70
     1
102
RTVSPropertyOp25
 70
     1
102
RTVSPropertyOp26
 70
     1
102
RTVSPropertyOp27
 70
     1
102
RTVSPropertyOp28
 70
     1
102
RTVSPropertyOp29
 70
     1
102
RTVSPropertyOp30
 70
     1
102
RTVSPropertyOp31
 70
     1
102
RTVSPropertyOp32
 70
     1
102
RTVSPropertyOp33
 70
     1
102
RTVSPropertyOp34
 70
     1
102
RTVSPropertyOp35
 70
     1
102
RTVSPropertyOp36
 70
     1
102
RTVSPropertyOp37
 70
     1
102
RTVSPropertyOp38
 70
     1
102
RTVSPropertyOp39
 70
     1
102
RTVSPropertyOp40
 70
     1
102
RTVSPropertyOp41
 70
     1
102
RTVSPropertyOp42
 70
     1
102
RTVSPropertyOp43
 70
     1
102
RTVSPropertyOp44
 70
     1
102
RTVSPropertyOp45
 70
     1
102
RTVSPropertyOp46
 70
     1
102
RTVSPropertyOp47
 70
     1
102
RTVSPropertyOp48
 70
     1
102
RTVSPropertyOp49
 70
     1
102
RTVSPropertyOp50
 70
     1
102
RTVSPropertyOp51
 70
     0
102
RTVSPropertyOp52
 70
     0
102
RTVSPropertyOp53
 70
     1
102
RTVSPropertyOp54
 70
     1
102
RTVSPropertyOp55
 70
     1
102
RTVSPropertyOp56
 70
     1
102
RTVSPropertyOp57
 70
     1
102
RTVSPost2010Prop28
280
     0
102
RTVSPost2010PropOp28
 70
     1
102
RTVSPost2010Prop29
280
     1
102
RTVSPost2010PropOp29
 70
     1
102
RTVSPost2010Prop30
280
     1
102
RTVSPost2010PropOp30
 70
     1
102
RTVSPost2010Prop31
280
     0
102
RTVSPost2010PropOp31
 70
     1
102
RTVSPost2010Prop32
280
     0
102
RTVSPost2010PropOp32
 70
     1
102
RTVSPost2010Prop33
280
     0
102
RTVSPost2010PropOp33
 70
     1
102
RTVSPost2010Prop34
280
     0
102
RTVSPost2010PropOp34
 70
     1
102
RTVSPost2010Prop35
280
     0
102
RTVSPost2010PropOp35
 70
     1
102
RTVSPost2010Prop36
280
     0
102
RTVSPost2010PropOp36
 70
     1
102
RTVSPost2010Prop37
 90
       50
102
RTVSPost2010PropOp37
 70
     1
102
RTVSPost2010Prop38
140
0.0
102
RTVSPost2010PropOp38
 70
     1
102
RTVSPost2010Prop39
140
1.0
102
RTVSPost2010PropOp39
 70
     1
102
RTVSPost2010Prop40
 90
        0
102
RTVSPost2010PropOp40
 70
     1
102
RTVSPost2010Prop41ColorIndex
 90
       18
102
RTVSPost2010Prop41ColorRGB
 90
        0
102
RTVSPost2010PropOp41
 70
     1
102
RTVSPost2010Prop42
 90
       50
102
RTVSPost2010PropOp42
 70
     1
102
RTVSPost2010Prop43
 90
        3
102
RTVSPost2010PropOp43
 70
     1
102
RTVSPost2010Prop44ColorIndex
 90
        5
102
RTVSPost2010Prop44ColorRGB
 90
      255
102
RTVSPost2010PropOp44
 70
     1
102
RTVSPost2010Prop45
280
     0
102
RTVSPost2010PropOp45
 70
     1
102
RTVSPost2010Prop46
 90
       50
102
RTVSPost2010PropOp46
 70
     1
102
RTVSPost2010Prop47
 90
       50
102
RTVSPost2010PropOp47
 70
     1
102
RTVSPost2010Prop48
 90
       50
102
RTVSPost2010PropOp48
 70
     1
102
RTVSPost2010Prop49
280
     0
102
RTVSPost2010PropOp49
 70
     1
102
RTVSPost2010Prop50
 90
       50
102
RTVSPost2010PropOp50
 70
     1
102
RTVSPost2010Prop51ColorIndex
 90
      256
102
RTVSPost2010Prop51ColorRGB
 90
-16777216
102
RTVSPost2010PropOp51
 70
     0
102
RTVSPost2010Prop52
140
1.0
102
RTVSPost2010PropOp52
 70
     0
102
RTVSPost2010Prop53
 90
        2
102
RTVSPost2010PropOp53
 70
     1
102
RTVSPost2010Prop54
  1
strokes_ogs.tif
102
RTVSPost2010PropOp54
 70
     1
102
RTVSPost2010Prop55
280
     0
102
RTVSPost2010PropOp55
 70
     1
102
RTVSPost2010Prop56
140
1.0
102
RTVSPost2010PropOp56
 70
     1
102
RTVSPost2010Prop57
140
1.0
102
RTVSPost2010PropOp57
 70
     1
  0
ENDSEC
  0
EOF
