  0
SECTION
  2
HEADER
  9
$ACADVER
  1
AC1018
  9
$ACADMAINTVER
 70
     0
  9
$DWGCODEPAGE
  3
ANSI_932
  9
$INSBASE
 10
0.0
 20
0.0
 30
0.0
  9
$EXTMIN
 10
-420.0
 20
-297.0
 30
0.0
  9
$EXTMAX
 10
420.0
 20
297.0
 30
0.0
  9
$LIMMIN
 10
-420.0
 20
-297.0
  9
$LIMMAX
 10
420.0
 20
297.0
  9
$ORTHOMODE
 70
     0
  9
$REGENMODE
 70
     1
  9
$FILLMODE
 70
     1
  9
$QTEXTMODE
 70
     0
  9
$MIRRTEXT
 70
     1
  9
$LTSCALE
 40
2.0
  9
$ATTMODE
 70
     1
  9
$TEXTSIZE
 40
2.5
  9
$TRACEWID
 40
1.0
  9
$TEXTSTYLE
  7
Standard
  9
$CLAYER
  8
0
  9
$CELTYPE
  6
ByLayer
  9
$CECOLOR
 62
   256
  9
$CELTSCALE
 40
1.0
  9
$DISPSILH
 70
     0
  9
$DIMSCALE
 40
1.0
  9
$DIMASZ
 40
2.5
  9
$DIMEXO
 40
0.625
  9
$DIMDLI
 40
3.75
  9
$DIMRND
 40
0.0
  9
$DIMDLE
 40
0.0
  9
$DIMEXE
 40
1.25
  9
$DIMTP
 40
0.0
  9
$DIMTM
 40
0.0
  9
$DIMTXT
 40
2.5
  9
$DIMCEN
 40
2.5
  9
$DIMTSZ
 40
0.0
  9
$DIMTOL
 70
     0
  9
$DIMLIM
 70
     0
  9
$DIMTIH
 70
     0
  9
$DIMTOH
 70
     0
  9
$DIMSE1
 70
     0
  9
$DIMSE2
 70
     0
  9
$DIMTAD
 70
     1
  9
$DIMZIN
 70
     8
  9
$DIMBLK
  1

  9
$DIMASO
 70
     1
  9
$DIMSHO
 70
     1
  9
$DIMPOST
  1

  9
$DIMAPOST
  1

  9
$DIMALT
 70
     0
  9
$DIMALTD
 70
     3
  9
$DIMALTF
 40
0.03937007874016
  9
$DIMLFAC
 40
1.0
  9
$DIMTOFL
 70
     1
  9
$DIMTVP
 40
0.0
  9
$DIMTIX
 70
     0
  9
$DIMSOXD
 70
     0
  9
$DIMSAH
 70
     0
  9
$DIMBLK1
  1

  9
$DIMBLK2
  1

  9
$DIMSTYLE
  2
ISO-25
  9
$DIMCLRD
 70
     0
  9
$DIMCLRE
 70
     0
  9
$DIMCLRT
 70
     0
  9
$DIMTFAC
 40
1.0
  9
$DIMGAP
 40
0.625
  9
$DIMJUST
 70
     0
  9
$DIMSD1
 70
     0
  9
$DIMSD2
 70
     0
  9
$DIMTOLJ
 70
     0
  9
$DIMTZIN
 70
     8
  9
$DIMALTZ
 70
     0
  9
$DIMALTTZ
 70
     0
  9
$DIMUPT
 70
     0
  9
$DIMDEC
 70
     2
  9
$DIMTDEC
 70
     2
  9
$DIMALTU
 70
     2
  9
$DIMALTTD
 70
     3
  9
$DIMTXSTY
  7
Standard
  9
$DIMAUNIT
 70
     0
  9
$DIMADEC
 70
     0
  9
$DIMALTRND
 40
0.0
  9
$DIMAZIN
 70
     0
  9
$DIMDSEP
 70
    44
  9
$DIMATFIT
 70
     3
  9
$DIMFRAC
 70
     0
  9
$DIMLDRBLK
  1

  9
$DIMLUNIT
 70
     2
  9
$DIMLWD
 70
    -2
  9
$DIMLWE
 70
    -2
  9
$DIMTMOVE
 70
     0
  9
$LUNITS
 70
     2
  9
$LUPREC
 70
     4
  9
$SKETCHINC
 40
1.0
  9
$FILLETRAD
 40
10.0
  9
$AUNITS
 70
     0
  9
$AUPREC
 70
     0
  9
$MENU
  1
.
  9
$ELEVATION
 40
0.0
  9
$PELEVATION
 40
0.0
  9
$THICKNESS
 40
0.0
  9
$LIMCHECK
 70
     0
  9
$CHAMFERA
 40
0.0
  9
$CHAMFERB
 40
0.0
  9
$CHAMFERC
 40
0.0
  9
$CHAMFERD
 40
0.0
  9
$SKPOLY
 70
     0
  9
$TDCREATE
 40
2460952.469180613
  9
$TDUCREATE
 40
2460952.094180613
  9
$TDUPDATE
 40
2460952.469185625
  9
$TDUUPDATE
 40
2460952.094185625
  9
$TDINDWG
 40
0.0000000116
  9
$TDUSRTIMER
 40
0.0000000116
  9
$USRTIMER
 70
     1
  9
$ANGBASE
 50
0.0
  9
$ANGDIR
 70
     0
  9
$PDMODE
 70
     0
  9
$PDSIZE
 40
0.0
  9
$PLINEWID
 40
0.0
  9
$SPLFRAME
 70
     0
  9
$SPLINETYPE
 70
     6
  9
$SPLINESEGS
 70
     8
  9
$HANDSEED
  5
46A
  9
$SURFTAB1
 70
     6
  9
$SURFTAB2
 70
     6
  9
$SURFTYPE
 70
     6
  9
$SURFU
 70
     6
  9
$SURFV
 70
     6
  9
$UCSBASE
  2

  9
$UCSNAME
  2

  9
$UCSORG
 10
0.0
 20
0.0
 30
0.0
  9
$UCSXDIR
 10
1.0
 20
0.0
 30
0.0
  9
$UCSYDIR
 10
0.0
 20
1.0
 30
0.0
  9
$UCSORTHOREF
  2

  9
$UCSORTHOVIEW
 70
     0
  9
$UCSORGTOP
 10
0.0
 20
0.0
 30
0.0
  9
$UCSORGBOTTOM
 10
0.0
 20
0.0
 30
0.0
  9
$UCSORGLEFT
 10
0.0
 20
0.0
 30
0.0
  9
$UCSORGRIGHT
 10
0.0
 20
0.0
 30
0.0
  9
$UCSORGFRONT
 10
0.0
 20
0.0
 30
0.0
  9
$UCSORGBACK
 10
0.0
 20
0.0
 30
0.0
  9
$PUCSBASE
  2

  9
$PUCSNAME
  2

  9
$PUCSORG
 10
0.0
 20
0.0
 30
0.0
  9
$PUCSXDIR
 10
1.0
 20
0.0
 30
0.0
  9
$PUCSYDIR
 10
0.0
 20
1.0
 30
0.0
  9
$PUCSORTHOREF
  2

  9
$PUCSORTHOVIEW
 70
     0
  9
$PUCSORGTOP
 10
0.0
 20
0.0
 30
0.0
  9
$PUCSORGBOTTOM
 10
0.0
 20
0.0
 30
0.0
  9
$PUCSORGLEFT
 10
0.0
 20
0.0
 30
0.0
  9
$PUCSORGRIGHT
 10
0.0
 20
0.0
 30
0.0
  9
$PUCSORGFRONT
 10
0.0
 20
0.0
 30
0.0
  9
$PUCSORGBACK
 10
0.0
 20
0.0
 30
0.0
  9
$USERI1
 70
     0
  9
$USERI2
 70
     0
  9
$USERI3
 70
     0
  9
$USERI4
 70
     0
  9
$USERI5
 70
     0
  9
$USERR1
 40
0.0
  9
$USERR2
 40
0.0
  9
$USERR3
 40
0.0
  9
$USERR4
 40
0.0
  9
$USERR5
 40
0.0
  9
$WORLDVIEW
 70
     1
  9
$SHADEDGE
 70
     3
  9
$SHADEDIF
 70
    70
  9
$TILEMODE
 70
     1
  9
$MAXACTVP
 70
    64
  9
$PINSBASE
 10
0.0
 20
0.0
 30
0.0
  9
$PLIMCHECK
 70
     0
  9
$PEXTMIN
 10
1.000000000000000E+20
 20
1.000000000000000E+20
 30
1.000000000000000E+20
  9
$PEXTMAX
 10
-1.000000000000000E+20
 20
-1.000000000000000E+20
 30
-1.000000000000000E+20
  9
$PLIMMIN
 10
0.0
 20
0.0
  9
$PLIMMAX
 10
420.0
 20
297.0
  9
$UNITMODE
 70
     0
  9
$VISRETAIN
 70
     1
  9
$PLINEGEN
 70
     0
  9
$PSLTSCALE
 70
     1
  9
$TREEDEPTH
 70
  3020
  9
$CMLSTYLE
  2
Standard
  9
$CMLJUST
 70
     0
  9
$CMLSCALE
 40
20.0
  9
$PROXYGRAPHICS
 70
     1
  9
$MEASUREMENT
 70
     1
  9
$CELWEIGHT
370
    -1
  9
$ENDCAPS
280
     0
  9
$JOINSTYLE
280
     0
  9
$LWDISPLAY
290
     0
  9
$INSUNITS
 70
     4
  9
$HYPERLINKBASE
  1

  9
$STYLESHEET
  1

  9
$XEDIT
290
     1
  9
$CEPSNTYPE
380
     0
  9
$PSTYLEMODE
290
     1
  9
$FINGERPRINTGUID
  2
{073272FA-1C58-4928-BB37-FF371882C088}
  9
$VERSIONGUID
  2
{FAEB1C32-E019-11D5-929B-00C0DF256EC4}
  9
$EXTNAMES
290
     1
  9
$PSVPSCALE
 40
0.0
  9
$OLESTARTUP
290
     0
  9
$SORTENTS
280
   127
  9
$INDEXCTL
280
     0
  9
$HIDETEXT
280
     1
  9
$XCLIPFRAME
290
     0
  9
$HALOGAP
280
     0
  9
$OBSCOLOR
 70
   257
  9
$OBSLTYPE
280
     0
  9
$INTERSECTIONDISPLAY
280
     0
  9
$INTERSECTIONCOLOR
 70
   257
  9
$DIMASSOC
280
     2
  9
$PROJECTNAME
  1

  0
ENDSEC
  0
SECTION
  2
CLASSES
  0
CLASS
  1
ACDBDICTIONARYWDFLT
  2
AcDbDictionaryWithDefault
  3
ObjectDBX Classes
 90
        0
 91
        4
280
     0
281
     0
  0
CLASS
  1
VISUALSTYLE
  2
AcDbVisualStyle
  3
ObjectDBX Classes
 90
     4095
 91
        4
280
     0
281
     0
  0
CLASS
  1
MATERIAL
  2
AcDbMaterial
  3
ObjectDBX Classes
 90
     1153
 91
        4
280
     0
281
     0
  0
CLASS
  1
SCALE
  2
AcDbScale
  3
ObjectDBX Classes
 90
     1153
 91
        4
280
     0
281
     0
  0
CLASS
  1
TABLESTYLE
  2
AcDbTableStyle
  3
ObjectDBX Classes
 90
     4095
 91
        4
280
     0
281
     0
  0
CLASS
  1
MLEADERSTYLE
  2
AcDbMLeaderStyle
  3
ACDB_MLEADERSTYLE_CLASS
 90
     4095
 91
        4
280
     0
281
     0
  0
CLASS
  1
SUN
  2
AcDbSun
  3
SCENEOE
 90
     1153
 91
        4
280
     0
281
     0
  0
CLASS
  1
DICTIONARYVAR
  2
AcDbDictionaryVar
  3
ObjectDBX Classes
 90
        0
 91
        4
280
     0
281
     0
  0
CLASS
  1
CELLSTYLEMAP
  2
AcDbCellStyleMap
  3
ObjectDBX Classes
 90
     1152
 91
        4
280
     0
281
     0
  0
ENDSEC
  0
SECTION
  2
TABLES
  0
TABLE
  2
VPORT
  5
8
102
{ACAD_XDICTIONARY
360
421
102
}
330
0
100
AcDbSymbolTable
 70
     1
  0
VPORT
  5
29
330
8
100
AcDbSymbolTableRecord
100
AcDbViewportTableRecord
  2
*Active
 70
     0
 10
0.0
 20
0.0
 11
1.0
 21
1.0
 12
0.0
 22
0.0
 13
0.0
 23
0.0
 14
10.0
 24
10.0
 15
10.0
 25
10.0
 16
0.0
 26
0.0
 36
1.0
 17
0.0
 27
0.0
 37
0.0
 40
653.4000000000001
 41
1.414141414141414
 42
50.0
 43
0.0
 44
0.0
 50
0.0
 51
0.0
 71
     0
 72
 10000
 73
     1
 74
     3
 75
     0
 76
     0
 77
     0
 78
     0
281
     0
 65
     1
110
0.0
120
0.0
130
0.0
111
1.0
121
0.0
131
0.0
112
0.0
122
1.0
132
0.0
 79
     0
146
0.0
  0
ENDTAB
  0
TABLE
  2
LTYPE
  5
5
330
0
100
AcDbSymbolTable
 70
     4
  0
LTYPE
  5
14
330
5
100
AcDbSymbolTableRecord
100
AcDbLinetypeTableRecord
  2
ByBlock
 70
     0
  3

 72
    65
 73
     0
 40
0.0
  0
LTYPE
  5
15
330
5
100
AcDbSymbolTableRecord
100
AcDbLinetypeTableRecord
  2
ByLayer
 70
     0
  3

 72
    65
 73
     0
 40
0.0
  0
LTYPE
  5
16
330
5
100
AcDbSymbolTableRecord
100
AcDbLinetypeTableRecord
  2
Continuous
 70
     0
  3
Solid line
 72
    65
 73
     0
 40
0.0
  0
LTYPE
  5
6F
330
5
100
AcDbSymbolTableRecord
100
AcDbLinetypeTableRecord
  2
JWW_DASHED1
 70
     0
  3
-  --  --  --  --  --  --  --  -
 72
    65
 73
     2
 40
1.693333333333333
 49
0.8466666666666667
 74
     0
 49
-0.8466666666666667
 74
     0
  0
LTYPE
  5
70
330
5
100
AcDbSymbolTableRecord
100
AcDbLinetypeTableRecord
  2
JWW_HOJO
 70
     0
  3
  -   -   -   -   -   -   -   - 
 72
    65
 73
     2
 40
1.693333333333333
 49
-1.27
 74
     0
 49
0.4233333333333333
 74
     0
  0
LTYPE
  5
71
330
5
100
AcDbSymbolTableRecord
100
AcDbLinetypeTableRecord
  2
JWW_CENTER1
 70
     0
  3
-----  --  ----------  --  -----
 72
    65
 73
     4
 40
6.773333333333333
 49
4.233333333333333
 74
     0
 49
-0.8466666666666667
 74
     0
 49
0.8466666666666667
 74
     0
 49
-0.8466666666666667
 74
     0
  0
ENDTAB
  0
TABLE
  2
LAYER
  5
2
330
0
100
AcDbSymbolTable
 70
     9
  0
LAYER
  5
10
330
2
100
AcDbSymbolTableRecord
100
AcDbLayerTableRecord
  2
0
 70
     0
 62
     7
  6
Continuous
370
    -3
390
F
  0
LAYER
  5
72
330
2
100
AcDbSymbolTableRecord
100
AcDbLayerTableRecord
  2
D-4
 70
     0
 62
     7
  6
Continuous
370
    -3
390
F
  0
LAYER
  5
73
330
2
100
AcDbSymbolTableRecord
100
AcDbLayerTableRecord
  2
D-2
 70
     0
 62
     7
  6
Continuous
370
    -3
390
F
  0
LAYER
  5
74
330
2
100
AcDbSymbolTableRecord
100
AcDbLayerTableRecord
  2
D-0
 70
     0
 62
     7
  6
Continuous
370
    -3
390
F
  0
LAYER
  5
75
330
2
100
AcDbSymbolTableRecord
100
AcDbLayerTableRecord
  2
D-1
 70
     0
 62
     7
  6
Continuous
370
    -3
390
F
  0
LAYER
  5
76
330
2
100
AcDbSymbolTableRecord
100
AcDbLayerTableRecord
  2
D-E
 70
     0
 62
     7
  6
Continuous
370
    -3
390
F
  0
LAYER
  5
77
330
2
100
AcDbSymbolTableRecord
100
AcDbLayerTableRecord
  2
D-5
 70
     0
 62
     7
  6
Continuous
370
    -3
390
F
  0
LAYER
  5
78
330
2
100
AcDbSymbolTableRecord
100
AcDbLayerTableRecord
  2
F-5ﾚｲﾔ
 70
     0
 62
     7
  6
Continuous
370
    -3
390
F
  0
LAYER
  5
79
330
2
100
AcDbSymbolTableRecord
100
AcDbLayerTableRecord
  2
F-0ﾚｲﾔ
 70
     0
 62
     7
  6
Continuous
370
    -3
390
F
  0
ENDTAB
  0
TABLE
  2
STYLE
  5
3
330
0
100
AcDbSymbolTable
 70
     2
  0
STYLE
  5
11
330
3
100
AcDbSymbolTableRecord
100
AcDbTextStyleTableRecord
  2
Standard
 70
     0
 40
0.0
 41
1.0
 50
0.0
 71
     0
 42
2.5
  3
txt
  4

  0
STYLE
  5
6E
330
3
100
AcDbSymbolTableRecord
100
AcDbTextStyleTableRecord
  2
ＭＳ ゴシック
 70
     0
 40
1.0
 41
1.0
 50
0.0
 71
     0
 42
2.5
  3

  4

1001
ACAD
1000
MS Gothic
1071
    32817
  0
ENDTAB
  0
TABLE
  2
VIEW
  5
6
330
0
100
AcDbSymbolTable
 70
     0
  0
ENDTAB
  0
TABLE
  2
UCS
  5
7
330
0
100
AcDbSymbolTable
 70
     0
  0
ENDTAB
  0
TABLE
  2
APPID
  5
9
330
0
100
AcDbSymbolTable
 70
     2
  0
APPID
  5
12
330
9
100
AcDbSymbolTableRecord
100
AcDbRegAppTableRecord
  2
ACAD
 70
     0
  0
APPID
  5
460
330
9
100
AcDbSymbolTableRecord
100
AcDbRegAppTableRecord
  2
ACAD_MLEADERVER
 70
     0
  0
ENDTAB
  0
TABLE
  2
DIMSTYLE
  5
A
330
0
100
AcDbSymbolTable
 70
     1
100
AcDbDimStyleTable
  0
DIMSTYLE
105
27
330
A
100
AcDbSymbolTableRecord
100
AcDbDimStyleTableRecord
  2
ISO-25
 70
     0
 41
2.5
 42
0.625
 43
3.75
 44
1.25
 73
     0
 74
     0
 77
     1
 78
     8
140
2.5
141
2.5
143
0.03937007874016
147
0.625
171
     3
172
     1
178
     0
271
     2
272
     2
274
     3
278
    44
283
     0
284
     8
340
11
  0
ENDTAB
  0
TABLE
  2
BLOCK_RECORD
  5
1
330
0
100
AcDbSymbolTable
 70
     1
  0
BLOCK_RECORD
  5
1F
330
1
100
AcDbSymbolTableRecord
100
AcDbBlockTableRecord
  2
*Model_Space
340
22
  0
BLOCK_RECORD
  5
1B
330
1
100
AcDbSymbolTableRecord
100
AcDbBlockTableRecord
  2
*Paper_Space
340
1E
  0
BLOCK_RECORD
  5
23
330
1
100
AcDbSymbolTableRecord
100
AcDbBlockTableRecord
  2
*Paper_Space0
340
26
  0
ENDTAB
  0
ENDSEC
  0
SECTION
  2
BLOCKS
  0
BLOCK
  5
20
330
1F
100
AcDbEntity
  8
0
100
AcDbBlockBegin
  2
*Model_Space
 70
     0
 10
0.0
 20
0.0
 30
0.0
  3
*Model_Space
  1

  0
ENDBLK
  5
21
330
1F
100
AcDbEntity
  8
0
100
AcDbBlockEnd
  0
BLOCK
  5
1C
330
1B
100
AcDbEntity
 67
     1
  8
0
100
AcDbBlockBegin
  2
*Paper_Space
 70
     0
 10
0.0
 20
0.0
 30
0.0
  3
*Paper_Space
  1

  0
ENDBLK
  5
1D
330
1B
100
AcDbEntity
 67
     1
  8
0
100
AcDbBlockEnd
  0
BLOCK
  5
24
330
23
100
AcDbEntity
  8
0
100
AcDbBlockBegin
  2
*Paper_Space0
 70
     0
 10
0.0
 20
0.0
 30
0.0
  3
*Paper_Space0
  1

  0
ENDBLK
  5
25
330
23
100
AcDbEntity
  8
0
100
AcDbBlockEnd
  0
ENDSEC
  0
SECTION
  2
ENTITIES
  0
LINE
  5
7A
330
1F
100
AcDbEntity
  8
D-4
  6
Continuous
 62
     7
370
     9
100
AcDbLine
 10
-60.86219251478036
 20
-32.10877504091007
 30
0.0
 11
-60.86219251478036
 21
10.49122363941086
 31
0.0
  0
LINE
  5
7B
330
1F
100
AcDbEntity
  8
D-2
  6
Continuous
 62
     4
370
     9
100
AcDbLine
 10
-44.26204866976349
 20
-63.10872885214317
 30
0.0
 11
-46.86212158203119
 21
-63.10872885214317
 31
0.0
  0
LINE
  5
7C
330
1F
100
AcDbEntity
  8
D-2
  6
Continuous
 62
     4
370
     9
100
AcDbLine
 10
-44.26204866976349
 20
-75.10857049065669
 30
0.0
 11
-46.86212158203119
 21
-75.10857049065669
 31
0.0
  0
LINE
  5
7D
330
1F
100
AcDbEntity
  8
D-2
  6
Continuous
 62
     4
370
     9
100
AcDbLine
 10
-44.26204866976349
 20
-69.5875941920925
 30
0.0
 11
-44.26204866976349
 21
-68.62970515070737
 31
0.0
  0
LINE
  5
7E
330
1F
100
AcDbEntity
  8
D-2
  6
Continuous
 62
     4
370
     9
100
AcDbLine
 10
-58.86203745249151
 20
-66.10868926177156
 30
0.0
 11
-58.86203745249151
 21
-72.10870905695737
 31
0.0
  0
LINE
  5
7F
330
1F
100
AcDbEntity
  8
D-2
  6
Continuous
 62
     4
370
     9
100
AcDbLine
 10
-48.86207869246198
 20
-66.10868926177156
 30
0.0
 11
-58.86203745249151
 21
-66.10868926177156
 31
0.0
  0
LINE
  5
80
330
1F
100
AcDbEntity
  8
D-2
  6
Continuous
 62
     4
370
     9
100
AcDbLine
 10
-46.86212158203119
 20
-63.10872885214317
 30
0.0
 11
-46.86212158203119
 21
-75.10857049065669
 31
0.0
  0
LINE
  5
81
330
1F
100
AcDbEntity
  8
D-2
  6
Continuous
 62
     4
370
     9
100
AcDbLine
 10
-48.86207869246198
 20
-72.10870905695737
 30
0.0
 11
-58.86203745249151
 21
-72.10870905695737
 31
0.0
  0
LINE
  5
82
330
1F
100
AcDbEntity
  8
D-2
  6
Continuous
 62
     4
370
     9
100
AcDbLine
 10
-48.86207869246198
 20
-66.97878665408575
 30
0.0
 11
-58.86203745249151
 21
-66.97878665408575
 31
0.0
  0
LINE
  5
83
330
1F
100
AcDbEntity
  8
D-2
  6
Continuous
 62
     4
370
     9
100
AcDbLine
 10
-48.86207869246198
 20
-71.23871064057224
 30
0.0
 11
-58.86203745249151
 21
-71.23871064057224
 31
0.0
  0
LINE
  5
84
330
1F
100
AcDbEntity
  8
D-2
  6
Continuous
 62
     4
370
     9
100
AcDbLine
 10
-48.86207869246198
 20
-71.23871064057224
 30
0.0
 11
-46.98960257865286
 21
-72.29082476641682
 31
0.0
  0
LINE
  5
85
330
1F
100
AcDbEntity
  8
D-2
  6
Continuous
 62
     4
370
     9
100
AcDbLine
 10
-48.86207869246198
 20
-72.10870905695737
 30
0.0
 11
-48.09833093591635
 21
-71.6678702689506
 31
0.0
  0
LINE
  5
86
330
1F
100
AcDbEntity
  8
D-2
  6
Continuous
 62
     4
370
     9
100
AcDbLine
 10
-48.86207869246198
 20
-66.97878665408575
 30
0.0
 11
-46.98960257865286
 21
-65.92667252824114
 31
0.0
  0
LINE
  5
87
330
1F
100
AcDbEntity
  8
D-2
  6
Continuous
 62
     4
370
     9
100
AcDbLine
 10
-48.86207869246198
 20
-66.10868926177156
 30
0.0
 11
-48.09833093591635
 21
-66.54962702570737
 31
0.0
  0
LINE
  5
88
330
1F
100
AcDbEntity
  8
D-0
  6
Continuous
 62
     2
370
     9
100
AcDbLine
 10
-27.11439472920182
 20
-135.704306607633
 30
0.0
 11
-26.12451171874994
 21
-135.704306607633
 31
0.0
  0
LINE
  5
89
330
1F
100
AcDbEntity
  8
D-0
  6
Continuous
 62
     2
370
     9
100
AcDbLine
 10
-21.45762345597547
 20
-140.3712196143898
 30
0.0
 11
-21.45762345597547
 21
-141.3611768567885
 31
0.0
  0
LINE
  5
8A
330
1F
100
AcDbEntity
  8
D-2
  6
Continuous
 62
     4
370
     9
100
AcDbLine
 10
-42.27354802312072
 20
-68.62970515070737
 30
0.0
 11
-44.26204866976349
 21
-68.62970515070737
 31
0.0
  0
LINE
  5
8B
330
1F
100
AcDbEntity
  8
D-0
  6
Continuous
 62
     2
370
     9
100
AcDbLine
 10
-36.48961742504218
 20
-161.3431302457243
 30
0.0
 11
-40.57549224028713
 21
-165.4289555730047
 31
0.0
  0
LINE
  5
8C
330
1F
100
AcDbEntity
  8
D-0
  6
Continuous
 62
     2
370
     9
100
AcDbLine
 10
-44.44248178842901
 20
-153.3899194665858
 30
0.0
 11
-48.52845557960302
 21
-157.4759427457243
 31
0.0
  0
LINE
  5
8D
330
1F
100
AcDbEntity
  8
D-0
  6
Continuous
 62
     2
370
     9
100
AcDbLine
 10
-39.14318682696364
 20
-158.6892886599979
 30
0.0
 11
-43.22916061813766
 21
-162.7752129632074
 31
0.0
  0
LINE
  5
8E
330
1F
100
AcDbEntity
  8
D-0
  6
Continuous
 62
     2
370
     9
100
AcDbLine
 10
-45.25905794710724
 20
-151.5529262233425
 30
0.0
 11
-37.30619358372041
 21
-159.5058400746939
 31
0.0
  0
LINE
  5
8F
330
1F
100
AcDbEntity
  8
D-0
  6
JWW_DASHED1
 62
     2
370
     9
100
AcDbLine
 10
-61.47982705605995
 20
-170.0697389344911
 30
0.0
 11
-61.47982705605995
 21
-171.0597951528189
 31
0.0
  0
LINE
  5
90
330
1F
100
AcDbEntity
  8
D-0
  6
JWW_DASHED1
 62
     2
370
     9
100
AcDbLine
 10
-61.47982705605995
 20
-170.0697389344911
 30
0.0
 11
-55.82290731894
 21
-175.7266091836466
 31
0.0
  0
LINE
  5
91
330
1F
100
AcDbEntity
  8
D-0
  6
JWW_DASHED1
 62
     2
370
     9
100
AcDbLine
 10
-56.81286456133864
 20
-175.7266091836466
 30
0.0
 11
-55.82290731894
 21
-175.7266091836466
 31
0.0
  0
LINE
  5
92
330
1F
100
AcDbEntity
  8
D-0
  6
JWW_DASHED1
 62
     2
370
     9
100
AcDbLine
 10
-61.47982705605995
 20
-171.0597951528189
 30
0.0
 11
-56.81286456133864
 21
-175.7266091836466
 31
0.0
  0
LINE
  5
93
330
1F
100
AcDbEntity
  8
D-0
  6
Continuous
 62
     2
370
     9
100
AcDbLine
 10
-26.44264509871198
 20
-139.6288011705553
 30
0.0
 11
-25.38204378695099
 21
-140.6894272262986
 31
0.0
  0
LINE
  5
94
330
1F
100
AcDbEntity
  8
D-0
  6
Continuous
 62
     2
370
     9
100
AcDbLine
 10
-26.44264509871198
 20
-139.6288011705553
 30
0.0
 11
-24.32134349926093
 21
-137.5074500831398
 31
0.0
  0
LINE
  5
95
330
1F
100
AcDbEntity
  8
D-0
  6
Continuous
 62
     2
370
     9
100
AcDbLine
 10
-25.38204378695099
 20
-140.6894272262986
 30
0.0
 11
-23.26074218749994
 21
-138.568076138883
 31
0.0
  0
LINE
  5
96
330
1F
100
AcDbEntity
  8
D-0
  6
Continuous
 62
     2
370
     9
100
AcDbLine
 10
-27.11439472920182
 20
-135.704306607633
 30
0.0
 11
-24.81632212046026
 21
-138.0025276802682
 31
0.0
  0
LINE
  5
97
330
1F
100
AcDbEntity
  8
D-0
  6
Continuous
 62
     2
370
     9
100
AcDbLine
 10
-23.75567132073479
 20
-139.0631537360114
 30
0.0
 11
-21.45762345597547
 21
-141.3611768567885
 31
0.0
  0
LINE
  5
98
330
1F
100
AcDbEntity
  8
D-0
  6
Continuous
 62
     2
370
     9
100
AcDbLine
 10
-26.12451171874994
 20
-135.704306607633
 30
0.0
 11
-24.32134349926093
 21
-137.5074500831398
 31
0.0
  0
LINE
  5
99
330
1F
100
AcDbEntity
  8
D-0
  6
Continuous
 62
     2
370
     9
100
AcDbLine
 10
-23.26074218749994
 20
-138.568076138883
 30
0.0
 11
-21.45762345597547
 21
-140.3712196143898
 31
0.0
  0
LINE
  5
9A
330
1F
100
AcDbEntity
  8
D-0
  6
Continuous
 62
     2
370
     9
100
AcDbLine
 10
-44.11106088999151
 20
-152.7009480244405
 30
0.0
 11
-27.11439472920182
 21
-135.704306607633
 31
0.0
  0
LINE
  5
9B
330
1F
100
AcDbEntity
  8
D-0
  6
Continuous
 62
     2
370
     9
100
AcDbLine
 10
-43.61608226879218
 20
-153.1959266456398
 30
0.0
 11
-26.12451171874994
 21
-135.704306607633
 31
0.0
  0
LINE
  5
9C
330
1F
100
AcDbEntity
  8
D-0
  6
Continuous
 62
     2
370
     9
100
AcDbLine
 10
-38.94916926203547
 20
-157.8628396523966
 30
0.0
 11
-21.45762345597547
 21
-140.3712196143898
 31
0.0
  0
LINE
  5
9D
330
1F
100
AcDbEntity
  8
D-0
  6
Continuous
 62
     2
370
     9
100
AcDbLine
 10
-38.45421538481838
 20
-158.3579172495249
 30
0.0
 11
-21.45762345597547
 21
-141.3611768567885
 31
0.0
  0
LINE
  5
9E
330
1F
100
AcDbEntity
  8
D-2
  6
Continuous
 62
     4
370
     9
100
AcDbLine
 10
-58.67645758551515
 20
150.5550136256862
 30
0.0
 11
-58.67645758551515
 21
151.5131006189295
 31
0.0
  0
LINE
  5
9F
330
1F
100
AcDbEntity
  8
D-2
  6
Continuous
 62
     4
370
     9
100
AcDbLine
 10
-56.68795693887245
 20
151.5131006189295
 30
0.0
 11
-58.67645758551515
 21
151.5131006189295
 31
0.0
  0
LINE
  5
A0
330
1F
100
AcDbEntity
  8
D-1
  6
JWW_HOJO
 62
     2
370
     9
100
AcDbLine
 10
-75.27660143053208
 20
56.0340901142842
 30
0.0
 11
-75.27660143053208
 21
246.0340241303315
 31
0.0
  0
LINE
  5
A1
330
1F
100
AcDbEntity
  8
D-1
  6
Continuous
 62
     2
370
     9
100
AcDbLine
 10
-46.36219416437922
 20
-45.10876844251482
 30
0.0
 11
-60.86219251478036
 21
-45.10876844251482
 31
0.0
  0
LINE
  5
A2
330
1F
100
AcDbEntity
  8
D-1
  6
Continuous
 62
     2
370
     9
100
AcDbLine
 10
69.13793945312506
 20
-160.6087288521432
 30
0.0
 11
69.13793945312506
 21
-175.1088014344912
 31
0.0
  0
LINE
  5
A3
330
1F
100
AcDbEntity
  8
D-1
  6
Continuous
 62
     2
370
     9
100
AcDbLine
 10
-67.27659978093322
 20
148.7686960581187
 30
0.0
 11
-67.27659978093322
 21
153.2995171624261
 31
0.0
  0
LINE
  5
A4
330
1F
100
AcDbEntity
  8
D-1
  6
Continuous
 62
     2
370
     9
100
AcDbLine
 10
-67.27659978093322
 20
172.7686762629328
 30
0.0
 11
-67.27659978093322
 21
177.2994973672403
 31
0.0
  0
LINE
  5
A5
330
1F
100
AcDbEntity
  8
D-1
  6
Continuous
 62
     2
370
     9
100
AcDbLine
 10
-67.27659978093322
 20
196.7686564677471
 30
0.0
 11
-67.27659978093322
 21
201.2995765479835
 31
0.0
  0
LINE
  5
A6
330
1F
100
AcDbEntity
  8
D-1
  6
Continuous
 62
     2
370
     9
100
AcDbLine
 10
-67.27659978093322
 20
220.7686366725613
 30
0.0
 11
-67.27659978093322
 21
225.2994577768687
 31
0.0
  0
LINE
  5
A7
330
1F
100
AcDbEntity
  8
D-1
  6
Continuous
 62
     2
370
     9
100
AcDbLine
 10
-67.27659978093322
 20
129.2995369576119
 30
0.0
 11
-67.27659978093322
 21
124.7686168773754
 31
0.0
  0
LINE
  5
A8
330
1F
100
AcDbEntity
  8
D-1
  6
Continuous
 62
     2
370
     9
100
AcDbLine
 10
-67.27659978093322
 20
105.2994577768687
 30
0.0
 11
-67.27659978093322
 21
100.7686366725612
 31
0.0
  0
LINE
  5
A9
330
1F
100
AcDbEntity
  8
D-1
  6
Continuous
 62
     2
370
     9
100
AcDbLine
 10
-67.27659978093322
 20
81.29947757205446
 30
0.0
 11
-67.27659978093322
 21
76.76865646774706
 31
0.0
  0
LINE
  5
AA
330
1F
100
AcDbEntity
  8
D-1
  6
Continuous
 62
     2
370
     9
100
AcDbLine
 10
58.42448796452709
 20
-166.6354721481736
 30
0.0
 11
65.99812605574328
 21
-160.2269786937817
 31
0.0
  0
LINE
  5
AB
330
1F
100
AcDbEntity
  8
D-1
  6
Continuous
 62
     2
370
     9
100
AcDbLine
 10
38.90490062816724
 20
-167.1087750409101
 30
0.0
 11
29.37089579814193
 21
-175.1088014344912
 31
0.0
  0
LINE
  5
AC
330
1F
100
AcDbEntity
  8
D-1
  6
Continuous
 62
     2
370
     9
100
AcDbLine
 10
-15.3857718802787
 20
56.0340901142842
 30
0.0
 11
-15.3857718802787
 21
62.03410990947003
 31
0.0
  0
LINE
  5
AD
330
1F
100
AcDbEntity
  8
D-1
  6
Continuous
 62
     2
370
     9
100
AcDbLine
 10
33.72356023015209
 20
62.03410990947003
 30
0.0
 11
-60.27657668654979
 21
62.03410990947003
 31
0.0
  0
LINE
  5
AE
330
1F
100
AcDbEntity
  8
D-1
  6
Continuous
 62
     2
370
     9
100
AcDbLine
 10
33.72356023015209
 20
240.0341033110747
 30
0.0
 11
-60.27657668654979
 21
240.0341033110747
 31
0.0
  0
LINE
  5
AF
330
1F
100
AcDbEntity
  8
D-1
  6
Continuous
 62
     2
370
     9
100
AcDbLine
 10
-0.276502454603019
 20
58.03409671267946
 30
0.0
 11
-0.276502454603019
 21
60.03410331107472
 31
0.0
  0
LINE
  5
B0
330
1F
100
AcDbEntity
  8
D-1
  6
Continuous
 62
     2
370
     9
100
AcDbLine
 10
-15.3857718802787
 20
62.03410990947003
 30
0.0
 11
0.0471983213682847
 21
60.50196252771326
 31
0.0
  0
LINE
  5
B1
330
1F
100
AcDbEntity
  8
D-1
  6
Continuous
 62
     2
370
     9
100
AcDbLine
 10
0.0471983213682847
 20
57.56623749604097
 30
0.0
 11
-15.3857718802787
 21
56.0340901142842
 31
0.0
  0
LINE
  5
B2
330
1F
100
AcDbEntity
  8
D-1
  6
Continuous
 62
     2
370
     9
100
AcDbLine
 10
-15.3857718802787
 20
246.0340241303315
 30
0.0
 11
-15.3857718802787
 21
240.0341033110747
 31
0.0
  0
LINE
  5
B3
330
1F
100
AcDbEntity
  8
D-1
  6
Continuous
 62
     2
370
     9
100
AcDbLine
 10
-0.276502454603019
 20
244.0340175319363
 30
0.0
 11
-0.276502454603019
 21
242.03410990947
 31
0.0
  0
LINE
  5
B4
330
1F
100
AcDbEntity
  8
D-1
  6
Continuous
 62
     2
370
     9
100
AcDbLine
 10
-15.3857718802787
 20
240.0341033110747
 30
0.0
 11
0.0471983213682847
 21
241.5661517169024
 31
0.0
  0
LINE
  5
B5
330
1F
100
AcDbEntity
  8
D-1
  6
Continuous
 62
     2
370
     9
100
AcDbLine
 10
0.0471983213682847
 20
244.5018767485747
 30
0.0
 11
-15.3857718802787
 21
246.0340241303315
 31
0.0
  0
LINE
  5
B6
330
1F
100
AcDbEntity
  8
D-1
  6
Continuous
 62
     2
370
     9
100
AcDbLine
 10
54.22345465582777
 20
228.0341626966322
 30
0.0
 11
52.22344805743245
 21
228.0341626966322
 31
0.0
  0
LINE
  5
B7
330
1F
100
AcDbEntity
  8
D-1
  6
Continuous
 62
     2
370
     9
100
AcDbLine
 10
51.72352063978042
 20
217.5341033110747
 30
0.0
 11
51.72352063978042
 21
204.53410990947
 31
0.0
  0
LINE
  5
B8
330
1F
100
AcDbEntity
  8
D-1
  6
Continuous
 62
     2
370
     9
100
AcDbLine
 10
54.22345465582777
 20
218.0341297046559
 30
0.0
 11
52.22344805743245
 21
218.0341297046559
 31
0.0
  0
LINE
  5
B9
330
1F
100
AcDbEntity
  8
D-1
  6
Continuous
 62
     2
370
     9
100
AcDbLine
 10
54.22345465582777
 20
204.0340835158889
 30
0.0
 11
52.22344805743245
 21
204.0340835158889
 31
0.0
  0
LINE
  5
BA
330
1F
100
AcDbEntity
  8
D-1
  6
Continuous
 62
     2
370
     9
100
AcDbLine
 10
54.22345465582777
 20
194.0340505239126
 30
0.0
 11
52.22344805743245
 21
194.0340505239126
 31
0.0
  0
LINE
  5
BB
330
1F
100
AcDbEntity
  8
D-1
  6
Continuous
 62
     2
370
     9
100
AcDbLine
 10
52.22344805743245
 20
180.0341033110748
 30
0.0
 11
54.22345465582777
 21
180.0341033110748
 31
0.0
  0
LINE
  5
BC
330
1F
100
AcDbEntity
  8
D-1
  6
Continuous
 62
     2
370
     9
100
AcDbLine
 10
51.72352063978042
 20
180.5341297046558
 30
0.0
 11
51.72352063978042
 21
193.5341231062606
 31
0.0
  0
LINE
  5
BD
330
1F
100
AcDbEntity
  8
D-1
  6
Continuous
 62
     2
370
     9
100
AcDbLine
 10
52.22344805743245
 20
170.0340703190984
 30
0.0
 11
54.22345465582777
 21
170.0340703190984
 31
0.0
  0
LINE
  5
BE
330
1F
100
AcDbEntity
  8
D-1
  6
Continuous
 62
     2
370
     9
100
AcDbLine
 10
51.72352063978042
 20
169.5341429014464
 30
0.0
 11
51.72352063978042
 21
156.5340505239126
 31
0.0
  0
LINE
  5
BF
330
1F
100
AcDbEntity
  8
D-1
  6
Continuous
 62
     2
370
     9
100
AcDbLine
 10
54.22345465582777
 20
156.0341231062606
 30
0.0
 11
52.22344805743245
 21
156.0341231062606
 31
0.0
  0
LINE
  5
C0
330
1F
100
AcDbEntity
  8
D-1
  6
Continuous
 62
     2
370
     9
100
AcDbLine
 10
54.22345465582777
 20
146.0340901142842
 30
0.0
 11
52.22344805743245
 21
146.0340901142842
 31
0.0
  0
LINE
  5
C1
330
1F
100
AcDbEntity
  8
D-1
  6
Continuous
 62
     2
370
     9
100
AcDbLine
 10
51.72352063978042
 20
132.5340703190984
 30
0.0
 11
51.72352063978042
 21
145.5340637207031
 31
0.0
  0
LINE
  5
C2
330
1F
100
AcDbEntity
  8
D-1
  6
Continuous
 62
     2
370
     9
100
AcDbLine
 10
54.22345465582777
 20
132.0340439255173
 30
0.0
 11
52.22344805743245
 21
132.0340439255173
 31
0.0
  0
LINE
  5
C3
330
1F
100
AcDbEntity
  8
D-1
  6
Continuous
 62
     2
370
     9
100
AcDbLine
 10
51.72352063978042
 20
121.5340835158889
 30
0.0
 11
51.72352063978042
 21
108.5340901142842
 31
0.0
  0
LINE
  5
C4
330
1F
100
AcDbEntity
  8
D-1
  6
Continuous
 62
     2
370
     9
100
AcDbLine
 10
54.22345465582777
 20
122.03410990947
 30
0.0
 11
52.22344805743245
 21
122.03410990947
 31
0.0
  0
LINE
  5
C5
330
1F
100
AcDbEntity
  8
D-1
  6
Continuous
 62
     2
370
     9
100
AcDbLine
 10
54.22345465582777
 20
108.0340637207031
 30
0.0
 11
52.22344805743245
 21
108.0340637207031
 31
0.0
  0
LINE
  5
C6
330
1F
100
AcDbEntity
  8
D-1
  6
Continuous
 62
     2
370
     9
100
AcDbLine
 10
54.22345465582777
 20
98.03403072872675
 30
0.0
 11
52.22344805743245
 21
98.03403072872675
 31
0.0
  0
LINE
  5
C7
330
1F
100
AcDbEntity
  8
D-1
  6
Continuous
 62
     2
370
     9
100
AcDbLine
 10
51.72352063978042
 20
84.53401093354097
 30
0.0
 11
51.72352063978042
 21
97.53410331107472
 31
0.0
  0
LINE
  5
C8
330
1F
100
AcDbEntity
  8
D-1
  6
Continuous
 62
     2
370
     9
100
AcDbLine
 10
54.22345465582777
 20
84.03408351588894
 30
0.0
 11
52.22344805743245
 21
84.03408351588894
 31
0.0
  0
LINE
  5
C9
330
1F
100
AcDbEntity
  8
D-1
  6
Continuous
 62
     2
370
     9
100
AcDbLine
 10
52.22344805743245
 20
74.03405052391258
 30
0.0
 11
54.22345465582777
 21
74.03405052391258
 31
0.0
  0
LINE
  5
CA
330
1F
100
AcDbEntity
  8
D-1
  6
Continuous
 62
     2
370
     9
100
AcDbLine
 10
-35.27211452174828
 20
-170.7320858517209
 30
0.0
 11
-56.48540270006333
 21
-149.5189708812817
 31
0.0
  0
LINE
  5
CB
330
1F
100
AcDbEntity
  8
D-1
  6
Continuous
 62
     2
370
     9
100
AcDbLine
 10
-56.86205559807854
 20
-75.10866946658575
 30
0.0
 11
-56.86205559807854
 21
-145.1088014344911
 31
0.0
  0
LINE
  5
CC
330
1F
100
AcDbEntity
  8
D-1
  6
Continuous
 62
     2
370
     9
100
AcDbLine
 10
-51.18212395745354
 20
-154.8222001359269
 30
0.0
 11
-54.01055908203119
 21
-159.064803334829
 31
0.0
  0
LINE
  5
CD
330
1F
100
AcDbEntity
  8
D-1
  6
Continuous
 62
     2
370
     9
100
AcDbLine
 10
-44.8181201831714
 20
-168.2571927457243
 30
0.0
 11
-40.5754674963049
 21
-165.4287576211466
 31
0.0
  0
LINE
  5
CE
330
1F
100
AcDbEntity
  8
D-0
  6
Continuous
 62
     3
370
     9
100
AcDbLine
 10
64.72346455342063
 20
246.0340241303315
 30
0.0
 11
64.72346455342063
 21
56.0340901142842
 31
0.0
  0
LINE
  5
CF
330
1F
100
AcDbEntity
  8
D-0
  6
Continuous
 62
     3
370
     9
100
AcDbLine
 10
54.7234810494088
 20
256.0340571223078
 30
0.0
 11
-85.27660967852614
 21
256.0340571223078
 31
0.0
  0
LINE
  5
D0
330
1F
100
AcDbEntity
  8
D-0
  6
Continuous
 62
     3
370
     9
100
AcDbLine
 10
-85.27660967852614
 20
46.03405712230784
 30
0.0
 11
-85.27660967852614
 21
256.0340571223078
 31
0.0
  0
LINE
  5
D1
330
1F
100
AcDbEntity
  8
D-0
  6
Continuous
 62
     3
370
     9
100
AcDbLine
 10
54.7234810494088
 20
46.03405712230784
 30
0.0
 11
-85.27660967852614
 21
46.03405712230784
 31
0.0
  0
LINE
  5
D2
330
1F
100
AcDbEntity
  8
D-0
  6
JWW_HOJO
 62
     3
370
     9
100
AcDbLine
 10
-80.2765189505912
 20
46.53408351588894
 30
0.0
 11
-80.2765189505912
 21
255.5340307287268
 31
0.0
  0
LINE
  5
D3
330
1F
100
AcDbEntity
  8
D-0
  6
Continuous
 62
     3
370
     9
100
AcDbLine
 10
-85.27660967852614
 20
225.0341033110747
 30
0.0
 11
-89.87458595069677
 21
225.953688667916
 31
0.0
  0
LINE
  5
D4
330
1F
100
AcDbEntity
  8
D-0
  6
JWW_HOJO
 62
     3
370
     9
100
AcDbLine
 10
-82.68819118190453
 20
224.5163602261929
 30
0.0
 11
-85.27660967852614
 21
225.0341033110747
 31
0.0
  0
LINE
  5
D5
330
1F
100
AcDbEntity
  8
D-0
  6
JWW_HOJO
 62
     3
370
     9
100
AcDbLine
 10
-82.68819118190453
 20
237.5517870103991
 30
0.0
 11
-85.27660967852614
 21
237.0340439255173
 31
0.0
  0
LINE
  5
D6
330
1F
100
AcDbEntity
  8
D-0
  6
Continuous
 62
     3
370
     9
100
AcDbLine
 10
-85.27660967852614
 20
65.03407031909836
 30
0.0
 11
-89.87468492662583
 21
65.95365567593961
 31
0.0
  0
LINE
  5
D7
330
1F
100
AcDbEntity
  8
D-0
  6
Continuous
 62
     3
370
     9
100
AcDbLine
 10
-85.27660967852614
 20
77.03401093354097
 30
0.0
 11
-89.87458595069677
 21
76.11442557669972
 31
0.0
  0
LINE
  5
D8
330
1F
100
AcDbEntity
  8
D-0
  6
JWW_HOJO
 62
     3
370
     9
100
AcDbLine
 10
-82.68819118190453
 20
77.55175401842274
 30
0.0
 11
-85.27660967852614
 21
77.03401093354097
 31
0.0
  0
LINE
  5
D9
330
1F
100
AcDbEntity
  8
D-0
  6
JWW_HOJO
 62
     3
370
     9
100
AcDbLine
 10
-82.68819118190453
 20
64.51642621014571
 30
0.0
 11
-85.27660967852614
 21
65.03407031909836
 31
0.0
  0
LINE
  5
DA
330
1F
100
AcDbEntity
  8
D-2
  6
Continuous
 62
     6
370
     5
100
AcDbLine
 10
60.1380582242399
 20
-162.1087090569574
 30
0.0
 11
60.1380582242399
 21
-161.1087552457243
 31
0.0
  0
LINE
  5
DB
330
1F
100
AcDbEntity
  8
D-2
  6
Continuous
 62
     6
370
     5
100
AcDbLine
 10
-46.86212158203119
 20
-54.10884762325804
 30
0.0
 11
60.1380582242399
 21
-161.1087552457243
 31
0.0
  0
LINE
  5
DC
330
1F
100
AcDbEntity
  8
D-2
  6
Continuous
 62
     6
370
     5
100
AcDbLine
 10
3.102436787373335
 20
-104.0731832968222
 30
0.0
 11
0.6275931693412531
 21
-108.6694274902344
 31
0.0
  0
LINE
  5
DD
330
1F
100
AcDbEntity
  8
D-2
  6
Continuous
 62
     6
370
     5
100
AcDbLine
 10
5.577280405405418
 20
-113.6192137022276
 30
0.0
 11
10.17352459881761
 21
-111.144320596231
 31
0.0
  0
LINE
  5
DE
330
1F
100
AcDbEntity
  8
D-2
  6
Continuous
 62
     6
370
     5
100
AcDbLine
 10
-15.20523978568411
 20
-85.76560569969385
 30
0.0
 11
-19.80145923511401
 21
-88.24049880569046
 31
0.0
  0
LINE
  5
DF
330
1F
100
AcDbEntity
  8
D-2
  6
JWW_DASHED1
 62
     6
370
     5
100
AcDbLine
 10
39.3792427681588
 20
-167.3146449733425
 30
0.0
 11
40.13809121621625
 21
-171.1087882377006
 31
0.0
  0
LINE
  5
E0
330
1F
100
AcDbEntity
  8
D-2
  6
Continuous
 62
     6
370
     5
100
AcDbLine
 10
-51.8620885900549
 20
-72.10870905695737
 30
0.0
 11
-51.8620885900549
 21
-145.1088014344911
 31
0.0
  0
LINE
  5
E1
330
1F
100
AcDbEntity
  8
D-2
  6
Continuous
 62
     6
370
     5
100
AcDbLine
 10
51.65275285050677
 20
-152.6234498719911
 30
0.0
 11
49.17795872043922
 21
-157.2196940654033
 31
0.0
  0
LINE
  5
E2
330
1F
100
AcDbEntity
  8
D-1
  6
Continuous
 62
     2
370
     9
100
AcDbLine
 10
-45.86211828283359
 20
-55.10870245856208
 30
0.0
 11
-45.86211828283359
 21
-45.60879483609585
 31
0.0
  0
LINE
  5
E3
330
1F
100
AcDbEntity
  8
D-1
  6
Continuous
 62
     2
370
     9
100
AcDbLine
 10
59.13810441300677
 20
-160.1088014344911
 30
0.0
 11
68.6378140836149
 21
-160.1088014344911
 31
0.0
  0
LINE
  5
E4
330
1F
100
AcDbEntity
  8
D-1
  6
Continuous
 62
     2
370
     9
100
AcDbLine
 10
-30.86219251478036
 20
-171.1087882377006
 30
0.0
 11
69.13793945312506
 21
-171.1087882377006
 31
0.0
  0
LINE
  5
E5
330
1F
100
AcDbEntity
  8
D-2
  6
Continuous
 62
     6
370
     5
100
AcDbLine
 10
34.70668813344599
 20
-161.1087552457243
 30
0.0
 11
43.34085330447641
 21
-161.1087552457243
 31
0.0
  0
LINE
  5
E6
330
1F
100
AcDbEntity
  8
D-2
  6
Continuous
 62
     6
370
     5
100
AcDbLine
 10
-46.86212158203119
 20
-145.1088014344911
 30
0.0
 11
-46.86212158203119
 21
-137.5576308791702
 31
0.0
  0
LINE
  5
E7
330
1F
100
AcDbEntity
  8
D-2
  6
Continuous
 62
     6
370
     5
100
AcDbLine
 10
-46.86212158203119
 20
-112.4671338880384
 30
0.0
 11
-46.86212158203119
 21
-104.2933057630384
 31
0.0
  0
LINE
  5
E8
330
1F
100
AcDbEntity
  8
D-2
  6
Continuous
 62
     6
370
     5
100
AcDbLine
 10
-51.8620885900549
 20
-66.10868926177156
 30
0.0
 11
-51.8620885900549
 21
-58.83603697080872
 31
0.0
  0
LINE
  5
E9
330
1F
100
AcDbEntity
  8
D-2
  6
Continuous
 62
     6
370
     5
100
AcDbLine
 10
55.41086887668922
 20
-166.1087222537479
 30
0.0
 11
-30.86224200274489
 21
-166.1087222537479
 31
0.0
  0
LINE
  5
EA
330
1F
100
AcDbEntity
  8
D-1
  6
Continuous
 62
     2
370
     9
100
AcDbLine
 10
69.13793945312506
 20
-167.1087750409101
 30
0.0
 11
38.90490062816724
 21
-167.1087750409101
 31
0.0
  0
LINE
  5
EB
330
1F
100
AcDbEntity
  8
D-2
  6
JWW_DASHED1
 62
     6
370
     5
100
AcDbLine
 10
49.50190693623313
 20
-171.1087882377006
 30
0.0
 11
54.2290962837838
 21
-167.1087750409101
 31
0.0
  0
LINE
  5
EC
330
1F
100
AcDbEntity
  8
D-2
  6
Continuous
 62
     6
370
     5
100
AcDbLine
 10
54.2290962837838
 20
-167.1087750409101
 30
0.0
 11
60.1380582242399
 21
-162.1087090569574
 31
0.0
  0
LINE
  5
ED
330
1F
100
AcDbEntity
  8
D-1
  6
JWW_DASHED1
 62
     2
370
     9
100
AcDbLine
 10
-56.86205559807854
 20
-62.94027182089317
 30
0.0
 11
-56.86205559807854
 21
-66.10868926177156
 31
0.0
  0
LINE
  5
EE
330
1F
100
AcDbEntity
  8
D-1
  6
JWW_DASHED1
 62
     2
370
     9
100
AcDbLine
 10
-56.86205559807854
 20
-72.10870905695737
 30
0.0
 11
-56.86205559807854
 21
-75.10866946658575
 31
0.0
  0
LINE
  5
EF
330
1F
100
AcDbEntity
  8
D-1
  6
Continuous
 62
     2
370
     9
100
AcDbLine
 10
52.01609348606422
 20
228.0791967443518
 30
0.0
 11
45.7235998205237
 21
227.1111131822741
 31
0.0
  0
LINE
  5
F0
330
1F
100
AcDbEntity
  8
D-1
  6
Continuous
 62
     2
370
     9
100
AcDbLine
 10
45.7235998205237
 20
226.0341560982369
 30
0.0
 11
54.7234810494088
 21
226.0341560982369
 31
0.0
  0
LINE
  5
F1
330
1F
100
AcDbEntity
  8
D-1
  6
Continuous
 62
     2
370
     9
100
AcDbLine
 10
45.7235998205237
 20
220.0341363030511
 30
0.0
 11
54.7234810494088
 21
220.0341363030511
 31
0.0
  0
LINE
  5
F2
330
1F
100
AcDbEntity
  8
D-1
  6
Continuous
 62
     2
370
     9
100
AcDbLine
 10
45.7235998205237
 20
218.9571792190139
 30
0.0
 11
52.01609348606422
 21
217.9889966810072
 31
0.0
  0
LINE
  5
F3
330
1F
100
AcDbEntity
  8
D-1
  6
Continuous
 62
     2
370
     9
100
AcDbLine
 10
45.7235998205237
 20
203.3088868837099
 30
0.0
 11
52.03351324957777
 21
204.0715953930005
 31
0.0
  0
LINE
  5
F4
330
1F
100
AcDbEntity
  8
D-1
  6
Continuous
 62
     2
370
     9
100
AcDbLine
 10
45.7235998205237
 20
203.0341297046558
 30
0.0
 11
54.7234810494088
 21
203.0341297046558
 31
0.0
  0
LINE
  5
F5
330
1F
100
AcDbEntity
  8
D-1
  6
Continuous
 62
     2
370
     9
100
AcDbLine
 10
45.7235998205237
 20
195.0341033110748
 30
0.0
 11
54.7234810494088
 21
195.0341033110748
 31
0.0
  0
LINE
  5
F6
330
1F
100
AcDbEntity
  8
D-1
  6
Continuous
 62
     2
370
     9
100
AcDbLine
 10
45.7235998205237
 20
194.7593461320207
 30
0.0
 11
52.03351324957777
 21
193.9966376227301
 31
0.0
  0
LINE
  5
F7
330
1F
100
AcDbEntity
  8
D-1
  6
Continuous
 62
     2
370
     9
100
AcDbLine
 10
45.7235998205237
 20
179.1110537967166
 30
0.0
 11
52.01609348606422
 21
180.0791373587944
 31
0.0
  0
LINE
  5
F8
330
1F
100
AcDbEntity
  8
D-1
  6
Continuous
 62
     2
370
     9
100
AcDbLine
 10
45.7235998205237
 20
178.0340967126795
 30
0.0
 11
54.7234810494088
 21
178.0340967126795
 31
0.0
  0
LINE
  5
F9
330
1F
100
AcDbEntity
  8
D-1
  6
Continuous
 62
     2
370
     9
100
AcDbLine
 10
45.7235998205237
 20
172.0340769174937
 30
0.0
 11
54.7234810494088
 21
172.0340769174937
 31
0.0
  0
LINE
  5
FA
330
1F
100
AcDbEntity
  8
D-1
  6
Continuous
 62
     2
370
     9
100
AcDbLine
 10
52.01609348606422
 20
169.9890362713788
 30
0.0
 11
45.7235998205237
 21
170.9571198334565
 31
0.0
  0
LINE
  5
FB
330
1F
100
AcDbEntity
  8
D-1
  6
Continuous
 62
     2
370
     9
100
AcDbLine
 10
45.7235998205237
 20
155.3088274981524
 30
0.0
 11
52.03351324957777
 21
156.071536007443
 31
0.0
  0
LINE
  5
FC
330
1F
100
AcDbEntity
  8
D-1
  6
Continuous
 62
     2
370
     9
100
AcDbLine
 10
45.7235998205237
 20
155.0340703190984
 30
0.0
 11
54.7234810494088
 21
155.0340703190984
 31
0.0
  0
LINE
  5
FD
330
1F
100
AcDbEntity
  8
D-1
  6
Continuous
 62
     2
370
     9
100
AcDbLine
 10
45.7235998205237
 20
147.0340439255173
 30
0.0
 11
54.7234810494088
 21
147.0340439255173
 31
0.0
  0
LINE
  5
FE
330
1F
100
AcDbEntity
  8
D-1
  6
Continuous
 62
     2
370
     9
100
AcDbLine
 10
45.7235998205237
 20
146.7592867464633
 30
0.0
 11
52.03351324957777
 21
145.9965782371727
 31
0.0
  0
LINE
  5
FF
330
1F
100
AcDbEntity
  8
D-1
  6
Continuous
 62
     2
370
     9
100
AcDbLine
 10
52.01609348606422
 20
132.079176949166
 30
0.0
 11
45.7235998205237
 21
131.1109944111592
 31
0.0
  0
LINE
  5
100
330
1F
100
AcDbEntity
  8
D-1
  6
Continuous
 62
     2
370
     9
100
AcDbLine
 10
45.7235998205237
 20
130.0340373271221
 30
0.0
 11
54.7234810494088
 21
130.0340373271221
 31
0.0
  0
LINE
  5
101
330
1F
100
AcDbEntity
  8
D-1
  6
Continuous
 62
     2
370
     9
100
AcDbLine
 10
45.7235998205237
 20
124.0340175319362
 30
0.0
 11
54.7234810494088
 21
124.0340175319362
 31
0.0
  0
LINE
  5
102
330
1F
100
AcDbEntity
  8
D-1
  6
Continuous
 62
     2
370
     9
100
AcDbLine
 10
45.7235998205237
 20
122.9571594238281
 30
0.0
 11
52.01619246199328
 21
121.9890758617504
 31
0.0
  0
LINE
  5
103
330
1F
100
AcDbEntity
  8
D-1
  6
Continuous
 62
     2
370
     9
100
AcDbLine
 10
45.7235998205237
 20
107.308768112595
 30
0.0
 11
52.03351324957777
 21
108.0715755978146
 31
0.0
  0
LINE
  5
104
330
1F
100
AcDbEntity
  8
D-1
  6
Continuous
 62
     2
370
     9
100
AcDbLine
 10
45.7235998205237
 20
107.03410990947
 30
0.0
 11
54.7234810494088
 21
107.03410990947
 31
0.0
  0
LINE
  5
105
330
1F
100
AcDbEntity
  8
D-1
  6
Continuous
 62
     2
370
     9
100
AcDbLine
 10
45.7235998205237
 20
99.03408351588894
 30
0.0
 11
54.7234810494088
 21
99.03408351588894
 31
0.0
  0
LINE
  5
106
330
1F
100
AcDbEntity
  8
D-1
  6
Continuous
 62
     2
370
     9
100
AcDbLine
 10
45.7235998205237
 20
98.75932633683487
 30
0.0
 11
52.03351324957777
 21
97.99661782754436
 31
0.0
  0
LINE
  5
107
330
1F
100
AcDbEntity
  8
D-1
  6
Continuous
 62
     2
370
     9
100
AcDbLine
 10
45.7235998205237
 20
83.11103400153081
 30
0.0
 11
52.01619246199328
 21
84.07901858767946
 31
0.0
  0
LINE
  5
108
330
1F
100
AcDbEntity
  8
D-1
  6
Continuous
 62
     2
370
     9
100
AcDbLine
 10
45.7235998205237
 20
82.03407691749368
 30
0.0
 11
54.7234810494088
 21
82.03407691749368
 31
0.0
  0
LINE
  5
109
330
1F
100
AcDbEntity
  8
D-1
  6
Continuous
 62
     2
370
     9
100
AcDbLine
 10
45.7235998205237
 20
76.03405712230784
 30
0.0
 11
54.7234810494088
 21
76.03405712230784
 31
0.0
  0
LINE
  5
10A
330
1F
100
AcDbEntity
  8
D-1
  6
Continuous
 62
     2
370
     9
100
AcDbLine
 10
52.01619246199328
 20
73.989016476193
 30
0.0
 11
45.7235998205237
 21
74.95710003827071
 31
0.0
  0
LINE
  5
10B
330
1F
100
AcDbEntity
  8
D-2
  6
Continuous
 62
     6
370
     5
100
AcDbLine
 10
-4.240884316934114
 20
205.0340373271221
 30
0.0
 11
-4.240884316934114
 21
211.0340571223078
 31
0.0
  0
LINE
  5
10C
330
1F
100
AcDbEntity
  8
D-2
  6
Continuous
 62
     6
370
     5
100
AcDbLine
 10
35.23838682432438
 20
203.0340307287267
 30
0.0
 11
-2.240877718538798
 21
203.0340307287267
 31
0.0
  0
LINE
  5
10D
330
1F
100
AcDbEntity
  8
D-2
  6
Continuous
 62
     6
370
     5
100
AcDbLine
 10
37.23839342271964
 20
211.0340571223078
 30
0.0
 11
37.23839342271964
 21
205.0340373271221
 31
0.0
  0
LINE
  5
10E
330
1F
100
AcDbEntity
  8
D-2
  6
Continuous
 62
     6
370
     5
100
AcDbLine
 10
35.23838682432438
 20
213.0340637207032
 30
0.0
 11
-2.240877718538798
 21
213.0340637207032
 31
0.0
  0
LINE
  5
10F
330
1F
100
AcDbEntity
  8
D-2
  6
Continuous
 62
     6
370
     5
100
AcDbLine
 10
-11.31197212837833
 20
205.0340373271221
 30
0.0
 11
-11.31197212837833
 21
211.0340571223078
 31
0.0
  0
LINE
  5
110
330
1F
100
AcDbEntity
  8
D-2
  6
Continuous
 62
     6
370
     5
100
AcDbLine
 10
-11.31197212837833
 20
186.0341231062606
 30
0.0
 11
-11.31197212837833
 21
192.0340439255173
 31
0.0
  0
LINE
  5
111
330
1F
100
AcDbEntity
  8
D-2
  6
Continuous
 62
     6
370
     5
100
AcDbLine
 10
-4.240884316934114
 20
186.0341231062606
 30
0.0
 11
-4.240884316934114
 21
192.0340439255173
 31
0.0
  0
LINE
  5
112
330
1F
100
AcDbEntity
  8
D-2
  6
Continuous
 62
     6
370
     5
100
AcDbLine
 10
35.23838682432438
 20
184.0341165078653
 30
0.0
 11
-2.240877718538798
 21
184.0341165078653
 31
0.0
  0
LINE
  5
113
330
1F
100
AcDbEntity
  8
D-2
  6
Continuous
 62
     6
370
     5
100
AcDbLine
 10
37.23839342271964
 20
192.0340439255173
 30
0.0
 11
37.23839342271964
 21
186.0341231062606
 31
0.0
  0
LINE
  5
114
330
1F
100
AcDbEntity
  8
D-2
  6
Continuous
 62
     6
370
     5
100
AcDbLine
 10
35.23838682432438
 20
194.0340505239126
 30
0.0
 11
-2.240877718538798
 21
194.0340505239126
 31
0.0
  0
LINE
  5
115
330
1F
100
AcDbEntity
  8
D-2
  6
Continuous
 62
     6
370
     5
100
AcDbLine
 10
37.23839342271964
 20
167.03410990947
 30
0.0
 11
37.23839342271964
 21
173.0340307287267
 31
0.0
  0
LINE
  5
116
330
1F
100
AcDbEntity
  8
D-2
  6
Continuous
 62
     6
370
     5
100
AcDbLine
 10
-2.240877718538798
 20
165.0341033110748
 30
0.0
 11
35.23838682432438
 21
165.0341033110748
 31
0.0
  0
LINE
  5
117
330
1F
100
AcDbEntity
  8
D-2
  6
Continuous
 62
     6
370
     5
100
AcDbLine
 10
-4.240884316934114
 20
173.0340307287267
 30
0.0
 11
-4.240884316934114
 21
167.03410990947
 31
0.0
  0
LINE
  5
118
330
1F
100
AcDbEntity
  8
D-2
  6
Continuous
 62
     6
370
     5
100
AcDbLine
 10
-2.240877718538798
 20
175.0341363030511
 30
0.0
 11
35.23838682432438
 21
175.0341363030511
 31
0.0
  0
LINE
  5
119
330
1F
100
AcDbEntity
  8
D-2
  6
Continuous
 62
     6
370
     5
100
AcDbLine
 10
-11.31197212837833
 20
167.03410990947
 30
0.0
 11
-11.31197212837833
 21
173.0340307287267
 31
0.0
  0
LINE
  5
11A
330
1F
100
AcDbEntity
  8
D-2
  6
Continuous
 62
     6
370
     5
100
AcDbLine
 10
-11.31197212837833
 20
148.0340967126795
 30
0.0
 11
-11.31197212837833
 21
154.0341165078653
 31
0.0
  0
LINE
  5
11B
330
1F
100
AcDbEntity
  8
D-2
  6
Continuous
 62
     6
370
     5
100
AcDbLine
 10
-4.240884316934114
 20
154.0341165078653
 30
0.0
 11
-4.240884316934114
 21
148.0340967126795
 31
0.0
  0
LINE
  5
11C
330
1F
100
AcDbEntity
  8
D-2
  6
Continuous
 62
     6
370
     5
100
AcDbLine
 10
35.23838682432438
 20
156.0341231062606
 30
0.0
 11
-2.240877718538798
 21
156.0341231062606
 31
0.0
  0
LINE
  5
11D
330
1F
100
AcDbEntity
  8
D-2
  6
Continuous
 62
     6
370
     5
100
AcDbLine
 10
37.23839342271964
 20
148.0340967126795
 30
0.0
 11
37.23839342271964
 21
154.0341165078653
 31
0.0
  0
LINE
  5
11E
330
1F
100
AcDbEntity
  8
D-2
  6
Continuous
 62
     6
370
     5
100
AcDbLine
 10
35.23838682432438
 20
146.0340901142842
 30
0.0
 11
-2.240877718538798
 21
146.0340901142842
 31
0.0
  0
LINE
  5
11F
330
1F
100
AcDbEntity
  8
D-2
  6
Continuous
 62
     6
370
     5
100
AcDbLine
 10
-4.240884316934114
 20
97.03407691749368
 30
0.0
 11
-4.240884316934114
 21
91.03405712230784
 31
0.0
  0
LINE
  5
120
330
1F
100
AcDbEntity
  8
D-2
  6
Continuous
 62
     6
370
     5
100
AcDbLine
 10
35.23838682432438
 20
99.03408351588894
 30
0.0
 11
-2.240877718538798
 21
99.03408351588894
 31
0.0
  0
LINE
  5
121
330
1F
100
AcDbEntity
  8
D-2
  6
Continuous
 62
     6
370
     5
100
AcDbLine
 10
37.23839342271964
 20
91.03405712230784
 30
0.0
 11
37.23839342271964
 21
97.03407691749368
 31
0.0
  0
LINE
  5
122
330
1F
100
AcDbEntity
  8
D-2
  6
Continuous
 62
     6
370
     5
100
AcDbLine
 10
35.23838682432438
 20
89.03405052391258
 30
0.0
 11
-2.240877718538798
 21
89.03405052391258
 31
0.0
  0
LINE
  5
123
330
1F
100
AcDbEntity
  8
D-2
  6
Continuous
 62
     6
370
     5
100
AcDbLine
 10
-11.31197212837833
 20
97.03407691749368
 30
0.0
 11
-11.31197212837833
 21
91.03405712230784
 31
0.0
  0
LINE
  5
124
330
1F
100
AcDbEntity
  8
D-2
  6
Continuous
 62
     6
370
     5
100
AcDbLine
 10
-11.31197212837833
 20
116.0340901142842
 30
0.0
 11
-11.31197212837833
 21
110.0340703190984
 31
0.0
  0
LINE
  5
125
330
1F
100
AcDbEntity
  8
D-2
  6
Continuous
 62
     6
370
     5
100
AcDbLine
 10
-4.240884316934114
 20
116.0340901142842
 30
0.0
 11
-4.240884316934114
 21
110.0340703190984
 31
0.0
  0
LINE
  5
126
330
1F
100
AcDbEntity
  8
D-2
  6
Continuous
 62
     6
370
     5
100
AcDbLine
 10
35.23838682432438
 20
118.0340967126795
 30
0.0
 11
-2.240877718538798
 21
118.0340967126795
 31
0.0
  0
LINE
  5
127
330
1F
100
AcDbEntity
  8
D-2
  6
Continuous
 62
     6
370
     5
100
AcDbLine
 10
37.23839342271964
 20
110.0340703190984
 30
0.0
 11
37.23839342271964
 21
116.0340901142842
 31
0.0
  0
LINE
  5
128
330
1F
100
AcDbEntity
  8
D-2
  6
Continuous
 62
     6
370
     5
100
AcDbLine
 10
35.23838682432438
 20
108.0340637207031
 30
0.0
 11
-2.240877718538798
 21
108.0340637207031
 31
0.0
  0
LINE
  5
129
330
1F
100
AcDbEntity
  8
D-2
  6
Continuous
 62
     6
370
     5
100
AcDbLine
 10
37.23839342271964
 20
135.0341033110747
 30
0.0
 11
37.23839342271964
 21
129.0340835158889
 31
0.0
  0
LINE
  5
12A
330
1F
100
AcDbEntity
  8
D-2
  6
Continuous
 62
     6
370
     5
100
AcDbLine
 10
-2.240877718538798
 20
137.03410990947
 30
0.0
 11
35.23838682432438
 21
137.03410990947
 31
0.0
  0
LINE
  5
12B
330
1F
100
AcDbEntity
  8
D-2
  6
Continuous
 62
     6
370
     5
100
AcDbLine
 10
-4.240884316934114
 20
129.0340835158889
 30
0.0
 11
-4.240884316934114
 21
135.0341033110747
 31
0.0
  0
LINE
  5
12C
330
1F
100
AcDbEntity
  8
D-2
  6
Continuous
 62
     6
370
     5
100
AcDbLine
 10
-2.240877718538798
 20
127.0340769174937
 30
0.0
 11
35.23838682432438
 21
127.0340769174937
 31
0.0
  0
LINE
  5
12D
330
1F
100
AcDbEntity
  8
D-2
  6
Continuous
 62
     6
370
     5
100
AcDbLine
 10
-11.31197212837833
 20
135.0341033110747
 30
0.0
 11
-11.31197212837833
 21
129.0340835158889
 31
0.0
  0
LINE
  5
12E
330
1F
100
AcDbEntity
  8
D-2
  6
Continuous
 62
     6
370
     5
100
AcDbLine
 10
-21.43817468591635
 20
77.74277756149706
 30
0.0
 11
-10.95838062183276
 21
78.81706229544972
 31
0.0
  0
LINE
  5
12F
330
1F
100
AcDbEntity
  8
D-2
  6
Continuous
 62
     6
370
     5
100
AcDbLine
 10
-52.94142109638932
 20
67.09920307881123
 30
0.0
 11
-5.65534931904557
 21
73.78908509950378
 31
0.0
  0
LINE
  5
130
330
1F
100
AcDbEntity
  8
D-2
  6
Continuous
 62
     6
370
     5
100
AcDbLine
 10
-30.86219251478036
 20
-161.1087552457243
 30
0.0
 11
-23.3108240076013
 21
-161.1087552457243
 31
0.0
  0
LINE
  5
131
330
1F
100
AcDbEntity
  8
D-2
  6
Continuous
 62
     6
370
     5
100
AcDbLine
 10
1.779623495565886
 20
-161.1087552457243
 30
0.0
 11
9.953451620565886
 21
-161.1087552457243
 31
0.0
  0
LINE
  5
132
330
1F
100
AcDbEntity
  8
D-2
  6
Continuous
 62
     6
370
     5
100
AcDbLine
 10
-36.52764892578119
 20
68.21213791305956
 30
0.0
 11
6.719611090582816
 21
73.78908509950378
 31
0.0
  0
LINE
  5
133
330
1F
100
AcDbEntity
  8
D-2
  6
Continuous
 62
     6
370
     5
100
AcDbLine
 10
10.96137299408787
 20
73.78908509950378
 30
0.0
 11
-19.5571618982263
 21
69.36278257627743
 31
0.0
  0
LINE
  5
134
330
1F
100
AcDbEntity
  8
D-2
  6
Continuous
 62
     6
370
     5
100
AcDbLine
 10
-3.293635187922291
 20
70.46557237779768
 30
0.0
 11
23.33732316300677
 21
73.78908509950378
 31
0.0
  0
LINE
  5
135
330
1F
100
AcDbEntity
  8
D-2
  6
Continuous
 62
     6
370
     5
100
AcDbLine
 10
13.6768765836149
 20
71.61616755305107
 30
0.0
 11
27.57661066828553
 21
73.78908509950378
 31
0.0
  0
LINE
  5
136
330
1F
100
AcDbEntity
  8
D-2
  6
Continuous
 62
     6
370
     5
100
AcDbLine
 10
-36.52757469383442
 20
68.21213791305956
 30
0.0
 11
-19.5571618982263
 21
69.36278257627743
 31
0.0
  0
LINE
  5
137
330
1F
100
AcDbEntity
  8
D-2
  6
Continuous
 62
     6
370
     5
100
AcDbLine
 10
-3.293635187922291
 20
70.46557237779768
 30
0.0
 11
45.7235998205237
 21
73.78908509950378
 31
0.0
  0
LINE
  5
138
330
1F
100
AcDbEntity
  8
D-2
  6
Continuous
 62
     6
370
     5
100
AcDbLine
 10
29.9403043179899
 20
72.71895735457139
 30
0.0
 11
39.96280484586151
 21
73.78908509950378
 31
0.0
  0
LINE
  5
139
330
1F
100
AcDbEntity
  8
D-2
  6
Continuous
 62
     6
370
     5
100
AcDbLine
 10
28.41290778082771
 20
77.74277756149706
 30
0.0
 11
38.89257812500006
 21
78.81706229544972
 31
0.0
  0
LINE
  5
13A
330
1F
100
AcDbEntity
  8
D-2
  6
Continuous
 62
     6
370
     5
100
AcDbLine
 10
11.79583905194261
 20
77.74277756149706
 30
0.0
 11
22.27565786000849
 21
78.81706229544972
 31
0.0
  0
LINE
  5
13B
330
1F
100
AcDbEntity
  8
D-2
  6
Continuous
 62
     6
370
     5
100
AcDbLine
 10
-4.821130701013487
 20
77.74277756149706
 30
0.0
 11
5.658638619087867
 21
78.81706229544972
 31
0.0
  0
LINE
  5
13C
330
1F
100
AcDbEntity
  8
D-2
  6
Continuous
 62
     6
370
     5
100
AcDbLine
 10
-38.05519392683698
 20
77.74277756149706
 30
0.0
 11
-27.57542460673562
 21
78.81706229544972
 31
0.0
  0
LINE
  5
13D
330
1F
100
AcDbEntity
  8
D-2
  6
Continuous
 62
     6
370
     5
100
AcDbLine
 10
-54.67221316775755
 20
77.74277756149706
 30
0.0
 11
-44.19241910367396
 21
78.81706229544972
 31
0.0
  0
LINE
  5
13E
330
1F
100
AcDbEntity
  8
D-2
  6
Continuous
 62
     6
370
     5
100
AcDbLine
 10
-60.27657668654979
 20
68.41231672957139
 30
0.0
 11
-22.2720963761613
 21
73.78908509950378
 31
0.0
  0
LINE
  5
13F
330
1F
100
AcDbEntity
  8
D-2
  6
Continuous
 62
     6
370
     5
100
AcDbLine
 10
-26.51420469541802
 20
73.78908509950378
 30
0.0
 11
-60.27657668654979
 21
68.92362637906461
 31
0.0
  0
LINE
  5
140
330
1F
100
AcDbEntity
  8
D-2
  6
Continuous
 62
     6
370
     5
100
AcDbLine
 10
-60.27657668654979
 20
70.76319299646326
 30
0.0
 11
-38.88881868929474
 21
73.78908509950378
 31
0.0
  0
LINE
  5
141
330
1F
100
AcDbEntity
  8
D-2
  6
Continuous
 62
     6
370
     5
100
AcDbLine
 10
-43.13092700855151
 20
73.78908509950378
 30
0.0
 11
-60.27657668654979
 21
71.31825000659836
 31
0.0
  0
LINE
  5
142
330
1F
100
AcDbEntity
  8
D-2
  6
Continuous
 62
     6
370
     5
100
AcDbLine
 10
-46.0373551652238
 20
-135.4917063120249
 30
0.0
 11
-10.24134950380062
 21
-97.8004848170925
 31
0.0
  0
LINE
  5
143
330
1F
100
AcDbEntity
  8
D-2
  6
Continuous
 62
     6
370
     5
100
AcDbLine
 10
-16.81142116237328
 20
-91.2304626464844
 30
0.0
 11
-41.81068709089948
 21
-114.656283486856
 31
0.0
  0
LINE
  5
144
330
1F
100
AcDbEntity
  8
D-2
  6
Continuous
 62
     6
370
     5
100
AcDbLine
 10
-21.24492418443833
 20
-160.2841867807749
 30
0.0
 11
16.44632205447641
 21
-124.4881563753695
 31
0.0
  0
LINE
  5
145
330
1F
100
AcDbEntity
  8
D-2
  6
Continuous
 62
     6
370
     5
100
AcDbLine
 10
23.01634422508448
 20
-131.0581785459776
 30
0.0
 11
-0.4094271273226013
 21
-156.0575187064506
 31
0.0
  0
LINE
  5
146
330
1F
100
AcDbEntity
  8
D-2
  6
Continuous
 62
     6
370
     5
100
AcDbLine
 10
33.00153082770271
 20
-141.0432661726668
 30
0.0
 11
11.98107250316724
 21
-160.3198181152344
 31
0.0
  0
LINE
  5
147
330
1F
100
AcDbEntity
  8
D-2
  6
Continuous
 62
     6
370
     5
100
AcDbLine
 10
32.44988848711995
 20
-156.1321465569574
 30
0.0
 11
39.75248099662167
 21
-147.7943153175148
 31
0.0
  0
LINE
  5
148
330
1F
100
AcDbEntity
  8
D-2
  6
Continuous
 62
     6
370
     5
100
AcDbLine
 10
45.16072371199328
 20
-160.4938177985114
 30
0.0
 11
49.29633393158787
 21
-157.3380692765519
 31
0.0
  0
LINE
  5
149
330
1F
100
AcDbEntity
  8
D-2
  6
Continuous
 62
     6
370
     5
100
AcDbLine
 10
-29.99454477671026
 20
-84.73259392815669
 30
0.0
 11
-46.07311021959458
 21
-102.2656848804371
 31
0.0
  0
LINE
  5
14A
330
1F
100
AcDbEntity
  8
D-2
  6
Continuous
 62
     6
370
     5
100
AcDbLine
 10
-0.1576818517735887
 20
-107.8841524691195
 30
0.0
 11
-41.78096956820099
 21
-147.7073154758763
 31
0.0
  0
LINE
  5
14B
330
1F
100
AcDbEntity
  8
D-2
  6
Continuous
 62
     6
370
     5
100
AcDbLine
 10
6.362604914484848
 20
-114.4044887233425
 30
0.0
 11
-33.46058283625422
 21
-156.0277269518053
 31
0.0
  0
LINE
  5
14C
330
1F
100
AcDbEntity
  8
D-2
  6
Continuous
 62
     6
370
     5
100
AcDbLine
 10
-21.43817468591635
 20
224.3253366831187
 30
0.0
 11
-10.95838062183276
 21
223.251051949166
 31
0.0
  0
LINE
  5
14D
330
1F
100
AcDbEntity
  8
D-2
  6
Continuous
 62
     6
370
     5
100
AcDbLine
 10
-9.897457638302342
 20
228.279128121041
 30
0.0
 11
-59.32108781144422
 21
235.4014359757707
 31
0.0
  0
LINE
  5
14E
330
1F
100
AcDbEntity
  8
D-2
  6
Continuous
 62
     6
370
     5
100
AcDbLine
 10
-52.94142109638932
 20
234.9689111658045
 30
0.0
 11
-5.65534931904557
 21
228.279128121041
 31
0.0
  0
LINE
  5
14F
330
1F
100
AcDbEntity
  8
D-2
  6
Continuous
 62
     6
370
     5
100
AcDbLine
 10
-36.52764892578119
 20
233.8560258195207
 30
0.0
 11
6.719611090582816
 21
228.279128121041
 31
0.0
  0
LINE
  5
150
330
1F
100
AcDbEntity
  8
D-2
  6
Continuous
 62
     6
370
     5
100
AcDbLine
 10
10.96137299408787
 20
228.279128121041
 30
0.0
 11
-19.5571618982263
 21
232.7053316683383
 31
0.0
  0
LINE
  5
151
330
1F
100
AcDbEntity
  8
D-2
  6
Continuous
 62
     6
370
     5
100
AcDbLine
 10
-3.293635187922291
 20
231.602640842747
 30
0.0
 11
23.33732316300677
 21
228.279128121041
 31
0.0
  0
LINE
  5
152
330
1F
100
AcDbEntity
  8
D-2
  6
Continuous
 62
     6
370
     5
100
AcDbLine
 10
-36.52757469383442
 20
233.8560258195207
 30
0.0
 11
-19.5571618982263
 21
232.7053316683383
 31
0.0
  0
LINE
  5
153
330
1F
100
AcDbEntity
  8
D-2
  6
Continuous
 62
     6
370
     5
100
AcDbLine
 10
-3.293635187922291
 20
231.602640842747
 30
0.0
 11
45.7235998205237
 21
228.279128121041
 31
0.0
  0
LINE
  5
154
330
1F
100
AcDbEntity
  8
D-2
  6
Continuous
 62
     6
370
     5
100
AcDbLine
 10
29.9403043179899
 20
229.3492558659734
 30
0.0
 11
39.96280484586151
 21
228.279128121041
 31
0.0
  0
LINE
  5
155
330
1F
100
AcDbEntity
  8
D-2
  6
Continuous
 62
     6
370
     5
100
AcDbLine
 10
28.41290778082771
 20
224.3253366831187
 30
0.0
 11
38.89257812500006
 21
223.251051949166
 31
0.0
  0
LINE
  5
156
330
1F
100
AcDbEntity
  8
D-2
  6
Continuous
 62
     6
370
     5
100
AcDbLine
 10
11.79583905194261
 20
224.3253366831187
 30
0.0
 11
22.27565786000849
 21
223.251051949166
 31
0.0
  0
LINE
  5
157
330
1F
100
AcDbEntity
  8
D-2
  6
Continuous
 62
     6
370
     5
100
AcDbLine
 10
-4.821130701013487
 20
224.3253366831187
 30
0.0
 11
5.658638619087867
 21
223.251051949166
 31
0.0
  0
LINE
  5
158
330
1F
100
AcDbEntity
  8
D-2
  6
Continuous
 62
     6
370
     5
100
AcDbLine
 10
-38.05519392683698
 20
224.3253366831187
 30
0.0
 11
-27.57542460673562
 21
223.251051949166
 31
0.0
  0
LINE
  5
159
330
1F
100
AcDbEntity
  8
D-2
  6
Continuous
 62
     6
370
     5
100
AcDbLine
 10
-54.67221316775755
 20
224.3253366831187
 30
0.0
 11
-44.19241910367396
 21
223.251051949166
 31
0.0
  0
LINE
  5
15A
330
1F
100
AcDbEntity
  8
D-2
  6
Continuous
 62
     6
370
     5
100
AcDbLine
 10
-60.27657668654979
 20
233.6557975150443
 30
0.0
 11
-22.2720963761613
 21
228.279128121041
 31
0.0
  0
LINE
  5
15B
330
1F
100
AcDbEntity
  8
D-2
  6
Continuous
 62
     6
370
     5
100
AcDbLine
 10
-26.51420469541802
 20
228.279128121041
 30
0.0
 11
-60.27657668654979
 21
233.1445868414801
 31
0.0
  0
LINE
  5
15C
330
1F
100
AcDbEntity
  8
D-2
  6
Continuous
 62
     6
370
     5
100
AcDbLine
 10
-60.27657668654979
 20
231.3049212481524
 30
0.0
 11
-38.88881868929474
 21
228.279128121041
 31
0.0
  0
LINE
  5
15D
330
1F
100
AcDbEntity
  8
D-2
  6
Continuous
 62
     6
370
     5
100
AcDbLine
 10
-43.13092700855151
 20
228.279128121041
 30
0.0
 11
-60.27657668654979
 21
230.7498642380173
 31
0.0
  0
LINE
  5
15E
330
1F
100
AcDbEntity
  8
D-2
  6
Continuous
 62
     6
370
     5
100
AcDbLine
 10
-60.27657668654979
 20
235.4662652093011
 30
0.0
 11
-52.94127263249572
 21
234.9689111658045
 31
0.0
  0
LINE
  5
15F
330
1F
100
AcDbEntity
  8
D-2
  6
Continuous
 62
     6
370
     5
100
AcDbLine
 10
-9.897457638302342
 20
73.78908509950378
 30
0.0
 11
-59.32108781144422
 21
66.66667826884503
 31
0.0
  0
LINE
  5
160
330
1F
100
AcDbEntity
  8
D-2
  6
Continuous
 62
     6
370
     5
100
AcDbLine
 10
-60.27657668654979
 20
66.60194801124368
 30
0.0
 11
-52.94127263249572
 21
67.09925256677576
 31
0.0
  0
LINE
  5
161
330
1F
100
AcDbEntity
  8
D-0
  6
Continuous
 62
     2
370
     9
100
AcDbLine
 10
-47.09615016627953
 20
-150.7363748086466
 30
0.0
 11
-51.18204972550672
 21
-154.822299111856
 31
0.0
  0
LINE
  5
162
330
1F
100
AcDbEntity
  8
D-1
  6
Continuous
 62
     2
370
     9
100
AcDbLine
 10
-39.69181040171026
 20
-173.3834530392209
 30
0.0
 11
-46.58587976404135
 21
-166.4893836768898
 31
0.0
  0
LINE
  5
163
330
1F
100
AcDbEntity
  8
D-1
  6
Continuous
 62
     2
370
     9
100
AcDbLine
 10
-52.24275001319677
 20
-160.8326124036635
 30
0.0
 11
-59.13681937552786
 21
-153.9386420172614
 31
0.0
  0
LINE
  5
164
330
1F
100
AcDbEntity
  8
D-2
  6
Continuous
 62
     6
370
     5
100
AcDbLine
 10
-27.61964210304052
 20
156.0341231062606
 30
0.0
 11
-13.31197872677365
 21
156.0341231062606
 31
0.0
  0
LINE
  5
165
330
1F
100
AcDbEntity
  8
D-2
  6
Continuous
 62
     6
370
     5
100
AcDbLine
 10
-29.61964870143578
 20
148.0340967126795
 30
0.0
 11
-29.61964870143578
 21
154.0341165078653
 31
0.0
  0
LINE
  5
166
330
1F
100
AcDbEntity
  8
D-2
  6
Continuous
 62
     6
370
     5
100
AcDbLine
 10
-27.61964210304052
 20
146.0340901142842
 30
0.0
 11
-13.31197872677365
 21
146.0340901142842
 31
0.0
  0
LINE
  5
167
330
1F
100
AcDbEntity
  8
D-2
  6
Continuous
 62
     4
370
     9
100
AcDbLine
 10
-56.68790745090791
 20
150.5550136256862
 30
0.0
 11
-58.67645758551515
 21
150.5550136256862
 31
0.0
  0
LINE
  5
168
330
1F
100
AcDbEntity
  8
D-2
  6
Continuous
 62
     6
370
     5
100
AcDbLine
 10
-36.77550939611484
 20
69.38633884739232
 30
0.0
 11
-36.52757469383442
 21
68.21213791305956
 31
0.0
  0
LINE
  5
169
330
1F
100
AcDbEntity
  8
D-2
  6
Continuous
 62
     6
370
     5
100
AcDbLine
 10
-3.55097260346281
 20
71.68426299224029
 30
0.0
 11
-3.293635187922291
 21
70.46557237779768
 31
0.0
  0
LINE
  5
16A
330
1F
100
AcDbEntity
  8
D-2
  6
Continuous
 62
     6
370
     5
100
AcDbLine
 10
-36.77550939611484
 20
232.6817753972234
 30
0.0
 11
-36.52757469383442
 21
233.8560258195207
 31
0.0
  0
LINE
  5
16B
330
1F
100
AcDbEntity
  8
D-2
  6
Continuous
 62
     6
370
     5
100
AcDbLine
 10
-3.55097260346281
 20
230.3838512523755
 30
0.0
 11
-3.293635187922291
 21
231.602640842747
 31
0.0
  0
LINE
  5
16C
330
1F
100
AcDbEntity
  8
D-2
  6
Continuous
 62
     6
370
     5
100
AcDbLine
 10
40.36761639569261
 20
228.279128121041
 30
0.0
 11
45.7235998205237
 21
228.279128121041
 31
0.0
  0
LINE
  5
16D
330
1F
100
AcDbEntity
  8
D-2
  6
Continuous
 62
     6
370
     5
100
AcDbLine
 10
38.97690561655406
 20
223.6469556653822
 30
0.0
 11
39.87857633023651
 21
227.8831254288957
 31
0.0
  0
LINE
  5
16E
330
1F
100
AcDbEntity
  8
D-2
  6
Continuous
 62
     6
370
     5
100
AcDbLine
 10
29.04496806376693
 20
223.251051949166
 30
0.0
 11
38.48786555109803
 21
223.251051949166
 31
0.0
  0
LINE
  5
16F
330
1F
100
AcDbEntity
  8
D-2
  6
Continuous
 62
     6
370
     5
100
AcDbLine
 10
13.6768765836149
 20
230.4519466915646
 30
0.0
 11
27.57661066828553
 21
228.279128121041
 31
0.0
  0
LINE
  5
170
330
1F
100
AcDbEntity
  8
D-2
  6
Continuous
 62
     6
370
     5
100
AcDbLine
 10
27.66044328019427
 20
227.8825315733214
 30
0.0
 11
28.55573004645271
 21
223.6476484968856
 31
0.0
  0
LINE
  5
171
330
1F
100
AcDbEntity
  8
D-2
  6
Continuous
 62
     6
370
     5
100
AcDbLine
 10
23.74272856841219
 20
228.279128121041
 30
0.0
 11
27.17125475084464
 21
228.279128121041
 31
0.0
  0
LINE
  5
172
330
1F
100
AcDbEntity
  8
D-2
  6
Continuous
 62
     6
370
     5
100
AcDbLine
 10
22.35944098395271
 20
223.6477474728146
 30
0.0
 11
23.25349055109803
 21
227.8823336214633
 31
0.0
  0
LINE
  5
173
330
1F
100
AcDbEntity
  8
D-2
  6
Continuous
 62
     6
370
     5
100
AcDbLine
 10
12.4280972867399
 20
223.251051949166
 30
0.0
 11
21.87020296663854
 21
223.251051949166
 31
0.0
  0
LINE
  5
174
330
1F
100
AcDbEntity
  8
D-2
  6
Continuous
 62
     6
370
     5
100
AcDbLine
 10
11.04510663006761
 20
227.8823336214633
 30
0.0
 11
11.93885926942573
 21
223.6477474728146
 31
0.0
  0
LINE
  5
175
330
1F
100
AcDbEntity
  8
D-2
  6
Continuous
 62
     6
370
     5
100
AcDbLine
 10
7.12511547191724
 20
228.279128121041
 30
0.0
 11
10.55586861275339
 21
228.279128121041
 31
0.0
  0
LINE
  5
176
330
1F
100
AcDbEntity
  8
D-2
  6
Continuous
 62
     6
370
     5
100
AcDbLine
 10
5.742372255067608
 20
223.6478464487437
 30
0.0
 11
6.635877454603076
 21
227.8823336214633
 31
0.0
  0
LINE
  5
177
330
1F
100
AcDbEntity
  8
D-2
  6
Continuous
 62
     6
370
     5
100
AcDbLine
 10
-4.188921954180728
 20
223.251051949166
 30
0.0
 11
5.253134237753386
 21
223.251051949166
 31
0.0
  0
LINE
  5
178
330
1F
100
AcDbEntity
  8
D-2
  6
Continuous
 62
     6
370
     5
100
AcDbLine
 10
-5.571665171030361
 20
227.8823336214633
 30
0.0
 11
-4.678159971494892
 21
223.6478464487437
 31
0.0
  0
LINE
  5
179
330
1F
100
AcDbEntity
  8
D-2
  6
Continuous
 62
     6
370
     5
100
AcDbLine
 10
-9.49195325696786
 20
228.279128121041
 30
0.0
 11
-6.060903188344582
 21
228.279128121041
 31
0.0
  0
LINE
  5
17A
330
1F
100
AcDbEntity
  8
D-2
  6
Continuous
 62
     6
370
     5
100
AcDbLine
 10
-10.87469647381755
 20
223.6478464487437
 30
0.0
 11
-9.98114178631755
 21
227.8823336214633
 31
0.0
  0
LINE
  5
17B
330
1F
100
AcDbEntity
  8
D-2
  6
Continuous
 62
     6
370
     5
100
AcDbLine
 10
-20.80596593908359
 20
223.251051949166
 30
0.0
 11
-11.36393449113172
 21
223.251051949166
 31
0.0
  0
LINE
  5
17C
330
1F
100
AcDbEntity
  8
D-2
  6
Continuous
 62
     6
370
     5
100
AcDbLine
 10
-22.18875864389776
 20
227.8823336214633
 30
0.0
 11
-21.29520395639776
 21
223.6478464487437
 31
0.0
  0
LINE
  5
17D
330
1F
100
AcDbEntity
  8
D-2
  6
Continuous
 62
     6
370
     5
100
AcDbLine
 10
-26.10870031408359
 20
228.279128121041
 30
0.0
 11
-22.67797191722968
 21
228.279128121041
 31
0.0
  0
LINE
  5
17E
330
1F
100
AcDbEntity
  8
D-2
  6
Continuous
 62
     6
370
     5
100
AcDbLine
 10
-27.49169097075588
 20
223.6477474728146
 30
0.0
 11
-26.59793833139776
 21
227.8823336214633
 31
0.0
  0
LINE
  5
17F
330
1F
100
AcDbEntity
  8
D-2
  6
Continuous
 62
     6
370
     5
100
AcDbLine
 10
-37.42647408150333
 20
223.251051949166
 30
0.0
 11
-27.98090424408781
 21
223.251051949166
 31
0.0
  0
LINE
  5
180
330
1F
100
AcDbEntity
  8
D-2
  6
Continuous
 62
     6
370
     5
100
AcDbLine
 10
-38.84764470280822
 20
227.8864906104836
 30
0.0
 11
-37.91482131545604
 21
223.6436894597234
 31
0.0
  0
LINE
  5
181
330
1F
100
AcDbEntity
  8
D-2
  6
Continuous
 62
     6
370
     5
100
AcDbLine
 10
-42.79280049092057
 20
228.279128121041
 30
0.0
 11
-39.33599193676093
 21
228.279128121041
 31
0.0
  0
LINE
  5
182
330
1F
100
AcDbEntity
  8
D-2
  6
Continuous
 62
     6
370
     5
100
AcDbLine
 10
-44.11308989653713
 20
223.6546757878484
 30
0.0
 11
-43.28342417124151
 21
227.8755042823586
 31
0.0
  0
LINE
  5
183
330
1F
100
AcDbEntity
  8
D-2
  6
Continuous
 62
     6
370
     5
100
AcDbLine
 10
-54.05014945365286
 20
223.251051949166
 30
0.0
 11
-44.60371357685807
 21
223.251051949166
 31
0.0
  0
LINE
  5
184
330
1F
100
AcDbEntity
  8
D-2
  6
Continuous
 62
     6
370
     5
100
AcDbLine
 10
-55.54671498891469
 20
227.8944086848078
 30
0.0
 11
-54.53666563291807
 21
223.63567240947
 31
0.0
  0
LINE
  5
185
330
1F
100
AcDbEntity
  8
D-2
  6
Continuous
 62
     6
370
     5
100
AcDbLine
 10
-54.53666563291807
 20
78.43244183514571
 30
0.0
 11
-55.54671498891469
 21
74.17370555980784
 31
0.0
  0
LINE
  5
186
330
1F
100
AcDbEntity
  8
D-2
  6
Continuous
 62
     6
370
     5
100
AcDbLine
 10
-44.60371357685807
 20
78.81706229544972
 30
0.0
 11
-54.05014945365286
 21
78.81706229544972
 31
0.0
  0
LINE
  5
187
330
1F
100
AcDbEntity
  8
D-2
  6
Continuous
 62
     6
370
     5
100
AcDbLine
 10
-43.28342417124151
 20
74.19260996225717
 30
0.0
 11
-44.11308989653713
 21
78.41353743269639
 31
0.0
  0
LINE
  5
188
330
1F
100
AcDbEntity
  8
D-2
  6
Continuous
 62
     6
370
     5
100
AcDbLine
 10
-39.33599193676093
 20
73.78908509950378
 30
0.0
 11
-42.79280049092057
 21
73.78908509950378
 31
0.0
  0
LINE
  5
189
330
1F
100
AcDbEntity
  8
D-2
  6
Continuous
 62
     6
370
     5
100
AcDbLine
 10
-37.91482131545604
 20
78.42442478489232
 30
0.0
 11
-38.84764470280822
 21
74.18172261006123
 31
0.0
  0
LINE
  5
18A
330
1F
100
AcDbEntity
  8
D-2
  6
Continuous
 62
     6
370
     5
100
AcDbLine
 10
-27.98090424408781
 20
78.81706229544972
 30
0.0
 11
-37.42647408150333
 21
78.81706229544972
 31
0.0
  0
LINE
  5
18B
330
1F
100
AcDbEntity
  8
D-2
  6
Continuous
 62
     6
370
     5
100
AcDbLine
 10
-26.59793833139776
 20
74.18587959908149
 30
0.0
 11
-27.49169097075588
 21
78.42036677180107
 31
0.0
  0
LINE
  5
18C
330
1F
100
AcDbEntity
  8
D-2
  6
Continuous
 62
     6
370
     5
100
AcDbLine
 10
-22.67797191722968
 20
73.78908509950378
 30
0.0
 11
-26.10870031408359
 21
73.78908509950378
 31
0.0
  0
LINE
  5
18D
330
1F
100
AcDbEntity
  8
D-2
  6
Continuous
 62
     6
370
     5
100
AcDbLine
 10
-21.29520395639776
 20
78.42036677180107
 30
0.0
 11
-22.18875864389776
 21
74.18587959908149
 31
0.0
  0
LINE
  5
18E
330
1F
100
AcDbEntity
  8
D-2
  6
Continuous
 62
     6
370
     5
100
AcDbLine
 10
-11.36393449113172
 20
78.81706229544972
 30
0.0
 11
-20.80596593908359
 21
78.81706229544972
 31
0.0
  0
LINE
  5
18F
330
1F
100
AcDbEntity
  8
D-2
  6
Continuous
 62
     6
370
     5
100
AcDbLine
 10
-9.98114178631755
 20
74.18587959908149
 30
0.0
 11
-10.87469647381755
 21
78.42036677180107
 31
0.0
  0
LINE
  5
190
330
1F
100
AcDbEntity
  8
D-2
  6
Continuous
 62
     6
370
     5
100
AcDbLine
 10
-6.060903188344582
 20
73.78908509950378
 30
0.0
 11
-9.49195325696786
 21
73.78908509950378
 31
0.0
  0
LINE
  5
191
330
1F
100
AcDbEntity
  8
D-2
  6
Continuous
 62
     6
370
     5
100
AcDbLine
 10
-4.678159971494892
 20
78.42036677180107
 30
0.0
 11
-5.571665171030361
 21
74.18587959908149
 31
0.0
  0
LINE
  5
192
330
1F
100
AcDbEntity
  8
D-2
  6
Continuous
 62
     6
370
     5
100
AcDbLine
 10
5.253134237753386
 20
78.81706229544972
 30
0.0
 11
-4.188921954180728
 21
78.81706229544972
 31
0.0
  0
LINE
  5
193
330
1F
100
AcDbEntity
  8
D-2
  6
Continuous
 62
     6
370
     5
100
AcDbLine
 10
6.635877454603076
 20
74.18587959908149
 30
0.0
 11
5.742372255067608
 21
78.42036677180107
 31
0.0
  0
LINE
  5
194
330
1F
100
AcDbEntity
  8
D-2
  6
Continuous
 62
     6
370
     5
100
AcDbLine
 10
10.55586861275339
 20
73.78908509950378
 30
0.0
 11
7.12511547191724
 21
73.78908509950378
 31
0.0
  0
LINE
  5
195
330
1F
100
AcDbEntity
  8
D-2
  6
Continuous
 62
     6
370
     5
100
AcDbLine
 10
11.93885926942573
 20
78.42036677180107
 30
0.0
 11
11.04510663006761
 21
74.18587959908149
 31
0.0
  0
LINE
  5
196
330
1F
100
AcDbEntity
  8
D-2
  6
Continuous
 62
     6
370
     5
100
AcDbLine
 10
21.87020296663854
 20
78.81706229544972
 30
0.0
 11
12.4280972867399
 21
78.81706229544972
 31
0.0
  0
LINE
  5
197
330
1F
100
AcDbEntity
  8
D-2
  6
Continuous
 62
     6
370
     5
100
AcDbLine
 10
23.25349055109803
 20
74.18578062315243
 30
0.0
 11
22.35944098395271
 21
78.42036677180107
 31
0.0
  0
LINE
  5
198
330
1F
100
AcDbEntity
  8
D-2
  6
Continuous
 62
     6
370
     5
100
AcDbLine
 10
27.17125475084464
 20
73.78908509950378
 30
0.0
 11
23.74272856841219
 21
73.78908509950378
 31
0.0
  0
LINE
  5
199
330
1F
100
AcDbEntity
  8
D-2
  6
Continuous
 62
     6
370
     5
100
AcDbLine
 10
28.55573004645271
 20
78.42051523569467
 30
0.0
 11
27.66044328019427
 21
74.18568164722336
 31
0.0
  0
LINE
  5
19A
330
1F
100
AcDbEntity
  8
D-2
  6
Continuous
 62
     6
370
     5
100
AcDbLine
 10
38.48786555109803
 20
78.81706229544972
 30
0.0
 11
29.04496806376693
 21
78.81706229544972
 31
0.0
  0
LINE
  5
19B
330
1F
100
AcDbEntity
  8
D-2
  6
Continuous
 62
     6
370
     5
100
AcDbLine
 10
39.87857633023651
 20
74.18498881572003
 30
0.0
 11
38.97690561655406
 21
78.42115857923352
 31
0.0
  0
LINE
  5
19C
330
1F
100
AcDbEntity
  8
D-2
  6
Continuous
 62
     6
370
     5
100
AcDbLine
 10
40.36761639569261
 20
73.78908509950378
 30
0.0
 11
45.7235998205237
 21
73.78908509950378
 31
0.0
  0
LINE
  5
19D
330
1F
100
AcDbEntity
  8
D-2
  6
Continuous
 62
     6
370
     5
100
AcDbLine
 10
-46.86212158203119
 20
-75.25970673432224
 30
0.0
 11
-46.86212158203119
 21
-54.10884762325804
 31
0.0
  0
LINE
  5
19E
330
1F
100
AcDbEntity
  8
D-2
  6
Continuous
 62
     6
370
     5
100
AcDbLine
 10
-43.01586749102614
 20
-79.25675065324114
 30
0.0
 11
-20.86208529085724
 21
-80.10873545053843
 31
0.0
  0
LINE
  5
19F
330
1F
100
AcDbEntity
  8
D-2
  6
Continuous
 62
     6
370
     5
100
AcDbLine
 10
-43.20802925728458
 20
-84.25305555188979
 30
0.0
 11
-23.0121146537162
 21
-85.02981864310601
 31
0.0
  0
LINE
  5
1A0
330
1F
100
AcDbEntity
  8
D-2
  6
Continuous
 62
     6
370
     5
100
AcDbLine
 10
-23.0121146537162
 20
-85.02981864310601
 30
0.0
 11
56.84958298141896
 21
-164.891318326383
 31
0.0
  0
LINE
  5
1A1
330
1F
100
AcDbEntity
  8
D-1
  6
Continuous
 62
     2
370
     9
100
AcDbLine
 10
-61.99375956767312
 20
227.7887023925782
 30
0.0
 11
-65.55946638777448
 21
227.279372261666
 31
0.0
  0
LINE
  5
1A2
330
1F
100
AcDbEntity
  8
D-1
  6
Continuous
 62
     2
370
     9
100
AcDbLine
 10
-61.99375956767312
 20
74.27941185203758
 30
0.0
 11
-65.55946638777448
 21
74.78874198294972
 31
0.0
  0
LINE
  5
1A3
330
1F
100
AcDbEntity
  8
D-1
  6
Continuous
 62
     2
370
     9
100
AcDbLine
 10
-60.27657668654979
 20
59.34404313370987
 30
0.0
 11
-60.27657668654979
 21
72.29949736724029
 31
0.0
  0
LINE
  5
1A4
330
1F
100
AcDbEntity
  8
D-1
  6
Continuous
 62
     2
370
     9
100
AcDbLine
 10
-62.0775426916174
 20
57.35403310414904
 30
0.0
 11
-75.27660143053208
 21
56.0340901142842
 31
0.0
  0
LINE
  5
1A5
330
1F
100
AcDbEntity
  8
D-1
  6
Continuous
 62
     2
370
     9
100
AcDbLine
 10
-61.99375956767312
 20
83.788821163693
 30
0.0
 11
-65.55946638777448
 21
83.27939205685175
 31
0.0
  0
LINE
  5
1A6
330
1F
100
AcDbEntity
  8
D-1
  6
Continuous
 62
     2
370
     9
100
AcDbLine
 10
-60.27657668654979
 20
96.29957654798352
 30
0.0
 11
-60.27657668654979
 21
85.76863667256123
 31
0.0
  0
LINE
  5
1A7
330
1F
100
AcDbEntity
  8
D-1
  6
Continuous
 62
     2
370
     9
100
AcDbLine
 10
-61.99380905563766
 20
98.27949103278081
 30
0.0
 11
-65.55946638777448
 21
98.78872218776394
 31
0.0
  0
LINE
  5
1A8
330
1F
100
AcDbEntity
  8
D-1
  6
Continuous
 62
     2
370
     9
100
AcDbLine
 10
-61.99371007970859
 20
107.7888013685072
 30
0.0
 11
-65.55946638777448
 21
107.279372261666
 31
0.0
  0
LINE
  5
1A9
330
1F
100
AcDbEntity
  8
D-1
  6
Continuous
 62
     2
370
     9
100
AcDbLine
 10
-60.27657668654979
 20
120.2994577768687
 30
0.0
 11
-60.27657668654979
 21
109.7687158533045
 31
0.0
  0
LINE
  5
1AA
330
1F
100
AcDbEntity
  8
D-1
  6
Continuous
 62
     2
370
     9
100
AcDbLine
 10
-61.99375956767312
 20
122.279372261666
 30
0.0
 11
-65.55946638777448
 21
122.7887023925781
 31
0.0
  0
LINE
  5
1AB
330
1F
100
AcDbEntity
  8
D-1
  6
Continuous
 62
     2
370
     9
100
AcDbLine
 10
-61.99375956767312
 20
131.7886825973923
 30
0.0
 11
-65.55946638777448
 21
131.2793524664801
 31
0.0
  0
LINE
  5
1AC
330
1F
100
AcDbEntity
  8
D-1
  6
Continuous
 62
     2
370
     9
100
AcDbLine
 10
-60.27657668654979
 20
144.2995369576119
 30
0.0
 11
-60.27657668654979
 21
133.7685970821896
 31
0.0
  0
LINE
  5
1AD
330
1F
100
AcDbEntity
  8
D-1
  6
Continuous
 62
     2
370
     9
100
AcDbLine
 10
-61.99375956767312
 20
146.2794514424092
 30
0.0
 11
-65.55946638777448
 21
146.7887815733214
 31
0.0
  0
LINE
  5
1AE
330
1F
100
AcDbEntity
  8
D-1
  6
Continuous
 62
     2
370
     9
100
AcDbLine
 10
-61.99375956767312
 20
155.7887617781356
 30
0.0
 11
-65.55946638777448
 21
155.2794316472234
 31
0.0
  0
LINE
  5
1AF
330
1F
100
AcDbEntity
  8
D-1
  6
Continuous
 62
     2
370
     9
100
AcDbLine
 10
-60.27657668654979
 20
168.2995171624261
 30
0.0
 11
-60.27657668654979
 21
157.7686762629328
 31
0.0
  0
LINE
  5
1B0
330
1F
100
AcDbEntity
  8
D-1
  6
Continuous
 62
     2
370
     9
100
AcDbLine
 10
-61.99375956767312
 20
170.2794316472234
 30
0.0
 11
-65.55946638777448
 21
170.7887617781356
 31
0.0
  0
LINE
  5
1B1
330
1F
100
AcDbEntity
  8
D-1
  6
Continuous
 62
     2
370
     9
100
AcDbLine
 10
-61.99375956767312
 20
179.7887419829498
 30
0.0
 11
-65.55946638777448
 21
179.2794118520376
 31
0.0
  0
LINE
  5
1B2
330
1F
100
AcDbEntity
  8
D-1
  6
Continuous
 62
     2
370
     9
100
AcDbLine
 10
-61.99371007970859
 20
194.2793128761085
 30
0.0
 11
-65.55946638777448
 21
194.7887419829498
 31
0.0
  0
LINE
  5
1B3
330
1F
100
AcDbEntity
  8
D-1
  6
Continuous
 62
     2
370
     9
100
AcDbLine
 10
-60.27657668654979
 20
192.2993983913112
 30
0.0
 11
-60.27657668654979
 21
181.7686564677471
 31
0.0
  0
LINE
  5
1B4
330
1F
100
AcDbEntity
  8
D-1
  6
Continuous
 62
     2
370
     9
100
AcDbLine
 10
-61.99380905563766
 20
203.7887221877639
 30
0.0
 11
-65.55946638777448
 21
203.2793920568517
 31
0.0
  0
LINE
  5
1B5
330
1F
100
AcDbEntity
  8
D-1
  6
Continuous
 62
     2
370
     9
100
AcDbLine
 10
-60.27657668654979
 20
216.2994775720545
 30
0.0
 11
-60.27657668654979
 21
205.7686366725612
 31
0.0
  0
LINE
  5
1B6
330
1F
100
AcDbEntity
  8
D-1
  6
Continuous
 62
     2
370
     9
100
AcDbLine
 10
-61.99375956767312
 20
218.2793920568518
 30
0.0
 11
-65.55946638777448
 21
218.7887221877639
 31
0.0
  0
LINE
  5
1B7
330
1F
100
AcDbEntity
  8
D-1
  6
Continuous
 62
     2
370
     9
100
AcDbLine
 10
-60.27657668654979
 20
242.7240711109059
 30
0.0
 11
-60.27657668654979
 21
229.7686168773755
 31
0.0
  0
LINE
  5
1B8
330
1F
100
AcDbEntity
  8
D-1
  6
Continuous
 62
     2
370
     9
100
AcDbLine
 10
-62.0775426916174
 20
244.7141801163957
 30
0.0
 11
-75.27660143053208
 21
246.0340241303315
 31
0.0
  0
LINE
  5
1B9
330
1F
100
AcDbEntity
  8
D-1
  6
Continuous
 62
     2
370
     9
100
AcDbLine
 10
-52.86214137721703
 20
-74.10881463128169
 30
0.0
 11
-60.86219251478036
 21
-83.64286894927156
 31
0.0
  0
LINE
  5
1BA
330
1F
100
AcDbEntity
  8
D-1
  6
Continuous
 62
     2
370
     9
100
AcDbLine
 10
-52.86214137721703
 20
-56.38163188212627
 30
0.0
 11
-45.98044400601771
 21
-48.24858183989656
 31
0.0
  0
LINE
  5
1BB
330
1F
100
AcDbEntity
  8
D-1
  6
JWW_DASHED1
 62
     2
370
     9
100
AcDbLine
 10
-55.67904580605995
 20
-59.71058827993033
 30
0.0
 11
-52.86214137721703
 21
-56.38163188212627
 31
0.0
  0
LINE
  5
1BC
330
1F
100
AcDbEntity
  8
D-2
  6
Continuous
 62
     6
370
     5
100
AcDbLine
 10
-52.86214137721703
 20
-60.01780956371411
 30
0.0
 11
-47.86212488122885
 21
-54.10884762325804
 31
0.0
  0
LINE
  5
1BD
330
1F
100
AcDbEntity
  8
D-2
  6
Continuous
 62
     6
370
     5
100
AcDbLine
 10
-53.06791233372041
 20
-74.86756410341007
 30
0.0
 11
-53.43694408519843
 21
-74.79382703626479
 31
0.0
  0
LINE
  5
1BE
330
1F
100
AcDbEntity
  8
D-1
  6
Continuous
 62
     2
370
     9
100
AcDbLine
 10
-52.86214137721703
 20
-74.10881463128169
 30
0.0
 11
-52.86214137721703
 21
-72.10870905695737
 31
0.0
  0
LINE
  5
1BF
330
1F
100
AcDbEntity
  8
D-1
  6
Continuous
 62
     2
370
     9
100
AcDbLine
 10
-52.86214137721703
 20
-66.10868926177156
 30
0.0
 11
-52.86214137721703
 21
-45.10876844251482
 31
0.0
  0
LINE
  5
1C0
330
1F
100
AcDbEntity
  8
D-2
  6
Continuous
 62
     4
370
     9
100
AcDbLine
 10
-58.67643284153291
 20
157.0340769174937
 30
0.0
 11
-60.41638018633864
 21
157.0340769174937
 31
0.0
  0
LINE
  5
1C1
330
1F
100
AcDbEntity
  8
D-2
  6
Continuous
 62
     4
370
     9
100
AcDbLine
 10
-58.67643284153291
 20
145.0341363030511
 30
0.0
 11
-60.41638018633864
 21
145.0341363030511
 31
0.0
  0
LINE
  5
1C2
330
1F
100
AcDbEntity
  8
D-2
  6
Continuous
 62
     4
370
     9
100
AcDbLine
 10
-61.27653049778291
 20
146.0315167401288
 30
0.0
 11
-61.27653049778291
 21
156.0365975044869
 31
0.0
  0
LINE
  5
1C3
330
1F
100
AcDbEntity
  8
D-2
  6
Continuous
 62
     6
370
     5
100
AcDbLine
 10
-47.86212488122885
 20
-54.10884762325804
 30
0.0
 11
-46.86212158203119
 21
-54.10884762325804
 31
0.0
  0
LINE
  5
1C4
330
1F
100
AcDbEntity
  8
D-2
  6
Continuous
 62
     6
370
     5
100
AcDbLine
 10
-62.27653379698057
 20
146.3198336214633
 30
0.0
 11
-62.27653379698057
 21
155.7483795990815
 31
0.0
  0
LINE
  5
1C5
330
1F
100
AcDbEntity
  8
D-2
  6
Continuous
 62
     6
370
     5
100
AcDbLine
 10
42.72363941089532
 20
239.5340769174937
 30
0.0
 11
-60.27657668654979
 21
239.5340769174937
 31
0.0
  0
LINE
  5
1C6
330
1F
100
AcDbEntity
  8
D-2
  6
Continuous
 62
     6
370
     5
100
AcDbLine
 10
42.72363941089532
 20
62.53413630305107
 30
0.0
 11
-60.27657668654979
 21
62.53413630305107
 31
0.0
  0
LINE
  5
1C7
330
1F
100
AcDbEntity
  8
D-2
  6
Continuous
 62
     6
370
     5
100
AcDbLine
 10
45.7235998205237
 20
65.53409671267946
 30
0.0
 11
45.7235998205237
 21
236.5340175319363
 31
0.0
  0
LINE
  5
1C8
330
1F
100
AcDbEntity
  8
D-1
  6
Continuous
 62
     2
370
     9
100
AcDbLine
 10
48.72346125422303
 20
241.534083515889
 30
0.0
 11
0.2234744510135442
 21
241.534083515889
 31
0.0
  0
LINE
  5
1C9
330
1F
100
AcDbEntity
  8
D-1
  6
Continuous
 62
     2
370
     9
100
AcDbLine
 10
51.72352063978042
 20
238.5340241303315
 30
0.0
 11
51.72352063978042
 21
228.5340901142842
 31
0.0
  0
LINE
  5
1CA
330
1F
100
AcDbEntity
  8
D-1
  6
Continuous
 62
     2
370
     9
100
AcDbLine
 10
48.72346125422303
 20
244.5340439255173
 30
0.0
 11
0.2234744510135442
 21
244.5340439255173
 31
0.0
  0
LINE
  5
1CB
330
1F
100
AcDbEntity
  8
D-1
  6
Continuous
 62
     2
370
     9
100
AcDbLine
 10
48.72346125422303
 20
246.0340241303315
 30
0.0
 11
-75.27660143053208
 21
246.0340241303315
 31
0.0
  0
LINE
  5
1CC
330
1F
100
AcDbEntity
  8
D-1
  6
Continuous
 62
     2
370
     9
100
AcDbLine
 10
48.72346125422303
 20
57.53407031909836
 30
0.0
 11
0.2234744510135442
 21
57.53407031909836
 31
0.0
  0
LINE
  5
1CD
330
1F
100
AcDbEntity
  8
D-1
  6
Continuous
 62
     2
370
     9
100
AcDbLine
 10
54.7234810494088
 20
62.03410990947003
 30
0.0
 11
54.7234810494088
 21
240.0341033110747
 31
0.0
  0
LINE
  5
1CE
330
1F
100
AcDbEntity
  8
D-1
  6
Continuous
 62
     2
370
     9
100
AcDbLine
 10
48.72346125422303
 20
56.0340901142842
 30
0.0
 11
-75.27660143053208
 21
56.0340901142842
 31
0.0
  0
LINE
  5
1CF
330
1F
100
AcDbEntity
  8
D-1
  6
Continuous
 62
     2
370
     9
100
AcDbLine
 10
51.72352063978042
 20
63.5340901142842
 30
0.0
 11
51.72352063978042
 21
73.53402413033149
 31
0.0
  0
LINE
  5
1D0
330
1F
100
AcDbEntity
  8
D-1
  6
Continuous
 62
     2
370
     9
100
AcDbLine
 10
48.72346125422303
 20
60.53408021669128
 30
0.0
 11
0.2234744510135442
 21
60.53408021669128
 31
0.0
  0
LINE
  5
1D1
330
1F
100
AcDbEntity
  8
D-2
  6
Continuous
 62
     4
370
     9
100
AcDbLine
 10
-48.86207869246198
 20
-66.10868926177156
 30
0.0
 11
-48.86207869246198
 21
-72.10870905695737
 31
0.0
  0
LINE
  5
1D2
330
1F
100
AcDbEntity
  8
D-0
  6
Continuous
 62
     3
370
     9
100
AcDbLine
 10
73.88433013091219
 20
-183.7143625620249
 30
0.0
 11
74.13780748521964
 21
-185.1087354505385
 31
0.0
  0
LINE
  5
1D3
330
1F
100
AcDbEntity
  8
D-0
  6
JWW_HOJO
 62
     3
370
     9
100
AcDbLine
 10
12.60229492187506
 20
-182.0474099648966
 30
0.0
 11
13.51891100084464
 21
-186.8597186114337
 31
0.0
  0
LINE
  5
1D4
330
1F
100
AcDbEntity
  8
D-0
  6
JWW_HOJO
 62
     3
370
     9
100
AcDbLine
 10
-30.86219251478036
 20
-179.6087420489337
 30
0.0
 11
9.655286634290576
 21
-179.6087420489337
 31
0.0
  0
LINE
  5
1D5
330
1F
100
AcDbEntity
  8
D-0
  6
Continuous
 62
     3
370
     9
100
AcDbLine
 10
23.95577425570104
 20
-190.1088014344912
 30
0.0
 11
14.55152686866558
 21
-190.1088014344912
 31
0.0
  0
LINE
  5
1D6
330
1F
100
AcDbEntity
  8
D-0
  6
Continuous
 62
     3
370
     9
100
AcDbLine
 10
24.27719858530406
 20
-189.9918118863493
 30
0.0
 11
35.2572912267737
 21
-180.7785385544236
 31
0.0
  0
LINE
  5
1D7
330
1F
100
AcDbEntity
  8
D-0
  6
Continuous
 62
     3
370
     9
100
AcDbLine
 10
36.86762959248313
 20
-179.6087420489337
 30
0.0
 11
68.96492952913854
 21
-179.6087420489337
 31
0.0
  0
LINE
  5
1D8
330
1F
100
AcDbEntity
  8
D-0
  6
JWW_HOJO
 62
     3
370
     9
100
AcDbLine
 10
-67.11383386560385
 20
-170.2185987317885
 30
0.0
 11
-64.53659964896536
 21
-166.5379808580553
 31
0.0
  0
LINE
  5
1D9
330
1F
100
AcDbEntity
  8
D-0
  6
Continuous
 62
     3
370
     9
100
AcDbLine
 10
-55.88936965529979
 20
-161.6508464091533
 30
0.0
 11
-58.20402073215791
 21
-161.6508464091533
 31
0.0
  0
LINE
  5
1DA
330
1F
100
AcDbEntity
  8
D-0
  6
Continuous
 62
     3
370
     9
100
AcDbLine
 10
-47.40406428156672
 20
-170.1360528069574
 30
0.0
 11
-47.40406428156672
 21
-176.3161098170925
 31
0.0
  0
LINE
  5
1DB
330
1F
100
AcDbEntity
  8
D-0
  6
Continuous
 62
     3
370
     9
100
AcDbLine
 10
79.13787346917235
 20
-185.1087354505385
 30
0.0
 11
30.09658730996625
 21
-185.1087354505385
 31
0.0
  0
LINE
  5
1DC
330
1F
100
AcDbEntity
  8
D-0
  6
Continuous
 62
     3
370
     9
100
AcDbLine
 10
79.13787346917235
 20
-177.1087090569574
 30
0.0
 11
79.13787346917235
 21
-185.1087354505385
 31
0.0
  0
LINE
  5
1DD
330
1F
100
AcDbEntity
  8
D-0
  6
Continuous
 62
     3
370
     9
100
AcDbLine
 10
-62.86219911317562
 20
-35.10873545053846
 30
0.0
 11
-70.86220076277448
 21
-35.10873545053846
 31
0.0
  0
LINE
  5
1DE
330
1F
100
AcDbEntity
  8
D-0
  6
Continuous
 62
     3
370
     9
100
AcDbLine
 10
-66.70543443834458
 20
-44.56647932722763
 30
0.0
 11
-70.86220076277448
 21
-40.10880143449117
 31
0.0
  0
LINE
  5
1DF
330
1F
100
AcDbEntity
  8
D-2
  6
JWW_DASHED1
 62
     6
370
     5
100
AcDbLine
 10
-43.2341341585726
 20
-64.80784862621411
 30
0.0
 11
-23.0121146537162
 21
-85.02981864310601
 31
0.0
  0
LINE
  5
1E0
330
1F
100
AcDbEntity
  8
D-0
  6
Continuous
 62
     3
370
     9
100
AcDbLine
 10
-77.07759217958187
 20
255.2141405260241
 30
0.0
 11
-85.27660967852614
 21
256.0340571223078
 31
0.0
  0
LINE
  5
1E1
330
1F
100
AcDbEntity
  8
D-0
  6
Continuous
 62
     3
370
     9
100
AcDbLine
 10
54.7234810494088
 20
255.0341033110747
 30
0.0
 11
-76.4257861987964
 21
255.0341033110747
 31
0.0
  0
LINE
  5
1E2
330
1F
100
AcDbEntity
  8
D-0
  6
Continuous
 62
     3
370
     9
100
AcDbLine
 10
-75.27660143053208
 20
48.84408272408149
 30
0.0
 11
-75.27660143053208
 21
253.2240315205342
 31
0.0
  0
LINE
  5
1E3
330
1F
100
AcDbEntity
  8
D-0
  6
Continuous
 62
     3
370
     9
100
AcDbLine
 10
-77.07759217958187
 20
46.85397371859165
 30
0.0
 11
-85.27660967852614
 21
46.03405712230784
 31
0.0
  0
LINE
  5
1E4
330
1F
100
AcDbEntity
  8
D-0
  6
Continuous
 62
     3
370
     9
100
AcDbLine
 10
54.7234810494088
 20
47.03410990947003
 30
0.0
 11
-76.42571196684963
 21
47.03410990947003
 31
0.0
  0
LINE
  5
1E5
330
1F
100
AcDbEntity
  8
D-2
  6
Continuous
 62
     6
370
     5
100
AcDbLine
 10
-60.27657668654979
 20
163.1703865669869
 30
0.0
 11
-43.9263965503589
 21
160.9425373799092
 31
0.0
  0
LINE
  5
1E6
330
1F
100
AcDbEntity
  8
D-2
  6
Continuous
 62
     6
370
     5
100
AcDbLine
 10
-60.27657668654979
 20
138.8978266535578
 30
0.0
 11
-43.9263965503589
 21
141.1256758406356
 31
0.0
  0
LINE
  5
1E7
330
1F
100
AcDbEntity
  8
D-2
  6
Continuous
 62
     6
370
     5
100
AcDbLine
 10
-13.31197872677365
 20
175.0341363030511
 30
0.0
 11
-47.12737707189609
 21
175.0341363030511
 31
0.0
  0
LINE
  5
1E8
330
1F
100
AcDbEntity
  8
D-2
  6
Continuous
 62
     6
370
     5
100
AcDbLine
 10
-47.66741448479729
 20
167.07073100322
 30
0.0
 11
-43.17479808910468
 21
166.4585648820207
 31
0.0
  0
LINE
  5
1E9
330
1F
100
AcDbEntity
  8
D-2
  6
Continuous
 62
     6
370
     5
100
AcDbLine
 10
-13.31197872677365
 20
165.0341033110748
 30
0.0
 11
-38.46980409364437
 21
165.0341033110748
 31
0.0
  0
LINE
  5
1EA
330
1F
100
AcDbEntity
  8
D-2
  6
Continuous
 62
     6
370
     5
100
AcDbLine
 10
-47.66741448479729
 20
134.9974822173247
 30
0.0
 11
-43.17479808910468
 21
135.609549362595
 31
0.0
  0
LINE
  5
1EB
330
1F
100
AcDbEntity
  8
D-2
  6
Continuous
 62
     6
370
     5
100
AcDbLine
 10
-13.31197872677365
 20
127.0340769174937
 30
0.0
 11
-47.12737707189609
 21
127.0340769174937
 31
0.0
  0
LINE
  5
1EC
330
1F
100
AcDbEntity
  8
D-2
  6
Continuous
 62
     6
370
     5
100
AcDbLine
 10
-13.31197872677365
 20
137.03410990947
 30
0.0
 11
-38.46980409364437
 21
137.03410990947
 31
0.0
  0
LINE
  5
1ED
330
1F
100
AcDbEntity
  8
D-2
  6
Continuous
 62
     6
370
     5
100
AcDbLine
 10
-52.20543608794338
 20
118.0340967126795
 30
0.0
 11
-13.31197872677365
 21
118.0340967126795
 31
0.0
  0
LINE
  5
1EE
330
1F
100
AcDbEntity
  8
D-2
  6
Continuous
 62
     6
370
     5
100
AcDbLine
 10
-54.20544268633864
 20
110.0340703190984
 30
0.0
 11
-54.20544268633864
 21
116.0340901142842
 31
0.0
  0
LINE
  5
1EF
330
1F
100
AcDbEntity
  8
D-2
  6
Continuous
 62
     6
370
     5
100
AcDbLine
 10
-52.20543608794338
 20
108.0340637207031
 30
0.0
 11
-13.31197872677365
 21
108.0340637207031
 31
0.0
  0
LINE
  5
1F0
330
1F
100
AcDbEntity
  8
D-2
  6
Continuous
 62
     6
370
     5
100
AcDbLine
 10
-52.20543608794338
 20
99.03408351588894
 30
0.0
 11
-13.31197872677365
 21
99.03408351588894
 31
0.0
  0
LINE
  5
1F1
330
1F
100
AcDbEntity
  8
D-2
  6
Continuous
 62
     6
370
     5
100
AcDbLine
 10
-54.20544268633864
 20
91.03405712230784
 30
0.0
 11
-54.20544268633864
 21
97.03407691749368
 31
0.0
  0
LINE
  5
1F2
330
1F
100
AcDbEntity
  8
D-2
  6
Continuous
 62
     6
370
     5
100
AcDbLine
 10
-52.20543608794338
 20
89.03405052391258
 30
0.0
 11
-13.31197872677365
 21
89.03405052391258
 31
0.0
  0
LINE
  5
1F3
330
1F
100
AcDbEntity
  8
D-2
  6
Continuous
 62
     6
370
     5
100
AcDbLine
 10
-54.20544268633864
 20
192.0340439255173
 30
0.0
 11
-54.20544268633864
 21
186.0341231062606
 31
0.0
  0
LINE
  5
1F4
330
1F
100
AcDbEntity
  8
D-2
  6
Continuous
 62
     6
370
     5
100
AcDbLine
 10
-54.20544268633864
 20
211.0340571223078
 30
0.0
 11
-54.20544268633864
 21
205.0340373271221
 31
0.0
  0
LINE
  5
1F5
330
1F
100
AcDbEntity
  8
D-2
  6
Continuous
 62
     6
370
     5
100
AcDbLine
 10
-13.31197872677365
 20
213.0340637207032
 30
0.0
 11
-52.20543608794338
 21
213.0340637207032
 31
0.0
  0
LINE
  5
1F6
330
1F
100
AcDbEntity
  8
D-2
  6
Continuous
 62
     6
370
     5
100
AcDbLine
 10
-13.31197872677365
 20
203.0340307287267
 30
0.0
 11
-52.20543608794338
 21
203.0340307287267
 31
0.0
  0
LINE
  5
1F7
330
1F
100
AcDbEntity
  8
D-2
  6
Continuous
 62
     6
370
     5
100
AcDbLine
 10
-13.31197872677365
 20
194.0340505239126
 30
0.0
 11
-52.20543608794338
 21
194.0340505239126
 31
0.0
  0
LINE
  5
1F8
330
1F
100
AcDbEntity
  8
D-2
  6
Continuous
 62
     6
370
     5
100
AcDbLine
 10
-13.31197872677365
 20
184.0341165078653
 30
0.0
 11
-52.20543608794338
 21
184.0341165078653
 31
0.0
  0
LINE
  5
1F9
330
1F
100
AcDbEntity
  8
D-1
  6
Continuous
 62
     2
370
     9
100
AcDbLine
 10
-15.3857718802787
 20
244.5340439255173
 30
0.0
 11
-61.42563773490286
 21
244.5340439255173
 31
0.0
  0
LINE
  5
1FA
330
1F
100
AcDbEntity
  8
D-1
  6
Continuous
 62
     2
370
     9
100
AcDbLine
 10
-60.27657668654979
 20
241.534083515889
 30
0.0
 11
-15.3857718802787
 21
241.534083515889
 31
0.0
  0
LINE
  5
1FB
330
1F
100
AcDbEntity
  8
D-1
  6
Continuous
 62
     2
370
     9
100
AcDbLine
 10
-60.27657668654979
 20
60.53408021669128
 30
0.0
 11
-15.3857718802787
 21
60.53408021669128
 31
0.0
  0
LINE
  5
1FC
330
1F
100
AcDbEntity
  8
D-1
  6
Continuous
 62
     2
370
     9
100
AcDbLine
 10
-61.4256872228674
 20
57.53407031909836
 30
0.0
 11
-15.3857718802787
 21
57.53407031909836
 31
0.0
  0
LINE
  5
1FD
330
1F
100
AcDbEntity
  8
D-1
  6
Continuous
 62
     2
370
     9
100
AcDbLine
 10
-0.9714124524915064
 20
-166.1087222537479
 30
0.0
 11
-0.9714124524915064
 21
-169.6423608728358
 31
0.0
  0
LINE
  5
1FE
330
1F
100
AcDbEntity
  8
D-1
  6
Continuous
 62
     2
370
     9
100
AcDbLine
 10
6.987340978674013
 20
-166.1087222537479
 30
0.0
 11
1.437414220861513
 21
-170.7657376675993
 31
0.0
  0
LINE
  5
1FF
330
1F
100
AcDbEntity
  8
D-2
  6
Continuous
 62
     6
370
     5
100
AcDbLine
 10
-13.78686523437494
 20
205.0340373271221
 30
0.0
 11
-13.78686523437494
 21
211.0340571223078
 31
0.0
  0
LINE
  5
200
330
1F
100
AcDbEntity
  8
D-2
  6
Continuous
 62
     6
370
     5
100
AcDbLine
 10
-13.78686523437494
 20
186.0341231062606
 30
0.0
 11
-13.78686523437494
 21
192.0340439255173
 31
0.0
  0
LINE
  5
201
330
1F
100
AcDbEntity
  8
D-2
  6
Continuous
 62
     6
370
     5
100
AcDbLine
 10
-13.78686523437494
 20
167.03410990947
 30
0.0
 11
-13.78686523437494
 21
173.0340307287267
 31
0.0
  0
LINE
  5
202
330
1F
100
AcDbEntity
  8
D-2
  6
Continuous
 62
     6
370
     5
100
AcDbLine
 10
-13.78686523437494
 20
148.0340967126795
 30
0.0
 11
-13.78686523437494
 21
154.0341165078653
 31
0.0
  0
LINE
  5
203
330
1F
100
AcDbEntity
  8
D-2
  6
Continuous
 62
     6
370
     5
100
AcDbLine
 10
-13.78686523437494
 20
97.03407691749368
 30
0.0
 11
-13.78686523437494
 21
91.03405712230784
 31
0.0
  0
LINE
  5
204
330
1F
100
AcDbEntity
  8
D-2
  6
Continuous
 62
     6
370
     5
100
AcDbLine
 10
-13.78686523437494
 20
116.0340901142842
 30
0.0
 11
-13.78686523437494
 21
110.0340703190984
 31
0.0
  0
LINE
  5
205
330
1F
100
AcDbEntity
  8
D-2
  6
Continuous
 62
     6
370
     5
100
AcDbLine
 10
-13.78686523437494
 20
135.0341033110747
 30
0.0
 11
-13.78686523437494
 21
129.0340835158889
 31
0.0
  0
LINE
  5
206
330
1F
100
AcDbEntity
  8
D-2
  6
Continuous
 62
     6
370
     5
100
AcDbLine
 10
34.76350031672303
 20
211.0340571223078
 30
0.0
 11
34.76350031672303
 21
205.0340373271221
 31
0.0
  0
LINE
  5
207
330
1F
100
AcDbEntity
  8
D-2
  6
Continuous
 62
     6
370
     5
100
AcDbLine
 10
34.76350031672303
 20
192.0340439255173
 30
0.0
 11
34.76350031672303
 21
186.0341231062606
 31
0.0
  0
LINE
  5
208
330
1F
100
AcDbEntity
  8
D-2
  6
Continuous
 62
     6
370
     5
100
AcDbLine
 10
34.76350031672303
 20
167.03410990947
 30
0.0
 11
34.76350031672303
 21
173.0340307287267
 31
0.0
  0
LINE
  5
209
330
1F
100
AcDbEntity
  8
D-2
  6
Continuous
 62
     6
370
     5
100
AcDbLine
 10
34.76350031672303
 20
148.0340967126795
 30
0.0
 11
34.76350031672303
 21
154.0341165078653
 31
0.0
  0
LINE
  5
20A
330
1F
100
AcDbEntity
  8
D-2
  6
Continuous
 62
     6
370
     5
100
AcDbLine
 10
34.76350031672303
 20
91.03405712230784
 30
0.0
 11
34.76350031672303
 21
97.03407691749368
 31
0.0
  0
LINE
  5
20B
330
1F
100
AcDbEntity
  8
D-2
  6
Continuous
 62
     6
370
     5
100
AcDbLine
 10
34.76350031672303
 20
110.0340703190984
 30
0.0
 11
34.76350031672303
 21
116.0340901142842
 31
0.0
  0
LINE
  5
20C
330
1F
100
AcDbEntity
  8
D-2
  6
Continuous
 62
     6
370
     5
100
AcDbLine
 10
34.76350031672303
 20
135.0341033110747
 30
0.0
 11
34.76350031672303
 21
129.0340835158889
 31
0.0
  0
LINE
  5
20D
330
1F
100
AcDbEntity
  8
D-1
  6
Continuous
 62
     2
370
     9
100
AcDbLine
 10
-56.48545218802786
 20
-149.5189708812817
 30
0.0
 11
-60.53628952438766
 21
-149.5189708812817
 31
0.0
  0
LINE
  5
20E
330
1F
100
AcDbEntity
  8
D-1
  6
Continuous
 62
     2
370
     9
100
AcDbLine
 10
-35.27231247360641
 20
-170.7321848276499
 30
0.0
 11
-35.27231247360641
 21
-174.7827747241871
 31
0.0
  0
LINE
  5
20F
330
1F
100
AcDbEntity
  8
D-1
  6
JWW_CENTER1
 62
     2
370
     9
100
AcDbLine
 10
-41.39835337046026
 20
-69.10874864732898
 30
0.0
 11
-61.5520052523226
 21
-69.10874864732898
 31
0.0
  0
LINE
  5
210
330
1F
100
AcDbEntity
  8
D-1
  6
Continuous
 62
     2
370
     9
100
AcDbLine
 10
-58.86203745249151
 20
-66.97878665408575
 30
0.0
 11
-60.86219251478036
 21
-66.97878665408575
 31
0.0
  0
LINE
  5
211
330
1F
100
AcDbEntity
  8
D-1
  6
Continuous
 62
     2
370
     9
100
AcDbLine
 10
-58.86203745249151
 20
-66.10868926177156
 30
0.0
 11
-60.86219251478036
 21
-66.10868926177156
 31
0.0
  0
LINE
  5
212
330
1F
100
AcDbEntity
  8
D-1
  6
Continuous
 62
     2
370
     9
100
AcDbLine
 10
-58.86203745249151
 20
-71.23871064057224
 30
0.0
 11
-60.86219251478036
 21
-71.23871064057224
 31
0.0
  0
LINE
  5
213
330
1F
100
AcDbEntity
  8
D-1
  6
Continuous
 62
     2
370
     9
100
AcDbLine
 10
-58.86203745249151
 20
-72.10870905695737
 30
0.0
 11
-60.86219251478036
 21
-72.10870905695737
 31
0.0
  0
LINE
  5
214
330
1F
100
AcDbEntity
  8
D-2
  6
Continuous
 62
     4
370
     9
100
AcDbLine
 10
-42.27349853515619
 20
-69.5875941920925
 30
0.0
 11
-44.26204866976349
 21
-69.5875941920925
 31
0.0
  0
LINE
  5
215
330
1F
100
AcDbEntity
  8
D-0
  6
Continuous
 62
     3
370
     9
100
AcDbLine
 10
-85.27660967852614
 20
237.0340439255173
 30
0.0
 11
-89.87468492662583
 21
236.1144585686761
 31
0.0
  0
LINE
  5
216
330
1F
100
AcDbEntity
  8
D-0
  6
Continuous
 62
     3
370
     9
100
AcDbLine
 10
-90.27657668654979
 20
235.6241318161423
 30
0.0
 11
-90.27657668654979
 21
226.4440154204497
 31
0.0
  0
LINE
  5
217
330
1F
100
AcDbEntity
  8
D-0
  6
Continuous
 62
     3
370
     9
100
AcDbLine
 10
-90.27657668654979
 20
66.44398242847336
 30
0.0
 11
-90.27657668654979
 21
75.62409882416597
 31
0.0
  0
LINE
  5
218
330
1F
100
AcDbEntity
  8
D-0
  6
Continuous
 62
     3
370
     9
100
AcDbLine
 10
-92.27660802892734
 20
233.3941051586255
 30
0.0
 11
-90.27657668654979
 21
233.3941051586255
 31
0.0
  0
LINE
  5
219
330
1F
100
AcDbEntity
  8
D-0
  6
Continuous
 62
     3
370
     9
100
AcDbLine
 10
-92.27660802892734
 20
234.2088750065984
 30
0.0
 11
-90.27657668654979
 21
234.2088750065984
 31
0.0
  0
LINE
  5
21A
330
1F
100
AcDbEntity
  8
D-0
  6
Continuous
 62
     3
370
     9
100
AcDbLine
 10
-92.27660802892734
 20
228.6740420779666
 30
0.0
 11
-90.27657668654979
 21
228.6740420779666
 31
0.0
  0
LINE
  5
21B
330
1F
100
AcDbEntity
  8
D-0
  6
Continuous
 62
     3
370
     9
100
AcDbLine
 10
-92.27660802892734
 20
227.8590742781356
 30
0.0
 11
-90.27657668654979
 21
227.8590742781356
 31
0.0
  0
LINE
  5
21C
330
1F
100
AcDbEntity
  8
D-0
  6
Continuous
 62
     3
370
     9
100
AcDbLine
 10
-110.276593182538
 20
228.0339647447741
 30
0.0
 11
-92.27660802892734
 21
228.0339647447741
 31
0.0
  0
LINE
  5
21D
330
1F
100
AcDbEntity
  8
D-0
  6
Continuous
 62
     3
370
     9
100
AcDbLine
 10
-110.276593182538
 20
234.0339845399599
 30
0.0
 11
-92.27660802892734
 21
234.0339845399599
 31
0.0
  0
LINE
  5
21E
330
1F
100
AcDbEntity
  8
D-0
  6
JWW_CENTER1
 62
     3
370
     9
100
AcDbLine
 10
-110.276593182538
 20
225.9726920462943
 30
0.0
 11
-110.276593182538
 21
236.4066355112437
 31
0.0
  0
LINE
  5
21F
330
1F
100
AcDbEntity
  8
D-0
  6
Continuous
 62
     3
370
     9
100
AcDbLine
 10
32.13766891891896
 20
-207.1087090569574
 30
0.0
 11
32.13766891891896
 21
-213.1088278280722
 31
0.0
  0
LINE
  5
220
330
1F
100
AcDbEntity
  8
D-0
  6
Continuous
 62
     3
370
     9
100
AcDbLine
 10
24.13759303737334
 20
-207.1087090569574
 30
0.0
 11
32.13766891891896
 21
-207.1087090569574
 31
0.0
  0
LINE
  5
221
330
1F
100
AcDbEntity
  8
D-0
  6
Continuous
 62
     3
370
     9
100
AcDbLine
 10
16.13761613175677
 20
-205.1088014344912
 30
0.0
 11
16.13761613175677
 21
-192.1088080328864
 31
0.0
  0
LINE
  5
222
330
1F
100
AcDbEntity
  8
D-0
  6
Continuous
 62
     3
370
     9
100
AcDbLine
 10
24.13759303737334
 20
-213.1088278280722
 30
0.0
 11
32.13766891891896
 21
-213.1088278280722
 31
0.0
  0
LINE
  5
223
330
1F
100
AcDbEntity
  8
D-0
  6
JWW_CENTER1
 62
     3
370
     9
100
AcDbLine
 10
24.13784047719599
 20
-210.1087684425148
 30
0.0
 11
35.13772830447641
 21
-210.1087684425148
 31
0.0
  0
LINE
  5
224
330
1F
100
AcDbEntity
  8
D-0
  6
Continuous
 62
     3
370
     9
100
AcDbLine
 10
22.13768541490714
 20
-205.1088014344912
 30
0.0
 11
22.13768541490714
 21
-192.1088080328864
 31
0.0
  0
LINE
  5
225
330
1F
100
AcDbEntity
  8
D-0
  6
Continuous
 62
     3
370
     9
100
AcDbLine
 10
15.96272566511828
 20
-192.1088080328864
 30
0.0
 11
22.31262536951016
 21
-192.1088080328864
 31
0.0
  0
LINE
  5
226
330
1F
100
AcDbEntity
  8
D-0
  6
Continuous
 62
     3
370
     9
100
AcDbLine
 10
21.49775654560813
 20
-192.1088080328864
 30
0.0
 11
21.49775654560813
 21
-190.1088014344912
 31
0.0
  0
LINE
  5
227
330
1F
100
AcDbEntity
  8
D-0
  6
Continuous
 62
     3
370
     9
100
AcDbLine
 10
16.77779244087839
 20
-192.1088080328864
 30
0.0
 11
16.77779244087839
 21
-190.1088014344912
 31
0.0
  0
LINE
  5
228
330
1F
100
AcDbEntity
  8
D-0
  6
Continuous
 62
     3
370
     9
100
AcDbLine
 10
15.96272566511828
 20
-192.1088080328864
 30
0.0
 11
15.96272566511828
 21
-190.1088014344912
 31
0.0
  0
LINE
  5
229
330
1F
100
AcDbEntity
  8
D-0
  6
Continuous
 62
     3
370
     9
100
AcDbLine
 10
22.31262536951016
 20
-192.1088080328864
 30
0.0
 11
22.31262536951016
 21
-190.1088014344912
 31
0.0
  0
LINE
  5
22A
330
1F
100
AcDbEntity
  8
D-0
  6
Continuous
 62
     3
370
     9
100
AcDbLine
 10
-92.27660802892734
 20
227.8590742781356
 30
0.0
 11
-92.27660802892734
 21
234.2088750065984
 31
0.0
  0
LINE
  5
22B
330
1F
100
AcDbEntity
  8
D-0
  6
JWW_CENTER1
 62
     3
370
     9
100
AcDbLine
 10
-115.0331288930532
 20
231.0341231062606
 30
0.0
 11
-90.27657668654979
 21
231.0341231062606
 31
0.0
  0
LINE
  5
22C
330
1F
100
AcDbEntity
  8
D-0
  6
Continuous
 62
     3
370
     9
100
AcDbLine
 10
-92.27660802892734
 20
68.67400908599029
 30
0.0
 11
-90.27657668654979
 21
68.67400908599029
 31
0.0
  0
LINE
  5
22D
330
1F
100
AcDbEntity
  8
D-0
  6
Continuous
 62
     3
370
     9
100
AcDbLine
 10
-92.27660802892734
 20
67.85923923801732
 30
0.0
 11
-90.27657668654979
 21
67.85923923801732
 31
0.0
  0
LINE
  5
22E
330
1F
100
AcDbEntity
  8
D-0
  6
Continuous
 62
     3
370
     9
100
AcDbLine
 10
-92.27660802892734
 20
73.39407216664904
 30
0.0
 11
-90.27657668654979
 21
73.39407216664904
 31
0.0
  0
LINE
  5
22F
330
1F
100
AcDbEntity
  8
D-0
  6
Continuous
 62
     3
370
     9
100
AcDbLine
 10
-92.27660802892734
 20
74.2091389424092
 30
0.0
 11
-90.27657668654979
 21
74.2091389424092
 31
0.0
  0
LINE
  5
230
330
1F
100
AcDbEntity
  8
D-0
  6
Continuous
 62
     3
370
     9
100
AcDbLine
 10
-110.276593182538
 20
74.03424847577071
 30
0.0
 11
-92.27660802892734
 21
74.03424847577071
 31
0.0
  0
LINE
  5
231
330
1F
100
AcDbEntity
  8
D-0
  6
Continuous
 62
     3
370
     9
100
AcDbLine
 10
-110.276593182538
 20
68.03422868058487
 30
0.0
 11
-92.27660802892734
 21
68.03422868058487
 31
0.0
  0
LINE
  5
232
330
1F
100
AcDbEntity
  8
D-0
  6
JWW_CENTER1
 62
     3
370
     9
100
AcDbLine
 10
-110.276593182538
 20
76.09547168628586
 30
0.0
 11
-110.276593182538
 21
65.66147873337206
 31
0.0
  0
LINE
  5
233
330
1F
100
AcDbEntity
  8
D-0
  6
Continuous
 62
     3
370
     9
100
AcDbLine
 10
-92.27660802892734
 20
74.2091389424092
 30
0.0
 11
-92.27660802892734
 21
67.85923923801732
 31
0.0
  0
LINE
  5
234
330
1F
100
AcDbEntity
  8
D-0
  6
JWW_CENTER1
 62
     3
370
     9
100
AcDbLine
 10
-115.0331288930532
 20
71.0340901142842
 30
0.0
 11
-90.27657668654979
 21
71.0340901142842
 31
0.0
  0
LINE
  5
235
330
1F
100
AcDbEntity
  8
D-0
  6
JWW_CENTER1
 62
     3
370
     9
100
AcDbLine
 10
19.13777449324328
 20
-205.1088014344912
 30
0.0
 11
19.13777449324328
 21
-190.1088014344912
 31
0.0
  0
LINE
  5
236
330
1F
100
AcDbEntity
  8
D-1
  6
JWW_HOJO
 62
     2
370
     9
100
AcDbLine
 10
-60.86219251478036
 20
-145.1088014344911
 30
0.0
 11
-60.86219251478036
 21
-45.10876844251482
 31
0.0
  0
LINE
  5
237
330
1F
100
AcDbEntity
  8
D-1
  6
JWW_HOJO
 62
     2
370
     9
100
AcDbLine
 10
-30.86219251478036
 20
-175.1088014344912
 30
0.0
 11
69.13793945312506
 21
-175.1088014344912
 31
0.0
  0
LINE
  5
238
330
1F
100
AcDbEntity
  8
D-0
  6
Continuous
 62
     3
370
     9
100
AcDbLine
 10
77.13786687077709
 20
-175.1088014344912
 30
0.0
 11
-30.86219251478036
 21
-175.1088014344912
 31
0.0
  0
LINE
  5
239
330
1F
100
AcDbEntity
  8
D-0
  6
Continuous
 62
     3
370
     9
100
AcDbLine
 10
-60.86219251478036
 20
-37.10884102486278
 30
0.0
 11
-60.86219251478036
 21
-152.1087750409101
 31
0.0
  0
LINE
  5
23A
330
1F
100
AcDbEntity
  8
D-0
  6
JWW_CENTER1
 62
     2
370
     9
100
AcDbLine
 10
-60.56370585673562
 20
-174.8104879843222
 30
0.0
 11
-21.15658816775755
 21
-135.4034197833087
 31
0.0
  0
LINE
  5
23B
330
1F
100
AcDbEntity
  8
D-0
  6
JWW_DASHED1
 62
     2
370
     9
100
AcDbLine
 10
-61.47982705605995
 20
-171.0596961768898
 30
0.0
 11
-54.27997156091635
 21
-163.8599891456398
 31
0.0
  0
LINE
  5
23C
330
1F
100
AcDbEntity
  8
D-0
  6
JWW_DASHED1
 62
     2
370
     9
100
AcDbLine
 10
-61.47982705605995
 20
-170.0697389344911
 30
0.0
 11
-54.71432742557005
 21
-163.3042393040013
 31
0.0
  0
LINE
  5
23D
330
1F
100
AcDbEntity
  8
D-0
  6
Continuous
 62
     2
370
     9
100
AcDbLine
 10
-54.71432742557005
 20
-163.3042393040013
 30
0.0
 11
-48.70720610747463
 21
-157.2970932419236
 31
0.0
  0
LINE
  5
23E
330
1F
100
AcDbEntity
  8
D-0
  6
Continuous
 62
     2
370
     9
100
AcDbLine
 10
-54.27997156091635
 20
-163.8599891456398
 30
0.0
 11
-48.21222748627531
 21
-157.7920718631229
 31
0.0
  0
LINE
  5
23F
330
1F
100
AcDbEntity
  8
D-0
  6
Continuous
 62
     2
370
     9
100
AcDbLine
 10
-49.61305855415958
 20
-168.5268031764675
 30
0.0
 11
-43.5452897355363
 21
-162.4588858939506
 31
0.0
  0
LINE
  5
240
330
1F
100
AcDbEntity
  8
D-0
  6
Continuous
 62
     2
370
     9
100
AcDbLine
 10
-49.05745717641469
 20
-168.9610105772276
 30
0.0
 11
-43.05036060230151
 21
-162.953963491079
 31
0.0
  0
LINE
  5
241
330
1F
100
AcDbEntity
  8
D-0
  6
JWW_DASHED1
 62
     2
370
     9
100
AcDbLine
 10
-55.82290731894
 20
-175.7266091836466
 30
0.0
 11
-49.05750666437922
 21
-168.9610105772276
 31
0.0
  0
LINE
  5
242
330
1F
100
AcDbEntity
  8
D-0
  6
JWW_DASHED1
 62
     2
370
     9
100
AcDbLine
 10
-56.81286456133864
 20
-175.7266091836466
 30
0.0
 11
-49.61310804212411
 21
-168.5268031764675
 31
0.0
  0
LINE
  5
243
330
1F
100
AcDbEntity
  8
D-2
  6
Continuous
 62
     6
370
     5
100
AcDbLine
 10
-60.44755760399067
 20
228.9594886573586
 30
0.0
 11
-55.63792130753797
 21
228.279128121041
 31
0.0
  0
LINE
  5
244
330
1F
100
AcDbEntity
  8
D-2
  6
Continuous
 62
     6
370
     5
100
AcDbLine
 10
-59.88002962679474
 20
228.279128121041
 30
0.0
 11
-60.80649381070521
 21
228.4125476734059
 31
0.0
  0
LINE
  5
245
330
1F
100
AcDbEntity
  8
D-2
  6
Continuous
 62
     6
370
     5
100
AcDbLine
 10
-56.0332064241976
 20
228.279128121041
 30
0.0
 11
-60.94194236961567
 21
228.279128121041
 31
0.0
  0
LINE
  5
246
330
1F
100
AcDbEntity
  8
D-2
  6
Continuous
 62
     6
370
     5
100
AcDbLine
 10
-60.44755760399067
 20
73.10862558725717
 30
0.0
 11
-55.63792130753797
 21
73.78908509950378
 31
0.0
  0
LINE
  5
247
330
1F
100
AcDbEntity
  8
D-2
  6
Continuous
 62
     6
370
     5
100
AcDbLine
 10
-59.88002962679474
 20
73.78908509950378
 30
0.0
 11
-60.80649381070521
 21
73.65556657120987
 31
0.0
  0
LINE
  5
248
330
1F
100
AcDbEntity
  8
D-2
  6
Continuous
 62
     6
370
     5
100
AcDbLine
 10
-56.0332064241976
 20
73.78908509950378
 30
0.0
 11
-60.94199185758021
 21
73.78908509950378
 31
0.0
  0
LINE
  5
249
330
1F
100
AcDbEntity
  8
D-0
  6
Continuous
 62
     3
370
     9
100
AcDbLine
 10
-65.3621826171875
 20
-62.47043308567359
 30
0.0
 11
-65.3621826171875
 21
-47.97639803499791
 31
0.0
  0
LINE
  5
24A
330
1F
100
AcDbEntity
  8
D-0
  6
JWW_HOJO
 62
     3
370
     9
100
AcDbLine
 10
-65.3621826171875
 20
-152.1087750409101
 30
0.0
 11
-65.3621826171875
 21
-62.47043308567359
 31
0.0
  0
LINE
  5
24B
330
1F
100
AcDbEntity
  8
D-0
  6
Continuous
 62
     3
370
     9
100
AcDbLine
 10
-70.86220076277448
 20
-35.10873545053846
 30
0.0
 11
-70.86220076277448
 21
-66.5017226760452
 31
0.0
  0
LINE
  5
24C
330
1F
100
AcDbEntity
  8
D-0
  6
Continuous
 62
     3
370
     9
100
AcDbLine
 10
24.70358688766896
 20
-182.1087750409101
 30
0.0
 11
-30.86219251478036
 21
-182.1087750409101
 31
0.0
  0
LINE
  5
24D
330
1F
100
AcDbEntity
  8
D-0
  6
Continuous
 62
     3
370
     9
100
AcDbLine
 10
-69.00580823743661
 20
-188.4893572833087
 30
0.0
 11
-71.97285915065453
 21
-188.5497326000317
 31
0.0
  0
LINE
  5
24E
330
1F
100
AcDbEntity
  8
D-0
  6
Continuous
 62
     3
370
     9
100
AcDbLine
 10
-65.22027587890625
 20
-185.5129531447952
 30
0.0
 11
-64.59826165276604
 21
-183.161483022329
 31
0.0
  0
LINE
  5
24F
330
1F
100
AcDbEntity
  8
D-0
  6
Continuous
 62
     3
370
     9
100
AcDbLine
 10
-65.23828949799406
 20
-77.63958294842695
 30
0.0
 11
-60.86219251478036
 21
-77.55040563634927
 31
0.0
  0
LINE
  5
250
330
1F
100
AcDbEntity
  8
D-0
  6
Continuous
 62
     3
370
     9
100
AcDbLine
 10
-71.36974932696364
 20
-72.51332265493033
 30
0.0
 11
-74.33467225770687
 21
-72.5736979716533
 31
0.0
  0
LINE
  5
251
330
1F
100
AcDbEntity
  8
D-0
  6
Continuous
 62
     3
370
     9
100
AcDbLine
 10
-67.46537162162161
 20
-75.33552229597763
 30
0.0
 11
-67.19046597867396
 21
-76.2284831279033
 31
0.0
  0
LINE
  5
252
330
1F
100
AcDbEntity
  8
D-0
  6
Continuous
 62
     3
370
     9
100
AcDbLine
 10
-66.01923432221281
 20
-187.0566807102513
 30
0.0
 11
-68.3252002612964
 21
-73.82554552232898
 31
0.0
  0
LINE
  5
253
330
1F
100
AcDbEntity
  8
D-0
  6
Continuous
 62
     3
370
     9
100
AcDbLine
 10
-75.017432960304
 20
-187.237509732633
 30
0.0
 11
-77.32332466744083
 21
-74.00884894293708
 31
0.0
  0
LINE
  5
254
330
1F
100
AcDbEntity
  8
D-0
  6
Continuous
 62
     3
370
     9
100
AcDbLine
 10
-64.59826165276604
 20
-183.161483022329
 30
0.0
 11
-66.76053928684541
 21
-76.98347151472763
 31
0.0
  0
LINE
  5
255
330
1F
100
AcDbEntity
  8
D-0
  6
Continuous
 62
     3
370
     9
100
AcDbLine
 10
-48.75711471970016
 20
-188.7716366329709
 30
0.0
 11
-58.97363281249994
 21
-193.4583448255385
 31
0.0
  0
LINE
  5
256
330
1F
100
AcDbEntity
  8
D-0
  6
Continuous
 62
     3
370
     9
100
AcDbLine
 10
28.27736024598823
 20
-185.9005428829709
 30
0.0
 11
34.93928156672303
 21
-180.310580361856
 31
0.0
  0
LINE
  5
257
330
1F
100
AcDbEntity
  8
D-0
  6
JWW_HOJO
 62
     3
370
     9
100
AcDbLine
 10
-30.86216777079812
 20
-186.6087156553526
 30
0.0
 11
25.82661726668078
 21
-186.6087156553526
 31
0.0
  0
LINE
  5
258
330
1F
100
AcDbEntity
  8
D-0
  6
Continuous
 62
     3
370
     9
100
AcDbLine
 10
24.72338207347974
 20
-182.1212460079709
 30
0.0
 11
-64.59826165276604
 21
-183.161483022329
 31
0.0
  0
LINE
  5
259
330
1F
100
AcDbEntity
  8
D-0
  6
Continuous
 62
     3
370
     9
100
AcDbLine
 10
26.61684108424834
 20
-181.4196056469067
 30
0.0
 11
33.30142789273651
 21
-175.8105407714844
 31
0.0
  0
LINE
  5
25A
330
1F
100
AcDbEntity
  8
D-0
  6
Continuous
 62
     3
370
     9
100
AcDbLine
 10
-93.86363756334458
 20
-68.97057825036953
 30
0.0
 11
-93.90436615815031
 21
-66.97106653161953
 31
0.0
  0
LINE
  5
25B
330
1F
100
AcDbEntity
  8
D-0
  6
Continuous
 62
     3
370
     9
100
AcDbLine
 10
-69.2807633683488
 20
-66.46965447503169
 30
0.0
 11
-93.90436615815031
 21
-66.97106653161953
 31
0.0
  0
LINE
  5
25C
330
1F
100
AcDbEntity
  8
D-0
  6
Continuous
 62
     3
370
     9
100
AcDbLine
 10
-100.8621760187922
 20
-69.11310358820737
 30
0.0
 11
-98.33744853251687
 21
-193.0873830434439
 31
0.0
  0
LINE
  5
25D
330
1F
100
AcDbEntity
  8
D-0
  6
Continuous
 62
     3
370
     9
100
AcDbLine
 10
-98.33744853251687
 20
-193.0873830434439
 30
0.0
 11
-91.33888533308698
 21
-192.9449566815351
 31
0.0
  0
LINE
  5
25E
330
1F
100
AcDbEntity
  8
D-0
  6
Continuous
 62
     3
370
     9
100
AcDbLine
 10
-91.29815673828125
 20
-194.9445673762141
 30
0.0
 11
-91.33888533308698
 21
-192.9449566815351
 31
0.0
  0
LINE
  5
25F
330
1F
100
AcDbEntity
  8
D-0
  6
Continuous
 62
     3
370
     9
100
AcDbLine
 10
-62.93962303367817
 20
-194.3670428301837
 30
0.0
 11
-91.29815673828125
 21
-194.9445673762141
 31
0.0
  0
LINE
  5
260
330
1F
100
AcDbEntity
  8
D-0
  6
Continuous
 62
     3
370
     9
100
AcDbLine
 10
-100.750506426837
 20
-74.59696391337627
 30
0.0
 11
-77.86125884184963
 21
-74.84598735087627
 31
0.0
  0
LINE
  5
261
330
1F
100
AcDbEntity
  8
D-0
  6
Continuous
 62
     3
370
     9
100
AcDbLine
 10
-98.44911812447208
 20
-187.6035227182749
 30
0.0
 11
-75.5889942066089
 21
-186.4229378365182
 31
0.0
  0
LINE
  5
262
330
1F
100
AcDbEntity
  8
D-0
  6
Continuous
 62
     3
370
     9
100
AcDbLine
 10
-76.1105726087415
 20
-184.9695752942885
 30
0.0
 11
-75.87721211201432
 21
-185.7275329589844
 31
0.0
  0
LINE
  5
263
330
1F
100
AcDbEntity
  8
D-0
  6
Continuous
 62
     3
370
     9
100
AcDbLine
 10
-76.56346171611062
 20
-184.9929336135452
 30
0.0
 11
-78.77666246568833
 21
-76.31439423432224
 31
0.0
  0
LINE
  5
264
330
1F
100
AcDbEntity
  8
D-0
  6
Continuous
 62
     3
370
     9
100
AcDbLine
 10
-78.12092219172297
 20
-75.55267548432224
 30
0.0
 11
-78.32320424672719
 21
-76.31934303077492
 31
0.0
  0
LINE
  5
265
330
1F
100
AcDbEntity
  8
D-0
  6
Continuous
 62
     3
370
     9
100
AcDbLine
 10
26.38390123521964
 20
-186.6022822199641
 30
0.0
 11
-42.67741930162583
 21
-187.4065606194574
 31
0.0
  0
LINE
  5
266
330
1F
100
AcDbEntity
  8
D-0
  6
Continuous
 62
     3
370
     9
100
AcDbLine
 10
14.06035882073485
 20
-189.7024062697952
 30
0.0
 11
13.49842298353042
 21
-186.7523297284101
 31
0.0
  0
LINE
  5
267
330
1F
100
AcDbEntity
  8
D-0
  6
Continuous
 62
     3
370
     9
100
AcDbLine
 10
-100.8621760187922
 20
-69.11310358820737
 30
0.0
 11
-93.86363756334458
 21
-68.97057825036953
 31
0.0
  0
LINE
  5
268
330
1F
100
AcDbEntity
  8
D-0
  6
Continuous
 62
     3
370
     9
100
AcDbLine
 10
-115.2765849345439
 20
89.03405052391258
 30
0.0
 11
-115.2765849345439
 21
213.0340637207032
 31
0.0
  0
LINE
  5
269
330
1F
100
AcDbEntity
  8
D-0
  6
Continuous
 62
     3
370
     9
100
AcDbLine
 10
-115.2765849345439
 20
89.03405052391258
 30
0.0
 11
-108.318775073902
 21
89.03405052391258
 31
0.0
  0
LINE
  5
26A
330
1F
100
AcDbEntity
  8
D-0
  6
Continuous
 62
     3
370
     9
100
AcDbLine
 10
-115.2765849345439
 20
213.0340637207032
 30
0.0
 11
-108.318775073902
 21
213.0340637207032
 31
0.0
  0
LINE
  5
26B
330
1F
100
AcDbEntity
  8
D-0
  6
Continuous
 62
     3
370
     9
100
AcDbLine
 10
-60.86219251478036
 20
-130.3114051612648
 30
0.0
 11
-119.378246410473
 21
-130.3114051612648
 31
0.0
  0
LINE
  5
26C
330
1F
100
AcDbEntity
  8
D-4
  6
Continuous
 62
     7
370
     9
100
AcDbLine
 10
-115.6078573690878
 20
-130.3114051612648
 30
0.0
 11
-114.9552348368877
 21
-125.3541957545925
 31
0.0
  0
LINE
  5
26D
330
1F
100
AcDbEntity
  8
D-4
  6
Continuous
 62
     7
370
     9
100
AcDbLine
 10
-115.6078573690878
 20
-130.3114051612648
 30
0.0
 11
-116.2605046452703
 21
-125.3541957545925
 31
0.0
  0
LINE
  5
26E
330
1F
100
AcDbEntity
  8
D-4
  6
Continuous
 62
     7
370
     9
100
AcDbLine
 10
-115.5964998812289
 20
-131.4260720742716
 30
0.0
 11
-116.1480679898648
 21
-136.3955544961466
 31
0.0
  0
LINE
  5
26F
330
1F
100
AcDbEntity
  8
D-4
  6
Continuous
 62
     7
370
     9
100
AcDbLine
 10
-115.5964998812289
 20
-131.4260720742716
 30
0.0
 11
-114.8430703652871
 21
-136.3690289471601
 31
0.0
  0
LINE
  5
270
330
1F
100
AcDbEntity
  8
D-0
  6
Continuous
 62
     3
370
     9
100
AcDbLine
 10
-99.24146992451432
 20
-76.09179736987966
 30
0.0
 11
-78.32320424672719
 21
-76.31934303077492
 31
0.0
  0
LINE
  5
271
330
1F
100
AcDbEntity
  8
D-0
  6
Continuous
 62
     3
370
     9
100
AcDbLine
 10
-100.750506426837
 20
-74.59696391337627
 30
0.0
 11
-99.24146992451432
 21
-76.09179736987966
 31
0.0
  0
LINE
  5
272
330
1F
100
AcDbEntity
  8
D-0
  6
Continuous
 62
     3
370
     9
100
AcDbLine
 10
-97.00218901763088
 20
-186.0486108728358
 30
0.0
 11
-76.1105726087415
 21
-184.9695752942885
 31
0.0
  0
LINE
  5
273
330
1F
100
AcDbEntity
  8
D-0
  6
Continuous
 62
     3
370
     9
100
AcDbLine
 10
-99.24146992451432
 20
-76.09179736987966
 30
0.0
 11
-97.00218901763088
 21
-186.0486108728358
 31
0.0
  0
LINE
  5
274
330
1F
100
AcDbEntity
  8
D-0
  6
Continuous
 62
     3
370
     9
100
AcDbLine
 10
-97.00218901763088
 20
-186.0486108728358
 30
0.0
 11
-98.44911812447208
 21
-187.6035227182749
 31
0.0
  0
LINE
  5
275
330
1F
100
AcDbEntity
  8
D-4
  6
Continuous
 62
     7
370
     9
100
AcDbLine
 10
-132.7128031962627
 20
-76.77344459327492
 30
0.0
 11
-130.4735470333615
 21
-186.730258096231
 31
0.0
  0
LINE
  5
276
330
1F
100
AcDbEntity
  8
D-4
  6
Continuous
 62
     7
370
     9
100
AcDbLine
 10
-104.2404224292652
 20
-76.19364360087627
 30
0.0
 11
-133.312671558277
 21
-76.78561863254859
 31
0.0
  0
LINE
  5
277
330
1F
100
AcDbEntity
  8
D-4
  6
Continuous
 62
     7
370
     9
100
AcDbLine
 10
-102.0011415223817
 20
-186.1503581279033
 30
0.0
 11
-131.0734153953758
 21
-186.7424321355047
 31
0.0
  0
LINE
  5
278
330
1F
100
AcDbEntity
  8
D-4
  6
Continuous
 62
     7
370
     9
100
AcDbLine
 10
-132.7128031962627
 20
-76.77344459327492
 30
0.0
 11
-131.9593736803209
 21
-81.7163024902344
 31
0.0
  0
LINE
  5
279
330
1F
100
AcDbEntity
  8
D-4
  6
Continuous
 62
     7
370
     9
100
AcDbLine
 10
-132.7128031962627
 20
-76.77344459327492
 30
0.0
 11
-133.2643713048986
 21
-81.74292701514992
 31
0.0
  0
LINE
  5
27A
330
1F
100
AcDbEntity
  8
D-4
  6
Continuous
 62
     7
370
     9
100
AcDbLine
 10
-130.4735470333615
 20
-186.730258096231
 30
0.0
 11
-129.9219541807432
 21
-181.760775674356
 31
0.0
  0
LINE
  5
27B
330
1F
100
AcDbEntity
  8
D-4
  6
Continuous
 62
     7
370
     9
100
AcDbLine
 10
-130.4735470333615
 20
-186.730258096231
 30
0.0
 11
-131.2269765493032
 21
-181.7873012233425
 31
0.0
  0
LINE
  5
27C
330
1F
100
AcDbEntity
  8
D-0
  6
Continuous
 62
     3
370
     9
100
AcDbLine
 10
-108.318775073902
 20
215.0340703190984
 30
0.0
 11
-85.27660967852614
 21
215.0340703190984
 31
0.0
  0
LINE
  5
27D
330
1F
100
AcDbEntity
  8
D-0
  6
Continuous
 62
     3
370
     9
100
AcDbLine
 10
-108.318775073902
 20
87.03404392551732
 30
0.0
 11
-85.27660967852614
 21
87.03404392551732
 31
0.0
  0
LINE
  5
27E
330
1F
100
AcDbEntity
  8
D-0
  6
Continuous
 62
     3
370
     9
100
AcDbLine
 10
-108.318775073902
 20
87.03404392551732
 30
0.0
 11
-108.318775073902
 21
215.0340703190984
 31
0.0
  0
LINE
  5
27F
330
1F
100
AcDbEntity
  8
D-0
  6
JWW_CENTER1
 62
     3
370
     9
100
AcDbLine
 10
-123.2549850876267
 20
151.0340571223078
 30
0.0
 11
72.06965595967063
 21
151.0340571223078
 31
0.0
  0
LINE
  5
280
330
1F
100
AcDbEntity
  8
D-0
  6
JWW_CENTER1
 62
     3
370
     9
100
AcDbLine
 10
-119.3539973078547
 20
-131.5025804674303
 30
0.0
 11
-55.2881156302787
 21
-130.1978797706398
 31
0.0
  0
ARC
  5
281
330
1F
100
AcDbEntity
  8
D-2
  6
Continuous
 62
     4
370
     9
100
AcDbCircle
 10
-47.11208529085724
 20
-72.50876976219385
 30
0.0
 40
0.2500000032218727
100
AcDbArc
 50
0.0
 51
60.67082214355469
  0
ARC
  5
282
330
1F
100
AcDbEntity
  8
D-2
  6
Continuous
 62
     4
370
     9
100
AcDbCircle
 10
-47.11208529085724
 20
-65.70872753246411
 30
0.0
 40
0.2500000032218727
100
AcDbArc
 50
299.3291778564453
 51
0.0
  0
ARC
  5
283
330
1F
100
AcDbEntity
  8
D-2
  6
Continuous
 62
     4
370
     9
100
AcDbCircle
 10
-52.26205031936229
 20
-69.10864967139992
 30
0.0
 40
10.00000128874908
100
AcDbArc
 50
2.745620727539063
 51
36.869873046875
  0
ARC
  5
284
330
1F
100
AcDbEntity
  8
D-0
  6
Continuous
 62
     2
370
     9
100
AcDbCircle
 10
-47.23902191986906
 20
-153.5328407081398
 30
0.0
 40
2.800173243960819
100
AcDbArc
 50
2.925567626953125
 51
87.07463073730469
  0
ARC
  5
285
330
1F
100
AcDbEntity
  8
D-0
  6
Continuous
 62
     2
370
     9
100
AcDbCircle
 10
-48.41688496357682
 20
-162.6636670911635
 30
0.0
 40
10.08940980241105
100
AcDbArc
 50
23.19786071777344
 51
66.80213928222658
  0
ARC
  5
286
330
1F
100
AcDbEntity
  8
D-0
  6
Continuous
 62
     2
370
     9
100
AcDbCircle
 10
-39.28618230046447
 20
-161.4859525113493
 30
0.0
 40
2.800189482199179
100
AcDbArc
 50
2.92572021484375
 51
87.07427978515625
  0
ARC
  5
287
330
1F
100
AcDbEntity
  8
D-2
  6
Continuous
 62
     4
370
     9
100
AcDbCircle
 10
-66.67645923511401
 20
151.0340571223078
 30
0.0
 40
10.00000128874908
100
AcDbArc
 50
2.745620727539063
 51
36.869873046875
  0
ARC
  5
288
330
1F
100
AcDbEntity
  8
D-1
  6
JWW_DASHED1
 62
     2
370
     9
100
AcDbCircle
 10
-51.86213807801937
 20
-62.94027182089317
 30
0.0
 40
5.000000644374539
100
AcDbArc
 50
139.7629089355469
 51
180.0
  0
ARC
  5
289
330
1F
100
AcDbEntity
  8
D-1
  6
Continuous
 62
     2
370
     9
100
AcDbCircle
 10
68.6378140836149
 20
-160.6087288521432
 30
0.0
 40
0.5000000064437454
100
AcDbArc
 50
0.0
 51
90.0
  0
ARC
  5
28A
330
1F
100
AcDbEntity
  8
D-1
  6
Continuous
 62
     2
370
     9
100
AcDbCircle
 10
66.32108451224667
 20
-160.6087288521432
 30
0.0
 40
0.5000000064437454
100
AcDbArc
 50
90.0
 51
130.2366943359375
  0
ARC
  5
28B
330
1F
100
AcDbEntity
  8
D-1
  6
Continuous
 62
     2
370
     9
100
AcDbCircle
 10
-46.36219416437922
 20
-45.60879483609585
 30
0.0
 40
0.5000000064437454
100
AcDbArc
 50
0.0
 51
90.0
  0
ARC
  5
28C
330
1F
100
AcDbEntity
  8
D-1
  6
Continuous
 62
     2
370
     9
100
AcDbCircle
 10
-46.36219416437922
 20
-47.92552440746411
 30
0.0
 40
0.5000000064437454
100
AcDbArc
 50
319.7669830322266
 51
0.0
  0
ARC
  5
28D
330
1F
100
AcDbEntity
  8
D-1
  6
Continuous
 62
     2
370
     9
100
AcDbCircle
 10
-65.27659318253797
 20
153.2995171624261
 30
0.0
 40
2.000000025774982
100
AcDbArc
 50
98.1300048828125
 51
180.0
  0
ARC
  5
28E
330
1F
100
AcDbEntity
  8
D-1
  6
Continuous
 62
     2
370
     9
100
AcDbCircle
 10
-65.27659318253797
 20
148.7686960581187
 30
0.0
 40
2.000000025774982
100
AcDbArc
 50
180.0
 51
261.8699951171875
  0
ARC
  5
28F
330
1F
100
AcDbEntity
  8
D-1
  6
Continuous
 62
     2
370
     9
100
AcDbCircle
 10
-65.27659318253797
 20
177.2994973672403
 30
0.0
 40
2.000000025774982
100
AcDbArc
 50
98.1300048828125
 51
180.0
  0
ARC
  5
290
330
1F
100
AcDbEntity
  8
D-1
  6
Continuous
 62
     2
370
     9
100
AcDbCircle
 10
-65.27659318253797
 20
172.7686762629328
 30
0.0
 40
2.000000025774982
100
AcDbArc
 50
180.0
 51
261.8699951171875
  0
ARC
  5
291
330
1F
100
AcDbEntity
  8
D-1
  6
Continuous
 62
     2
370
     9
100
AcDbCircle
 10
-65.27659318253797
 20
201.2995765479835
 30
0.0
 40
2.000000025774982
100
AcDbArc
 50
98.1300048828125
 51
180.0
  0
ARC
  5
292
330
1F
100
AcDbEntity
  8
D-1
  6
Continuous
 62
     2
370
     9
100
AcDbCircle
 10
-65.27659318253797
 20
196.7686564677471
 30
0.0
 40
2.000000025774982
100
AcDbArc
 50
180.0
 51
261.8699951171875
  0
ARC
  5
293
330
1F
100
AcDbEntity
  8
D-1
  6
Continuous
 62
     2
370
     9
100
AcDbCircle
 10
-65.27659318253797
 20
225.2994577768687
 30
0.0
 40
2.000000025774982
100
AcDbArc
 50
98.1300048828125
 51
180.0
  0
ARC
  5
294
330
1F
100
AcDbEntity
  8
D-1
  6
Continuous
 62
     2
370
     9
100
AcDbCircle
 10
-65.27659318253797
 20
220.7686366725613
 30
0.0
 40
2.000000025774982
100
AcDbArc
 50
180.0
 51
261.8699951171875
  0
ARC
  5
295
330
1F
100
AcDbEntity
  8
D-1
  6
Continuous
 62
     2
370
     9
100
AcDbCircle
 10
-65.27659318253797
 20
124.7686168773754
 30
0.0
 40
2.000000025774982
100
AcDbArc
 50
180.0
 51
261.8699951171875
  0
ARC
  5
296
330
1F
100
AcDbEntity
  8
D-1
  6
Continuous
 62
     2
370
     9
100
AcDbCircle
 10
-65.27659318253797
 20
129.2995369576119
 30
0.0
 40
2.000000025774982
100
AcDbArc
 50
98.1300048828125
 51
180.0
  0
ARC
  5
297
330
1F
100
AcDbEntity
  8
D-1
  6
Continuous
 62
     2
370
     9
100
AcDbCircle
 10
-65.27659318253797
 20
100.7686366725612
 30
0.0
 40
2.000000025774982
100
AcDbArc
 50
180.0
 51
261.8699951171875
  0
ARC
  5
298
330
1F
100
AcDbEntity
  8
D-1
  6
Continuous
 62
     2
370
     9
100
AcDbCircle
 10
-65.27659318253797
 20
105.2994577768687
 30
0.0
 40
2.000000025774982
100
AcDbArc
 50
98.1300048828125
 51
180.0
  0
ARC
  5
299
330
1F
100
AcDbEntity
  8
D-1
  6
Continuous
 62
     2
370
     9
100
AcDbCircle
 10
-65.27659318253797
 20
76.76865646774706
 30
0.0
 40
2.000000025774982
100
AcDbArc
 50
180.0
 51
261.8699951171875
  0
ARC
  5
29A
330
1F
100
AcDbEntity
  8
D-1
  6
Continuous
 62
     2
370
     9
100
AcDbCircle
 10
-65.27659318253797
 20
81.29947757205446
 30
0.0
 40
2.000000025774982
100
AcDbArc
 50
98.1300048828125
 51
180.0
  0
ARC
  5
29B
330
1F
100
AcDbEntity
  8
D-1
  6
Continuous
 62
     2
370
     9
100
AcDbCircle
 10
57.13265413851354
 20
-165.1086694665858
 30
0.0
 40
2.000000025774982
100
AcDbArc
 50
270.0
 51
310.236572265625
  0
ARC
  5
29C
330
1F
100
AcDbEntity
  8
D-1
  6
Continuous
 62
     2
370
     9
100
AcDbCircle
 10
0.2234744510135442
 20
60.03410331107472
 30
0.0
 40
0.5000000064437454
100
AcDbArc
 50
90.0
 51
180.0
  0
ARC
  5
29D
330
1F
100
AcDbEntity
  8
D-1
  6
Continuous
 62
     2
370
     9
100
AcDbCircle
 10
0.2234744510135442
 20
58.03409671267946
 30
0.0
 40
0.5000000064437454
100
AcDbArc
 50
180.0
 51
270.0
  0
ARC
  5
29E
330
1F
100
AcDbEntity
  8
D-1
  6
Continuous
 62
     2
370
     9
100
AcDbCircle
 10
0.2234744510135442
 20
242.03410990947
 30
0.0
 40
0.5000000064437454
100
AcDbArc
 50
180.0
 51
270.0
  0
ARC
  5
29F
330
1F
100
AcDbEntity
  8
D-1
  6
Continuous
 62
     2
370
     9
100
AcDbCircle
 10
0.2234744510135442
 20
244.0340175319363
 30
0.0
 40
0.5000000064437454
100
AcDbArc
 50
90.0
 51
180.0
  0
ARC
  5
2A0
330
1F
100
AcDbEntity
  8
D-1
  6
Continuous
 62
     2
370
     9
100
AcDbCircle
 10
52.22344805743245
 20
156.5340505239126
 30
0.0
 40
0.5000000064437454
100
AcDbArc
 50
180.0
 51
270.0
  0
ARC
  5
2A1
330
1F
100
AcDbEntity
  8
D-1
  6
Continuous
 62
     2
370
     9
100
AcDbCircle
 10
52.22344805743245
 20
145.5340637207031
 30
0.0
 40
0.5000000064437454
100
AcDbArc
 50
90.0
 51
180.0
  0
ARC
  5
2A2
330
1F
100
AcDbEntity
  8
D-1
  6
Continuous
 62
     2
370
     9
100
AcDbCircle
 10
52.22344805743245
 20
97.53410331107472
 30
0.0
 40
0.5000000064437454
100
AcDbArc
 50
90.0
 51
180.0
  0
ARC
  5
2A3
330
1F
100
AcDbEntity
  8
D-1
  6
Continuous
 62
     2
370
     9
100
AcDbCircle
 10
52.22344805743245
 20
108.5340901142842
 30
0.0
 40
0.5000000064437454
100
AcDbArc
 50
180.0
 51
270.0
  0
ARC
  5
2A4
330
1F
100
AcDbEntity
  8
D-1
  6
Continuous
 62
     2
370
     9
100
AcDbCircle
 10
52.22344805743245
 20
204.53410990947
 30
0.0
 40
0.5000000064437454
100
AcDbArc
 50
180.0
 51
270.0
  0
ARC
  5
2A5
330
1F
100
AcDbEntity
  8
D-1
  6
Continuous
 62
     2
370
     9
100
AcDbCircle
 10
52.22344805743245
 20
193.5341231062606
 30
0.0
 40
0.5000000064437454
100
AcDbArc
 50
90.0
 51
180.0
  0
ARC
  5
2A6
330
1F
100
AcDbEntity
  8
D-1
  6
Continuous
 62
     2
370
     9
100
AcDbCircle
 10
52.22344805743245
 20
228.5340901142842
 30
0.0
 40
0.5000000064437454
100
AcDbArc
 50
180.0
 51
270.0
  0
ARC
  5
2A7
330
1F
100
AcDbEntity
  8
D-1
  6
Continuous
 62
     2
370
     9
100
AcDbCircle
 10
54.22345465582777
 20
228.5340901142842
 30
0.0
 40
0.5000000064437454
100
AcDbArc
 50
270.0
 51
0.0
  0
ARC
  5
2A8
330
1F
100
AcDbEntity
  8
D-1
  6
Continuous
 62
     2
370
     9
100
AcDbCircle
 10
52.22344805743245
 20
217.5341033110747
 30
0.0
 40
0.5000000064437454
100
AcDbArc
 50
90.0
 51
180.0
  0
ARC
  5
2A9
330
1F
100
AcDbEntity
  8
D-1
  6
Continuous
 62
     2
370
     9
100
AcDbCircle
 10
54.22345465582777
 20
217.5341033110747
 30
0.0
 40
0.5000000064437454
100
AcDbArc
 50
0.0
 51
90.0
  0
ARC
  5
2AA
330
1F
100
AcDbEntity
  8
D-1
  6
Continuous
 62
     2
370
     9
100
AcDbCircle
 10
54.22345465582777
 20
204.53410990947
 30
0.0
 40
0.5000000064437454
100
AcDbArc
 50
270.0
 51
0.0
  0
ARC
  5
2AB
330
1F
100
AcDbEntity
  8
D-1
  6
Continuous
 62
     2
370
     9
100
AcDbCircle
 10
54.22345465582777
 20
193.5341231062606
 30
0.0
 40
0.5000000064437454
100
AcDbArc
 50
0.0
 51
90.0
  0
ARC
  5
2AC
330
1F
100
AcDbEntity
  8
D-1
  6
Continuous
 62
     2
370
     9
100
AcDbCircle
 10
54.22345465582777
 20
180.5341297046558
 30
0.0
 40
0.5000000064437454
100
AcDbArc
 50
270.0
 51
0.0
  0
ARC
  5
2AD
330
1F
100
AcDbEntity
  8
D-1
  6
Continuous
 62
     2
370
     9
100
AcDbCircle
 10
52.22344805743245
 20
180.5341297046558
 30
0.0
 40
0.5000000064437454
100
AcDbArc
 50
180.0
 51
270.0
  0
ARC
  5
2AE
330
1F
100
AcDbEntity
  8
D-1
  6
Continuous
 62
     2
370
     9
100
AcDbCircle
 10
54.22345465582777
 20
169.5341429014464
 30
0.0
 40
0.5000000064437454
100
AcDbArc
 50
0.0
 51
90.0
  0
ARC
  5
2AF
330
1F
100
AcDbEntity
  8
D-1
  6
Continuous
 62
     2
370
     9
100
AcDbCircle
 10
52.22344805743245
 20
169.5341429014464
 30
0.0
 40
0.5000000064437454
100
AcDbArc
 50
90.0
 51
180.0
  0
ARC
  5
2B0
330
1F
100
AcDbEntity
  8
D-1
  6
Continuous
 62
     2
370
     9
100
AcDbCircle
 10
54.22345465582777
 20
156.5340505239126
 30
0.0
 40
0.5000000064437454
100
AcDbArc
 50
270.0
 51
0.0
  0
ARC
  5
2B1
330
1F
100
AcDbEntity
  8
D-1
  6
Continuous
 62
     2
370
     9
100
AcDbCircle
 10
54.22345465582777
 20
145.5340637207031
 30
0.0
 40
0.5000000064437454
100
AcDbArc
 50
0.0
 51
90.0
  0
ARC
  5
2B2
330
1F
100
AcDbEntity
  8
D-1
  6
Continuous
 62
     2
370
     9
100
AcDbCircle
 10
52.22344805743245
 20
132.5340703190984
 30
0.0
 40
0.5000000064437454
100
AcDbArc
 50
180.0
 51
270.0
  0
ARC
  5
2B3
330
1F
100
AcDbEntity
  8
D-1
  6
Continuous
 62
     2
370
     9
100
AcDbCircle
 10
54.22345465582777
 20
132.5340703190984
 30
0.0
 40
0.5000000064437454
100
AcDbArc
 50
270.0
 51
0.0
  0
ARC
  5
2B4
330
1F
100
AcDbEntity
  8
D-1
  6
Continuous
 62
     2
370
     9
100
AcDbCircle
 10
52.22344805743245
 20
121.5340835158889
 30
0.0
 40
0.5000000064437454
100
AcDbArc
 50
90.0
 51
180.0
  0
ARC
  5
2B5
330
1F
100
AcDbEntity
  8
D-1
  6
Continuous
 62
     2
370
     9
100
AcDbCircle
 10
54.22345465582777
 20
121.5340835158889
 30
0.0
 40
0.5000000064437454
100
AcDbArc
 50
0.0
 51
90.0
  0
ARC
  5
2B6
330
1F
100
AcDbEntity
  8
D-1
  6
Continuous
 62
     2
370
     9
100
AcDbCircle
 10
54.22345465582777
 20
108.5340901142842
 30
0.0
 40
0.5000000064437454
100
AcDbArc
 50
270.0
 51
0.0
  0
ARC
  5
2B7
330
1F
100
AcDbEntity
  8
D-1
  6
Continuous
 62
     2
370
     9
100
AcDbCircle
 10
54.22345465582777
 20
97.53400433514571
 30
0.0
 40
0.5000000064437454
100
AcDbArc
 50
0.0
 51
90.0
  0
ARC
  5
2B8
330
1F
100
AcDbEntity
  8
D-1
  6
Continuous
 62
     2
370
     9
100
AcDbCircle
 10
52.22344805743245
 20
84.53401093354097
 30
0.0
 40
0.5000000064437454
100
AcDbArc
 50
180.0
 51
270.0
  0
ARC
  5
2B9
330
1F
100
AcDbEntity
  8
D-1
  6
Continuous
 62
     2
370
     9
100
AcDbCircle
 10
54.22345465582777
 20
84.53401093354097
 30
0.0
 40
0.5000000064437454
100
AcDbArc
 50
270.0
 51
0.0
  0
ARC
  5
2BA
330
1F
100
AcDbEntity
  8
D-1
  6
Continuous
 62
     2
370
     9
100
AcDbCircle
 10
54.22345465582777
 20
73.53402413033149
 30
0.0
 40
0.5000000064437454
100
AcDbArc
 50
0.0
 51
90.0
  0
ARC
  5
2BB
330
1F
100
AcDbEntity
  8
D-1
  6
Continuous
 62
     2
370
     9
100
AcDbCircle
 10
52.22344805743245
 20
73.53402413033149
 30
0.0
 40
0.5000000064437454
100
AcDbArc
 50
90.0
 51
180.0
  0
ARC
  5
2BC
330
1F
100
AcDbEntity
  8
D-1
  6
Continuous
 62
     2
370
     9
100
AcDbCircle
 10
-30.86219251478036
 20
-145.1088014344911
 30
0.0
 40
25.99999917520059
100
AcDbArc
 50
260.2346649169922
 51
270.0
  0
ARC
  5
2BD
330
1F
100
AcDbEntity
  8
D-1
  6
JWW_DASHED1
 62
     2
370
     9
100
AcDbCircle
 10
-30.86219251478036
 20
-145.1088014344911
 30
0.0
 40
25.99999917520059
100
AcDbArc
 50
189.7658538818359
 51
260.2346649169922
  0
ARC
  5
2BE
330
1F
100
AcDbEntity
  8
D-1
  6
Continuous
 62
     2
370
     9
100
AcDbCircle
 10
-30.86219251478036
 20
-145.1088014344911
 30
0.0
 40
25.99999917520059
100
AcDbArc
 50
180.0
 51
189.7658538818359
  0
ARC
  5
2BF
330
1F
100
AcDbEntity
  8
D-1
  6
Continuous
 62
     2
370
     9
100
AcDbCircle
 10
-57.01551777607682
 20
-151.8172909298459
 30
0.0
 40
3.000000038662472
100
AcDbArc
 50
194.3868255615234
 51
225.0003356933593
  0
ARC
  5
2C0
330
1F
100
AcDbEntity
  8
D-1
  6
Continuous
 62
     2
370
     9
100
AcDbCircle
 10
-37.57065726615286
 20
-171.2622009277344
 30
0.0
 40
3.000000038662472
100
AcDbArc
 50
224.9991912841797
 51
255.6127014160156
  0
ARC
  5
2C1
330
1F
100
AcDbEntity
  8
D-0
  6
Continuous
 62
     3
370
     9
100
AcDbCircle
 10
54.7234810494088
 20
246.0340241303315
 30
0.0
 40
10.00000051549963
100
AcDbArc
 50
0.0
 51
90.0
  0
ARC
  5
2C2
330
1F
100
AcDbEntity
  8
D-0
  6
Continuous
 62
     3
370
     9
100
AcDbCircle
 10
54.7234810494088
 20
56.0340901142842
 30
0.0
 40
10.00000051549963
100
AcDbArc
 50
270.0
 51
0.0
  0
ARC
  5
2C3
330
1F
100
AcDbEntity
  8
D-0
  6
Continuous
 62
     3
370
     9
100
AcDbCircle
 10
54.7234810494088
 20
245.0340703190984
 30
0.0
 40
10.00000051549963
100
AcDbArc
 50
0.0
 51
90.0
  0
ARC
  5
2C4
330
1F
100
AcDbEntity
  8
D-0
  6
Continuous
 62
     3
370
     9
100
AcDbCircle
 10
54.7234810494088
 20
57.03409341348186
 30
0.0
 40
10.00000051549963
100
AcDbArc
 50
270.0
 51
0.0
  0
ARC
  5
2C5
330
1F
100
AcDbEntity
  8
D-0
  6
Continuous
 62
     3
370
     9
100
AcDbCircle
 10
-89.77655029296875
 20
226.4440154204497
 30
0.0
 40
0.5000000064437454
100
AcDbArc
 50
180.0
 51
258.6906280517579
  0
ARC
  5
2C6
330
1F
100
AcDbEntity
  8
D-0
  6
Continuous
 62
     3
370
     9
100
AcDbCircle
 10
-89.77655029296875
 20
235.6241318161423
 30
0.0
 40
0.5000000064437454
100
AcDbArc
 50
101.3093719482422
 51
180.0
  0
ARC
  5
2C7
330
1F
100
AcDbEntity
  8
D-0
  6
JWW_HOJO
 62
     3
370
     9
100
AcDbCircle
 10
-83.27650410420182
 20
221.5746966387774
 30
0.0
 40
3.000000038662472
100
AcDbArc
 50
0.0
 51
78.6900634765625
  0
ARC
  5
2C8
330
1F
100
AcDbEntity
  8
D-0
  6
JWW_HOJO
 62
     3
370
     9
100
AcDbCircle
 10
-83.27650410420182
 20
240.4935495737437
 30
0.0
 40
3.000000038662472
100
AcDbArc
 50
281.3099365234376
 51
0.0000000000000382
  0
ARC
  5
2C9
330
1F
100
AcDbEntity
  8
D-0
  6
Continuous
 62
     3
370
     9
100
AcDbCircle
 10
-89.77655029296875
 20
75.62409882416597
 30
0.0
 40
0.5000000064437454
100
AcDbArc
 50
101.3093719482422
 51
180.0
  0
ARC
  5
2CA
330
1F
100
AcDbEntity
  8
D-0
  6
Continuous
 62
     3
370
     9
100
AcDbCircle
 10
-89.77655029296875
 20
66.44398242847336
 30
0.0
 40
0.5000000064437454
100
AcDbArc
 50
180.0
 51
258.6906280517579
  0
ARC
  5
2CB
330
1F
100
AcDbEntity
  8
D-0
  6
JWW_HOJO
 62
     3
370
     9
100
AcDbCircle
 10
-83.27650410420182
 20
80.49351658176732
 30
0.0
 40
3.000000038662472
100
AcDbArc
 50
281.3099365234376
 51
0.0000000000000382
  0
ARC
  5
2CC
330
1F
100
AcDbEntity
  8
D-0
  6
JWW_HOJO
 62
     3
370
     9
100
AcDbCircle
 10
-83.27650410420182
 20
61.57466364680107
 30
0.0
 40
3.000000038662472
100
AcDbArc
 50
0.0
 51
78.6900634765625
  0
ARC
  5
2CD
330
1F
100
AcDbEntity
  8
D-2
  6
Continuous
 62
     6
370
     5
100
AcDbCircle
 10
-53.36211828283359
 20
-76.33854436101143
 30
0.0
 40
1.500000019331236
100
AcDbArc
 50
0.0
 51
78.68969726562501
  0
ARC
  5
2CE
330
1F
100
AcDbEntity
  8
D-2
  6
Continuous
 62
     6
370
     5
100
AcDbCircle
 10
-31.29288627005911
 20
-158.101668569204
 30
0.0
 40
3.000000038662472
100
AcDbArc
 50
136.2662200927734
 51
268.1018829345703
  0
ARC
  5
2CF
330
1F
100
AcDbEntity
  8
D-2
  6
Continuous
 62
     6
370
     5
100
AcDbCircle
 10
-23.3108240076013
 20
-158.1088938120249
 30
0.0
 40
3.000000038662472
100
AcDbArc
 50
269.9998321533203
 51
313.5226898193359
  0
ARC
  5
2D0
330
1F
100
AcDbEntity
  8
D-2
  6
Continuous
 62
     6
370
     5
100
AcDbCircle
 10
1.779672983530418
 20
-158.1087948360959
 30
0.0
 40
3.000000038662472
100
AcDbArc
 50
136.8611755371094
 51
269.9996643066406
  0
ARC
  5
2D1
330
1F
100
AcDbEntity
  8
D-2
  6
Continuous
 62
     6
370
     5
100
AcDbCircle
 10
9.953451620565886
 20
-158.1087948360959
 30
0.0
 40
3.000000038662472
100
AcDbArc
 50
269.9998321533203
 51
312.5221099853516
  0
ARC
  5
2D2
330
1F
100
AcDbEntity
  8
D-2
  6
Continuous
 62
     6
370
     5
100
AcDbCircle
 10
34.70668813344599
 20
-158.1087948360959
 30
0.0
 40
3.000000038662472
100
AcDbArc
 50
138.7868804931641
 51
270.0
  0
ARC
  5
2D3
330
1F
100
AcDbEntity
  8
D-2
  6
Continuous
 62
     6
370
     5
100
AcDbCircle
 10
43.34085330447641
 20
-158.1087948360959
 30
0.0
 40
3.000000038662472
100
AcDbArc
 50
270.0
 51
307.3455200195312
  0
ARC
  5
2D4
330
1F
100
AcDbEntity
  8
D-2
  6
Continuous
 62
     6
370
     5
100
AcDbCircle
 10
-43.8548864416174
 20
-145.5397426295925
 30
0.0
 40
3.000000038662472
100
AcDbArc
 50
181.8981170654297
 51
313.7337799072265
  0
ARC
  5
2D5
330
1F
100
AcDbEntity
  8
D-2
  6
Continuous
 62
     6
370
     5
100
AcDbCircle
 10
-43.86203745249151
 20
-137.5576308791702
 30
0.0
 40
3.000000038662472
100
AcDbArc
 50
136.4773101806641
 51
180.0001678466797
  0
ARC
  5
2D6
330
1F
100
AcDbEntity
  8
D-2
  6
Continuous
 62
     6
370
     5
100
AcDbCircle
 10
-43.86203745249151
 20
-112.4671338880384
 30
0.0
 40
3.000000038662472
100
AcDbArc
 50
180.0003356933594
 51
313.1388244628906
  0
ARC
  5
2D7
330
1F
100
AcDbEntity
  8
D-2
  6
Continuous
 62
     6
370
     5
100
AcDbCircle
 10
-43.86203745249151
 20
-104.2933057630384
 30
0.0
 40
3.000000038662472
100
AcDbArc
 50
137.4778900146484
 51
180.0001678466797
  0
ARC
  5
2D8
330
1F
100
AcDbEntity
  8
D-2
  6
Continuous
 62
     6
370
     5
100
AcDbCircle
 10
-30.86224200274489
 20
-145.1088014344911
 30
0.0
 40
16.00000020619985
100
AcDbArc
 50
180.0
 51
181.8996124267578
  0
ARC
  5
2D9
330
1F
100
AcDbEntity
  8
D-2
  6
Continuous
 62
     6
370
     5
100
AcDbCircle
 10
-30.86224200274489
 20
-145.1088014344911
 30
0.0
 40
16.00000020619985
100
AcDbArc
 50
268.1017303466797
 51
270.0000000000001
  0
ARC
  5
2DA
330
1F
100
AcDbEntity
  8
D-2
  6
JWW_DASHED1
 62
     6
370
     5
100
AcDbCircle
 10
37.90836148648651
 20
-167.6088014344911
 30
0.0
 40
1.500000019331236
100
AcDbArc
 50
11.30984497070313
 51
19.47171020507813
  0
ARC
  5
2DB
330
1F
100
AcDbEntity
  8
D-2
  6
Continuous
 62
     6
370
     5
100
AcDbCircle
 10
37.90836148648651
 20
-167.6088014344911
 30
0.0
 40
1.500000019331236
100
AcDbArc
 50
19.47171020507812
 51
90.0
  0
ARC
  5
2DC
330
1F
100
AcDbEntity
  8
D-1
  6
Continuous
 62
     2
370
     9
100
AcDbCircle
 10
33.72356023015209
 20
235.034037327122
 30
0.0
 40
5.000000257749815
100
AcDbArc
 50
64.15785217285156
 51
90.0
  0
ARC
  5
2DD
330
1F
100
AcDbEntity
  8
D-1
  6
Continuous
 62
     2
370
     9
100
AcDbCircle
 10
33.72356023015209
 20
67.03407691749368
 30
0.0
 40
5.000000257749815
100
AcDbArc
 50
270.0
 51
295.8421478271485
  0
ARC
  5
2DE
330
1F
100
AcDbEntity
  8
D-2
  6
Continuous
 62
     6
370
     5
100
AcDbCircle
 10
-2.240877718538798
 20
211.0340571223078
 30
0.0
 40
2.000000025774982
100
AcDbArc
 50
90.0
 51
180.0
  0
ARC
  5
2DF
330
1F
100
AcDbEntity
  8
D-2
  6
Continuous
 62
     6
370
     5
100
AcDbCircle
 10
-2.240877718538798
 20
205.0340373271221
 30
0.0
 40
2.000000025774982
100
AcDbArc
 50
180.0
 51
270.0
  0
ARC
  5
2E0
330
1F
100
AcDbEntity
  8
D-2
  6
Continuous
 62
     6
370
     5
100
AcDbCircle
 10
35.23838682432438
 20
205.0340373271221
 30
0.0
 40
2.000000025774982
100
AcDbArc
 50
270.0
 51
0.0
  0
ARC
  5
2E1
330
1F
100
AcDbEntity
  8
D-2
  6
Continuous
 62
     6
370
     5
100
AcDbCircle
 10
35.23838682432438
 20
211.0340571223078
 30
0.0
 40
2.000000025774982
100
AcDbArc
 50
0.0
 51
90.0
  0
ARC
  5
2E2
330
1F
100
AcDbEntity
  8
D-2
  6
Continuous
 62
     6
370
     5
100
AcDbCircle
 10
-13.31197872677365
 20
211.0340571223078
 30
0.0
 40
2.000000025774982
100
AcDbArc
 50
0.0
 51
90.0
  0
ARC
  5
2E3
330
1F
100
AcDbEntity
  8
D-2
  6
Continuous
 62
     6
370
     5
100
AcDbCircle
 10
-13.31197872677365
 20
205.0340373271221
 30
0.0
 40
2.000000025774982
100
AcDbArc
 50
270.0
 51
0.0
  0
ARC
  5
2E4
330
1F
100
AcDbEntity
  8
D-2
  6
Continuous
 62
     6
370
     5
100
AcDbCircle
 10
-13.31197872677365
 20
192.0340439255173
 30
0.0
 40
2.000000025774982
100
AcDbArc
 50
0.0
 51
90.0
  0
ARC
  5
2E5
330
1F
100
AcDbEntity
  8
D-2
  6
Continuous
 62
     6
370
     5
100
AcDbCircle
 10
-13.31197872677365
 20
186.0341231062606
 30
0.0
 40
2.000000025774982
100
AcDbArc
 50
270.0
 51
0.0
  0
ARC
  5
2E6
330
1F
100
AcDbEntity
  8
D-2
  6
Continuous
 62
     6
370
     5
100
AcDbCircle
 10
-2.240877718538798
 20
192.0340439255173
 30
0.0
 40
2.000000025774982
100
AcDbArc
 50
90.0
 51
180.0
  0
ARC
  5
2E7
330
1F
100
AcDbEntity
  8
D-2
  6
Continuous
 62
     6
370
     5
100
AcDbCircle
 10
-2.240877718538798
 20
186.0341231062606
 30
0.0
 40
2.000000025774982
100
AcDbArc
 50
180.0
 51
270.0
  0
ARC
  5
2E8
330
1F
100
AcDbEntity
  8
D-2
  6
Continuous
 62
     6
370
     5
100
AcDbCircle
 10
35.23838682432438
 20
186.0341231062606
 30
0.0
 40
2.000000025774982
100
AcDbArc
 50
270.0
 51
0.0
  0
ARC
  5
2E9
330
1F
100
AcDbEntity
  8
D-2
  6
Continuous
 62
     6
370
     5
100
AcDbCircle
 10
35.23838682432438
 20
192.0340439255173
 30
0.0
 40
2.000000025774982
100
AcDbArc
 50
0.0
 51
90.0
  0
ARC
  5
2EA
330
1F
100
AcDbEntity
  8
D-2
  6
Continuous
 62
     6
370
     5
100
AcDbCircle
 10
35.23838682432438
 20
173.0340307287267
 30
0.0
 40
2.000000025774982
100
AcDbArc
 50
0.0
 51
90.0
  0
ARC
  5
2EB
330
1F
100
AcDbEntity
  8
D-2
  6
Continuous
 62
     6
370
     5
100
AcDbCircle
 10
35.23838682432438
 20
167.03410990947
 30
0.0
 40
2.000000025774982
100
AcDbArc
 50
270.0
 51
0.0
  0
ARC
  5
2EC
330
1F
100
AcDbEntity
  8
D-2
  6
Continuous
 62
     6
370
     5
100
AcDbCircle
 10
-2.240877718538798
 20
167.03410990947
 30
0.0
 40
2.000000025774982
100
AcDbArc
 50
180.0
 51
270.0
  0
ARC
  5
2ED
330
1F
100
AcDbEntity
  8
D-2
  6
Continuous
 62
     6
370
     5
100
AcDbCircle
 10
-2.240877718538798
 20
173.0340307287267
 30
0.0
 40
2.000000025774982
100
AcDbArc
 50
90.0
 51
180.0
  0
ARC
  5
2EE
330
1F
100
AcDbEntity
  8
D-2
  6
Continuous
 62
     6
370
     5
100
AcDbCircle
 10
-13.31197872677365
 20
173.0340307287267
 30
0.0
 40
2.000000025774982
100
AcDbArc
 50
0.0
 51
90.0
  0
ARC
  5
2EF
330
1F
100
AcDbEntity
  8
D-2
  6
Continuous
 62
     6
370
     5
100
AcDbCircle
 10
-13.31197872677365
 20
167.03410990947
 30
0.0
 40
2.000000025774982
100
AcDbArc
 50
270.0
 51
0.0
  0
ARC
  5
2F0
330
1F
100
AcDbEntity
  8
D-2
  6
Continuous
 62
     6
370
     5
100
AcDbCircle
 10
-13.31197872677365
 20
154.0341165078653
 30
0.0
 40
2.000000025774982
100
AcDbArc
 50
0.0
 51
90.0
  0
ARC
  5
2F1
330
1F
100
AcDbEntity
  8
D-2
  6
Continuous
 62
     6
370
     5
100
AcDbCircle
 10
-13.31197872677365
 20
148.0340967126795
 30
0.0
 40
2.000000025774982
100
AcDbArc
 50
270.0
 51
0.0
  0
ARC
  5
2F2
330
1F
100
AcDbEntity
  8
D-2
  6
Continuous
 62
     6
370
     5
100
AcDbCircle
 10
-2.240877718538798
 20
148.0340967126795
 30
0.0
 40
2.000000025774982
100
AcDbArc
 50
180.0
 51
270.0
  0
ARC
  5
2F3
330
1F
100
AcDbEntity
  8
D-2
  6
Continuous
 62
     6
370
     5
100
AcDbCircle
 10
-2.240877718538798
 20
154.0341165078653
 30
0.0
 40
2.000000025774982
100
AcDbArc
 50
90.0
 51
180.0
  0
ARC
  5
2F4
330
1F
100
AcDbEntity
  8
D-2
  6
Continuous
 62
     6
370
     5
100
AcDbCircle
 10
35.23838682432438
 20
154.0341165078653
 30
0.0
 40
2.000000025774982
100
AcDbArc
 50
0.0
 51
90.0
  0
ARC
  5
2F5
330
1F
100
AcDbEntity
  8
D-2
  6
Continuous
 62
     6
370
     5
100
AcDbCircle
 10
35.23838682432438
 20
148.0340967126795
 30
0.0
 40
2.000000025774982
100
AcDbArc
 50
270.0
 51
0.0
  0
ARC
  5
2F6
330
1F
100
AcDbEntity
  8
D-2
  6
Continuous
 62
     6
370
     5
100
AcDbCircle
 10
-2.240877718538798
 20
91.03405712230784
 30
0.0
 40
2.000000025774982
100
AcDbArc
 50
180.0
 51
270.0
  0
ARC
  5
2F7
330
1F
100
AcDbEntity
  8
D-2
  6
Continuous
 62
     6
370
     5
100
AcDbCircle
 10
-2.240877718538798
 20
97.03407691749368
 30
0.0
 40
2.000000025774982
100
AcDbArc
 50
90.0
 51
180.0
  0
ARC
  5
2F8
330
1F
100
AcDbEntity
  8
D-2
  6
Continuous
 62
     6
370
     5
100
AcDbCircle
 10
35.23838682432438
 20
97.03407691749368
 30
0.0
 40
2.000000025774982
100
AcDbArc
 50
0.0
 51
90.0
  0
ARC
  5
2F9
330
1F
100
AcDbEntity
  8
D-2
  6
Continuous
 62
     6
370
     5
100
AcDbCircle
 10
35.23838682432438
 20
91.03405712230784
 30
0.0
 40
2.000000025774982
100
AcDbArc
 50
270.0
 51
0.0
  0
ARC
  5
2FA
330
1F
100
AcDbEntity
  8
D-2
  6
Continuous
 62
     6
370
     5
100
AcDbCircle
 10
-13.31197872677365
 20
91.03405712230784
 30
0.0
 40
2.000000025774982
100
AcDbArc
 50
270.0
 51
0.0
  0
ARC
  5
2FB
330
1F
100
AcDbEntity
  8
D-2
  6
Continuous
 62
     6
370
     5
100
AcDbCircle
 10
-13.31197872677365
 20
97.03407691749368
 30
0.0
 40
2.000000025774982
100
AcDbArc
 50
0.0
 51
90.0
  0
ARC
  5
2FC
330
1F
100
AcDbEntity
  8
D-2
  6
Continuous
 62
     6
370
     5
100
AcDbCircle
 10
-13.31197872677365
 20
110.0340703190984
 30
0.0
 40
2.000000025774982
100
AcDbArc
 50
270.0
 51
0.0
  0
ARC
  5
2FD
330
1F
100
AcDbEntity
  8
D-2
  6
Continuous
 62
     6
370
     5
100
AcDbCircle
 10
-13.31197872677365
 20
116.0340901142842
 30
0.0
 40
2.000000025774982
100
AcDbArc
 50
0.0
 51
90.0
  0
ARC
  5
2FE
330
1F
100
AcDbEntity
  8
D-2
  6
Continuous
 62
     6
370
     5
100
AcDbCircle
 10
-2.240877718538798
 20
110.0340703190984
 30
0.0
 40
2.000000025774982
100
AcDbArc
 50
180.0
 51
270.0
  0
ARC
  5
2FF
330
1F
100
AcDbEntity
  8
D-2
  6
Continuous
 62
     6
370
     5
100
AcDbCircle
 10
-2.240877718538798
 20
116.0340901142842
 30
0.0
 40
2.000000025774982
100
AcDbArc
 50
90.0
 51
180.0
  0
ARC
  5
300
330
1F
100
AcDbEntity
  8
D-2
  6
Continuous
 62
     6
370
     5
100
AcDbCircle
 10
35.23838682432438
 20
116.0340901142842
 30
0.0
 40
2.000000025774982
100
AcDbArc
 50
0.0
 51
90.0
  0
ARC
  5
301
330
1F
100
AcDbEntity
  8
D-2
  6
Continuous
 62
     6
370
     5
100
AcDbCircle
 10
35.23838682432438
 20
110.0340703190984
 30
0.0
 40
2.000000025774982
100
AcDbArc
 50
270.0
 51
0.0
  0
ARC
  5
302
330
1F
100
AcDbEntity
  8
D-2
  6
Continuous
 62
     6
370
     5
100
AcDbCircle
 10
35.23838682432438
 20
129.0340835158889
 30
0.0
 40
2.000000025774982
100
AcDbArc
 50
270.0
 51
0.0
  0
ARC
  5
303
330
1F
100
AcDbEntity
  8
D-2
  6
Continuous
 62
     6
370
     5
100
AcDbCircle
 10
35.23838682432438
 20
135.0341033110747
 30
0.0
 40
2.000000025774982
100
AcDbArc
 50
0.0
 51
90.0
  0
ARC
  5
304
330
1F
100
AcDbEntity
  8
D-2
  6
Continuous
 62
     6
370
     5
100
AcDbCircle
 10
-2.240877718538798
 20
135.0341033110747
 30
0.0
 40
2.000000025774982
100
AcDbArc
 50
90.0
 51
180.0
  0
ARC
  5
305
330
1F
100
AcDbEntity
  8
D-2
  6
Continuous
 62
     6
370
     5
100
AcDbCircle
 10
-2.240877718538798
 20
129.0340835158889
 30
0.0
 40
2.000000025774982
100
AcDbArc
 50
180.0
 51
270.0
  0
ARC
  5
306
330
1F
100
AcDbEntity
  8
D-2
  6
Continuous
 62
     6
370
     5
100
AcDbCircle
 10
-13.31197872677365
 20
129.0340835158889
 30
0.0
 40
2.000000025774982
100
AcDbArc
 50
270.0
 51
0.0
  0
ARC
  5
307
330
1F
100
AcDbEntity
  8
D-2
  6
Continuous
 62
     6
370
     5
100
AcDbCircle
 10
-13.31197872677365
 20
135.0341033110747
 30
0.0
 40
2.000000025774982
100
AcDbArc
 50
0.0
 51
90.0
  0
ARC
  5
308
330
1F
100
AcDbEntity
  8
D-2
  6
Continuous
 62
     6
370
     5
100
AcDbCircle
 10
-30.86224200274489
 20
-145.1088014344911
 30
0.0
 40
20.99999969070022
100
AcDbArc
 50
180.0
 51
204.0758361816406
  0
ARC
  5
309
330
1F
100
AcDbEntity
  8
D-2
  6
Continuous
 62
     6
370
     5
100
AcDbCircle
 10
-30.86224200274489
 20
-145.1088014344911
 30
0.0
 40
20.99999969070022
100
AcDbArc
 50
245.9254302978516
 51
270.0
  0
ARC
  5
30A
330
1F
100
AcDbEntity
  8
D-2
  6
Continuous
 62
     6
370
     5
100
AcDbCircle
 10
-45.27650245460302
 20
151.0340571223078
 30
0.0
 40
10.00000051549963
100
AcDbArc
 50
277.7592163085938
 51
82.24078369140628
  0
ARC
  5
30B
330
1F
100
AcDbEntity
  8
D-2
  6
Continuous
 62
     6
370
     5
100
AcDbCircle
 10
-27.61964210304052
 20
154.0341165078653
 30
0.0
 40
2.000000025774982
100
AcDbArc
 50
90.0
 51
180.0
  0
ARC
  5
30C
330
1F
100
AcDbEntity
  8
D-2
  6
Continuous
 62
     6
370
     5
100
AcDbCircle
 10
-27.61964210304052
 20
148.0340967126795
 30
0.0
 40
2.000000025774982
100
AcDbArc
 50
180.0
 51
270.0
  0
ARC
  5
30D
330
1F
100
AcDbEntity
  8
D-2
  6
Continuous
 62
     6
370
     5
100
AcDbCircle
 10
40.36761639569261
 20
227.7791017274599
 30
0.0
 40
0.5000000064437454
100
AcDbArc
 50
90.0
 51
167.9897003173828
  0
ARC
  5
30E
330
1F
100
AcDbEntity
  8
D-2
  6
Continuous
 62
     6
370
     5
100
AcDbCircle
 10
38.48786555109803
 20
223.751078342747
 30
0.0
 40
0.5000000064437454
100
AcDbArc
 50
270.0
 51
347.9897003173828
  0
ARC
  5
30F
330
1F
100
AcDbEntity
  8
D-2
  6
Continuous
 62
     6
370
     5
100
AcDbCircle
 10
29.04496806376693
 20
223.751078342747
 30
0.0
 40
0.5000000064437454
100
AcDbArc
 50
191.9357452392578
 51
270.0
  0
ARC
  5
310
330
1F
100
AcDbEntity
  8
D-2
  6
Continuous
 62
     6
370
     5
100
AcDbCircle
 10
27.17125475084464
 20
227.7791017274599
 30
0.0
 40
0.5000000064437454
100
AcDbArc
 50
11.93574523925781
 51
90.0
  0
ARC
  5
311
330
1F
100
AcDbEntity
  8
D-2
  6
Continuous
 62
     6
370
     5
100
AcDbCircle
 10
23.74272856841219
 20
227.7791017274599
 30
0.0
 40
0.5000000064437454
100
AcDbArc
 50
90.0
 51
168.0821075439453
  0
ARC
  5
312
330
1F
100
AcDbEntity
  8
D-2
  6
Continuous
 62
     6
370
     5
100
AcDbCircle
 10
21.87020296663854
 20
223.751078342747
 30
0.0
 40
0.5000000064437454
100
AcDbArc
 50
270.0
 51
348.0821075439453
  0
ARC
  5
313
330
1F
100
AcDbEntity
  8
D-2
  6
Continuous
 62
     6
370
     5
100
AcDbCircle
 10
12.4280972867399
 20
223.751078342747
 30
0.0
 40
0.5000000064437454
100
AcDbArc
 50
191.9178924560547
 51
270.0
  0
ARC
  5
314
330
1F
100
AcDbEntity
  8
D-2
  6
Continuous
 62
     6
370
     5
100
AcDbCircle
 10
10.55586861275339
 20
227.7791017274599
 30
0.0
 40
0.5000000064437454
100
AcDbArc
 50
11.91789245605469
 51
90.0
  0
ARC
  5
315
330
1F
100
AcDbEntity
  8
D-2
  6
Continuous
 62
     6
370
     5
100
AcDbCircle
 10
7.12511547191724
 20
227.7791017274599
 30
0.0
 40
0.5000000064437454
100
AcDbArc
 50
90.0
 51
168.087661743164
  0
ARC
  5
316
330
1F
100
AcDbEntity
  8
D-2
  6
Continuous
 62
     6
370
     5
100
AcDbCircle
 10
5.253134237753386
 20
223.751078342747
 30
0.0
 40
0.5000000064437454
100
AcDbArc
 50
270.0
 51
348.0876617431641
  0
ARC
  5
317
330
1F
100
AcDbEntity
  8
D-2
  6
Continuous
 62
     6
370
     5
100
AcDbCircle
 10
-4.188921954180728
 20
223.751078342747
 30
0.0
 40
0.5000000064437454
100
AcDbArc
 50
191.912338256836
 51
270.0
  0
ARC
  5
318
330
1F
100
AcDbEntity
  8
D-2
  6
Continuous
 62
     6
370
     5
100
AcDbCircle
 10
-6.060903188344582
 20
227.7791017274599
 30
0.0
 40
0.5000000064437454
100
AcDbArc
 50
11.91233825683594
 51
90.0
  0
ARC
  5
319
330
1F
100
AcDbEntity
  8
D-2
  6
Continuous
 62
     6
370
     5
100
AcDbCircle
 10
-9.49195325696786
 20
227.7791017274599
 30
0.0
 40
0.5000000064437454
100
AcDbArc
 50
90.0
 51
168.087661743164
  0
ARC
  5
31A
330
1F
100
AcDbEntity
  8
D-2
  6
Continuous
 62
     6
370
     5
100
AcDbCircle
 10
-11.36393449113172
 20
223.751078342747
 30
0.0
 40
0.5000000064437454
100
AcDbArc
 50
270.0
 51
348.0876617431641
  0
ARC
  5
31B
330
1F
100
AcDbEntity
  8
D-2
  6
Continuous
 62
     6
370
     5
100
AcDbCircle
 10
-20.80596593908359
 20
223.751078342747
 30
0.0
 40
0.5000000064437454
100
AcDbArc
 50
191.912338256836
 51
270.0
  0
ARC
  5
31C
330
1F
100
AcDbEntity
  8
D-2
  6
Continuous
 62
     6
370
     5
100
AcDbCircle
 10
-22.67797191722968
 20
227.7791017274599
 30
0.0
 40
0.5000000064437454
100
AcDbArc
 50
11.91233825683594
 51
90.0
  0
ARC
  5
31D
330
1F
100
AcDbEntity
  8
D-2
  6
Continuous
 62
     6
370
     5
100
AcDbCircle
 10
-26.10870031408359
 20
227.7791017274599
 30
0.0
 40
0.5000000064437454
100
AcDbArc
 50
90.0
 51
168.0821075439453
  0
ARC
  5
31E
330
1F
100
AcDbEntity
  8
D-2
  6
Continuous
 62
     6
370
     5
100
AcDbCircle
 10
-27.98090424408781
 20
223.751078342747
 30
0.0
 40
0.5000000064437454
100
AcDbArc
 50
270.0
 51
348.0821075439453
  0
ARC
  5
31F
330
1F
100
AcDbEntity
  8
D-2
  6
Continuous
 62
     6
370
     5
100
AcDbCircle
 10
-37.42647408150333
 20
223.751078342747
 30
0.0
 40
0.5000000064437454
100
AcDbArc
 50
192.4001007080078
 51
270.0
  0
ARC
  5
320
330
1F
100
AcDbEntity
  8
D-2
  6
Continuous
 62
     6
370
     5
100
AcDbCircle
 10
-39.33599193676093
 20
227.7791017274599
 30
0.0
 40
0.5000000064437454
100
AcDbArc
 50
12.40010070800781
 51
90.0
  0
ARC
  5
321
330
1F
100
AcDbEntity
  8
D-2
  6
Continuous
 62
     6
370
     5
100
AcDbCircle
 10
-42.79280049092057
 20
227.7791017274599
 30
0.0
 40
0.5000000064437454
100
AcDbArc
 50
90.0
 51
168.881591796875
  0
ARC
  5
322
330
1F
100
AcDbEntity
  8
D-2
  6
Continuous
 62
     6
370
     5
100
AcDbCircle
 10
-44.60371357685807
 20
223.751078342747
 30
0.0
 40
0.5000000064437454
100
AcDbArc
 50
270.0
 51
348.8815917968751
  0
ARC
  5
323
330
1F
100
AcDbEntity
  8
D-2
  6
Continuous
 62
     6
370
     5
100
AcDbCircle
 10
-54.05014945365286
 20
223.751078342747
 30
0.0
 40
0.5000000064437454
100
AcDbArc
 50
193.3380584716796
 51
270.0
  0
ARC
  5
324
330
1F
100
AcDbEntity
  8
D-2
  6
Continuous
 62
     6
370
     5
100
AcDbCircle
 10
-56.0332064241976
 20
227.7791017274599
 30
0.0
 40
0.5000000064437454
100
AcDbArc
 50
13.33805847167969
 51
90.0
  0
ARC
  5
325
330
1F
100
AcDbEntity
  8
D-2
  6
Continuous
 62
     6
370
     5
100
AcDbCircle
 10
-56.0332064241976
 20
74.28911149308487
 30
0.0
 40
0.5000000064437454
100
AcDbArc
 50
270.0
 51
346.6564178466796
  0
ARC
  5
326
330
1F
100
AcDbEntity
  8
D-2
  6
Continuous
 62
     6
370
     5
100
AcDbCircle
 10
-54.05014945365286
 20
78.31708538983321
 30
0.0
 40
0.5000000064437454
100
AcDbArc
 50
90.0
 51
166.6564178466797
  0
ARC
  5
327
330
1F
100
AcDbEntity
  8
D-2
  6
Continuous
 62
     6
370
     5
100
AcDbCircle
 10
-44.60371357685807
 20
78.31708538983321
 30
0.0
 40
0.5000000064437454
100
AcDbArc
 50
11.12120056152344
 51
90.0
  0
ARC
  5
328
330
1F
100
AcDbEntity
  8
D-2
  6
Continuous
 62
     6
370
     5
100
AcDbCircle
 10
-42.79280049092057
 20
74.28911149308487
 30
0.0
 40
0.5000000064437454
100
AcDbArc
 50
191.1212005615234
 51
270.0
  0
ARC
  5
329
330
1F
100
AcDbEntity
  8
D-2
  6
Continuous
 62
     6
370
     5
100
AcDbCircle
 10
-39.33599193676093
 20
74.28911149308487
 30
0.0
 40
0.5000000064437454
100
AcDbArc
 50
270.0
 51
347.5998992919922
  0
ARC
  5
32A
330
1F
100
AcDbEntity
  8
D-2
  6
Continuous
 62
     6
370
     5
100
AcDbCircle
 10
-37.42647408150333
 20
78.31708538983321
 30
0.0
 40
0.5000000064437454
100
AcDbArc
 50
90.0
 51
167.5998992919922
  0
ARC
  5
32B
330
1F
100
AcDbEntity
  8
D-2
  6
Continuous
 62
     6
370
     5
100
AcDbCircle
 10
-27.98090424408781
 20
78.31708538983321
 30
0.0
 40
0.5000000064437454
100
AcDbArc
 50
11.91789245605469
 51
90.0
  0
ARC
  5
32C
330
1F
100
AcDbEntity
  8
D-2
  6
Continuous
 62
     6
370
     5
100
AcDbCircle
 10
-26.10870031408359
 20
74.28911149308487
 30
0.0
 40
0.5000000064437454
100
AcDbArc
 50
191.9178924560547
 51
270.0
  0
ARC
  5
32D
330
1F
100
AcDbEntity
  8
D-2
  6
Continuous
 62
     6
370
     5
100
AcDbCircle
 10
-22.67797191722968
 20
74.28911149308487
 30
0.0
 40
0.5000000064437454
100
AcDbArc
 50
270.0
 51
348.0848846435546
  0
ARC
  5
32E
330
1F
100
AcDbEntity
  8
D-2
  6
Continuous
 62
     6
370
     5
100
AcDbCircle
 10
-20.80596593908359
 20
78.31708538983321
 30
0.0
 40
0.5000000064437454
100
AcDbArc
 50
90.0
 51
168.0848846435547
  0
ARC
  5
32F
330
1F
100
AcDbEntity
  8
D-2
  6
Continuous
 62
     6
370
     5
100
AcDbCircle
 10
-11.36393449113172
 20
78.31708538983321
 30
0.0
 40
0.5000000064437454
100
AcDbArc
 50
11.91511535644531
 51
90.0
  0
ARC
  5
330
330
1F
100
AcDbEntity
  8
D-2
  6
Continuous
 62
     6
370
     5
100
AcDbCircle
 10
-9.49195325696786
 20
74.28911149308487
 30
0.0
 40
0.5000000064437454
100
AcDbArc
 50
191.9151153564454
 51
270.0
  0
ARC
  5
331
330
1F
100
AcDbEntity
  8
D-2
  6
Continuous
 62
     6
370
     5
100
AcDbCircle
 10
-6.060903188344582
 20
74.28911149308487
 30
0.0
 40
0.5000000064437454
100
AcDbArc
 50
270.0
 51
348.0848846435546
  0
ARC
  5
332
330
1F
100
AcDbEntity
  8
D-2
  6
Continuous
 62
     6
370
     5
100
AcDbCircle
 10
-4.188921954180728
 20
78.31708538983321
 30
0.0
 40
0.5000000064437454
100
AcDbArc
 50
90.0
 51
168.0848846435547
  0
ARC
  5
333
330
1F
100
AcDbEntity
  8
D-2
  6
Continuous
 62
     6
370
     5
100
AcDbCircle
 10
5.253134237753386
 20
78.31708538983321
 30
0.0
 40
0.5000000064437454
100
AcDbArc
 50
11.91511535644531
 51
90.0
  0
ARC
  5
334
330
1F
100
AcDbEntity
  8
D-2
  6
Continuous
 62
     6
370
     5
100
AcDbCircle
 10
7.12511547191724
 20
74.28911149308487
 30
0.0
 40
0.5000000064437454
100
AcDbArc
 50
191.9151153564454
 51
270.0
  0
ARC
  5
335
330
1F
100
AcDbEntity
  8
D-2
  6
Continuous
 62
     6
370
     5
100
AcDbCircle
 10
10.55586861275339
 20
74.28911149308487
 30
0.0
 40
0.5000000064437454
100
AcDbArc
 50
270.0
 51
348.0821075439453
  0
ARC
  5
336
330
1F
100
AcDbEntity
  8
D-2
  6
Continuous
 62
     6
370
     5
100
AcDbCircle
 10
12.4280972867399
 20
78.31708538983321
 30
0.0
 40
0.5000000064437454
100
AcDbArc
 50
90.0
 51
168.0821075439453
  0
ARC
  5
337
330
1F
100
AcDbEntity
  8
D-2
  6
Continuous
 62
     6
370
     5
100
AcDbCircle
 10
21.87020296663854
 20
78.31708538983321
 30
0.0
 40
0.5000000064437454
100
AcDbArc
 50
11.9234619140625
 51
90.00000000000001
  0
ARC
  5
338
330
1F
100
AcDbEntity
  8
D-2
  6
Continuous
 62
     6
370
     5
100
AcDbCircle
 10
23.74272856841219
 20
74.28911149308487
 30
0.0
 40
0.5000000064437454
100
AcDbArc
 50
191.9234619140624
 51
270.0
  0
ARC
  5
339
330
1F
100
AcDbEntity
  8
D-2
  6
Continuous
 62
     6
370
     5
100
AcDbCircle
 10
27.17125475084464
 20
74.28911149308487
 30
0.0
 40
0.5000000064437454
100
AcDbArc
 50
270.0
 51
348.0614776611329
  0
ARC
  5
33A
330
1F
100
AcDbEntity
  8
D-2
  6
Continuous
 62
     6
370
     5
100
AcDbCircle
 10
29.04496806376693
 20
78.31708538983321
 30
0.0
 40
0.5000000064437454
100
AcDbArc
 50
90.0
 51
168.0614776611328
  0
ARC
  5
33B
330
1F
100
AcDbEntity
  8
D-2
  6
Continuous
 62
     6
370
     5
100
AcDbCircle
 10
38.48786555109803
 20
78.31708538983321
 30
0.0
 40
0.5000000064437454
100
AcDbArc
 50
12.01585388183594
 51
90.0
  0
ARC
  5
33C
330
1F
100
AcDbEntity
  8
D-2
  6
Continuous
 62
     6
370
     5
100
AcDbCircle
 10
40.36761639569261
 20
74.28911149308487
 30
0.0
 40
0.5000000064437454
100
AcDbArc
 50
192.0158538818359
 51
270.0
  0
ARC
  5
33D
330
1F
100
AcDbEntity
  8
D-2
  6
Continuous
 62
     6
370
     5
100
AcDbCircle
 10
-42.86213312922297
 20
-75.25970673432224
 30
0.0
 40
4.000000051549963
100
AcDbArc
 50
180.0
 51
267.7975769042969
  0
ARC
  5
33E
330
1F
100
AcDbEntity
  8
D-2
  6
Continuous
 62
     6
370
     5
100
AcDbCircle
 10
-42.86213312922297
 20
-75.25970673432224
 30
0.0
 40
9.000000309299779
100
AcDbArc
 50
180.0
 51
267.7975769042969
  0
ARC
  5
33F
330
1F
100
AcDbEntity
  8
D-1
  6
Continuous
 62
     2
370
     9
100
AcDbCircle
 10
-62.27658328494505
 20
229.7686168773755
 30
0.0
 40
2.000000025774982
100
AcDbArc
 50
278.1300048828125
 51
0.0
  0
ARC
  5
340
330
1F
100
AcDbEntity
  8
D-1
  6
Continuous
 62
     2
370
     9
100
AcDbCircle
 10
-62.27658328494505
 20
72.29949736724029
 30
0.0
 40
2.000000025774982
100
AcDbArc
 50
0.0
 51
81.8699951171875
  0
ARC
  5
341
330
1F
100
AcDbEntity
  8
D-1
  6
Continuous
 62
     2
370
     9
100
AcDbCircle
 10
-62.27658328494505
 20
59.34404313370987
 30
0.0
 40
2.000000025774982
100
AcDbArc
 50
275.7112274169922
 51
0.0000000000000127
  0
ARC
  5
342
330
1F
100
AcDbEntity
  8
D-1
  6
Continuous
 62
     2
370
     9
100
AcDbCircle
 10
-62.27658328494505
 20
85.76863667256123
 30
0.0
 40
2.000000025774982
100
AcDbArc
 50
278.1300048828125
 51
0.0
  0
ARC
  5
343
330
1F
100
AcDbEntity
  8
D-1
  6
Continuous
 62
     2
370
     9
100
AcDbCircle
 10
-62.27658328494505
 20
96.29957654798352
 30
0.0
 40
2.000000025774982
100
AcDbArc
 50
0.0
 51
81.87139892578124
  0
ARC
  5
344
330
1F
100
AcDbEntity
  8
D-1
  6
Continuous
 62
     2
370
     9
100
AcDbCircle
 10
-62.27658328494505
 20
109.7687158533045
 30
0.0
 40
2.000000025774982
100
AcDbArc
 50
278.1307983398438
 51
0.0
  0
ARC
  5
345
330
1F
100
AcDbEntity
  8
D-1
  6
Continuous
 62
     2
370
     9
100
AcDbCircle
 10
-62.27658328494505
 20
120.2994577768687
 30
0.0
 40
2.000000025774982
100
AcDbArc
 50
0.0
 51
81.8699951171875
  0
ARC
  5
346
330
1F
100
AcDbEntity
  8
D-1
  6
Continuous
 62
     2
370
     9
100
AcDbCircle
 10
-62.27658328494505
 20
133.7685970821896
 30
0.0
 40
2.000000025774982
100
AcDbArc
 50
278.1300048828125
 51
0.0
  0
ARC
  5
347
330
1F
100
AcDbEntity
  8
D-1
  6
Continuous
 62
     2
370
     9
100
AcDbCircle
 10
-62.27658328494505
 20
144.2995369576119
 30
0.0
 40
2.000000025774982
100
AcDbArc
 50
0.0
 51
81.8699951171875
  0
ARC
  5
348
330
1F
100
AcDbEntity
  8
D-1
  6
Continuous
 62
     2
370
     9
100
AcDbCircle
 10
-62.27658328494505
 20
157.7686762629328
 30
0.0
 40
2.000000025774982
100
AcDbArc
 50
278.1300048828125
 51
0.0
  0
ARC
  5
349
330
1F
100
AcDbEntity
  8
D-1
  6
Continuous
 62
     2
370
     9
100
AcDbCircle
 10
-62.27658328494505
 20
168.2995171624261
 30
0.0
 40
2.000000025774982
100
AcDbArc
 50
0.0
 51
81.8699951171875
  0
ARC
  5
34A
330
1F
100
AcDbEntity
  8
D-1
  6
Continuous
 62
     2
370
     9
100
AcDbCircle
 10
-62.27658328494505
 20
181.7686564677471
 30
0.0
 40
2.000000025774982
100
AcDbArc
 50
278.1300048828125
 51
0.0
  0
ARC
  5
34B
330
1F
100
AcDbEntity
  8
D-1
  6
Continuous
 62
     2
370
     9
100
AcDbCircle
 10
-62.27658328494505
 20
192.2993983913112
 30
0.0
 40
2.000000025774982
100
AcDbArc
 50
0.0
 51
81.86929321289062
  0
ARC
  5
34C
330
1F
100
AcDbEntity
  8
D-1
  6
Continuous
 62
     2
370
     9
100
AcDbCircle
 10
-62.27658328494505
 20
205.7686366725612
 30
0.0
 40
2.000000025774982
100
AcDbArc
 50
278.1286010742188
 51
0.0000000000000127
  0
ARC
  5
34D
330
1F
100
AcDbEntity
  8
D-1
  6
Continuous
 62
     2
370
     9
100
AcDbCircle
 10
-62.27658328494505
 20
216.2994775720545
 30
0.0
 40
2.000000025774982
100
AcDbArc
 50
0.0
 51
81.8699951171875
  0
ARC
  5
34E
330
1F
100
AcDbEntity
  8
D-1
  6
Continuous
 62
     2
370
     9
100
AcDbCircle
 10
-62.27658328494505
 20
242.7240711109059
 30
0.0
 40
2.000000025774982
100
AcDbArc
 50
0.0
 51
84.2886962890625
  0
ARC
  5
34F
330
1F
100
AcDbEntity
  8
D-2
  6
Continuous
 62
     4
370
     9
100
AcDbCircle
 10
-66.67645923511401
 20
151.0340571223078
 30
0.0
 40
10.00000128874908
100
AcDbArc
 50
323.130126953125
 51
0.8641052246093799
  0
ARC
  5
350
330
1F
100
AcDbEntity
  8
D-2
  6
Continuous
 62
     6
370
     5
100
AcDbCircle
 10
42.72363941089532
 20
236.5340175319363
 30
0.0
 40
3.000000038662472
100
AcDbArc
 50
0.0
 51
90.0
  0
ARC
  5
351
330
1F
100
AcDbEntity
  8
D-2
  6
Continuous
 62
     6
370
     5
100
AcDbCircle
 10
42.72363941089532
 20
65.53409671267946
 30
0.0
 40
3.000000038662472
100
AcDbArc
 50
270.0
 51
0.0
  0
ARC
  5
352
330
1F
100
AcDbEntity
  8
D-1
  6
Continuous
 62
     2
370
     9
100
AcDbCircle
 10
48.72346125422303
 20
238.5340241303315
 30
0.0
 40
3.000000038662472
100
AcDbArc
 50
0.0
 51
90.0
  0
ARC
  5
353
330
1F
100
AcDbEntity
  8
D-1
  6
Continuous
 62
     2
370
     9
100
AcDbCircle
 10
48.72346125422303
 20
238.5340241303315
 30
0.0
 40
6.000000077324945
100
AcDbArc
 50
0.0
 51
90.0
  0
ARC
  5
354
330
1F
100
AcDbEntity
  8
D-1
  6
Continuous
 62
     2
370
     9
100
AcDbCircle
 10
48.72346125422303
 20
240.0341033110747
 30
0.0
 40
6.000000077324945
100
AcDbArc
 50
0.0
 51
90.0
  0
ARC
  5
355
330
1F
100
AcDbEntity
  8
D-1
  6
Continuous
 62
     2
370
     9
100
AcDbCircle
 10
48.72346125422303
 20
63.5340901142842
 30
0.0
 40
6.000000077324945
100
AcDbArc
 50
270.0
 51
0.0
  0
ARC
  5
356
330
1F
100
AcDbEntity
  8
D-1
  6
Continuous
 62
     2
370
     9
100
AcDbCircle
 10
48.72346125422303
 20
62.03410990947003
 30
0.0
 40
6.000000077324945
100
AcDbArc
 50
270.0
 51
0.0
  0
ARC
  5
357
330
1F
100
AcDbEntity
  8
D-1
  6
Continuous
 62
     2
370
     9
100
AcDbCircle
 10
48.72346125422303
 20
63.5340901142842
 30
0.0
 40
3.000000038662472
100
AcDbArc
 50
270.0
 51
0.0
  0
ARC
  5
358
330
1F
100
AcDbEntity
  8
D-0
  6
Continuous
 62
     3
370
     9
100
AcDbCircle
 10
35.22977591849667
 20
-178.1087618441195
 30
0.0
 40
3.000000038662472
100
AcDbArc
 50
90.0
 51
129.9998779296875
  0
ARC
  5
359
330
1F
100
AcDbEntity
  8
D-0
  6
Continuous
 62
     3
370
     9
100
AcDbCircle
 10
36.86762959248313
 20
-182.6088014344912
 30
0.0
 40
3.000000038662472
100
AcDbArc
 50
90.0
 51
130.0000305175781
  0
ARC
  5
35A
330
1F
100
AcDbEntity
  8
D-0
  6
JWW_HOJO
 62
     3
370
     9
100
AcDbCircle
 10
-30.86216777079812
 20
-152.1087750409101
 30
0.0
 40
34.49999938140044
100
AcDbArc
 50
180.0
 51
269.9999542236328
  0
ARC
  5
35B
330
1F
100
AcDbEntity
  8
D-0
  6
Continuous
 62
     3
370
     9
100
AcDbCircle
 10
68.96492952913854
 20
-184.6087090569574
 30
0.0
 40
5.000000257749815
100
AcDbArc
 50
10.30488586425781
 51
90.0
  0
ARC
  5
35C
330
1F
100
AcDbEntity
  8
D-0
  6
Continuous
 62
     3
370
     9
100
AcDbCircle
 10
38.4711881070524
 20
-184.6087090569574
 30
0.0
 40
5.000000257749815
100
AcDbArc
 50
90.0
 51
129.9996490478516
  0
ARC
  5
35D
330
1F
100
AcDbEntity
  8
D-0
  6
JWW_HOJO
 62
     3
370
     9
100
AcDbCircle
 10
9.655286634290576
 20
-182.6088014344912
 30
0.0
 40
3.000000038662472
100
AcDbArc
 50
10.78445434570312
 51
90.0
  0
ARC
  5
35E
330
1F
100
AcDbEntity
  8
D-0
  6
JWW_HOJO
 62
     3
370
     9
100
AcDbCircle
 10
-30.86216777079812
 20
-145.1088014344911
 30
0.0
 40
34.49999938140044
100
AcDbArc
 50
180.0
 51
269.9999542236328
  0
ARC
  5
35F
330
1F
100
AcDbEntity
  8
D-0
  6
Continuous
 62
     3
370
     9
100
AcDbCircle
 10
14.55152686866558
 20
-189.6087750409101
 30
0.0
 40
0.5000000064437454
100
AcDbArc
 50
190.7846374511718
 51
270.0
  0
ARC
  5
360
330
1F
100
AcDbEntity
  8
D-0
  6
Continuous
 62
     3
370
     9
100
AcDbCircle
 10
23.95577425570104
 20
-189.6087750409101
 30
0.0
 40
0.5000000064437454
100
AcDbArc
 50
270.0
 51
309.9992980957031
  0
ARC
  5
361
330
1F
100
AcDbEntity
  8
D-0
  6
JWW_HOJO
 62
     3
370
     9
100
AcDbCircle
 10
-68.63232256915114
 20
-163.6701533137141
 30
0.0
 40
5.000000257749815
100
AcDbArc
 50
324.9999389648438
 51
17.01924133300782
  0
ARC
  5
362
330
1F
100
AcDbEntity
  8
D-0
  6
JWW_HOJO
 62
     3
370
     9
100
AcDbCircle
 10
-60.56063760293495
 20
-174.8073207545925
 30
0.0
 40
8.000000103099927
100
AcDbArc
 50
144.9998931884766
 51
307.7427825927734
  0
ARC
  5
363
330
1F
100
AcDbEntity
  8
D-0
  6
JWW_HOJO
 62
     3
370
     9
100
AcDbCircle
 10
-52.60307188291807
 20
-185.0871586980047
 30
0.0
 40
5.000000257749815
100
AcDbArc
 50
56.60530090332031
 51
127.7429046630859
  0
ARC
  5
364
330
1F
100
AcDbEntity
  8
D-0
  6
Continuous
 62
     3
370
     9
100
AcDbCircle
 10
-58.20402073215791
 20
-160.1507672284101
 30
0.0
 40
1.500000019331236
100
AcDbArc
 50
196.3902587890625
 51
270.0
  0
ARC
  5
365
330
1F
100
AcDbEntity
  8
D-0
  6
Continuous
 62
     3
370
     9
100
AcDbCircle
 10
-45.9040840767525
 20
-176.3161098170925
 30
0.0
 40
1.500000019331236
100
AcDbArc
 50
180.0
 51
238.1441192626953
  0
ARC
  5
366
330
1F
100
AcDbEntity
  8
D-0
  6
Continuous
 62
     3
370
     9
100
AcDbCircle
 10
77.13786687077709
 20
-177.1087090569574
 30
0.0
 40
2.000000025774982
100
AcDbArc
 50
0.0
 51
90.0
  0
ARC
  5
367
330
1F
100
AcDbEntity
  8
D-0
  6
Continuous
 62
     3
370
     9
100
AcDbCircle
 10
-62.86219911317562
 20
-37.10884102486278
 30
0.0
 40
2.000000025774982
100
AcDbArc
 50
0.0
 51
90.0
  0
ARC
  5
368
330
1F
100
AcDbEntity
  8
D-0
  6
Continuous
 62
     3
370
     9
100
AcDbCircle
 10
-70.36217436919338
 20
-47.97639803499791
 30
0.0
 40
5.000000257749815
100
AcDbArc
 50
0.0
 51
43.00006103515624
  0
ARC
  5
369
330
1F
100
AcDbEntity
  8
D-0
  6
Continuous
 62
     3
370
     9
100
AcDbCircle
 10
-77.27660802892734
 20
253.2240315205342
 30
0.0
 40
2.000000025774982
100
AcDbArc
 50
0.0
 51
84.28884887695312
  0
ARC
  5
36A
330
1F
100
AcDbEntity
  8
D-0
  6
Continuous
 62
     3
370
     9
100
AcDbCircle
 10
-77.27660802892734
 20
48.84408272408149
 30
0.0
 40
2.000000025774982
100
AcDbArc
 50
275.7112274169922
 51
0.0000000000000127
  0
ARC
  5
36B
330
1F
100
AcDbEntity
  8
D-2
  6
Continuous
 62
     6
370
     5
100
AcDbCircle
 10
-45.27650245460302
 20
151.0340571223078
 30
0.0
 40
15.56700062107396
100
AcDbArc
 50
64.07133483886719
 51
82.24078369140626
  0
ARC
  5
36C
330
1F
100
AcDbEntity
  8
D-2
  6
Continuous
 62
     6
370
     5
100
AcDbCircle
 10
-47.12737707189609
 20
171.0341231062606
 30
0.0
 40
4.000000051549963
100
AcDbArc
 50
90.0
 51
262.2408142089844
  0
ARC
  5
36D
330
1F
100
AcDbEntity
  8
D-2
  6
Continuous
 62
     6
370
     5
100
AcDbCircle
 10
-47.12737707189609
 20
131.0340901142842
 30
0.0
 40
4.000000051549963
100
AcDbArc
 50
97.75918579101562
 51
270.0
  0
ARC
  5
36E
330
1F
100
AcDbEntity
  8
D-2
  6
Continuous
 62
     6
370
     5
100
AcDbCircle
 10
-45.27650245460302
 20
151.0340571223078
 30
0.0
 40
15.56700062107396
100
AcDbArc
 50
277.7592163085938
 51
295.9286651611329
  0
ARC
  5
36F
330
1F
100
AcDbEntity
  8
D-2
  6
Continuous
 62
     6
370
     5
100
AcDbCircle
 10
-52.20543608794338
 20
116.0340901142842
 30
0.0
 40
2.000000025774982
100
AcDbArc
 50
90.0
 51
180.0
  0
ARC
  5
370
330
1F
100
AcDbEntity
  8
D-2
  6
Continuous
 62
     6
370
     5
100
AcDbCircle
 10
-52.20543608794338
 20
110.0340703190984
 30
0.0
 40
2.000000025774982
100
AcDbArc
 50
180.0
 51
270.0
  0
ARC
  5
371
330
1F
100
AcDbEntity
  8
D-2
  6
Continuous
 62
     6
370
     5
100
AcDbCircle
 10
-52.20543608794338
 20
97.03407691749368
 30
0.0
 40
2.000000025774982
100
AcDbArc
 50
90.0
 51
180.0
  0
ARC
  5
372
330
1F
100
AcDbEntity
  8
D-2
  6
Continuous
 62
     6
370
     5
100
AcDbCircle
 10
-52.20543608794338
 20
91.03405712230784
 30
0.0
 40
2.000000025774982
100
AcDbArc
 50
180.0
 51
270.0
  0
ARC
  5
373
330
1F
100
AcDbEntity
  8
D-2
  6
Continuous
 62
     6
370
     5
100
AcDbCircle
 10
-52.20543608794338
 20
186.0341231062606
 30
0.0
 40
2.000000025774982
100
AcDbArc
 50
180.0
 51
270.0
  0
ARC
  5
374
330
1F
100
AcDbEntity
  8
D-2
  6
Continuous
 62
     6
370
     5
100
AcDbCircle
 10
-52.20543608794338
 20
192.0340439255173
 30
0.0
 40
2.000000025774982
100
AcDbArc
 50
90.0
 51
180.0
  0
ARC
  5
375
330
1F
100
AcDbEntity
  8
D-2
  6
Continuous
 62
     6
370
     5
100
AcDbCircle
 10
-52.20543608794338
 20
205.0340373271221
 30
0.0
 40
2.000000025774982
100
AcDbArc
 50
180.0
 51
270.0
  0
ARC
  5
376
330
1F
100
AcDbEntity
  8
D-2
  6
Continuous
 62
     6
370
     5
100
AcDbCircle
 10
-52.20543608794338
 20
211.0340571223078
 30
0.0
 40
2.000000025774982
100
AcDbArc
 50
90.0
 51
180.0
  0
ARC
  5
377
330
1F
100
AcDbEntity
  8
D-1
  6
Continuous
 62
     2
370
     9
100
AcDbCircle
 10
0.4949159364442721
 20
-169.6423608728358
 30
0.0
 40
1.466317950068293
100
AcDbArc
 50
180.0
 51
309.9999694824219
  0
ARC
  5
378
330
1F
100
AcDbEntity
  8
D-2
  6
Continuous
 62
     6
370
     5
100
AcDbCircle
 10
-15.78687183277026
 20
211.0340571223078
 30
0.0
 40
2.000000025774982
100
AcDbArc
 50
0.0
 51
90.0
  0
ARC
  5
379
330
1F
100
AcDbEntity
  8
D-2
  6
Continuous
 62
     6
370
     5
100
AcDbCircle
 10
-15.78687183277026
 20
205.0340373271221
 30
0.0
 40
2.000000025774982
100
AcDbArc
 50
270.0
 51
0.0
  0
ARC
  5
37A
330
1F
100
AcDbEntity
  8
D-2
  6
Continuous
 62
     6
370
     5
100
AcDbCircle
 10
-15.78687183277026
 20
192.0340439255173
 30
0.0
 40
2.000000025774982
100
AcDbArc
 50
0.0
 51
90.0
  0
ARC
  5
37B
330
1F
100
AcDbEntity
  8
D-2
  6
Continuous
 62
     6
370
     5
100
AcDbCircle
 10
-15.78687183277026
 20
186.0341231062606
 30
0.0
 40
2.000000025774982
100
AcDbArc
 50
270.0
 51
0.0
  0
ARC
  5
37C
330
1F
100
AcDbEntity
  8
D-2
  6
Continuous
 62
     6
370
     5
100
AcDbCircle
 10
-15.78687183277026
 20
173.0340307287267
 30
0.0
 40
2.000000025774982
100
AcDbArc
 50
0.0
 51
90.0
  0
ARC
  5
37D
330
1F
100
AcDbEntity
  8
D-2
  6
Continuous
 62
     6
370
     5
100
AcDbCircle
 10
-15.78687183277026
 20
167.03410990947
 30
0.0
 40
2.000000025774982
100
AcDbArc
 50
270.0
 51
0.0
  0
ARC
  5
37E
330
1F
100
AcDbEntity
  8
D-2
  6
Continuous
 62
     6
370
     5
100
AcDbCircle
 10
-15.78687183277026
 20
154.0341165078653
 30
0.0
 40
2.000000025774982
100
AcDbArc
 50
0.0
 51
90.0
  0
ARC
  5
37F
330
1F
100
AcDbEntity
  8
D-2
  6
Continuous
 62
     6
370
     5
100
AcDbCircle
 10
-15.78687183277026
 20
148.0340967126795
 30
0.0
 40
2.000000025774982
100
AcDbArc
 50
270.0
 51
0.0
  0
ARC
  5
380
330
1F
100
AcDbEntity
  8
D-2
  6
Continuous
 62
     6
370
     5
100
AcDbCircle
 10
-15.78687183277026
 20
91.03405712230784
 30
0.0
 40
2.000000025774982
100
AcDbArc
 50
270.0
 51
0.0
  0
ARC
  5
381
330
1F
100
AcDbEntity
  8
D-2
  6
Continuous
 62
     6
370
     5
100
AcDbCircle
 10
-15.78687183277026
 20
97.03407691749368
 30
0.0
 40
2.000000025774982
100
AcDbArc
 50
0.0
 51
90.0
  0
ARC
  5
382
330
1F
100
AcDbEntity
  8
D-2
  6
Continuous
 62
     6
370
     5
100
AcDbCircle
 10
-15.78687183277026
 20
110.0340703190984
 30
0.0
 40
2.000000025774982
100
AcDbArc
 50
270.0
 51
0.0
  0
ARC
  5
383
330
1F
100
AcDbEntity
  8
D-2
  6
Continuous
 62
     6
370
     5
100
AcDbCircle
 10
-15.78687183277026
 20
116.0340901142842
 30
0.0
 40
2.000000025774982
100
AcDbArc
 50
0.0
 51
90.0
  0
ARC
  5
384
330
1F
100
AcDbEntity
  8
D-2
  6
Continuous
 62
     6
370
     5
100
AcDbCircle
 10
-15.78687183277026
 20
129.0340835158889
 30
0.0
 40
2.000000025774982
100
AcDbArc
 50
270.0
 51
0.0
  0
ARC
  5
385
330
1F
100
AcDbEntity
  8
D-2
  6
Continuous
 62
     6
370
     5
100
AcDbCircle
 10
-15.78687183277026
 20
135.0341033110747
 30
0.0
 40
2.000000025774982
100
AcDbArc
 50
0.0
 51
90.0
  0
ARC
  5
386
330
1F
100
AcDbEntity
  8
D-2
  6
Continuous
 62
     6
370
     5
100
AcDbCircle
 10
32.76349371832771
 20
205.0340373271221
 30
0.0
 40
2.000000025774982
100
AcDbArc
 50
270.0
 51
0.0
  0
ARC
  5
387
330
1F
100
AcDbEntity
  8
D-2
  6
Continuous
 62
     6
370
     5
100
AcDbCircle
 10
32.76349371832771
 20
211.0340571223078
 30
0.0
 40
2.000000025774982
100
AcDbArc
 50
0.0
 51
90.0
  0
ARC
  5
388
330
1F
100
AcDbEntity
  8
D-2
  6
Continuous
 62
     6
370
     5
100
AcDbCircle
 10
32.76349371832771
 20
186.0341231062606
 30
0.0
 40
2.000000025774982
100
AcDbArc
 50
270.0
 51
0.0
  0
ARC
  5
389
330
1F
100
AcDbEntity
  8
D-2
  6
Continuous
 62
     6
370
     5
100
AcDbCircle
 10
32.76349371832771
 20
192.0340439255173
 30
0.0
 40
2.000000025774982
100
AcDbArc
 50
0.0
 51
90.0
  0
ARC
  5
38A
330
1F
100
AcDbEntity
  8
D-2
  6
Continuous
 62
     6
370
     5
100
AcDbCircle
 10
32.76349371832771
 20
173.0340307287267
 30
0.0
 40
2.000000025774982
100
AcDbArc
 50
0.0
 51
90.0
  0
ARC
  5
38B
330
1F
100
AcDbEntity
  8
D-2
  6
Continuous
 62
     6
370
     5
100
AcDbCircle
 10
32.76349371832771
 20
167.03410990947
 30
0.0
 40
2.000000025774982
100
AcDbArc
 50
270.0
 51
0.0
  0
ARC
  5
38C
330
1F
100
AcDbEntity
  8
D-2
  6
Continuous
 62
     6
370
     5
100
AcDbCircle
 10
32.76349371832771
 20
154.0341165078653
 30
0.0
 40
2.000000025774982
100
AcDbArc
 50
0.0
 51
90.0
  0
ARC
  5
38D
330
1F
100
AcDbEntity
  8
D-2
  6
Continuous
 62
     6
370
     5
100
AcDbCircle
 10
32.76349371832771
 20
148.0340967126795
 30
0.0
 40
2.000000025774982
100
AcDbArc
 50
270.0
 51
0.0
  0
ARC
  5
38E
330
1F
100
AcDbEntity
  8
D-2
  6
Continuous
 62
     6
370
     5
100
AcDbCircle
 10
32.76349371832771
 20
97.03407691749368
 30
0.0
 40
2.000000025774982
100
AcDbArc
 50
0.0
 51
90.0
  0
ARC
  5
38F
330
1F
100
AcDbEntity
  8
D-2
  6
Continuous
 62
     6
370
     5
100
AcDbCircle
 10
32.76349371832771
 20
91.03405712230784
 30
0.0
 40
2.000000025774982
100
AcDbArc
 50
270.0
 51
0.0
  0
ARC
  5
390
330
1F
100
AcDbEntity
  8
D-2
  6
Continuous
 62
     6
370
     5
100
AcDbCircle
 10
32.76349371832771
 20
116.0340901142842
 30
0.0
 40
2.000000025774982
100
AcDbArc
 50
0.0
 51
90.0
  0
ARC
  5
391
330
1F
100
AcDbEntity
  8
D-2
  6
Continuous
 62
     6
370
     5
100
AcDbCircle
 10
32.76349371832771
 20
110.0340703190984
 30
0.0
 40
2.000000025774982
100
AcDbArc
 50
270.0
 51
0.0
  0
ARC
  5
392
330
1F
100
AcDbEntity
  8
D-2
  6
Continuous
 62
     6
370
     5
100
AcDbCircle
 10
32.76349371832771
 20
129.0340835158889
 30
0.0
 40
2.000000025774982
100
AcDbArc
 50
270.0
 51
0.0
  0
ARC
  5
393
330
1F
100
AcDbEntity
  8
D-2
  6
Continuous
 62
     6
370
     5
100
AcDbCircle
 10
32.76349371832771
 20
135.0341033110747
 30
0.0
 40
2.000000025774982
100
AcDbArc
 50
0.0
 51
90.0
  0
ARC
  5
394
330
1F
100
AcDbEntity
  8
D-2
  6
Continuous
 62
     4
370
     9
100
AcDbCircle
 10
-52.26205031936229
 20
-69.10864967139992
 30
0.0
 40
10.00000128874908
100
AcDbArc
 50
323.130126953125
 51
357.2543792724609
  0
CIRCLE
  5
395
330
1F
100
AcDbEntity
  8
D-0
  6
Continuous
 62
     3
370
     9
100
AcDbCircle
 10
-110.276593182538
 20
231.0341231062606
 30
0.0
 40
3.000113126393911
  0
ARC
  5
396
330
1F
100
AcDbEntity
  8
D-0
  6
Continuous
 62
     3
370
     9
100
AcDbCircle
 10
24.13759303737334
 20
-205.1088014344912
 30
0.0
 40
1.99999983246262
100
AcDbArc
 50
180.0
 51
270.0
  0
ARC
  5
397
330
1F
100
AcDbEntity
  8
D-0
  6
Continuous
 62
     3
370
     9
100
AcDbCircle
 10
24.13759303737334
 20
-205.1088014344912
 30
0.0
 40
7.999999329850481
100
AcDbArc
 50
180.0
 51
270.0
  0
ARC
  5
398
330
1F
100
AcDbEntity
  8
D-0
  6
JWW_CENTER1
 62
     3
370
     9
100
AcDbCircle
 10
24.13784047719599
 20
-205.1088014344912
 30
0.0
 40
5.000000257749815
100
AcDbArc
 50
180.0
 51
270.0
  0
CIRCLE
  5
399
330
1F
100
AcDbEntity
  8
D-0
  6
Continuous
 62
     3
370
     9
100
AcDbCircle
 10
-110.276593182538
 20
71.0340901142842
 30
0.0
 40
3.000113126393911
  0
ARC
  5
39A
330
1F
100
AcDbEntity
  8
D-1
  6
JWW_HOJO
 62
     2
370
     9
100
AcDbCircle
 10
-30.86219251478036
 20
-145.1088014344911
 30
0.0
 40
30.0
100
AcDbArc
 50
180.0
 51
270.0
  0
ARC
  5
39B
330
1F
100
AcDbEntity
  8
D-0
  6
Continuous
 62
     3
370
     9
100
AcDbCircle
 10
-30.86219251478036
 20
-145.1088014344911
 30
0.0
 40
30.0
100
AcDbArc
 50
180.0
 51
270.0
  0
ARC
  5
39C
330
1F
100
AcDbEntity
  8
D-0
  6
Continuous
 62
     3
370
     9
100
AcDbCircle
 10
-30.86219251478036
 20
-152.1087750409101
 30
0.0
 40
30.0
100
AcDbArc
 50
180.0
 51
270.0
  0
ARC
  5
39D
330
1F
100
AcDbEntity
  8
D-0
  6
Continuous
 62
     3
370
     9
100
AcDbCircle
 10
-69.36217106999572
 20
-62.47043308567359
 30
0.0
 40
4.000000051549963
100
AcDbArc
 50
271.1664886474609
 51
0.0
  0
ARC
  5
39E
330
1F
100
AcDbEntity
  8
D-0
  6
Continuous
 62
     3
370
     9
100
AcDbCircle
 10
24.70358688766896
 20
-179.1088146312817
 30
0.0
 40
3.000000038662472
100
AcDbArc
 50
270.0
 51
310.0000305175782
  0
ARC
  5
39F
330
1F
100
AcDbEntity
  8
D-0
  6
Continuous
 62
     3
370
     9
100
AcDbCircle
 10
-72.05431634026604
 20
-184.5505112106736
 30
0.0
 40
4.000000051549963
100
AcDbArc
 50
197.112045288086
 51
271.1668395996094
  0
ARC
  5
3A0
330
1F
100
AcDbEntity
  8
D-0
  6
Continuous
 62
     3
370
     9
100
AcDbCircle
 10
-69.08726542704812
 20
-184.4901358939506
 30
0.0
 40
4.000000051549963
100
AcDbArc
 50
271.1668395996094
 51
345.1835632324219
  0
ARC
  5
3A1
330
1F
100
AcDbEntity
  8
D-0
  6
Continuous
 62
     3
370
     9
100
AcDbCircle
 10
-65.27901809279979
 20
-75.63997225374791
 30
0.0
 40
2.000000025774982
100
AcDbArc
 50
197.1124877929688
 51
271.1668395996094
  0
ARC
  5
3A2
330
1F
100
AcDbEntity
  8
D-0
  6
Continuous
 62
     3
370
     9
100
AcDbCircle
 10
-74.25326455605995
 20
-76.57291936101143
 30
0.0
 40
4.000000051549963
100
AcDbArc
 50
91.16648864746094
 51
165.2216796875
  0
ARC
  5
3A3
330
1F
100
AcDbEntity
  8
D-0
  6
Continuous
 62
     3
370
     9
100
AcDbCircle
 10
-71.28829213735219
 20
-76.51254404428843
 30
0.0
 40
4.000000051549963
100
AcDbArc
 50
17.11238098144531
 51
91.16683959960938
  0
ARC
  5
3A4
330
1F
100
AcDbEntity
  8
D-0
  6
Continuous
 62
     3
370
     9
100
AcDbCircle
 10
-63.1432165197424
 20
-184.3690883327175
 30
0.0
 40
10.00000051549963
100
AcDbArc
 50
271.1665496826171
 51
294.6426391601563
  0
ARC
  5
3A5
330
1F
100
AcDbEntity
  8
D-0
  6
Continuous
 62
     3
370
     9
100
AcDbCircle
 10
-42.50272678684541
 20
-202.4054718842378
 30
0.0
 40
15.0
100
AcDbArc
 50
90.667236328125
 51
114.6427001953125
  0
ARC
  5
3A6
330
1F
100
AcDbEntity
  8
D-0
  6
Continuous
 62
     3
370
     9
100
AcDbCircle
 10
26.34896273226354
 20
-183.6025197621939
 30
0.0
 40
3.000000038662472
100
AcDbArc
 50
270.6671447753906
 51
309.9998779296875
  0
ARC
  5
3A7
330
1F
100
AcDbEntity
  8
D-0
  6
Continuous
 62
     3
370
     9
100
AcDbCircle
 10
24.6884435705237
 20
-179.1214835502006
 30
0.0
 40
3.000000038662472
100
AcDbArc
 50
270.6671447753906
 51
310.0000305175782
  0
ARC
  5
3A8
330
1F
100
AcDbEntity
  8
D-4
  6
Continuous
 62
     7
370
     9
100
AcDbCircle
 10
-60.86023774018156
 20
-130.3114051612648
 30
0.0
 40
54.74761344291069
100
AcDbArc
 50
170.9492492675781
 51
195.9376678466797
  0
TEXT
  5
3A9
330
1F
100
AcDbEntity
  8
D-4
  6
Continuous
 62
     2
370
     9
100
AcDbText
 10
-116.6827230540329
 20
-156.5642919177903
 30
0.0
 40
6.096
  1
1ﾟ10′
 50
90.58334973773346
 41
1.083333333333333
  7
ＭＳ ゴシック
100
AcDbText
  0
LINE
  5
3AA
330
1F
100
AcDbEntity
  8
D-4
  6
Continuous
 62
     7
370
     9
100
AcDbLine
 10
94.72346455342063
 20
239.5340274295291
 30
0.0
 11
94.72346455342063
 21
62.53413630305107
 31
0.0
  0
LINE
  5
3AB
330
1F
100
AcDbEntity
  8
D-4
  6
Continuous
 62
     7
370
     9
100
AcDbLine
 10
47.72365590688349
 20
239.5340274295291
 30
0.0
 11
95.32345663534636
 21
239.5340274295291
 31
0.0
  0
LINE
  5
3AC
330
1F
100
AcDbEntity
  8
D-4
  6
Continuous
 62
     7
370
     9
100
AcDbLine
 10
47.72365590688349
 20
62.53413630305107
 30
0.0
 11
95.32345663534636
 21
62.53413630305107
 31
0.0
  0
LINE
  5
3AD
330
1F
100
AcDbEntity
  8
D-4
  6
Continuous
 62
     7
370
     9
100
AcDbLine
 10
94.72346455342063
 20
239.5340274295291
 30
0.0
 11
95.37611182960302
 21
234.5767685348923
 31
0.0
  0
LINE
  5
3AE
330
1F
100
AcDbEntity
  8
D-4
  6
Continuous
 62
     7
370
     9
100
AcDbLine
 10
94.72346455342063
 20
239.5340274295291
 30
0.0
 11
94.07081727723823
 21
234.5767685348923
 31
0.0
  0
LINE
  5
3AF
330
1F
100
AcDbEntity
  8
D-4
  6
Continuous
 62
     7
370
     9
100
AcDbLine
 10
94.72346455342063
 20
62.53413630305107
 30
0.0
 11
95.37611182960302
 21
67.49134570972336
 31
0.0
  0
LINE
  5
3B0
330
1F
100
AcDbEntity
  8
D-4
  6
Continuous
 62
     7
370
     9
100
AcDbLine
 10
94.72346455342063
 20
62.53413630305107
 30
0.0
 11
94.07081727723823
 21
67.49134570972336
 31
0.0
  0
TEXT
  5
3B1
330
1F
100
AcDbEntity
  8
D-4
  6
Continuous
 62
     2
370
     9
100
AcDbText
 10
91.59545795502542
 20
144.5340571223079
 30
0.0
 40
6.096
  1
177
 50
90.0
 41
1.083333333333333
  7
ＭＳ ゴシック
100
AcDbText
  0
LINE
  5
3B2
330
1F
100
AcDbEntity
  8
D-4
  6
Continuous
 62
     7
370
     9
100
AcDbLine
 10
119.7234645534206
 20
256.0340076343434
 30
0.0
 11
119.7234645534206
 21
46.03405712230784
 31
0.0
  0
LINE
  5
3B3
330
1F
100
AcDbEntity
  8
D-4
  6
Continuous
 62
     7
370
     9
100
AcDbLine
 10
59.72344805743245
 20
256.0340076343434
 30
0.0
 11
120.3234566353464
 21
256.0340076343434
 31
0.0
  0
LINE
  5
3B4
330
1F
100
AcDbEntity
  8
D-4
  6
Continuous
 62
     7
370
     9
100
AcDbLine
 10
59.72344805743245
 20
46.03405712230784
 30
0.0
 11
120.3234566353464
 21
46.03405712230784
 31
0.0
  0
LINE
  5
3B5
330
1F
100
AcDbEntity
  8
D-4
  6
Continuous
 62
     7
370
     9
100
AcDbLine
 10
119.7234645534206
 20
256.0340076343434
 30
0.0
 11
120.3761118296031
 21
251.0767982276711
 31
0.0
  0
LINE
  5
3B6
330
1F
100
AcDbEntity
  8
D-4
  6
Continuous
 62
     7
370
     9
100
AcDbLine
 10
119.7234645534206
 20
256.0340076343434
 30
0.0
 11
119.0708172772382
 21
251.0767982276711
 31
0.0
  0
LINE
  5
3B7
330
1F
100
AcDbEntity
  8
D-4
  6
Continuous
 62
     7
370
     9
100
AcDbLine
 10
119.7234645534206
 20
46.03405712230784
 30
0.0
 11
120.3761118296031
 21
50.99126652898013
 31
0.0
  0
LINE
  5
3B8
330
1F
100
AcDbEntity
  8
D-4
  6
Continuous
 62
     7
370
     9
100
AcDbLine
 10
119.7234645534206
 20
46.03405712230784
 30
0.0
 11
119.0708172772382
 21
50.99126652898013
 31
0.0
  0
TEXT
  5
3B9
330
1F
100
AcDbEntity
  8
D-4
  6
Continuous
 62
     2
370
     9
100
AcDbText
 10
116.5954579550254
 20
144.5340076343433
 30
0.0
 40
6.096
  1
210
 50
90.0
 41
1.083333333333333
  7
ＭＳ ゴシック
100
AcDbText
  0
LINE
  5
3BA
330
1F
100
AcDbEntity
  8
D-4
  6
Continuous
 62
     7
370
     9
100
AcDbLine
 10
-100.8621760187922
 20
9.891231557485185
 30
0.0
 11
-60.86219251478036
 21
9.891231557485185
 31
0.0
  0
LINE
  5
3BB
330
1F
100
AcDbEntity
  8
D-4
  6
Continuous
 62
     7
370
     9
100
AcDbLine
 10
-100.8621760187922
 20
-64.11313658018372
 30
0.0
 11
-100.8621760187922
 21
10.49122363941086
 31
0.0
  0
LINE
  5
3BC
330
1F
100
AcDbEntity
  8
D-4
  6
Continuous
 62
     7
370
     9
100
AcDbLine
 10
-100.8621760187922
 20
9.891231557485185
 30
0.0
 11
-95.90494186813766
 21
10.54387883366763
 31
0.0
  0
LINE
  5
3BD
330
1F
100
AcDbEntity
  8
D-4
  6
Continuous
 62
     7
370
     9
100
AcDbLine
 10
-100.8621760187922
 20
9.891231557485185
 30
0.0
 11
-95.90494186813766
 21
9.238584281302735
 31
0.0
  0
LINE
  5
3BE
330
1F
100
AcDbEntity
  8
D-4
  6
Continuous
 62
     7
370
     9
100
AcDbLine
 10
-60.86219251478036
 20
9.891231557485185
 30
0.0
 11
-65.81942666543495
 21
10.54387883366763
 31
0.0
  0
LINE
  5
3BF
330
1F
100
AcDbEntity
  8
D-4
  6
Continuous
 62
     7
370
     9
100
AcDbLine
 10
-60.86219251478036
 20
9.891231557485185
 30
0.0
 11
-65.81942666543495
 21
9.238584281302735
 31
0.0
  0
LINE
  5
3C0
330
1F
100
AcDbEntity
  8
D-4
  6
Continuous
 62
     7
370
     9
100
AcDbLine
 10
-60.86219251478036
 20
9.891231557485185
 30
0.0
 11
79.13787346917235
 21
9.891231557485185
 31
0.0
  0
LINE
  5
3C1
330
1F
100
AcDbEntity
  8
D-4
  6
Continuous
 62
     7
370
     9
100
AcDbLine
 10
79.13787346917235
 20
-172.1087420489337
 30
0.0
 11
79.13787346917235
 21
10.49122363941086
 31
0.0
  0
LINE
  5
3C2
330
1F
100
AcDbEntity
  8
D-4
  6
Continuous
 62
     7
370
     9
100
AcDbLine
 10
-60.86219251478036
 20
9.891231557485185
 30
0.0
 11
-55.90495836412583
 21
10.54387883366763
 31
0.0
  0
LINE
  5
3C3
330
1F
100
AcDbEntity
  8
D-4
  6
Continuous
 62
     7
370
     9
100
AcDbLine
 10
-60.86219251478036
 20
9.891231557485185
 30
0.0
 11
-55.90495836412583
 21
9.238584281302735
 31
0.0
  0
LINE
  5
3C4
330
1F
100
AcDbEntity
  8
D-4
  6
Continuous
 62
     7
370
     9
100
AcDbLine
 10
79.13787346917235
 20
9.891231557485185
 30
0.0
 11
74.18066406250006
 21
10.54387883366763
 31
0.0
  0
LINE
  5
3C5
330
1F
100
AcDbEntity
  8
D-4
  6
Continuous
 62
     7
370
     9
100
AcDbLine
 10
79.13787346917235
 20
9.891231557485185
 30
0.0
 11
74.18066406250006
 21
9.238584281302735
 31
0.0
  0
TEXT
  5
3C6
330
1F
100
AcDbEntity
  8
D-4
  6
Continuous
 62
     2
370
     9
100
AcDbText
 10
-85.1121842667863
 20
13.01933713180951
 30
0.0
 40
6.096
  1
40
 41
1.0625
  7
ＭＳ ゴシック
100
AcDbText
  0
TEXT
  5
3C7
330
1F
100
AcDbEntity
  8
D-4
  6
Continuous
 62
     2
370
     9
100
AcDbText
 10
2.637840477195965
 20
13.01933713180951
 30
0.0
 40
6.096
  1
140
 41
1.083333333333333
  7
ＭＳ ゴシック
100
AcDbText
  0
LINE
  5
3C8
330
1F
100
AcDbEntity
  8
D-4
  6
Continuous
 62
     7
370
     9
100
AcDbLine
 10
124.1378899651605
 20
-35.10873545053846
 30
0.0
 11
124.1378899651605
 21
-175.1088014344912
 31
0.0
  0
LINE
  5
3C9
330
1F
100
AcDbEntity
  8
D-4
  6
Continuous
 62
     7
370
     9
100
AcDbLine
 10
-57.86218261718744
 20
-35.10873545053846
 30
0.0
 11
124.7378820470861
 21
-35.10873545053846
 31
0.0
  0
LINE
  5
3CA
330
1F
100
AcDbEntity
  8
D-4
  6
Continuous
 62
     7
370
     9
100
AcDbLine
 10
82.13783387880068
 20
-175.1088014344912
 30
0.0
 11
124.7378820470861
 21
-175.1088014344912
 31
0.0
  0
LINE
  5
3CB
330
1F
100
AcDbEntity
  8
D-4
  6
Continuous
 62
     7
370
     9
100
AcDbLine
 10
124.1378899651605
 20
-35.10873545053846
 30
0.0
 11
124.7905372413429
 21
-40.06604383313982
 31
0.0
  0
LINE
  5
3CC
330
1F
100
AcDbEntity
  8
D-4
  6
Continuous
 62
     7
370
     9
100
AcDbLine
 10
124.1378899651605
 20
-35.10873545053846
 30
0.0
 11
123.485242688978
 21
-40.06604383313982
 31
0.0
  0
LINE
  5
3CD
330
1F
100
AcDbEntity
  8
D-4
  6
Continuous
 62
     7
370
     9
100
AcDbLine
 10
124.1378899651605
 20
-175.1088014344912
 30
0.0
 11
124.7905372413429
 21
-170.1514930518898
 31
0.0
  0
LINE
  5
3CE
330
1F
100
AcDbEntity
  8
D-4
  6
Continuous
 62
     7
370
     9
100
AcDbLine
 10
124.1378899651605
 20
-175.1088014344912
 30
0.0
 11
123.485242688978
 21
-170.1514930518898
 31
0.0
  0
LINE
  5
3CF
330
1F
100
AcDbEntity
  8
D-4
  6
Continuous
 62
     7
370
     9
100
AcDbLine
 10
124.1378899651605
 20
-175.1088014344912
 30
0.0
 11
124.1378899651605
 21
-195.1087684425148
 31
0.0
  0
LINE
  5
3D0
330
1F
100
AcDbEntity
  8
D-4
  6
Continuous
 62
     7
370
     9
100
AcDbLine
 10
82.13783387880068
 20
-175.1088014344912
 30
0.0
 11
124.7378820470861
 21
-175.1088014344912
 31
0.0
  0
LINE
  5
3D1
330
1F
100
AcDbEntity
  8
D-4
  6
Continuous
 62
     7
370
     9
100
AcDbLine
 10
-86.2947998046875
 20
-195.1087684425148
 30
0.0
 11
124.7378820470861
 21
-195.1087684425148
 31
0.0
  0
LINE
  5
3D2
330
1F
100
AcDbEntity
  8
D-4
  6
Continuous
 62
     7
370
     9
100
AcDbLine
 10
124.1378899651605
 20
-175.1088014344912
 30
0.0
 11
124.7905372413429
 21
-180.0659118652344
 31
0.0
  0
LINE
  5
3D3
330
1F
100
AcDbEntity
  8
D-4
  6
Continuous
 62
     7
370
     9
100
AcDbLine
 10
124.1378899651605
 20
-175.1088014344912
 30
0.0
 11
123.485242688978
 21
-180.0659118652344
 31
0.0
  0
LINE
  5
3D4
330
1F
100
AcDbEntity
  8
D-4
  6
Continuous
 62
     7
370
     9
100
AcDbLine
 10
124.1378899651605
 20
-195.1087684425148
 30
0.0
 11
124.7905372413429
 21
-190.1515590358425
 31
0.0
  0
LINE
  5
3D5
330
1F
100
AcDbEntity
  8
D-4
  6
Continuous
 62
     7
370
     9
100
AcDbLine
 10
124.1378899651605
 20
-195.1087684425148
 30
0.0
 11
123.485242688978
 21
-190.1515590358425
 31
0.0
  0
TEXT
  5
3D6
330
1F
100
AcDbEntity
  8
D-4
  6
Continuous
 62
     2
370
     9
100
AcDbText
 10
121.0098833667652
 20
-111.6087622565192
 30
0.0
 40
6.096
  1
140
 50
90.0
 41
1.083333333333333
  7
ＭＳ ゴシック
100
AcDbText
  0
TEXT
  5
3D7
330
1F
100
AcDbEntity
  8
D-4
  6
Continuous
 62
     2
370
     9
100
AcDbText
 10
121.0098833667652
 20
-189.358784938503
 30
0.0
 40
6.096
  1
20
 50
90.0
 41
1.0625
  7
ＭＳ ゴシック
100
AcDbText
  0
LINE
  5
3D8
330
1F
100
AcDbEntity
  8
D-4
  6
Continuous
 62
     7
370
     9
100
AcDbLine
 10
130.5740361755001
 20
-51.68500104951425
 30
0.0
 11
29.43978304476354
 21
-130.8616865828231
 31
0.0
  0
TEXT
  5
3D9
330
1F
100
AcDbEntity
  8
D-E
  6
Continuous
 62
     7
370
     9
100
AcDbText
 10
147.2405994673075
 20
-58.95470556017725
 30
0.0
 40
4.572
  1
樹脂系塗装
 41
1.133333333333333
  7
ＭＳ ゴシック
100
AcDbText
  0
LINE
  5
3DA
330
1F
100
AcDbEntity
  8
D-E
  6
Continuous
 62
     7
370
     9
100
AcDbLine
 10
214.035226713018
 20
-114.1766593351321
 30
0.0
 11
135.2690936365821
 21
-114.1766593351321
 31
0.0
  0
LINE
  5
3DB
330
1F
100
AcDbEntity
  8
D-4
  6
Continuous
 62
     7
370
     9
100
AcDbLine
 10
135.2690936365821
 20
-114.1766593351321
 30
0.0
 11
69.13793945312506
 21
-167.1087750409101
 31
0.0
  0
TEXT
  5
3DC
330
1F
100
AcDbEntity
  8
D-E
  6
Continuous
 62
     7
370
     9
100
AcDbText
 10
136.5464043946058
 20
-109.6718656537554
 30
0.0
 40
4.572
  1
防水層押え：ＦＣ１５０
 41
1.151515151515152
  7
ＭＳ ゴシック
100
AcDbText
  0
TEXT
  5
3DD
330
1F
100
AcDbEntity
  8
D-E
  6
Continuous
 62
     7
370
     9
100
AcDbText
 10
157.8555062210416
 20
-121.8822785813314
 30
0.0
 40
4.572
  1
樹脂系塗装
 41
1.133333333333333
  7
ＭＳ ゴシック
100
AcDbText
  0
LINE
  5
3DE
330
1F
100
AcDbEntity
  8
D-E
  6
Continuous
 62
     7
370
     9
100
AcDbLine
 10
-24.32134349926093
 20
-137.5074500831398
 30
0.0
 11
121.4012253225008
 21
-21.28127453376432
 31
0.0
  0
LINE
  5
3DF
330
1F
100
AcDbEntity
  8
D-E
  6
Continuous
 62
     7
370
     9
100
AcDbLine
 10
-42.95858517208615
 20
-65.44178945180533
 30
0.0
 11
57.92024685067088
 21
22.76615002539533
 31
0.0
  0
LINE
  5
3E0
330
1F
100
AcDbEntity
  8
D-4
  6
Continuous
 62
     7
370
     9
100
AcDbLine
 10
29.43978304476354
 20
-130.8616865828231
 30
0.0
 11
32.94078428616947
 21
-127.2919540567542
 31
0.0
  0
LINE
  5
3E1
330
1F
100
AcDbEntity
  8
D-4
  6
Continuous
 62
     7
370
     9
100
AcDbLine
 10
29.43978304476354
 20
-130.8616865828231
 30
0.0
 11
33.74540532537618
 21
-128.3197155411524
 31
0.0
  0
LINE
  5
3E2
330
1F
100
AcDbEntity
  8
D-4
  6
Continuous
 62
     7
370
     9
100
AcDbLine
 10
-24.32134349926093
 20
-137.5074500831398
 30
0.0
 11
-20.85278449997478
 21
-133.906186628674
 31
0.0
  0
LINE
  5
3E3
330
1F
100
AcDbEntity
  8
D-4
  6
Continuous
 62
     7
370
     9
100
AcDbLine
 10
-24.32134349926093
 20
-137.5074500831398
 30
0.0
 11
-20.03889721339562
 21
-134.9266258332773
 31
0.0
  0
LINE
  5
3E4
330
1F
100
AcDbEntity
  8
D-4
  6
Continuous
 62
     7
370
     9
100
AcDbLine
 10
-42.95858517208615
 20
-65.44178945180533
 30
0.0
 11
-39.65636700325351
 21
-61.68741131882091
 31
0.0
  0
LINE
  5
3E5
330
1F
100
AcDbEntity
  8
D-4
  6
Continuous
 62
     7
370
     9
100
AcDbLine
 10
-42.95858517208615
 20
-65.44178945180533
 30
0.0
 11
-38.7971827954369
 21
-62.6700156046782
 31
0.0
  0
LINE
  5
3E6
330
1F
100
AcDbEntity
  8
D-4
  6
Continuous
 62
     7
370
     9
100
AcDbLine
 10
69.13793945312506
 20
-167.1087750409101
 30
0.0
 11
72.60028183272715
 21
-163.501534371588
 31
0.0
  0
LINE
  5
3E7
330
1F
100
AcDbEntity
  8
D-4
  6
Continuous
 62
     7
370
     9
100
AcDbLine
 10
69.13793945312506
 20
-167.1087750409101
 30
0.0
 11
73.41592796252678
 21
-164.5205682652782
 31
0.0
  0
LINE
  5
3E8
330
1F
100
AcDbEntity
  8
D-4
  6
Continuous
 62
     7
370
     9
100
AcDbLine
 10
42.60269552900628
 20
-223.0120101512305
 30
0.0
 11
32.13766891891896
 21
-212.1664735280941
 31
0.0
  0
LINE
  5
3E9
330
1F
100
AcDbEntity
  8
D-5
  6
Continuous
 62
     7
370
     9
100
AcDbLine
 10
32.13766891891896
 20
-212.1664735280941
 30
0.0
 11
36.04946350400628
 21
-215.2806127549241
 31
0.0
  0
LINE
  5
3EA
330
1F
100
AcDbEntity
  8
D-5
  6
Continuous
 62
     7
370
     9
100
AcDbLine
 10
32.13766891891896
 20
-212.1664735280941
 30
0.0
 11
35.11017379478807
 21
-216.1869479730986
 31
0.0
  0
TEXT
  5
3EB
330
1F
100
AcDbEntity
  8
D-E
  6
Continuous
 62
     7
370
     9
100
AcDbText
 10
134.4057671985153
 20
-47.83448774714938
 30
0.0
 40
4.572
  1
ストレーナー：ＦＣ１５０
 41
1.152777777777777
  7
ＭＳ ゴシック
100
AcDbText
  0
LINE
  5
3EC
330
1F
100
AcDbEntity
  8
D-E
  6
Continuous
 62
     7
370
     9
100
AcDbLine
 10
216.9701983966885
 20
-51.68500104951425
 30
0.0
 11
130.5740361755001
 21
-51.68500104951425
 31
0.0
  0
TEXT
  5
3ED
330
1F
100
AcDbEntity
  8
D-4
  6
Continuous
 62
     2
370
     9
100
AcDbText
 10
-134.4558532843141
 20
-144.8128277939253
 30
0.0
 40
6.096
  1
Rc4
 50
91.16670499999998
 41
1.083333333333334
  7
ＭＳ ゴシック
100
AcDbText
  0
LINE
  5
3EE
330
1F
100
AcDbEntity
  8
D-4
  6
Continuous
 62
     7
370
     9
100
AcDbLine
 10
-60.86219251478036
 20
-15.10876844251482
 30
0.0
 11
-45.86211828283359
 21
-15.10876844251482
 31
0.0
  0
LINE
  5
3EF
330
1F
100
AcDbEntity
  8
D-4
  6
Continuous
 62
     7
370
     9
100
AcDbLine
 10
-60.86219251478036
 20
-15.10876844251482
 30
0.0
 11
-55.90496820791131
 21
-14.45613748141456
 31
0.0
  0
LINE
  5
3F0
330
1F
100
AcDbEntity
  8
D-4
  6
Continuous
 62
     7
370
     9
100
AcDbLine
 10
-60.86219251478036
 20
-15.10876844251482
 30
0.0
 11
-55.90496820791131
 21
-15.76139940361507
 31
0.0
  0
LINE
  5
3F1
330
1F
100
AcDbEntity
  8
D-4
  6
Continuous
 62
     7
370
     9
100
AcDbLine
 10
-45.86211828283359
 20
-15.10876844251482
 30
0.0
 11
-50.81934258970264
 21
-14.45613748141456
 31
0.0
  0
LINE
  5
3F2
330
1F
100
AcDbEntity
  8
D-4
  6
Continuous
 62
     7
370
     9
100
AcDbLine
 10
-45.86211828283359
 20
-15.10876844251482
 30
0.0
 11
-50.81934258970264
 21
-15.76139940361507
 31
0.0
  0
LINE
  5
3F3
330
1F
100
AcDbEntity
  8
D-4
  6
Continuous
 62
     7
370
     9
100
AcDbLine
 10
-45.86211828283359
 20
-14.50876844251482
 30
0.0
 11
-45.86211828283359
 21
-41.60879483609585
 31
0.0
  0
TEXT
  5
3F4
330
1F
100
AcDbEntity
  8
D-4
  6
Continuous
 62
     2
370
   211
100
AcDbText
 10
-57.61215539880698
 20
-11.98076844251482
 30
0.0
 40
6.096
  1
15
 41
1.0625
  7
ＭＳ ゴシック
100
AcDbText
  0
LINE
  5
3F5
330
1F
100
AcDbEntity
  8
D-4
  6
Continuous
 62
     7
370
     9
100
AcDbLine
 10
-45.86211828283359
 20
-15.10876844251482
 30
0.0
 11
66.31256491580572
 21
-15.10876844251482
 31
0.0
  0
LINE
  5
3F6
330
1F
100
AcDbEntity
  8
D-4
  6
Continuous
 62
     7
370
     9
100
AcDbLine
 10
-45.86211828283359
 20
-15.10876844251482
 30
0.0
 11
-40.90489397596454
 21
-14.45613748141456
 31
0.0
  0
LINE
  5
3F7
330
1F
100
AcDbEntity
  8
D-4
  6
Continuous
 62
     7
370
     9
100
AcDbLine
 10
-45.86211828283359
 20
-15.10876844251482
 30
0.0
 11
-40.90489397596454
 21
-15.76139940361507
 31
0.0
  0
LINE
  5
3F8
330
1F
100
AcDbEntity
  8
D-4
  6
Continuous
 62
     7
370
     9
100
AcDbLine
 10
66.31256491580572
 20
-15.10876844251482
 30
0.0
 11
61.35534060893667
 21
-14.45613748141456
 31
0.0
  0
LINE
  5
3F9
330
1F
100
AcDbEntity
  8
D-4
  6
Continuous
 62
     7
370
     9
100
AcDbLine
 10
66.31256491580572
 20
-15.10876844251482
 30
0.0
 11
61.35534060893667
 21
-15.76139940361507
 31
0.0
  0
LINE
  5
3FA
330
1F
100
AcDbEntity
  8
D-4
  6
Continuous
 62
     7
370
     9
100
AcDbLine
 10
66.31256491580572
 20
-14.50876844251482
 30
0.0
 11
66.31256491580572
 21
-156.1088014344911
 31
0.0
  0
TEXT
  5
3FB
330
1F
100
AcDbEntity
  8
D-4
  6
Continuous
 62
     2
370
   211
100
AcDbText
 10
3.725223316486066
 20
-11.98076844251482
 30
0.0
 40
6.096
  1
112
 41
1.083333333333333
  7
ＭＳ ゴシック
100
AcDbText
  0
LINE
  5
3FC
330
1F
100
AcDbEntity
  8
D-4
  6
Continuous
 62
     7
370
     9
100
AcDbLine
 10
99.13788996516047
 20
-175.1088014344912
 30
0.0
 11
99.13788996516047
 21
-160.1088014344911
 31
0.0
  0
LINE
  5
3FD
330
1F
100
AcDbEntity
  8
D-4
  6
Continuous
 62
     7
370
     9
100
AcDbLine
 10
99.13788996516047
 20
-175.1088014344912
 30
0.0
 11
98.48525900406021
 21
-170.1515771276221
 31
0.0
  0
LINE
  5
3FE
330
1F
100
AcDbEntity
  8
D-4
  6
Continuous
 62
     7
370
     9
100
AcDbLine
 10
99.13788996516047
 20
-175.1088014344912
 30
0.0
 11
99.79052092626073
 21
-170.1515771276221
 31
0.0
  0
LINE
  5
3FF
330
1F
100
AcDbEntity
  8
D-4
  6
Continuous
 62
     7
370
     9
100
AcDbLine
 10
99.13788996516047
 20
-160.1088014344911
 30
0.0
 11
98.48525900406021
 21
-165.0660257413602
 31
0.0
  0
LINE
  5
400
330
1F
100
AcDbEntity
  8
D-4
  6
Continuous
 62
     7
370
     9
100
AcDbLine
 10
99.13788996516047
 20
-160.1088014344911
 30
0.0
 11
99.79052092626073
 21
-165.0660257413602
 31
0.0
  0
LINE
  5
401
330
1F
100
AcDbEntity
  8
D-4
  6
Continuous
 62
     7
370
     9
100
AcDbLine
 10
99.73788996516046
 20
-160.1088014344911
 30
0.0
 11
70.31256491580572
 21
-160.1088014344911
 31
0.0
  0
TEXT
  5
402
330
1F
100
AcDbEntity
  8
D-4
  6
Continuous
 62
     2
370
   211
100
AcDbText
 10
96.00988996516047
 20
-171.8588014344912
 30
0.0
 40
6.096
  1
15
 50
90.0
 41
1.0625
  7
ＭＳ ゴシック
100
AcDbText
  0
LINE
  5
403
330
1F
100
AcDbEntity
  8
D-4
  6
Continuous
 62
     7
370
     9
100
AcDbLine
 10
99.13788996516047
 20
-160.1088014344911
 30
0.0
 11
99.13788996516048
 21
-47.92552440746411
 31
0.0
  0
LINE
  5
404
330
1F
100
AcDbEntity
  8
D-4
  6
Continuous
 62
     7
370
     9
100
AcDbLine
 10
99.13788996516047
 20
-160.1088014344911
 30
0.0
 11
98.48525900406021
 21
-155.1515771276221
 31
0.0
  0
LINE
  5
405
330
1F
100
AcDbEntity
  8
D-4
  6
Continuous
 62
     7
370
     9
100
AcDbLine
 10
99.13788996516047
 20
-160.1088014344911
 30
0.0
 11
99.79052092626073
 21
-155.1515771276221
 31
0.0
  0
LINE
  5
406
330
1F
100
AcDbEntity
  8
D-4
  6
Continuous
 62
     7
370
     9
100
AcDbLine
 10
99.13788996516048
 20
-47.92552440746411
 30
0.0
 11
98.48525900406023
 21
-52.88274871433316
 31
0.0
  0
LINE
  5
407
330
1F
100
AcDbEntity
  8
D-4
  6
Continuous
 62
     7
370
     9
100
AcDbLine
 10
99.13788996516048
 20
-47.92552440746411
 30
0.0
 11
99.79052092626074
 21
-52.88274871433316
 31
0.0
  0
LINE
  5
408
330
1F
100
AcDbEntity
  8
D-4
  6
Continuous
 62
     7
370
     9
100
AcDbLine
 10
99.73788996516048
 20
-47.92552440746411
 30
0.0
 11
-41.86219415793546
 21
-47.9255244074641
 31
0.0
  0
TEXT
  5
409
330
1F
100
AcDbEntity
  8
D-4
  6
Continuous
 62
     2
370
   211
100
AcDbText
 10
96.00988996516047
 20
-110.5171629209776
 30
0.0
 40
6.096
  1
112
 50
90.0
 41
1.083333333333333
  7
ＭＳ ゴシック
100
AcDbText
  0
LINE
  5
40A
330
1F
100
AcDbEntity
  8
D-E
  6
Continuous
 62
     7
370
     9
100
AcDbLine
 10
79.13787346917235
 20
-185.1087354505385
 30
0.0
 11
113.2986136027959
 21
-208.6369973829564
 31
0.0
  0
LINE
  5
40B
330
1F
100
AcDbEntity
  8
D-E
  6
Continuous
 62
     7
370
     9
100
AcDbLine
 10
113.2986136027959
 20
-208.6369973829564
 30
0.0
 11
170.9776280664783
 21
-208.6369973829564
 31
0.0
  0
TEXT
  5
40C
330
1F
100
AcDbEntity
  8
D-E
  6
Continuous
 62
     7
370
     9
100
AcDbText
 10
115.6979055949833
 20
-205.7565471612504
 30
0.0
 40
4.572
  1
本体：ＦＣ１５０
 41
1.145833333333333
  7
ＭＳ ゴシック
100
AcDbText
  0
TEXT
  5
40D
330
1F
100
AcDbEntity
  8
D-E
  6
Continuous
 62
     7
370
     9
100
AcDbText
 10
124.1715219114952
 20
-215.844124362475
 30
0.0
 40
4.572
  1
樹脂系塗装
 41
1.133333333333333
  7
ＭＳ ゴシック
100
AcDbText
  0
LINE
  5
40E
330
1F
100
AcDbEntity
  8
D-5
  6
Continuous
 62
     7
370
     9
100
AcDbLine
 10
79.13787346917235
 20
-185.1087354505385
 30
0.0
 11
83.59063822944606
 21
-187.3831333905799
 31
0.0
  0
LINE
  5
40F
330
1F
100
AcDbEntity
  8
D-5
  6
Continuous
 62
     7
370
     9
100
AcDbLine
 10
79.13787346917235
 20
-185.1087354505385
 30
0.0
 11
82.85025644648593
 21
-188.4580954834033
 31
0.0
  0
TEXT
  5
410
330
1F
100
AcDbEntity
  8
F-5ﾚｲﾔ
  6
Continuous
 62
     2
370
     9
100
AcDbText
 10
-167.9519722598066
 20
-264.8517322177222
 30
0.0
 40
6.096
  1
鋳鉄製ルーフドレン　よこ引き用　後付型　ねじ込み式
 41
0.899
  7
ＭＳ ゴシック
100
AcDbText
  0
TEXT
  5
411
330
1F
100
AcDbEntity
  8
F-0ﾚｲﾔ
  6
Continuous
 62
     2
370
     9
100
AcDbText
 10
-78.8459995857663
 20
-274.266708859614
 30
0.0
 40
6.096
  1
アスファルト・シート防水用　　ＥＺＣ－１００
 41
0.8988636363636364
  7
ＭＳ ゴシック
100
AcDbText
  0
TEXT
  5
412
330
1F
100
AcDbEntity
  8
D-E
  6
Continuous
 62
     7
370
     9
100
AcDbText
 10
60.01050959877054
 20
26.5965712141622
 30
0.0
 40
4.572
  1
丸小ねじ：Ｃ２７００Ｗ
 41
1.151515151515151
  7
ＭＳ ゴシック
100
AcDbText
  0
TEXT
  5
413
330
1F
100
AcDbEntity
  8
D-E
  6
Continuous
 62
     7
370
     9
100
AcDbText
 10
123.3073070634215
 20
-18.0850416104113
 30
0.0
 40
4.572
  1
ボルト：Ｃ３６０４Ｂ
 41
1.15
  7
ＭＳ ゴシック
100
AcDbText
  0
TEXT
  5
414
330
1F
100
AcDbEntity
  8
D-E
  6
Continuous
 62
     7
370
     9
100
AcDbText
 10
45.20409636832214
 20
-219.6740931854366
 30
0.0
 40
4.572
  1
アンカー：ＳＷＲＭ８
 41
1.15
  7
ＭＳ ゴシック
100
AcDbText
  0
LINE
  5
415
330
1F
100
AcDbEntity
  8
D-E
  6
Continuous
 62
     7
370
     9
100
AcDbLine
 10
42.60269552900628
 20
-223.0120101512305
 30
0.0
 11
114.823045297003
 21
-223.0120101512305
 31
0.0
  0
LINE
  5
416
330
1F
100
AcDbEntity
  8
D-E
  6
Continuous
 62
     7
370
     9
100
AcDbLine
 10
136.7093967964007
 20
22.76615002539533
 30
0.0
 11
57.92024685067088
 21
22.76615002539533
 31
0.0
  0
LINE
  5
417
330
1F
100
AcDbEntity
  8
D-E
  6
Continuous
 62
     7
370
     9
100
AcDbLine
 10
191.8036571521482
 20
-21.28127453376432
 30
0.0
 11
121.4012253225008
 21
-21.28127453376432
 31
0.0
  0
TEXT
  5
418
330
1F
100
AcDbEntity
  8
D-E
  6
Continuous
 62
     7
370
     9
100
AcDbText
 10
80.3148218235358
 20
15.39630661851189
 30
0.0
 40
4.572
  1
Ｍ６×１２
 41
1.133333333333333
  7
ＭＳ ゴシック
100
AcDbText
  0
TEXT
  5
419
330
1F
100
AcDbEntity
  8
D-E
  6
Continuous
 62
     7
370
     9
100
AcDbText
 10
139.6024412373245
 20
-28.04424703165287
 30
0.0
 40
4.572
  1
Ｍ８×５０
 41
1.133333333333333
  7
ＭＳ ゴシック
100
AcDbText
  0
TEXT
  5
41A
330
1F
100
AcDbEntity
  8
D-E
  6
Continuous
 62
     7
370
     9
100
AcDbText
 10
58.21287041300465
 20
-230.568621136239
 30
0.0
 40
4.572
  1
りん酸塩被膜
 41
1.138888888888889
  7
ＭＳ ゴシック
100
AcDbText
  0
TEXT
  5
41B
330
1F
100
AcDbEntity
  8
F-0ﾚｲﾔ
  6
Continuous
 62
     9
370
     5
100
AcDbText
 10
0.0
 20
-1999.154
 30
0.0
 40
4.572
  1
Printer_Orientation = 2
 41
0.0
  7
ＭＳ ゴシック
100
AcDbText
  0
TEXT
  5
41C
330
1F
100
AcDbEntity
  8
F-0ﾚｲﾔ
  6
Continuous
 62
     9
370
     5
100
AcDbText
 10
0.0
 20
-1999.154
 30
0.0
 40
4.572
  1
Printer_PaperSize = 8
 41
0.0
  7
ＭＳ ゴシック
100
AcDbText
  0
TEXT
  5
41D
330
1F
100
AcDbEntity
  8
F-0ﾚｲﾔ
  6
Continuous
 62
     9
370
     5
100
AcDbText
 10
0.0
 20
-1999.154
 30
0.0
 40
4.572
  1
Printer_D2dBMP = 0
 41
0.0
  7
ＭＳ ゴシック
100
AcDbText
  0
TEXT
  5
41E
330
1F
100
AcDbEntity
  8
F-0ﾚｲﾔ
  6
Continuous
 62
     9
370
     5
100
AcDbText
 10
0.0
 20
-1999.154
 30
0.0
 40
4.572
  1
Printer_BmpZENTAI = 0
 41
0.0
  7
ＭＳ ゴシック
100
AcDbText
  0
TEXT
  5
41F
330
1F
100
AcDbEntity
  8
F-0ﾚｲﾔ
  6
Continuous
 62
     9
370
     5
100
AcDbText
 10
0.0
 20
-1999.154
 30
0.0
 40
4.572
  1
View_Direct2d = 0
 41
0.0
  7
ＭＳ ゴシック
100
AcDbText
  0
TEXT
  5
420
330
1F
100
AcDbEntity
  8
F-0ﾚｲﾔ
  6
Continuous
 62
     9
370
     5
100
AcDbText
 10
0.0
 20
-1999.154
 30
0.0
 40
4.572
  1
Draw_BmpTOUKA = 1
 41
0.0
  7
ＭＳ ゴシック
100
AcDbText
  0
ENDSEC
  0
SECTION
  2
OBJECTS
  0
DICTIONARY
  5
C
330
0
100
AcDbDictionary
281
     1
  3
ACAD_DETAILVIEWSTYLE
350
466
  3
ACAD_GROUP
350
D
  3
ACAD_LAYOUT
350
1A
  3
ACAD_MATERIAL
350
43
  3
ACAD_MLEADERSTYLE
350
6B
  3
ACAD_MLINESTYLE
350
17
  3
ACAD_PLOTSETTINGS
350
19
  3
ACAD_PLOTSTYLENAME
350
E
  3
ACAD_SCALELIST
350
47
  3
ACAD_SECTIONVIEWSTYLE
350
467
  3
ACAD_TABLESTYLE
350
69
  3
ACAD_VISUALSTYLE
350
2A
  3
ACDB_RECOMPOSE_DATA
350
463
  3
AcDbVariableDictionary
350
423
  0
DICTIONARY
  5
421
330
8
100
AcDbDictionary
280
     1
281
     1
  3
ACAD_XREC_ROUNDTRIP
360
422
  0
DICTIONARY
  5
466
102
{ACAD_REACTORS
330
C
102
}
330
C
100
AcDbDictionary
281
     1
  0
DICTIONARY
  5
D
102
{ACAD_REACTORS
330
C
102
}
330
C
100
AcDbDictionary
281
     1
  0
DICTIONARY
  5
1A
102
{ACAD_REACTORS
330
C
102
}
330
C
100
AcDbDictionary
281
     1
  3
Layout1
350
1E
  3
Layout2
350
26
  3
Model
350
22
  0
DICTIONARY
  5
43
102
{ACAD_REACTORS
330
C
102
}
330
C
100
AcDbDictionary
281
     1
  3
ByBlock
350
45
  3
ByLayer
350
44
  3
Global
350
46
  0
DICTIONARY
  5
6B
102
{ACAD_REACTORS
330
C
102
}
330
C
100
AcDbDictionary
281
     1
  3
Standard
350
6C
  0
DICTIONARY
  5
17
102
{ACAD_REACTORS
330
C
102
}
330
C
100
AcDbDictionary
281
     1
  3
Standard
350
18
  0
DICTIONARY
  5
19
102
{ACAD_REACTORS
330
C
102
}
330
C
100
AcDbDictionary
281
     1
  0
ACDBDICTIONARYWDFLT
  5
E
102
{ACAD_REACTORS
330
C
102
}
330
C
100
AcDbDictionary
281
     1
  3
Normal
350
F
100
AcDbDictionaryWithDefault
340
F
  0
DICTIONARY
  5
47
102
{ACAD_REACTORS
330
C
102
}
330
C
100
AcDbDictionary
281
     1
  3
A0
350
48
  3
A1
350
49
  3
A2
350
4A
  3
A3
350
4B
  3
A4
350
4C
  3
A5
350
4D
  3
A6
350
4E
  3
A7
350
4F
  3
A8
350
50
  3
A9
350
51
  3
B0
350
52
  3
B1
350
53
  3
B2
350
54
  3
B3
350
55
  3
B4
350
56
  3
B5
350
57
  3
B6
350
58
  3
B7
350
59
  3
B8
350
5A
  3
B9
350
5B
  3
C0
350
5C
  3
C1
350
5D
  3
C2
350
5E
  3
C3
350
5F
  3
C4
350
60
  3
C5
350
61
  3
C6
350
62
  3
C7
350
63
  3
C8
350
64
  3
C9
350
65
  3
D0
350
66
  3
D1
350
67
  3
D2
350
68
  0
DICTIONARY
  5
467
102
{ACAD_REACTORS
330
C
102
}
330
C
100
AcDbDictionary
281
     1
  0
DICTIONARY
  5
69
102
{ACAD_REACTORS
330
C
102
}
330
C
100
AcDbDictionary
281
     1
  3
Standard
350
6A
  0
DICTIONARY
  5
2A
102
{ACAD_REACTORS
330
C
102
}
330
C
100
AcDbDictionary
281
     1
  3
2dWireframe
350
2F
  3
Basic
350
32
  3
Brighten
350
36
  3
ColorChange
350
3A
  3
Conceptual
350
34
  3
Dim
350
35
  3
EdgeColorOff
350
3D
  3
Facepattern
350
39
  3
Flat
350
2B
  3
FlatWithEdges
350
2C
  3
Gouraud
350
2D
  3
GouraudWithEdges
350
2E
  3
Hidden
350
31
  3
JitterOff
350
3B
  3
Linepattern
350
38
  3
OverhangOff
350
3C
  3
Realistic
350
33
  3
Shaded
350
42
  3
Shaded with edges
350
41
  3
Shades of Gray
350
3E
  3
Sketchy
350
3F
  3
Thicken
350
37
  3
Wireframe
350
30
  3
X-Ray
350
40
  0
XRECORD
  5
463
102
{ACAD_REACTORS
330
C
102
}
330
C
100
AcDbXrecord
280
     1
 90
        1
330
6A
  0
DICTIONARY
  5
423
102
{ACAD_REACTORS
330
C
102
}
330
C
100
AcDbDictionary
281
     1
  3
CANNOSCALE
350
424
  3
CENTEREXE
350
468
  3
CENTERLTYPEFILE
350
469
  3
CMLEADERSTYLE
350
465
  3
CTABLESTYLE
350
464
  3
MSLTSCALE
350
425
  3
XCLIPFRAME
350
426
  0
XRECORD
  5
422
102
{ACAD_REACTORS
330
421
102
}
330
421
100
AcDbXrecord
280
     1
102
VTR_0.000_0.000_1.000_1.000_VISUALSTYLE
340
2F
102
VTR_0.000_0.000_1.000_1.000_GRIDDISPLAY
 70
     3
102
VTR_0.000_0.000_1.000_1.000_GRIDMAJOR
 70
     5
102
VTR_0.000_0.000_1.000_1.000_DEFAULTLIGHTING
280
     1
102
VTR_0.000_0.000_1.000_1.000_DEFAULTLIGHTINGTYPE
 70
     1
102
VTR_0.000_0.000_1.000_1.000_BRIGHTNESS
141
0.0
102
VTR_0.000_0.000_1.000_1.000_CONTRAST
142
0.0
  0
LAYOUT
  5
1E
102
{ACAD_REACTORS
330
1A
102
}
330
1A
100
AcDbPlotSettings
  1

  2
none_device
  4

  6

 40
0.0
 41
0.0
 42
0.0
 43
0.0
 44
0.0
 45
0.0
 46
0.0
 47
0.0
 48
0.0
 49
0.0
140
0.0
141
0.0
142
1.0
143
1.0
 70
   688
 72
     1
 73
     0
 74
     5
  7

 75
    16
 76
     0
 77
     5
 78
   300
147
1.0
148
0.0
149
0.0
100
AcDbLayout
  1
Layout1
 70
     1
 71
     1
 10
0.0
 20
0.0
 11
420.0
 21
297.0
 12
0.0
 22
0.0
 32
0.0
 14
1.000000000000000E+20
 24
1.000000000000000E+20
 34
1.000000000000000E+20
 15
-1.000000000000000E+20
 25
-1.000000000000000E+20
 35
-1.000000000000000E+20
146
0.0
 13
0.0
 23
0.0
 33
0.0
 16
1.0
 26
0.0
 36
0.0
 17
0.0
 27
1.0
 37
0.0
 76
     0
330
1B
  0
LAYOUT
  5
26
102
{ACAD_REACTORS
330
1A
102
}
330
1A
100
AcDbPlotSettings
  1

  2
none_device
  4

  6

 40
0.0
 41
0.0
 42
0.0
 43
0.0
 44
0.0
 45
0.0
 46
0.0
 47
0.0
 48
0.0
 49
0.0
140
0.0
141
0.0
142
1.0
143
1.0
 70
   688
 72
     1
 73
     0
 74
     5
  7

 75
    16
 76
     0
 77
     5
 78
   300
147
1.0
148
0.0
149
0.0
100
AcDbLayout
  1
Layout2
 70
     1
 71
     2
 10
0.0
 20
0.0
 11
0.0
 21
0.0
 12
0.0
 22
0.0
 32
0.0
 14
0.0
 24
0.0
 34
0.0
 15
0.0
 25
0.0
 35
0.0
146
0.0
 13
0.0
 23
0.0
 33
0.0
 16
1.0
 26
0.0
 36
0.0
 17
0.0
 27
1.0
 37
0.0
 76
     0
330
23
  0
LAYOUT
  5
22
102
{ACAD_REACTORS
330
1A
102
}
330
1A
100
AcDbPlotSettings
  1

  2
none_device
  4
Letter_(8.50_x_11.00_Inches)
  6

 40
6.35
 41
6.35
 42
6.35000508
 43
6.35000508
 44
215.9
 45
279.4
 46
0.0
 47
0.0
 48
0.0
 49
0.0
140
0.0
141
0.0
142
1.0
143
1.0
 70
  1712
 72
     1
 73
     0
 74
     0
  7

 75
     0
 76
     0
 77
     5
 78
   300
147
1.0
148
0.0
149
0.0
100
AcDbLayout
  1
Model
 70
     1
 71
     0
 10
-420.0
 20
-297.0
 11
420.0
 21
297.0
 12
0.0
 22
0.0
 32
0.0
 14
-420.0
 24
-297.0
 34
0.0
 15
420.0
 25
297.0
 35
0.0
146
0.0
 13
0.0
 23
0.0
 33
0.0
 16
1.0
 26
0.0
 36
0.0
 17
0.0
 27
1.0
 37
0.0
 76
     0
330
1F
331
29
  0
MATERIAL
  5
45
102
{ACAD_REACTORS
330
43
102
}
102
{ACAD_XDICTIONARY
360
459
102
}
330
43
100
AcDbMaterial
  1
ByBlock
  0
MATERIAL
  5
44
102
{ACAD_REACTORS
330
43
102
}
102
{ACAD_XDICTIONARY
360
457
102
}
330
43
100
AcDbMaterial
  1
ByLayer
  0
MATERIAL
  5
46
102
{ACAD_REACTORS
330
43
102
}
102
{ACAD_XDICTIONARY
360
45B
102
}
330
43
100
AcDbMaterial
  1
Global
  0
MLEADERSTYLE
  5
6C
102
{ACAD_REACTORS
330
6B
102
}
102
{ACAD_XDICTIONARY
360
461
102
}
330
6B
100
AcDbMLeaderStyle
170
     2
171
     1
172
     0
 90
        2
 40
0.0
 41
0.0
173
     1
 91
-1056964608
340
14
 92
       -2
290
     1
 42
2.0
291
     1
 43
8.0
  3
Standard
341
0
 44
4.0
300

342
11
174
     1
178
     6
175
     1
176
     0
 93
-1056964608
 45
4.0
292
     0
297
     0
 46
4.0
343
0
 94
-1056964608
 47
1.0
 49
1.0
140
1.0
293
     1
141
0.0
294
     1
177
     0
142
1.0
295
     0
296
     0
143
3.75
1001
ACAD_MLEADERVER
1070
     2
  0
MLINESTYLE
  5
18
102
{ACAD_REACTORS
330
17
102
}
330
17
100
AcDbMlineStyle
  2
Standard
 70
     0
  3

 62
   256
 51
90.0
 52
90.0
 71
     2
 49
0.5
 62
   256
  6
BYLAYER
 49
-0.5
 62
   256
  6
BYLAYER
  0
ACDBPLACEHOLDER
  5
F
102
{ACAD_REACTORS
330
E
102
}
330
E
  0
SCALE
  5
48
102
{ACAD_REACTORS
330
47
102
}
330
47
100
AcDbScale
 70
     0
300
1:1
140
1.0
141
1.0
290
     1
  0
SCALE
  5
49
102
{ACAD_REACTORS
330
47
102
}
330
47
100
AcDbScale
 70
     0
300
1:2
140
1.0
141
2.0
290
     0
  0
SCALE
  5
4A
102
{ACAD_REACTORS
330
47
102
}
330
47
100
AcDbScale
 70
     0
300
1:4
140
1.0
141
4.0
290
     0
  0
SCALE
  5
4B
102
{ACAD_REACTORS
330
47
102
}
330
47
100
AcDbScale
 70
     0
300
1:5
140
1.0
141
5.0
290
     0
  0
SCALE
  5
4C
102
{ACAD_REACTORS
330
47
102
}
330
47
100
AcDbScale
 70
     0
300
1:8
140
1.0
141
8.0
290
     0
  0
SCALE
  5
4D
102
{ACAD_REACTORS
330
47
102
}
330
47
100
AcDbScale
 70
     0
300
1:10
140
1.0
141
10.0
290
     0
  0
SCALE
  5
4E
102
{ACAD_REACTORS
330
47
102
}
330
47
100
AcDbScale
 70
     0
300
1:16
140
1.0
141
16.0
290
     0
  0
SCALE
  5
4F
102
{ACAD_REACTORS
330
47
102
}
330
47
100
AcDbScale
 70
     0
300
1:20
140
1.0
141
20.0
290
     0
  0
SCALE
  5
50
102
{ACAD_REACTORS
330
47
102
}
330
47
100
AcDbScale
 70
     0
300
1:30
140
1.0
141
30.0
290
     0
  0
SCALE
  5
51
102
{ACAD_REACTORS
330
47
102
}
330
47
100
AcDbScale
 70
     0
300
1:40
140
1.0
141
40.0
290
     0
  0
SCALE
  5
52
102
{ACAD_REACTORS
330
47
102
}
330
47
100
AcDbScale
 70
     0
300
1:50
140
1.0
141
50.0
290
     0
  0
SCALE
  5
53
102
{ACAD_REACTORS
330
47
102
}
330
47
100
AcDbScale
 70
     0
300
1:100
140
1.0
141
100.0
290
     0
  0
SCALE
  5
54
102
{ACAD_REACTORS
330
47
102
}
330
47
100
AcDbScale
 70
     0
300
2:1
140
2.0
141
1.0
290
     0
  0
SCALE
  5
55
102
{ACAD_REACTORS
330
47
102
}
330
47
100
AcDbScale
 70
     0
300
4:1
140
4.0
141
1.0
290
     0
  0
SCALE
  5
56
102
{ACAD_REACTORS
330
47
102
}
330
47
100
AcDbScale
 70
     0
300
8:1
140
8.0
141
1.0
290
     0
  0
SCALE
  5
57
102
{ACAD_REACTORS
330
47
102
}
330
47
100
AcDbScale
 70
     0
300
10:1
140
10.0
141
1.0
290
     0
  0
SCALE
  5
58
102
{ACAD_REACTORS
330
47
102
}
330
47
100
AcDbScale
 70
     0
300
100:1
140
100.0
141
1.0
290
     0
  0
SCALE
  5
59
102
{ACAD_REACTORS
330
47
102
}
330
47
100
AcDbScale
 70
     0
300
1/128" = 1'-0"
140
0.0078125
141
12.0
290
     0
  0
SCALE
  5
5A
102
{ACAD_REACTORS
330
47
102
}
330
47
100
AcDbScale
 70
     0
300
1/64" = 1'-0"
140
0.015625
141
12.0
290
     0
  0
SCALE
  5
5B
102
{ACAD_REACTORS
330
47
102
}
330
47
100
AcDbScale
 70
     0
300
1/32" = 1'-0"
140
0.03125
141
12.0
290
     0
  0
SCALE
  5
5C
102
{ACAD_REACTORS
330
47
102
}
330
47
100
AcDbScale
 70
     0
300
1/16" = 1'-0"
140
0.0625
141
12.0
290
     0
  0
SCALE
  5
5D
102
{ACAD_REACTORS
330
47
102
}
330
47
100
AcDbScale
 70
     0
300
3/32" = 1'-0"
140
0.09375
141
12.0
290
     0
  0
SCALE
  5
5E
102
{ACAD_REACTORS
330
47
102
}
330
47
100
AcDbScale
 70
     0
300
1/8" = 1'-0"
140
0.125
141
12.0
290
     0
  0
SCALE
  5
5F
102
{ACAD_REACTORS
330
47
102
}
330
47
100
AcDbScale
 70
     0
300
3/16" = 1'-0"
140
0.1875
141
12.0
290
     0
  0
SCALE
  5
60
102
{ACAD_REACTORS
330
47
102
}
330
47
100
AcDbScale
 70
     0
300
1/4" = 1'-0"
140
0.25
141
12.0
290
     0
  0
SCALE
  5
61
102
{ACAD_REACTORS
330
47
102
}
330
47
100
AcDbScale
 70
     0
300
3/8" = 1'-0"
140
0.375
141
12.0
290
     0
  0
SCALE
  5
62
102
{ACAD_REACTORS
330
47
102
}
330
47
100
AcDbScale
 70
     0
300
1/2" = 1'-0"
140
0.5
141
12.0
290
     0
  0
SCALE
  5
63
102
{ACAD_REACTORS
330
47
102
}
330
47
100
AcDbScale
 70
     0
300
3/4" = 1'-0"
140
0.75
141
12.0
290
     0
  0
SCALE
  5
64
102
{ACAD_REACTORS
330
47
102
}
330
47
100
AcDbScale
 70
     0
300
1" = 1'-0"
140
1.0
141
12.0
290
     0
  0
SCALE
  5
65
102
{ACAD_REACTORS
330
47
102
}
330
47
100
AcDbScale
 70
     0
300
1-1/2" = 1'-0"
140
1.5
141
12.0
290
     0
  0
SCALE
  5
66
102
{ACAD_REACTORS
330
47
102
}
330
47
100
AcDbScale
 70
     0
300
3" = 1'-0"
140
3.0
141
12.0
290
     0
  0
SCALE
  5
67
102
{ACAD_REACTORS
330
47
102
}
330
47
100
AcDbScale
 70
     0
300
6" = 1'-0"
140
6.0
141
12.0
290
     0
  0
SCALE
  5
68
102
{ACAD_REACTORS
330
47
102
}
330
47
100
AcDbScale
 70
     0
300
1'-0" = 1'-0"
140
12.0
141
12.0
290
     0
  0
TABLESTYLE
  5
6A
102
{ACAD_REACTORS
330
69
102
}
102
{ACAD_XDICTIONARY
360
45D
102
}
330
69
100
AcDbTableStyle
  3
Standard
 70
     0
 71
     0
 40
0.06
 41
0.06
280
     0
281
     0
  7
Standard
140
4.5
170
     2
 62
     0
 63
   257
283
     0
274
    -2
284
     1
 64
     0
275
    -2
285
     1
 65
     0
276
    -2
286
     1
 66
     0
277
    -2
287
     1
 67
     0
278
    -2
288
     1
 68
     0
279
    -2
289
     1
 69
     0
  7
Standard
140
6.0
170
     5
 62
     0
 63
   257
283
     0
274
    -2
284
     1
 64
     0
275
    -2
285
     1
 65
     0
276
    -2
286
     1
 66
     0
277
    -2
287
     1
 67
     0
278
    -2
288
     1
 68
     0
279
    -2
289
     1
 69
     0
  7
Standard
140
4.5
170
     5
 62
     0
 63
   257
283
     0
274
    -2
284
     1
 64
     0
275
    -2
285
     1
 65
     0
276
    -2
286
     1
 66
     0
277
    -2
287
     1
 67
     0
278
    -2
288
     1
 68
     0
279
    -2
289
     1
 69
     0
  0
VISUALSTYLE
  5
2F
102
{ACAD_REACTORS
330
2A
102
}
102
{ACAD_XDICTIONARY
360
42F
102
}
330
2A
100
AcDbVisualStyle
  2
2dWireframe
 70
     4
 71
     0
 72
     2
 73
     0
 90
        0
 40
0.6
 41
30.0
 62
     5
 63
     7
421
 16777215
 74
     1
 91
        4
 64
     7
 65
   257
 75
     1
175
     1
 42
1.0
 92
        0
 66
   257
 43
1.0
 76
     1
 77
     6
 78
     2
 67
     7
 79
     5
170
     0
171
     0
290
     0
174
     0
 93
        1
 44
0.0
173
     0
291
     0
 45
0.0
1001
ACAD
1000
AcDbSavedByObjectVersion
1070
     0
  0
VISUALSTYLE
  5
32
102
{ACAD_REACTORS
330
2A
102
}
102
{ACAD_XDICTIONARY
360
435
102
}
330
2A
100
AcDbVisualStyle
  2
Basic
 70
     7
 71
     1
 72
     0
 73
     1
 90
        0
 40
0.6
 41
30.0
 62
     5
 63
     7
421
 16777215
 74
     0
 91
        4
 64
     7
 65
   257
 75
     1
175
     1
 42
1.0
 92
        8
 66
     7
 43
1.0
 76
     1
 77
     6
 78
     2
 67
     7
 79
     5
170
     0
171
     0
290
     0
174
     0
 93
        1
 44
0.0
173
     0
291
     1
 45
0.0
1001
ACAD
1000
AcDbSavedByObjectVersion
1070
     0
  0
VISUALSTYLE
  5
36
102
{ACAD_REACTORS
330
2A
102
}
102
{ACAD_XDICTIONARY
360
43D
102
}
330
2A
100
AcDbVisualStyle
  2
Brighten
 70
    12
 71
     2
 72
     2
 73
     0
 90
        0
 40
0.6
 41
30.0
 62
     5
 63
     7
421
 16777215
 74
     1
 91
        4
 64
     7
 65
   257
 75
     1
175
     1
 42
1.0
 92
        8
 66
     7
 43
1.0
 76
     1
 77
     6
 78
     2
 67
     7
 79
     5
170
     0
171
     0
290
     0
174
     0
 93
        1
 44
50.0
173
     0
291
     1
 45
0.0
1001
ACAD
1000
AcDbSavedByObjectVersion
1070
     0
  0
VISUALSTYLE
  5
3A
102
{ACAD_REACTORS
330
2A
102
}
102
{ACAD_XDICTIONARY
360
445
102
}
330
2A
100
AcDbVisualStyle
  2
ColorChange
 70
    16
 71
     2
 72
     2
 73
     3
 90
        0
 40
0.6
 41
30.0
 62
     5
 63
     8
421
  8421504
 74
     1
 91
        4
 64
     7
 65
   257
 75
     1
175
     1
 42
1.0
 92
        8
 66
     8
424
  8421504
 43
1.0
 76
     1
 77
     6
 78
     2
 67
     7
 79
     5
170
     0
171
     0
290
     0
174
     0
 93
        1
 44
0.0
173
     0
291
     1
 45
0.0
1001
ACAD
1000
AcDbSavedByObjectVersion
1070
     0
  0
VISUALSTYLE
  5
34
102
{ACAD_REACTORS
330
2A
102
}
102
{ACAD_XDICTIONARY
360
439
102
}
330
2A
100
AcDbVisualStyle
  2
Conceptual
 70
     9
 71
     3
 72
     2
 73
     0
 90
        0
 40
0.6
 41
30.0
 62
     5
 63
     7
421
 16777215
 74
     2
 91
        2
 64
     7
 65
   257
 75
     1
175
     1
 42
179.0
 92
        8
 66
     7
 43
1.0
 76
     1
 77
     6
 78
     2
 67
     7
 79
     3
170
     0
171
     0
290
     0
174
     0
 93
        1
 44
0.0
173
     0
291
     0
 45
0.0
1001
ACAD
1000
AcDbSavedByObjectVersion
1070
     0
  0
VISUALSTYLE
  5
35
102
{ACAD_REACTORS
330
2A
102
}
102
{ACAD_XDICTIONARY
360
43B
102
}
330
2A
100
AcDbVisualStyle
  2
Dim
 70
    11
 71
     2
 72
     2
 73
     0
 90
        0
 40
0.6
 41
30.0
 62
     5
 63
     7
421
 16777215
 74
     1
 91
        4
 64
     7
 65
   257
 75
     1
175
     1
 42
1.0
 92
        8
 66
     7
 43
1.0
 76
     1
 77
     6
 78
     2
 67
     7
 79
     5
170
     0
171
     0
290
     0
174
     0
 93
        1
 44
-50.0
173
     0
291
     1
 45
0.0
1001
ACAD
1000
AcDbSavedByObjectVersion
1070
     0
  0
VISUALSTYLE
  5
3D
102
{ACAD_REACTORS
330
2A
102
}
102
{ACAD_XDICTIONARY
360
44B
102
}
330
2A
100
AcDbVisualStyle
  2
EdgeColorOff
 70
    22
 71
     2
 72
     2
 73
     0
 90
        0
 40
0.6
 41
30.0
 62
     5
 63
     7
421
 16777215
 74
     1
 91
        4
 64
     7
 65
   257
 75
     1
175
     1
 42
1.0
 92
        8
 66
     7
 43
1.0
 76
     1
 77
     6
 78
     2
 67
     7
 79
     5
170
     0
171
     0
290
     0
174
     0
 93
        1
 44
0.0
173
     0
291
     1
 45
0.0
1001
ACAD
1000
AcDbSavedByObjectVersion
1070
     0
  0
VISUALSTYLE
  5
39
102
{ACAD_REACTORS
330
2A
102
}
102
{ACAD_XDICTIONARY
360
443
102
}
330
2A
100
AcDbVisualStyle
  2
Facepattern
 70
    15
 71
     2
 72
     2
 73
     0
 90
        0
 40
0.6
 41
30.0
 62
     5
 63
     7
421
 16777215
 74
     1
 91
        4
 64
     7
 65
   257
 75
     1
175
     1
 42
1.0
 92
        8
 66
     7
 43
1.0
 76
     1
 77
     6
 78
     2
 67
     7
 79
     5
170
     0
171
     0
290
     0
174
     0
 93
        1
 44
0.0
173
     0
291
     1
 45
0.0
1001
ACAD
1000
AcDbSavedByObjectVersion
1070
     0
  0
VISUALSTYLE
  5
2B
102
{ACAD_REACTORS
330
2A
102
}
102
{ACAD_XDICTIONARY
360
427
102
}
330
2A
100
AcDbVisualStyle
  2
Flat
 70
     0
 71
     2
 72
     1
 73
     1
 90
        2
 40
0.6
 41
30.0
 62
     5
 63
     7
421
 16777215
 74
     0
 91
        0
 64
     7
 65
   257
 75
     1
175
     1
 42
1.0
 92
        8
 66
     7
 43
1.0
 76
     1
 77
     6
 78
     2
 67
     7
 79
     5
170
     0
171
     0
290
     0
174
     0
 93
       13
 44
0.0
173
     0
291
     1
 45
0.0
1001
ACAD
1000
AcDbSavedByObjectVersion
1070
     0
  0
VISUALSTYLE
  5
2C
102
{ACAD_REACTORS
330
2A
102
}
102
{ACAD_XDICTIONARY
360
429
102
}
330
2A
100
AcDbVisualStyle
  2
FlatWithEdges
 70
     1
 71
     2
 72
     1
 73
     1
 90
        2
 40
0.6
 41
30.0
 62
     5
 63
     7
421
 16777215
 74
     1
 91
        0
 64
     7
 65
   257
 75
     1
175
     1
 42
1.0
 92
        0
 66
   257
 43
1.0
 76
     1
 77
     6
 78
     2
 67
     7
 79
     5
170
     0
171
     0
290
     0
174
     0
 93
       13
 44
0.0
173
     0
291
     1
 45
0.0
1001
ACAD
1000
AcDbSavedByObjectVersion
1070
     0
  0
VISUALSTYLE
  5
2D
102
{ACAD_REACTORS
330
2A
102
}
102
{ACAD_XDICTIONARY
360
42B
102
}
330
2A
100
AcDbVisualStyle
  2
Gouraud
 70
     2
 71
     2
 72
     2
 73
     1
 90
        2
 40
0.6
 41
30.0
 62
     5
 63
     7
421
 16777215
 74
     0
 91
        0
 64
     7
 65
   257
 75
     1
175
     1
 42
1.0
 92
        0
 66
     7
 43
1.0
 76
     1
 77
     6
 78
     2
 67
     7
 79
     5
170
     0
171
     0
290
     0
174
     0
 93
       13
 44
0.0
173
     0
291
     1
 45
0.0
1001
ACAD
1000
AcDbSavedByObjectVersion
1070
     0
  0
VISUALSTYLE
  5
2E
102
{ACAD_REACTORS
330
2A
102
}
102
{ACAD_XDICTIONARY
360
42D
102
}
330
2A
100
AcDbVisualStyle
  2
GouraudWithEdges
 70
     3
 71
     2
 72
     2
 73
     1
 90
        2
 40
0.6
 41
30.0
 62
     5
 63
     7
421
 16777215
 74
     1
 91
        0
 64
     7
 65
   257
 75
     1
175
     1
 42
1.0
 92
        0
 66
   257
 43
1.0
 76
     1
 77
     6
 78
     2
 67
     7
 79
     5
170
     0
171
     0
290
     0
174
     0
 93
       13
 44
0.0
173
     0
291
     1
 45
0.0
1001
ACAD
1000
AcDbSavedByObjectVersion
1070
     0
  0
VISUALSTYLE
  5
31
102
{ACAD_REACTORS
330
2A
102
}
102
{ACAD_XDICTIONARY
360
433
102
}
330
2A
100
AcDbVisualStyle
  2
Hidden
 70
     6
 71
     1
 72
     2
 73
     2
 90
        0
 40
0.6
 41
30.0
 62
     5
 63
     7
421
 16777215
 74
     2
 91
        2
 64
     7
 65
   257
 75
     2
175
     1
 42
40.0
 92
        0
 66
   257
 43
1.0
 76
     1
 77
     6
 78
     2
 67
     7
 79
     3
170
     0
171
     0
290
     0
174
     0
 93
        1
 44
0.0
173
     0
291
     0
 45
0.0
1001
ACAD
1000
AcDbSavedByObjectVersion
1070
     0
  0
VISUALSTYLE
  5
3B
102
{ACAD_REACTORS
330
2A
102
}
102
{ACAD_XDICTIONARY
360
447
102
}
330
2A
100
AcDbVisualStyle
  2
JitterOff
 70
    20
 71
     2
 72
     2
 73
     0
 90
        0
 40
0.6
 41
30.0
 62
     5
 63
     7
421
 16777215
 74
     1
 91
        4
 64
     7
 65
   257
 75
     1
175
     1
 42
1.0
 92
       10
 66
     7
 43
1.0
 76
     1
 77
     6
 78
     2
 67
     7
 79
     5
170
     0
171
     0
290
     0
174
     0
 93
        1
 44
0.0
173
     0
291
     1
 45
0.0
1001
ACAD
1000
AcDbSavedByObjectVersion
1070
     0
  0
VISUALSTYLE
  5
38
102
{ACAD_REACTORS
330
2A
102
}
102
{ACAD_XDICTIONARY
360
441
102
}
330
2A
100
AcDbVisualStyle
  2
Linepattern
 70
    14
 71
     2
 72
     2
 73
     0
 90
        0
 40
0.6
 41
30.0
 62
     5
 63
     7
421
 16777215
 74
     1
 91
        4
 64
     7
 65
   257
 75
     7
175
     7
 42
1.0
 92
        8
 66
     7
 43
1.0
 76
     1
 77
     6
 78
     2
 67
     7
 79
     5
170
     0
171
     0
290
     0
174
     0
 93
        1
 44
0.0
173
     0
291
     1
 45
0.0
1001
ACAD
1000
AcDbSavedByObjectVersion
1070
     0
  0
VISUALSTYLE
  5
3C
102
{ACAD_REACTORS
330
2A
102
}
102
{ACAD_XDICTIONARY
360
449
102
}
330
2A
100
AcDbVisualStyle
  2
OverhangOff
 70
    21
 71
     2
 72
     2
 73
     0
 90
        0
 40
0.6
 41
30.0
 62
     5
 63
     7
421
 16777215
 74
     1
 91
        4
 64
     7
 65
   257
 75
     1
175
     1
 42
1.0
 92
        9
 66
     7
 43
1.0
 76
     1
 77
     6
 78
     2
 67
     7
 79
     5
170
     0
171
     0
290
     0
174
     0
 93
        1
 44
0.0
173
     0
291
     1
 45
0.0
1001
ACAD
1000
AcDbSavedByObjectVersion
1070
     0
  0
VISUALSTYLE
  5
33
102
{ACAD_REACTORS
330
2A
102
}
102
{ACAD_XDICTIONARY
360
437
102
}
330
2A
100
AcDbVisualStyle
  2
Realistic
 70
     8
 71
     2
 72
     3
 73
     0
 90
        2
 40
0.6
 41
30.0
 62
     5
 63
     7
421
 16777215
 74
     0
 91
        0
 64
     7
 65
   257
 75
     1
175
     1
 42
1.0
 92
        8
 66
   257
 43
1.0
 76
     1
 77
     6
 78
     2
 67
     7
 79
     3
170
     0
171
     0
290
     0
174
     0
 93
       13
 44
0.0
173
     0
291
     0
 45
0.0
1001
ACAD
1000
AcDbSavedByObjectVersion
1070
     0
  0
VISUALSTYLE
  5
42
102
{ACAD_REACTORS
330
2A
102
}
102
{ACAD_XDICTIONARY
360
455
102
}
330
2A
100
AcDbVisualStyle
  2
Shaded
 70
    27
 71
     2
 72
     2
 73
     1
 90
        2
 40
0.6
 41
30.0
 62
     5
 63
     7
421
 16777215
 74
     0
 91
        4
 64
     7
 65
   257
 75
     1
175
     1
 42
1.0
 92
        8
 66
   257
 43
1.0
 76
     1
 77
     6
 78
     2
 67
     8
425
  7895160
 79
     3
170
     0
171
     0
290
     0
174
     0
 93
        5
 44
0.0
173
     0
291
     0
 45
0.0
1001
ACAD
1000
AcDbSavedByObjectVersion
1070
     0
  0
VISUALSTYLE
  5
41
102
{ACAD_REACTORS
330
2A
102
}
102
{ACAD_XDICTIONARY
360
453
102
}
330
2A
100
AcDbVisualStyle
  2
Shaded with edges
 70
    26
 71
     2
 72
     2
 73
     1
 90
        2
 40
0.6
 41
30.0
 62
     5
 63
     7
421
 16777215
 74
     1
 91
       10
 64
     7
 65
   257
 75
     2
175
     1
 42
1.0
 92
        8
 66
   257
 43
1.0
 76
     1
 77
     6
 78
     2
 67
     7
 79
     3
170
     0
171
     0
290
     0
174
     0
 93
        5
 44
0.0
173
     0
291
     0
 45
0.0
1001
ACAD
1000
AcDbSavedByObjectVersion
1070
     0
  0
VISUALSTYLE
  5
3E
102
{ACAD_REACTORS
330
2A
102
}
102
{ACAD_XDICTIONARY
360
44D
102
}
330
2A
100
AcDbVisualStyle
  2
Shades of Gray
 70
    23
 71
     2
 72
     2
 73
     3
 90
        0
 40
0.6
 41
30.0
 62
     5
 63
     7
421
 16777215
 74
     2
 91
        2
 64
     7
 65
     7
 75
     1
175
     1
 42
40.0
 92
        8
 66
     7
 43
1.0
 76
     1
 77
     6
 78
     2
 67
     7
 79
     3
170
     0
171
     0
290
     0
174
     0
 93
        1
 44
0.0
173
     0
291
     0
 45
0.0
1001
ACAD
1000
AcDbSavedByObjectVersion
1070
     0
  0
VISUALSTYLE
  5
3F
102
{ACAD_REACTORS
330
2A
102
}
102
{ACAD_XDICTIONARY
360
44F
102
}
330
2A
100
AcDbVisualStyle
  2
Sketchy
 70
    24
 71
     1
 72
     2
 73
     2
 90
        0
 40
0.6
 41
30.0
 62
     5
 63
     7
421
 16777215
 74
     2
 91
        2
 64
     7
 65
     7
 75
     1
175
     1
 42
40.0
 92
       11
 66
     7
 43
1.0
 76
     1
 77
     6
 78
     2
 67
     7
 79
     6
170
     0
171
     0
290
     0
174
     0
 93
        1
 44
0.0
173
     0
291
     0
 45
0.0
1001
ACAD
1000
AcDbSavedByObjectVersion
1070
     0
  0
VISUALSTYLE
  5
37
102
{ACAD_REACTORS
330
2A
102
}
102
{ACAD_XDICTIONARY
360
43F
102
}
330
2A
100
AcDbVisualStyle
  2
Thicken
 70
    13
 71
     2
 72
     2
 73
     0
 90
        0
 40
0.6
 41
30.0
 62
     5
 63
     7
421
 16777215
 74
     1
 91
        4
 64
     7
 65
   257
 75
     1
175
     1
 42
1.0
 92
       12
 66
     7
 43
1.0
 76
     1
 77
     6
 78
     2
 67
     7
 79
     5
170
     0
171
     0
290
     0
174
     0
 93
        1
 44
0.0
173
     0
291
     1
 45
0.0
1001
ACAD
1000
AcDbSavedByObjectVersion
1070
     0
  0
VISUALSTYLE
  5
30
102
{ACAD_REACTORS
330
2A
102
}
102
{ACAD_XDICTIONARY
360
431
102
}
330
2A
100
AcDbVisualStyle
  2
Wireframe
 70
     5
 71
     0
 72
     2
 73
     0
 90
        0
 40
0.6
 41
30.0
 62
     5
 63
     7
421
 16777215
 74
     1
 91
        4
 64
     7
 65
   257
 75
     1
175
     1
 42
1.0
 92
        0
 66
   257
 43
1.0
 76
     1
 77
     6
 78
     2
 67
     7
 79
     3
170
     0
171
     0
290
     0
174
     0
 93
        1
 44
0.0
173
     0
291
     0
 45
0.0
1001
ACAD
1000
AcDbSavedByObjectVersion
1070
     0
  0
VISUALSTYLE
  5
40
102
{ACAD_REACTORS
330
2A
102
}
102
{ACAD_XDICTIONARY
360
451
102
}
330
2A
100
AcDbVisualStyle
  2
X-Ray
 70
    25
 71
     2
 72
     2
 73
     1
 90
        1
 40
0.5
 41
30.0
 62
     5
 63
     7
421
 16777215
 74
     1
 91
        0
 64
     7
 65
   257
 75
     1
175
     1
 42
1.0
 92
        8
 66
     7
 43
1.0
 76
     1
 77
     6
 78
     2
 67
     7
 79
     3
170
     0
171
     0
290
     0
174
     0
 93
       13
 44
0.0
173
     0
291
     0
 45
0.0
1001
ACAD
1000
AcDbSavedByObjectVersion
1070
     0
  0
DICTIONARYVAR
  5
424
102
{ACAD_REACTORS
330
423
102
}
330
423
100
DictionaryVariables
280
     0
  1
1:1
  0
DICTIONARYVAR
  5
468
102
{ACAD_REACTORS
330
423
102
}
330
423
100
DictionaryVariables
280
     0
  1
3.500000
  0
DICTIONARYVAR
  5
469
102
{ACAD_REACTORS
330
423
102
}
330
423
100
DictionaryVariables
280
     0
  1
acadiso.lin
  0
DICTIONARYVAR
  5
465
102
{ACAD_REACTORS
330
423
102
}
330
423
100
DictionaryVariables
280
     0
  1
Standard
  0
DICTIONARYVAR
  5
464
102
{ACAD_REACTORS
330
423
102
}
330
423
100
DictionaryVariables
280
     0
  1
Standard
  0
DICTIONARYVAR
  5
425
102
{ACAD_REACTORS
330
423
102
}
330
423
100
DictionaryVariables
280
     0
  1
1
  0
DICTIONARYVAR
  5
426
102
{ACAD_REACTORS
330
423
102
}
330
423
100
DictionaryVariables
280
     0
  1
2
  0
DICTIONARY
  5
459
330
45
100
AcDbDictionary
280
     1
281
     1
  3
ACAD_XREC_ROUNDTRIP
360
45A
  0
DICTIONARY
  5
457
330
44
100
AcDbDictionary
280
     1
281
     1
  3
ACAD_XREC_ROUNDTRIP
360
458
  0
DICTIONARY
  5
45B
330
46
100
AcDbDictionary
280
     1
281
     1
  3
ACAD_XREC_ROUNDTRIP
360
45C
  0
DICTIONARY
  5
461
330
6C
100
AcDbDictionary
280
     1
281
     1
  3
ACAD_XREC_ROUNDTRIP
360
462
  0
DICTIONARY
  5
45D
330
6A
100
AcDbDictionary
280
     1
281
     1
  3
ACAD_ROUNDTRIP_2008_TABLESTYLE_CELLSTYLEMAP
360
45F
  3
ACAD_XREC_ROUNDTRIP
360
45E
  0
DICTIONARY
  5
42F
330
2F
100
AcDbDictionary
280
     1
281
     1
  3
ACAD_XREC_ROUNDTRIP
360
430
  0
DICTIONARY
  5
435
330
32
100
AcDbDictionary
280
     1
281
     1
  3
ACAD_XREC_ROUNDTRIP
360
436
  0
DICTIONARY
  5
43D
330
36
100
AcDbDictionary
280
     1
281
     1
  3
ACAD_XREC_ROUNDTRIP
360
43E
  0
DICTIONARY
  5
445
330
3A
100
AcDbDictionary
280
     1
281
     1
  3
ACAD_XREC_ROUNDTRIP
360
446
  0
DICTIONARY
  5
439
330
34
100
AcDbDictionary
280
     1
281
     1
  3
ACAD_XREC_ROUNDTRIP
360
43A
  0
DICTIONARY
  5
43B
330
35
100
AcDbDictionary
280
     1
281
     1
  3
ACAD_XREC_ROUNDTRIP
360
43C
  0
DICTIONARY
  5
44B
330
3D
100
AcDbDictionary
280
     1
281
     1
  3
ACAD_XREC_ROUNDTRIP
360
44C
  0
DICTIONARY
  5
443
330
39
100
AcDbDictionary
280
     1
281
     1
  3
ACAD_XREC_ROUNDTRIP
360
444
  0
DICTIONARY
  5
427
330
2B
100
AcDbDictionary
280
     1
281
     1
  3
ACAD_XREC_ROUNDTRIP
360
428
  0
DICTIONARY
  5
429
330
2C
100
AcDbDictionary
280
     1
281
     1
  3
ACAD_XREC_ROUNDTRIP
360
42A
  0
DICTIONARY
  5
42B
330
2D
100
AcDbDictionary
280
     1
281
     1
  3
ACAD_XREC_ROUNDTRIP
360
42C
  0
DICTIONARY
  5
42D
330
2E
100
AcDbDictionary
280
     1
281
     1
  3
ACAD_XREC_ROUNDTRIP
360
42E
  0
DICTIONARY
  5
433
330
31
100
AcDbDictionary
280
     1
281
     1
  3
ACAD_XREC_ROUNDTRIP
360
434
  0
DICTIONARY
  5
447
330
3B
100
AcDbDictionary
280
     1
281
     1
  3
ACAD_XREC_ROUNDTRIP
360
448
  0
DICTIONARY
  5
441
330
38
100
AcDbDictionary
280
     1
281
     1
  3
ACAD_XREC_ROUNDTRIP
360
442
  0
DICTIONARY
  5
449
330
3C
100
AcDbDictionary
280
     1
281
     1
  3
ACAD_XREC_ROUNDTRIP
360
44A
  0
DICTIONARY
  5
437
330
33
100
AcDbDictionary
280
     1
281
     1
  3
ACAD_XREC_ROUNDTRIP
360
438
  0
DICTIONARY
  5
455
330
42
100
AcDbDictionary
280
     1
281
     1
  3
ACAD_XREC_ROUNDTRIP
360
456
  0
DICTIONARY
  5
453
330
41
100
AcDbDictionary
280
     1
281
     1
  3
ACAD_XREC_ROUNDTRIP
360
454
  0
DICTIONARY
  5
44D
330
3E
100
AcDbDictionary
280
     1
281
     1
  3
ACAD_XREC_ROUNDTRIP
360
44E
  0
DICTIONARY
  5
44F
330
3F
100
AcDbDictionary
280
     1
281
     1
  3
ACAD_XREC_ROUNDTRIP
360
450
  0
DICTIONARY
  5
43F
330
37
100
AcDbDictionary
280
     1
281
     1
  3
ACAD_XREC_ROUNDTRIP
360
440
  0
DICTIONARY
  5
431
330
30
100
AcDbDictionary
280
     1
281
     1
  3
ACAD_XREC_ROUNDTRIP
360
432
  0
DICTIONARY
  5
451
330
40
100
AcDbDictionary
280
     1
281
     1
  3
ACAD_XREC_ROUNDTRIP
360
452
  0
XRECORD
  5
45A
102
{ACAD_REACTORS
330
459
102
}
330
459
100
AcDbXrecord
280
     1
102
MATERIAL
148
0.0
149
0.0
149
0.0
 93
        0
 94
      127
282
     0
 72
     1
 77
     1
171
     1
175
     1
179
     1
273
     0
  0
XRECORD
  5
458
102
{ACAD_REACTORS
330
457
102
}
330
457
100
AcDbXrecord
280
     1
102
MATERIAL
148
0.0
149
0.0
149
0.0
 93
        0
 94
      127
282
     0
 72
     1
 77
     1
171
     1
175
     1
179
     1
273
     0
  0
XRECORD
  5
45C
102
{ACAD_REACTORS
330
45B
102
}
330
45B
100
AcDbXrecord
280
     1
102
MATERIAL
148
0.0
149
0.0
149
0.0
 93
        0
 94
      127
282
     0
 72
     1
 77
     1
171
     1
175
     1
179
     1
273
     0
  0
XRECORD
  5
462
102
{ACAD_REACTORS
330
461
102
}
330
461
100
AcDbXrecord
280
     1
102
ACAD_ROUNDTRIP_2010_MLEADER_STYLE
  0
CELLSTYLEMAP
  5
45F
102
{ACAD_REACTORS
330
45D
102
}
330
45D
100
AcDbCellStyleMap
 90
        3
300
CELLSTYLE
  1
TABLEFORMAT_BEGIN
 90
        5
170
     1
 91
        0
 92
    32768
 62
   257
 93
        1
300
CONTENTFORMAT
  1
CONTENTFORMAT_BEGIN
 90
        0
 91
        0
 92
        4
 93
        0
300

 40
0.0
140
1.0
 94
        5
 62
     0
340
11
144
6.0
309
CONTENTFORMAT_END
171
     1
301
MARGIN
  1
CELLMARGIN_BEGIN
 40
1.5
 40
1.5
 40
1.5
 40
1.5
 40
1.5
 40
1.5
309
CELLMARGIN_END
 94
        6
 95
        1
302
GRIDFORMAT
  1
GRIDFORMAT_BEGIN
 90
        0
 91
        1
 62
     0
 92
       -2
340
14
 93
        0
 40
0.045
309
GRIDFORMAT_END
 95
        2
302
GRIDFORMAT
  1
GRIDFORMAT_BEGIN
 90
        0
 91
        1
 62
     0
 92
       -2
340
14
 93
        0
 40
0.045
309
GRIDFORMAT_END
 95
        4
302
GRIDFORMAT
  1
GRIDFORMAT_BEGIN
 90
        0
 91
        1
 62
     0
 92
       -2
340
14
 93
        0
 40
0.045
309
GRIDFORMAT_END
 95
        8
302
GRIDFORMAT
  1
GRIDFORMAT_BEGIN
 90
        0
 91
        1
 62
     0
 92
       -2
340
14
 93
        0
 40
0.045
309
GRIDFORMAT_END
 95
       16
302
GRIDFORMAT
  1
GRIDFORMAT_BEGIN
 90
        0
 91
        1
 62
     0
 92
       -2
340
14
 93
        0
 40
0.045
309
GRIDFORMAT_END
 95
       32
302
GRIDFORMAT
  1
GRIDFORMAT_BEGIN
 90
        0
 91
        1
 62
     0
 92
       -2
340
14
 93
        0
 40
0.045
309
GRIDFORMAT_END
309
TABLEFORMAT_END
  1
CELLSTYLE_BEGIN
 90
        1
 91
        1
300
_TITLE
309
CELLSTYLE_END
300
CELLSTYLE
  1
TABLEFORMAT_BEGIN
 90
        5
170
     1
 91
        0
 92
        0
 62
   257
 93
        1
300
CONTENTFORMAT
  1
CONTENTFORMAT_BEGIN
 90
        0
 91
        0
 92
        4
 93
        0
300

 40
0.0
140
1.0
 94
        5
 62
     0
340
11
144
4.5
309
CONTENTFORMAT_END
171
     1
301
MARGIN
  1
CELLMARGIN_BEGIN
 40
1.5
 40
1.5
 40
1.5
 40
1.5
 40
1.5
 40
1.5
309
CELLMARGIN_END
 94
        6
 95
        1
302
GRIDFORMAT
  1
GRIDFORMAT_BEGIN
 90
        0
 91
        1
 62
     0
 92
       -2
340
14
 93
        0
 40
0.045
309
GRIDFORMAT_END
 95
        2
302
GRIDFORMAT
  1
GRIDFORMAT_BEGIN
 90
        0
 91
        1
 62
     0
 92
       -2
340
14
 93
        0
 40
0.045
309
GRIDFORMAT_END
 95
        4
302
GRIDFORMAT
  1
GRIDFORMAT_BEGIN
 90
        0
 91
        1
 62
     0
 92
       -2
340
14
 93
        0
 40
0.045
309
GRIDFORMAT_END
 95
        8
302
GRIDFORMAT
  1
GRIDFORMAT_BEGIN
 90
        0
 91
        1
 62
     0
 92
       -2
340
14
 93
        0
 40
0.045
309
GRIDFORMAT_END
 95
       16
302
GRIDFORMAT
  1
GRIDFORMAT_BEGIN
 90
        0
 91
        1
 62
     0
 92
       -2
340
14
 93
        0
 40
0.045
309
GRIDFORMAT_END
 95
       32
302
GRIDFORMAT
  1
GRIDFORMAT_BEGIN
 90
        0
 91
        1
 62
     0
 92
       -2
340
14
 93
        0
 40
0.045
309
GRIDFORMAT_END
309
TABLEFORMAT_END
  1
CELLSTYLE_BEGIN
 90
        2
 91
        1
300
_HEADER
309
CELLSTYLE_END
300
CELLSTYLE
  1
TABLEFORMAT_BEGIN
 90
        5
170
     1
 91
        0
 92
        0
 62
   257
 93
        1
300
CONTENTFORMAT
  1
CONTENTFORMAT_BEGIN
 90
        0
 91
        0
 92
        4
 93
        0
300

 40
0.0
140
1.0
 94
        2
 62
     0
340
11
144
4.5
309
CONTENTFORMAT_END
171
     1
301
MARGIN
  1
CELLMARGIN_BEGIN
 40
1.5
 40
1.5
 40
1.5
 40
1.5
 40
1.5
 40
1.5
309
CELLMARGIN_END
 94
        6
 95
        1
302
GRIDFORMAT
  1
GRIDFORMAT_BEGIN
 90
        0
 91
        1
 62
     0
 92
       -2
340
14
 93
        0
 40
0.045
309
GRIDFORMAT_END
 95
        2
302
GRIDFORMAT
  1
GRIDFORMAT_BEGIN
 90
        0
 91
        1
 62
     0
 92
       -2
340
14
 93
        0
 40
0.045
309
GRIDFORMAT_END
 95
        4
302
GRIDFORMAT
  1
GRIDFORMAT_BEGIN
 90
        0
 91
        1
 62
     0
 92
       -2
340
14
 93
        0
 40
0.045
309
GRIDFORMAT_END
 95
        8
302
GRIDFORMAT
  1
GRIDFORMAT_BEGIN
 90
        0
 91
        1
 62
     0
 92
       -2
340
14
 93
        0
 40
0.045
309
GRIDFORMAT_END
 95
       16
302
GRIDFORMAT
  1
GRIDFORMAT_BEGIN
 90
        0
 91
        1
 62
     0
 92
       -2
340
14
 93
        0
 40
0.045
309
GRIDFORMAT_END
 95
       32
302
GRIDFORMAT
  1
GRIDFORMAT_BEGIN
 90
        0
 91
        1
 62
     0
 92
       -2
340
14
 93
        0
 40
0.045
309
GRIDFORMAT_END
309
TABLEFORMAT_END
  1
CELLSTYLE_BEGIN
 90
        3
 91
        2
300
_DATA
309
CELLSTYLE_END
  0
XRECORD
  5
45E
102
{ACAD_REACTORS
330
45D
102
}
330
45D
100
AcDbXrecord
280
     1
102
ACAD_ROUNDTRIP_PRE2007_TABLESTYLE
 90
        4
 91
        0
  1

 92
        4
 93
        0
  2

 94
        4
 95
        0
  3

  0
XRECORD
  5
430
102
{ACAD_REACTORS
330
42F
102
}
330
42F
100
AcDbXrecord
280
     1
102
RTVSPropertyOp0
 70
     1
102
RTVSPropertyOp1
 70
     1
102
RTVSPropertyOp2
 70
     1
102
RTVSPropertyOp3
 70
     1
102
RTVSPropertyOp4
 70
     1
102
RTVSPropertyOp5
 70
     1
102
RTVSPropertyOp6
 70
     1
102
RTVSPropertyOp7
 70
     1
102
RTVSPropertyOp8
 70
     1
102
RTVSPropertyOp9
 70
     1
102
RTVSPropertyOp10
 70
     1
102
RTVSPropertyOp11
 70
     1
102
RTVSPropertyOp12
 70
     1
102
RTVSPropertyOp13
 70
     1
102
RTVSPropertyOp14
 70
     1
102
RTVSPropertyOp15
 70
     1
102
RTVSPropertyOp16
 70
     1
102
RTVSPropertyOp17
 70
     1
102
RTVSPropertyOp18
 70
     1
102
RTVSPropertyOp19
 70
     1
102
RTVSPropertyOp20
 70
     1
102
RTVSPropertyOp21
 70
     1
102
RTVSPropertyOp22
 70
     1
102
RTVSPropertyOp23
 70
     1
102
RTVSPropertyOp24
 70
     1
102
RTVSPropertyOp25
 70
     1
102
RTVSPropertyOp26
 70
     1
102
RTVSPropertyOp27
 70
     1
102
RTVSPropertyOp28
 70
     1
102
RTVSPropertyOp29
 70
     1
102
RTVSPropertyOp30
 70
     1
102
RTVSPropertyOp31
 70
     1
102
RTVSPropertyOp32
 70
     1
102
RTVSPropertyOp33
 70
     1
102
RTVSPropertyOp34
 70
     1
102
RTVSPropertyOp35
 70
     1
102
RTVSPropertyOp36
 70
     1
102
RTVSPropertyOp37
 70
     1
102
RTVSPropertyOp38
 70
     1
102
RTVSPropertyOp39
 70
     1
102
RTVSPropertyOp40
 70
     1
102
RTVSPropertyOp41
 70
     1
102
RTVSPropertyOp42
 70
     1
102
RTVSPropertyOp43
 70
     1
102
RTVSPropertyOp44
 70
     1
102
RTVSPropertyOp45
 70
     1
102
RTVSPropertyOp46
 70
     1
102
RTVSPropertyOp47
 70
     1
102
RTVSPropertyOp48
 70
     1
102
RTVSPropertyOp49
 70
     1
102
RTVSPropertyOp50
 70
     1
102
RTVSPropertyOp51
 70
     0
102
RTVSPropertyOp52
 70
     0
102
RTVSPropertyOp53
 70
     1
102
RTVSPropertyOp54
 70
     1
102
RTVSPropertyOp55
 70
     1
102
RTVSPropertyOp56
 70
     1
102
RTVSPropertyOp57
 70
     1
102
RTVSPost2010Prop28
280
     1
102
RTVSPost2010PropOp28
 70
     1
102
RTVSPost2010Prop29
280
     1
102
RTVSPost2010PropOp29
 70
     1
102
RTVSPost2010Prop30
280
     0
102
RTVSPost2010PropOp30
 70
     1
102
RTVSPost2010Prop31
280
     0
102
RTVSPost2010PropOp31
 70
     1
102
RTVSPost2010Prop32
280
     0
102
RTVSPost2010PropOp32
 70
     1
102
RTVSPost2010Prop33
280
     0
102
RTVSPost2010PropOp33
 70
     1
102
RTVSPost2010Prop34
280
     0
102
RTVSPost2010PropOp34
 70
     1
102
RTVSPost2010Prop35
280
     0
102
RTVSPost2010PropOp35
 70
     1
102
RTVSPost2010Prop36
280
     0
102
RTVSPost2010PropOp36
 70
     1
102
RTVSPost2010Prop37
 90
       50
102
RTVSPost2010PropOp37
 70
     1
102
RTVSPost2010Prop38
140
0.0
102
RTVSPost2010PropOp38
 70
     1
102
RTVSPost2010Prop39
140
1.0
102
RTVSPost2010PropOp39
 70
     1
102
RTVSPost2010Prop40
 90
        0
102
RTVSPost2010PropOp40
 70
     1
102
RTVSPost2010Prop41ColorIndex
 90
       18
102
RTVSPost2010Prop41ColorRGB
 90
        0
102
RTVSPost2010PropOp41
 70
     1
102
RTVSPost2010Prop42
 90
       50
102
RTVSPost2010PropOp42
 70
     1
102
RTVSPost2010Prop43
 90
        3
102
RTVSPost2010PropOp43
 70
     1
102
RTVSPost2010Prop44ColorIndex
 90
        5
102
RTVSPost2010Prop44ColorRGB
 90
      255
102
RTVSPost2010PropOp44
 70
     1
102
RTVSPost2010Prop45
280
     0
102
RTVSPost2010PropOp45
 70
     1
102
RTVSPost2010Prop46
 90
       50
102
RTVSPost2010PropOp46
 70
     1
102
RTVSPost2010Prop47
 90
       50
102
RTVSPost2010PropOp47
 70
     1
102
RTVSPost2010Prop48
 90
       50
102
RTVSPost2010PropOp48
 70
     1
102
RTVSPost2010Prop49
280
     0
102
RTVSPost2010PropOp49
 70
     1
102
RTVSPost2010Prop50
 90
       50
102
RTVSPost2010PropOp50
 70
     1
102
RTVSPost2010Prop51ColorIndex
 90
      256
102
RTVSPost2010Prop51ColorRGB
 90
-16777216
102
RTVSPost2010PropOp51
 70
     0
102
RTVSPost2010Prop52
140
1.0
102
RTVSPost2010PropOp52
 70
     0
102
RTVSPost2010Prop53
 90
        2
102
RTVSPost2010PropOp53
 70
     1
102
RTVSPost2010Prop54
  1
strokes_ogs.tif
102
RTVSPost2010PropOp54
 70
     1
102
RTVSPost2010Prop55
280
     0
102
RTVSPost2010PropOp55
 70
     1
102
RTVSPost2010Prop56
140
1.0
102
RTVSPost2010PropOp56
 70
     1
102
RTVSPost2010Prop57
140
1.0
102
RTVSPost2010PropOp57
 70
     1
  0
XRECORD
  5
436
102
{ACAD_REACTORS
330
435
102
}
330
435
100
AcDbXrecord
280
     1
102
RTVSPropertyOp0
 70
     1
102
RTVSPropertyOp1
 70
     1
102
RTVSPropertyOp2
 70
     1
102
RTVSPropertyOp3
 70
     1
102
RTVSPropertyOp4
 70
     1
102
RTVSPropertyOp5
 70
     1
102
RTVSPropertyOp6
 70
     1
102
RTVSPropertyOp7
 70
     1
102
RTVSPropertyOp8
 70
     1
102
RTVSPropertyOp9
 70
     1
102
RTVSPropertyOp10
 70
     1
102
RTVSPropertyOp11
 70
     1
102
RTVSPropertyOp12
 70
     1
102
RTVSPropertyOp13
 70
     1
102
RTVSPropertyOp14
 70
     1
102
RTVSPropertyOp15
 70
     1
102
RTVSPropertyOp16
 70
     1
102
RTVSPropertyOp17
 70
     1
102
RTVSPropertyOp18
 70
     1
102
RTVSPropertyOp19
 70
     1
102
RTVSPropertyOp20
 70
     1
102
RTVSPropertyOp21
 70
     1
102
RTVSPropertyOp22
 70
     1
102
RTVSPropertyOp23
 70
     1
102
RTVSPropertyOp24
 70
     1
102
RTVSPropertyOp25
 70
     1
102
RTVSPropertyOp26
 70
     1
102
RTVSPropertyOp27
 70
     1
102
RTVSPropertyOp28
 70
     1
102
RTVSPropertyOp29
 70
     1
102
RTVSPropertyOp30
 70
     1
102
RTVSPropertyOp31
 70
     1
102
RTVSPropertyOp32
 70
     1
102
RTVSPropertyOp33
 70
     1
102
RTVSPropertyOp34
 70
     1
102
RTVSPropertyOp35
 70
     1
102
RTVSPropertyOp36
 70
     1
102
RTVSPropertyOp37
 70
     1
102
RTVSPropertyOp38
 70
     1
102
RTVSPropertyOp39
 70
     1
102
RTVSPropertyOp40
 70
     1
102
RTVSPropertyOp41
 70
     1
102
RTVSPropertyOp42
 70
     1
102
RTVSPropertyOp43
 70
     1
102
RTVSPropertyOp44
 70
     1
102
RTVSPropertyOp45
 70
     1
102
RTVSPropertyOp46
 70
     1
102
RTVSPropertyOp47
 70
     1
102
RTVSPropertyOp48
 70
     1
102
RTVSPropertyOp49
 70
     1
102
RTVSPropertyOp50
 70
     1
102
RTVSPropertyOp51
 70
     0
102
RTVSPropertyOp52
 70
     0
102
RTVSPropertyOp53
 70
     1
102
RTVSPropertyOp54
 70
     1
102
RTVSPropertyOp55
 70
     1
102
RTVSPropertyOp56
 70
     1
102
RTVSPropertyOp57
 70
     1
102
RTVSPost2010Prop28
280
     0
102
RTVSPost2010PropOp28
 70
     1
102
RTVSPost2010Prop29
280
     1
102
RTVSPost2010PropOp29
 70
     1
102
RTVSPost2010Prop30
280
     1
102
RTVSPost2010PropOp30
 70
     1
102
RTVSPost2010Prop31
280
     0
102
RTVSPost2010PropOp31
 70
     1
102
RTVSPost2010Prop32
280
     0
102
RTVSPost2010PropOp32
 70
     1
102
RTVSPost2010Prop33
280
     0
102
RTVSPost2010PropOp33
 70
     1
102
RTVSPost2010Prop34
280
     0
102
RTVSPost2010PropOp34
 70
     1
102
RTVSPost2010Prop35
280
     0
102
RTVSPost2010PropOp35
 70
     1
102
RTVSPost2010Prop36
280
     0
102
RTVSPost2010PropOp36
 70
     1
102
RTVSPost2010Prop37
 90
       50
102
RTVSPost2010PropOp37
 70
     1
102
RTVSPost2010Prop38
140
0.0
102
RTVSPost2010PropOp38
 70
     1
102
RTVSPost2010Prop39
140
1.0
102
RTVSPost2010PropOp39
 70
     1
102
RTVSPost2010Prop40
 90
        0
102
RTVSPost2010PropOp40
 70
     1
102
RTVSPost2010Prop41ColorIndex
 90
       18
102
RTVSPost2010Prop41ColorRGB
 90
        0
102
RTVSPost2010PropOp41
 70
     1
102
RTVSPost2010Prop42
 90
       50
102
RTVSPost2010PropOp42
 70
     1
102
RTVSPost2010Prop43
 90
        3
102
RTVSPost2010PropOp43
 70
     1
102
RTVSPost2010Prop44ColorIndex
 90
        5
102
RTVSPost2010Prop44ColorRGB
 90
      255
102
RTVSPost2010PropOp44
 70
     1
102
RTVSPost2010Prop45
280
     0
102
RTVSPost2010PropOp45
 70
     1
102
RTVSPost2010Prop46
 90
       50
102
RTVSPost2010PropOp46
 70
     1
102
RTVSPost2010Prop47
 90
       50
102
RTVSPost2010PropOp47
 70
     1
102
RTVSPost2010Prop48
 90
       50
102
RTVSPost2010PropOp48
 70
     1
102
RTVSPost2010Prop49
280
     0
102
RTVSPost2010PropOp49
 70
     1
102
RTVSPost2010Prop50
 90
       50
102
RTVSPost2010PropOp50
 70
     1
102
RTVSPost2010Prop51ColorIndex
 90
      256
102
RTVSPost2010Prop51ColorRGB
 90
-16777216
102
RTVSPost2010PropOp51
 70
     0
102
RTVSPost2010Prop52
140
1.0
102
RTVSPost2010PropOp52
 70
     0
102
RTVSPost2010Prop53
 90
        2
102
RTVSPost2010PropOp53
 70
     1
102
RTVSPost2010Prop54
  1
strokes_ogs.tif
102
RTVSPost2010PropOp54
 70
     1
102
RTVSPost2010Prop55
280
     0
102
RTVSPost2010PropOp55
 70
     1
102
RTVSPost2010Prop56
140
1.0
102
RTVSPost2010PropOp56
 70
     1
102
RTVSPost2010Prop57
140
1.0
102
RTVSPost2010PropOp57
 70
     1
  0
XRECORD
  5
43E
102
{ACAD_REACTORS
330
43D
102
}
330
43D
100
AcDbXrecord
280
     1
102
RTVSPropertyOp0
 70
     1
102
RTVSPropertyOp1
 70
     1
102
RTVSPropertyOp2
 70
     1
102
RTVSPropertyOp3
 70
     1
102
RTVSPropertyOp4
 70
     1
102
RTVSPropertyOp5
 70
     1
102
RTVSPropertyOp6
 70
     1
102
RTVSPropertyOp7
 70
     1
102
RTVSPropertyOp8
 70
     1
102
RTVSPropertyOp9
 70
     1
102
RTVSPropertyOp10
 70
     1
102
RTVSPropertyOp11
 70
     1
102
RTVSPropertyOp12
 70
     1
102
RTVSPropertyOp13
 70
     1
102
RTVSPropertyOp14
 70
     1
102
RTVSPropertyOp15
 70
     1
102
RTVSPropertyOp16
 70
     1
102
RTVSPropertyOp17
 70
     1
102
RTVSPropertyOp18
 70
     1
102
RTVSPropertyOp19
 70
     1
102
RTVSPropertyOp20
 70
     1
102
RTVSPropertyOp21
 70
     1
102
RTVSPropertyOp22
 70
     1
102
RTVSPropertyOp23
 70
     1
102
RTVSPropertyOp24
 70
     1
102
RTVSPropertyOp25
 70
     1
102
RTVSPropertyOp26
 70
     1
102
RTVSPropertyOp27
 70
     1
102
RTVSPropertyOp28
 70
     1
102
RTVSPropertyOp29
 70
     1
102
RTVSPropertyOp30
 70
     1
102
RTVSPropertyOp31
 70
     1
102
RTVSPropertyOp32
 70
     1
102
RTVSPropertyOp33
 70
     1
102
RTVSPropertyOp34
 70
     1
102
RTVSPropertyOp35
 70
     1
102
RTVSPropertyOp36
 70
     1
102
RTVSPropertyOp37
 70
     1
102
RTVSPropertyOp38
 70
     1
102
RTVSPropertyOp39
 70
     1
102
RTVSPropertyOp40
 70
     1
102
RTVSPropertyOp41
 70
     1
102
RTVSPropertyOp42
 70
     1
102
RTVSPropertyOp43
 70
     1
102
RTVSPropertyOp44
 70
     1
102
RTVSPropertyOp45
 70
     1
102
RTVSPropertyOp46
 70
     1
102
RTVSPropertyOp47
 70
     1
102
RTVSPropertyOp48
 70
     1
102
RTVSPropertyOp49
 70
     1
102
RTVSPropertyOp50
 70
     1
102
RTVSPropertyOp51
 70
     0
102
RTVSPropertyOp52
 70
     0
102
RTVSPropertyOp53
 70
     1
102
RTVSPropertyOp54
 70
     1
102
RTVSPropertyOp55
 70
     1
102
RTVSPropertyOp56
 70
     1
102
RTVSPropertyOp57
 70
     1
102
RTVSPost2010Prop28
280
     0
102
RTVSPost2010PropOp28
 70
     1
102
RTVSPost2010Prop29
280
     1
102
RTVSPost2010PropOp29
 70
     1
102
RTVSPost2010Prop30
280
     1
102
RTVSPost2010PropOp30
 70
     1
102
RTVSPost2010Prop31
280
     0
102
RTVSPost2010PropOp31
 70
     1
102
RTVSPost2010Prop32
280
     0
102
RTVSPost2010PropOp32
 70
     1
102
RTVSPost2010Prop33
280
     0
102
RTVSPost2010PropOp33
 70
     1
102
RTVSPost2010Prop34
280
     0
102
RTVSPost2010PropOp34
 70
     1
102
RTVSPost2010Prop35
280
     0
102
RTVSPost2010PropOp35
 70
     1
102
RTVSPost2010Prop36
280
     0
102
RTVSPost2010PropOp36
 70
     1
102
RTVSPost2010Prop37
 90
       50
102
RTVSPost2010PropOp37
 70
     1
102
RTVSPost2010Prop38
140
0.0
102
RTVSPost2010PropOp38
 70
     1
102
RTVSPost2010Prop39
140
1.0
102
RTVSPost2010PropOp39
 70
     1
102
RTVSPost2010Prop40
 90
        0
102
RTVSPost2010PropOp40
 70
     1
102
RTVSPost2010Prop41ColorIndex
 90
       18
102
RTVSPost2010Prop41ColorRGB
 90
        0
102
RTVSPost2010PropOp41
 70
     1
102
RTVSPost2010Prop42
 90
       50
102
RTVSPost2010PropOp42
 70
     1
102
RTVSPost2010Prop43
 90
        3
102
RTVSPost2010PropOp43
 70
     1
102
RTVSPost2010Prop44ColorIndex
 90
        5
102
RTVSPost2010Prop44ColorRGB
 90
      255
102
RTVSPost2010PropOp44
 70
     1
102
RTVSPost2010Prop45
280
     0
102
RTVSPost2010PropOp45
 70
     1
102
RTVSPost2010Prop46
 90
       50
102
RTVSPost2010PropOp46
 70
     1
102
RTVSPost2010Prop47
 90
       50
102
RTVSPost2010PropOp47
 70
     1
102
RTVSPost2010Prop48
 90
       50
102
RTVSPost2010PropOp48
 70
     1
102
RTVSPost2010Prop49
280
     0
102
RTVSPost2010PropOp49
 70
     1
102
RTVSPost2010Prop50
 90
       50
102
RTVSPost2010PropOp50
 70
     1
102
RTVSPost2010Prop51ColorIndex
 90
      256
102
RTVSPost2010Prop51ColorRGB
 90
-16777216
102
RTVSPost2010PropOp51
 70
     0
102
RTVSPost2010Prop52
140
1.0
102
RTVSPost2010PropOp52
 70
     0
102
RTVSPost2010Prop53
 90
        2
102
RTVSPost2010PropOp53
 70
     1
102
RTVSPost2010Prop54
  1
strokes_ogs.tif
102
RTVSPost2010PropOp54
 70
     1
102
RTVSPost2010Prop55
280
     0
102
RTVSPost2010PropOp55
 70
     1
102
RTVSPost2010Prop56
140
1.0
102
RTVSPost2010PropOp56
 70
     1
102
RTVSPost2010Prop57
140
1.0
102
RTVSPost2010PropOp57
 70
     1
  0
XRECORD
  5
446
102
{ACAD_REACTORS
330
445
102
}
330
445
100
AcDbXrecord
280
     1
102
RTVSPropertyOp0
 70
     1
102
RTVSPropertyOp1
 70
     1
102
RTVSPropertyOp2
 70
     1
102
RTVSPropertyOp3
 70
     1
102
RTVSPropertyOp4
 70
     1
102
RTVSPropertyOp5
 70
     1
102
RTVSPropertyOp6
 70
     1
102
RTVSPropertyOp7
 70
     1
102
RTVSPropertyOp8
 70
     1
102
RTVSPropertyOp9
 70
     1
102
RTVSPropertyOp10
 70
     1
102
RTVSPropertyOp11
 70
     1
102
RTVSPropertyOp12
 70
     1
102
RTVSPropertyOp13
 70
     1
102
RTVSPropertyOp14
 70
     1
102
RTVSPropertyOp15
 70
     1
102
RTVSPropertyOp16
 70
     1
102
RTVSPropertyOp17
 70
     1
102
RTVSPropertyOp18
 70
     1
102
RTVSPropertyOp19
 70
     1
102
RTVSPropertyOp20
 70
     1
102
RTVSPropertyOp21
 70
     1
102
RTVSPropertyOp22
 70
     1
102
RTVSPropertyOp23
 70
     1
102
RTVSPropertyOp24
 70
     1
102
RTVSPropertyOp25
 70
     1
102
RTVSPropertyOp26
 70
     1
102
RTVSPropertyOp27
 70
     1
102
RTVSPropertyOp28
 70
     1
102
RTVSPropertyOp29
 70
     1
102
RTVSPropertyOp30
 70
     1
102
RTVSPropertyOp31
 70
     1
102
RTVSPropertyOp32
 70
     1
102
RTVSPropertyOp33
 70
     1
102
RTVSPropertyOp34
 70
     1
102
RTVSPropertyOp35
 70
     1
102
RTVSPropertyOp36
 70
     1
102
RTVSPropertyOp37
 70
     1
102
RTVSPropertyOp38
 70
     1
102
RTVSPropertyOp39
 70
     1
102
RTVSPropertyOp40
 70
     1
102
RTVSPropertyOp41
 70
     1
102
RTVSPropertyOp42
 70
     1
102
RTVSPropertyOp43
 70
     1
102
RTVSPropertyOp44
 70
     1
102
RTVSPropertyOp45
 70
     1
102
RTVSPropertyOp46
 70
     1
102
RTVSPropertyOp47
 70
     1
102
RTVSPropertyOp48
 70
     1
102
RTVSPropertyOp49
 70
     1
102
RTVSPropertyOp50
 70
     1
102
RTVSPropertyOp51
 70
     0
102
RTVSPropertyOp52
 70
     0
102
RTVSPropertyOp53
 70
     1
102
RTVSPropertyOp54
 70
     1
102
RTVSPropertyOp55
 70
     1
102
RTVSPropertyOp56
 70
     1
102
RTVSPropertyOp57
 70
     1
102
RTVSPost2010Prop28
280
     0
102
RTVSPost2010PropOp28
 70
     1
102
RTVSPost2010Prop29
280
     1
102
RTVSPost2010PropOp29
 70
     1
102
RTVSPost2010Prop30
280
     1
102
RTVSPost2010PropOp30
 70
     1
102
RTVSPost2010Prop31
280
     0
102
RTVSPost2010PropOp31
 70
     1
102
RTVSPost2010Prop32
280
     0
102
RTVSPost2010PropOp32
 70
     1
102
RTVSPost2010Prop33
280
     0
102
RTVSPost2010PropOp33
 70
     1
102
RTVSPost2010Prop34
280
     0
102
RTVSPost2010PropOp34
 70
     1
102
RTVSPost2010Prop35
280
     0
102
RTVSPost2010PropOp35
 70
     1
102
RTVSPost2010Prop36
280
     0
102
RTVSPost2010PropOp36
 70
     1
102
RTVSPost2010Prop37
 90
       50
102
RTVSPost2010PropOp37
 70
     1
102
RTVSPost2010Prop38
140
0.0
102
RTVSPost2010PropOp38
 70
     1
102
RTVSPost2010Prop39
140
1.0
102
RTVSPost2010PropOp39
 70
     1
102
RTVSPost2010Prop40
 90
        0
102
RTVSPost2010PropOp40
 70
     1
102
RTVSPost2010Prop41ColorIndex
 90
       18
102
RTVSPost2010Prop41ColorRGB
 90
        0
102
RTVSPost2010PropOp41
 70
     1
102
RTVSPost2010Prop42
 90
       50
102
RTVSPost2010PropOp42
 70
     1
102
RTVSPost2010Prop43
 90
        3
102
RTVSPost2010PropOp43
 70
     1
102
RTVSPost2010Prop44ColorIndex
 90
        5
102
RTVSPost2010Prop44ColorRGB
 90
      255
102
RTVSPost2010PropOp44
 70
     1
102
RTVSPost2010Prop45
280
     0
102
RTVSPost2010PropOp45
 70
     1
102
RTVSPost2010Prop46
 90
       50
102
RTVSPost2010PropOp46
 70
     1
102
RTVSPost2010Prop47
 90
       50
102
RTVSPost2010PropOp47
 70
     1
102
RTVSPost2010Prop48
 90
       50
102
RTVSPost2010PropOp48
 70
     1
102
RTVSPost2010Prop49
280
     0
102
RTVSPost2010PropOp49
 70
     1
102
RTVSPost2010Prop50
 90
       50
102
RTVSPost2010PropOp50
 70
     1
102
RTVSPost2010Prop51ColorIndex
 90
      256
102
RTVSPost2010Prop51ColorRGB
 90
-16777216
102
RTVSPost2010PropOp51
 70
     0
102
RTVSPost2010Prop52
140
1.0
102
RTVSPost2010PropOp52
 70
     0
102
RTVSPost2010Prop53
 90
        2
102
RTVSPost2010PropOp53
 70
     1
102
RTVSPost2010Prop54
  1
strokes_ogs.tif
102
RTVSPost2010PropOp54
 70
     1
102
RTVSPost2010Prop55
280
     0
102
RTVSPost2010PropOp55
 70
     1
102
RTVSPost2010Prop56
140
1.0
102
RTVSPost2010PropOp56
 70
     1
102
RTVSPost2010Prop57
140
1.0
102
RTVSPost2010PropOp57
 70
     1
  0
XRECORD
  5
43A
102
{ACAD_REACTORS
330
439
102
}
330
439
100
AcDbXrecord
280
     1
102
RTVSPropertyOp0
 70
     1
102
RTVSPropertyOp1
 70
     1
102
RTVSPropertyOp2
 70
     1
102
RTVSPropertyOp3
 70
     1
102
RTVSPropertyOp4
 70
     1
102
RTVSPropertyOp5
 70
     1
102
RTVSPropertyOp6
 70
     1
102
RTVSPropertyOp7
 70
     1
102
RTVSPropertyOp8
 70
     1
102
RTVSPropertyOp9
 70
     1
102
RTVSPropertyOp10
 70
     1
102
RTVSPropertyOp11
 70
     1
102
RTVSPropertyOp12
 70
     1
102
RTVSPropertyOp13
 70
     1
102
RTVSPropertyOp14
 70
     1
102
RTVSPropertyOp15
 70
     1
102
RTVSPropertyOp16
 70
     1
102
RTVSPropertyOp17
 70
     1
102
RTVSPropertyOp18
 70
     1
102
RTVSPropertyOp19
 70
     1
102
RTVSPropertyOp20
 70
     1
102
RTVSPropertyOp21
 70
     1
102
RTVSPropertyOp22
 70
     1
102
RTVSPropertyOp23
 70
     1
102
RTVSPropertyOp24
 70
     1
102
RTVSPropertyOp25
 70
     1
102
RTVSPropertyOp26
 70
     1
102
RTVSPropertyOp27
 70
     1
102
RTVSPropertyOp28
 70
     1
102
RTVSPropertyOp29
 70
     1
102
RTVSPropertyOp30
 70
     1
102
RTVSPropertyOp31
 70
     1
102
RTVSPropertyOp32
 70
     1
102
RTVSPropertyOp33
 70
     1
102
RTVSPropertyOp34
 70
     1
102
RTVSPropertyOp35
 70
     1
102
RTVSPropertyOp36
 70
     1
102
RTVSPropertyOp37
 70
     1
102
RTVSPropertyOp38
 70
     1
102
RTVSPropertyOp39
 70
     1
102
RTVSPropertyOp40
 70
     1
102
RTVSPropertyOp41
 70
     1
102
RTVSPropertyOp42
 70
     1
102
RTVSPropertyOp43
 70
     1
102
RTVSPropertyOp44
 70
     1
102
RTVSPropertyOp45
 70
     1
102
RTVSPropertyOp46
 70
     1
102
RTVSPropertyOp47
 70
     1
102
RTVSPropertyOp48
 70
     1
102
RTVSPropertyOp49
 70
     1
102
RTVSPropertyOp50
 70
     1
102
RTVSPropertyOp51
 70
     0
102
RTVSPropertyOp52
 70
     0
102
RTVSPropertyOp53
 70
     1
102
RTVSPropertyOp54
 70
     1
102
RTVSPropertyOp55
 70
     1
102
RTVSPropertyOp56
 70
     1
102
RTVSPropertyOp57
 70
     1
102
RTVSPost2010Prop28
280
     0
102
RTVSPost2010PropOp28
 70
     1
102
RTVSPost2010Prop29
280
     1
102
RTVSPost2010PropOp29
 70
     1
102
RTVSPost2010Prop30
280
     1
102
RTVSPost2010PropOp30
 70
     1
102
RTVSPost2010Prop31
280
     0
102
RTVSPost2010PropOp31
 70
     1
102
RTVSPost2010Prop32
280
     0
102
RTVSPost2010PropOp32
 70
     1
102
RTVSPost2010Prop33
280
     0
102
RTVSPost2010PropOp33
 70
     1
102
RTVSPost2010Prop34
280
     0
102
RTVSPost2010PropOp34
 70
     1
102
RTVSPost2010Prop35
280
     0
102
RTVSPost2010PropOp35
 70
     1
102
RTVSPost2010Prop36
280
     0
102
RTVSPost2010PropOp36
 70
     1
102
RTVSPost2010Prop37
 90
       50
102
RTVSPost2010PropOp37
 70
     1
102
RTVSPost2010Prop38
140
0.0
102
RTVSPost2010PropOp38
 70
     1
102
RTVSPost2010Prop39
140
1.0
102
RTVSPost2010PropOp39
 70
     1
102
RTVSPost2010Prop40
 90
        0
102
RTVSPost2010PropOp40
 70
     1
102
RTVSPost2010Prop41ColorIndex
 90
       18
102
RTVSPost2010Prop41ColorRGB
 90
        0
102
RTVSPost2010PropOp41
 70
     1
102
RTVSPost2010Prop42
 90
       50
102
RTVSPost2010PropOp42
 70
     1
102
RTVSPost2010Prop43
 90
        3
102
RTVSPost2010PropOp43
 70
     1
102
RTVSPost2010Prop44ColorIndex
 90
        5
102
RTVSPost2010Prop44ColorRGB
 90
      255
102
RTVSPost2010PropOp44
 70
     1
102
RTVSPost2010Prop45
280
     0
102
RTVSPost2010PropOp45
 70
     1
102
RTVSPost2010Prop46
 90
       50
102
RTVSPost2010PropOp46
 70
     1
102
RTVSPost2010Prop47
 90
       50
102
RTVSPost2010PropOp47
 70
     1
102
RTVSPost2010Prop48
 90
       50
102
RTVSPost2010PropOp48
 70
     1
102
RTVSPost2010Prop49
280
     0
102
RTVSPost2010PropOp49
 70
     1
102
RTVSPost2010Prop50
 90
       50
102
RTVSPost2010PropOp50
 70
     1
102
RTVSPost2010Prop51ColorIndex
 90
      256
102
RTVSPost2010Prop51ColorRGB
 90
-16777216
102
RTVSPost2010PropOp51
 70
     0
102
RTVSPost2010Prop52
140
1.0
102
RTVSPost2010PropOp52
 70
     0
102
RTVSPost2010Prop53
 90
        2
102
RTVSPost2010PropOp53
 70
     1
102
RTVSPost2010Prop54
  1
strokes_ogs.tif
102
RTVSPost2010PropOp54
 70
     1
102
RTVSPost2010Prop55
280
     0
102
RTVSPost2010PropOp55
 70
     1
102
RTVSPost2010Prop56
140
1.0
102
RTVSPost2010PropOp56
 70
     1
102
RTVSPost2010Prop57
140
1.0
102
RTVSPost2010PropOp57
 70
     1
  0
XRECORD
  5
43C
102
{ACAD_REACTORS
330
43B
102
}
330
43B
100
AcDbXrecord
280
     1
102
RTVSPropertyOp0
 70
     1
102
RTVSPropertyOp1
 70
     1
102
RTVSPropertyOp2
 70
     1
102
RTVSPropertyOp3
 70
     1
102
RTVSPropertyOp4
 70
     1
102
RTVSPropertyOp5
 70
     1
102
RTVSPropertyOp6
 70
     1
102
RTVSPropertyOp7
 70
     1
102
RTVSPropertyOp8
 70
     1
102
RTVSPropertyOp9
 70
     1
102
RTVSPropertyOp10
 70
     1
102
RTVSPropertyOp11
 70
     1
102
RTVSPropertyOp12
 70
     1
102
RTVSPropertyOp13
 70
     1
102
RTVSPropertyOp14
 70
     1
102
RTVSPropertyOp15
 70
     1
102
RTVSPropertyOp16
 70
     1
102
RTVSPropertyOp17
 70
     1
102
RTVSPropertyOp18
 70
     1
102
RTVSPropertyOp19
 70
     1
102
RTVSPropertyOp20
 70
     1
102
RTVSPropertyOp21
 70
     1
102
RTVSPropertyOp22
 70
     1
102
RTVSPropertyOp23
 70
     1
102
RTVSPropertyOp24
 70
     1
102
RTVSPropertyOp25
 70
     1
102
RTVSPropertyOp26
 70
     1
102
RTVSPropertyOp27
 70
     1
102
RTVSPropertyOp28
 70
     1
102
RTVSPropertyOp29
 70
     1
102
RTVSPropertyOp30
 70
     1
102
RTVSPropertyOp31
 70
     1
102
RTVSPropertyOp32
 70
     1
102
RTVSPropertyOp33
 70
     1
102
RTVSPropertyOp34
 70
     1
102
RTVSPropertyOp35
 70
     1
102
RTVSPropertyOp36
 70
     1
102
RTVSPropertyOp37
 70
     1
102
RTVSPropertyOp38
 70
     1
102
RTVSPropertyOp39
 70
     1
102
RTVSPropertyOp40
 70
     1
102
RTVSPropertyOp41
 70
     1
102
RTVSPropertyOp42
 70
     1
102
RTVSPropertyOp43
 70
     1
102
RTVSPropertyOp44
 70
     1
102
RTVSPropertyOp45
 70
     1
102
RTVSPropertyOp46
 70
     1
102
RTVSPropertyOp47
 70
     1
102
RTVSPropertyOp48
 70
     1
102
RTVSPropertyOp49
 70
     1
102
RTVSPropertyOp50
 70
     1
102
RTVSPropertyOp51
 70
     0
102
RTVSPropertyOp52
 70
     0
102
RTVSPropertyOp53
 70
     1
102
RTVSPropertyOp54
 70
     1
102
RTVSPropertyOp55
 70
     1
102
RTVSPropertyOp56
 70
     1
102
RTVSPropertyOp57
 70
     1
102
RTVSPost2010Prop28
280
     0
102
RTVSPost2010PropOp28
 70
     1
102
RTVSPost2010Prop29
280
     1
102
RTVSPost2010PropOp29
 70
     1
102
RTVSPost2010Prop30
280
     1
102
RTVSPost2010PropOp30
 70
     1
102
RTVSPost2010Prop31
280
     0
102
RTVSPost2010PropOp31
 70
     1
102
RTVSPost2010Prop32
280
     0
102
RTVSPost2010PropOp32
 70
     1
102
RTVSPost2010Prop33
280
     0
102
RTVSPost2010PropOp33
 70
     1
102
RTVSPost2010Prop34
280
     0
102
RTVSPost2010PropOp34
 70
     1
102
RTVSPost2010Prop35
280
     0
102
RTVSPost2010PropOp35
 70
     1
102
RTVSPost2010Prop36
280
     0
102
RTVSPost2010PropOp36
 70
     1
102
RTVSPost2010Prop37
 90
       50
102
RTVSPost2010PropOp37
 70
     1
102
RTVSPost2010Prop38
140
0.0
102
RTVSPost2010PropOp38
 70
     1
102
RTVSPost2010Prop39
140
1.0
102
RTVSPost2010PropOp39
 70
     1
102
RTVSPost2010Prop40
 90
        0
102
RTVSPost2010PropOp40
 70
     1
102
RTVSPost2010Prop41ColorIndex
 90
       18
102
RTVSPost2010Prop41ColorRGB
 90
        0
102
RTVSPost2010PropOp41
 70
     1
102
RTVSPost2010Prop42
 90
       50
102
RTVSPost2010PropOp42
 70
     1
102
RTVSPost2010Prop43
 90
        3
102
RTVSPost2010PropOp43
 70
     1
102
RTVSPost2010Prop44ColorIndex
 90
        5
102
RTVSPost2010Prop44ColorRGB
 90
      255
102
RTVSPost2010PropOp44
 70
     1
102
RTVSPost2010Prop45
280
     0
102
RTVSPost2010PropOp45
 70
     1
102
RTVSPost2010Prop46
 90
       50
102
RTVSPost2010PropOp46
 70
     1
102
RTVSPost2010Prop47
 90
       50
102
RTVSPost2010PropOp47
 70
     1
102
RTVSPost2010Prop48
 90
       50
102
RTVSPost2010PropOp48
 70
     1
102
RTVSPost2010Prop49
280
     0
102
RTVSPost2010PropOp49
 70
     1
102
RTVSPost2010Prop50
 90
       50
102
RTVSPost2010PropOp50
 70
     1
102
RTVSPost2010Prop51ColorIndex
 90
      256
102
RTVSPost2010Prop51ColorRGB
 90
-16777216
102
RTVSPost2010PropOp51
 70
     0
102
RTVSPost2010Prop52
140
1.0
102
RTVSPost2010PropOp52
 70
     0
102
RTVSPost2010Prop53
 90
        2
102
RTVSPost2010PropOp53
 70
     1
102
RTVSPost2010Prop54
  1
strokes_ogs.tif
102
RTVSPost2010PropOp54
 70
     1
102
RTVSPost2010Prop55
280
     0
102
RTVSPost2010PropOp55
 70
     1
102
RTVSPost2010Prop56
140
1.0
102
RTVSPost2010PropOp56
 70
     1
102
RTVSPost2010Prop57
140
1.0
102
RTVSPost2010PropOp57
 70
     1
  0
XRECORD
  5
44C
102
{ACAD_REACTORS
330
44B
102
}
330
44B
100
AcDbXrecord
280
     1
102
RTVSPropertyOp0
 70
     0
102
RTVSPropertyOp1
 70
     0
102
RTVSPropertyOp2
 70
     0
102
RTVSPropertyOp3
 70
     0
102
RTVSPropertyOp4
 70
     0
102
RTVSPropertyOp5
 70
     0
102
RTVSPropertyOp6
 70
     0
102
RTVSPropertyOp7
 70
     0
102
RTVSPropertyOp8
 70
     0
102
RTVSPropertyOp9
 70
     0
102
RTVSPropertyOp10
 70
     0
102
RTVSPropertyOp11
 70
     0
102
RTVSPropertyOp12
 70
     0
102
RTVSPropertyOp13
 70
     0
102
RTVSPropertyOp14
 70
     2
102
RTVSPropertyOp15
 70
     0
102
RTVSPropertyOp16
 70
     0
102
RTVSPropertyOp17
 70
     0
102
RTVSPropertyOp18
 70
     0
102
RTVSPropertyOp19
 70
     0
102
RTVSPropertyOp20
 70
     0
102
RTVSPropertyOp21
 70
     0
102
RTVSPropertyOp22
 70
     0
102
RTVSPropertyOp23
 70
     0
102
RTVSPropertyOp24
 70
     0
102
RTVSPropertyOp25
 70
     0
102
RTVSPropertyOp26
 70
     0
102
RTVSPropertyOp27
 70
     0
102
RTVSPropertyOp28
 70
     0
102
RTVSPropertyOp29
 70
     0
102
RTVSPropertyOp30
 70
     0
102
RTVSPropertyOp31
 70
     0
102
RTVSPropertyOp32
 70
     0
102
RTVSPropertyOp33
 70
     0
102
RTVSPropertyOp34
 70
     0
102
RTVSPropertyOp35
 70
     0
102
RTVSPropertyOp36
 70
     0
102
RTVSPropertyOp37
 70
     0
102
RTVSPropertyOp38
 70
     0
102
RTVSPropertyOp39
 70
     0
102
RTVSPropertyOp40
 70
     0
102
RTVSPropertyOp41
 70
     0
102
RTVSPropertyOp42
 70
     0
102
RTVSPropertyOp43
 70
     0
102
RTVSPropertyOp44
 70
     0
102
RTVSPropertyOp45
 70
     0
102
RTVSPropertyOp46
 70
     0
102
RTVSPropertyOp47
 70
     0
102
RTVSPropertyOp48
 70
     0
102
RTVSPropertyOp49
 70
     0
102
RTVSPropertyOp50
 70
     0
102
RTVSPropertyOp51
 70
     0
102
RTVSPropertyOp52
 70
     0
102
RTVSPropertyOp53
 70
     0
102
RTVSPropertyOp54
 70
     0
102
RTVSPropertyOp55
 70
     0
102
RTVSPropertyOp56
 70
     0
102
RTVSPropertyOp57
 70
     0
102
RTVSPost2010Prop28
280
     0
102
RTVSPost2010PropOp28
 70
     0
102
RTVSPost2010Prop29
280
     1
102
RTVSPost2010PropOp29
 70
     0
102
RTVSPost2010Prop30
280
     1
102
RTVSPost2010PropOp30
 70
     0
102
RTVSPost2010Prop31
280
     0
102
RTVSPost2010PropOp31
 70
     0
102
RTVSPost2010Prop32
280
     0
102
RTVSPost2010PropOp32
 70
     0
102
RTVSPost2010Prop33
280
     0
102
RTVSPost2010PropOp33
 70
     0
102
RTVSPost2010Prop34
280
     0
102
RTVSPost2010PropOp34
 70
     0
102
RTVSPost2010Prop35
280
     0
102
RTVSPost2010PropOp35
 70
     0
102
RTVSPost2010Prop36
280
     0
102
RTVSPost2010PropOp36
 70
     0
102
RTVSPost2010Prop37
 90
       50
102
RTVSPost2010PropOp37
 70
     0
102
RTVSPost2010Prop38
140
0.0
102
RTVSPost2010PropOp38
 70
     0
102
RTVSPost2010Prop39
140
1.0
102
RTVSPost2010PropOp39
 70
     0
102
RTVSPost2010Prop40
 90
        0
102
RTVSPost2010PropOp40
 70
     0
102
RTVSPost2010Prop41ColorIndex
 90
       18
102
RTVSPost2010Prop41ColorRGB
 90
        0
102
RTVSPost2010PropOp41
 70
     0
102
RTVSPost2010Prop42
 90
       50
102
RTVSPost2010PropOp42
 70
     0
102
RTVSPost2010Prop43
 90
        3
102
RTVSPost2010PropOp43
 70
     0
102
RTVSPost2010Prop44ColorIndex
 90
        5
102
RTVSPost2010Prop44ColorRGB
 90
      255
102
RTVSPost2010PropOp44
 70
     0
102
RTVSPost2010Prop45
280
     0
102
RTVSPost2010PropOp45
 70
     0
102
RTVSPost2010Prop46
 90
       50
102
RTVSPost2010PropOp46
 70
     0
102
RTVSPost2010Prop47
 90
       50
102
RTVSPost2010PropOp47
 70
     0
102
RTVSPost2010Prop48
 90
       50
102
RTVSPost2010PropOp48
 70
     0
102
RTVSPost2010Prop49
280
     0
102
RTVSPost2010PropOp49
 70
     0
102
RTVSPost2010Prop50
 90
       50
102
RTVSPost2010PropOp50
 70
     0
102
RTVSPost2010Prop51ColorIndex
 90
      256
102
RTVSPost2010Prop51ColorRGB
 90
-16777216
102
RTVSPost2010PropOp51
 70
     0
102
RTVSPost2010Prop52
140
1.0
102
RTVSPost2010PropOp52
 70
     0
102
RTVSPost2010Prop53
 90
        2
102
RTVSPost2010PropOp53
 70
     0
102
RTVSPost2010Prop54
  1
strokes_ogs.tif
102
RTVSPost2010PropOp54
 70
     0
102
RTVSPost2010Prop55
280
     0
102
RTVSPost2010PropOp55
 70
     0
102
RTVSPost2010Prop56
140
1.0
102
RTVSPost2010PropOp56
 70
     0
102
RTVSPost2010Prop57
140
1.0
102
RTVSPost2010PropOp57
 70
     0
  0
XRECORD
  5
444
102
{ACAD_REACTORS
330
443
102
}
330
443
100
AcDbXrecord
280
     1
102
RTVSPropertyOp0
 70
     1
102
RTVSPropertyOp1
 70
     1
102
RTVSPropertyOp2
 70
     1
102
RTVSPropertyOp3
 70
     1
102
RTVSPropertyOp4
 70
     1
102
RTVSPropertyOp5
 70
     1
102
RTVSPropertyOp6
 70
     1
102
RTVSPropertyOp7
 70
     1
102
RTVSPropertyOp8
 70
     1
102
RTVSPropertyOp9
 70
     1
102
RTVSPropertyOp10
 70
     1
102
RTVSPropertyOp11
 70
     1
102
RTVSPropertyOp12
 70
     1
102
RTVSPropertyOp13
 70
     1
102
RTVSPropertyOp14
 70
     1
102
RTVSPropertyOp15
 70
     1
102
RTVSPropertyOp16
 70
     1
102
RTVSPropertyOp17
 70
     1
102
RTVSPropertyOp18
 70
     1
102
RTVSPropertyOp19
 70
     1
102
RTVSPropertyOp20
 70
     1
102
RTVSPropertyOp21
 70
     1
102
RTVSPropertyOp22
 70
     1
102
RTVSPropertyOp23
 70
     1
102
RTVSPropertyOp24
 70
     1
102
RTVSPropertyOp25
 70
     1
102
RTVSPropertyOp26
 70
     1
102
RTVSPropertyOp27
 70
     1
102
RTVSPropertyOp28
 70
     1
102
RTVSPropertyOp29
 70
     1
102
RTVSPropertyOp30
 70
     1
102
RTVSPropertyOp31
 70
     1
102
RTVSPropertyOp32
 70
     1
102
RTVSPropertyOp33
 70
     1
102
RTVSPropertyOp34
 70
     1
102
RTVSPropertyOp35
 70
     1
102
RTVSPropertyOp36
 70
     1
102
RTVSPropertyOp37
 70
     1
102
RTVSPropertyOp38
 70
     1
102
RTVSPropertyOp39
 70
     1
102
RTVSPropertyOp40
 70
     1
102
RTVSPropertyOp41
 70
     1
102
RTVSPropertyOp42
 70
     1
102
RTVSPropertyOp43
 70
     1
102
RTVSPropertyOp44
 70
     1
102
RTVSPropertyOp45
 70
     1
102
RTVSPropertyOp46
 70
     1
102
RTVSPropertyOp47
 70
     1
102
RTVSPropertyOp48
 70
     1
102
RTVSPropertyOp49
 70
     1
102
RTVSPropertyOp50
 70
     1
102
RTVSPropertyOp51
 70
     0
102
RTVSPropertyOp52
 70
     0
102
RTVSPropertyOp53
 70
     1
102
RTVSPropertyOp54
 70
     1
102
RTVSPropertyOp55
 70
     1
102
RTVSPropertyOp56
 70
     1
102
RTVSPropertyOp57
 70
     1
102
RTVSPost2010Prop28
280
     0
102
RTVSPost2010PropOp28
 70
     1
102
RTVSPost2010Prop29
280
     1
102
RTVSPost2010PropOp29
 70
     1
102
RTVSPost2010Prop30
280
     1
102
RTVSPost2010PropOp30
 70
     1
102
RTVSPost2010Prop31
280
     0
102
RTVSPost2010PropOp31
 70
     1
102
RTVSPost2010Prop32
280
     0
102
RTVSPost2010PropOp32
 70
     1
102
RTVSPost2010Prop33
280
     0
102
RTVSPost2010PropOp33
 70
     1
102
RTVSPost2010Prop34
280
     0
102
RTVSPost2010PropOp34
 70
     1
102
RTVSPost2010Prop35
280
     0
102
RTVSPost2010PropOp35
 70
     1
102
RTVSPost2010Prop36
280
     0
102
RTVSPost2010PropOp36
 70
     1
102
RTVSPost2010Prop37
 90
       50
102
RTVSPost2010PropOp37
 70
     1
102
RTVSPost2010Prop38
140
0.0
102
RTVSPost2010PropOp38
 70
     1
102
RTVSPost2010Prop39
140
1.0
102
RTVSPost2010PropOp39
 70
     1
102
RTVSPost2010Prop40
 90
        0
102
RTVSPost2010PropOp40
 70
     1
102
RTVSPost2010Prop41ColorIndex
 90
       18
102
RTVSPost2010Prop41ColorRGB
 90
        0
102
RTVSPost2010PropOp41
 70
     1
102
RTVSPost2010Prop42
 90
       50
102
RTVSPost2010PropOp42
 70
     1
102
RTVSPost2010Prop43
 90
        3
102
RTVSPost2010PropOp43
 70
     1
102
RTVSPost2010Prop44ColorIndex
 90
        5
102
RTVSPost2010Prop44ColorRGB
 90
      255
102
RTVSPost2010PropOp44
 70
     1
102
RTVSPost2010Prop45
280
     0
102
RTVSPost2010PropOp45
 70
     1
102
RTVSPost2010Prop46
 90
       50
102
RTVSPost2010PropOp46
 70
     1
102
RTVSPost2010Prop47
 90
       50
102
RTVSPost2010PropOp47
 70
     1
102
RTVSPost2010Prop48
 90
       50
102
RTVSPost2010PropOp48
 70
     1
102
RTVSPost2010Prop49
280
     0
102
RTVSPost2010PropOp49
 70
     1
102
RTVSPost2010Prop50
 90
       50
102
RTVSPost2010PropOp50
 70
     1
102
RTVSPost2010Prop51ColorIndex
 90
      256
102
RTVSPost2010Prop51ColorRGB
 90
-16777216
102
RTVSPost2010PropOp51
 70
     0
102
RTVSPost2010Prop52
140
1.0
102
RTVSPost2010PropOp52
 70
     0
102
RTVSPost2010Prop53
 90
        2
102
RTVSPost2010PropOp53
 70
     1
102
RTVSPost2010Prop54
  1
strokes_ogs.tif
102
RTVSPost2010PropOp54
 70
     1
102
RTVSPost2010Prop55
280
     0
102
RTVSPost2010PropOp55
 70
     1
102
RTVSPost2010Prop56
140
1.0
102
RTVSPost2010PropOp56
 70
     1
102
RTVSPost2010Prop57
140
1.0
102
RTVSPost2010PropOp57
 70
     1
  0
XRECORD
  5
428
102
{ACAD_REACTORS
330
427
102
}
330
427
100
AcDbXrecord
280
     1
102
RTVSPropertyOp0
 70
     1
102
RTVSPropertyOp1
 70
     1
102
RTVSPropertyOp2
 70
     1
102
RTVSPropertyOp3
 70
     1
102
RTVSPropertyOp4
 70
     1
102
RTVSPropertyOp5
 70
     1
102
RTVSPropertyOp6
 70
     1
102
RTVSPropertyOp7
 70
     1
102
RTVSPropertyOp8
 70
     1
102
RTVSPropertyOp9
 70
     1
102
RTVSPropertyOp10
 70
     1
102
RTVSPropertyOp11
 70
     1
102
RTVSPropertyOp12
 70
     1
102
RTVSPropertyOp13
 70
     1
102
RTVSPropertyOp14
 70
     1
102
RTVSPropertyOp15
 70
     1
102
RTVSPropertyOp16
 70
     1
102
RTVSPropertyOp17
 70
     1
102
RTVSPropertyOp18
 70
     1
102
RTVSPropertyOp19
 70
     1
102
RTVSPropertyOp20
 70
     1
102
RTVSPropertyOp21
 70
     1
102
RTVSPropertyOp22
 70
     1
102
RTVSPropertyOp23
 70
     1
102
RTVSPropertyOp24
 70
     1
102
RTVSPropertyOp25
 70
     1
102
RTVSPropertyOp26
 70
     1
102
RTVSPropertyOp27
 70
     1
102
RTVSPropertyOp28
 70
     1
102
RTVSPropertyOp29
 70
     1
102
RTVSPropertyOp30
 70
     1
102
RTVSPropertyOp31
 70
     1
102
RTVSPropertyOp32
 70
     1
102
RTVSPropertyOp33
 70
     1
102
RTVSPropertyOp34
 70
     1
102
RTVSPropertyOp35
 70
     1
102
RTVSPropertyOp36
 70
     1
102
RTVSPropertyOp37
 70
     1
102
RTVSPropertyOp38
 70
     1
102
RTVSPropertyOp39
 70
     1
102
RTVSPropertyOp40
 70
     1
102
RTVSPropertyOp41
 70
     1
102
RTVSPropertyOp42
 70
     1
102
RTVSPropertyOp43
 70
     1
102
RTVSPropertyOp44
 70
     1
102
RTVSPropertyOp45
 70
     1
102
RTVSPropertyOp46
 70
     1
102
RTVSPropertyOp47
 70
     1
102
RTVSPropertyOp48
 70
     1
102
RTVSPropertyOp49
 70
     1
102
RTVSPropertyOp50
 70
     1
102
RTVSPropertyOp51
 70
     0
102
RTVSPropertyOp52
 70
     0
102
RTVSPropertyOp53
 70
     1
102
RTVSPropertyOp54
 70
     1
102
RTVSPropertyOp55
 70
     1
102
RTVSPropertyOp56
 70
     1
102
RTVSPropertyOp57
 70
     1
102
RTVSPost2010Prop28
280
     0
102
RTVSPost2010PropOp28
 70
     1
102
RTVSPost2010Prop29
280
     1
102
RTVSPost2010PropOp29
 70
     1
102
RTVSPost2010Prop30
280
     1
102
RTVSPost2010PropOp30
 70
     1
102
RTVSPost2010Prop31
280
     0
102
RTVSPost2010PropOp31
 70
     1
102
RTVSPost2010Prop32
280
     0
102
RTVSPost2010PropOp32
 70
     1
102
RTVSPost2010Prop33
280
     0
102
RTVSPost2010PropOp33
 70
     1
102
RTVSPost2010Prop34
280
     0
102
RTVSPost2010PropOp34
 70
     1
102
RTVSPost2010Prop35
280
     0
102
RTVSPost2010PropOp35
 70
     1
102
RTVSPost2010Prop36
280
     0
102
RTVSPost2010PropOp36
 70
     1
102
RTVSPost2010Prop37
 90
       50
102
RTVSPost2010PropOp37
 70
     1
102
RTVSPost2010Prop38
140
0.0
102
RTVSPost2010PropOp38
 70
     1
102
RTVSPost2010Prop39
140
1.0
102
RTVSPost2010PropOp39
 70
     1
102
RTVSPost2010Prop40
 90
        0
102
RTVSPost2010PropOp40
 70
     1
102
RTVSPost2010Prop41ColorIndex
 90
       18
102
RTVSPost2010Prop41ColorRGB
 90
        0
102
RTVSPost2010PropOp41
 70
     1
102
RTVSPost2010Prop42
 90
       50
102
RTVSPost2010PropOp42
 70
     1
102
RTVSPost2010Prop43
 90
        3
102
RTVSPost2010PropOp43
 70
     1
102
RTVSPost2010Prop44ColorIndex
 90
        5
102
RTVSPost2010Prop44ColorRGB
 90
      255
102
RTVSPost2010PropOp44
 70
     1
102
RTVSPost2010Prop45
280
     0
102
RTVSPost2010PropOp45
 70
     1
102
RTVSPost2010Prop46
 90
       50
102
RTVSPost2010PropOp46
 70
     1
102
RTVSPost2010Prop47
 90
       50
102
RTVSPost2010PropOp47
 70
     1
102
RTVSPost2010Prop48
 90
       50
102
RTVSPost2010PropOp48
 70
     1
102
RTVSPost2010Prop49
280
     0
102
RTVSPost2010PropOp49
 70
     1
102
RTVSPost2010Prop50
 90
       50
102
RTVSPost2010PropOp50
 70
     1
102
RTVSPost2010Prop51ColorIndex
 90
      256
102
RTVSPost2010Prop51ColorRGB
 90
-16777216
102
RTVSPost2010PropOp51
 70
     0
102
RTVSPost2010Prop52
140
1.0
102
RTVSPost2010PropOp52
 70
     0
102
RTVSPost2010Prop53
 90
        2
102
RTVSPost2010PropOp53
 70
     1
102
RTVSPost2010Prop54
  1
strokes_ogs.tif
102
RTVSPost2010PropOp54
 70
     1
102
RTVSPost2010Prop55
280
     0
102
RTVSPost2010PropOp55
 70
     1
102
RTVSPost2010Prop56
140
1.0
102
RTVSPost2010PropOp56
 70
     1
102
RTVSPost2010Prop57
140
1.0
102
RTVSPost2010PropOp57
 70
     1
  0
XRECORD
  5
42A
102
{ACAD_REACTORS
330
429
102
}
330
429
100
AcDbXrecord
280
     1
102
RTVSPropertyOp0
 70
     1
102
RTVSPropertyOp1
 70
     1
102
RTVSPropertyOp2
 70
     1
102
RTVSPropertyOp3
 70
     1
102
RTVSPropertyOp4
 70
     1
102
RTVSPropertyOp5
 70
     1
102
RTVSPropertyOp6
 70
     1
102
RTVSPropertyOp7
 70
     1
102
RTVSPropertyOp8
 70
     1
102
RTVSPropertyOp9
 70
     1
102
RTVSPropertyOp10
 70
     1
102
RTVSPropertyOp11
 70
     1
102
RTVSPropertyOp12
 70
     1
102
RTVSPropertyOp13
 70
     1
102
RTVSPropertyOp14
 70
     1
102
RTVSPropertyOp15
 70
     1
102
RTVSPropertyOp16
 70
     1
102
RTVSPropertyOp17
 70
     1
102
RTVSPropertyOp18
 70
     1
102
RTVSPropertyOp19
 70
     1
102
RTVSPropertyOp20
 70
     1
102
RTVSPropertyOp21
 70
     1
102
RTVSPropertyOp22
 70
     1
102
RTVSPropertyOp23
 70
     1
102
RTVSPropertyOp24
 70
     1
102
RTVSPropertyOp25
 70
     1
102
RTVSPropertyOp26
 70
     1
102
RTVSPropertyOp27
 70
     1
102
RTVSPropertyOp28
 70
     1
102
RTVSPropertyOp29
 70
     1
102
RTVSPropertyOp30
 70
     1
102
RTVSPropertyOp31
 70
     1
102
RTVSPropertyOp32
 70
     1
102
RTVSPropertyOp33
 70
     1
102
RTVSPropertyOp34
 70
     1
102
RTVSPropertyOp35
 70
     1
102
RTVSPropertyOp36
 70
     1
102
RTVSPropertyOp37
 70
     1
102
RTVSPropertyOp38
 70
     1
102
RTVSPropertyOp39
 70
     1
102
RTVSPropertyOp40
 70
     1
102
RTVSPropertyOp41
 70
     1
102
RTVSPropertyOp42
 70
     1
102
RTVSPropertyOp43
 70
     1
102
RTVSPropertyOp44
 70
     1
102
RTVSPropertyOp45
 70
     1
102
RTVSPropertyOp46
 70
     1
102
RTVSPropertyOp47
 70
     1
102
RTVSPropertyOp48
 70
     1
102
RTVSPropertyOp49
 70
     1
102
RTVSPropertyOp50
 70
     1
102
RTVSPropertyOp51
 70
     0
102
RTVSPropertyOp52
 70
     0
102
RTVSPropertyOp53
 70
     1
102
RTVSPropertyOp54
 70
     1
102
RTVSPropertyOp55
 70
     1
102
RTVSPropertyOp56
 70
     1
102
RTVSPropertyOp57
 70
     1
102
RTVSPost2010Prop28
280
     0
102
RTVSPost2010PropOp28
 70
     1
102
RTVSPost2010Prop29
280
     1
102
RTVSPost2010PropOp29
 70
     1
102
RTVSPost2010Prop30
280
     1
102
RTVSPost2010PropOp30
 70
     1
102
RTVSPost2010Prop31
280
     0
102
RTVSPost2010PropOp31
 70
     1
102
RTVSPost2010Prop32
280
     0
102
RTVSPost2010PropOp32
 70
     1
102
RTVSPost2010Prop33
280
     0
102
RTVSPost2010PropOp33
 70
     1
102
RTVSPost2010Prop34
280
     0
102
RTVSPost2010PropOp34
 70
     1
102
RTVSPost2010Prop35
280
     0
102
RTVSPost2010PropOp35
 70
     1
102
RTVSPost2010Prop36
280
     0
102
RTVSPost2010PropOp36
 70
     1
102
RTVSPost2010Prop37
 90
       50
102
RTVSPost2010PropOp37
 70
     1
102
RTVSPost2010Prop38
140
0.0
102
RTVSPost2010PropOp38
 70
     1
102
RTVSPost2010Prop39
140
1.0
102
RTVSPost2010PropOp39
 70
     1
102
RTVSPost2010Prop40
 90
        0
102
RTVSPost2010PropOp40
 70
     1
102
RTVSPost2010Prop41ColorIndex
 90
       18
102
RTVSPost2010Prop41ColorRGB
 90
        0
102
RTVSPost2010PropOp41
 70
     1
102
RTVSPost2010Prop42
 90
       50
102
RTVSPost2010PropOp42
 70
     1
102
RTVSPost2010Prop43
 90
        3
102
RTVSPost2010PropOp43
 70
     1
102
RTVSPost2010Prop44ColorIndex
 90
        5
102
RTVSPost2010Prop44ColorRGB
 90
      255
102
RTVSPost2010PropOp44
 70
     1
102
RTVSPost2010Prop45
280
     0
102
RTVSPost2010PropOp45
 70
     1
102
RTVSPost2010Prop46
 90
       50
102
RTVSPost2010PropOp46
 70
     1
102
RTVSPost2010Prop47
 90
       50
102
RTVSPost2010PropOp47
 70
     1
102
RTVSPost2010Prop48
 90
       50
102
RTVSPost2010PropOp48
 70
     1
102
RTVSPost2010Prop49
280
     0
102
RTVSPost2010PropOp49
 70
     1
102
RTVSPost2010Prop50
 90
       50
102
RTVSPost2010PropOp50
 70
     1
102
RTVSPost2010Prop51ColorIndex
 90
      256
102
RTVSPost2010Prop51ColorRGB
 90
-16777216
102
RTVSPost2010PropOp51
 70
     0
102
RTVSPost2010Prop52
140
1.0
102
RTVSPost2010PropOp52
 70
     0
102
RTVSPost2010Prop53
 90
        2
102
RTVSPost2010PropOp53
 70
     1
102
RTVSPost2010Prop54
  1
strokes_ogs.tif
102
RTVSPost2010PropOp54
 70
     1
102
RTVSPost2010Prop55
280
     0
102
RTVSPost2010PropOp55
 70
     1
102
RTVSPost2010Prop56
140
1.0
102
RTVSPost2010PropOp56
 70
     1
102
RTVSPost2010Prop57
140
1.0
102
RTVSPost2010PropOp57
 70
     1
  0
XRECORD
  5
42C
102
{ACAD_REACTORS
330
42B
102
}
330
42B
100
AcDbXrecord
280
     1
102
RTVSPropertyOp0
 70
     1
102
RTVSPropertyOp1
 70
     1
102
RTVSPropertyOp2
 70
     1
102
RTVSPropertyOp3
 70
     1
102
RTVSPropertyOp4
 70
     1
102
RTVSPropertyOp5
 70
     1
102
RTVSPropertyOp6
 70
     1
102
RTVSPropertyOp7
 70
     1
102
RTVSPropertyOp8
 70
     1
102
RTVSPropertyOp9
 70
     1
102
RTVSPropertyOp10
 70
     1
102
RTVSPropertyOp11
 70
     1
102
RTVSPropertyOp12
 70
     1
102
RTVSPropertyOp13
 70
     1
102
RTVSPropertyOp14
 70
     1
102
RTVSPropertyOp15
 70
     1
102
RTVSPropertyOp16
 70
     1
102
RTVSPropertyOp17
 70
     1
102
RTVSPropertyOp18
 70
     1
102
RTVSPropertyOp19
 70
     1
102
RTVSPropertyOp20
 70
     1
102
RTVSPropertyOp21
 70
     1
102
RTVSPropertyOp22
 70
     1
102
RTVSPropertyOp23
 70
     1
102
RTVSPropertyOp24
 70
     1
102
RTVSPropertyOp25
 70
     1
102
RTVSPropertyOp26
 70
     1
102
RTVSPropertyOp27
 70
     1
102
RTVSPropertyOp28
 70
     1
102
RTVSPropertyOp29
 70
     1
102
RTVSPropertyOp30
 70
     1
102
RTVSPropertyOp31
 70
     1
102
RTVSPropertyOp32
 70
     1
102
RTVSPropertyOp33
 70
     1
102
RTVSPropertyOp34
 70
     1
102
RTVSPropertyOp35
 70
     1
102
RTVSPropertyOp36
 70
     1
102
RTVSPropertyOp37
 70
     1
102
RTVSPropertyOp38
 70
     1
102
RTVSPropertyOp39
 70
     1
102
RTVSPropertyOp40
 70
     1
102
RTVSPropertyOp41
 70
     1
102
RTVSPropertyOp42
 70
     1
102
RTVSPropertyOp43
 70
     1
102
RTVSPropertyOp44
 70
     1
102
RTVSPropertyOp45
 70
     1
102
RTVSPropertyOp46
 70
     1
102
RTVSPropertyOp47
 70
     1
102
RTVSPropertyOp48
 70
     1
102
RTVSPropertyOp49
 70
     1
102
RTVSPropertyOp50
 70
     1
102
RTVSPropertyOp51
 70
     0
102
RTVSPropertyOp52
 70
     0
102
RTVSPropertyOp53
 70
     1
102
RTVSPropertyOp54
 70
     1
102
RTVSPropertyOp55
 70
     1
102
RTVSPropertyOp56
 70
     1
102
RTVSPropertyOp57
 70
     1
102
RTVSPost2010Prop28
280
     0
102
RTVSPost2010PropOp28
 70
     1
102
RTVSPost2010Prop29
280
     1
102
RTVSPost2010PropOp29
 70
     1
102
RTVSPost2010Prop30
280
     1
102
RTVSPost2010PropOp30
 70
     1
102
RTVSPost2010Prop31
280
     0
102
RTVSPost2010PropOp31
 70
     1
102
RTVSPost2010Prop32
280
     0
102
RTVSPost2010PropOp32
 70
     1
102
RTVSPost2010Prop33
280
     0
102
RTVSPost2010PropOp33
 70
     1
102
RTVSPost2010Prop34
280
     0
102
RTVSPost2010PropOp34
 70
     1
102
RTVSPost2010Prop35
280
     0
102
RTVSPost2010PropOp35
 70
     1
102
RTVSPost2010Prop36
280
     0
102
RTVSPost2010PropOp36
 70
     1
102
RTVSPost2010Prop37
 90
       50
102
RTVSPost2010PropOp37
 70
     1
102
RTVSPost2010Prop38
140
0.0
102
RTVSPost2010PropOp38
 70
     1
102
RTVSPost2010Prop39
140
1.0
102
RTVSPost2010PropOp39
 70
     1
102
RTVSPost2010Prop40
 90
        0
102
RTVSPost2010PropOp40
 70
     1
102
RTVSPost2010Prop41ColorIndex
 90
       18
102
RTVSPost2010Prop41ColorRGB
 90
        0
102
RTVSPost2010PropOp41
 70
     1
102
RTVSPost2010Prop42
 90
       50
102
RTVSPost2010PropOp42
 70
     1
102
RTVSPost2010Prop43
 90
        3
102
RTVSPost2010PropOp43
 70
     1
102
RTVSPost2010Prop44ColorIndex
 90
        5
102
RTVSPost2010Prop44ColorRGB
 90
      255
102
RTVSPost2010PropOp44
 70
     1
102
RTVSPost2010Prop45
280
     0
102
RTVSPost2010PropOp45
 70
     1
102
RTVSPost2010Prop46
 90
       50
102
RTVSPost2010PropOp46
 70
     1
102
RTVSPost2010Prop47
 90
       50
102
RTVSPost2010PropOp47
 70
     1
102
RTVSPost2010Prop48
 90
       50
102
RTVSPost2010PropOp48
 70
     1
102
RTVSPost2010Prop49
280
     0
102
RTVSPost2010PropOp49
 70
     1
102
RTVSPost2010Prop50
 90
       50
102
RTVSPost2010PropOp50
 70
     1
102
RTVSPost2010Prop51ColorIndex
 90
      256
102
RTVSPost2010Prop51ColorRGB
 90
-16777216
102
RTVSPost2010PropOp51
 70
     0
102
RTVSPost2010Prop52
140
1.0
102
RTVSPost2010PropOp52
 70
     0
102
RTVSPost2010Prop53
 90
        2
102
RTVSPost2010PropOp53
 70
     1
102
RTVSPost2010Prop54
  1
strokes_ogs.tif
102
RTVSPost2010PropOp54
 70
     1
102
RTVSPost2010Prop55
280
     0
102
RTVSPost2010PropOp55
 70
     1
102
RTVSPost2010Prop56
140
1.0
102
RTVSPost2010PropOp56
 70
     1
102
RTVSPost2010Prop57
140
1.0
102
RTVSPost2010PropOp57
 70
     1
  0
XRECORD
  5
42E
102
{ACAD_REACTORS
330
42D
102
}
330
42D
100
AcDbXrecord
280
     1
102
RTVSPropertyOp0
 70
     1
102
RTVSPropertyOp1
 70
     1
102
RTVSPropertyOp2
 70
     1
102
RTVSPropertyOp3
 70
     1
102
RTVSPropertyOp4
 70
     1
102
RTVSPropertyOp5
 70
     1
102
RTVSPropertyOp6
 70
     1
102
RTVSPropertyOp7
 70
     1
102
RTVSPropertyOp8
 70
     1
102
RTVSPropertyOp9
 70
     1
102
RTVSPropertyOp10
 70
     1
102
RTVSPropertyOp11
 70
     1
102
RTVSPropertyOp12
 70
     1
102
RTVSPropertyOp13
 70
     1
102
RTVSPropertyOp14
 70
     1
102
RTVSPropertyOp15
 70
     1
102
RTVSPropertyOp16
 70
     1
102
RTVSPropertyOp17
 70
     1
102
RTVSPropertyOp18
 70
     1
102
RTVSPropertyOp19
 70
     1
102
RTVSPropertyOp20
 70
     1
102
RTVSPropertyOp21
 70
     1
102
RTVSPropertyOp22
 70
     1
102
RTVSPropertyOp23
 70
     1
102
RTVSPropertyOp24
 70
     1
102
RTVSPropertyOp25
 70
     1
102
RTVSPropertyOp26
 70
     1
102
RTVSPropertyOp27
 70
     1
102
RTVSPropertyOp28
 70
     1
102
RTVSPropertyOp29
 70
     1
102
RTVSPropertyOp30
 70
     1
102
RTVSPropertyOp31
 70
     1
102
RTVSPropertyOp32
 70
     1
102
RTVSPropertyOp33
 70
     1
102
RTVSPropertyOp34
 70
     1
102
RTVSPropertyOp35
 70
     1
102
RTVSPropertyOp36
 70
     1
102
RTVSPropertyOp37
 70
     1
102
RTVSPropertyOp38
 70
     1
102
RTVSPropertyOp39
 70
     1
102
RTVSPropertyOp40
 70
     1
102
RTVSPropertyOp41
 70
     1
102
RTVSPropertyOp42
 70
     1
102
RTVSPropertyOp43
 70
     1
102
RTVSPropertyOp44
 70
     1
102
RTVSPropertyOp45
 70
     1
102
RTVSPropertyOp46
 70
     1
102
RTVSPropertyOp47
 70
     1
102
RTVSPropertyOp48
 70
     1
102
RTVSPropertyOp49
 70
     1
102
RTVSPropertyOp50
 70
     1
102
RTVSPropertyOp51
 70
     0
102
RTVSPropertyOp52
 70
     0
102
RTVSPropertyOp53
 70
     1
102
RTVSPropertyOp54
 70
     1
102
RTVSPropertyOp55
 70
     1
102
RTVSPropertyOp56
 70
     1
102
RTVSPropertyOp57
 70
     1
102
RTVSPost2010Prop28
280
     0
102
RTVSPost2010PropOp28
 70
     1
102
RTVSPost2010Prop29
280
     1
102
RTVSPost2010PropOp29
 70
     1
102
RTVSPost2010Prop30
280
     1
102
RTVSPost2010PropOp30
 70
     1
102
RTVSPost2010Prop31
280
     0
102
RTVSPost2010PropOp31
 70
     1
102
RTVSPost2010Prop32
280
     0
102
RTVSPost2010PropOp32
 70
     1
102
RTVSPost2010Prop33
280
     0
102
RTVSPost2010PropOp33
 70
     1
102
RTVSPost2010Prop34
280
     0
102
RTVSPost2010PropOp34
 70
     1
102
RTVSPost2010Prop35
280
     0
102
RTVSPost2010PropOp35
 70
     1
102
RTVSPost2010Prop36
280
     0
102
RTVSPost2010PropOp36
 70
     1
102
RTVSPost2010Prop37
 90
       50
102
RTVSPost2010PropOp37
 70
     1
102
RTVSPost2010Prop38
140
0.0
102
RTVSPost2010PropOp38
 70
     1
102
RTVSPost2010Prop39
140
1.0
102
RTVSPost2010PropOp39
 70
     1
102
RTVSPost2010Prop40
 90
        0
102
RTVSPost2010PropOp40
 70
     1
102
RTVSPost2010Prop41ColorIndex
 90
       18
102
RTVSPost2010Prop41ColorRGB
 90
        0
102
RTVSPost2010PropOp41
 70
     1
102
RTVSPost2010Prop42
 90
       50
102
RTVSPost2010PropOp42
 70
     1
102
RTVSPost2010Prop43
 90
        3
102
RTVSPost2010PropOp43
 70
     1
102
RTVSPost2010Prop44ColorIndex
 90
        5
102
RTVSPost2010Prop44ColorRGB
 90
      255
102
RTVSPost2010PropOp44
 70
     1
102
RTVSPost2010Prop45
280
     0
102
RTVSPost2010PropOp45
 70
     1
102
RTVSPost2010Prop46
 90
       50
102
RTVSPost2010PropOp46
 70
     1
102
RTVSPost2010Prop47
 90
       50
102
RTVSPost2010PropOp47
 70
     1
102
RTVSPost2010Prop48
 90
       50
102
RTVSPost2010PropOp48
 70
     1
102
RTVSPost2010Prop49
280
     0
102
RTVSPost2010PropOp49
 70
     1
102
RTVSPost2010Prop50
 90
       50
102
RTVSPost2010PropOp50
 70
     1
102
RTVSPost2010Prop51ColorIndex
 90
      256
102
RTVSPost2010Prop51ColorRGB
 90
-16777216
102
RTVSPost2010PropOp51
 70
     0
102
RTVSPost2010Prop52
140
1.0
102
RTVSPost2010PropOp52
 70
     0
102
RTVSPost2010Prop53
 90
        2
102
RTVSPost2010PropOp53
 70
     1
102
RTVSPost2010Prop54
  1
strokes_ogs.tif
102
RTVSPost2010PropOp54
 70
     1
102
RTVSPost2010Prop55
280
     0
102
RTVSPost2010PropOp55
 70
     1
102
RTVSPost2010Prop56
140
1.0
102
RTVSPost2010PropOp56
 70
     1
102
RTVSPost2010Prop57
140
1.0
102
RTVSPost2010PropOp57
 70
     1
  0
XRECORD
  5
434
102
{ACAD_REACTORS
330
433
102
}
330
433
100
AcDbXrecord
280
     1
102
RTVSPropertyOp0
 70
     1
102
RTVSPropertyOp1
 70
     1
102
RTVSPropertyOp2
 70
     1
102
RTVSPropertyOp3
 70
     1
102
RTVSPropertyOp4
 70
     1
102
RTVSPropertyOp5
 70
     1
102
RTVSPropertyOp6
 70
     1
102
RTVSPropertyOp7
 70
     1
102
RTVSPropertyOp8
 70
     1
102
RTVSPropertyOp9
 70
     1
102
RTVSPropertyOp10
 70
     1
102
RTVSPropertyOp11
 70
     1
102
RTVSPropertyOp12
 70
     1
102
RTVSPropertyOp13
 70
     1
102
RTVSPropertyOp14
 70
     1
102
RTVSPropertyOp15
 70
     1
102
RTVSPropertyOp16
 70
     1
102
RTVSPropertyOp17
 70
     1
102
RTVSPropertyOp18
 70
     1
102
RTVSPropertyOp19
 70
     1
102
RTVSPropertyOp20
 70
     1
102
RTVSPropertyOp21
 70
     1
102
RTVSPropertyOp22
 70
     1
102
RTVSPropertyOp23
 70
     1
102
RTVSPropertyOp24
 70
     1
102
RTVSPropertyOp25
 70
     1
102
RTVSPropertyOp26
 70
     1
102
RTVSPropertyOp27
 70
     1
102
RTVSPropertyOp28
 70
     1
102
RTVSPropertyOp29
 70
     1
102
RTVSPropertyOp30
 70
     1
102
RTVSPropertyOp31
 70
     1
102
RTVSPropertyOp32
 70
     1
102
RTVSPropertyOp33
 70
     1
102
RTVSPropertyOp34
 70
     1
102
RTVSPropertyOp35
 70
     1
102
RTVSPropertyOp36
 70
     1
102
RTVSPropertyOp37
 70
     1
102
RTVSPropertyOp38
 70
     1
102
RTVSPropertyOp39
 70
     1
102
RTVSPropertyOp40
 70
     1
102
RTVSPropertyOp41
 70
     1
102
RTVSPropertyOp42
 70
     1
102
RTVSPropertyOp43
 70
     1
102
RTVSPropertyOp44
 70
     1
102
RTVSPropertyOp45
 70
     1
102
RTVSPropertyOp46
 70
     1
102
RTVSPropertyOp47
 70
     1
102
RTVSPropertyOp48
 70
     1
102
RTVSPropertyOp49
 70
     1
102
RTVSPropertyOp50
 70
     1
102
RTVSPropertyOp51
 70
     0
102
RTVSPropertyOp52
 70
     0
102
RTVSPropertyOp53
 70
     1
102
RTVSPropertyOp54
 70
     1
102
RTVSPropertyOp55
 70
     1
102
RTVSPropertyOp56
 70
     1
102
RTVSPropertyOp57
 70
     1
102
RTVSPost2010Prop28
280
     0
102
RTVSPost2010PropOp28
 70
     1
102
RTVSPost2010Prop29
280
     1
102
RTVSPost2010PropOp29
 70
     1
102
RTVSPost2010Prop30
280
     1
102
RTVSPost2010PropOp30
 70
     1
102
RTVSPost2010Prop31
280
     0
102
RTVSPost2010PropOp31
 70
     1
102
RTVSPost2010Prop32
280
     0
102
RTVSPost2010PropOp32
 70
     1
102
RTVSPost2010Prop33
280
     0
102
RTVSPost2010PropOp33
 70
     1
102
RTVSPost2010Prop34
280
     0
102
RTVSPost2010PropOp34
 70
     1
102
RTVSPost2010Prop35
280
     0
102
RTVSPost2010PropOp35
 70
     1
102
RTVSPost2010Prop36
280
     0
102
RTVSPost2010PropOp36
 70
     1
102
RTVSPost2010Prop37
 90
       50
102
RTVSPost2010PropOp37
 70
     1
102
RTVSPost2010Prop38
140
0.0
102
RTVSPost2010PropOp38
 70
     1
102
RTVSPost2010Prop39
140
1.0
102
RTVSPost2010PropOp39
 70
     1
102
RTVSPost2010Prop40
 90
        0
102
RTVSPost2010PropOp40
 70
     1
102
RTVSPost2010Prop41ColorIndex
 90
       18
102
RTVSPost2010Prop41ColorRGB
 90
        0
102
RTVSPost2010PropOp41
 70
     1
102
RTVSPost2010Prop42
 90
       50
102
RTVSPost2010PropOp42
 70
     1
102
RTVSPost2010Prop43
 90
        3
102
RTVSPost2010PropOp43
 70
     1
102
RTVSPost2010Prop44ColorIndex
 90
        5
102
RTVSPost2010Prop44ColorRGB
 90
      255
102
RTVSPost2010PropOp44
 70
     1
102
RTVSPost2010Prop45
280
     0
102
RTVSPost2010PropOp45
 70
     1
102
RTVSPost2010Prop46
 90
       50
102
RTVSPost2010PropOp46
 70
     1
102
RTVSPost2010Prop47
 90
       50
102
RTVSPost2010PropOp47
 70
     1
102
RTVSPost2010Prop48
 90
       50
102
RTVSPost2010PropOp48
 70
     1
102
RTVSPost2010Prop49
280
     0
102
RTVSPost2010PropOp49
 70
     1
102
RTVSPost2010Prop50
 90
       50
102
RTVSPost2010PropOp50
 70
     1
102
RTVSPost2010Prop51ColorIndex
 90
      256
102
RTVSPost2010Prop51ColorRGB
 90
-16777216
102
RTVSPost2010PropOp51
 70
     0
102
RTVSPost2010Prop52
140
1.0
102
RTVSPost2010PropOp52
 70
     0
102
RTVSPost2010Prop53
 90
        2
102
RTVSPost2010PropOp53
 70
     1
102
RTVSPost2010Prop54
  1
strokes_ogs.tif
102
RTVSPost2010PropOp54
 70
     1
102
RTVSPost2010Prop55
280
     0
102
RTVSPost2010PropOp55
 70
     1
102
RTVSPost2010Prop56
140
1.0
102
RTVSPost2010PropOp56
 70
     1
102
RTVSPost2010Prop57
140
1.0
102
RTVSPost2010PropOp57
 70
     1
  0
XRECORD
  5
448
102
{ACAD_REACTORS
330
447
102
}
330
447
100
AcDbXrecord
280
     1
102
RTVSPropertyOp0
 70
     0
102
RTVSPropertyOp1
 70
     0
102
RTVSPropertyOp2
 70
     0
102
RTVSPropertyOp3
 70
     0
102
RTVSPropertyOp4
 70
     0
102
RTVSPropertyOp5
 70
     0
102
RTVSPropertyOp6
 70
     0
102
RTVSPropertyOp7
 70
     0
102
RTVSPropertyOp8
 70
     0
102
RTVSPropertyOp9
 70
     0
102
RTVSPropertyOp10
 70
     0
102
RTVSPropertyOp11
 70
     0
102
RTVSPropertyOp12
 70
     0
102
RTVSPropertyOp13
 70
     0
102
RTVSPropertyOp14
 70
     2
102
RTVSPropertyOp15
 70
     0
102
RTVSPropertyOp16
 70
     0
102
RTVSPropertyOp17
 70
     0
102
RTVSPropertyOp18
 70
     0
102
RTVSPropertyOp19
 70
     0
102
RTVSPropertyOp20
 70
     0
102
RTVSPropertyOp21
 70
     0
102
RTVSPropertyOp22
 70
     0
102
RTVSPropertyOp23
 70
     0
102
RTVSPropertyOp24
 70
     0
102
RTVSPropertyOp25
 70
     0
102
RTVSPropertyOp26
 70
     0
102
RTVSPropertyOp27
 70
     0
102
RTVSPropertyOp28
 70
     0
102
RTVSPropertyOp29
 70
     0
102
RTVSPropertyOp30
 70
     0
102
RTVSPropertyOp31
 70
     0
102
RTVSPropertyOp32
 70
     0
102
RTVSPropertyOp33
 70
     0
102
RTVSPropertyOp34
 70
     0
102
RTVSPropertyOp35
 70
     0
102
RTVSPropertyOp36
 70
     0
102
RTVSPropertyOp37
 70
     0
102
RTVSPropertyOp38
 70
     0
102
RTVSPropertyOp39
 70
     0
102
RTVSPropertyOp40
 70
     0
102
RTVSPropertyOp41
 70
     0
102
RTVSPropertyOp42
 70
     0
102
RTVSPropertyOp43
 70
     0
102
RTVSPropertyOp44
 70
     0
102
RTVSPropertyOp45
 70
     0
102
RTVSPropertyOp46
 70
     0
102
RTVSPropertyOp47
 70
     0
102
RTVSPropertyOp48
 70
     0
102
RTVSPropertyOp49
 70
     0
102
RTVSPropertyOp50
 70
     0
102
RTVSPropertyOp51
 70
     0
102
RTVSPropertyOp52
 70
     0
102
RTVSPropertyOp53
 70
     0
102
RTVSPropertyOp54
 70
     0
102
RTVSPropertyOp55
 70
     0
102
RTVSPropertyOp56
 70
     0
102
RTVSPropertyOp57
 70
     0
102
RTVSPost2010Prop28
280
     0
102
RTVSPost2010PropOp28
 70
     0
102
RTVSPost2010Prop29
280
     1
102
RTVSPost2010PropOp29
 70
     0
102
RTVSPost2010Prop30
280
     1
102
RTVSPost2010PropOp30
 70
     0
102
RTVSPost2010Prop31
280
     0
102
RTVSPost2010PropOp31
 70
     0
102
RTVSPost2010Prop32
280
     0
102
RTVSPost2010PropOp32
 70
     0
102
RTVSPost2010Prop33
280
     0
102
RTVSPost2010PropOp33
 70
     0
102
RTVSPost2010Prop34
280
     0
102
RTVSPost2010PropOp34
 70
     0
102
RTVSPost2010Prop35
280
     0
102
RTVSPost2010PropOp35
 70
     0
102
RTVSPost2010Prop36
280
     0
102
RTVSPost2010PropOp36
 70
     0
102
RTVSPost2010Prop37
 90
       50
102
RTVSPost2010PropOp37
 70
     0
102
RTVSPost2010Prop38
140
0.0
102
RTVSPost2010PropOp38
 70
     0
102
RTVSPost2010Prop39
140
1.0
102
RTVSPost2010PropOp39
 70
     0
102
RTVSPost2010Prop40
 90
        0
102
RTVSPost2010PropOp40
 70
     0
102
RTVSPost2010Prop41ColorIndex
 90
       18
102
RTVSPost2010Prop41ColorRGB
 90
        0
102
RTVSPost2010PropOp41
 70
     0
102
RTVSPost2010Prop42
 90
       50
102
RTVSPost2010PropOp42
 70
     0
102
RTVSPost2010Prop43
 90
        3
102
RTVSPost2010PropOp43
 70
     0
102
RTVSPost2010Prop44ColorIndex
 90
        5
102
RTVSPost2010Prop44ColorRGB
 90
      255
102
RTVSPost2010PropOp44
 70
     0
102
RTVSPost2010Prop45
280
     0
102
RTVSPost2010PropOp45
 70
     0
102
RTVSPost2010Prop46
 90
       50
102
RTVSPost2010PropOp46
 70
     0
102
RTVSPost2010Prop47
 90
       50
102
RTVSPost2010PropOp47
 70
     0
102
RTVSPost2010Prop48
 90
       50
102
RTVSPost2010PropOp48
 70
     0
102
RTVSPost2010Prop49
280
     0
102
RTVSPost2010PropOp49
 70
     0
102
RTVSPost2010Prop50
 90
       50
102
RTVSPost2010PropOp50
 70
     0
102
RTVSPost2010Prop51ColorIndex
 90
      256
102
RTVSPost2010Prop51ColorRGB
 90
-16777216
102
RTVSPost2010PropOp51
 70
     0
102
RTVSPost2010Prop52
140
1.0
102
RTVSPost2010PropOp52
 70
     0
102
RTVSPost2010Prop53
 90
        2
102
RTVSPost2010PropOp53
 70
     0
102
RTVSPost2010Prop54
  1
strokes_ogs.tif
102
RTVSPost2010PropOp54
 70
     0
102
RTVSPost2010Prop55
280
     0
102
RTVSPost2010PropOp55
 70
     0
102
RTVSPost2010Prop56
140
1.0
102
RTVSPost2010PropOp56
 70
     0
102
RTVSPost2010Prop57
140
1.0
102
RTVSPost2010PropOp57
 70
     0
  0
XRECORD
  5
442
102
{ACAD_REACTORS
330
441
102
}
330
441
100
AcDbXrecord
280
     1
102
RTVSPropertyOp0
 70
     1
102
RTVSPropertyOp1
 70
     1
102
RTVSPropertyOp2
 70
     1
102
RTVSPropertyOp3
 70
     1
102
RTVSPropertyOp4
 70
     1
102
RTVSPropertyOp5
 70
     1
102
RTVSPropertyOp6
 70
     1
102
RTVSPropertyOp7
 70
     1
102
RTVSPropertyOp8
 70
     1
102
RTVSPropertyOp9
 70
     1
102
RTVSPropertyOp10
 70
     1
102
RTVSPropertyOp11
 70
     1
102
RTVSPropertyOp12
 70
     1
102
RTVSPropertyOp13
 70
     1
102
RTVSPropertyOp14
 70
     1
102
RTVSPropertyOp15
 70
     1
102
RTVSPropertyOp16
 70
     1
102
RTVSPropertyOp17
 70
     1
102
RTVSPropertyOp18
 70
     1
102
RTVSPropertyOp19
 70
     1
102
RTVSPropertyOp20
 70
     1
102
RTVSPropertyOp21
 70
     1
102
RTVSPropertyOp22
 70
     1
102
RTVSPropertyOp23
 70
     1
102
RTVSPropertyOp24
 70
     1
102
RTVSPropertyOp25
 70
     1
102
RTVSPropertyOp26
 70
     1
102
RTVSPropertyOp27
 70
     1
102
RTVSPropertyOp28
 70
     1
102
RTVSPropertyOp29
 70
     1
102
RTVSPropertyOp30
 70
     1
102
RTVSPropertyOp31
 70
     1
102
RTVSPropertyOp32
 70
     1
102
RTVSPropertyOp33
 70
     1
102
RTVSPropertyOp34
 70
     1
102
RTVSPropertyOp35
 70
     1
102
RTVSPropertyOp36
 70
     1
102
RTVSPropertyOp37
 70
     1
102
RTVSPropertyOp38
 70
     1
102
RTVSPropertyOp39
 70
     1
102
RTVSPropertyOp40
 70
     1
102
RTVSPropertyOp41
 70
     1
102
RTVSPropertyOp42
 70
     1
102
RTVSPropertyOp43
 70
     1
102
RTVSPropertyOp44
 70
     1
102
RTVSPropertyOp45
 70
     1
102
RTVSPropertyOp46
 70
     1
102
RTVSPropertyOp47
 70
     1
102
RTVSPropertyOp48
 70
     1
102
RTVSPropertyOp49
 70
     1
102
RTVSPropertyOp50
 70
     1
102
RTVSPropertyOp51
 70
     0
102
RTVSPropertyOp52
 70
     0
102
RTVSPropertyOp53
 70
     1
102
RTVSPropertyOp54
 70
     1
102
RTVSPropertyOp55
 70
     1
102
RTVSPropertyOp56
 70
     1
102
RTVSPropertyOp57
 70
     1
102
RTVSPost2010Prop28
280
     0
102
RTVSPost2010PropOp28
 70
     1
102
RTVSPost2010Prop29
280
     1
102
RTVSPost2010PropOp29
 70
     1
102
RTVSPost2010Prop30
280
     1
102
RTVSPost2010PropOp30
 70
     1
102
RTVSPost2010Prop31
280
     0
102
RTVSPost2010PropOp31
 70
     1
102
RTVSPost2010Prop32
280
     0
102
RTVSPost2010PropOp32
 70
     1
102
RTVSPost2010Prop33
280
     0
102
RTVSPost2010PropOp33
 70
     1
102
RTVSPost2010Prop34
280
     0
102
RTVSPost2010PropOp34
 70
     1
102
RTVSPost2010Prop35
280
     0
102
RTVSPost2010PropOp35
 70
     1
102
RTVSPost2010Prop36
280
     0
102
RTVSPost2010PropOp36
 70
     1
102
RTVSPost2010Prop37
 90
       50
102
RTVSPost2010PropOp37
 70
     1
102
RTVSPost2010Prop38
140
0.0
102
RTVSPost2010PropOp38
 70
     1
102
RTVSPost2010Prop39
140
1.0
102
RTVSPost2010PropOp39
 70
     1
102
RTVSPost2010Prop40
 90
        0
102
RTVSPost2010PropOp40
 70
     1
102
RTVSPost2010Prop41ColorIndex
 90
       18
102
RTVSPost2010Prop41ColorRGB
 90
        0
102
RTVSPost2010PropOp41
 70
     1
102
RTVSPost2010Prop42
 90
       50
102
RTVSPost2010PropOp42
 70
     1
102
RTVSPost2010Prop43
 90
        3
102
RTVSPost2010PropOp43
 70
     1
102
RTVSPost2010Prop44ColorIndex
 90
        5
102
RTVSPost2010Prop44ColorRGB
 90
      255
102
RTVSPost2010PropOp44
 70
     1
102
RTVSPost2010Prop45
280
     0
102
RTVSPost2010PropOp45
 70
     1
102
RTVSPost2010Prop46
 90
       50
102
RTVSPost2010PropOp46
 70
     1
102
RTVSPost2010Prop47
 90
       50
102
RTVSPost2010PropOp47
 70
     1
102
RTVSPost2010Prop48
 90
       50
102
RTVSPost2010PropOp48
 70
     1
102
RTVSPost2010Prop49
280
     0
102
RTVSPost2010PropOp49
 70
     1
102
RTVSPost2010Prop50
 90
       50
102
RTVSPost2010PropOp50
 70
     1
102
RTVSPost2010Prop51ColorIndex
 90
      256
102
RTVSPost2010Prop51ColorRGB
 90
-16777216
102
RTVSPost2010PropOp51
 70
     0
102
RTVSPost2010Prop52
140
1.0
102
RTVSPost2010PropOp52
 70
     0
102
RTVSPost2010Prop53
 90
        2
102
RTVSPost2010PropOp53
 70
     1
102
RTVSPost2010Prop54
  1
strokes_ogs.tif
102
RTVSPost2010PropOp54
 70
     1
102
RTVSPost2010Prop55
280
     0
102
RTVSPost2010PropOp55
 70
     1
102
RTVSPost2010Prop56
140
1.0
102
RTVSPost2010PropOp56
 70
     1
102
RTVSPost2010Prop57
140
1.0
102
RTVSPost2010PropOp57
 70
     1
  0
XRECORD
  5
44A
102
{ACAD_REACTORS
330
449
102
}
330
449
100
AcDbXrecord
280
     1
102
RTVSPropertyOp0
 70
     0
102
RTVSPropertyOp1
 70
     0
102
RTVSPropertyOp2
 70
     0
102
RTVSPropertyOp3
 70
     0
102
RTVSPropertyOp4
 70
     0
102
RTVSPropertyOp5
 70
     0
102
RTVSPropertyOp6
 70
     0
102
RTVSPropertyOp7
 70
     0
102
RTVSPropertyOp8
 70
     0
102
RTVSPropertyOp9
 70
     0
102
RTVSPropertyOp10
 70
     0
102
RTVSPropertyOp11
 70
     0
102
RTVSPropertyOp12
 70
     0
102
RTVSPropertyOp13
 70
     0
102
RTVSPropertyOp14
 70
     2
102
RTVSPropertyOp15
 70
     0
102
RTVSPropertyOp16
 70
     0
102
RTVSPropertyOp17
 70
     0
102
RTVSPropertyOp18
 70
     0
102
RTVSPropertyOp19
 70
     0
102
RTVSPropertyOp20
 70
     0
102
RTVSPropertyOp21
 70
     0
102
RTVSPropertyOp22
 70
     0
102
RTVSPropertyOp23
 70
     0
102
RTVSPropertyOp24
 70
     0
102
RTVSPropertyOp25
 70
     0
102
RTVSPropertyOp26
 70
     0
102
RTVSPropertyOp27
 70
     0
102
RTVSPropertyOp28
 70
     0
102
RTVSPropertyOp29
 70
     0
102
RTVSPropertyOp30
 70
     0
102
RTVSPropertyOp31
 70
     0
102
RTVSPropertyOp32
 70
     0
102
RTVSPropertyOp33
 70
     0
102
RTVSPropertyOp34
 70
     0
102
RTVSPropertyOp35
 70
     0
102
RTVSPropertyOp36
 70
     0
102
RTVSPropertyOp37
 70
     0
102
RTVSPropertyOp38
 70
     0
102
RTVSPropertyOp39
 70
     0
102
RTVSPropertyOp40
 70
     0
102
RTVSPropertyOp41
 70
     0
102
RTVSPropertyOp42
 70
     0
102
RTVSPropertyOp43
 70
     0
102
RTVSPropertyOp44
 70
     0
102
RTVSPropertyOp45
 70
     0
102
RTVSPropertyOp46
 70
     0
102
RTVSPropertyOp47
 70
     0
102
RTVSPropertyOp48
 70
     0
102
RTVSPropertyOp49
 70
     0
102
RTVSPropertyOp50
 70
     0
102
RTVSPropertyOp51
 70
     0
102
RTVSPropertyOp52
 70
     0
102
RTVSPropertyOp53
 70
     0
102
RTVSPropertyOp54
 70
     0
102
RTVSPropertyOp55
 70
     0
102
RTVSPropertyOp56
 70
     0
102
RTVSPropertyOp57
 70
     0
102
RTVSPost2010Prop28
280
     0
102
RTVSPost2010PropOp28
 70
     0
102
RTVSPost2010Prop29
280
     1
102
RTVSPost2010PropOp29
 70
     0
102
RTVSPost2010Prop30
280
     1
102
RTVSPost2010PropOp30
 70
     0
102
RTVSPost2010Prop31
280
     0
102
RTVSPost2010PropOp31
 70
     0
102
RTVSPost2010Prop32
280
     0
102
RTVSPost2010PropOp32
 70
     0
102
RTVSPost2010Prop33
280
     0
102
RTVSPost2010PropOp33
 70
     0
102
RTVSPost2010Prop34
280
     0
102
RTVSPost2010PropOp34
 70
     0
102
RTVSPost2010Prop35
280
     0
102
RTVSPost2010PropOp35
 70
     0
102
RTVSPost2010Prop36
280
     0
102
RTVSPost2010PropOp36
 70
     0
102
RTVSPost2010Prop37
 90
       50
102
RTVSPost2010PropOp37
 70
     0
102
RTVSPost2010Prop38
140
0.0
102
RTVSPost2010PropOp38
 70
     0
102
RTVSPost2010Prop39
140
1.0
102
RTVSPost2010PropOp39
 70
     0
102
RTVSPost2010Prop40
 90
        0
102
RTVSPost2010PropOp40
 70
     0
102
RTVSPost2010Prop41ColorIndex
 90
       18
102
RTVSPost2010Prop41ColorRGB
 90
        0
102
RTVSPost2010PropOp41
 70
     0
102
RTVSPost2010Prop42
 90
       50
102
RTVSPost2010PropOp42
 70
     0
102
RTVSPost2010Prop43
 90
        3
102
RTVSPost2010PropOp43
 70
     0
102
RTVSPost2010Prop44ColorIndex
 90
        5
102
RTVSPost2010Prop44ColorRGB
 90
      255
102
RTVSPost2010PropOp44
 70
     0
102
RTVSPost2010Prop45
280
     0
102
RTVSPost2010PropOp45
 70
     0
102
RTVSPost2010Prop46
 90
       50
102
RTVSPost2010PropOp46
 70
     0
102
RTVSPost2010Prop47
 90
       50
102
RTVSPost2010PropOp47
 70
     0
102
RTVSPost2010Prop48
 90
       50
102
RTVSPost2010PropOp48
 70
     0
102
RTVSPost2010Prop49
280
     0
102
RTVSPost2010PropOp49
 70
     0
102
RTVSPost2010Prop50
 90
       50
102
RTVSPost2010PropOp50
 70
     0
102
RTVSPost2010Prop51ColorIndex
 90
      256
102
RTVSPost2010Prop51ColorRGB
 90
-16777216
102
RTVSPost2010PropOp51
 70
     0
102
RTVSPost2010Prop52
140
1.0
102
RTVSPost2010PropOp52
 70
     0
102
RTVSPost2010Prop53
 90
        2
102
RTVSPost2010PropOp53
 70
     0
102
RTVSPost2010Prop54
  1
strokes_ogs.tif
102
RTVSPost2010PropOp54
 70
     0
102
RTVSPost2010Prop55
280
     0
102
RTVSPost2010PropOp55
 70
     0
102
RTVSPost2010Prop56
140
1.0
102
RTVSPost2010PropOp56
 70
     0
102
RTVSPost2010Prop57
140
1.0
102
RTVSPost2010PropOp57
 70
     0
  0
XRECORD
  5
438
102
{ACAD_REACTORS
330
437
102
}
330
437
100
AcDbXrecord
280
     1
102
RTVSPropertyOp0
 70
     1
102
RTVSPropertyOp1
 70
     1
102
RTVSPropertyOp2
 70
     1
102
RTVSPropertyOp3
 70
     1
102
RTVSPropertyOp4
 70
     1
102
RTVSPropertyOp5
 70
     1
102
RTVSPropertyOp6
 70
     1
102
RTVSPropertyOp7
 70
     1
102
RTVSPropertyOp8
 70
     1
102
RTVSPropertyOp9
 70
     1
102
RTVSPropertyOp10
 70
     1
102
RTVSPropertyOp11
 70
     1
102
RTVSPropertyOp12
 70
     1
102
RTVSPropertyOp13
 70
     1
102
RTVSPropertyOp14
 70
     1
102
RTVSPropertyOp15
 70
     1
102
RTVSPropertyOp16
 70
     1
102
RTVSPropertyOp17
 70
     1
102
RTVSPropertyOp18
 70
     1
102
RTVSPropertyOp19
 70
     1
102
RTVSPropertyOp20
 70
     1
102
RTVSPropertyOp21
 70
     1
102
RTVSPropertyOp22
 70
     1
102
RTVSPropertyOp23
 70
     1
102
RTVSPropertyOp24
 70
     1
102
RTVSPropertyOp25
 70
     1
102
RTVSPropertyOp26
 70
     1
102
RTVSPropertyOp27
 70
     1
102
RTVSPropertyOp28
 70
     1
102
RTVSPropertyOp29
 70
     1
102
RTVSPropertyOp30
 70
     1
102
RTVSPropertyOp31
 70
     1
102
RTVSPropertyOp32
 70
     1
102
RTVSPropertyOp33
 70
     1
102
RTVSPropertyOp34
 70
     1
102
RTVSPropertyOp35
 70
     1
102
RTVSPropertyOp36
 70
     1
102
RTVSPropertyOp37
 70
     1
102
RTVSPropertyOp38
 70
     1
102
RTVSPropertyOp39
 70
     1
102
RTVSPropertyOp40
 70
     1
102
RTVSPropertyOp41
 70
     1
102
RTVSPropertyOp42
 70
     1
102
RTVSPropertyOp43
 70
     1
102
RTVSPropertyOp44
 70
     1
102
RTVSPropertyOp45
 70
     1
102
RTVSPropertyOp46
 70
     1
102
RTVSPropertyOp47
 70
     1
102
RTVSPropertyOp48
 70
     1
102
RTVSPropertyOp49
 70
     1
102
RTVSPropertyOp50
 70
     1
102
RTVSPropertyOp51
 70
     0
102
RTVSPropertyOp52
 70
     0
102
RTVSPropertyOp53
 70
     1
102
RTVSPropertyOp54
 70
     1
102
RTVSPropertyOp55
 70
     1
102
RTVSPropertyOp56
 70
     1
102
RTVSPropertyOp57
 70
     1
102
RTVSPost2010Prop28
280
     0
102
RTVSPost2010PropOp28
 70
     1
102
RTVSPost2010Prop29
280
     1
102
RTVSPost2010PropOp29
 70
     1
102
RTVSPost2010Prop30
280
     1
102
RTVSPost2010PropOp30
 70
     1
102
RTVSPost2010Prop31
280
     0
102
RTVSPost2010PropOp31
 70
     1
102
RTVSPost2010Prop32
280
     0
102
RTVSPost2010PropOp32
 70
     1
102
RTVSPost2010Prop33
280
     0
102
RTVSPost2010PropOp33
 70
     1
102
RTVSPost2010Prop34
280
     0
102
RTVSPost2010PropOp34
 70
     1
102
RTVSPost2010Prop35
280
     0
102
RTVSPost2010PropOp35
 70
     1
102
RTVSPost2010Prop36
280
     0
102
RTVSPost2010PropOp36
 70
     1
102
RTVSPost2010Prop37
 90
       50
102
RTVSPost2010PropOp37
 70
     1
102
RTVSPost2010Prop38
140
0.0
102
RTVSPost2010PropOp38
 70
     1
102
RTVSPost2010Prop39
140
1.0
102
RTVSPost2010PropOp39
 70
     1
102
RTVSPost2010Prop40
 90
        0
102
RTVSPost2010PropOp40
 70
     1
102
RTVSPost2010Prop41ColorIndex
 90
       18
102
RTVSPost2010Prop41ColorRGB
 90
        0
102
RTVSPost2010PropOp41
 70
     1
102
RTVSPost2010Prop42
 90
       50
102
RTVSPost2010PropOp42
 70
     1
102
RTVSPost2010Prop43
 90
        3
102
RTVSPost2010PropOp43
 70
     1
102
RTVSPost2010Prop44ColorIndex
 90
        5
102
RTVSPost2010Prop44ColorRGB
 90
      255
102
RTVSPost2010PropOp44
 70
     1
102
RTVSPost2010Prop45
280
     0
102
RTVSPost2010PropOp45
 70
     1
102
RTVSPost2010Prop46
 90
       50
102
RTVSPost2010PropOp46
 70
     1
102
RTVSPost2010Prop47
 90
       50
102
RTVSPost2010PropOp47
 70
     1
102
RTVSPost2010Prop48
 90
       50
102
RTVSPost2010PropOp48
 70
     1
102
RTVSPost2010Prop49
280
     0
102
RTVSPost2010PropOp49
 70
     1
102
RTVSPost2010Prop50
 90
       50
102
RTVSPost2010PropOp50
 70
     1
102
RTVSPost2010Prop51ColorIndex
 90
      256
102
RTVSPost2010Prop51ColorRGB
 90
-16777216
102
RTVSPost2010PropOp51
 70
     0
102
RTVSPost2010Prop52
140
1.0
102
RTVSPost2010PropOp52
 70
     0
102
RTVSPost2010Prop53
 90
        2
102
RTVSPost2010PropOp53
 70
     1
102
RTVSPost2010Prop54
  1
strokes_ogs.tif
102
RTVSPost2010PropOp54
 70
     1
102
RTVSPost2010Prop55
280
     0
102
RTVSPost2010PropOp55
 70
     1
102
RTVSPost2010Prop56
140
1.0
102
RTVSPost2010PropOp56
 70
     1
102
RTVSPost2010Prop57
140
1.0
102
RTVSPost2010PropOp57
 70
     1
  0
XRECORD
  5
456
102
{ACAD_REACTORS
330
455
102
}
330
455
100
AcDbXrecord
280
     1
102
RTVSPropertyOp0
 70
     1
102
RTVSPropertyOp1
 70
     1
102
RTVSPropertyOp2
 70
     1
102
RTVSPropertyOp3
 70
     1
102
RTVSPropertyOp4
 70
     1
102
RTVSPropertyOp5
 70
     1
102
RTVSPropertyOp6
 70
     1
102
RTVSPropertyOp7
 70
     1
102
RTVSPropertyOp8
 70
     1
102
RTVSPropertyOp9
 70
     1
102
RTVSPropertyOp10
 70
     1
102
RTVSPropertyOp11
 70
     1
102
RTVSPropertyOp12
 70
     1
102
RTVSPropertyOp13
 70
     1
102
RTVSPropertyOp14
 70
     1
102
RTVSPropertyOp15
 70
     1
102
RTVSPropertyOp16
 70
     1
102
RTVSPropertyOp17
 70
     1
102
RTVSPropertyOp18
 70
     1
102
RTVSPropertyOp19
 70
     1
102
RTVSPropertyOp20
 70
     1
102
RTVSPropertyOp21
 70
     1
102
RTVSPropertyOp22
 70
     1
102
RTVSPropertyOp23
 70
     1
102
RTVSPropertyOp24
 70
     1
102
RTVSPropertyOp25
 70
     1
102
RTVSPropertyOp26
 70
     1
102
RTVSPropertyOp27
 70
     1
102
RTVSPropertyOp28
 70
     1
102
RTVSPropertyOp29
 70
     1
102
RTVSPropertyOp30
 70
     1
102
RTVSPropertyOp31
 70
     1
102
RTVSPropertyOp32
 70
     1
102
RTVSPropertyOp33
 70
     1
102
RTVSPropertyOp34
 70
     1
102
RTVSPropertyOp35
 70
     1
102
RTVSPropertyOp36
 70
     1
102
RTVSPropertyOp37
 70
     1
102
RTVSPropertyOp38
 70
     1
102
RTVSPropertyOp39
 70
     1
102
RTVSPropertyOp40
 70
     1
102
RTVSPropertyOp41
 70
     1
102
RTVSPropertyOp42
 70
     1
102
RTVSPropertyOp43
 70
     1
102
RTVSPropertyOp44
 70
     1
102
RTVSPropertyOp45
 70
     1
102
RTVSPropertyOp46
 70
     1
102
RTVSPropertyOp47
 70
     1
102
RTVSPropertyOp48
 70
     1
102
RTVSPropertyOp49
 70
     1
102
RTVSPropertyOp50
 70
     1
102
RTVSPropertyOp51
 70
     0
102
RTVSPropertyOp52
 70
     0
102
RTVSPropertyOp53
 70
     1
102
RTVSPropertyOp54
 70
     1
102
RTVSPropertyOp55
 70
     1
102
RTVSPropertyOp56
 70
     1
102
RTVSPropertyOp57
 70
     1
102
RTVSPost2010Prop28
280
     0
102
RTVSPost2010PropOp28
 70
     1
102
RTVSPost2010Prop29
280
     1
102
RTVSPost2010PropOp29
 70
     1
102
RTVSPost2010Prop30
280
     1
102
RTVSPost2010PropOp30
 70
     1
102
RTVSPost2010Prop31
280
     0
102
RTVSPost2010PropOp31
 70
     1
102
RTVSPost2010Prop32
280
     0
102
RTVSPost2010PropOp32
 70
     1
102
RTVSPost2010Prop33
280
     0
102
RTVSPost2010PropOp33
 70
     1
102
RTVSPost2010Prop34
280
     0
102
RTVSPost2010PropOp34
 70
     1
102
RTVSPost2010Prop35
280
     0
102
RTVSPost2010PropOp35
 70
     1
102
RTVSPost2010Prop36
280
     0
102
RTVSPost2010PropOp36
 70
     1
102
RTVSPost2010Prop37
 90
       50
102
RTVSPost2010PropOp37
 70
     1
102
RTVSPost2010Prop38
140
0.0
102
RTVSPost2010PropOp38
 70
     1
102
RTVSPost2010Prop39
140
1.0
102
RTVSPost2010PropOp39
 70
     1
102
RTVSPost2010Prop40
 90
        0
102
RTVSPost2010PropOp40
 70
     1
102
RTVSPost2010Prop41ColorIndex
 90
       18
102
RTVSPost2010Prop41ColorRGB
 90
        0
102
RTVSPost2010PropOp41
 70
     1
102
RTVSPost2010Prop42
 90
       50
102
RTVSPost2010PropOp42
 70
     1
102
RTVSPost2010Prop43
 90
        3
102
RTVSPost2010PropOp43
 70
     1
102
RTVSPost2010Prop44ColorIndex
 90
        5
102
RTVSPost2010Prop44ColorRGB
 90
      255
102
RTVSPost2010PropOp44
 70
     1
102
RTVSPost2010Prop45
280
     0
102
RTVSPost2010PropOp45
 70
     1
102
RTVSPost2010Prop46
 90
       50
102
RTVSPost2010PropOp46
 70
     1
102
RTVSPost2010Prop47
 90
       50
102
RTVSPost2010PropOp47
 70
     1
102
RTVSPost2010Prop48
 90
       50
102
RTVSPost2010PropOp48
 70
     1
102
RTVSPost2010Prop49
280
     0
102
RTVSPost2010PropOp49
 70
     1
102
RTVSPost2010Prop50
 90
       50
102
RTVSPost2010PropOp50
 70
     1
102
RTVSPost2010Prop51ColorIndex
 90
      256
102
RTVSPost2010Prop51ColorRGB
 90
-16777216
102
RTVSPost2010PropOp51
 70
     0
102
RTVSPost2010Prop52
140
1.0
102
RTVSPost2010PropOp52
 70
     0
102
RTVSPost2010Prop53
 90
        2
102
RTVSPost2010PropOp53
 70
     1
102
RTVSPost2010Prop54
  1
strokes_ogs.tif
102
RTVSPost2010PropOp54
 70
     1
102
RTVSPost2010Prop55
280
     0
102
RTVSPost2010PropOp55
 70
     1
102
RTVSPost2010Prop56
140
1.0
102
RTVSPost2010PropOp56
 70
     1
102
RTVSPost2010Prop57
140
1.0
102
RTVSPost2010PropOp57
 70
     1
  0
XRECORD
  5
454
102
{ACAD_REACTORS
330
453
102
}
330
453
100
AcDbXrecord
280
     1
102
RTVSPropertyOp0
 70
     1
102
RTVSPropertyOp1
 70
     1
102
RTVSPropertyOp2
 70
     1
102
RTVSPropertyOp3
 70
     1
102
RTVSPropertyOp4
 70
     1
102
RTVSPropertyOp5
 70
     1
102
RTVSPropertyOp6
 70
     1
102
RTVSPropertyOp7
 70
     1
102
RTVSPropertyOp8
 70
     1
102
RTVSPropertyOp9
 70
     1
102
RTVSPropertyOp10
 70
     1
102
RTVSPropertyOp11
 70
     1
102
RTVSPropertyOp12
 70
     1
102
RTVSPropertyOp13
 70
     1
102
RTVSPropertyOp14
 70
     1
102
RTVSPropertyOp15
 70
     1
102
RTVSPropertyOp16
 70
     1
102
RTVSPropertyOp17
 70
     1
102
RTVSPropertyOp18
 70
     1
102
RTVSPropertyOp19
 70
     1
102
RTVSPropertyOp20
 70
     1
102
RTVSPropertyOp21
 70
     1
102
RTVSPropertyOp22
 70
     1
102
RTVSPropertyOp23
 70
     1
102
RTVSPropertyOp24
 70
     1
102
RTVSPropertyOp25
 70
     1
102
RTVSPropertyOp26
 70
     1
102
RTVSPropertyOp27
 70
     1
102
RTVSPropertyOp28
 70
     1
102
RTVSPropertyOp29
 70
     1
102
RTVSPropertyOp30
 70
     1
102
RTVSPropertyOp31
 70
     1
102
RTVSPropertyOp32
 70
     1
102
RTVSPropertyOp33
 70
     1
102
RTVSPropertyOp34
 70
     1
102
RTVSPropertyOp35
 70
     1
102
RTVSPropertyOp36
 70
     1
102
RTVSPropertyOp37
 70
     1
102
RTVSPropertyOp38
 70
     1
102
RTVSPropertyOp39
 70
     1
102
RTVSPropertyOp40
 70
     1
102
RTVSPropertyOp41
 70
     1
102
RTVSPropertyOp42
 70
     1
102
RTVSPropertyOp43
 70
     1
102
RTVSPropertyOp44
 70
     1
102
RTVSPropertyOp45
 70
     1
102
RTVSPropertyOp46
 70
     1
102
RTVSPropertyOp47
 70
     1
102
RTVSPropertyOp48
 70
     1
102
RTVSPropertyOp49
 70
     1
102
RTVSPropertyOp50
 70
     1
102
RTVSPropertyOp51
 70
     0
102
RTVSPropertyOp52
 70
     0
102
RTVSPropertyOp53
 70
     1
102
RTVSPropertyOp54
 70
     1
102
RTVSPropertyOp55
 70
     1
102
RTVSPropertyOp56
 70
     1
102
RTVSPropertyOp57
 70
     1
102
RTVSPost2010Prop28
280
     0
102
RTVSPost2010PropOp28
 70
     1
102
RTVSPost2010Prop29
280
     1
102
RTVSPost2010PropOp29
 70
     1
102
RTVSPost2010Prop30
280
     1
102
RTVSPost2010PropOp30
 70
     1
102
RTVSPost2010Prop31
280
     0
102
RTVSPost2010PropOp31
 70
     1
102
RTVSPost2010Prop32
280
     0
102
RTVSPost2010PropOp32
 70
     1
102
RTVSPost2010Prop33
280
     0
102
RTVSPost2010PropOp33
 70
     1
102
RTVSPost2010Prop34
280
     0
102
RTVSPost2010PropOp34
 70
     1
102
RTVSPost2010Prop35
280
     0
102
RTVSPost2010PropOp35
 70
     1
102
RTVSPost2010Prop36
280
     0
102
RTVSPost2010PropOp36
 70
     1
102
RTVSPost2010Prop37
 90
       50
102
RTVSPost2010PropOp37
 70
     1
102
RTVSPost2010Prop38
140
0.0
102
RTVSPost2010PropOp38
 70
     1
102
RTVSPost2010Prop39
140
1.0
102
RTVSPost2010PropOp39
 70
     1
102
RTVSPost2010Prop40
 90
        0
102
RTVSPost2010PropOp40
 70
     1
102
RTVSPost2010Prop41ColorIndex
 90
       18
102
RTVSPost2010Prop41ColorRGB
 90
        0
102
RTVSPost2010PropOp41
 70
     1
102
RTVSPost2010Prop42
 90
       50
102
RTVSPost2010PropOp42
 70
     1
102
RTVSPost2010Prop43
 90
        3
102
RTVSPost2010PropOp43
 70
     1
102
RTVSPost2010Prop44ColorIndex
 90
        5
102
RTVSPost2010Prop44ColorRGB
 90
      255
102
RTVSPost2010PropOp44
 70
     1
102
RTVSPost2010Prop45
280
     0
102
RTVSPost2010PropOp45
 70
     1
102
RTVSPost2010Prop46
 90
       50
102
RTVSPost2010PropOp46
 70
     1
102
RTVSPost2010Prop47
 90
       50
102
RTVSPost2010PropOp47
 70
     1
102
RTVSPost2010Prop48
 90
       50
102
RTVSPost2010PropOp48
 70
     1
102
RTVSPost2010Prop49
280
     0
102
RTVSPost2010PropOp49
 70
     1
102
RTVSPost2010Prop50
 90
       50
102
RTVSPost2010PropOp50
 70
     1
102
RTVSPost2010Prop51ColorIndex
 90
      256
102
RTVSPost2010Prop51ColorRGB
 90
-16777216
102
RTVSPost2010PropOp51
 70
     0
102
RTVSPost2010Prop52
140
1.0
102
RTVSPost2010PropOp52
 70
     0
102
RTVSPost2010Prop53
 90
        2
102
RTVSPost2010PropOp53
 70
     1
102
RTVSPost2010Prop54
  1
strokes_ogs.tif
102
RTVSPost2010PropOp54
 70
     1
102
RTVSPost2010Prop55
280
     0
102
RTVSPost2010PropOp55
 70
     1
102
RTVSPost2010Prop56
140
1.0
102
RTVSPost2010PropOp56
 70
     1
102
RTVSPost2010Prop57
140
1.0
102
RTVSPost2010PropOp57
 70
     1
  0
XRECORD
  5
44E
102
{ACAD_REACTORS
330
44D
102
}
330
44D
100
AcDbXrecord
280
     1
102
RTVSPropertyOp0
 70
     1
102
RTVSPropertyOp1
 70
     1
102
RTVSPropertyOp2
 70
     1
102
RTVSPropertyOp3
 70
     1
102
RTVSPropertyOp4
 70
     1
102
RTVSPropertyOp5
 70
     1
102
RTVSPropertyOp6
 70
     1
102
RTVSPropertyOp7
 70
     1
102
RTVSPropertyOp8
 70
     1
102
RTVSPropertyOp9
 70
     1
102
RTVSPropertyOp10
 70
     1
102
RTVSPropertyOp11
 70
     1
102
RTVSPropertyOp12
 70
     1
102
RTVSPropertyOp13
 70
     1
102
RTVSPropertyOp14
 70
     1
102
RTVSPropertyOp15
 70
     1
102
RTVSPropertyOp16
 70
     1
102
RTVSPropertyOp17
 70
     1
102
RTVSPropertyOp18
 70
     1
102
RTVSPropertyOp19
 70
     1
102
RTVSPropertyOp20
 70
     1
102
RTVSPropertyOp21
 70
     1
102
RTVSPropertyOp22
 70
     1
102
RTVSPropertyOp23
 70
     1
102
RTVSPropertyOp24
 70
     1
102
RTVSPropertyOp25
 70
     1
102
RTVSPropertyOp26
 70
     1
102
RTVSPropertyOp27
 70
     1
102
RTVSPropertyOp28
 70
     1
102
RTVSPropertyOp29
 70
     1
102
RTVSPropertyOp30
 70
     1
102
RTVSPropertyOp31
 70
     1
102
RTVSPropertyOp32
 70
     1
102
RTVSPropertyOp33
 70
     1
102
RTVSPropertyOp34
 70
     1
102
RTVSPropertyOp35
 70
     1
102
RTVSPropertyOp36
 70
     1
102
RTVSPropertyOp37
 70
     1
102
RTVSPropertyOp38
 70
     1
102
RTVSPropertyOp39
 70
     1
102
RTVSPropertyOp40
 70
     1
102
RTVSPropertyOp41
 70
     1
102
RTVSPropertyOp42
 70
     1
102
RTVSPropertyOp43
 70
     1
102
RTVSPropertyOp44
 70
     1
102
RTVSPropertyOp45
 70
     1
102
RTVSPropertyOp46
 70
     1
102
RTVSPropertyOp47
 70
     1
102
RTVSPropertyOp48
 70
     1
102
RTVSPropertyOp49
 70
     1
102
RTVSPropertyOp50
 70
     1
102
RTVSPropertyOp51
 70
     0
102
RTVSPropertyOp52
 70
     0
102
RTVSPropertyOp53
 70
     1
102
RTVSPropertyOp54
 70
     1
102
RTVSPropertyOp55
 70
     1
102
RTVSPropertyOp56
 70
     1
102
RTVSPropertyOp57
 70
     1
102
RTVSPost2010Prop28
280
     0
102
RTVSPost2010PropOp28
 70
     1
102
RTVSPost2010Prop29
280
     1
102
RTVSPost2010PropOp29
 70
     1
102
RTVSPost2010Prop30
280
     1
102
RTVSPost2010PropOp30
 70
     1
102
RTVSPost2010Prop31
280
     0
102
RTVSPost2010PropOp31
 70
     1
102
RTVSPost2010Prop32
280
     0
102
RTVSPost2010PropOp32
 70
     1
102
RTVSPost2010Prop33
280
     0
102
RTVSPost2010PropOp33
 70
     1
102
RTVSPost2010Prop34
280
     0
102
RTVSPost2010PropOp34
 70
     1
102
RTVSPost2010Prop35
280
     0
102
RTVSPost2010PropOp35
 70
     1
102
RTVSPost2010Prop36
280
     0
102
RTVSPost2010PropOp36
 70
     1
102
RTVSPost2010Prop37
 90
       50
102
RTVSPost2010PropOp37
 70
     1
102
RTVSPost2010Prop38
140
0.0
102
RTVSPost2010PropOp38
 70
     1
102
RTVSPost2010Prop39
140
1.0
102
RTVSPost2010PropOp39
 70
     1
102
RTVSPost2010Prop40
 90
        0
102
RTVSPost2010PropOp40
 70
     1
102
RTVSPost2010Prop41ColorIndex
 90
       18
102
RTVSPost2010Prop41ColorRGB
 90
        0
102
RTVSPost2010PropOp41
 70
     1
102
RTVSPost2010Prop42
 90
       50
102
RTVSPost2010PropOp42
 70
     1
102
RTVSPost2010Prop43
 90
        3
102
RTVSPost2010PropOp43
 70
     1
102
RTVSPost2010Prop44ColorIndex
 90
        5
102
RTVSPost2010Prop44ColorRGB
 90
      255
102
RTVSPost2010PropOp44
 70
     1
102
RTVSPost2010Prop45
280
     0
102
RTVSPost2010PropOp45
 70
     1
102
RTVSPost2010Prop46
 90
       50
102
RTVSPost2010PropOp46
 70
     1
102
RTVSPost2010Prop47
 90
       50
102
RTVSPost2010PropOp47
 70
     1
102
RTVSPost2010Prop48
 90
       50
102
RTVSPost2010PropOp48
 70
     1
102
RTVSPost2010Prop49
280
     0
102
RTVSPost2010PropOp49
 70
     1
102
RTVSPost2010Prop50
 90
       50
102
RTVSPost2010PropOp50
 70
     1
102
RTVSPost2010Prop51ColorIndex
 90
      256
102
RTVSPost2010Prop51ColorRGB
 90
-16777216
102
RTVSPost2010PropOp51
 70
     0
102
RTVSPost2010Prop52
140
1.0
102
RTVSPost2010PropOp52
 70
     0
102
RTVSPost2010Prop53
 90
        2
102
RTVSPost2010PropOp53
 70
     1
102
RTVSPost2010Prop54
  1
strokes_ogs.tif
102
RTVSPost2010PropOp54
 70
     1
102
RTVSPost2010Prop55
280
     0
102
RTVSPost2010PropOp55
 70
     1
102
RTVSPost2010Prop56
140
1.0
102
RTVSPost2010PropOp56
 70
     1
102
RTVSPost2010Prop57
140
1.0
102
RTVSPost2010PropOp57
 70
     1
  0
XRECORD
  5
450
102
{ACAD_REACTORS
330
44F
102
}
330
44F
100
AcDbXrecord
280
     1
102
RTVSPropertyOp0
 70
     1
102
RTVSPropertyOp1
 70
     1
102
RTVSPropertyOp2
 70
     1
102
RTVSPropertyOp3
 70
     1
102
RTVSPropertyOp4
 70
     1
102
RTVSPropertyOp5
 70
     1
102
RTVSPropertyOp6
 70
     1
102
RTVSPropertyOp7
 70
     1
102
RTVSPropertyOp8
 70
     1
102
RTVSPropertyOp9
 70
     1
102
RTVSPropertyOp10
 70
     1
102
RTVSPropertyOp11
 70
     1
102
RTVSPropertyOp12
 70
     1
102
RTVSPropertyOp13
 70
     1
102
RTVSPropertyOp14
 70
     1
102
RTVSPropertyOp15
 70
     1
102
RTVSPropertyOp16
 70
     1
102
RTVSPropertyOp17
 70
     1
102
RTVSPropertyOp18
 70
     1
102
RTVSPropertyOp19
 70
     1
102
RTVSPropertyOp20
 70
     1
102
RTVSPropertyOp21
 70
     1
102
RTVSPropertyOp22
 70
     1
102
RTVSPropertyOp23
 70
     1
102
RTVSPropertyOp24
 70
     1
102
RTVSPropertyOp25
 70
     1
102
RTVSPropertyOp26
 70
     1
102
RTVSPropertyOp27
 70
     1
102
RTVSPropertyOp28
 70
     1
102
RTVSPropertyOp29
 70
     1
102
RTVSPropertyOp30
 70
     1
102
RTVSPropertyOp31
 70
     1
102
RTVSPropertyOp32
 70
     1
102
RTVSPropertyOp33
 70
     1
102
RTVSPropertyOp34
 70
     1
102
RTVSPropertyOp35
 70
     1
102
RTVSPropertyOp36
 70
     1
102
RTVSPropertyOp37
 70
     1
102
RTVSPropertyOp38
 70
     1
102
RTVSPropertyOp39
 70
     1
102
RTVSPropertyOp40
 70
     1
102
RTVSPropertyOp41
 70
     1
102
RTVSPropertyOp42
 70
     1
102
RTVSPropertyOp43
 70
     1
102
RTVSPropertyOp44
 70
     1
102
RTVSPropertyOp45
 70
     1
102
RTVSPropertyOp46
 70
     1
102
RTVSPropertyOp47
 70
     1
102
RTVSPropertyOp48
 70
     1
102
RTVSPropertyOp49
 70
     1
102
RTVSPropertyOp50
 70
     1
102
RTVSPropertyOp51
 70
     0
102
RTVSPropertyOp52
 70
     0
102
RTVSPropertyOp53
 70
     1
102
RTVSPropertyOp54
 70
     1
102
RTVSPropertyOp55
 70
     1
102
RTVSPropertyOp56
 70
     1
102
RTVSPropertyOp57
 70
     1
102
RTVSPost2010Prop28
280
     0
102
RTVSPost2010PropOp28
 70
     1
102
RTVSPost2010Prop29
280
     1
102
RTVSPost2010PropOp29
 70
     1
102
RTVSPost2010Prop30
280
     1
102
RTVSPost2010PropOp30
 70
     1
102
RTVSPost2010Prop31
280
     0
102
RTVSPost2010PropOp31
 70
     1
102
RTVSPost2010Prop32
280
     0
102
RTVSPost2010PropOp32
 70
     1
102
RTVSPost2010Prop33
280
     0
102
RTVSPost2010PropOp33
 70
     1
102
RTVSPost2010Prop34
280
     0
102
RTVSPost2010PropOp34
 70
     1
102
RTVSPost2010Prop35
280
     0
102
RTVSPost2010PropOp35
 70
     1
102
RTVSPost2010Prop36
280
     0
102
RTVSPost2010PropOp36
 70
     1
102
RTVSPost2010Prop37
 90
       50
102
RTVSPost2010PropOp37
 70
     1
102
RTVSPost2010Prop38
140
0.0
102
RTVSPost2010PropOp38
 70
     1
102
RTVSPost2010Prop39
140
1.0
102
RTVSPost2010PropOp39
 70
     1
102
RTVSPost2010Prop40
 90
        0
102
RTVSPost2010PropOp40
 70
     1
102
RTVSPost2010Prop41ColorIndex
 90
       18
102
RTVSPost2010Prop41ColorRGB
 90
        0
102
RTVSPost2010PropOp41
 70
     1
102
RTVSPost2010Prop42
 90
       50
102
RTVSPost2010PropOp42
 70
     1
102
RTVSPost2010Prop43
 90
        3
102
RTVSPost2010PropOp43
 70
     1
102
RTVSPost2010Prop44ColorIndex
 90
        5
102
RTVSPost2010Prop44ColorRGB
 90
      255
102
RTVSPost2010PropOp44
 70
     1
102
RTVSPost2010Prop45
280
     0
102
RTVSPost2010PropOp45
 70
     1
102
RTVSPost2010Prop46
 90
       50
102
RTVSPost2010PropOp46
 70
     1
102
RTVSPost2010Prop47
 90
       50
102
RTVSPost2010PropOp47
 70
     1
102
RTVSPost2010Prop48
 90
       50
102
RTVSPost2010PropOp48
 70
     1
102
RTVSPost2010Prop49
280
     0
102
RTVSPost2010PropOp49
 70
     1
102
RTVSPost2010Prop50
 90
       50
102
RTVSPost2010PropOp50
 70
     1
102
RTVSPost2010Prop51ColorIndex
 90
      256
102
RTVSPost2010Prop51ColorRGB
 90
-16777216
102
RTVSPost2010PropOp51
 70
     0
102
RTVSPost2010Prop52
140
1.0
102
RTVSPost2010PropOp52
 70
     0
102
RTVSPost2010Prop53
 90
        2
102
RTVSPost2010PropOp53
 70
     1
102
RTVSPost2010Prop54
  1
strokes_ogs.tif
102
RTVSPost2010PropOp54
 70
     1
102
RTVSPost2010Prop55
280
     0
102
RTVSPost2010PropOp55
 70
     1
102
RTVSPost2010Prop56
140
1.0
102
RTVSPost2010PropOp56
 70
     1
102
RTVSPost2010Prop57
140
1.0
102
RTVSPost2010PropOp57
 70
     1
  0
XRECORD
  5
440
102
{ACAD_REACTORS
330
43F
102
}
330
43F
100
AcDbXrecord
280
     1
102
RTVSPropertyOp0
 70
     1
102
RTVSPropertyOp1
 70
     1
102
RTVSPropertyOp2
 70
     1
102
RTVSPropertyOp3
 70
     1
102
RTVSPropertyOp4
 70
     1
102
RTVSPropertyOp5
 70
     1
102
RTVSPropertyOp6
 70
     1
102
RTVSPropertyOp7
 70
     1
102
RTVSPropertyOp8
 70
     1
102
RTVSPropertyOp9
 70
     1
102
RTVSPropertyOp10
 70
     1
102
RTVSPropertyOp11
 70
     1
102
RTVSPropertyOp12
 70
     1
102
RTVSPropertyOp13
 70
     1
102
RTVSPropertyOp14
 70
     1
102
RTVSPropertyOp15
 70
     1
102
RTVSPropertyOp16
 70
     1
102
RTVSPropertyOp17
 70
     1
102
RTVSPropertyOp18
 70
     1
102
RTVSPropertyOp19
 70
     1
102
RTVSPropertyOp20
 70
     1
102
RTVSPropertyOp21
 70
     1
102
RTVSPropertyOp22
 70
     1
102
RTVSPropertyOp23
 70
     1
102
RTVSPropertyOp24
 70
     1
102
RTVSPropertyOp25
 70
     1
102
RTVSPropertyOp26
 70
     1
102
RTVSPropertyOp27
 70
     1
102
RTVSPropertyOp28
 70
     1
102
RTVSPropertyOp29
 70
     1
102
RTVSPropertyOp30
 70
     1
102
RTVSPropertyOp31
 70
     1
102
RTVSPropertyOp32
 70
     1
102
RTVSPropertyOp33
 70
     1
102
RTVSPropertyOp34
 70
     1
102
RTVSPropertyOp35
 70
     1
102
RTVSPropertyOp36
 70
     1
102
RTVSPropertyOp37
 70
     1
102
RTVSPropertyOp38
 70
     1
102
RTVSPropertyOp39
 70
     1
102
RTVSPropertyOp40
 70
     1
102
RTVSPropertyOp41
 70
     1
102
RTVSPropertyOp42
 70
     1
102
RTVSPropertyOp43
 70
     1
102
RTVSPropertyOp44
 70
     1
102
RTVSPropertyOp45
 70
     1
102
RTVSPropertyOp46
 70
     1
102
RTVSPropertyOp47
 70
     1
102
RTVSPropertyOp48
 70
     1
102
RTVSPropertyOp49
 70
     1
102
RTVSPropertyOp50
 70
     1
102
RTVSPropertyOp51
 70
     0
102
RTVSPropertyOp52
 70
     0
102
RTVSPropertyOp53
 70
     1
102
RTVSPropertyOp54
 70
     1
102
RTVSPropertyOp55
 70
     1
102
RTVSPropertyOp56
 70
     1
102
RTVSPropertyOp57
 70
     1
102
RTVSPost2010Prop28
280
     0
102
RTVSPost2010PropOp28
 70
     1
102
RTVSPost2010Prop29
280
     1
102
RTVSPost2010PropOp29
 70
     1
102
RTVSPost2010Prop30
280
     1
102
RTVSPost2010PropOp30
 70
     1
102
RTVSPost2010Prop31
280
     0
102
RTVSPost2010PropOp31
 70
     1
102
RTVSPost2010Prop32
280
     0
102
RTVSPost2010PropOp32
 70
     1
102
RTVSPost2010Prop33
280
     0
102
RTVSPost2010PropOp33
 70
     1
102
RTVSPost2010Prop34
280
     0
102
RTVSPost2010PropOp34
 70
     1
102
RTVSPost2010Prop35
280
     0
102
RTVSPost2010PropOp35
 70
     1
102
RTVSPost2010Prop36
280
     0
102
RTVSPost2010PropOp36
 70
     1
102
RTVSPost2010Prop37
 90
       50
102
RTVSPost2010PropOp37
 70
     1
102
RTVSPost2010Prop38
140
0.0
102
RTVSPost2010PropOp38
 70
     1
102
RTVSPost2010Prop39
140
1.0
102
RTVSPost2010PropOp39
 70
     1
102
RTVSPost2010Prop40
 90
        0
102
RTVSPost2010PropOp40
 70
     1
102
RTVSPost2010Prop41ColorIndex
 90
       18
102
RTVSPost2010Prop41ColorRGB
 90
        0
102
RTVSPost2010PropOp41
 70
     1
102
RTVSPost2010Prop42
 90
       50
102
RTVSPost2010PropOp42
 70
     1
102
RTVSPost2010Prop43
 90
        3
102
RTVSPost2010PropOp43
 70
     1
102
RTVSPost2010Prop44ColorIndex
 90
        5
102
RTVSPost2010Prop44ColorRGB
 90
      255
102
RTVSPost2010PropOp44
 70
     1
102
RTVSPost2010Prop45
280
     0
102
RTVSPost2010PropOp45
 70
     1
102
RTVSPost2010Prop46
 90
       50
102
RTVSPost2010PropOp46
 70
     1
102
RTVSPost2010Prop47
 90
       50
102
RTVSPost2010PropOp47
 70
     1
102
RTVSPost2010Prop48
 90
       50
102
RTVSPost2010PropOp48
 70
     1
102
RTVSPost2010Prop49
280
     0
102
RTVSPost2010PropOp49
 70
     1
102
RTVSPost2010Prop50
 90
       50
102
RTVSPost2010PropOp50
 70
     1
102
RTVSPost2010Prop51ColorIndex
 90
      256
102
RTVSPost2010Prop51ColorRGB
 90
-16777216
102
RTVSPost2010PropOp51
 70
     0
102
RTVSPost2010Prop52
140
1.0
102
RTVSPost2010PropOp52
 70
     0
102
RTVSPost2010Prop53
 90
        2
102
RTVSPost2010PropOp53
 70
     1
102
RTVSPost2010Prop54
  1
strokes_ogs.tif
102
RTVSPost2010PropOp54
 70
     1
102
RTVSPost2010Prop55
280
     0
102
RTVSPost2010PropOp55
 70
     1
102
RTVSPost2010Prop56
140
1.0
102
RTVSPost2010PropOp56
 70
     1
102
RTVSPost2010Prop57
140
1.0
102
RTVSPost2010PropOp57
 70
     1
  0
XRECORD
  5
432
102
{ACAD_REACTORS
330
431
102
}
330
431
100
AcDbXrecord
280
     1
102
RTVSPropertyOp0
 70
     1
102
RTVSPropertyOp1
 70
     1
102
RTVSPropertyOp2
 70
     1
102
RTVSPropertyOp3
 70
     1
102
RTVSPropertyOp4
 70
     1
102
RTVSPropertyOp5
 70
     1
102
RTVSPropertyOp6
 70
     1
102
RTVSPropertyOp7
 70
     1
102
RTVSPropertyOp8
 70
     1
102
RTVSPropertyOp9
 70
     1
102
RTVSPropertyOp10
 70
     1
102
RTVSPropertyOp11
 70
     1
102
RTVSPropertyOp12
 70
     1
102
RTVSPropertyOp13
 70
     1
102
RTVSPropertyOp14
 70
     1
102
RTVSPropertyOp15
 70
     1
102
RTVSPropertyOp16
 70
     1
102
RTVSPropertyOp17
 70
     1
102
RTVSPropertyOp18
 70
     1
102
RTVSPropertyOp19
 70
     1
102
RTVSPropertyOp20
 70
     1
102
RTVSPropertyOp21
 70
     1
102
RTVSPropertyOp22
 70
     1
102
RTVSPropertyOp23
 70
     1
102
RTVSPropertyOp24
 70
     1
102
RTVSPropertyOp25
 70
     1
102
RTVSPropertyOp26
 70
     1
102
RTVSPropertyOp27
 70
     1
102
RTVSPropertyOp28
 70
     1
102
RTVSPropertyOp29
 70
     1
102
RTVSPropertyOp30
 70
     1
102
RTVSPropertyOp31
 70
     1
102
RTVSPropertyOp32
 70
     1
102
RTVSPropertyOp33
 70
     1
102
RTVSPropertyOp34
 70
     1
102
RTVSPropertyOp35
 70
     1
102
RTVSPropertyOp36
 70
     1
102
RTVSPropertyOp37
 70
     1
102
RTVSPropertyOp38
 70
     1
102
RTVSPropertyOp39
 70
     1
102
RTVSPropertyOp40
 70
     1
102
RTVSPropertyOp41
 70
     1
102
RTVSPropertyOp42
 70
     1
102
RTVSPropertyOp43
 70
     1
102
RTVSPropertyOp44
 70
     1
102
RTVSPropertyOp45
 70
     1
102
RTVSPropertyOp46
 70
     1
102
RTVSPropertyOp47
 70
     1
102
RTVSPropertyOp48
 70
     1
102
RTVSPropertyOp49
 70
     1
102
RTVSPropertyOp50
 70
     1
102
RTVSPropertyOp51
 70
     0
102
RTVSPropertyOp52
 70
     0
102
RTVSPropertyOp53
 70
     1
102
RTVSPropertyOp54
 70
     1
102
RTVSPropertyOp55
 70
     1
102
RTVSPropertyOp56
 70
     1
102
RTVSPropertyOp57
 70
     1
102
RTVSPost2010Prop28
280
     0
102
RTVSPost2010PropOp28
 70
     1
102
RTVSPost2010Prop29
280
     1
102
RTVSPost2010PropOp29
 70
     1
102
RTVSPost2010Prop30
280
     1
102
RTVSPost2010PropOp30
 70
     1
102
RTVSPost2010Prop31
280
     0
102
RTVSPost2010PropOp31
 70
     1
102
RTVSPost2010Prop32
280
     0
102
RTVSPost2010PropOp32
 70
     1
102
RTVSPost2010Prop33
280
     0
102
RTVSPost2010PropOp33
 70
     1
102
RTVSPost2010Prop34
280
     0
102
RTVSPost2010PropOp34
 70
     1
102
RTVSPost2010Prop35
280
     0
102
RTVSPost2010PropOp35
 70
     1
102
RTVSPost2010Prop36
280
     0
102
RTVSPost2010PropOp36
 70
     1
102
RTVSPost2010Prop37
 90
       50
102
RTVSPost2010PropOp37
 70
     1
102
RTVSPost2010Prop38
140
0.0
102
RTVSPost2010PropOp38
 70
     1
102
RTVSPost2010Prop39
140
1.0
102
RTVSPost2010PropOp39
 70
     1
102
RTVSPost2010Prop40
 90
        0
102
RTVSPost2010PropOp40
 70
     1
102
RTVSPost2010Prop41ColorIndex
 90
       18
102
RTVSPost2010Prop41ColorRGB
 90
        0
102
RTVSPost2010PropOp41
 70
     1
102
RTVSPost2010Prop42
 90
       50
102
RTVSPost2010PropOp42
 70
     1
102
RTVSPost2010Prop43
 90
        3
102
RTVSPost2010PropOp43
 70
     1
102
RTVSPost2010Prop44ColorIndex
 90
        5
102
RTVSPost2010Prop44ColorRGB
 90
      255
102
RTVSPost2010PropOp44
 70
     1
102
RTVSPost2010Prop45
280
     0
102
RTVSPost2010PropOp45
 70
     1
102
RTVSPost2010Prop46
 90
       50
102
RTVSPost2010PropOp46
 70
     1
102
RTVSPost2010Prop47
 90
       50
102
RTVSPost2010PropOp47
 70
     1
102
RTVSPost2010Prop48
 90
       50
102
RTVSPost2010PropOp48
 70
     1
102
RTVSPost2010Prop49
280
     0
102
RTVSPost2010PropOp49
 70
     1
102
RTVSPost2010Prop50
 90
       50
102
RTVSPost2010PropOp50
 70
     1
102
RTVSPost2010Prop51ColorIndex
 90
      256
102
RTVSPost2010Prop51ColorRGB
 90
-16777216
102
RTVSPost2010PropOp51
 70
     0
102
RTVSPost2010Prop52
140
1.0
102
RTVSPost2010PropOp52
 70
     0
102
RTVSPost2010Prop53
 90
        2
102
RTVSPost2010PropOp53
 70
     1
102
RTVSPost2010Prop54
  1
strokes_ogs.tif
102
RTVSPost2010PropOp54
 70
     1
102
RTVSPost2010Prop55
280
     0
102
RTVSPost2010PropOp55
 70
     1
102
RTVSPost2010Prop56
140
1.0
102
RTVSPost2010PropOp56
 70
     1
102
RTVSPost2010Prop57
140
1.0
102
RTVSPost2010PropOp57
 70
     1
  0
XRECORD
  5
452
102
{ACAD_REACTORS
330
451
102
}
330
451
100
AcDbXrecord
280
     1
102
RTVSPropertyOp0
 70
     1
102
RTVSPropertyOp1
 70
     1
102
RTVSPropertyOp2
 70
     1
102
RTVSPropertyOp3
 70
     1
102
RTVSPropertyOp4
 70
     1
102
RTVSPropertyOp5
 70
     1
102
RTVSPropertyOp6
 70
     1
102
RTVSPropertyOp7
 70
     1
102
RTVSPropertyOp8
 70
     1
102
RTVSPropertyOp9
 70
     1
102
RTVSPropertyOp10
 70
     1
102
RTVSPropertyOp11
 70
     1
102
RTVSPropertyOp12
 70
     1
102
RTVSPropertyOp13
 70
     1
102
RTVSPropertyOp14
 70
     1
102
RTVSPropertyOp15
 70
     1
102
RTVSPropertyOp16
 70
     1
102
RTVSPropertyOp17
 70
     1
102
RTVSPropertyOp18
 70
     1
102
RTVSPropertyOp19
 70
     1
102
RTVSPropertyOp20
 70
     1
102
RTVSPropertyOp21
 70
     1
102
RTVSPropertyOp22
 70
     1
102
RTVSPropertyOp23
 70
     1
102
RTVSPropertyOp24
 70
     1
102
RTVSPropertyOp25
 70
     1
102
RTVSPropertyOp26
 70
     1
102
RTVSPropertyOp27
 70
     1
102
RTVSPropertyOp28
 70
     1
102
RTVSPropertyOp29
 70
     1
102
RTVSPropertyOp30
 70
     1
102
RTVSPropertyOp31
 70
     1
102
RTVSPropertyOp32
 70
     1
102
RTVSPropertyOp33
 70
     1
102
RTVSPropertyOp34
 70
     1
102
RTVSPropertyOp35
 70
     1
102
RTVSPropertyOp36
 70
     1
102
RTVSPropertyOp37
 70
     1
102
RTVSPropertyOp38
 70
     1
102
RTVSPropertyOp39
 70
     1
102
RTVSPropertyOp40
 70
     1
102
RTVSPropertyOp41
 70
     1
102
RTVSPropertyOp42
 70
     1
102
RTVSPropertyOp43
 70
     1
102
RTVSPropertyOp44
 70
     1
102
RTVSPropertyOp45
 70
     1
102
RTVSPropertyOp46
 70
     1
102
RTVSPropertyOp47
 70
     1
102
RTVSPropertyOp48
 70
     1
102
RTVSPropertyOp49
 70
     1
102
RTVSPropertyOp50
 70
     1
102
RTVSPropertyOp51
 70
     0
102
RTVSPropertyOp52
 70
     0
102
RTVSPropertyOp53
 70
     1
102
RTVSPropertyOp54
 70
     1
102
RTVSPropertyOp55
 70
     1
102
RTVSPropertyOp56
 70
     1
102
RTVSPropertyOp57
 70
     1
102
RTVSPost2010Prop28
280
     0
102
RTVSPost2010PropOp28
 70
     1
102
RTVSPost2010Prop29
280
     1
102
RTVSPost2010PropOp29
 70
     1
102
RTVSPost2010Prop30
280
     1
102
RTVSPost2010PropOp30
 70
     1
102
RTVSPost2010Prop31
280
     0
102
RTVSPost2010PropOp31
 70
     1
102
RTVSPost2010Prop32
280
     0
102
RTVSPost2010PropOp32
 70
     1
102
RTVSPost2010Prop33
280
     0
102
RTVSPost2010PropOp33
 70
     1
102
RTVSPost2010Prop34
280
     0
102
RTVSPost2010PropOp34
 70
     1
102
RTVSPost2010Prop35
280
     0
102
RTVSPost2010PropOp35
 70
     1
102
RTVSPost2010Prop36
280
     0
102
RTVSPost2010PropOp36
 70
     1
102
RTVSPost2010Prop37
 90
       50
102
RTVSPost2010PropOp37
 70
     1
102
RTVSPost2010Prop38
140
0.0
102
RTVSPost2010PropOp38
 70
     1
102
RTVSPost2010Prop39
140
1.0
102
RTVSPost2010PropOp39
 70
     1
102
RTVSPost2010Prop40
 90
        0
102
RTVSPost2010PropOp40
 70
     1
102
RTVSPost2010Prop41ColorIndex
 90
       18
102
RTVSPost2010Prop41ColorRGB
 90
        0
102
RTVSPost2010PropOp41
 70
     1
102
RTVSPost2010Prop42
 90
       50
102
RTVSPost2010PropOp42
 70
     1
102
RTVSPost2010Prop43
 90
        3
102
RTVSPost2010PropOp43
 70
     1
102
RTVSPost2010Prop44ColorIndex
 90
        5
102
RTVSPost2010Prop44ColorRGB
 90
      255
102
RTVSPost2010PropOp44
 70
     1
102
RTVSPost2010Prop45
280
     0
102
RTVSPost2010PropOp45
 70
     1
102
RTVSPost2010Prop46
 90
       50
102
RTVSPost2010PropOp46
 70
     1
102
RTVSPost2010Prop47
 90
       50
102
RTVSPost2010PropOp47
 70
     1
102
RTVSPost2010Prop48
 90
       50
102
RTVSPost2010PropOp48
 70
     1
102
RTVSPost2010Prop49
280
     0
102
RTVSPost2010PropOp49
 70
     1
102
RTVSPost2010Prop50
 90
       50
102
RTVSPost2010PropOp50
 70
     1
102
RTVSPost2010Prop51ColorIndex
 90
      256
102
RTVSPost2010Prop51ColorRGB
 90
-16777216
102
RTVSPost2010PropOp51
 70
     0
102
RTVSPost2010Prop52
140
1.0
102
RTVSPost2010PropOp52
 70
     0
102
RTVSPost2010Prop53
 90
        2
102
RTVSPost2010PropOp53
 70
     1
102
RTVSPost2010Prop54
  1
strokes_ogs.tif
102
RTVSPost2010PropOp54
 70
     1
102
RTVSPost2010Prop55
280
     0
102
RTVSPost2010PropOp55
 70
     1
102
RTVSPost2010Prop56
140
1.0
102
RTVSPost2010PropOp56
 70
     1
102
RTVSPost2010Prop57
140
1.0
102
RTVSPost2010PropOp57
 70
     1
  0
ENDSEC
  0
EOF
