  0
SECTION
  2
HEADER
  9
$ACADVER
  1
AC1018
  9
$ACADMAINTVER
 70
     0
  9
$DWGCODEPAGE
  3
ANSI_932
  9
$INSBASE
 10
0.0
 20
0.0
 30
0.0
  9
$EXTMIN
 10
-840.0
 20
-594.0
 30
0.0
  9
$EXTMAX
 10
840.0
 20
594.0
 30
0.0
  9
$LIMMIN
 10
-840.0
 20
-594.0
  9
$LIMMAX
 10
840.0
 20
594.0
  9
$ORTHOMODE
 70
     0
  9
$REGENMODE
 70
     1
  9
$FILLMODE
 70
     1
  9
$QTEXTMODE
 70
     0
  9
$MIRRTEXT
 70
     1
  9
$LTSCALE
 40
4.0
  9
$ATTMODE
 70
     1
  9
$TEXTSIZE
 40
2.5
  9
$TRACEWID
 40
1.0
  9
$TEXTSTYLE
  7
Standard
  9
$CLAYER
  8
0
  9
$CELTYPE
  6
ByLayer
  9
$CECOLOR
 62
   256
  9
$CELTSCALE
 40
1.0
  9
$DISPSILH
 70
     0
  9
$DIMSCALE
 40
1.0
  9
$DIMASZ
 40
2.5
  9
$DIMEXO
 40
0.625
  9
$DIMDLI
 40
3.75
  9
$DIMRND
 40
0.0
  9
$DIMDLE
 40
0.0
  9
$DIMEXE
 40
1.25
  9
$DIMTP
 40
0.0
  9
$DIMTM
 40
0.0
  9
$DIMTXT
 40
2.5
  9
$DIMCEN
 40
2.5
  9
$DIMTSZ
 40
0.0
  9
$DIMTOL
 70
     0
  9
$DIMLIM
 70
     0
  9
$DIMTIH
 70
     0
  9
$DIMTOH
 70
     0
  9
$DIMSE1
 70
     0
  9
$DIMSE2
 70
     0
  9
$DIMTAD
 70
     1
  9
$DIMZIN
 70
     8
  9
$DIMBLK
  1

  9
$DIMASO
 70
     1
  9
$DIMSHO
 70
     1
  9
$DIMPOST
  1

  9
$DIMAPOST
  1

  9
$DIMALT
 70
     0
  9
$DIMALTD
 70
     3
  9
$DIMALTF
 40
0.03937007874016
  9
$DIMLFAC
 40
1.0
  9
$DIMTOFL
 70
     1
  9
$DIMTVP
 40
0.0
  9
$DIMTIX
 70
     0
  9
$DIMSOXD
 70
     0
  9
$DIMSAH
 70
     0
  9
$DIMBLK1
  1

  9
$DIMBLK2
  1

  9
$DIMSTYLE
  2
ISO-25
  9
$DIMCLRD
 70
     0
  9
$DIMCLRE
 70
     0
  9
$DIMCLRT
 70
     0
  9
$DIMTFAC
 40
1.0
  9
$DIMGAP
 40
0.625
  9
$DIMJUST
 70
     0
  9
$DIMSD1
 70
     0
  9
$DIMSD2
 70
     0
  9
$DIMTOLJ
 70
     0
  9
$DIMTZIN
 70
     8
  9
$DIMALTZ
 70
     0
  9
$DIMALTTZ
 70
     0
  9
$DIMUPT
 70
     0
  9
$DIMDEC
 70
     2
  9
$DIMTDEC
 70
     2
  9
$DIMALTU
 70
     2
  9
$DIMALTTD
 70
     3
  9
$DIMTXSTY
  7
Standard
  9
$DIMAUNIT
 70
     0
  9
$DIMADEC
 70
     0
  9
$DIMALTRND
 40
0.0
  9
$DIMAZIN
 70
     0
  9
$DIMDSEP
 70
    44
  9
$DIMATFIT
 70
     3
  9
$DIMFRAC
 70
     0
  9
$DIMLDRBLK
  1

  9
$DIMLUNIT
 70
     2
  9
$DIMLWD
 70
    -2
  9
$DIMLWE
 70
    -2
  9
$DIMTMOVE
 70
     0
  9
$LUNITS
 70
     2
  9
$LUPREC
 70
     4
  9
$SKETCHINC
 40
1.0
  9
$FILLETRAD
 40
10.0
  9
$AUNITS
 70
     0
  9
$AUPREC
 70
     0
  9
$MENU
  1
.
  9
$ELEVATION
 40
0.0
  9
$PELEVATION
 40
0.0
  9
$THICKNESS
 40
0.0
  9
$LIMCHECK
 70
     0
  9
$CHAMFERA
 40
10.0
  9
$CHAMFERB
 40
10.0
  9
$CHAMFERC
 40
20.0
  9
$CHAMFERD
 40
0.0
  9
$SKPOLY
 70
     0
  9
$TDCREATE
 40
2457527.491429907
  9
$TDUCREATE
 40
2457527.116429907
  9
$TDUPDATE
 40
2457527.491429919
  9
$TDUUPDATE
 40
2457527.116429919
  9
$TDINDWG
 40
0.0000000116
  9
$TDUSRTIMER
 40
0.0000000116
  9
$USRTIMER
 70
     1
  9
$ANGBASE
 50
0.0
  9
$ANGDIR
 70
     0
  9
$PDMODE
 70
     0
  9
$PDSIZE
 40
0.0
  9
$PLINEWID
 40
0.0
  9
$SPLFRAME
 70
     0
  9
$SPLINETYPE
 70
     6
  9
$SPLINESEGS
 70
     8
  9
$HANDSEED
  5
244
  9
$SURFTAB1
 70
     6
  9
$SURFTAB2
 70
     6
  9
$SURFTYPE
 70
     6
  9
$SURFU
 70
     6
  9
$SURFV
 70
     6
  9
$UCSBASE
  2

  9
$UCSNAME
  2

  9
$UCSORG
 10
0.0
 20
0.0
 30
0.0
  9
$UCSXDIR
 10
1.0
 20
0.0
 30
0.0
  9
$UCSYDIR
 10
0.0
 20
1.0
 30
0.0
  9
$UCSORTHOREF
  2

  9
$UCSORTHOVIEW
 70
     0
  9
$UCSORGTOP
 10
0.0
 20
0.0
 30
0.0
  9
$UCSORGBOTTOM
 10
0.0
 20
0.0
 30
0.0
  9
$UCSORGLEFT
 10
0.0
 20
0.0
 30
0.0
  9
$UCSORGRIGHT
 10
0.0
 20
0.0
 30
0.0
  9
$UCSORGFRONT
 10
0.0
 20
0.0
 30
0.0
  9
$UCSORGBACK
 10
0.0
 20
0.0
 30
0.0
  9
$PUCSBASE
  2

  9
$PUCSNAME
  2

  9
$PUCSORG
 10
0.0
 20
0.0
 30
0.0
  9
$PUCSXDIR
 10
1.0
 20
0.0
 30
0.0
  9
$PUCSYDIR
 10
0.0
 20
1.0
 30
0.0
  9
$PUCSORTHOREF
  2

  9
$PUCSORTHOVIEW
 70
     0
  9
$PUCSORGTOP
 10
0.0
 20
0.0
 30
0.0
  9
$PUCSORGBOTTOM
 10
0.0
 20
0.0
 30
0.0
  9
$PUCSORGLEFT
 10
0.0
 20
0.0
 30
0.0
  9
$PUCSORGRIGHT
 10
0.0
 20
0.0
 30
0.0
  9
$PUCSORGFRONT
 10
0.0
 20
0.0
 30
0.0
  9
$PUCSORGBACK
 10
0.0
 20
0.0
 30
0.0
  9
$USERI1
 70
     0
  9
$USERI2
 70
     0
  9
$USERI3
 70
     0
  9
$USERI4
 70
     0
  9
$USERI5
 70
     0
  9
$USERR1
 40
0.0
  9
$USERR2
 40
0.0
  9
$USERR3
 40
0.0
  9
$USERR4
 40
0.0
  9
$USERR5
 40
0.0
  9
$WORLDVIEW
 70
     1
  9
$SHADEDGE
 70
     3
  9
$SHADEDIF
 70
    70
  9
$TILEMODE
 70
     1
  9
$MAXACTVP
 70
    64
  9
$PINSBASE
 10
0.0
 20
0.0
 30
0.0
  9
$PLIMCHECK
 70
     0
  9
$PEXTMIN
 10
1.000000000000000E+20
 20
1.000000000000000E+20
 30
1.000000000000000E+20
  9
$PEXTMAX
 10
-1.000000000000000E+20
 20
-1.000000000000000E+20
 30
-1.000000000000000E+20
  9
$PLIMMIN
 10
0.0
 20
0.0
  9
$PLIMMAX
 10
420.0
 20
297.0
  9
$UNITMODE
 70
     0
  9
$VISRETAIN
 70
     1
  9
$PLINEGEN
 70
     0
  9
$PSLTSCALE
 70
     1
  9
$TREEDEPTH
 70
  3020
  9
$CMLSTYLE
  2
Standard
  9
$CMLJUST
 70
     0
  9
$CMLSCALE
 40
20.0
  9
$PROXYGRAPHICS
 70
     1
  9
$MEASUREMENT
 70
     1
  9
$CELWEIGHT
370
    -1
  9
$ENDCAPS
280
     0
  9
$JOINSTYLE
280
     0
  9
$LWDISPLAY
290
     0
  9
$INSUNITS
 70
     4
  9
$HYPERLINKBASE
  1

  9
$STYLESHEET
  1

  9
$XEDIT
290
     1
  9
$CEPSNTYPE
380
     0
  9
$PSTYLEMODE
290
     1
  9
$FINGERPRINTGUID
  2
{7CA5C1CD-1448-49D8-9EB0-E0EA11089503}
  9
$VERSIONGUID
  2
{FAEB1C32-E019-11D5-929B-00C0DF256EC4}
  9
$EXTNAMES
290
     1
  9
$PSVPSCALE
 40
0.0
  9
$OLESTARTUP
290
     0
  9
$SORTENTS
280
   127
  9
$INDEXCTL
280
     0
  9
$HIDETEXT
280
     1
  9
$XCLIPFRAME
290
     0
  9
$HALOGAP
280
     0
  9
$OBSCOLOR
 70
   257
  9
$OBSLTYPE
280
     0
  9
$INTERSECTIONDISPLAY
280
     0
  9
$INTERSECTIONCOLOR
 70
   257
  9
$DIMASSOC
280
     2
  9
$PROJECTNAME
  1

  0
ENDSEC
  0
SECTION
  2
CLASSES
  0
CLASS
  1
ACDBDICTIONARYWDFLT
  2
AcDbDictionaryWithDefault
  3
ObjectDBX Classes
 90
        0
 91
        4
280
     0
281
     0
  0
CLASS
  1
VISUALSTYLE
  2
AcDbVisualStyle
  3
ObjectDBX Classes
 90
     4095
 91
        4
280
     0
281
     0
  0
ENDSEC
  0
SECTION
  2
TABLES
  0
TABLE
  2
VPORT
  5
8
330
0
100
AcDbSymbolTable
 70
     1
  0
VPORT
  5
29
330
8
100
AcDbSymbolTableRecord
100
AcDbViewportTableRecord
  2
*Active
 70
     0
 10
0.0
 20
0.0
 11
1.0
 21
1.0
 12
0.0
 22
0.0
 13
0.0
 23
0.0
 14
10.0
 24
10.0
 15
10.0
 25
10.0
 16
0.0
 26
0.0
 36
1.0
 17
0.0
 27
0.0
 37
0.0
 40
1306.8
 41
1.414141414141414
 42
50.0
 43
0.0
 44
0.0
 50
0.0
 51
0.0
 71
     0
 72
 10000
 73
     1
 74
     3
 75
     0
 76
     0
 77
     0
 78
     0
281
     0
 65
     1
110
0.0
120
0.0
130
0.0
111
1.0
121
0.0
131
0.0
112
0.0
122
1.0
132
0.0
 79
     0
146
0.0
  0
ENDTAB
  0
TABLE
  2
LTYPE
  5
5
330
0
100
AcDbSymbolTable
 70
     4
  0
LTYPE
  5
14
330
5
100
AcDbSymbolTableRecord
100
AcDbLinetypeTableRecord
  2
ByBlock
 70
     0
  3

 72
    65
 73
     0
 40
0.0
  0
LTYPE
  5
15
330
5
100
AcDbSymbolTableRecord
100
AcDbLinetypeTableRecord
  2
ByLayer
 70
     0
  3

 72
    65
 73
     0
 40
0.0
  0
LTYPE
  5
16
330
5
100
AcDbSymbolTableRecord
100
AcDbLinetypeTableRecord
  2
Continuous
 70
     0
  3
Solid line
 72
    65
 73
     0
 40
0.0
  0
LTYPE
  5
3C
330
5
100
AcDbSymbolTableRecord
100
AcDbLinetypeTableRecord
  2
JWW_CENTER1
 70
     0
  3
-----  --  ----------  --  -----
 72
    65
 73
     4
 40
6.773333333333333
 49
4.233333333333333
 74
     0
 49
-0.8466666666666667
 74
     0
 49
0.8466666666666667
 74
     0
 49
-0.8466666666666667
 74
     0
  0
LTYPE
  5
3D
330
5
100
AcDbSymbolTableRecord
100
AcDbLinetypeTableRecord
  2
JWW_PHANTOM2
 70
     0
  3
------------  -  -  ------------
 72
    65
 73
     6
 40
13.54666666666667
 49
10.16
 74
     0
 49
-0.8466666666666667
 74
     0
 49
0.4233333333333333
 74
     0
 49
-0.8466666666666667
 74
     0
 49
0.4233333333333333
 74
     0
 49
-0.8466666666666667
 74
     0
  0
LTYPE
  5
3E
330
5
100
AcDbSymbolTableRecord
100
AcDbLinetypeTableRecord
  2
JWW_DASHED3
 70
     0
  3
---  ------  ------  ------  ---
 72
    65
 73
     2
 40
3.386666666666667
 49
2.54
 74
     0
 49
-0.8466666666666667
 74
     0
  0
ENDTAB
  0
TABLE
  2
LAYER
  5
2
330
0
100
AcDbSymbolTable
 70
     6
  0
LAYER
  5
10
330
2
100
AcDbSymbolTableRecord
100
AcDbLayerTableRecord
  2
0
 70
     0
 62
     7
  6
Continuous
370
    -3
390
F
  0
LAYER
  5
3F
330
2
100
AcDbSymbolTableRecord
100
AcDbLayerTableRecord
  2
0-F
 70
     0
 62
     7
  6
Continuous
370
    -3
390
F
  0
LAYER
  5
40
330
2
100
AcDbSymbolTableRecord
100
AcDbLayerTableRecord
  2
F-5ﾚｲﾔ
 70
     0
 62
     7
  6
Continuous
370
    -3
390
F
  0
LAYER
  5
41
330
2
100
AcDbSymbolTableRecord
100
AcDbLayerTableRecord
  2
0-E
 70
     0
 62
     7
  6
Continuous
370
    -3
390
F
  0
LAYER
  5
42
330
2
100
AcDbSymbolTableRecord
100
AcDbLayerTableRecord
  2
躯体
 70
     0
 62
     7
  6
Continuous
370
    -3
390
F
  0
LAYER
  5
43
330
2
100
AcDbSymbolTableRecord
100
AcDbLayerTableRecord
  2
通り芯
 70
     0
 62
     7
  6
Continuous
370
    -3
390
F
  0
ENDTAB
  0
TABLE
  2
STYLE
  5
3
330
0
100
AcDbSymbolTable
 70
     2
  0
STYLE
  5
11
330
3
100
AcDbSymbolTableRecord
100
AcDbTextStyleTableRecord
  2
Standard
 70
     0
 40
0.0
 41
1.0
 50
0.0
 71
     0
 42
2.5
  3
txt
  4

1001
ACAD
1000

1071
        0
  0
STYLE
  5
3B
330
3
100
AcDbSymbolTableRecord
100
AcDbTextStyleTableRecord
  2
ＭＳ ゴシック
 70
     0
 40
1.0
 41
1.0
 50
0.0
 71
     0
 42
10.0
  3

  4

1001
ACAD
1000
MS Gothic
1071
    32817
  0
ENDTAB
  0
TABLE
  2
VIEW
  5
6
330
0
100
AcDbSymbolTable
 70
     0
  0
ENDTAB
  0
TABLE
  2
UCS
  5
7
330
0
100
AcDbSymbolTable
 70
     0
  0
ENDTAB
  0
TABLE
  2
APPID
  5
9
330
0
100
AcDbSymbolTable
 70
     1
  0
APPID
  5
12
330
9
100
AcDbSymbolTableRecord
100
AcDbRegAppTableRecord
  2
ACAD
 70
     0
  0
ENDTAB
  0
TABLE
  2
DIMSTYLE
  5
A
330
0
100
AcDbSymbolTable
 70
     1
100
AcDbDimStyleTable
  0
DIMSTYLE
105
27
330
A
100
AcDbSymbolTableRecord
100
AcDbDimStyleTableRecord
  2
ISO-25
 70
     0
 41
2.5
 42
0.625
 43
3.75
 44
1.25
 73
     0
 74
     0
 77
     1
 78
     8
140
2.5
141
2.5
143
0.03937007874016
147
0.625
171
     3
172
     1
271
     2
272
     2
274
     3
278
    44
283
     0
284
     8
340
11
  0
ENDTAB
  0
TABLE
  2
BLOCK_RECORD
  5
1
330
0
100
AcDbSymbolTable
 70
     1
  0
BLOCK_RECORD
  5
1F
330
1
100
AcDbSymbolTableRecord
100
AcDbBlockTableRecord
  2
*Model_Space
340
22
  0
BLOCK_RECORD
  5
1B
330
1
100
AcDbSymbolTableRecord
100
AcDbBlockTableRecord
  2
*Paper_Space
340
1E
  0
BLOCK_RECORD
  5
23
330
1
100
AcDbSymbolTableRecord
100
AcDbBlockTableRecord
  2
*Paper_Space0
340
26
  0
ENDTAB
  0
ENDSEC
  0
SECTION
  2
BLOCKS
  0
BLOCK
  5
20
330
1F
100
AcDbEntity
  8
0
100
AcDbBlockBegin
  2
*Model_Space
 70
     0
 10
0.0
 20
0.0
 30
0.0
  3
*Model_Space
  1

  0
ENDBLK
  5
21
330
1F
100
AcDbEntity
  8
0
100
AcDbBlockEnd
  0
BLOCK
  5
1C
330
1B
100
AcDbEntity
 67
     1
  8
0
100
AcDbBlockBegin
  2
*Paper_Space
 70
     0
 10
0.0
 20
0.0
 30
0.0
  3
*Paper_Space
  1

  0
ENDBLK
  5
1D
330
1B
100
AcDbEntity
 67
     1
  8
0
100
AcDbBlockEnd
  0
BLOCK
  5
24
330
23
100
AcDbEntity
  8
0
100
AcDbBlockBegin
  2
*Paper_Space0
 70
     0
 10
0.0
 20
0.0
 30
0.0
  3
*Paper_Space0
  1

  0
ENDBLK
  5
25
330
23
100
AcDbEntity
  8
0
100
AcDbBlockEnd
  0
ENDSEC
  0
SECTION
  2
ENTITIES
  0
TEXT
  5
44
330
1F
100
AcDbEntity
  8
0-F
  6
Continuous
 62
     2
370
     9
100
AcDbText
 10
300.4147033691406
 20
-304.4894768000421
 30
0.0
 40
12.192
  1
仕様
 41
1.0625
  7
ＭＳ ゴシック
100
AcDbText
  0
TEXT
  5
45
330
1F
100
AcDbEntity
  8
0-F
  6
Continuous
 62
     2
370
     9
100
AcDbText
 10
300.4147132667335
 20
-328.4894570048563
 30
0.0
 40
12.192
  1
適用荷重：Ｔ－１４
 41
1.111111111111111
  7
ＭＳ ゴシック
100
AcDbText
  0
TEXT
  5
46
330
1F
100
AcDbEntity
  8
0-F
  6
Continuous
 62
     2
370
     9
100
AcDbText
 10
300.4147132667335
 20
-376.4894669024492
 30
0.0
 40
12.192
  1
接触圧子：２００×５００ｍｍ
 41
1.116071428571429
  7
ＭＳ ゴシック
100
AcDbText
  0
TEXT
  5
47
330
1F
100
AcDbEntity
  8
0-F
  6
Continuous
 62
     2
370
     9
100
AcDbText
 10
300.4146835739548
 20
-352.489486697635
 30
0.0
 40
12.192
  1
破壊荷重：２４２ｋＮ（２４，７００ｋｇｆ）以上
 41
1.119565217391304
  7
ＭＳ ゴシック
100
AcDbText
  0
TEXT
  5
48
330
1F
100
AcDbEntity
  8
F-5ﾚｲﾔ
  6
Continuous
 62
     3
370
     9
100
AcDbText
 10
-334.6233825961187
 20
-528.1064930799345
 30
0.0
 40
12.192
  1
タイル用　充填深さ40㎜　鋳鉄製　側溝用
 41
0.9460526315789475
  7
ＭＳ ゴシック
100
AcDbText
  0
LINE
  5
49
330
1F
100
AcDbEntity
  8
0-E
  6
Continuous
 62
     7
370
     9
100
AcDbLine
 10
451.194132212046
 20
294.4751438450171
 30
0.0
 11
444.7498094713364
 21
304.5979069890204
 31
0.0
  0
LINE
  5
4A
330
1F
100
AcDbEntity
  8
0-E
  6
Continuous
 62
     7
370
     9
100
AcDbLine
 10
451.194132212046
 20
294.4751438450171
 30
0.0
 11
447.5894288758973
 21
305.9209182326859
 31
0.0
  0
LINE
  5
4B
330
1F
100
AcDbEntity
  8
0-E
  6
Continuous
 62
     7
370
     9
100
AcDbLine
 10
504.3121379130598
 20
323.4750910578549
 30
0.0
 11
507.9168412492081
 21
334.9208654455239
 31
0.0
  0
LINE
  5
4C
330
1F
100
AcDbEntity
  8
0-E
  6
Continuous
 62
     7
370
     9
100
AcDbLine
 10
504.3121379130598
 20
323.4750910578549
 30
0.0
 11
510.756460653769
 21
333.5978542018584
 31
0.0
  0
LINE
  5
4D
330
1F
100
AcDbEntity
  8
躯体
  6
Continuous
 62
     2
370
     9
100
AcDbLine
 10
-583.3876944877005
 20
298.9784496410475
 30
0.0
 11
-583.3876944877005
 21
323.4750910578549
 31
0.0
  0
LINE
  5
4E
330
1F
100
AcDbEntity
  8
躯体
  6
Continuous
 62
     2
370
     9
100
AcDbLine
 10
-574.3877142828863
 20
298.9750844594596
 30
0.0
 11
-574.3877142828863
 21
323.4750910578549
 31
0.0
  0
LINE
  5
4F
330
1F
100
AcDbEntity
  8
躯体
  6
Continuous
 62
     2
370
     9
100
AcDbLine
 10
-583.3876944877005
 20
323.4750910578549
 30
0.0
 11
-574.3877142828863
 21
323.4750910578549
 31
0.0
  0
LINE
  5
50
330
1F
100
AcDbEntity
  8
躯体
  6
Continuous
 62
     2
370
     9
100
AcDbLine
 10
16.61220653637042
 20
323.4750910578549
 30
0.0
 11
25.61218674118459
 21
323.4750910578549
 31
0.0
  0
LINE
  5
51
330
1F
100
AcDbEntity
  8
躯体
  6
Continuous
 62
     2
370
     9
100
AcDbLine
 10
25.61218674118459
 20
298.9750844594596
 30
0.0
 11
25.61218674118459
 21
323.4750910578549
 31
0.0
  0
LINE
  5
52
330
1F
100
AcDbEntity
  8
躯体
  6
Continuous
 62
     2
370
     9
100
AcDbLine
 10
16.61220653637042
 20
298.9784496410475
 30
0.0
 11
16.61220653637042
 21
323.4750910578549
 31
0.0
  0
LINE
  5
53
330
1F
100
AcDbEntity
  8
躯体
  6
Continuous
 62
     2
370
     9
100
AcDbLine
 10
481.6123055122994
 20
244.4749788851353
 30
0.0
 11
484.812296274546
 21
244.4749788851353
 31
0.0
  0
LINE
  5
54
330
1F
100
AcDbEntity
  8
躯体
  6
Continuous
 62
     2
370
     9
100
AcDbLine
 10
421.6123055122994
 20
291.2750541068414
 30
0.0
 11
478.412215774124
 21
291.2750541068414
 31
0.0
  0
LINE
  5
55
330
1F
100
AcDbEntity
  8
躯体
  6
Continuous
 62
     2
370
     9
100
AcDbLine
 10
484.812296274546
 20
244.4749788851353
 30
0.0
 11
484.812296274546
 21
288.0750633445948
 31
0.0
  0
LINE
  5
56
330
1F
100
AcDbEntity
  8
躯体
  6
Continuous
 62
     2
370
     9
100
AcDbLine
 10
481.6123055122994
 20
244.4749788851353
 30
0.0
 11
481.6123055122994
 21
288.0750633445948
 31
0.0
  0
LINE
  5
57
330
1F
100
AcDbEntity
  8
躯体
  6
Continuous
 62
     2
370
     9
100
AcDbLine
 10
421.6123055122994
 20
291.2750541068414
 30
0.0
 11
421.6123055122994
 21
294.4751438450171
 31
0.0
  0
LINE
  5
58
330
1F
100
AcDbEntity
  8
躯体
  6
Continuous
 62
     2
370
     9
100
AcDbLine
 10
469.812296274546
 20
294.4751438450171
 30
0.0
 11
469.812296274546
 21
303.4751240498313
 31
0.0
  0
LINE
  5
59
330
1F
100
AcDbEntity
  8
躯体
  6
Continuous
 62
     2
370
     9
100
AcDbLine
 10
499.812296274546
 20
323.4750910578549
 30
0.0
 11
508.8122764793602
 21
323.4750910578549
 31
0.0
  0
LINE
  5
5A
330
1F
100
AcDbEntity
  8
躯体
  6
Continuous
 62
     2
370
     9
100
AcDbLine
 10
421.6123055122994
 20
-52.32493137668905
 30
0.0
 11
421.6123055122994
 21
-55.52492213893561
 31
0.0
  0
LINE
  5
5B
330
1F
100
AcDbEntity
  8
躯体
  6
Continuous
 62
     2
370
     9
100
AcDbLine
 10
481.6123055122994
 20
-5.524955130911962
 30
0.0
 11
481.6123055122994
 21
-49.12499010240697
 31
0.0
  0
LINE
  5
5C
330
1F
100
AcDbEntity
  8
躯体
  6
Continuous
 62
     2
370
     9
100
AcDbLine
 10
484.812296274546
 20
-5.524955130911962
 30
0.0
 11
484.812296274546
 21
-49.12499010240697
 31
0.0
  0
LINE
  5
5D
330
1F
100
AcDbEntity
  8
躯体
  6
Continuous
 62
     2
370
     9
100
AcDbLine
 10
421.6123055122994
 20
-52.32493137668905
 30
0.0
 11
478.412215774124
 21
-52.32493137668905
 31
0.0
  0
LINE
  5
5E
330
1F
100
AcDbEntity
  8
躯体
  6
Continuous
 62
     2
370
     9
100
AcDbLine
 10
481.6123055122994
 20
-5.524955130911962
 30
0.0
 11
484.812296274546
 21
-5.524955130911962
 31
0.0
  0
LINE
  5
5F
330
1F
100
AcDbEntity
  8
躯体
  6
Continuous
 62
     2
370
     9
100
AcDbLine
 10
16.61220653637042
 20
-60.02827742293061
 30
0.0
 11
16.61220653637042
 21
-84.524918839738
 31
0.0
  0
LINE
  5
60
330
1F
100
AcDbEntity
  8
躯体
  6
Continuous
 62
     2
370
     9
100
AcDbLine
 10
25.61218674118459
 20
-60.02491224134269
 30
0.0
 11
25.61218674118459
 21
-84.524918839738
 31
0.0
  0
LINE
  5
61
330
1F
100
AcDbEntity
  8
躯体
  6
Continuous
 62
     2
370
     9
100
AcDbLine
 10
16.61220653637042
 20
-84.524918839738
 30
0.0
 11
25.61218674118459
 21
-84.524918839738
 31
0.0
  0
LINE
  5
62
330
1F
100
AcDbEntity
  8
躯体
  6
Continuous
 62
     2
370
     9
100
AcDbLine
 10
-583.3876944877005
 20
-84.524918839738
 30
0.0
 11
-574.3877142828863
 21
-84.524918839738
 31
0.0
  0
LINE
  5
63
330
1F
100
AcDbEntity
  8
躯体
  6
Continuous
 62
     2
370
     9
100
AcDbLine
 10
-574.3877142828863
 20
-60.02491224134269
 30
0.0
 11
-574.3877142828863
 21
-84.524918839738
 31
0.0
  0
LINE
  5
64
330
1F
100
AcDbEntity
  8
躯体
  6
Continuous
 62
     2
370
     9
100
AcDbLine
 10
-583.3876944877005
 20
-60.02827742293061
 30
0.0
 11
-583.3876944877005
 21
-84.524918839738
 31
0.0
  0
LINE
  5
65
330
1F
100
AcDbEntity
  8
躯体
  6
Continuous
 62
     2
370
     9
100
AcDbLine
 10
-678.8877868652344
 20
244.4750778610644
 30
0.0
 11
-678.8877868652344
 21
294.4751438450171
 31
0.0
  0
LINE
  5
66
330
1F
100
AcDbEntity
  8
躯体
  6
Continuous
 62
     2
370
     9
100
AcDbLine
 10
-678.8877868652344
 20
244.4750778610644
 30
0.0
 11
-677.8877340780722
 21
244.4750778610644
 31
0.0
  0
LINE
  5
67
330
1F
100
AcDbEntity
  8
躯体
  6
Continuous
 62
     2
370
     9
100
AcDbLine
 10
151.1122791187184
 20
139.4749788851353
 30
0.0
 11
161.1123121106947
 21
139.4749788851353
 31
0.0
  0
LINE
  5
68
330
1F
100
AcDbEntity
  8
躯体
  6
Continuous
 62
     2
370
     9
100
AcDbLine
 10
161.1123121106947
 20
139.4749788851353
 30
0.0
 11
141.1122461267421
 21
99.47494589315897
 31
0.0
  0
LINE
  5
69
330
1F
100
AcDbEntity
  8
躯体
  6
Continuous
 62
     2
370
     9
100
AcDbLine
 10
141.1122461267421
 20
99.47494589315897
 30
0.0
 11
151.1122791187184
 21
99.47494589315897
 31
0.0
  0
LINE
  5
6A
330
1F
100
AcDbEntity
  8
躯体
  6
Continuous
 62
     2
370
     9
100
AcDbLine
 10
-678.8877868652344
 20
294.4751438450171
 30
0.0
 11
151.1122791187184
 21
294.4751438450171
 31
0.0
  0
LINE
  5
6B
330
1F
100
AcDbEntity
  8
躯体
  6
Continuous
 62
     2
370
     9
100
AcDbLine
 10
151.1122791187184
 20
139.4749788851353
 30
0.0
 11
151.1122791187184
 21
314.4751108530407
 31
0.0
  0
LINE
  5
6C
330
1F
100
AcDbEntity
  8
躯体
  6
Continuous
 62
     2
370
     9
100
AcDbLine
 10
-678.8877868652344
 20
-5.525054106841026
 30
0.0
 11
-678.8877868652344
 21
-55.52502111486467
 31
0.0
  0
LINE
  5
6D
330
1F
100
AcDbEntity
  8
躯体
  6
Continuous
 62
     2
370
     9
100
AcDbLine
 10
-678.8877868652344
 20
-5.525054106841026
 30
0.0
 11
-677.8877340780722
 21
-5.525054106841026
 31
0.0
  0
LINE
  5
6E
330
1F
100
AcDbEntity
  8
躯体
  6
Continuous
 62
     2
370
     9
100
AcDbLine
 10
-678.8877868652344
 20
-55.52502111486467
 30
0.0
 11
151.1122791187184
 21
-55.52502111486467
 31
0.0
  0
LINE
  5
6F
330
1F
100
AcDbEntity
  8
躯体
  6
Continuous
 62
     2
370
     9
100
AcDbLine
 10
-678.8877868652344
 20
-52.32493137668905
 30
0.0
 11
151.1122791187184
 21
-52.32493137668905
 31
0.0
  0
LINE
  5
70
330
1F
100
AcDbEntity
  8
躯体
  6
Continuous
 62
     2
370
     9
100
AcDbLine
 10
151.1122791187184
 20
-75.5250376108529
 30
0.0
 11
151.1122791187184
 21
99.47494589315897
 31
0.0
  0
LINE
  5
71
330
1F
100
AcDbEntity
  8
0-F
  6
Continuous
 62
     7
370
     9
100
AcDbLine
 10
-678.8877868652344
 20
354.4751438450171
 30
0.0
 11
-666.9904842892208
 21
356.0414379222975
 31
0.0
  0
LINE
  5
72
330
1F
100
AcDbEntity
  8
0-F
  6
Continuous
 62
     7
370
     9
100
AcDbLine
 10
-678.8877868652344
 20
354.4751438450171
 30
0.0
 11
-666.9904842892208
 21
352.9088497677367
 31
0.0
  0
LINE
  5
73
330
1F
100
AcDbEntity
  8
0-F
  6
Continuous
 62
     7
370
     9
100
AcDbLine
 10
-566.9904512972445
 20
352.9088497677367
 30
0.0
 11
-590.7851554252005
 21
356.0414379222975
 31
0.0
  0
LINE
  5
74
330
1F
100
AcDbEntity
  8
0-F
  6
Continuous
 62
     7
370
     9
100
AcDbLine
 10
-566.9904512972445
 20
356.0414379222975
 30
0.0
 11
-590.7851554252005
 21
352.9088497677367
 31
0.0
  0
LINE
  5
75
330
1F
100
AcDbEntity
  8
0-F
  6
Continuous
 62
     7
370
     9
100
AcDbLine
 10
33.00954870275552
 20
352.9088497677367
 30
0.0
 11
9.214943550728549
 21
356.0414379222975
 31
0.0
  0
LINE
  5
76
330
1F
100
AcDbEntity
  8
0-F
  6
Continuous
 62
     7
370
     9
100
AcDbLine
 10
33.00954870275552
 20
356.0414379222975
 30
0.0
 11
9.214943550728549
 21
352.9088497677367
 31
0.0
  0
LINE
  5
77
330
1F
100
AcDbEntity
  8
0-F
  6
Continuous
 62
     7
370
     9
100
AcDbLine
 10
-678.8877868652344
 20
394.4751768369935
 30
0.0
 11
-666.9904842892208
 21
396.0414709142739
 31
0.0
  0
LINE
  5
78
330
1F
100
AcDbEntity
  8
0-F
  6
Continuous
 62
     7
370
     9
100
AcDbLine
 10
-678.8877868652344
 20
394.4751768369935
 30
0.0
 11
-666.9904842892208
 21
392.908882759713
 31
0.0
  0
LINE
  5
79
330
1F
100
AcDbEntity
  8
0-F
  6
Continuous
 62
     7
370
     9
100
AcDbLine
 10
-677.8877340780722
 20
-168.4974332242398
 30
0.0
 11
-665.9904315020586
 21
-166.9311391469594
 31
0.0
  0
LINE
  5
7A
330
1F
100
AcDbEntity
  8
0-F
  6
Continuous
 62
     7
370
     9
100
AcDbLine
 10
-677.8877340780722
 20
-168.4974332242398
 30
0.0
 11
-665.9904315020586
 21
-170.0637273015201
 31
0.0
  0
LINE
  5
7B
330
1F
100
AcDbEntity
  8
0-F
  6
Continuous
 62
     7
370
     9
100
AcDbLine
 10
-78.88768788930531
 20
-168.4974332242398
 30
0.0
 11
-90.78494097735427
 21
-166.9311391469594
 31
0.0
  0
LINE
  5
7C
330
1F
100
AcDbEntity
  8
0-F
  6
Continuous
 62
     7
370
     9
100
AcDbLine
 10
-78.88768788930531
 20
-168.4974332242398
 30
0.0
 11
-90.78494097735427
 21
-170.0637273015201
 31
0.0
  0
LINE
  5
7D
330
1F
100
AcDbEntity
  8
0-F
  6
Continuous
 62
     7
370
     9
100
AcDbLine
 10
-77.88773407807219
 20
-168.4974332242398
 30
0.0
 11
-65.99038201409417
 21
-166.9311391469594
 31
0.0
  0
LINE
  5
7E
330
1F
100
AcDbEntity
  8
0-F
  6
Continuous
 62
     7
370
     9
100
AcDbLine
 10
-77.88773407807219
 20
-168.4974332242398
 30
0.0
 11
-65.99038201409417
 21
-170.0637273015201
 31
0.0
  0
LINE
  5
7F
330
1F
100
AcDbEntity
  8
0-F
  6
Continuous
 62
     7
370
     9
100
AcDbLine
 10
-677.8877340780722
 20
-60.52498812288832
 30
0.0
 11
-677.8877340780722
 21
-169.6974668760556
 31
0.0
  0
LINE
  5
80
330
1F
100
AcDbEntity
  8
0-F
  6
Continuous
 62
     7
370
     9
100
AcDbLine
 10
-78.88768788930531
 20
-60.52498812288832
 30
0.0
 11
-78.88768788930531
 21
-169.6974668760556
 31
0.0
  0
LINE
  5
81
330
1F
100
AcDbEntity
  8
0-F
  6
Continuous
 62
     7
370
     9
100
AcDbLine
 10
-77.88773407807219
 20
-60.52498812288832
 30
0.0
 11
-77.88773407807219
 21
-169.6974668760556
 31
0.0
  0
LINE
  5
82
330
1F
100
AcDbEntity
  8
0-F
  6
Continuous
 62
     7
370
     9
100
AcDbLine
 10
-678.8877868652344
 20
394.4751768369935
 30
0.0
 11
151.1122791187184
 21
394.4751768369935
 31
0.0
  0
LINE
  5
83
330
1F
100
AcDbEntity
  8
0-F
  6
Continuous
 62
     7
370
     9
100
AcDbLine
 10
-677.8877340780722
 20
-168.4974332242398
 30
0.0
 11
151.1122791187184
 21
-168.4974332242398
 31
0.0
  0
LINE
  5
84
330
1F
100
AcDbEntity
  8
0-F
  6
Continuous
 62
     7
370
     9
100
AcDbLine
 10
421.6123055122994
 20
-115.5249221389356
 30
0.0
 11
481.6122065363706
 21
-115.5249221389356
 31
0.0
  0
LINE
  5
85
330
1F
100
AcDbEntity
  8
0-F
  6
Continuous
 62
     7
370
     9
100
AcDbLine
 10
421.6123055122994
 20
-59.52493533572624
 30
0.0
 11
421.6123055122994
 21
-156.7248898067988
 31
0.0
  0
LINE
  5
86
330
1F
100
AcDbEntity
  8
0-F
  6
Continuous
 62
     7
370
     9
100
AcDbLine
 10
421.6123055122994
 20
-115.5249221389356
 30
0.0
 11
433.5096080883131
 21
-113.9586280616552
 31
0.0
  0
LINE
  5
87
330
1F
100
AcDbEntity
  8
0-F
  6
Continuous
 62
     7
370
     9
100
AcDbLine
 10
421.6123055122994
 20
-115.5249221389356
 30
0.0
 11
433.5096080883131
 21
-117.091216216216
 31
0.0
  0
LINE
  5
88
330
1F
100
AcDbEntity
  8
0-F
  6
Continuous
 62
     7
370
     9
100
AcDbLine
 10
481.6122065363706
 20
-115.5249221389356
 30
0.0
 11
469.7149039603569
 21
-113.9586280616552
 31
0.0
  0
LINE
  5
89
330
1F
100
AcDbEntity
  8
0-F
  6
Continuous
 62
     7
370
     9
100
AcDbLine
 10
481.6122065363706
 20
-115.5249221389356
 30
0.0
 11
469.7149039603569
 21
-117.091216216216
 31
0.0
  0
LINE
  5
8A
330
1F
100
AcDbEntity
  8
0-F
  6
Continuous
 62
     7
370
     9
100
AcDbLine
 10
421.6123055122994
 20
-155.5249056429475
 30
0.0
 11
433.5096080883131
 21
-153.9586115656671
 31
0.0
  0
LINE
  5
8B
330
1F
100
AcDbEntity
  8
0-F
  6
Continuous
 62
     7
370
     9
100
AcDbLine
 10
421.6123055122994
 20
-155.5249056429475
 30
0.0
 11
433.5096080883131
 21
-157.0911997202279
 31
0.0
  0
LINE
  5
8C
330
1F
100
AcDbEntity
  8
0-F
  6
Continuous
 62
     7
370
     9
100
AcDbLine
 10
496.7095988505598
 20
-157.0911997202279
 30
0.0
 11
472.9149936985327
 21
-153.9586115656671
 31
0.0
  0
LINE
  5
8D
330
1F
100
AcDbEntity
  8
0-F
  6
Continuous
 62
     7
370
     9
100
AcDbLine
 10
496.7095988505598
 20
-153.9586115656671
 30
0.0
 11
472.9149936985327
 21
-157.0911997202279
 31
0.0
  0
LINE
  5
8E
330
1F
100
AcDbEntity
  8
0-F
  6
Continuous
 62
     7
370
     9
100
AcDbLine
 10
508.8122764793602
 20
-155.5249056429475
 30
0.0
 11
496.9149739033469
 21
-153.9586115656671
 31
0.0
  0
LINE
  5
8F
330
1F
100
AcDbEntity
  8
0-F
  6
Continuous
 62
     7
370
     9
100
AcDbLine
 10
508.8122764793602
 20
-155.5249056429475
 30
0.0
 11
496.9149739033469
 21
-157.0911997202279
 31
0.0
  0
LINE
  5
90
330
1F
100
AcDbEntity
  8
0-F
  6
Continuous
 62
     7
370
     9
100
AcDbLine
 10
481.6122065363706
 20
-68.52496502850488
 30
0.0
 11
481.6122065363706
 21
-116.7249063027871
 31
0.0
  0
LINE
  5
91
330
1F
100
AcDbEntity
  8
0-F
  6
Continuous
 62
     7
370
     9
100
AcDbLine
 10
484.812296274546
 20
-68.52496502850488
 30
0.0
 11
484.812296274546
 21
-156.7248898067988
 31
0.0
  0
LINE
  5
92
330
1F
100
AcDbEntity
  8
0-F
  6
Continuous
 62
     7
370
     9
100
AcDbLine
 10
508.8122764793602
 20
-88.52493203652853
 30
0.0
 11
508.8122764793602
 21
-156.7248898067988
 31
0.0
  0
LINE
  5
93
330
1F
100
AcDbEntity
  8
0-F
  6
Continuous
 62
     7
370
     9
100
AcDbLine
 10
421.6121075604415
 20
46.97786568306606
 30
0.0
 11
534.6560792665223
 21
46.97786568306606
 31
0.0
  0
LINE
  5
94
330
1F
100
AcDbEntity
  8
0-F
  6
Continuous
 62
     7
370
     9
100
AcDbLine
 10
421.6121075604415
 20
46.97786568306606
 30
0.0
 11
433.5094101364548
 21
48.54415976034647
 31
0.0
  0
LINE
  5
95
330
1F
100
AcDbEntity
  8
0-F
  6
Continuous
 62
     7
370
     9
100
AcDbLine
 10
421.6121075604415
 20
46.97786568306606
 30
0.0
 11
433.5094101364548
 21
45.41157160578564
 31
0.0
  0
LINE
  5
96
330
1F
100
AcDbEntity
  8
0-F
  6
Continuous
 62
     7
370
     9
100
AcDbLine
 10
461.6124374802048
 20
46.97786568306606
 30
0.0
 11
449.7151349041915
 21
48.54415976034647
 31
0.0
  0
LINE
  5
97
330
1F
100
AcDbEntity
  8
0-F
  6
Continuous
 62
     7
370
     9
100
AcDbLine
 10
461.6124374802048
 20
46.97786568306606
 30
0.0
 11
449.7151349041915
 21
45.41157160578564
 31
0.0
  0
LINE
  5
98
330
1F
100
AcDbEntity
  8
0-F
  6
Continuous
 62
     7
370
     9
100
AcDbLine
 10
500.6123187090902
 20
46.97786568306606
 30
0.0
 11
512.5096212851035
 21
48.54415976034647
 31
0.0
  0
LINE
  5
99
330
1F
100
AcDbEntity
  8
0-F
  6
Continuous
 62
     7
370
     9
100
AcDbLine
 10
500.6123187090902
 20
46.97786568306606
 30
0.0
 11
512.5096212851035
 21
45.41157160578564
 31
0.0
  0
LINE
  5
9A
330
1F
100
AcDbEntity
  8
0-F
  6
Continuous
 62
     7
370
     9
100
AcDbLine
 10
-678.8877868652344
 20
298.4751570418076
 30
0.0
 11
-678.8877868652344
 21
395.6751610008448
 31
0.0
  0
LINE
  5
9B
330
1F
100
AcDbEntity
  8
躯体
  6
JWW_CENTER1
 62
     2
370
     9
100
AcDbLine
 10
-578.887753873258
 20
290.4751306482266
 30
0.0
 11
-578.887753873258
 21
327.4751042546454
 31
0.0
  0
LINE
  5
9C
330
1F
100
AcDbEntity
  8
躯体
  6
JWW_CENTER1
 62
     2
370
     9
100
AcDbLine
 10
21.11224612674198
 20
290.4751306482266
 30
0.0
 11
21.11224612674198
 21
327.4751042546454
 31
0.0
  0
LINE
  5
9D
330
1F
100
AcDbEntity
  8
躯体
  6
JWW_CENTER1
 62
     2
370
     9
100
AcDbLine
 10
21.11224612674198
 20
-51.52500791807415
 30
0.0
 11
21.11224612674198
 21
-88.52493203652853
 31
0.0
  0
LINE
  5
9E
330
1F
100
AcDbEntity
  8
躯体
  6
JWW_CENTER1
 62
     2
370
     9
100
AcDbLine
 10
-578.887753873258
 20
-51.52500791807415
 30
0.0
 11
-578.887753873258
 21
-88.52493203652853
 31
0.0
  0
LINE
  5
9F
330
1F
100
AcDbEntity
  8
0-F
  6
Continuous
 62
     7
370
     9
100
AcDbLine
 10
21.11224612674198
 20
331.4751174514359
 30
0.0
 11
21.11224612674198
 21
355.6751280088685
 31
0.0
  0
LINE
  5
A0
330
1F
100
AcDbEntity
  8
0-F
  6
Continuous
 62
     7
370
     9
100
AcDbLine
 10
-578.887753873258
 20
331.4751174514359
 30
0.0
 11
-578.887753873258
 21
355.6751280088685
 31
0.0
  0
LINE
  5
A1
330
1F
100
AcDbEntity
  8
0-F
  6
Continuous
 62
     7
370
     9
100
AcDbLine
 10
-678.8877868652344
 20
354.4751438450171
 30
0.0
 11
151.1122791187184
 21
354.4751438450171
 31
0.0
  0
LINE
  5
A2
330
1F
100
AcDbEntity
  8
0-E
  6
Continuous
 62
     7
370
     9
100
AcDbLine
 10
535.2563682762352
 20
389.8918984902873
 30
0.0
 11
504.3121379130598
 21
323.4750910578549
 31
0.0
  0
LINE
  5
A3
330
1F
100
AcDbEntity
  8
0-E
  6
Continuous
 62
     7
370
     9
100
AcDbLine
 10
535.2563682762352
 20
389.8918984902873
 30
0.0
 11
694.491812216269
 21
389.8918984902873
 31
0.0
  0
LINE
  5
A4
330
1F
100
AcDbEntity
  8
0-F
  6
Continuous
 62
     7
370
     9
100
AcDbLine
 10
417.612292315509
 20
289.4750778610644
 30
0.0
 11
320.4122883564719
 21
289.4750778610644
 31
0.0
  0
LINE
  5
A5
330
1F
100
AcDbEntity
  8
0-F
  6
Continuous
 62
     7
370
     9
100
AcDbLine
 10
361.6123055122994
 20
289.4750778610644
 30
0.0
 11
361.6123055122994
 21
-50.52495513091196
 31
0.0
  0
LINE
  5
A6
330
1F
100
AcDbEntity
  8
0-F
  6
Continuous
 62
     7
370
     9
100
AcDbLine
 10
417.612292315509
 20
278.4750910578549
 30
0.0
 11
360.4123213484481
 21
278.4750910578549
 31
0.0
  0
LINE
  5
A7
330
1F
100
AcDbEntity
  8
0-F
  6
Continuous
 62
     7
370
     9
100
AcDbLine
 10
417.612292315509
 20
271.9751438450171
 30
0.0
 11
360.4123213484481
 21
271.9751438450171
 31
0.0
  0
LINE
  5
A8
330
1F
100
AcDbEntity
  8
0-F
  6
Continuous
 62
     7
370
     9
100
AcDbLine
 10
417.612292315509
 20
260.9749590899495
 30
0.0
 11
360.4123213484481
 21
260.9749590899495
 31
0.0
  0
LINE
  5
A9
330
1F
100
AcDbEntity
  8
0-F
  6
Continuous
 62
     7
370
     9
100
AcDbLine
 10
417.612292315509
 20
254.4750118771117
 30
0.0
 11
360.4123213484481
 21
254.4750118771117
 31
0.0
  0
LINE
  5
AA
330
1F
100
AcDbEntity
  8
0-F
  6
Continuous
 62
     7
370
     9
100
AcDbLine
 10
417.612292315509
 20
-50.52495513091196
 30
0.0
 11
320.4122883564719
 21
-50.52495513091196
 31
0.0
  0
LINE
  5
AB
330
1F
100
AcDbEntity
  8
0-F
  6
Continuous
 62
     7
370
     9
100
AcDbLine
 10
417.612292315509
 20
244.4749788851353
 30
0.0
 11
360.4123213484481
 21
244.4749788851353
 31
0.0
  0
LINE
  5
AC
330
1F
100
AcDbEntity
  8
0-F
  6
Continuous
 62
     7
370
     9
100
AcDbLine
 10
361.6123055122994
 20
244.4749788851353
 30
0.0
 11
360.046011435019
 21
232.5776268211573
 31
0.0
  0
LINE
  5
AD
330
1F
100
AcDbEntity
  8
0-F
  6
Continuous
 62
     7
370
     9
100
AcDbLine
 10
417.612292315509
 20
-5.524955130911962
 30
0.0
 11
360.4123213484481
 21
-5.524955130911962
 31
0.0
  0
LINE
  5
AE
330
1F
100
AcDbEntity
  8
0-F
  6
Continuous
 62
     7
370
     9
100
AcDbLine
 10
363.1785995895798
 20
6.372396933066057
 30
0.0
 11
360.046011435019
 21
-17.42230719488998
 31
0.0
  0
LINE
  5
AF
330
1F
100
AcDbEntity
  8
0-F
  6
Continuous
 62
     7
370
     9
100
AcDbLine
 10
360.046011435019
 20
6.372396933066057
 30
0.0
 11
363.1785995895798
 21
-17.42230719488998
 31
0.0
  0
LINE
  5
B0
330
1F
100
AcDbEntity
  8
0-F
  6
Continuous
 62
     7
370
     9
100
AcDbLine
 10
361.6123055122994
 20
-50.52495513091196
 30
0.0
 11
360.046011435019
 21
-38.62760306693394
 31
0.0
  0
LINE
  5
B1
330
1F
100
AcDbEntity
  8
0-F
  6
Continuous
 62
     7
370
     9
100
AcDbLine
 10
361.6123055122994
 20
-50.52495513091196
 30
0.0
 11
363.1785995895798
 21
-38.62760306693394
 31
0.0
  0
LINE
  5
B2
330
1F
100
AcDbEntity
  8
0-F
  6
Continuous
 62
     7
370
     9
100
AcDbLine
 10
361.6123055122994
 20
244.4749788851353
 30
0.0
 11
363.1785995895798
 21
232.5776268211573
 31
0.0
  0
LINE
  5
B3
330
1F
100
AcDbEntity
  8
0-F
  6
Continuous
 62
     7
370
     9
100
AcDbLine
 10
417.612292315509
 20
294.4751438450171
 30
0.0
 11
280.4122553644956
 21
294.4751438450171
 31
0.0
  0
LINE
  5
B4
330
1F
100
AcDbEntity
  8
0-F
  6
Continuous
 62
     7
370
     9
100
AcDbLine
 10
417.612292315509
 20
291.2750541068414
 30
0.0
 11
320.4122883564719
 21
291.2750541068414
 31
0.0
  0
LINE
  5
B5
330
1F
100
AcDbEntity
  8
0-F
  6
Continuous
 62
     7
370
     9
100
AcDbLine
 10
321.6122725203231
 20
294.4751438450171
 30
0.0
 11
320.0459784430427
 21
306.3724464210306
 31
0.0
  0
LINE
  5
B6
330
1F
100
AcDbEntity
  8
0-F
  6
Continuous
 62
     7
370
     9
100
AcDbLine
 10
321.6122725203231
 20
294.4751438450171
 30
0.0
 11
323.1785665976035
 21
306.3724464210306
 31
0.0
  0
LINE
  5
B7
330
1F
100
AcDbEntity
  8
0-F
  6
Continuous
 62
     7
370
     9
100
AcDbLine
 10
321.6122725203231
 20
336.8526776288008
 30
0.0
 11
321.6122725203231
 21
-95.7893198374154
 31
0.0
  0
LINE
  5
B8
330
1F
100
AcDbEntity
  8
0-F
  6
Continuous
 62
     7
370
     9
100
AcDbLine
 10
321.6122725203231
 20
289.4750778610644
 30
0.0
 11
320.0459784430427
 21
277.5776763091218
 31
0.0
  0
LINE
  5
B9
330
1F
100
AcDbEntity
  8
0-F
  6
Continuous
 62
     7
370
     9
100
AcDbLine
 10
321.6122725203231
 20
289.4750778610644
 30
0.0
 11
323.1785665976035
 21
277.5776763091218
 31
0.0
  0
LINE
  5
BA
330
1F
100
AcDbEntity
  8
0-F
  6
Continuous
 62
     7
370
     9
100
AcDbLine
 10
417.612292315509
 20
-52.32493137668905
 30
0.0
 11
320.4122883564719
 21
-52.32493137668905
 31
0.0
  0
LINE
  5
BB
330
1F
100
AcDbEntity
  8
0-F
  6
Continuous
 62
     7
370
     9
100
AcDbLine
 10
321.6122725203231
 20
-50.52495513091196
 30
0.0
 11
320.0459784430427
 21
-38.62760306693394
 31
0.0
  0
LINE
  5
BC
330
1F
100
AcDbEntity
  8
0-F
  6
Continuous
 62
     7
370
     9
100
AcDbLine
 10
321.6122725203231
 20
-50.52495513091196
 30
0.0
 11
323.1785665976035
 21
-38.62760306693394
 31
0.0
  0
LINE
  5
BD
330
1F
100
AcDbEntity
  8
0-F
  6
Continuous
 62
     7
370
     9
100
AcDbLine
 10
417.612292315509
 20
-55.52492213893561
 30
0.0
 11
280.4122553644956
 21
-55.52492213893561
 31
0.0
  0
LINE
  5
BE
330
1F
100
AcDbEntity
  8
0-F
  6
Continuous
 62
     7
370
     9
100
AcDbLine
 10
321.6122725203231
 20
-55.52492213893561
 30
0.0
 11
320.0459784430427
 21
-67.42227420291374
 31
0.0
  0
LINE
  5
BF
330
1F
100
AcDbEntity
  8
0-F
  6
Continuous
 62
     7
370
     9
100
AcDbLine
 10
321.6122725203231
 20
-55.52492213893561
 30
0.0
 11
323.1785665976035
 21
-67.42227420291374
 31
0.0
  0
LINE
  5
C0
330
1F
100
AcDbEntity
  8
0-F
  6
Continuous
 62
     7
370
     9
100
AcDbLine
 10
281.6122395283469
 20
-55.52492213893561
 30
0.0
 11
281.6122395283469
 21
294.4751438450171
 31
0.0
  0
LINE
  5
C1
330
1F
100
AcDbEntity
  8
0-F
  6
Continuous
 62
     7
370
     9
100
AcDbLine
 10
281.6122395283469
 20
-55.52492213893561
 30
0.0
 11
280.0459454510665
 21
-43.62757007495759
 31
0.0
  0
LINE
  5
C2
330
1F
100
AcDbEntity
  8
0-F
  6
Continuous
 62
     7
370
     9
100
AcDbLine
 10
281.6122395283469
 20
-55.52492213893561
 30
0.0
 11
283.1785336056273
 21
-43.62757007495759
 31
0.0
  0
LINE
  5
C3
330
1F
100
AcDbEntity
  8
0-F
  6
Continuous
 62
     7
370
     9
100
AcDbLine
 10
281.6122395283469
 20
294.4751438450171
 30
0.0
 11
280.0459454510665
 21
282.5777422930745
 31
0.0
  0
LINE
  5
C4
330
1F
100
AcDbEntity
  8
0-F
  6
Continuous
 62
     7
370
     9
100
AcDbLine
 10
281.6122395283469
 20
294.4751438450171
 30
0.0
 11
283.1785336056273
 21
282.5777422930745
 31
0.0
  0
LINE
  5
C5
330
1F
100
AcDbEntity
  8
0-F
  6
Continuous
 62
     7
370
     9
100
AcDbLine
 10
-667.8878000620249
 20
-135.5766535578546
 30
0.0
 11
-88.88772088128167
 21
-135.5766535578546
 31
0.0
  0
LINE
  5
C6
330
1F
100
AcDbEntity
  8
0-F
  6
Continuous
 62
     7
370
     9
100
AcDbLine
 10
-667.8877010860958
 20
-60.52498812288832
 30
0.0
 11
-667.8878000620249
 21
-136.7766377217059
 31
0.0
  0
LINE
  5
C7
330
1F
100
AcDbEntity
  8
0-F
  6
Continuous
 62
     7
370
     9
100
AcDbLine
 10
-88.88772088128167
 20
-60.52498812288832
 30
0.0
 11
-88.88772088128167
 21
-136.7766377217059
 31
0.0
  0
LINE
  5
C8
330
1F
100
AcDbEntity
  8
0-F
  6
Continuous
 62
     7
370
     9
100
AcDbLine
 10
-667.8878000620249
 20
-135.5766535578546
 30
0.0
 11
-655.9903985100823
 21
-134.0103594805742
 31
0.0
  0
LINE
  5
C9
330
1F
100
AcDbEntity
  8
0-F
  6
Continuous
 62
     7
370
     9
100
AcDbLine
 10
-667.8878000620249
 20
-135.5766535578546
 30
0.0
 11
-655.9903985100823
 21
-137.142947635135
 31
0.0
  0
LINE
  5
CA
330
1F
100
AcDbEntity
  8
0-F
  6
Continuous
 62
     7
370
     9
100
AcDbLine
 10
-88.88772088128167
 20
-135.5766535578546
 30
0.0
 11
-100.7850729452597
 21
-134.0103594805742
 31
0.0
  0
LINE
  5
CB
330
1F
100
AcDbEntity
  8
0-F
  6
Continuous
 62
     7
370
     9
100
AcDbLine
 10
-88.88772088128167
 20
-135.5766535578546
 30
0.0
 11
-100.7850729452597
 21
-137.142947635135
 31
0.0
  0
LINE
  5
CC
330
1F
100
AcDbEntity
  8
通り芯
  6
Continuous
 62
     3
370
     9
100
AcDbLine
 10
-674.4483205434439
 20
-291.5528201541383
 30
0.0
 11
-677.8877340780722
 21
-238.488162478885
 31
0.0
  0
LINE
  5
CD
330
1F
100
AcDbEntity
  8
通り芯
  6
Continuous
 62
     3
370
     9
100
AcDbLine
 10
-667.3188864218222
 20
-292.4881426836992
 30
0.0
 11
-673.4504452267208
 21
-292.4881426836992
 31
0.0
  0
LINE
  5
CE
330
1F
100
AcDbEntity
  8
通り芯
  6
Continuous
 62
     3
370
     9
100
AcDbLine
 10
-78.88778686523438
 20
-238.488162478885
 30
0.0
 11
-677.8877340780722
 21
-238.488162478885
 31
0.0
  0
LINE
  5
CF
330
1F
100
AcDbEntity
  8
通り芯
  6
Continuous
 62
     3
370
     9
100
AcDbLine
 10
-660.3086193187817
 20
-246.488188872466
 30
0.0
 11
-96.4669016245249
 21
-246.488188872466
 31
0.0
  0
LINE
  5
D0
330
1F
100
AcDbEntity
  8
通り芯
  6
Continuous
 62
     3
370
     9
100
AcDbLine
 10
-663.301057557802
 20
-249.2744107633023
 30
0.0
 11
-666.3214070088154
 21
-291.559451541385
 31
0.0
  0
LINE
  5
D1
330
1F
100
AcDbEntity
  8
通り芯
  6
Continuous
 62
     3
370
     9
100
AcDbLine
 10
-677.8877340780722
 20
-233.4881954708613
 30
0.0
 11
-677.8877340780722
 21
-238.488162478885
 31
0.0
  0
LINE
  5
D2
330
1F
100
AcDbEntity
  8
通り芯
  6
Continuous
 62
     3
370
     9
100
AcDbLine
 10
-676.88768129091
 20
-232.4881426836992
 30
0.0
 11
-79.88779016443198
 21
-232.4881426836992
 31
0.0
  0
LINE
  5
D3
330
1F
100
AcDbEntity
  8
躯体
  6
Continuous
 62
     2
370
     9
100
AcDbLine
 10
-678.8877868652344
 20
291.2750541068414
 30
0.0
 11
151.1122791187184
 21
291.2750541068414
 31
0.0
  0
LINE
  5
D4
330
1F
100
AcDbEntity
  8
通り芯
  6
Continuous
 62
     3
370
     9
100
AcDbLine
 10
-425.3338251887141
 20
-292.4881426836992
 30
0.0
 11
-431.4417287465688
 21
-292.4881426836992
 31
0.0
  0
LINE
  5
D5
330
1F
100
AcDbEntity
  8
通り芯
  6
Continuous
 62
     3
370
     9
100
AcDbLine
 10
-434.7858284615181
 20
-249.3217707453546
 30
0.0
 11
-432.4401979188661
 21
-291.5436153927363
 31
0.0
  0
LINE
  5
D6
330
1F
100
AcDbEntity
  8
通り芯
  6
Continuous
 62
     3
370
     9
100
AcDbLine
 10
-421.9896264978357
 20
-249.3217707453546
 30
0.0
 11
-424.3353560164168
 21
-291.5436153927363
 31
0.0
  0
LINE
  5
D7
330
1F
100
AcDbEntity
  8
通り芯
  6
Continuous
 62
     3
370
     9
100
AcDbLine
 10
-547.3337328111803
 20
-292.4881426836992
 30
0.0
 11
-553.4417353449641
 21
-292.4881426836992
 31
0.0
  0
LINE
  5
D8
330
1F
100
AcDbEntity
  8
通り芯
  6
Continuous
 62
     3
370
     9
100
AcDbLine
 10
-556.7857360839844
 20
-249.3217707453546
 30
0.0
 11
-554.4402045172613
 21
-291.5436153927363
 31
0.0
  0
LINE
  5
D9
330
1F
100
AcDbEntity
  8
通り芯
  6
Continuous
 62
     3
370
     9
100
AcDbLine
 10
-543.98973207216
 20
-249.3217707453546
 30
0.0
 11
-546.335263638883
 21
-291.5436153927363
 31
0.0
  0
LINE
  5
DA
330
1F
100
AcDbEntity
  8
通り芯
  6
Continuous
 62
     3
370
     9
100
AcDbLine
 10
-336.0034963246937
 20
-278.4881954708613
 30
0.0
 11
-420.7720246186127
 21
-278.4881954708613
 31
0.0
  0
LINE
  5
DB
330
1F
100
AcDbEntity
  8
通り芯
  6
Continuous
 62
     3
370
     9
100
AcDbLine
 10
-436.0034303407411
 20
-278.4881954708613
 30
0.0
 11
-542.7721301929371
 21
-278.4881954708613
 31
0.0
  0
LINE
  5
DC
330
1F
100
AcDbEntity
  8
通り芯
  6
Continuous
 62
     3
370
     9
100
AcDbLine
 10
-558.0035359150654
 20
-278.4881954708613
 30
0.0
 11
-665.3876680941195
 21
-278.4881954708613
 31
0.0
  0
LINE
  5
DD
330
1F
100
AcDbEntity
  8
通り芯
  6
Continuous
 62
     3
370
     9
100
AcDbLine
 10
-82.32715091189823
 20
-291.5528201541383
 30
0.0
 11
-78.88778686523438
 21
-238.488162478885
 31
0.0
  0
LINE
  5
DE
330
1F
100
AcDbEntity
  8
通り芯
  6
Continuous
 62
     3
370
     9
100
AcDbLine
 10
-89.45668400944885
 20
-292.4881426836992
 30
0.0
 11
-83.32507571658573
 21
-292.4881426836992
 31
0.0
  0
LINE
  5
DF
330
1F
100
AcDbEntity
  8
通り芯
  6
Continuous
 62
     3
370
     9
100
AcDbLine
 10
-93.47451287346917
 20
-249.2744107633023
 30
0.0
 11
-90.45411393449103
 21
-291.559451541385
 31
0.0
  0
LINE
  5
E0
330
1F
100
AcDbEntity
  8
通り芯
  6
Continuous
 62
     3
370
     9
100
AcDbLine
 10
-78.88778686523438
 20
-233.4881954708613
 30
0.0
 11
-78.88778686523438
 21
-238.488162478885
 31
0.0
  0
LINE
  5
E1
330
1F
100
AcDbEntity
  8
通り芯
  6
Continuous
 62
     3
370
     9
100
AcDbLine
 10
-331.4416957545924
 20
-292.4881426836992
 30
0.0
 11
-325.3337921967377
 21
-292.4881426836992
 31
0.0
  0
LINE
  5
E2
330
1F
100
AcDbEntity
  8
通り芯
  6
Continuous
 62
     3
370
     9
100
AcDbLine
 10
-321.9894945299303
 20
-249.3217707453546
 30
0.0
 11
-324.3353230244404
 21
-291.5436153927363
 31
0.0
  0
LINE
  5
E3
330
1F
100
AcDbEntity
  8
通り芯
  6
Continuous
 62
     3
370
     9
100
AcDbLine
 10
-334.7858944454708
 20
-249.3217707453546
 30
0.0
 11
-332.4401649268898
 21
-291.5436153927363
 31
0.0
  0
LINE
  5
E4
330
1F
100
AcDbEntity
  8
通り芯
  6
Continuous
 62
     3
370
     9
100
AcDbLine
 10
-209.4417881321262
 20
-292.4881426836992
 30
0.0
 11
-203.3337855983424
 21
-292.4881426836992
 31
0.0
  0
LINE
  5
E5
330
1F
100
AcDbEntity
  8
通り芯
  6
Continuous
 62
     3
370
     9
100
AcDbLine
 10
-199.989487931535
 20
-249.3217707453546
 30
0.0
 11
-202.3353164260451
 21
-291.5436153927363
 31
0.0
  0
LINE
  5
E6
330
1F
100
AcDbEntity
  8
通り芯
  6
Continuous
 62
     3
370
     9
100
AcDbLine
 10
-212.7857888711465
 20
-249.3217707453546
 30
0.0
 11
-210.4402573044235
 21
-291.5436153927363
 31
0.0
  0
LINE
  5
E7
330
1F
100
AcDbEntity
  8
通り芯
  6
Continuous
 62
     3
370
     9
100
AcDbLine
 10
-320.7720906025654
 20
-278.4881954708613
 30
0.0
 11
-214.0033907503695
 21
-278.4881954708613
 31
0.0
  0
LINE
  5
E8
330
1F
100
AcDbEntity
  8
通り芯
  6
Continuous
 62
     3
370
     9
100
AcDbLine
 10
-198.7720840041701
 20
-278.4881954708613
 30
0.0
 11
-91.3878033612225
 21
-278.4881954708613
 31
0.0
  0
LINE
  5
E9
330
1F
100
AcDbEntity
  8
0-E
  6
Continuous
 62
     7
370
     9
100
AcDbLine
 10
382.4303085739548
 20
-140.5656342377532
 30
0.0
 11
421.6123055122994
 21
-26.99060718433259
 31
0.0
  0
LINE
  5
EA
330
1F
100
AcDbEntity
  8
0-E
  6
Continuous
 62
     7
370
     9
100
AcDbLine
 10
421.6123055122994
 20
-26.99060718433259
 30
0.0
 11
419.212931040171
 21
-38.74830421241541
 31
0.0
  0
LINE
  5
EB
330
1F
100
AcDbEntity
  8
0-E
  6
Continuous
 62
     7
370
     9
100
AcDbLine
 10
421.6123055122994
 20
-26.99060718433259
 30
0.0
 11
416.251571242874
 21
-37.72667467271947
 31
0.0
  0
LINE
  5
EC
330
1F
100
AcDbEntity
  8
躯体
  6
Continuous
 62
     2
370
     9
100
AcDbLine
 10
496.8123358649177
 20
303.4751240498313
 30
0.0
 11
469.812296274546
 21
303.4751240498313
 31
0.0
  0
LINE
  5
ED
330
1F
100
AcDbEntity
  8
躯体
  6
Continuous
 62
     2
370
     9
100
AcDbLine
 10
499.812296274546
 20
306.4750844594596
 30
0.0
 11
499.812296274546
 21
323.4750910578549
 31
0.0
  0
LINE
  5
EE
330
1F
100
AcDbEntity
  8
躯体
  6
JWW_CENTER1
 62
     2
370
     9
100
AcDbLine
 10
496.8121379130598
 20
298.9750844594596
 30
0.0
 11
465.8122830777556
 21
298.9750844594596
 31
0.0
  0
LINE
  5
EF
330
1F
100
AcDbEntity
  8
躯体
  6
JWW_CENTER1
 62
     2
370
     9
100
AcDbLine
 10
504.3121379130598
 20
306.4750844594596
 30
0.0
 11
504.3121379130598
 21
327.4751042546454
 31
0.0
  0
LINE
  5
F0
330
1F
100
AcDbEntity
  8
躯体
  6
Continuous
 62
     2
370
     9
100
AcDbLine
 10
508.8122764793602
 20
306.4751834353887
 30
0.0
 11
508.8122764793602
 21
323.4750910578549
 31
0.0
  0
LINE
  5
F1
330
1F
100
AcDbEntity
  8
躯体
  6
Continuous
 62
     2
370
     9
100
AcDbLine
 10
469.812296274546
 20
-55.52502111486467
 30
0.0
 11
469.812296274546
 21
-64.52500131967895
 31
0.0
  0
LINE
  5
F2
330
1F
100
AcDbEntity
  8
躯体
  6
Continuous
 62
     2
370
     9
100
AcDbLine
 10
499.812296274546
 20
-84.52496832770248
 30
0.0
 11
508.8122764793602
 21
-84.52496832770248
 31
0.0
  0
LINE
  5
F3
330
1F
100
AcDbEntity
  8
躯体
  6
Continuous
 62
     2
370
     9
100
AcDbLine
 10
496.8123358649177
 20
-64.52500131967895
 30
0.0
 11
469.812296274546
 21
-64.52500131967895
 31
0.0
  0
LINE
  5
F4
330
1F
100
AcDbEntity
  8
躯体
  6
Continuous
 62
     2
370
     9
100
AcDbLine
 10
499.812296274546
 20
-67.52496172930728
 30
0.0
 11
499.812296274546
 21
-84.52496832770248
 31
0.0
  0
LINE
  5
F5
330
1F
100
AcDbEntity
  8
躯体
  6
JWW_CENTER1
 62
     2
370
     9
100
AcDbLine
 10
496.8121379130598
 20
-60.02496172930728
 30
0.0
 11
465.8122830777556
 21
-60.02496172930728
 31
0.0
  0
LINE
  5
F6
330
1F
100
AcDbEntity
  8
躯体
  6
JWW_CENTER1
 62
     2
370
     9
100
AcDbLine
 10
504.3121379130598
 20
-67.52496172930728
 30
0.0
 11
504.3121379130598
 21
-88.52498152449311
 31
0.0
  0
LINE
  5
F7
330
1F
100
AcDbEntity
  8
躯体
  6
Continuous
 62
     2
370
     9
100
AcDbLine
 10
508.8122764793602
 20
-67.52506070523634
 30
0.0
 11
508.8122764793602
 21
-84.52496832770248
 31
0.0
  0
LINE
  5
F8
330
1F
100
AcDbEntity
  8
0-E
  6
Continuous
 62
     7
370
     9
100
AcDbLine
 10
382.4303085739548
 20
-140.5656342377532
 30
0.0
 11
228.9418029785157
 21
-140.5656342377532
 31
0.0
  0
LINE
  5
F9
330
1F
100
AcDbEntity
  8
通り芯
  6
Continuous
 62
     3
370
     9
100
AcDbLine
 10
427.6123253074852
 20
287.9749986803212
 30
0.0
 11
427.6123253074852
 21
289.4749788851353
 31
0.0
  0
LINE
  5
FA
330
1F
100
AcDbEntity
  8
通り芯
  6
Continuous
 62
     3
370
     9
100
AcDbLine
 10
421.6123055122994
 20
280.3220808699326
 30
0.0
 11
421.6123055122994
 21
287.6277911211995
 31
0.0
  0
LINE
  5
FB
330
1F
100
AcDbEntity
  8
通り芯
  6
Continuous
 62
     3
370
     9
100
AcDbLine
 10
427.6123253074852
 20
270.4749656883448
 30
0.0
 11
427.6123253074852
 21
279.97497228674
 31
0.0
  0
LINE
  5
FC
330
1F
100
AcDbEntity
  8
通り芯
  6
Continuous
 62
     3
370
     9
100
AcDbLine
 10
435.6122527251373
 20
281.8577913851353
 30
0.0
 11
435.6122527251373
 21
286.0921795819258
 31
0.0
  0
LINE
  5
FD
330
1F
100
AcDbEntity
  8
通り芯
  6
Continuous
 62
     3
370
     9
100
AcDbLine
 10
422.447860305374
 20
288.6141852301522
 30
0.0
 11
427.6123253074852
 21
289.4749788851353
 31
0.0
  0
LINE
  5
FE
330
1F
100
AcDbEntity
  8
通り芯
  6
Continuous
 62
     3
370
     9
100
AcDbLine
 10
422.447860305374
 20
279.3356867609799
 30
0.0
 11
427.6123253074852
 21
278.4749920819258
 31
0.0
  0
LINE
  5
FF
330
1F
100
AcDbEntity
  8
通り芯
  6
Continuous
 62
     3
370
     9
100
AcDbLine
 10
434.736315753009
 20
287.0845122466218
 30
0.0
 11
427.6123253074852
 21
287.9749986803212
 31
0.0
  0
LINE
  5
100
330
1F
100
AcDbEntity
  8
通り芯
  6
Continuous
 62
     3
370
     9
100
AcDbLine
 10
434.736315753009
 20
280.8654587204394
 30
0.0
 11
427.6123253074852
 21
279.97497228674
 31
0.0
  0
LINE
  5
101
330
1F
100
AcDbEntity
  8
通り芯
  6
Continuous
 62
     3
370
     9
100
AcDbLine
 10
-677.8877340780722
 20
289.4749788851353
 30
0.0
 11
-78.88778686523438
 21
289.4749788851353
 31
0.0
  0
LINE
  5
102
330
1F
100
AcDbEntity
  8
通り芯
  6
Continuous
 62
     3
370
     9
100
AcDbLine
 10
-676.8877802668391
 20
288.4750250739022
 30
0.0
 11
-79.88783965239645
 21
288.4750250739022
 31
0.0
  0
LINE
  5
103
330
1F
100
AcDbEntity
  8
通り芯
  6
Continuous
 62
     3
370
     9
100
AcDbLine
 10
-676.8877802668391
 20
279.475044869088
 30
0.0
 11
-79.88783965239645
 21
279.475044869088
 31
0.0
  0
LINE
  5
104
330
1F
100
AcDbEntity
  8
通り芯
  6
Continuous
 62
     3
370
     9
100
AcDbLine
 10
-677.8877340780722
 20
278.4749920819258
 30
0.0
 11
-78.88778686523438
 21
278.4749920819258
 31
0.0
  0
LINE
  5
105
330
1F
100
AcDbEntity
  8
通り芯
  6
Continuous
 62
     3
370
     9
100
AcDbLine
 10
-677.8877340780722
 20
271.975044869088
 30
0.0
 11
-78.88778686523438
 21
271.975044869088
 31
0.0
  0
LINE
  5
106
330
1F
100
AcDbEntity
  8
通り芯
  6
Continuous
 62
     3
370
     9
100
AcDbLine
 10
-676.8877802668391
 20
270.9749920819258
 30
0.0
 11
-79.88783965239645
 21
270.9749920819258
 31
0.0
  0
LINE
  5
107
330
1F
100
AcDbEntity
  8
通り芯
  6
Continuous
 62
     3
370
     9
100
AcDbLine
 10
-676.8877802668391
 20
261.9750118771117
 30
0.0
 11
-79.88783965239645
 21
261.9750118771117
 31
0.0
  0
LINE
  5
108
330
1F
100
AcDbEntity
  8
通り芯
  6
Continuous
 62
     3
370
     9
100
AcDbLine
 10
-677.8877340780722
 20
260.9749590899495
 30
0.0
 11
-78.88778686523438
 21
260.9749590899495
 31
0.0
  0
LINE
  5
109
330
1F
100
AcDbEntity
  8
通り芯
  6
Continuous
 62
     3
370
     9
100
AcDbLine
 10
434.736315753009
 20
263.3655247043921
 30
0.0
 11
427.6123253074852
 21
262.4750382706927
 31
0.0
  0
LINE
  5
10A
330
1F
100
AcDbEntity
  8
通り芯
  6
Continuous
 62
     3
370
     9
100
AcDbLine
 10
434.736315753009
 20
269.5844792546454
 30
0.0
 11
427.6123253074852
 21
270.4749656883448
 31
0.0
  0
LINE
  5
10B
330
1F
100
AcDbEntity
  8
通り芯
  6
Continuous
 62
     3
370
     9
100
AcDbLine
 10
422.447860305374
 20
261.8357527449326
 30
0.0
 11
427.6123253074852
 21
260.9749590899495
 31
0.0
  0
LINE
  5
10C
330
1F
100
AcDbEntity
  8
通り芯
  6
Continuous
 62
     3
370
     9
100
AcDbLine
 10
422.447860305374
 20
271.1142512141049
 30
0.0
 11
427.6123253074852
 21
271.975044869088
 31
0.0
  0
LINE
  5
10D
330
1F
100
AcDbEntity
  8
通り芯
  6
Continuous
 62
     3
370
     9
100
AcDbLine
 10
435.6122527251373
 20
264.357758393159
 30
0.0
 11
435.6122527251373
 21
268.5921465899495
 31
0.0
  0
LINE
  5
10E
330
1F
100
AcDbEntity
  8
通り芯
  6
Continuous
 62
     3
370
     9
100
AcDbLine
 10
427.6123253074852
 20
252.8093459670609
 30
0.0
 11
427.6123253074852
 21
262.4750382706927
 31
0.0
  0
LINE
  5
10F
330
1F
100
AcDbEntity
  8
通り芯
  6
Continuous
 62
     3
370
     9
100
AcDbLine
 10
421.6123055122994
 20
262.8221468538853
 30
0.0
 11
421.6123055122994
 21
270.1278571051522
 31
0.0
  0
LINE
  5
110
330
1F
100
AcDbEntity
  8
通り芯
  6
Continuous
 62
     3
370
     9
100
AcDbLine
 10
421.6123055122994
 20
-13.67789933488154
 30
0.0
 11
421.6123055122994
 21
252.6278241131758
 31
0.0
  0
LINE
  5
111
330
1F
100
AcDbEntity
  8
通り芯
  6
Continuous
 62
     3
370
     9
100
AcDbLine
 10
500.6123187090902
 20
122.4750217747046
 30
0.0
 11
471.4718256769956
 21
123.8409885715796
 31
0.0
  0
LINE
  5
112
330
1F
100
AcDbEntity
  8
通り芯
  6
Continuous
 62
     3
370
     9
100
AcDbLine
 10
422.447860305374
 20
253.6142182221286
 30
0.0
 11
427.6123253074852
 21
254.4750118771117
 31
0.0
  0
LINE
  5
113
330
1F
100
AcDbEntity
  8
通り芯
  6
Continuous
 62
     3
370
     9
100
AcDbLine
 10
481.7788820008973
 20
238.941036739865
 30
0.0
 11
500.6123187090902
 21
225.4749656883448
 31
0.0
  0
LINE
  5
114
330
1F
100
AcDbEntity
  8
通り芯
  6
Continuous
 62
     3
370
     9
100
AcDbLine
 10
-677.8877340780722
 20
254.4750118771117
 30
0.0
 11
-78.88778686523438
 21
254.4750118771117
 31
0.0
  0
LINE
  5
115
330
1F
100
AcDbEntity
  8
通り芯
  6
Continuous
 62
     3
370
     9
100
AcDbLine
 10
-676.8877802668391
 20
253.4749590899495
 30
0.0
 11
-79.88783965239645
 21
253.4749590899495
 31
0.0
  0
LINE
  5
116
330
1F
100
AcDbEntity
  8
通り芯
  6
Continuous
 62
     3
370
     9
100
AcDbLine
 10
-664.8877406764675
 20
244.4749788851353
 30
0.0
 11
-91.88778026683906
 21
244.4749788851353
 31
0.0
  0
LINE
  5
117
330
1F
100
AcDbEntity
  8
通り芯
  6
Continuous
 62
     3
370
     9
100
AcDbLine
 10
434.736315753009
 20
287.0845122466218
 30
0.0
 11
481.6123055122994
 21
280.9750250739022
 31
0.0
  0
LINE
  5
118
330
1F
100
AcDbEntity
  8
通り芯
  6
Continuous
 62
     3
370
     9
100
AcDbLine
 10
461.6123385042761
 20
0.7239396378802212
 30
0.0
 11
461.6123385042761
 21
238.2260346283786
 31
0.0
  0
LINE
  5
119
330
1F
100
AcDbEntity
  8
通り芯
  6
Continuous
 62
     3
370
     9
100
AcDbLine
 10
429.4378373429581
 20
250.8169605152029
 30
0.0
 11
464.9608921360327
 21
247.7087204391894
 31
0.0
  0
LINE
  5
11A
330
1F
100
AcDbEntity
  8
通り芯
  6
Continuous
 62
     3
370
     9
100
AcDbLine
 10
-661.387753873258
 20
240.9749920819258
 30
0.0
 11
-95.38776707004854
 21
240.9749920819258
 31
0.0
  0
LINE
  5
11B
330
1F
100
AcDbEntity
  8
通り芯
  6
Continuous
 62
     3
370
     9
100
AcDbLine
 10
422.5251605059652
 20
244.3951053103887
 30
0.0
 11
458.8737735232794
 21
241.2146128061657
 31
0.0
  0
LINE
  5
11C
330
1F
100
AcDbEntity
  8
通り芯
  6
Continuous
 62
     3
370
     9
100
AcDbLine
 10
468.612411086624
 20
126.8376827755492
 30
0.0
 11
468.612411086624
 21
243.7239495354731
 31
0.0
  0
LINE
  5
11D
330
1F
100
AcDbEntity
  8
通り芯
  6
Continuous
 62
     3
370
     9
100
AcDbLine
 10
500.6123187090902
 20
13.47500857791408
 30
0.0
 11
500.6123187090902
 21
225.4749656883448
 31
0.0
  0
LINE
  5
11E
330
1F
100
AcDbEntity
  8
通り芯
  6
Continuous
 62
     3
370
     9
100
AcDbLine
 10
-421.387753873258
 20
271.975044869088
 30
0.0
 11
-421.387753873258
 21
278.4749920819258
 31
0.0
  0
LINE
  5
11F
330
1F
100
AcDbEntity
  8
通り芯
  6
Continuous
 62
     3
370
     9
100
AcDbLine
 10
468.612411086624
 20
112.1123409786742
 30
0.0
 11
468.612411086624
 21
-4.773975269214361
 31
0.0
  0
LINE
  5
120
330
1F
100
AcDbEntity
  8
通り芯
  6
Continuous
 62
     3
370
     9
100
AcDbLine
 10
429.4378373429581
 20
-11.86703573690863
 30
0.0
 11
464.9608921360327
 21
-8.758746172930614
 31
0.0
  0
LINE
  5
121
330
1F
100
AcDbEntity
  8
通り芯
  6
Continuous
 62
     3
370
     9
100
AcDbLine
 10
481.7788820008973
 20
0.0089870143582402
 30
0.0
 11
500.6123187090902
 21
13.47500857791408
 31
0.0
  0
LINE
  5
122
330
1F
100
AcDbEntity
  8
通り芯
  6
Continuous
 62
     3
370
     9
100
AcDbLine
 10
422.5251605059652
 20
-5.445180532094469
 30
0.0
 11
458.8737735232794
 21
-2.264638539906969
 31
0.0
  0
LINE
  5
123
330
1F
100
AcDbEntity
  8
通り芯
  6
Continuous
 62
     3
370
     9
100
AcDbLine
 10
-435.3878000620249
 20
271.975044869088
 30
0.0
 11
-435.3878000620249
 21
278.4749920819258
 31
0.0
  0
LINE
  5
124
330
1F
100
AcDbEntity
  8
通り芯
  6
Continuous
 62
     3
370
     9
100
AcDbLine
 10
-321.3877208812817
 20
254.4750118771117
 30
0.0
 11
-321.3877208812817
 21
260.9749590899495
 31
0.0
  0
LINE
  5
125
330
1F
100
AcDbEntity
  8
通り芯
  6
Continuous
 62
     3
370
     9
100
AcDbLine
 10
-199.3878132588154
 20
254.4750118771117
 30
0.0
 11
-199.3878132588154
 21
260.9749590899495
 31
0.0
  0
LINE
  5
126
330
1F
100
AcDbEntity
  8
通り芯
  6
Continuous
 62
     3
370
     9
100
AcDbLine
 10
434.736315753009
 20
-48.13448849239853
 30
0.0
 11
481.6123055122994
 21
-42.02500131967884
 31
0.0
  0
LINE
  5
127
330
1F
100
AcDbEntity
  8
通り芯
  6
Continuous
 62
     3
370
     9
100
AcDbLine
 10
422.447860305374
 20
-14.66429344383425
 30
0.0
 11
427.6123253074852
 21
-15.52498812288832
 31
0.0
  0
LINE
  5
128
330
1F
100
AcDbEntity
  8
通り芯
  6
Continuous
 62
     3
370
     9
100
AcDbLine
 10
500.6123187090902
 20
116.4750019795188
 30
0.0
 11
471.4718256769956
 21
115.1090351826438
 31
0.0
  0
LINE
  5
129
330
1F
100
AcDbEntity
  8
通り芯
  6
Continuous
 62
     3
370
     9
100
AcDbLine
 10
421.6123055122994
 20
-23.87217258762655
 30
0.0
 11
421.6123055122994
 21
-31.17788283889342
 31
0.0
  0
LINE
  5
12A
330
1F
100
AcDbEntity
  8
通り芯
  6
Continuous
 62
     3
370
     9
100
AcDbLine
 10
427.6123253074852
 20
-12.85555782833603
 30
0.0
 11
427.6123253074852
 21
-23.52501451646947
 31
0.0
  0
LINE
  5
12B
330
1F
100
AcDbEntity
  8
通り芯
  6
Continuous
 62
     3
370
     9
100
AcDbLine
 10
435.6122527251373
 20
-25.40783361486467
 30
0.0
 11
435.6122527251373
 21
-29.64227129961978
 31
0.0
  0
LINE
  5
12C
330
1F
100
AcDbEntity
  8
通り芯
  6
Continuous
 62
     3
370
     9
100
AcDbLine
 10
422.447860305374
 20
-32.16427694784613
 30
0.0
 11
427.6123253074852
 21
-33.02502111486467
 31
0.0
  0
LINE
  5
12D
330
1F
100
AcDbEntity
  8
通り芯
  6
Continuous
 62
     3
370
     9
100
AcDbLine
 10
422.447860305374
 20
-22.88577847867384
 30
0.0
 11
427.6123253074852
 21
-22.02498482369072
 31
0.0
  0
LINE
  5
12E
330
1F
100
AcDbEntity
  8
通り芯
  6
Continuous
 62
     3
370
     9
100
AcDbLine
 10
434.736315753009
 20
-30.63450498838665
 30
0.0
 11
427.6123253074852
 21
-31.52499142208603
 31
0.0
  0
LINE
  5
12F
330
1F
100
AcDbEntity
  8
通り芯
  6
Continuous
 62
     3
370
     9
100
AcDbLine
 10
434.736315753009
 20
-24.41550095016873
 30
0.0
 11
427.6123253074852
 21
-23.52501451646947
 31
0.0
  0
LINE
  5
130
330
1F
100
AcDbEntity
  8
通り芯
  6
Continuous
 62
     3
370
     9
100
AcDbLine
 10
434.736315753009
 20
-41.91548445418061
 30
0.0
 11
427.6123253074852
 21
-41.02499802048123
 31
0.0
  0
LINE
  5
131
330
1F
100
AcDbEntity
  8
通り芯
  6
Continuous
 62
     3
370
     9
100
AcDbLine
 10
434.736315753009
 20
-48.13448849239853
 30
0.0
 11
427.6123253074852
 21
-49.02502441406239
 31
0.0
  0
LINE
  5
132
330
1F
100
AcDbEntity
  8
通り芯
  6
Continuous
 62
     3
370
     9
100
AcDbLine
 10
422.447860305374
 20
-40.38576198268561
 30
0.0
 11
427.6123253074852
 21
-39.52501781566707
 31
0.0
  0
LINE
  5
133
330
1F
100
AcDbEntity
  8
通り芯
  6
Continuous
 62
     3
370
     9
100
AcDbLine
 10
422.447860305374
 20
-49.6642604518579
 30
0.0
 11
427.6123253074852
 21
-50.52500461887655
 31
0.0
  0
LINE
  5
134
330
1F
100
AcDbEntity
  8
通り芯
  6
Continuous
 62
     3
370
     9
100
AcDbLine
 10
435.6122527251373
 20
-42.90781711887655
 30
0.0
 11
435.6122527251373
 21
-47.14225480363154
 31
0.0
  0
LINE
  5
135
330
1F
100
AcDbEntity
  8
通り芯
  6
Continuous
 62
     3
370
     9
100
AcDbLine
 10
427.6123253074852
 20
-31.52499142208603
 30
0.0
 11
427.6123253074852
 21
-41.02499802048123
 31
0.0
  0
LINE
  5
136
330
1F
100
AcDbEntity
  8
通り芯
  6
Continuous
 62
     3
370
     9
100
AcDbLine
 10
421.6123055122994
 20
-41.37215609163832
 30
0.0
 11
421.6123055122994
 21
-48.67791583086978
 31
0.0
  0
LINE
  5
137
330
1F
100
AcDbEntity
  8
通り芯
  6
Continuous
 62
     3
370
     9
100
AcDbLine
 10
427.6123253074852
 20
-49.02502441406239
 30
0.0
 11
427.6123253074852
 21
-50.52500461887655
 31
0.0
  0
LINE
  5
138
330
1F
100
AcDbEntity
  8
通り芯
  6
Continuous
 62
     3
370
     9
100
AcDbLine
 10
-213.3877604716532
 20
254.4750118771117
 30
0.0
 11
-213.3877604716532
 21
260.9749590899495
 31
0.0
  0
LINE
  5
139
330
1F
100
AcDbEntity
  8
通り芯
  6
Continuous
 62
     3
370
     9
100
AcDbLine
 10
-335.3877670700485
 20
254.4750118771117
 30
0.0
 11
-335.3877670700485
 21
260.9749590899495
 31
0.0
  0
LINE
  5
13A
330
1F
100
AcDbEntity
  8
通り芯
  6
Continuous
 62
     3
370
     9
100
AcDbLine
 10
-92.88783305400125
 20
254.4750118771117
 30
0.0
 11
-92.88783305400125
 21
260.9749590899495
 31
0.0
  0
LINE
  5
13B
330
1F
100
AcDbEntity
  8
通り芯
  6
Continuous
 62
     3
370
     9
100
AcDbLine
 10
-79.88783965239645
 20
261.9750118771117
 30
0.0
 11
-79.88783965239645
 21
270.9749920819258
 31
0.0
  0
LINE
  5
13C
330
1F
100
AcDbEntity
  8
通り芯
  6
Continuous
 62
     3
370
     9
100
AcDbLine
 10
-79.88783965239645
 20
279.475044869088
 30
0.0
 11
-79.88783965239645
 21
288.4750250739022
 31
0.0
  0
LINE
  5
13D
330
1F
100
AcDbEntity
  8
通り芯
  6
Continuous
 62
     3
370
     9
100
AcDbLine
 10
-92.88783305400125
 20
271.975044869088
 30
0.0
 11
-92.88783305400125
 21
278.4749920819258
 31
0.0
  0
LINE
  5
13E
330
1F
100
AcDbEntity
  8
通り芯
  6
Continuous
 62
     3
370
     9
100
AcDbLine
 10
-199.3878132588154
 20
271.975044869088
 30
0.0
 11
-199.3878132588154
 21
278.4749920819258
 31
0.0
  0
LINE
  5
13F
330
1F
100
AcDbEntity
  8
通り芯
  6
Continuous
 62
     3
370
     9
100
AcDbLine
 10
-213.3877604716532
 20
271.975044869088
 30
0.0
 11
-213.3877604716532
 21
278.4749920819258
 31
0.0
  0
LINE
  5
140
330
1F
100
AcDbEntity
  8
通り芯
  6
Continuous
 62
     3
370
     9
100
AcDbLine
 10
-321.3877208812817
 20
271.975044869088
 30
0.0
 11
-321.3877208812817
 21
278.4749920819258
 31
0.0
  0
LINE
  5
141
330
1F
100
AcDbEntity
  8
通り芯
  6
Continuous
 62
     3
370
     9
100
AcDbLine
 10
-335.3877670700485
 20
271.975044869088
 30
0.0
 11
-335.3877670700485
 21
278.4749920819258
 31
0.0
  0
LINE
  5
142
330
1F
100
AcDbEntity
  8
通り芯
  6
Continuous
 62
     3
370
     9
100
AcDbLine
 10
-543.3877604716533
 20
271.975044869088
 30
0.0
 11
-543.3877604716533
 21
278.4749920819258
 31
0.0
  0
LINE
  5
143
330
1F
100
AcDbEntity
  8
通り芯
  6
Continuous
 62
     3
370
     9
100
AcDbLine
 10
-557.3877076844911
 20
271.975044869088
 30
0.0
 11
-557.3877076844911
 21
278.4749920819258
 31
0.0
  0
LINE
  5
144
330
1F
100
AcDbEntity
  8
通り芯
  6
Continuous
 62
     3
370
     9
100
AcDbLine
 10
-663.8877868652344
 20
271.975044869088
 30
0.0
 11
-663.8877868652344
 21
278.4749920819258
 31
0.0
  0
LINE
  5
145
330
1F
100
AcDbEntity
  8
通り芯
  6
Continuous
 62
     3
370
     9
100
AcDbLine
 10
-676.8877802668391
 20
279.475044869088
 30
0.0
 11
-676.8877802668391
 21
288.4750250739022
 31
0.0
  0
LINE
  5
146
330
1F
100
AcDbEntity
  8
通り芯
  6
Continuous
 62
     3
370
     9
100
AcDbLine
 10
-676.8877802668391
 20
261.9750118771117
 30
0.0
 11
-676.8877802668391
 21
270.9749920819258
 31
0.0
  0
LINE
  5
147
330
1F
100
AcDbEntity
  8
通り芯
  6
Continuous
 62
     3
370
     9
100
AcDbLine
 10
-663.8877868652344
 20
254.4750118771117
 30
0.0
 11
-663.8877868652344
 21
260.9749590899495
 31
0.0
  0
LINE
  5
148
330
1F
100
AcDbEntity
  8
通り芯
  6
Continuous
 62
     3
370
     9
100
AcDbLine
 10
-664.3878132588154
 20
0.9749920819258477
 30
0.0
 11
-664.3878132588154
 21
237.9750316722975
 31
0.0
  0
LINE
  5
149
330
1F
100
AcDbEntity
  8
通り芯
  6
Continuous
 62
     3
370
     9
100
AcDbLine
 10
-667.8878000620249
 20
-2.524994721283633
 30
0.0
 11
-667.8878000620249
 21
241.475018475507
 31
0.0
  0
LINE
  5
14A
330
1F
100
AcDbEntity
  8
通り芯
  6
Continuous
 62
     3
370
     9
100
AcDbLine
 10
-676.8877802668391
 20
-14.52498482369072
 30
0.0
 11
-676.8877802668391
 21
253.4749590899495
 31
0.0
  0
LINE
  5
14B
330
1F
100
AcDbEntity
  8
通り芯
  6
Continuous
 62
     3
370
     9
100
AcDbLine
 10
-421.387753873258
 20
254.4750118771117
 30
0.0
 11
-421.387753873258
 21
260.9749590899495
 31
0.0
  0
LINE
  5
14C
330
1F
100
AcDbEntity
  8
通り芯
  6
Continuous
 62
     3
370
     9
100
AcDbLine
 10
-543.3877604716533
 20
254.4750118771117
 30
0.0
 11
-543.3877604716533
 21
260.9749590899495
 31
0.0
  0
LINE
  5
14D
330
1F
100
AcDbEntity
  8
通り芯
  6
Continuous
 62
     3
370
     9
100
AcDbLine
 10
-557.3877076844911
 20
254.4750118771117
 30
0.0
 11
-557.3877076844911
 21
260.9749590899495
 31
0.0
  0
LINE
  5
14E
330
1F
100
AcDbEntity
  8
通り芯
  6
Continuous
 62
     3
370
     9
100
AcDbLine
 10
-435.3878000620249
 20
254.4750118771117
 30
0.0
 11
-435.3878000620249
 21
260.9749590899495
 31
0.0
  0
LINE
  5
14F
330
1F
100
AcDbEntity
  8
通り芯
  6
Continuous
 62
     3
370
     9
100
AcDbLine
 10
-677.8877340780722
 20
-50.52500461887655
 30
0.0
 11
-677.8877340780722
 21
289.4749788851353
 31
0.0
  0
LINE
  5
150
330
1F
100
AcDbEntity
  8
通り芯
  6
Continuous
 62
     3
370
     9
100
AcDbLine
 10
-78.88778686523438
 20
-50.52500461887655
 30
0.0
 11
-677.8877340780722
 21
-50.52500461887655
 31
0.0
  0
LINE
  5
151
330
1F
100
AcDbEntity
  8
通り芯
  6
Continuous
 62
     3
370
     9
100
AcDbLine
 10
-79.88783965239645
 20
-49.52500131967884
 30
0.0
 11
-676.8877802668391
 21
-49.52500131967884
 31
0.0
  0
LINE
  5
152
330
1F
100
AcDbEntity
  8
通り芯
  6
Continuous
 62
     3
370
     9
100
AcDbLine
 10
-79.88783965239645
 20
-40.52502111486467
 30
0.0
 11
-676.8877802668391
 21
-40.52502111486467
 31
0.0
  0
LINE
  5
153
330
1F
100
AcDbEntity
  8
通り芯
  6
Continuous
 62
     3
370
     9
100
AcDbLine
 10
-78.88778686523438
 20
-39.52501781566707
 30
0.0
 11
-677.8877340780722
 21
-39.52501781566707
 31
0.0
  0
LINE
  5
154
330
1F
100
AcDbEntity
  8
通り芯
  6
Continuous
 62
     3
370
     9
100
AcDbLine
 10
-78.88778686523438
 20
-33.02502111486467
 30
0.0
 11
-677.8877340780722
 21
-33.02502111486467
 31
0.0
  0
LINE
  5
155
330
1F
100
AcDbEntity
  8
通り芯
  6
Continuous
 62
     3
370
     9
100
AcDbLine
 10
-79.88783965239645
 20
-32.02501781566707
 30
0.0
 11
-676.8877802668391
 21
-32.02501781566707
 31
0.0
  0
LINE
  5
156
330
1F
100
AcDbEntity
  8
通り芯
  6
Continuous
 62
     3
370
     9
100
AcDbLine
 10
-79.88783965239645
 20
-23.02498812288832
 30
0.0
 11
-676.8877802668391
 21
-23.02498812288832
 31
0.0
  0
LINE
  5
157
330
1F
100
AcDbEntity
  8
通り芯
  6
Continuous
 62
     3
370
     9
100
AcDbLine
 10
-78.88778686523438
 20
-22.02498482369072
 30
0.0
 11
-677.8877340780722
 21
-22.02498482369072
 31
0.0
  0
LINE
  5
158
330
1F
100
AcDbEntity
  8
通り芯
  6
Continuous
 62
     3
370
     9
100
AcDbLine
 10
-78.88778686523438
 20
-15.52498812288832
 30
0.0
 11
-677.8877340780722
 21
-15.52498812288832
 31
0.0
  0
LINE
  5
159
330
1F
100
AcDbEntity
  8
通り芯
  6
Continuous
 62
     3
370
     9
100
AcDbLine
 10
-79.88783965239645
 20
-14.52498482369072
 30
0.0
 11
-676.8877802668391
 21
-14.52498482369072
 31
0.0
  0
LINE
  5
15A
330
1F
100
AcDbEntity
  8
通り芯
  6
Continuous
 62
     3
370
     9
100
AcDbLine
 10
-91.88778026683906
 20
-5.525004618876551
 30
0.0
 11
-664.8877406764675
 21
-5.525004618876551
 31
0.0
  0
LINE
  5
15B
330
1F
100
AcDbEntity
  8
通り芯
  6
Continuous
 62
     3
370
     9
100
AcDbLine
 10
-95.38776707004854
 20
-2.02501781566707
 30
0.0
 11
-661.387753873258
 21
-2.02501781566707
 31
0.0
  0
LINE
  5
15C
330
1F
100
AcDbEntity
  8
通り芯
  6
Continuous
 62
     3
370
     9
100
AcDbLine
 10
-435.3878000620249
 20
-15.52498812288832
 30
0.0
 11
-435.3878000620249
 21
-22.02498482369072
 31
0.0
  0
LINE
  5
15D
330
1F
100
AcDbEntity
  8
通り芯
  6
Continuous
 62
     3
370
     9
100
AcDbLine
 10
-557.3877076844911
 20
-15.52498812288832
 30
0.0
 11
-557.3877076844911
 21
-22.02498482369072
 31
0.0
  0
LINE
  5
15E
330
1F
100
AcDbEntity
  8
通り芯
  6
Continuous
 62
     3
370
     9
100
AcDbLine
 10
-543.3877604716533
 20
-15.52498812288832
 30
0.0
 11
-543.3877604716533
 21
-22.02498482369072
 31
0.0
  0
LINE
  5
15F
330
1F
100
AcDbEntity
  8
通り芯
  6
Continuous
 62
     3
370
     9
100
AcDbLine
 10
-421.387753873258
 20
-15.52498812288832
 30
0.0
 11
-421.387753873258
 21
-22.02498482369072
 31
0.0
  0
LINE
  5
160
330
1F
100
AcDbEntity
  8
通り芯
  6
Continuous
 62
     3
370
     9
100
AcDbLine
 10
-663.8877868652344
 20
-15.52498812288832
 30
0.0
 11
-663.8877868652344
 21
-22.02498482369072
 31
0.0
  0
LINE
  5
161
330
1F
100
AcDbEntity
  8
通り芯
  6
Continuous
 62
     3
370
     9
100
AcDbLine
 10
-676.8877802668391
 20
-23.02498812288832
 30
0.0
 11
-676.8877802668391
 21
-32.02501781566707
 31
0.0
  0
LINE
  5
162
330
1F
100
AcDbEntity
  8
通り芯
  6
Continuous
 62
     3
370
     9
100
AcDbLine
 10
-676.8877802668391
 20
-40.52502111486467
 30
0.0
 11
-676.8877802668391
 21
-49.52500131967884
 31
0.0
  0
LINE
  5
163
330
1F
100
AcDbEntity
  8
通り芯
  6
Continuous
 62
     3
370
     9
100
AcDbLine
 10
-663.8877868652344
 20
-33.02502111486467
 30
0.0
 11
-663.8877868652344
 21
-39.52501781566707
 31
0.0
  0
LINE
  5
164
330
1F
100
AcDbEntity
  8
通り芯
  6
Continuous
 62
     3
370
     9
100
AcDbLine
 10
-557.3877076844911
 20
-33.02502111486467
 30
0.0
 11
-557.3877076844911
 21
-39.52501781566707
 31
0.0
  0
LINE
  5
165
330
1F
100
AcDbEntity
  8
通り芯
  6
Continuous
 62
     3
370
     9
100
AcDbLine
 10
-543.3877604716533
 20
-33.02502111486467
 30
0.0
 11
-543.3877604716533
 21
-39.52501781566707
 31
0.0
  0
LINE
  5
166
330
1F
100
AcDbEntity
  8
通り芯
  6
Continuous
 62
     3
370
     9
100
AcDbLine
 10
-435.3878000620249
 20
-33.02502111486467
 30
0.0
 11
-435.3878000620249
 21
-39.52501781566707
 31
0.0
  0
LINE
  5
167
330
1F
100
AcDbEntity
  8
通り芯
  6
Continuous
 62
     3
370
     9
100
AcDbLine
 10
-421.387753873258
 20
-33.02502111486467
 30
0.0
 11
-421.387753873258
 21
-39.52501781566707
 31
0.0
  0
LINE
  5
168
330
1F
100
AcDbEntity
  8
通り芯
  6
Continuous
 62
     3
370
     9
100
AcDbLine
 10
-335.3877670700485
 20
-33.02502111486467
 30
0.0
 11
-335.3877670700485
 21
-39.52501781566707
 31
0.0
  0
LINE
  5
169
330
1F
100
AcDbEntity
  8
通り芯
  6
Continuous
 62
     3
370
     9
100
AcDbLine
 10
-321.3877208812817
 20
-33.02502111486467
 30
0.0
 11
-321.3877208812817
 21
-39.52501781566707
 31
0.0
  0
LINE
  5
16A
330
1F
100
AcDbEntity
  8
通り芯
  6
Continuous
 62
     3
370
     9
100
AcDbLine
 10
-213.3877604716532
 20
-33.02502111486467
 30
0.0
 11
-213.3877604716532
 21
-39.52501781566707
 31
0.0
  0
LINE
  5
16B
330
1F
100
AcDbEntity
  8
通り芯
  6
Continuous
 62
     3
370
     9
100
AcDbLine
 10
-199.3878132588154
 20
-33.02502111486467
 30
0.0
 11
-199.3878132588154
 21
-39.52501781566707
 31
0.0
  0
LINE
  5
16C
330
1F
100
AcDbEntity
  8
通り芯
  6
Continuous
 62
     3
370
     9
100
AcDbLine
 10
-92.88783305400125
 20
-33.02502111486467
 30
0.0
 11
-92.88783305400125
 21
-39.52501781566707
 31
0.0
  0
LINE
  5
16D
330
1F
100
AcDbEntity
  8
通り芯
  6
Continuous
 62
     3
370
     9
100
AcDbLine
 10
-79.88783965239645
 20
-40.52502111486467
 30
0.0
 11
-79.88783965239645
 21
-49.52500131967884
 31
0.0
  0
LINE
  5
16E
330
1F
100
AcDbEntity
  8
通り芯
  6
Continuous
 62
     3
370
     9
100
AcDbLine
 10
-79.88783965239645
 20
-23.02498812288832
 30
0.0
 11
-79.88783965239645
 21
-32.02501781566707
 31
0.0
  0
LINE
  5
16F
330
1F
100
AcDbEntity
  8
通り芯
  6
Continuous
 62
     3
370
     9
100
AcDbLine
 10
-92.88783305400125
 20
-15.52498812288832
 30
0.0
 11
-92.88783305400125
 21
-22.02498482369072
 31
0.0
  0
LINE
  5
170
330
1F
100
AcDbEntity
  8
通り芯
  6
Continuous
 62
     3
370
     9
100
AcDbLine
 10
-335.3877670700485
 20
-15.52498812288832
 30
0.0
 11
-335.3877670700485
 21
-22.02498482369072
 31
0.0
  0
LINE
  5
171
330
1F
100
AcDbEntity
  8
通り芯
  6
Continuous
 62
     3
370
     9
100
AcDbLine
 10
-213.3877604716532
 20
-15.52498812288832
 30
0.0
 11
-213.3877604716532
 21
-22.02498482369072
 31
0.0
  0
LINE
  5
172
330
1F
100
AcDbEntity
  8
通り芯
  6
Continuous
 62
     3
370
     9
100
AcDbLine
 10
-199.3878132588154
 20
-15.52498812288832
 30
0.0
 11
-199.3878132588154
 21
-22.02498482369072
 31
0.0
  0
LINE
  5
173
330
1F
100
AcDbEntity
  8
通り芯
  6
Continuous
 62
     3
370
     9
100
AcDbLine
 10
-321.3877208812817
 20
-15.52498812288832
 30
0.0
 11
-321.3877208812817
 21
-22.02498482369072
 31
0.0
  0
LINE
  5
174
330
1F
100
AcDbEntity
  8
通り芯
  6
JWW_CENTER1
 62
     3
370
     9
100
AcDbLine
 10
401.6123385042761
 20
119.4750118771117
 30
0.0
 11
520.6122857171135
 21
119.4750118771117
 31
0.0
  0
LINE
  5
175
330
1F
100
AcDbEntity
  8
通り芯
  6
Continuous
 62
     3
370
     9
100
AcDbLine
 10
481.6123055122994
 20
243.6935639252536
 30
0.0
 11
481.6123055122994
 21
280.9750250739022
 31
0.0
  0
LINE
  5
176
330
1F
100
AcDbEntity
  8
通り芯
  6
Continuous
 62
     3
370
     9
100
AcDbLine
 10
481.6123055122994
 20
-4.74354017103019
 30
0.0
 11
481.6123055122994
 21
-42.02500131967884
 31
0.0
  0
LINE
  5
177
330
1F
100
AcDbEntity
  8
通り芯
  6
JWW_PHANTOM2
 62
     3
370
     9
100
AcDbLine
 10
-77.88773407807219
 20
289.4749788851353
 30
0.0
 11
151.1122791187184
 21
289.4749788851353
 31
0.0
  0
LINE
  5
178
330
1F
100
AcDbEntity
  8
通り芯
  6
JWW_PHANTOM2
 62
     3
370
     9
100
AcDbLine
 10
-77.88773407807219
 20
-50.52500461887655
 30
0.0
 11
151.1122791187184
 21
-50.52500461887655
 31
0.0
  0
LINE
  5
179
330
1F
100
AcDbEntity
  8
通り芯
  6
Continuous
 62
     3
370
     9
100
AcDbLine
 10
-665.3876680941195
 20
-278.4881954708613
 30
0.0
 11
-550.3877340780722
 21
-311.4881558804898
 31
0.0
  0
LINE
  5
17A
330
1F
100
AcDbEntity
  8
通り芯
  6
Continuous
 62
     3
370
     9
100
AcDbLine
 10
-550.3877340780722
 20
-311.4881558804898
 30
0.0
 11
-206.3877868652344
 21
-311.4881558804898
 31
0.0
  0
LINE
  5
17B
330
1F
100
AcDbEntity
  8
通り芯
  6
Continuous
 62
     3
370
     9
100
AcDbLine
 10
-91.3878033612225
 20
-278.4881954708613
 30
0.0
 11
-206.3877868652344
 21
-311.4881558804898
 31
0.0
  0
LINE
  5
17C
330
1F
100
AcDbEntity
  8
躯体
  6
JWW_CENTER1
 62
     2
370
     9
100
AcDbLine
 10
-570.3878000620249
 20
298.9750844594596
 30
0.0
 11
-587.3877076844911
 21
298.9750844594596
 31
0.0
  0
LINE
  5
17D
330
1F
100
AcDbEntity
  8
躯体
  6
JWW_CENTER1
 62
     2
370
     9
100
AcDbLine
 10
29.61219993797511
 20
298.9750844594596
 30
0.0
 11
12.61229231550897
 21
298.9750844594596
 31
0.0
  0
LINE
  5
17E
330
1F
100
AcDbEntity
  8
躯体
  6
JWW_CENTER1
 62
     2
370
     9
100
AcDbLine
 10
-570.3878000620249
 20
-60.02506070523634
 30
0.0
 11
-587.3877076844911
 21
-60.02506070523634
 31
0.0
  0
LINE
  5
17F
330
1F
100
AcDbEntity
  8
躯体
  6
JWW_CENTER1
 62
     2
370
     9
100
AcDbLine
 10
29.61219993797511
 20
-60.02506070523634
 30
0.0
 11
12.61229231550897
 21
-60.02506070523634
 31
0.0
  0
LINE
  5
180
330
1F
100
AcDbEntity
  8
通り芯
  6
JWW_CENTER1
 62
     3
370
     9
100
AcDbLine
 10
-697.8877010860958
 20
119.4750118771117
 30
0.0
 11
171.112147150813
 21
119.4750118771117
 31
0.0
  0
LINE
  5
181
330
1F
100
AcDbEntity
  8
通り芯
  6
JWW_PHANTOM2
 62
     3
370
     9
100
AcDbLine
 10
-77.88773407807219
 20
289.4749788851353
 30
0.0
 11
-77.88773407807219
 21
-50.52500461887655
 31
0.0
  0
LINE
  5
182
330
1F
100
AcDbEntity
  8
通り芯
  6
Continuous
 62
     3
370
     9
100
AcDbLine
 10
-78.88778686523438
 20
-50.52500461887655
 30
0.0
 11
-78.88778686523438
 21
289.4749788851353
 31
0.0
  0
LINE
  5
183
330
1F
100
AcDbEntity
  8
通り芯
  6
Continuous
 62
     3
370
     9
100
AcDbLine
 10
-79.88783965239645
 20
-14.52498482369072
 30
0.0
 11
-79.88783965239645
 21
253.4749590899495
 31
0.0
  0
LINE
  5
184
330
1F
100
AcDbEntity
  8
通り芯
  6
Continuous
 62
     3
370
     9
100
AcDbLine
 10
-88.88772088128167
 20
-2.524994721283633
 30
0.0
 11
-88.88772088128167
 21
241.475018475507
 31
0.0
  0
LINE
  5
185
330
1F
100
AcDbEntity
  8
通り芯
  6
Continuous
 62
     3
370
     9
100
AcDbLine
 10
-92.38770768449103
 20
0.9749920819258477
 30
0.0
 11
-92.38770768449103
 21
237.9750316722975
 31
0.0
  0
LINE
  5
186
330
1F
100
AcDbEntity
  8
0-E
  6
Continuous
 62
     7
370
     9
100
AcDbLine
 10
220.8496299949853
 20
381.3887774493245
 30
0.0
 11
410.7002093340902
 21
381.3887774493245
 31
0.0
  0
LINE
  5
187
330
1F
100
AcDbEntity
  8
0-E
  6
Continuous
 62
     7
370
     9
100
AcDbLine
 10
410.7002093340902
 20
381.3887774493245
 30
0.0
 11
451.194132212046
 21
294.4751438450171
 31
0.0
  0
LINE
  5
188
330
1F
100
AcDbEntity
  8
躯体
  6
JWW_DASHED3
 62
     2
370
     9
100
AcDbLine
 10
-677.8877340780722
 20
244.4750778610644
 30
0.0
 11
151.1122791187184
 21
244.4750778610644
 31
0.0
  0
LINE
  5
189
330
1F
100
AcDbEntity
  8
躯体
  6
JWW_DASHED3
 62
     2
370
     9
100
AcDbLine
 10
-677.8877340780722
 20
-5.525054106841026
 30
0.0
 11
151.1122791187184
 21
-5.525054106841026
 31
0.0
  0
LINE
  5
18A
330
1F
100
AcDbEntity
  8
通り芯
  6
Continuous
 62
     3
370
     9
100
AcDbLine
 10
-606.5579099912901
 20
-250.4881030933275
 30
0.0
 11
-614.7176835343645
 21
-250.4881030933275
 31
0.0
  0
LINE
  5
18B
330
1F
100
AcDbEntity
  8
通り芯
  6
Continuous
 62
     3
370
     9
100
AcDbLine
 10
-615.7142226760451
 20
-249.5711900865708
 30
0.0
 11
-615.9710652119404
 21
-246.488188872466
 31
0.0
  0
LINE
  5
18C
330
1F
100
AcDbEntity
  8
通り芯
  6
Continuous
 62
     3
370
     9
100
AcDbLine
 10
-605.5613708496094
 20
-249.5711900865708
 30
0.0
 11
-605.3044293377851
 21
-246.488188872466
 31
0.0
  0
LINE
  5
18D
330
1F
100
AcDbEntity
  8
通り芯
  6
Continuous
 62
     3
370
     9
100
AcDbLine
 10
-150.2175614640519
 20
-250.4881030933275
 30
0.0
 11
-142.0578868969067
 21
-250.4881030933275
 31
0.0
  0
LINE
  5
18E
330
1F
100
AcDbEntity
  8
通り芯
  6
Continuous
 62
     3
370
     9
100
AcDbLine
 10
-141.0612982672613
 20
-249.5711900865708
 30
0.0
 11
-140.804455731366
 21
-246.488188872466
 31
0.0
  0
LINE
  5
18F
330
1F
100
AcDbEntity
  8
通り芯
  6
Continuous
 62
     3
370
     9
100
AcDbLine
 10
-151.2141500936972
 20
-249.5711900865708
 30
0.0
 11
-151.4710916055215
 21
-246.488188872466
 31
0.0
  0
LINE
  5
190
330
1F
100
AcDbEntity
  8
通り芯
  6
Continuous
 62
     3
370
     9
100
AcDbLine
 10
-604.6378264556059
 20
260.9749590899495
 30
0.0
 11
-604.6378264556059
 21
254.4750118771117
 31
0.0
  0
LINE
  5
191
330
1F
100
AcDbEntity
  8
通り芯
  6
Continuous
 62
     3
370
     9
100
AcDbLine
 10
-616.6378660459776
 20
260.9749590899495
 30
0.0
 11
-616.6378660459776
 21
254.4750118771117
 31
0.0
  0
LINE
  5
192
330
1F
100
AcDbEntity
  8
通り芯
  6
Continuous
 62
     3
370
     9
100
AcDbLine
 10
-604.6378264556059
 20
278.4748931059968
 30
0.0
 11
-604.6378264556059
 21
271.974945893159
 31
0.0
  0
LINE
  5
193
330
1F
100
AcDbEntity
  8
通り芯
  6
Continuous
 62
     3
370
     9
100
AcDbLine
 10
-616.6378660459776
 20
278.4748931059968
 30
0.0
 11
-616.6378660459776
 21
271.974945893159
 31
0.0
  0
LINE
  5
194
330
1F
100
AcDbEntity
  8
通り芯
  6
Continuous
 62
     3
370
     9
100
AcDbLine
 10
-152.1378924395586
 20
260.9749590899495
 30
0.0
 11
-152.1378924395586
 21
254.4750118771117
 31
0.0
  0
LINE
  5
195
330
1F
100
AcDbEntity
  8
通り芯
  6
Continuous
 62
     3
370
     9
100
AcDbLine
 10
-140.1378528491871
 20
260.9749590899495
 30
0.0
 11
-140.1378528491871
 21
254.4750118771117
 31
0.0
  0
LINE
  5
196
330
1F
100
AcDbEntity
  8
通り芯
  6
Continuous
 62
     3
370
     9
100
AcDbLine
 10
-152.1378924395586
 20
278.4748931059968
 30
0.0
 11
-152.1378924395586
 21
271.974945893159
 31
0.0
  0
LINE
  5
197
330
1F
100
AcDbEntity
  8
通り芯
  6
Continuous
 62
     3
370
     9
100
AcDbLine
 10
-140.1378528491871
 20
278.4748931059968
 30
0.0
 11
-140.1378528491871
 21
271.974945893159
 31
0.0
  0
LINE
  5
198
330
1F
100
AcDbEntity
  8
0-F
  6
Continuous
 62
     7
370
     9
100
AcDbLine
 10
421.6123055122994
 20
-155.5249056429475
 30
0.0
 11
508.8122764793602
 21
-155.5249056429475
 31
0.0
  0
LINE
  5
199
330
1F
100
AcDbEntity
  8
躯体
  6
Continuous
 62
     2
370
     9
100
AcDbLine
 10
421.6123055122994
 20
-55.52492213893561
 30
0.0
 11
496.8122368889885
 21
-55.52492213893561
 31
0.0
  0
LINE
  5
19A
330
1F
100
AcDbEntity
  8
躯体
  6
Continuous
 62
     2
370
     9
100
AcDbLine
 10
421.6123055122994
 20
294.4751438450171
 30
0.0
 11
496.8122368889885
 21
294.4751438450171
 31
0.0
  0
LINE
  5
19B
330
1F
100
AcDbEntity
  8
0-F
  6
Continuous
 62
     7
370
     9
100
AcDbLine
 10
568.8122764793602
 20
-84.52496832770248
 30
0.0
 11
568.8122764793602
 21
-55.52507060282926
 31
0.0
  0
LINE
  5
19C
330
1F
100
AcDbEntity
  8
0-F
  6
Continuous
 62
     7
370
     9
100
AcDbLine
 10
516.8123028729415
 20
-84.52496832770248
 30
0.0
 11
570.0122606432114
 21
-84.52496832770248
 31
0.0
  0
LINE
  5
19D
330
1F
100
AcDbEntity
  8
0-F
  6
Continuous
 62
     7
370
     9
100
AcDbLine
 10
504.8122632825698
 20
-55.52507060282926
 30
0.0
 11
570.0122606432114
 21
-55.52507060282926
 31
0.0
  0
LINE
  5
19E
330
1F
100
AcDbEntity
  8
0-F
  6
Continuous
 62
     7
370
     9
100
AcDbLine
 10
568.8122764793602
 20
-84.52496832770248
 30
0.0
 11
567.2459824020798
 21
-72.62761626372458
 31
0.0
  0
LINE
  5
19F
330
1F
100
AcDbEntity
  8
0-F
  6
Continuous
 62
     7
370
     9
100
AcDbLine
 10
568.8122764793602
 20
-84.52496832770248
 30
0.0
 11
570.3785705566406
 21
-72.62761626372458
 31
0.0
  0
LINE
  5
1A0
330
1F
100
AcDbEntity
  8
0-F
  6
Continuous
 62
     7
370
     9
100
AcDbLine
 10
568.8122764793602
 20
-55.52507060282926
 30
0.0
 11
567.2459824020798
 21
-67.42242266680728
 31
0.0
  0
LINE
  5
1A1
330
1F
100
AcDbEntity
  8
0-F
  6
Continuous
 62
     7
370
     9
100
AcDbLine
 10
568.8122764793602
 20
-55.52507060282926
 30
0.0
 11
570.3785705566406
 21
-67.42242266680728
 31
0.0
  0
LINE
  5
1A2
330
1F
100
AcDbEntity
  8
0-F
  6
Continuous
 62
     7
370
     9
100
AcDbLine
 10
568.8122764793602
 20
-55.52507060282926
 30
0.0
 11
568.8122764793602
 21
-5.524955130911962
 31
0.0
  0
LINE
  5
1A3
330
1F
100
AcDbEntity
  8
0-F
  6
Continuous
 62
     7
370
     9
100
AcDbLine
 10
492.8123226681273
 20
-5.524955130911962
 30
0.0
 11
570.0122606432114
 21
-5.524955130911962
 31
0.0
  0
LINE
  5
1A4
330
1F
100
AcDbEntity
  8
0-F
  6
Continuous
 62
     7
370
     9
100
AcDbLine
 10
568.8122764793602
 20
-55.52507060282926
 30
0.0
 11
567.2459824020798
 21
-43.62771853885113
 31
0.0
  0
LINE
  5
1A5
330
1F
100
AcDbEntity
  8
0-F
  6
Continuous
 62
     7
370
     9
100
AcDbLine
 10
568.8122764793602
 20
-55.52507060282926
 30
0.0
 11
570.3785705566406
 21
-43.62771853885113
 31
0.0
  0
LINE
  5
1A6
330
1F
100
AcDbEntity
  8
0-F
  6
Continuous
 62
     7
370
     9
100
AcDbLine
 10
568.8122764793602
 20
-5.524955130911962
 30
0.0
 11
567.2459824020798
 21
-17.42230719488998
 31
0.0
  0
LINE
  5
1A7
330
1F
100
AcDbEntity
  8
0-F
  6
Continuous
 62
     7
370
     9
100
AcDbLine
 10
568.8122764793602
 20
-5.524955130911962
 30
0.0
 11
570.3785705566406
 21
-17.42230719488998
 31
0.0
  0
LINE
  5
1A8
330
1F
100
AcDbEntity
  8
0-F
  6
Continuous
 62
     7
370
     9
100
AcDbLine
 10
568.8122764793602
 20
-5.524955130911962
 30
0.0
 11
568.8122764793602
 21
244.4749788851353
 31
0.0
  0
LINE
  5
1A9
330
1F
100
AcDbEntity
  8
0-F
  6
Continuous
 62
     7
370
     9
100
AcDbLine
 10
492.8123226681273
 20
244.4749788851353
 30
0.0
 11
570.0122606432114
 21
244.4749788851353
 31
0.0
  0
LINE
  5
1AA
330
1F
100
AcDbEntity
  8
0-F
  6
Continuous
 62
     7
370
     9
100
AcDbLine
 10
568.8122764793602
 20
-5.524955130911962
 30
0.0
 11
567.2459824020798
 21
6.372396933066057
 31
0.0
  0
LINE
  5
1AB
330
1F
100
AcDbEntity
  8
0-F
  6
Continuous
 62
     7
370
     9
100
AcDbLine
 10
568.8122764793602
 20
-5.524955130911962
 30
0.0
 11
570.3785705566406
 21
6.372396933066057
 31
0.0
  0
LINE
  5
1AC
330
1F
100
AcDbEntity
  8
0-F
  6
Continuous
 62
     7
370
     9
100
AcDbLine
 10
568.8122764793602
 20
244.4749788851353
 30
0.0
 11
567.2459824020798
 21
232.5776268211573
 31
0.0
  0
LINE
  5
1AD
330
1F
100
AcDbEntity
  8
0-F
  6
Continuous
 62
     7
370
     9
100
AcDbLine
 10
568.8122764793602
 20
244.4749788851353
 30
0.0
 11
570.3785705566406
 21
232.5776268211573
 31
0.0
  0
LINE
  5
1AE
330
1F
100
AcDbEntity
  8
0-F
  6
Continuous
 62
     7
370
     9
100
AcDbLine
 10
568.8122764793602
 20
244.4749788851353
 30
0.0
 11
568.8122764793602
 21
294.4751438450171
 31
0.0
  0
LINE
  5
1AF
330
1F
100
AcDbEntity
  8
0-F
  6
Continuous
 62
     7
370
     9
100
AcDbLine
 10
504.8122632825698
 20
294.4751438450171
 30
0.0
 11
570.0122606432114
 21
294.4751438450171
 31
0.0
  0
LINE
  5
1B0
330
1F
100
AcDbEntity
  8
0-F
  6
Continuous
 62
     7
370
     9
100
AcDbLine
 10
568.8122764793602
 20
244.4749788851353
 30
0.0
 11
567.2459824020798
 21
256.3723309491133
 31
0.0
  0
LINE
  5
1B1
330
1F
100
AcDbEntity
  8
0-F
  6
Continuous
 62
     7
370
     9
100
AcDbLine
 10
568.8122764793602
 20
244.4749788851353
 30
0.0
 11
570.3785705566406
 21
256.3723309491133
 31
0.0
  0
LINE
  5
1B2
330
1F
100
AcDbEntity
  8
0-F
  6
Continuous
 62
     7
370
     9
100
AcDbLine
 10
568.8122764793602
 20
294.4751438450171
 30
0.0
 11
567.2459824020798
 21
282.5778412690036
 31
0.0
  0
LINE
  5
1B3
330
1F
100
AcDbEntity
  8
0-F
  6
Continuous
 62
     7
370
     9
100
AcDbLine
 10
568.8122764793602
 20
294.4751438450171
 30
0.0
 11
570.3785705566406
 21
282.5778412690036
 31
0.0
  0
LINE
  5
1B4
330
1F
100
AcDbEntity
  8
0-F
  6
Continuous
 62
     7
370
     9
100
AcDbLine
 10
568.8122764793602
 20
294.4751438450171
 30
0.0
 11
568.8122764793602
 21
323.4750910578549
 31
0.0
  0
LINE
  5
1B5
330
1F
100
AcDbEntity
  8
0-F
  6
Continuous
 62
     7
370
     9
100
AcDbLine
 10
516.8123028729415
 20
323.4750910578549
 30
0.0
 11
570.0122606432114
 21
323.4750910578549
 31
0.0
  0
LINE
  5
1B6
330
1F
100
AcDbEntity
  8
0-F
  6
Continuous
 62
     7
370
     9
100
AcDbLine
 10
568.8122764793602
 20
294.4751438450171
 30
0.0
 11
567.2459824020798
 21
306.3724464210306
 31
0.0
  0
LINE
  5
1B7
330
1F
100
AcDbEntity
  8
0-F
  6
Continuous
 62
     7
370
     9
100
AcDbLine
 10
568.8122764793602
 20
294.4751438450171
 30
0.0
 11
570.3785705566406
 21
306.3724464210306
 31
0.0
  0
LINE
  5
1B8
330
1F
100
AcDbEntity
  8
0-F
  6
Continuous
 62
     7
370
     9
100
AcDbLine
 10
568.8122764793602
 20
323.4750910578549
 30
0.0
 11
567.2459824020798
 21
311.5777884818414
 31
0.0
  0
LINE
  5
1B9
330
1F
100
AcDbEntity
  8
0-F
  6
Continuous
 62
     7
370
     9
100
AcDbLine
 10
568.8122764793602
 20
323.4750910578549
 30
0.0
 11
570.3785705566406
 21
311.5777884818414
 31
0.0
  0
CIRCLE
  5
1BA
330
1F
100
AcDbEntity
  8
躯体
  6
Continuous
 62
     2
370
     9
100
AcDbCircle
 10
-578.887753873258
 20
298.9750844594596
 30
0.0
 40
4.500000154649889
  0
CIRCLE
  5
1BB
330
1F
100
AcDbEntity
  8
躯体
  6
Continuous
 62
     2
370
     9
100
AcDbCircle
 10
21.11224612674198
 20
298.9750844594596
 30
0.0
 40
4.500000154649889
  0
ARC
  5
1BC
330
1F
100
AcDbEntity
  8
躯体
  6
Continuous
 62
     2
370
     9
100
AcDbCircle
 10
478.412215774124
 20
288.0750633445948
 30
0.0
 40
3.200000041239971
100
AcDbArc
 50
0.0
 51
90.0
  0
ARC
  5
1BD
330
1F
100
AcDbEntity
  8
躯体
  6
Continuous
 62
     2
370
     9
100
AcDbCircle
 10
478.412215774124
 20
288.0750633445948
 30
0.0
 40
6.400000082479941
100
AcDbArc
 50
0.0
 51
90.0
  0
ARC
  5
1BE
330
1F
100
AcDbEntity
  8
躯体
  6
Continuous
 62
     2
370
     9
100
AcDbCircle
 10
478.412215774124
 20
-49.12499010240697
 30
0.0
 40
6.400000082479941
100
AcDbArc
 50
270.0
 51
0.0
  0
ARC
  5
1BF
330
1F
100
AcDbEntity
  8
躯体
  6
Continuous
 62
     2
370
     9
100
AcDbCircle
 10
478.412215774124
 20
-49.12499010240697
 30
0.0
 40
3.200000041239971
100
AcDbArc
 50
270.0
 51
0.0
  0
ARC
  5
1C0
330
1F
100
AcDbEntity
  8
躯体
  6
Continuous
 62
     2
370
     9
100
AcDbCircle
 10
21.11224612674198
 20
-60.02491224134269
 30
0.0
 40
4.500000154649889
100
AcDbArc
 50
1.403289794921875
 51
0.0
  0
ARC
  5
1C1
330
1F
100
AcDbEntity
  8
躯体
  6
Continuous
 62
     2
370
     9
100
AcDbCircle
 10
-578.887753873258
 20
-60.02491224134269
 30
0.0
 40
4.500000154649889
100
AcDbArc
 50
1.403289794921875
 51
0.0
  0
ARC
  5
1C2
330
1F
100
AcDbEntity
  8
通り芯
  6
Continuous
 62
     3
370
     9
100
AcDbCircle
 10
-676.88768129091
 20
-233.4881954708613
 30
0.0
 40
1.000000012887491
100
AcDbArc
 50
90.0
 51
180.0
  0
ARC
  5
1C3
330
1F
100
AcDbEntity
  8
通り芯
  6
Continuous
 62
     3
370
     9
100
AcDbCircle
 10
-673.4504452267208
 20
-291.488188872466
 30
0.0
 40
1.000000012887491
100
AcDbArc
 50
183.70849609375
 51
270.0
  0
ARC
  5
1C4
330
1F
100
AcDbEntity
  8
通り芯
  6
Continuous
 62
     3
370
     9
100
AcDbCircle
 10
-667.3188864218222
 20
-291.488188872466
 30
0.0
 40
1.000000012887491
100
AcDbArc
 50
270.0
 51
355.9134674072266
  0
ARC
  5
1C5
330
1F
100
AcDbEntity
  8
通り芯
  6
Continuous
 62
     3
370
     9
100
AcDbCircle
 10
-660.3086193187817
 20
-249.4881492820944
 30
0.0
 40
3.000000038662472
100
AcDbArc
 50
90.0
 51
175.9139556884765
  0
ARC
  5
1C6
330
1F
100
AcDbEntity
  8
通り芯
  6
Continuous
 62
     3
370
     9
100
AcDbCircle
 10
-431.4417287465688
 20
-291.488188872466
 30
0.0
 40
1.000000012887491
100
AcDbArc
 50
183.1801452636719
 51
270.0
  0
ARC
  5
1C7
330
1F
100
AcDbEntity
  8
通り芯
  6
Continuous
 62
     3
370
     9
100
AcDbCircle
 10
-437.78123597841
 20
-249.4881492820944
 30
0.0
 40
3.000000038662472
100
AcDbArc
 50
3.180191040039062
 51
90.0
  0
ARC
  5
1C8
330
1F
100
AcDbEntity
  8
通り芯
  6
Continuous
 62
     3
370
     9
100
AcDbCircle
 10
-436.0034303407411
 20
-281.4881558804898
 30
0.0
 40
3.000000038662472
100
AcDbArc
 50
3.180191040039062
 51
90.0
  0
ARC
  5
1C9
330
1F
100
AcDbEntity
  8
通り芯
  6
Continuous
 62
     3
370
     9
100
AcDbCircle
 10
-425.3338251887141
 20
-291.488188872466
 30
0.0
 40
1.000000012887491
100
AcDbArc
 50
270.0
 51
356.8198547363282
  0
ARC
  5
1CA
330
1F
100
AcDbEntity
  8
通り芯
  6
Continuous
 62
     3
370
     9
100
AcDbCircle
 10
-418.9942189809438
 20
-249.4881492820944
 30
0.0
 40
3.000000038662472
100
AcDbArc
 50
90.0
 51
176.8198089599609
  0
ARC
  5
1CB
330
1F
100
AcDbEntity
  8
通り芯
  6
Continuous
 62
     3
370
     9
100
AcDbCircle
 10
-420.7720246186127
 20
-281.4881558804898
 30
0.0
 40
3.000000038662472
100
AcDbArc
 50
90.0
 51
176.8198089599609
  0
ARC
  5
1CC
330
1F
100
AcDbEntity
  8
通り芯
  6
Continuous
 62
     3
370
     9
100
AcDbCircle
 10
-553.4417353449641
 20
-291.488188872466
 30
0.0
 40
1.000000012887491
100
AcDbArc
 50
183.1801452636719
 51
270.0
  0
ARC
  5
1CD
330
1F
100
AcDbEntity
  8
通り芯
  6
Continuous
 62
     3
370
     9
100
AcDbCircle
 10
-559.7813415527344
 20
-249.4881492820944
 30
0.0
 40
3.000000038662472
100
AcDbArc
 50
3.180191040039062
 51
90.0
  0
ARC
  5
1CE
330
1F
100
AcDbEntity
  8
通り芯
  6
Continuous
 62
     3
370
     9
100
AcDbCircle
 10
-558.0035359150654
 20
-281.4881558804898
 30
0.0
 40
3.000000038662472
100
AcDbArc
 50
3.180191040039062
 51
90.0
  0
ARC
  5
1CF
330
1F
100
AcDbEntity
  8
通り芯
  6
Continuous
 62
     3
370
     9
100
AcDbCircle
 10
-547.3337328111803
 20
-291.488188872466
 30
0.0
 40
1.000000012887491
100
AcDbArc
 50
270.0
 51
356.8198547363282
  0
ARC
  5
1D0
330
1F
100
AcDbEntity
  8
通り芯
  6
Continuous
 62
     3
370
     9
100
AcDbCircle
 10
-540.9943245552681
 20
-249.4881492820944
 30
0.0
 40
3.000000038662472
100
AcDbArc
 50
90.0
 51
176.8198089599609
  0
ARC
  5
1D1
330
1F
100
AcDbEntity
  8
通り芯
  6
Continuous
 62
     3
370
     9
100
AcDbCircle
 10
-542.7721301929371
 20
-281.4881558804898
 30
0.0
 40
3.000000038662472
100
AcDbArc
 50
90.0
 51
176.8198089599609
  0
ARC
  5
1D2
330
1F
100
AcDbEntity
  8
通り芯
  6
Continuous
 62
     3
370
     9
100
AcDbCircle
 10
-79.88779016443198
 20
-233.4881954708613
 30
0.0
 40
1.000000012887491
100
AcDbArc
 50
0.0
 51
90.0
  0
ARC
  5
1D3
330
1F
100
AcDbEntity
  8
通り芯
  6
Continuous
 62
     3
370
     9
100
AcDbCircle
 10
-83.32507571658573
 20
-291.488188872466
 30
0.0
 40
1.000000012887491
100
AcDbArc
 50
270.0
 51
356.29150390625
  0
ARC
  5
1D4
330
1F
100
AcDbEntity
  8
通り芯
  6
Continuous
 62
     3
370
     9
100
AcDbCircle
 10
-89.45668400944885
 20
-291.488188872466
 30
0.0
 40
1.000000012887491
100
AcDbArc
 50
184.0865325927734
 51
270.0
  0
ARC
  5
1D5
330
1F
100
AcDbEntity
  8
通り芯
  6
Continuous
 62
     3
370
     9
100
AcDbCircle
 10
-96.4669016245249
 20
-249.4881492820944
 30
0.0
 40
3.000000038662472
100
AcDbArc
 50
4.086044311523438
 51
90.0
  0
ARC
  5
1D6
330
1F
100
AcDbEntity
  8
通り芯
  6
Continuous
 62
     3
370
     9
100
AcDbCircle
 10
-325.3337921967377
 20
-291.488188872466
 30
0.0
 40
1.000000012887491
100
AcDbArc
 50
270.0
 51
356.8198547363282
  0
ARC
  5
1D7
330
1F
100
AcDbEntity
  8
通り芯
  6
Continuous
 62
     3
370
     9
100
AcDbCircle
 10
-318.9942849648965
 20
-249.4881492820944
 30
0.0
 40
3.000000038662472
100
AcDbArc
 50
90.0
 51
176.8198089599609
  0
ARC
  5
1D8
330
1F
100
AcDbEntity
  8
通り芯
  6
Continuous
 62
     3
370
     9
100
AcDbCircle
 10
-320.7720906025654
 20
-281.4881558804898
 30
0.0
 40
3.000000038662472
100
AcDbArc
 50
90.0
 51
176.8198089599609
  0
ARC
  5
1D9
330
1F
100
AcDbEntity
  8
通り芯
  6
Continuous
 62
     3
370
     9
100
AcDbCircle
 10
-331.4416957545924
 20
-291.488188872466
 30
0.0
 40
1.000000012887491
100
AcDbArc
 50
183.1801452636719
 51
270.0
  0
ARC
  5
1DA
330
1F
100
AcDbEntity
  8
通り芯
  6
Continuous
 62
     3
370
     9
100
AcDbCircle
 10
-337.7813019623627
 20
-249.4881492820944
 30
0.0
 40
3.000000038662472
100
AcDbArc
 50
3.180191040039062
 51
90.0
  0
ARC
  5
1DB
330
1F
100
AcDbEntity
  8
通り芯
  6
Continuous
 62
     3
370
     9
100
AcDbCircle
 10
-336.0034963246937
 20
-281.4881558804898
 30
0.0
 40
3.000000038662472
100
AcDbArc
 50
3.180191040039062
 51
90.0
  0
ARC
  5
1DC
330
1F
100
AcDbEntity
  8
通り芯
  6
Continuous
 62
     3
370
     9
100
AcDbCircle
 10
-203.3337855983424
 20
-291.488188872466
 30
0.0
 40
1.000000012887491
100
AcDbArc
 50
270.0
 51
356.8198547363282
  0
ARC
  5
1DD
330
1F
100
AcDbEntity
  8
通り芯
  6
Continuous
 62
     3
370
     9
100
AcDbCircle
 10
-196.9942783665012
 20
-249.4881492820944
 30
0.0
 40
3.000000038662472
100
AcDbArc
 50
90.0
 51
176.8198089599609
  0
ARC
  5
1DE
330
1F
100
AcDbEntity
  8
通り芯
  6
Continuous
 62
     3
370
     9
100
AcDbCircle
 10
-198.7720840041701
 20
-281.4881558804898
 30
0.0
 40
3.000000038662472
100
AcDbArc
 50
90.0
 51
176.8198089599609
  0
ARC
  5
1DF
330
1F
100
AcDbEntity
  8
通り芯
  6
Continuous
 62
     3
370
     9
100
AcDbCircle
 10
-209.4417881321262
 20
-291.488188872466
 30
0.0
 40
1.000000012887491
100
AcDbArc
 50
183.1801452636719
 51
270.0
  0
ARC
  5
1E0
330
1F
100
AcDbEntity
  8
通り芯
  6
Continuous
 62
     3
370
     9
100
AcDbCircle
 10
-215.7811963880384
 20
-249.4881492820944
 30
0.0
 40
3.000000038662472
100
AcDbArc
 50
3.180191040039062
 51
90.0
  0
ARC
  5
1E1
330
1F
100
AcDbEntity
  8
通り芯
  6
Continuous
 62
     3
370
     9
100
AcDbCircle
 10
-214.0033907503695
 20
-281.4881558804898
 30
0.0
 40
3.000000038662472
100
AcDbArc
 50
3.180191040039062
 51
90.0
  0
ARC
  5
1E2
330
1F
100
AcDbEntity
  8
躯体
  6
Continuous
 62
     2
370
     9
100
AcDbCircle
 10
496.8123358649177
 20
306.4750844594596
 30
0.0
 40
3.000000038662472
100
AcDbArc
 50
270.0
 51
0.0
  0
ARC
  5
1E3
330
1F
100
AcDbEntity
  8
躯体
  6
JWW_CENTER1
 62
     2
370
     9
100
AcDbCircle
 10
496.8121379130598
 20
306.4750844594596
 30
0.0
 40
7.5
100
AcDbArc
 50
270.0
 51
0.0
  0
ARC
  5
1E4
330
1F
100
AcDbEntity
  8
躯体
  6
Continuous
 62
     2
370
     9
100
AcDbCircle
 10
496.8122368889885
 20
306.4751834353887
 30
0.0
 40
12.00000015464989
100
AcDbArc
 50
270.0
 51
0.0
  0
ARC
  5
1E5
330
1F
100
AcDbEntity
  8
躯体
  6
Continuous
 62
     2
370
     9
100
AcDbCircle
 10
496.8123358649177
 20
-67.52496172930728
 30
0.0
 40
3.000000038662472
100
AcDbArc
 50
0.0
 51
90.0
  0
ARC
  5
1E6
330
1F
100
AcDbEntity
  8
躯体
  6
JWW_CENTER1
 62
     2
370
     9
100
AcDbCircle
 10
496.8121379130598
 20
-67.52496172930728
 30
0.0
 40
7.5
100
AcDbArc
 50
0.0
 51
90.0
  0
ARC
  5
1E7
330
1F
100
AcDbEntity
  8
躯体
  6
Continuous
 62
     2
370
     9
100
AcDbCircle
 10
496.8122368889885
 20
-67.52506070523634
 30
0.0
 40
12.00000015464989
100
AcDbArc
 50
0.0
 51
90.0
  0
ARC
  5
1E8
330
1F
100
AcDbEntity
  8
通り芯
  6
Continuous
 62
     3
370
     9
100
AcDbCircle
 10
434.6122989139044
 20
264.357758393159
 30
0.0
 40
1.000000012887491
100
AcDbArc
 50
277.1250152587891
 51
0.0000000000000254
  0
ARC
  5
1E9
330
1F
100
AcDbEntity
  8
通り芯
  6
Continuous
 62
     3
370
     9
100
AcDbCircle
 10
422.6122593235327
 20
287.6277911211995
 30
0.0
 40
1.000000012887491
100
AcDbArc
 50
99.46231079101562
 51
180.0
  0
ARC
  5
1EA
330
1F
100
AcDbEntity
  8
通り芯
  6
Continuous
 62
     3
370
     9
100
AcDbCircle
 10
422.6122593235327
 20
280.3220808699326
 30
0.0
 40
1.000000012887491
100
AcDbArc
 50
180.0
 51
260.5376739501953
  0
ARC
  5
1EB
330
1F
100
AcDbEntity
  8
通り芯
  6
Continuous
 62
     3
370
     9
100
AcDbCircle
 10
434.6122989139044
 20
286.0921795819258
 30
0.0
 40
1.000000012887491
100
AcDbArc
 50
0.0
 51
82.87496948242186
  0
ARC
  5
1EC
330
1F
100
AcDbEntity
  8
通り芯
  6
Continuous
 62
     3
370
     9
100
AcDbCircle
 10
434.6122989139044
 20
281.8577913851353
 30
0.0
 40
1.000000012887491
100
AcDbArc
 50
277.1250152587891
 51
0.0000000000000254
  0
ARC
  5
1ED
330
1F
100
AcDbEntity
  8
通り芯
  6
Continuous
 62
     3
370
     9
100
AcDbCircle
 10
434.6122989139044
 20
268.5921465899495
 30
0.0
 40
1.000000012887491
100
AcDbArc
 50
0.0
 51
82.87496948242186
  0
ARC
  5
1EE
330
1F
100
AcDbEntity
  8
通り芯
  6
Continuous
 62
     3
370
     9
100
AcDbCircle
 10
422.6122593235327
 20
262.8221468538853
 30
0.0
 40
1.000000012887491
100
AcDbArc
 50
180.0
 51
260.5376739501953
  0
ARC
  5
1EF
330
1F
100
AcDbEntity
  8
通り芯
  6
Continuous
 62
     3
370
     9
100
AcDbCircle
 10
422.6122593235327
 20
270.1278571051522
 30
0.0
 40
1.000000012887491
100
AcDbArc
 50
99.46231079101562
 51
180.0
  0
ARC
  5
1F0
330
1F
100
AcDbEntity
  8
通り芯
  6
Continuous
 62
     3
370
     9
100
AcDbCircle
 10
422.6122593235327
 20
245.3912980363177
 30
0.0
 40
1.000000012887491
100
AcDbArc
 50
180.0
 51
264.9993438720703
  0
ARC
  5
1F1
330
1F
100
AcDbEntity
  8
通り芯
  6
Continuous
 62
     3
370
     9
100
AcDbCircle
 10
422.6122593235327
 20
252.6278241131758
 30
0.0
 40
1.000000012887491
100
AcDbArc
 50
99.46231079101562
 51
180.0
  0
ARC
  5
1F2
330
1F
100
AcDbEntity
  8
通り芯
  6
Continuous
 62
     3
370
     9
100
AcDbCircle
 10
429.6123319058806
 20
252.8093459670609
 30
0.0
 40
2.000000025774982
100
AcDbArc
 50
180.0
 51
264.9993438720703
  0
ARC
  5
1F3
330
1F
100
AcDbEntity
  8
通り芯
  6
Continuous
 62
     3
370
     9
100
AcDbCircle
 10
458.6122791187186
 20
238.2260346283786
 30
0.0
 40
3.000000038662472
100
AcDbArc
 50
2.171249389648438
 51
84.99934387207031
  0
ARC
  5
1F4
330
1F
100
AcDbEntity
  8
通り芯
  6
Continuous
 62
     3
370
     9
100
AcDbCircle
 10
471.6122725203231
 20
126.8376827755492
 30
0.0
 40
3.000000038662472
100
AcDbArc
 50
180.0
 51
267.3162231445312
  0
ARC
  5
1F5
330
1F
100
AcDbEntity
  8
通り芯
  6
Continuous
 62
     3
370
     9
100
AcDbCircle
 10
464.6122989139044
 20
243.7239495354731
 30
0.0
 40
4.000000051549963
100
AcDbArc
 50
1.628433227539062
 51
84.99934387207031
  0
ARC
  5
1F6
330
1F
100
AcDbEntity
  8
通り芯
  6
Continuous
 62
     3
370
     9
100
AcDbCircle
 10
464.6122989139044
 20
-4.773975269214361
 30
0.0
 40
4.000000051549963
100
AcDbArc
 50
275.0006408691406
 51
0.0000000000000127
  0
ARC
  5
1F7
330
1F
100
AcDbEntity
  8
通り芯
  6
Continuous
 62
     3
370
     9
100
AcDbCircle
 10
471.6122725203231
 20
112.1123409786742
 30
0.0
 40
3.000000038662472
100
AcDbArc
 50
92.68376159667969
 51
180.0
  0
ARC
  5
1F8
330
1F
100
AcDbEntity
  8
通り芯
  6
Continuous
 62
     3
370
     9
100
AcDbCircle
 10
458.6122791187186
 20
0.7239396378802212
 30
0.0
 40
3.000000038662472
100
AcDbArc
 50
275.0006408691406
 51
0.0000000000000127
  0
ARC
  5
1F9
330
1F
100
AcDbEntity
  8
通り芯
  6
Continuous
 62
     3
370
     9
100
AcDbCircle
 10
429.6123319058806
 20
-13.85942118876676
 30
0.0
 40
2.000000025774982
100
AcDbArc
 50
95.00064086914061
 51
180.0
  0
ARC
  5
1FA
330
1F
100
AcDbEntity
  8
通り芯
  6
Continuous
 62
     3
370
     9
100
AcDbCircle
 10
422.6122593235327
 20
-13.67789933488154
 30
0.0
 40
1.000000012887491
100
AcDbArc
 50
180.0
 51
260.5376739501953
  0
ARC
  5
1FB
330
1F
100
AcDbEntity
  8
通り芯
  6
Continuous
 62
     3
370
     9
100
AcDbCircle
 10
422.6122593235327
 20
-6.441323770058943
 30
0.0
 40
1.000000012887491
100
AcDbArc
 50
95.00064086914061
 51
180.0
  0
ARC
  5
1FC
330
1F
100
AcDbEntity
  8
通り芯
  6
Continuous
 62
     3
370
     9
100
AcDbCircle
 10
422.6122593235327
 20
-31.17788283889342
 30
0.0
 40
1.000000012887491
100
AcDbArc
 50
180.0
 51
260.5376739501953
  0
ARC
  5
1FD
330
1F
100
AcDbEntity
  8
通り芯
  6
Continuous
 62
     3
370
     9
100
AcDbCircle
 10
422.6122593235327
 20
-23.87217258762655
 30
0.0
 40
1.000000012887491
100
AcDbArc
 50
99.46231079101562
 51
180.0
  0
ARC
  5
1FE
330
1F
100
AcDbEntity
  8
通り芯
  6
Continuous
 62
     3
370
     9
100
AcDbCircle
 10
434.6122989139044
 20
-29.64227129961978
 30
0.0
 40
1.000000012887491
100
AcDbArc
 50
277.1250152587891
 51
0.0000000000000254
  0
ARC
  5
1FF
330
1F
100
AcDbEntity
  8
通り芯
  6
Continuous
 62
     3
370
     9
100
AcDbCircle
 10
434.6122989139044
 20
-42.90781711887655
 30
0.0
 40
1.000000012887491
100
AcDbArc
 50
1.403289794921875
 51
82.87496948242188
  0
ARC
  5
200
330
1F
100
AcDbEntity
  8
通り芯
  6
Continuous
 62
     3
370
     9
100
AcDbCircle
 10
434.6122989139044
 20
-47.14225480363154
 30
0.0
 40
1.000000012887491
100
AcDbArc
 50
277.1250152587891
 51
0.0000000000000254
  0
ARC
  5
201
330
1F
100
AcDbEntity
  8
通り芯
  6
Continuous
 62
     3
370
     9
100
AcDbCircle
 10
422.6122593235327
 20
-41.37215609163832
 30
0.0
 40
1.000000012887491
100
AcDbArc
 50
99.46231079101562
 51
180.0
  0
ARC
  5
202
330
1F
100
AcDbEntity
  8
通り芯
  6
Continuous
 62
     3
370
     9
100
AcDbCircle
 10
422.6122593235327
 20
-48.67791583086978
 30
0.0
 40
1.000000012887491
100
AcDbArc
 50
180.0
 51
260.5376739501953
  0
ARC
  5
203
330
1F
100
AcDbEntity
  8
通り芯
  6
Continuous
 62
     3
370
     9
100
AcDbCircle
 10
434.6122989139044
 20
-25.40783361486467
 30
0.0
 40
1.000000012887491
100
AcDbArc
 50
1.403289794921875
 51
82.87496948242188
  0
ARC
  5
204
330
1F
100
AcDbEntity
  8
通り芯
  6
Continuous
 62
     3
370
     9
100
AcDbCircle
 10
-95.38776707004854
 20
237.9750316722975
 30
0.0
 40
3.000000038662472
100
AcDbArc
 50
0.0
 51
90.0
  0
ARC
  5
205
330
1F
100
AcDbEntity
  8
通り芯
  6
Continuous
 62
     3
370
     9
100
AcDbCircle
 10
-91.88778026683906
 20
241.475018475507
 30
0.0
 40
3.000000038662472
100
AcDbArc
 50
0.0
 51
90.0
  0
ARC
  5
206
330
1F
100
AcDbEntity
  8
通り芯
  6
Continuous
 62
     3
370
     9
100
AcDbCircle
 10
-664.8877406764675
 20
241.475018475507
 30
0.0
 40
3.000000038662472
100
AcDbArc
 50
89.99998474121094
 51
180.0
  0
ARC
  5
207
330
1F
100
AcDbEntity
  8
通り芯
  6
Continuous
 62
     3
370
     9
100
AcDbCircle
 10
-661.387753873258
 20
237.9750316722975
 30
0.0
 40
3.000000038662472
100
AcDbArc
 50
89.99998474121094
 51
180.0
  0
ARC
  5
208
330
1F
100
AcDbEntity
  8
通り芯
  6
Continuous
 62
     3
370
     9
100
AcDbCircle
 10
-661.387753873258
 20
0.9749920819258477
 30
0.0
 40
3.000000038662472
100
AcDbArc
 50
180.0
 51
270.0
  0
ARC
  5
209
330
1F
100
AcDbEntity
  8
通り芯
  6
Continuous
 62
     3
370
     9
100
AcDbCircle
 10
-664.8877406764675
 20
-2.524994721283633
 30
0.0
 40
3.000000038662472
100
AcDbArc
 50
180.0
 51
270.0
  0
ARC
  5
20A
330
1F
100
AcDbEntity
  8
通り芯
  6
Continuous
 62
     3
370
     9
100
AcDbCircle
 10
-91.88778026683906
 20
-2.524994721283633
 30
0.0
 40
3.000000038662472
100
AcDbArc
 50
270.0
 51
0.0
  0
ARC
  5
20B
330
1F
100
AcDbEntity
  8
通り芯
  6
Continuous
 62
     3
370
     9
100
AcDbCircle
 10
-95.38776707004854
 20
0.9749920819258477
 30
0.0
 40
3.000000038662472
100
AcDbArc
 50
270.0
 51
0.0
  0
ARC
  5
20C
330
1F
100
AcDbEntity
  8
通り芯
  6
Continuous
 62
     3
370
     9
100
AcDbCircle
 10
483.5238276301206
 20
241.3813872466218
 30
0.0
 40
3.000000038662472
100
AcDbArc
 50
129.5812072753906
 51
234.434829711914
  0
ARC
  5
20D
330
1F
100
AcDbEntity
  8
通り芯
  6
Continuous
 62
     3
370
     9
100
AcDbCircle
 10
483.5238276301206
 20
-2.431363492398532
 30
0.0
 40
3.000000038662472
100
AcDbArc
 50
125.5651550292969
 51
230.4187927246094
  0
ARC
  5
20E
330
1F
100
AcDbEntity
  8
通り芯
  6
Continuous
 62
     3
370
     9
100
AcDbCircle
 10
-614.7176835343645
 20
-249.4881492820944
 30
0.0
 40
1.000000012887491
100
AcDbArc
 50
184.763412475586
 51
270.0
  0
ARC
  5
20F
330
1F
100
AcDbEntity
  8
通り芯
  6
Continuous
 62
     3
370
     9
100
AcDbCircle
 10
-606.5579099912901
 20
-249.4881492820944
 30
0.0
 40
1.000000012887491
100
AcDbArc
 50
270.0
 51
355.2365875244141
  0
ARC
  5
210
330
1F
100
AcDbEntity
  8
通り芯
  6
Continuous
 62
     3
370
     9
100
AcDbCircle
 10
-142.0578868969067
 20
-249.4881492820944
 30
0.0
 40
1.000000012887491
100
AcDbArc
 50
270.0
 51
355.2365875244141
  0
ARC
  5
211
330
1F
100
AcDbEntity
  8
通り芯
  6
Continuous
 62
     3
370
     9
100
AcDbCircle
 10
-150.2175614640519
 20
-249.4881492820944
 30
0.0
 40
1.000000012887491
100
AcDbArc
 50
184.7634124755859
 51
270.0
  0
TEXT
  5
212
330
1F
100
AcDbEntity
  8
0-E
  6
Continuous
 62
     7
370
     9
100
AcDbText
 10
233.3162223197319
 20
-133.0508803315032
 30
0.0
 40
9.144
  1
蓋本体：ＦＣＤ５００
 41
1.15
  7
ＭＳ ゴシック
100
AcDbText
  0
TEXT
  5
213
330
1F
100
AcDbEntity
  8
0-F
  6
Continuous
 62
     2
370
     9
100
AcDbText
 10
-641.3877810916384
 20
358.7311504434123
 30
0.0
 40
12.192
  1
100
 41
1.083333333333333
  7
ＭＳ ゴシック
100
AcDbText
  0
TEXT
  5
214
330
1F
100
AcDbEntity
  8
0-F
  6
Continuous
 62
     2
370
     9
100
AcDbText
 10
-291.3877274796769
 20
358.7311504434123
 30
0.0
 40
12.192
  1
600
 41
1.083333333333333
  7
ＭＳ ゴシック
100
AcDbText
  0
TEXT
  5
215
330
1F
100
AcDbEntity
  8
0-F
  6
Continuous
 62
     2
370
     9
100
AcDbText
 10
125.1122857171138
 20
358.7311504434123
 30
0.0
 40
12.192
  1
600
 41
1.083333333333333
  7
ＭＳ ゴシック
100
AcDbText
  0
TEXT
  5
216
330
1F
100
AcDbEntity
  8
0-F
  6
Continuous
 62
     2
370
     9
100
AcDbText
 10
-150.8701015163113
 20
398.7311834353886
 30
0.0
 40
12.192
  1
2000
 41
1.09375
  7
ＭＳ ゴシック
100
AcDbText
  0
TEXT
  5
217
330
1F
100
AcDbEntity
  8
0-F
  6
Continuous
 62
     2
370
     9
100
AcDbText
 10
-391.3877604716532
 20
-164.2414266258444
 30
0.0
 40
12.192
  1
599
 41
1.083333333333333
  7
ＭＳ ゴシック
100
AcDbText
  0
TEXT
  5
218
330
1F
100
AcDbEntity
  8
0-F
  6
Continuous
 62
     2
370
     9
100
AcDbText
 10
-60.45887632627739
 20
-164.2414266258444
 30
0.0
 40
12.192
  1
1
  7
ＭＳ ゴシック
100
AcDbText
  0
TEXT
  5
219
330
1F
100
AcDbEntity
  8
0-F
  6
Continuous
 62
     2
370
     9
100
AcDbText
 10
120.1393391377218
 20
-164.2414266258444
 30
0.0
 40
12.192
  1
599
 41
1.083333333333333
  7
ＭＳ ゴシック
100
AcDbText
  0
TEXT
  5
21A
330
1F
100
AcDbEntity
  8
0-F
  6
Continuous
 62
     2
370
     9
100
AcDbText
 10
443.112256024335
 20
-111.2689155405404
 30
0.0
 40
12.192
  1
60
 41
1.0625
  7
ＭＳ ゴシック
100
AcDbText
  0
TEXT
  5
21B
330
1F
100
AcDbEntity
  8
0-F
  6
Continuous
 62
     2
370
     9
100
AcDbText
 10
435.7123008934227
 20
-151.2688990445523
 30
0.0
 40
12.192
  1
63.2
 41
1.09375
  7
ＭＳ ゴシック
100
AcDbText
  0
TEXT
  5
21C
330
1F
100
AcDbEntity
  8
0-F
  6
Continuous
 62
     2
370
     9
100
AcDbText
 10
433.1123220082877
 20
51.23387228146137
 30
0.0
 40
12.192
  1
40
 41
1.0625
  7
ＭＳ ゴシック
100
AcDbText
  0
TEXT
  5
21D
330
1F
100
AcDbEntity
  8
0-E
  6
Continuous
 62
     7
370
     9
100
AcDbText
 10
540.4036213642844
 20
397.0330182643584
 30
0.0
 40
9.144
  1
アンカー：φ９
 41
1.142857142857143
  7
ＭＳ ゴシック
100
AcDbText
  0
TEXT
  5
21E
330
1F
100
AcDbEntity
  8
0-F
  6
Continuous
 62
     3
370
     9
100
AcDbText
 10
339.9303992031402
 20
270.3527191000782
 30
0.0
 40
12.192
  1
6.5
 50
90.00000250447899
 41
0.5916666666666691
  7
ＭＳ ゴシック
100
AcDbText
  0
TEXT
  5
21F
330
1F
100
AcDbEntity
  8
0-F
  6
Continuous
 62
     3
370
     9
100
AcDbText
 10
357.3562991193477
 20
278.6485172419701
 30
0.0
 40
12.192
  1
11
 50
90.00000250447756
 41
0.587499999999992
  7
ＭＳ ゴシック
100
AcDbText
  0
TEXT
  5
220
330
1F
100
AcDbEntity
  8
0-F
  6
Continuous
 62
     3
370
     9
100
AcDbText
 10
357.3562991193477
 20
261.3184259201795
 30
0.0
 40
12.192
  1
11
 50
90.00000250447756
 41
0.587499999999992
  7
ＭＳ ゴシック
100
AcDbText
  0
TEXT
  5
221
330
1F
100
AcDbEntity
  8
0-F
  6
Continuous
 62
     3
370
     9
100
AcDbText
 10
357.3562991193477
 20
244.1668624304202
 30
0.0
 40
12.192
  1
10
 50
90.00000250447756
 41
0.587499999999992
  7
ＭＳ ゴシック
100
AcDbText
  0
TEXT
  5
222
330
1F
100
AcDbEntity
  8
0-F
  6
Continuous
 62
     2
370
     9
100
AcDbText
 10
357.3562992854512
 20
-36.52495522952496
 30
0.0
 40
12.192
  1
45
 50
90.00000250447789
 41
1.062500000000001
  7
ＭＳ ゴシック
100
AcDbText
  0
TEXT
  5
223
330
1F
100
AcDbEntity
  8
0-F
  6
Continuous
 62
     2
370
     9
100
AcDbText
 10
317.3562664901759
 20
308.6777870635495
 30
0.0
 40
12.192
  1
3.2
 50
90.00000250447873
 41
1.083333333333334
  7
ＭＳ ゴシック
100
AcDbText
  0
TEXT
  5
224
330
1F
100
AcDbEntity
  8
0-F
  6
Continuous
 62
     2
370
     9
100
AcDbText
 10
317.3562664901759
 20
265.5561522451374
 30
0.0
 40
12.192
  1
1.8
 50
90.00000250447873
 41
1.083333333333334
  7
ＭＳ ゴシック
100
AcDbText
  0
TEXT
  5
225
330
1F
100
AcDbEntity
  8
0-F
  6
Continuous
 62
     2
370
     9
100
AcDbText
 10
317.3562664901759
 20
-52.65536921284392
 30
0.0
 40
12.192
  1
1.8
 50
90.00000250447873
 41
1.083333333333315
  7
ＭＳ ゴシック
100
AcDbText
  0
TEXT
  5
226
330
1F
100
AcDbEntity
  8
0-F
  6
Continuous
 62
     2
370
     9
100
AcDbText
 10
317.3562664901759
 20
-94.0958483883084
 30
0.0
 40
12.192
  1
3.2
 50
90.00000250447873
 41
1.083333333333315
  7
ＭＳ ゴシック
100
AcDbText
  0
TEXT
  5
227
330
1F
100
AcDbEntity
  8
0-F
  6
Continuous
 62
     2
370
     9
100
AcDbText
 10
-391.3877604716532
 20
-131.3206469594594
 30
0.0
 40
12.192
  1
579
 41
1.083333333333333
  7
ＭＳ ゴシック
100
AcDbText
  0
TEXT
  5
228
330
1F
100
AcDbEntity
  8
0-F
  6
Continuous
 62
     3
370
     9
100
AcDbText
 10
339.9303992031402
 20
248.7345946279498
 30
0.0
 40
12.192
  1
6.5
 50
90.00000250447899
 41
0.5916666666666691
  7
ＭＳ ゴシック
100
AcDbText
  0
TEXT
  5
229
330
1F
100
AcDbEntity
  8
0-F
  6
Continuous
 62
     2
370
     9
100
AcDbText
 10
473.2902246423671
 20
51.23387228146137
 30
0.0
 40
12.192
  1
7
  7
ＭＳ ゴシック
100
AcDbText
  0
TEXT
  5
22A
330
1F
100
AcDbEntity
  8
0-F
  6
Continuous
 62
     2
370
     9
100
AcDbText
 10
357.3562994821524
 20
106.4750117784988
 30
0.0
 40
12.192
  1
250
 50
90.00000250447873
 41
1.083333333333334
  7
ＭＳ ゴシック
100
AcDbText
  0
TEXT
  5
22B
330
1F
100
AcDbEntity
  8
0-F
  6
Continuous
 62
     2
370
     9
100
AcDbText
 10
317.3562664901759
 20
106.4750117784988
 30
0.0
 40
12.192
  1
340
 50
90.00000250447873
 41
1.083333333333334
  7
ＭＳ ゴシック
100
AcDbText
  0
TEXT
  5
22C
330
1F
100
AcDbEntity
  8
0-F
  6
Continuous
 62
     2
370
     9
100
AcDbText
 10
277.3562334981997
 20
106.4750612664634
 30
0.0
 40
12.192
  1
350
 50
90.00000250447873
 41
1.083333333333334
  7
ＭＳ ゴシック
100
AcDbText
  0
TEXT
  5
22D
330
1F
100
AcDbEntity
  8
0-F
  6
Continuous
 62
     2
370
     9
100
AcDbText
 10
513.61884782121
 20
51.23387228146137
 30
0.0
 40
12.192
  1
32
 41
1.0625
  7
ＭＳ ゴシック
100
AcDbText
  0
TEXT
  5
22E
330
1F
100
AcDbEntity
  8
0-E
  6
Continuous
 62
     7
370
     9
100
AcDbText
 10
221.4611824654244
 20
367.3303419552367
 30
0.0
 40
9.144
  1
ＳＰＨＣ，樹脂系塗装
 41
1.15
  7
ＭＳ ゴシック
100
AcDbText
  0
TEXT
  5
22F
330
1F
100
AcDbEntity
  8
0-E
  6
Continuous
 62
     7
370
     9
100
AcDbText
 10
541.8527213431694
 20
375.0859967799834
 30
0.0
 40
9.144
  1
ＳＳ４００，樹脂系塗装
 41
1.151515151515152
  7
ＭＳ ゴシック
100
AcDbText
  0
TEXT
  5
230
330
1F
100
AcDbEntity
  8
0-E
  6
Continuous
 62
     7
370
     9
100
AcDbText
 10
221.848495070999
 20
387.115432221284
 30
0.0
 40
9.144
  1
受枠：Ｌ６０Ｇ，ｔ＝３．２
 41
1.153846153846154
  7
ＭＳ ゴシック
100
AcDbText
  0
TEXT
  5
231
330
1F
100
AcDbEntity
  8
0-E
  6
Continuous
 62
     7
370
     9
100
AcDbText
 10
232.3348099992083
 20
-155.1285995301942
 30
0.0
 40
9.144
  1
樹脂系塗装
 41
1.133333333333333
  7
ＭＳ ゴシック
100
AcDbText
  0
TEXT
  5
232
330
1F
100
AcDbEntity
  8
0-F
  6
Continuous
 62
     2
370
     9
100
AcDbText
 10
564.5562702525123
 20
-78.5249948198964
 30
0.0
 40
12.192
  1
29
 50
90.00000250448097
 41
1.062500000000001
  7
ＭＳ ゴシック
100
AcDbText
  0
TEXT
  5
233
330
1F
100
AcDbEntity
  8
0-F
  6
Continuous
 62
     2
370
     9
100
AcDbText
 10
564.5562702525123
 20
-39.02498822150087
 30
0.0
 40
12.192
  1
50
 50
90.00000250448097
 41
1.062499999999973
  7
ＭＳ ゴシック
100
AcDbText
  0
TEXT
  5
234
330
1F
100
AcDbEntity
  8
0-F
  6
Continuous
 62
     2
370
     9
100
AcDbText
 10
564.5562704492132
 20
106.4750117784988
 30
0.0
 40
12.192
  1
250
 50
90.00000250447873
 41
1.083333333333334
  7
ＭＳ ゴシック
100
AcDbText
  0
TEXT
  5
235
330
1F
100
AcDbEntity
  8
0-F
  6
Continuous
 62
     2
370
     9
100
AcDbText
 10
564.5562702525123
 20
260.9750612664634
 30
0.0
 40
12.192
  1
50
 50
90.00000250448097
 41
1.062500000000001
  7
ＭＳ ゴシック
100
AcDbText
  0
TEXT
  5
236
330
1F
100
AcDbEntity
  8
0-F
  6
Continuous
 62
     2
370
     9
100
AcDbText
 10
564.5562702525123
 20
300.4751668407878
 30
0.0
 40
12.192
  1
29
 50
90.00000250448097
 41
1.062499999999998
  7
ＭＳ ゴシック
100
AcDbText
  0
TEXT
  5
237
330
1F
100
AcDbEntity
  8
0-F
  6
Continuous
 62
     2
370
     9
100
AcDbText
 10
488.3122863769531
 20
-151.2688990445523
 30
0.0
 40
12.192
  1
24
 41
1.0625
  7
ＭＳ ゴシック
100
AcDbText
  0
LWPOLYLINE
  5
238
330
1F
100
AcDbEntity
  8
0-F
  6
Continuous
 62
     7
370
     9
100
AcDbPolyline
 90
        4
 70
     1
 43
0.4
 10
468.8123121106948
 20
46.97786568306606
 42
0.4142135623731
 10
468.6123121106948
 20
47.17786568306606
 42
0.4142135623731
 10
468.4123121106948
 20
46.97786568306606
 42
0.4142135623731
 10
468.6123121106948
 20
46.77786568306605
 42
0.4142135623731
  0
LWPOLYLINE
  5
239
330
1F
100
AcDbEntity
  8
0-F
  6
Continuous
 62
     7
370
     9
100
AcDbPolyline
 90
        4
 70
     1
 43
0.4
 10
361.8123055122994
 20
254.4750118771117
 42
0.4142135623731
 10
361.6123055122994
 20
254.6750118771117
 42
0.4142135623731
 10
361.4123055122994
 20
254.4750118771117
 42
0.4142135623731
 10
361.6123055122994
 20
254.2750118771117
 42
0.4142135623731
  0
LWPOLYLINE
  5
23A
330
1F
100
AcDbEntity
  8
0-F
  6
Continuous
 62
     7
370
     9
100
AcDbPolyline
 90
        4
 70
     1
 43
0.4
 10
361.8123055122994
 20
260.9749590899495
 42
0.4142135623731
 10
361.6123055122994
 20
261.1749590899495
 42
0.4142135623731
 10
361.4123055122994
 20
260.9749590899495
 42
0.4142135623731
 10
361.6123055122994
 20
260.7749590899495
 42
0.4142135623731
  0
LWPOLYLINE
  5
23B
330
1F
100
AcDbEntity
  8
0-F
  6
Continuous
 62
     7
370
     9
100
AcDbPolyline
 90
        4
 70
     1
 43
0.4
 10
361.8123055122994
 20
271.9751438450171
 42
0.4142135623731
 10
361.6123055122994
 20
272.1751438450171
 42
0.4142135623731
 10
361.4123055122994
 20
271.9751438450171
 42
0.4142135623731
 10
361.6123055122994
 20
271.7751438450171
 42
0.4142135623731
  0
LWPOLYLINE
  5
23C
330
1F
100
AcDbEntity
  8
0-F
  6
Continuous
 62
     7
370
     9
100
AcDbPolyline
 90
        4
 70
     1
 43
0.4
 10
361.8123055122994
 20
278.4750910578549
 42
0.4142135623731
 10
361.6123055122994
 20
278.6750910578549
 42
0.4142135623731
 10
361.4123055122994
 20
278.4750910578549
 42
0.4142135623731
 10
361.6123055122994
 20
278.2750910578549
 42
0.4142135623731
  0
LWPOLYLINE
  5
23D
330
1F
100
AcDbEntity
  8
0-F
  6
Continuous
 62
     7
370
     9
100
AcDbPolyline
 90
        4
 70
     1
 43
0.4
 10
361.8123055122994
 20
289.4750778610644
 42
0.4142135623731
 10
361.6123055122994
 20
289.6750778610644
 42
0.4142135623731
 10
361.4123055122994
 20
289.4750778610644
 42
0.4142135623731
 10
361.6123055122994
 20
289.2750778610644
 42
0.4142135623731
  0
LWPOLYLINE
  5
23E
330
1F
100
AcDbEntity
  8
0-F
  6
Continuous
 62
     7
370
     9
100
AcDbPolyline
 90
        4
 70
     1
 43
0.4
 10
321.8122725203231
 20
-52.32493137668905
 42
0.4142135623731
 10
321.6122725203231
 20
-52.12493137668905
 42
0.4142135623731
 10
321.4122725203231
 20
-52.32493137668905
 42
0.4142135623731
 10
321.6122725203231
 20
-52.52493137668905
 42
0.4142135623731
  0
LWPOLYLINE
  5
23F
330
1F
100
AcDbEntity
  8
0-F
  6
Continuous
 62
     7
370
     9
100
AcDbPolyline
 90
        4
 70
     1
 43
0.4
 10
321.8122725203231
 20
291.2750541068414
 42
0.4142135623731
 10
321.6122725203231
 20
291.4750541068414
 42
0.4142135623731
 10
321.4122725203231
 20
291.2750541068414
 42
0.4142135623731
 10
321.6122725203231
 20
291.0750541068414
 42
0.4142135623731
  0
TEXT
  5
240
330
1F
100
AcDbEntity
  8
0-F
  6
Continuous
 62
     2
370
     9
100
AcDbText
 10
300.4149211161846
 20
-400.4894965952279
 30
0.0
 40
12.192
  1
蓋 質 量：１８．０ｋｇ
 41
1.113636363636364
  7
ＭＳ ゴシック
100
AcDbText
  0
TEXT
  5
241
330
1F
100
AcDbEntity
  8
F-5ﾚｲﾔ
  6
Continuous
 62
     3
370
     9
100
AcDbText
 10
-248.2233825961188
 20
-547.9630131779365
 30
0.0
 40
12.192
  1
カラー舗装用みぞ蓋　ＧＨＭ－１４－３５６０＋Ｌ６０Ｇ
 41
0.9471153846153846
  7
ＭＳ ゴシック
100
AcDbText
  0
ENDSEC
  0
SECTION
  2
OBJECTS
  0
DICTIONARY
  5
C
330
0
100
AcDbDictionary
281
     1
  3
ACAD_GROUP
350
D
  3
ACAD_LAYOUT
350
1A
  3
ACAD_MLEADERSTYLE
350
243
  3
ACAD_MLINESTYLE
350
17
  3
ACAD_PLOTSETTINGS
350
19
  3
ACAD_PLOTSTYLENAME
350
E
  3
ACAD_TABLESTYLE
350
242
  3
ACAD_VISUALSTYLE
350
2A
  0
DICTIONARY
  5
D
102
{ACAD_REACTORS
330
C
102
}
330
C
100
AcDbDictionary
281
     1
  0
DICTIONARY
  5
1A
102
{ACAD_REACTORS
330
C
102
}
330
C
100
AcDbDictionary
281
     1
  3
Layout1
350
1E
  3
Layout2
350
26
  3
Model
350
22
  0
DICTIONARY
  5
243
102
{ACAD_REACTORS
330
C
102
}
330
C
100
AcDbDictionary
281
     1
  0
DICTIONARY
  5
17
102
{ACAD_REACTORS
330
C
102
}
330
C
100
AcDbDictionary
281
     1
  3
Standard
350
18
  0
DICTIONARY
  5
19
102
{ACAD_REACTORS
330
C
102
}
330
C
100
AcDbDictionary
281
     1
  0
ACDBDICTIONARYWDFLT
  5
E
102
{ACAD_REACTORS
330
C
102
}
330
C
100
AcDbDictionary
281
     1
  3
Normal
350
F
100
AcDbDictionaryWithDefault
340
F
  0
DICTIONARY
  5
242
102
{ACAD_REACTORS
330
C
102
}
330
C
100
AcDbDictionary
281
     1
  0
DICTIONARY
  5
2A
102
{ACAD_REACTORS
330
C
102
}
330
C
100
AcDbDictionary
281
     1
  3
2dWireframe
350
2F
  3
3D Hidden
350
31
  3
3dWireframe
350
30
  3
Basic
350
32
  3
Brighten
350
36
  3
ColorChange
350
3A
  3
Conceptual
350
34
  3
Dim
350
35
  3
Facepattern
350
39
  3
Flat
350
2B
  3
FlatWithEdges
350
2C
  3
Gouraud
350
2D
  3
GouraudWithEdges
350
2E
  3
Linepattern
350
38
  3
Realistic
350
33
  3
Thicken
350
37
  0
LAYOUT
  5
1E
102
{ACAD_REACTORS
330
1A
102
}
330
1A
100
AcDbPlotSettings
  1

  2
none_device
  4

  6

 40
0.0
 41
0.0
 42
0.0
 43
0.0
 44
0.0
 45
0.0
 46
0.0
 47
0.0
 48
0.0
 49
0.0
140
0.0
141
0.0
142
1.0
143
1.0
 70
   688
 72
     0
 73
     0
 74
     5
  7

 75
    16
 76
     0
 77
     5
 78
   300
147
1.0
148
0.0
149
0.0
100
AcDbLayout
  1
Layout1
 70
     1
 71
     1
 10
0.0
 20
0.0
 11
420.0
 21
297.0
 12
0.0
 22
0.0
 32
0.0
 14
1.000000000000000E+20
 24
1.000000000000000E+20
 34
1.000000000000000E+20
 15
-1.000000000000000E+20
 25
-1.000000000000000E+20
 35
-1.000000000000000E+20
146
0.0
 13
0.0
 23
0.0
 33
0.0
 16
1.0
 26
0.0
 36
0.0
 17
0.0
 27
1.0
 37
0.0
 76
     0
330
1B
  0
LAYOUT
  5
26
102
{ACAD_REACTORS
330
1A
102
}
330
1A
100
AcDbPlotSettings
  1

  2
none_device
  4

  6

 40
0.0
 41
0.0
 42
0.0
 43
0.0
 44
0.0
 45
0.0
 46
0.0
 47
0.0
 48
0.0
 49
0.0
140
0.0
141
0.0
142
1.0
143
1.0
 70
   688
 72
     0
 73
     0
 74
     5
  7

 75
    16
 76
     0
 77
     5
 78
   300
147
1.0
148
0.0
149
0.0
100
AcDbLayout
  1
Layout2
 70
     1
 71
     2
 10
0.0
 20
0.0
 11
0.0
 21
0.0
 12
0.0
 22
0.0
 32
0.0
 14
0.0
 24
0.0
 34
0.0
 15
0.0
 25
0.0
 35
0.0
146
0.0
 13
0.0
 23
0.0
 33
0.0
 16
1.0
 26
0.0
 36
0.0
 17
0.0
 27
1.0
 37
0.0
 76
     0
330
23
  0
LAYOUT
  5
22
102
{ACAD_REACTORS
330
1A
102
}
330
1A
100
AcDbPlotSettings
  1

  2
none_device
  4

  6

 40
0.0
 41
0.0
 42
0.0
 43
0.0
 44
0.0
 45
0.0
 46
0.0
 47
0.0
 48
0.0
 49
0.0
140
0.0
141
0.0
142
1.0
143
1.0
 70
  1712
 72
     0
 73
     0
 74
     0
  7

 75
     0
 76
     0
 77
     5
 78
   300
147
1.0
148
0.0
149
0.0
100
AcDbLayout
  1
Model
 70
     1
 71
     0
 10
-840.0
 20
-594.0
 11
840.0
 21
594.0
 12
0.0
 22
0.0
 32
0.0
 14
-840.0
 24
-594.0
 34
0.0
 15
840.0
 25
594.0
 35
0.0
146
0.0
 13
0.0
 23
0.0
 33
0.0
 16
1.0
 26
0.0
 36
0.0
 17
0.0
 27
1.0
 37
0.0
 76
     0
330
1F
331
29
  0
MLINESTYLE
  5
18
102
{ACAD_REACTORS
330
17
102
}
330
17
100
AcDbMlineStyle
  2
Standard
 70
     0
  3

 62
   256
 51
90.0
 52
90.0
 71
     2
 49
0.5
 62
   256
  6
BYLAYER
 49
-0.5
 62
   256
  6
BYLAYER
  0
ACDBPLACEHOLDER
  5
F
102
{ACAD_REACTORS
330
E
102
}
330
E
  0
VISUALSTYLE
  5
2F
102
{ACAD_REACTORS
330
2A
102
}
330
2A
100
AcDbVisualStyle
  2
2dWireframe
 70
     4
 71
     0
 72
     2
 73
     0
 90
        0
 40
-0.6
 41
-30.0
 62
     5
 63
     7
421
 16777215
 74
     1
 91
        4
 64
     7
 65
   257
 75
     1
175
     1
 42
1.0
 92
        0
 66
   257
 43
1.0
 76
     1
 77
     6
 78
     2
 67
     7
 79
     5
170
     0
171
     0
290
     0
174
     0
 93
        1
 44
0.0
173
     0
291
     0
 45
0.0
1001
ACAD
1000
AcDbSavedByObjectVersion
1070
     0
  0
VISUALSTYLE
  5
31
102
{ACAD_REACTORS
330
2A
102
}
330
2A
100
AcDbVisualStyle
  2
3D Hidden
 70
     6
 71
     1
 72
     2
 73
     2
 90
        0
 40
-0.6
 41
-30.0
 62
     5
 63
     7
421
 16777215
 74
     2
 91
        2
 64
     7
 65
   257
 75
     2
175
     1
 42
40.0
 92
        0
 66
   257
 43
1.0
 76
     1
 77
     6
 78
     2
 67
     7
 79
     3
170
     0
171
     0
290
     0
174
     0
 93
        1
 44
0.0
173
     0
291
     0
 45
0.0
1001
ACAD
1000
AcDbSavedByObjectVersion
1070
     0
  0
VISUALSTYLE
  5
30
102
{ACAD_REACTORS
330
2A
102
}
330
2A
100
AcDbVisualStyle
  2
3dWireframe
 70
     5
 71
     0
 72
     2
 73
     0
 90
        0
 40
-0.6
 41
-30.0
 62
     5
 63
     7
421
 16777215
 74
     1
 91
        4
 64
     7
 65
   257
 75
     1
175
     1
 42
1.0
 92
        0
 66
   257
 43
1.0
 76
     1
 77
     6
 78
     2
 67
     7
 79
     5
170
     0
171
     0
290
     0
174
     0
 93
        1
 44
0.0
173
     0
291
     0
 45
0.0
1001
ACAD
1000
AcDbSavedByObjectVersion
1070
     0
  0
VISUALSTYLE
  5
32
102
{ACAD_REACTORS
330
2A
102
}
330
2A
100
AcDbVisualStyle
  2
Basic
 70
     7
 71
     1
 72
     0
 73
     1
 90
        0
 40
-0.6
 41
-30.0
 62
     5
 63
     7
421
 16777215
 74
     0
 91
        4
 64
     7
 65
   257
 75
     1
175
     1
 42
1.0
 92
        8
 66
     7
 43
1.0
 76
     1
 77
     6
 78
     2
 67
     7
 79
     5
170
     0
171
     0
290
     0
174
     0
 93
        1
 44
0.0
173
     0
291
     1
 45
0.0
1001
ACAD
1000
AcDbSavedByObjectVersion
1070
     0
  0
VISUALSTYLE
  5
36
102
{ACAD_REACTORS
330
2A
102
}
330
2A
100
AcDbVisualStyle
  2
Brighten
 70
    12
 71
     2
 72
     2
 73
     0
 90
        0
 40
-0.6
 41
-30.0
 62
     5
 63
     7
421
 16777215
 74
     1
 91
        4
 64
     7
 65
   257
 75
     1
175
     1
 42
1.0
 92
        8
 66
     7
 43
1.0
 76
     1
 77
     6
 78
     2
 67
     7
 79
     5
170
     0
171
     0
290
     0
174
     0
 93
        1
 44
50.0
173
     0
291
     1
 45
0.0
1001
ACAD
1000
AcDbSavedByObjectVersion
1070
     0
  0
VISUALSTYLE
  5
3A
102
{ACAD_REACTORS
330
2A
102
}
330
2A
100
AcDbVisualStyle
  2
ColorChange
 70
    16
 71
     2
 72
     2
 73
     3
 90
        0
 40
-0.6
 41
-30.0
 62
     5
 63
     8
421
  8421504
 74
     1
 91
        4
 64
     7
 65
   257
 75
     1
175
     1
 42
1.0
 92
        8
 66
     8
424
  8421504
 43
1.0
 76
     1
 77
     6
 78
     2
 67
     7
 79
     5
170
     0
171
     0
290
     0
174
     0
 93
        1
 44
0.0
173
     0
291
     1
 45
0.0
1001
ACAD
1000
AcDbSavedByObjectVersion
1070
     0
  0
VISUALSTYLE
  5
34
102
{ACAD_REACTORS
330
2A
102
}
330
2A
100
AcDbVisualStyle
  2
Conceptual
 70
     9
 71
     3
 72
     2
 73
     0
 90
        0
 40
-0.6
 41
-30.0
 62
     5
 63
     7
421
 16777215
 74
     2
 91
        2
 64
     7
 65
   257
 75
     1
175
     1
 42
40.0
 92
        8
 66
     7
 43
1.0
 76
     1
 77
     6
 78
     2
 67
     7
 79
     3
170
     0
171
     0
290
     0
174
     0
 93
        1
 44
0.0
173
     0
291
     0
 45
0.0
1001
ACAD
1000
AcDbSavedByObjectVersion
1070
     0
  0
VISUALSTYLE
  5
35
102
{ACAD_REACTORS
330
2A
102
}
330
2A
100
AcDbVisualStyle
  2
Dim
 70
    11
 71
     2
 72
     2
 73
     0
 90
        0
 40
-0.6
 41
-30.0
 62
     5
 63
     7
421
 16777215
 74
     1
 91
        4
 64
     7
 65
   257
 75
     1
175
     1
 42
1.0
 92
        8
 66
     7
 43
1.0
 76
     1
 77
     6
 78
     2
 67
     7
 79
     5
170
     0
171
     0
290
     0
174
     0
 93
        1
 44
-50.0
173
     0
291
     1
 45
0.0
1001
ACAD
1000
AcDbSavedByObjectVersion
1070
     0
  0
VISUALSTYLE
  5
39
102
{ACAD_REACTORS
330
2A
102
}
330
2A
100
AcDbVisualStyle
  2
Facepattern
 70
    15
 71
     2
 72
     2
 73
     0
 90
        0
 40
-0.6
 41
-30.0
 62
     5
 63
     7
421
 16777215
 74
     1
 91
        4
 64
     7
 65
   257
 75
     1
175
     1
 42
1.0
 92
        8
 66
     7
 43
1.0
 76
     1
 77
     6
 78
     2
 67
     7
 79
     5
170
     0
171
     0
290
     0
174
     0
 93
        1
 44
0.0
173
     0
291
     1
 45
0.0
1001
ACAD
1000
AcDbSavedByObjectVersion
1070
     0
  0
VISUALSTYLE
  5
2B
102
{ACAD_REACTORS
330
2A
102
}
330
2A
100
AcDbVisualStyle
  2
Flat
 70
     0
 71
     2
 72
     1
 73
     1
 90
        2
 40
-0.6
 41
30.0
 62
     5
 63
     7
421
 16777215
 74
     0
 91
        4
 64
     7
 65
   257
 75
     1
175
     1
 42
1.0
 92
        8
 66
     7
 43
1.0
 76
     1
 77
     6
 78
     2
 67
     7
 79
     5
170
     0
171
     0
290
     0
174
     0
 93
       13
 44
0.0
173
     0
291
     1
 45
0.0
1001
ACAD
1000
AcDbSavedByObjectVersion
1070
     0
  0
VISUALSTYLE
  5
2C
102
{ACAD_REACTORS
330
2A
102
}
330
2A
100
AcDbVisualStyle
  2
FlatWithEdges
 70
     1
 71
     2
 72
     1
 73
     1
 90
        2
 40
-0.6
 41
30.0
 62
     5
 63
     7
421
 16777215
 74
     1
 91
        4
 64
     7
 65
   257
 75
     1
175
     1
 42
1.0
 92
        0
 66
   257
 43
1.0
 76
     1
 77
     6
 78
     2
 67
     7
 79
     5
170
     0
171
     0
290
     0
174
     0
 93
       13
 44
0.0
173
     0
291
     1
 45
0.0
1001
ACAD
1000
AcDbSavedByObjectVersion
1070
     0
  0
VISUALSTYLE
  5
2D
102
{ACAD_REACTORS
330
2A
102
}
330
2A
100
AcDbVisualStyle
  2
Gouraud
 70
     2
 71
     2
 72
     2
 73
     1
 90
        2
 40
-0.6
 41
30.0
 62
     5
 63
     7
421
 16777215
 74
     0
 91
        4
 64
     7
 65
   257
 75
     1
175
     1
 42
1.0
 92
        0
 66
     7
 43
1.0
 76
     1
 77
     6
 78
     2
 67
     7
 79
     5
170
     0
171
     0
290
     0
174
     0
 93
       13
 44
0.0
173
     0
291
     1
 45
0.0
1001
ACAD
1000
AcDbSavedByObjectVersion
1070
     0
  0
VISUALSTYLE
  5
2E
102
{ACAD_REACTORS
330
2A
102
}
330
2A
100
AcDbVisualStyle
  2
GouraudWithEdges
 70
     3
 71
     2
 72
     2
 73
     1
 90
        2
 40
-0.6
 41
30.0
 62
     5
 63
     7
421
 16777215
 74
     1
 91
        4
 64
     7
 65
   257
 75
     1
175
     1
 42
1.0
 92
        0
 66
   257
 43
1.0
 76
     1
 77
     6
 78
     2
 67
     7
 79
     5
170
     0
171
     0
290
     0
174
     0
 93
       13
 44
0.0
173
     0
291
     1
 45
0.0
1001
ACAD
1000
AcDbSavedByObjectVersion
1070
     0
  0
VISUALSTYLE
  5
38
102
{ACAD_REACTORS
330
2A
102
}
330
2A
100
AcDbVisualStyle
  2
Linepattern
 70
    14
 71
     2
 72
     2
 73
     0
 90
        0
 40
-0.6
 41
-30.0
 62
     5
 63
     7
421
 16777215
 74
     1
 91
        4
 64
     7
 65
   257
 75
     7
175
     7
 42
1.0
 92
        8
 66
     7
 43
1.0
 76
     1
 77
     6
 78
     2
 67
     7
 79
     5
170
     0
171
     0
290
     0
174
     0
 93
        1
 44
0.0
173
     0
291
     1
 45
0.0
1001
ACAD
1000
AcDbSavedByObjectVersion
1070
     0
  0
VISUALSTYLE
  5
33
102
{ACAD_REACTORS
330
2A
102
}
330
2A
100
AcDbVisualStyle
  2
Realistic
 70
     8
 71
     2
 72
     2
 73
     0
 90
        0
 40
-0.6
 41
-30.0
 62
     5
 63
     7
421
 16777215
 74
     1
 91
        0
 64
     7
 65
   257
 75
     1
175
     1
 42
1.0
 92
        8
 66
     8
424
  7895160
 43
1.0
 76
     1
 77
     6
 78
     2
 67
     7
 79
     5
170
     0
171
     0
290
     0
174
     0
 93
       13
 44
0.0
173
     0
291
     0
 45
0.0
1001
ACAD
1000
AcDbSavedByObjectVersion
1070
     0
  0
VISUALSTYLE
  5
37
102
{ACAD_REACTORS
330
2A
102
}
330
2A
100
AcDbVisualStyle
  2
Thicken
 70
    13
 71
     2
 72
     2
 73
     0
 90
        0
 40
-0.6
 41
-30.0
 62
     5
 63
     7
421
 16777215
 74
     1
 91
        4
 64
     7
 65
   257
 75
     1
175
     1
 42
1.0
 92
       12
 66
     7
 43
1.0
 76
     1
 77
     6
 78
     2
 67
     7
 79
     5
170
     0
171
     0
290
     0
174
     0
 93
        1
 44
0.0
173
     0
291
     1
 45
0.0
1001
ACAD
1000
AcDbSavedByObjectVersion
1070
     0
  0
ENDSEC
  0
EOF
