  0
SECTION
  2
HEADER
  9
$ACADVER
  1
AC1018
  9
$ACADMAINTVER
 70
     0
  9
$DWGCODEPAGE
  3
ANSI_932
  9
$INSBASE
 10
0.0
 20
0.0
 30
0.0
  9
$EXTMIN
 10
-840.0
 20
-594.0
 30
0.0
  9
$EXTMAX
 10
840.0
 20
594.0
 30
0.0
  9
$LIMMIN
 10
-840.0
 20
-594.0
  9
$LIMMAX
 10
840.0
 20
594.0
  9
$ORTHOMODE
 70
     0
  9
$REGENMODE
 70
     1
  9
$FILLMODE
 70
     1
  9
$QTEXTMODE
 70
     0
  9
$MIRRTEXT
 70
     1
  9
$LTSCALE
 40
4.0
  9
$ATTMODE
 70
     1
  9
$TEXTSIZE
 40
2.5
  9
$TRACEWID
 40
1.0
  9
$TEXTSTYLE
  7
Standard
  9
$CLAYER
  8
0
  9
$CELTYPE
  6
ByLayer
  9
$CECOLOR
 62
   256
  9
$CELTSCALE
 40
1.0
  9
$DISPSILH
 70
     0
  9
$DIMSCALE
 40
1.0
  9
$DIMASZ
 40
2.5
  9
$DIMEXO
 40
0.625
  9
$DIMDLI
 40
3.75
  9
$DIMRND
 40
0.0
  9
$DIMDLE
 40
0.0
  9
$DIMEXE
 40
1.25
  9
$DIMTP
 40
0.0
  9
$DIMTM
 40
0.0
  9
$DIMTXT
 40
2.5
  9
$DIMCEN
 40
2.5
  9
$DIMTSZ
 40
0.0
  9
$DIMTOL
 70
     0
  9
$DIMLIM
 70
     0
  9
$DIMTIH
 70
     0
  9
$DIMTOH
 70
     0
  9
$DIMSE1
 70
     0
  9
$DIMSE2
 70
     0
  9
$DIMTAD
 70
     1
  9
$DIMZIN
 70
     8
  9
$DIMBLK
  1

  9
$DIMASO
 70
     1
  9
$DIMSHO
 70
     1
  9
$DIMPOST
  1

  9
$DIMAPOST
  1

  9
$DIMALT
 70
     0
  9
$DIMALTD
 70
     3
  9
$DIMALTF
 40
0.03937007874016
  9
$DIMLFAC
 40
1.0
  9
$DIMTOFL
 70
     1
  9
$DIMTVP
 40
0.0
  9
$DIMTIX
 70
     0
  9
$DIMSOXD
 70
     0
  9
$DIMSAH
 70
     0
  9
$DIMBLK1
  1

  9
$DIMBLK2
  1

  9
$DIMSTYLE
  2
ISO-25
  9
$DIMCLRD
 70
     0
  9
$DIMCLRE
 70
     0
  9
$DIMCLRT
 70
     0
  9
$DIMTFAC
 40
1.0
  9
$DIMGAP
 40
0.625
  9
$DIMJUST
 70
     0
  9
$DIMSD1
 70
     0
  9
$DIMSD2
 70
     0
  9
$DIMTOLJ
 70
     0
  9
$DIMTZIN
 70
     8
  9
$DIMALTZ
 70
     0
  9
$DIMALTTZ
 70
     0
  9
$DIMUPT
 70
     0
  9
$DIMDEC
 70
     2
  9
$DIMTDEC
 70
     2
  9
$DIMALTU
 70
     2
  9
$DIMALTTD
 70
     3
  9
$DIMTXSTY
  7
Standard
  9
$DIMAUNIT
 70
     0
  9
$DIMADEC
 70
     0
  9
$DIMALTRND
 40
0.0
  9
$DIMAZIN
 70
     0
  9
$DIMDSEP
 70
    44
  9
$DIMATFIT
 70
     3
  9
$DIMFRAC
 70
     0
  9
$DIMLDRBLK
  1

  9
$DIMLUNIT
 70
     2
  9
$DIMLWD
 70
    -2
  9
$DIMLWE
 70
    -2
  9
$DIMTMOVE
 70
     0
  9
$LUNITS
 70
     2
  9
$LUPREC
 70
     4
  9
$SKETCHINC
 40
1.0
  9
$FILLETRAD
 40
10.0
  9
$AUNITS
 70
     0
  9
$AUPREC
 70
     0
  9
$MENU
  1
.
  9
$ELEVATION
 40
0.0
  9
$PELEVATION
 40
0.0
  9
$THICKNESS
 40
0.0
  9
$LIMCHECK
 70
     0
  9
$CHAMFERA
 40
10.0
  9
$CHAMFERB
 40
10.0
  9
$CHAMFERC
 40
20.0
  9
$CHAMFERD
 40
0.0
  9
$SKPOLY
 70
     0
  9
$TDCREATE
 40
2457529.699816817
  9
$TDUCREATE
 40
2457529.324816817
  9
$TDUPDATE
 40
2457529.699816829
  9
$TDUUPDATE
 40
2457529.324816829
  9
$TDINDWG
 40
0.0000000116
  9
$TDUSRTIMER
 40
0.0000000116
  9
$USRTIMER
 70
     1
  9
$ANGBASE
 50
0.0
  9
$ANGDIR
 70
     0
  9
$PDMODE
 70
     0
  9
$PDSIZE
 40
0.0
  9
$PLINEWID
 40
0.0
  9
$SPLFRAME
 70
     0
  9
$SPLINETYPE
 70
     6
  9
$SPLINESEGS
 70
     8
  9
$HANDSEED
  5
257
  9
$SURFTAB1
 70
     6
  9
$SURFTAB2
 70
     6
  9
$SURFTYPE
 70
     6
  9
$SURFU
 70
     6
  9
$SURFV
 70
     6
  9
$UCSBASE
  2

  9
$UCSNAME
  2

  9
$UCSORG
 10
0.0
 20
0.0
 30
0.0
  9
$UCSXDIR
 10
1.0
 20
0.0
 30
0.0
  9
$UCSYDIR
 10
0.0
 20
1.0
 30
0.0
  9
$UCSORTHOREF
  2

  9
$UCSORTHOVIEW
 70
     0
  9
$UCSORGTOP
 10
0.0
 20
0.0
 30
0.0
  9
$UCSORGBOTTOM
 10
0.0
 20
0.0
 30
0.0
  9
$UCSORGLEFT
 10
0.0
 20
0.0
 30
0.0
  9
$UCSORGRIGHT
 10
0.0
 20
0.0
 30
0.0
  9
$UCSORGFRONT
 10
0.0
 20
0.0
 30
0.0
  9
$UCSORGBACK
 10
0.0
 20
0.0
 30
0.0
  9
$PUCSBASE
  2

  9
$PUCSNAME
  2

  9
$PUCSORG
 10
0.0
 20
0.0
 30
0.0
  9
$PUCSXDIR
 10
1.0
 20
0.0
 30
0.0
  9
$PUCSYDIR
 10
0.0
 20
1.0
 30
0.0
  9
$PUCSORTHOREF
  2

  9
$PUCSORTHOVIEW
 70
     0
  9
$PUCSORGTOP
 10
0.0
 20
0.0
 30
0.0
  9
$PUCSORGBOTTOM
 10
0.0
 20
0.0
 30
0.0
  9
$PUCSORGLEFT
 10
0.0
 20
0.0
 30
0.0
  9
$PUCSORGRIGHT
 10
0.0
 20
0.0
 30
0.0
  9
$PUCSORGFRONT
 10
0.0
 20
0.0
 30
0.0
  9
$PUCSORGBACK
 10
0.0
 20
0.0
 30
0.0
  9
$USERI1
 70
     0
  9
$USERI2
 70
     0
  9
$USERI3
 70
     0
  9
$USERI4
 70
     0
  9
$USERI5
 70
     0
  9
$USERR1
 40
0.0
  9
$USERR2
 40
0.0
  9
$USERR3
 40
0.0
  9
$USERR4
 40
0.0
  9
$USERR5
 40
0.0
  9
$WORLDVIEW
 70
     1
  9
$SHADEDGE
 70
     3
  9
$SHADEDIF
 70
    70
  9
$TILEMODE
 70
     1
  9
$MAXACTVP
 70
    64
  9
$PINSBASE
 10
0.0
 20
0.0
 30
0.0
  9
$PLIMCHECK
 70
     0
  9
$PEXTMIN
 10
1.000000000000000E+20
 20
1.000000000000000E+20
 30
1.000000000000000E+20
  9
$PEXTMAX
 10
-1.000000000000000E+20
 20
-1.000000000000000E+20
 30
-1.000000000000000E+20
  9
$PLIMMIN
 10
0.0
 20
0.0
  9
$PLIMMAX
 10
420.0
 20
297.0
  9
$UNITMODE
 70
     0
  9
$VISRETAIN
 70
     1
  9
$PLINEGEN
 70
     0
  9
$PSLTSCALE
 70
     1
  9
$TREEDEPTH
 70
  3020
  9
$CMLSTYLE
  2
Standard
  9
$CMLJUST
 70
     0
  9
$CMLSCALE
 40
20.0
  9
$PROXYGRAPHICS
 70
     1
  9
$MEASUREMENT
 70
     1
  9
$CELWEIGHT
370
    -1
  9
$ENDCAPS
280
     0
  9
$JOINSTYLE
280
     0
  9
$LWDISPLAY
290
     0
  9
$INSUNITS
 70
     4
  9
$HYPERLINKBASE
  1

  9
$STYLESHEET
  1

  9
$XEDIT
290
     1
  9
$CEPSNTYPE
380
     0
  9
$PSTYLEMODE
290
     1
  9
$FINGERPRINTGUID
  2
{3913A0A0-84A0-47F0-A77E-4564A3CA2844}
  9
$VERSIONGUID
  2
{FAEB1C32-E019-11D5-929B-00C0DF256EC4}
  9
$EXTNAMES
290
     1
  9
$PSVPSCALE
 40
0.0
  9
$OLESTARTUP
290
     0
  9
$SORTENTS
280
   127
  9
$INDEXCTL
280
     0
  9
$HIDETEXT
280
     1
  9
$XCLIPFRAME
290
     0
  9
$HALOGAP
280
     0
  9
$OBSCOLOR
 70
   257
  9
$OBSLTYPE
280
     0
  9
$INTERSECTIONDISPLAY
280
     0
  9
$INTERSECTIONCOLOR
 70
   257
  9
$DIMASSOC
280
     2
  9
$PROJECTNAME
  1

  0
ENDSEC
  0
SECTION
  2
CLASSES
  0
CLASS
  1
ACDBDICTIONARYWDFLT
  2
AcDbDictionaryWithDefault
  3
ObjectDBX Classes
 90
        0
 91
        4
280
     0
281
     0
  0
CLASS
  1
VISUALSTYLE
  2
AcDbVisualStyle
  3
ObjectDBX Classes
 90
     4095
 91
        4
280
     0
281
     0
  0
ENDSEC
  0
SECTION
  2
TABLES
  0
TABLE
  2
VPORT
  5
8
330
0
100
AcDbSymbolTable
 70
     1
  0
VPORT
  5
29
330
8
100
AcDbSymbolTableRecord
100
AcDbViewportTableRecord
  2
*Active
 70
     0
 10
0.0
 20
0.0
 11
1.0
 21
1.0
 12
0.0
 22
0.0
 13
0.0
 23
0.0
 14
10.0
 24
10.0
 15
10.0
 25
10.0
 16
0.0
 26
0.0
 36
1.0
 17
0.0
 27
0.0
 37
0.0
 40
1306.8
 41
1.414141414141414
 42
50.0
 43
0.0
 44
0.0
 50
0.0
 51
0.0
 71
     0
 72
 10000
 73
     1
 74
     3
 75
     0
 76
     0
 77
     0
 78
     0
281
     0
 65
     1
110
0.0
120
0.0
130
0.0
111
1.0
121
0.0
131
0.0
112
0.0
122
1.0
132
0.0
 79
     0
146
0.0
  0
ENDTAB
  0
TABLE
  2
LTYPE
  5
5
330
0
100
AcDbSymbolTable
 70
     4
  0
LTYPE
  5
14
330
5
100
AcDbSymbolTableRecord
100
AcDbLinetypeTableRecord
  2
ByBlock
 70
     0
  3

 72
    65
 73
     0
 40
0.0
  0
LTYPE
  5
15
330
5
100
AcDbSymbolTableRecord
100
AcDbLinetypeTableRecord
  2
ByLayer
 70
     0
  3

 72
    65
 73
     0
 40
0.0
  0
LTYPE
  5
16
330
5
100
AcDbSymbolTableRecord
100
AcDbLinetypeTableRecord
  2
Continuous
 70
     0
  3
Solid line
 72
    65
 73
     0
 40
0.0
  0
LTYPE
  5
3C
330
5
100
AcDbSymbolTableRecord
100
AcDbLinetypeTableRecord
  2
JWW_PHANTOM2
 70
     0
  3
------------  -  -  ------------
 72
    65
 73
     6
 40
13.54666666666667
 49
10.16
 74
     0
 49
-0.8466666666666667
 74
     0
 49
0.4233333333333333
 74
     0
 49
-0.8466666666666667
 74
     0
 49
0.4233333333333333
 74
     0
 49
-0.8466666666666667
 74
     0
  0
LTYPE
  5
3D
330
5
100
AcDbSymbolTableRecord
100
AcDbLinetypeTableRecord
  2
JWW_CENTER1
 70
     0
  3
-----  --  ----------  --  -----
 72
    65
 73
     4
 40
6.773333333333333
 49
4.233333333333333
 74
     0
 49
-0.8466666666666667
 74
     0
 49
0.8466666666666667
 74
     0
 49
-0.8466666666666667
 74
     0
  0
LTYPE
  5
3E
330
5
100
AcDbSymbolTableRecord
100
AcDbLinetypeTableRecord
  2
JWW_DASHED3
 70
     0
  3
---  ------  ------  ------  ---
 72
    65
 73
     2
 40
3.386666666666667
 49
2.54
 74
     0
 49
-0.8466666666666667
 74
     0
  0
ENDTAB
  0
TABLE
  2
LAYER
  5
2
330
0
100
AcDbSymbolTable
 70
     6
  0
LAYER
  5
10
330
2
100
AcDbSymbolTableRecord
100
AcDbLayerTableRecord
  2
0
 70
     0
 62
     7
  6
Continuous
370
    -3
390
F
  0
LAYER
  5
3F
330
2
100
AcDbSymbolTableRecord
100
AcDbLayerTableRecord
  2
F-5ﾚｲﾔ
 70
     0
 62
     7
  6
Continuous
370
    -3
390
F
  0
LAYER
  5
40
330
2
100
AcDbSymbolTableRecord
100
AcDbLayerTableRecord
  2
0-E
 70
     0
 62
     7
  6
Continuous
370
    -3
390
F
  0
LAYER
  5
41
330
2
100
AcDbSymbolTableRecord
100
AcDbLayerTableRecord
  2
通り芯
 70
     0
 62
     7
  6
Continuous
370
    -3
390
F
  0
LAYER
  5
42
330
2
100
AcDbSymbolTableRecord
100
AcDbLayerTableRecord
  2
躯体
 70
     0
 62
     7
  6
Continuous
370
    -3
390
F
  0
LAYER
  5
43
330
2
100
AcDbSymbolTableRecord
100
AcDbLayerTableRecord
  2
0-F
 70
     0
 62
     7
  6
Continuous
370
    -3
390
F
  0
ENDTAB
  0
TABLE
  2
STYLE
  5
3
330
0
100
AcDbSymbolTable
 70
     2
  0
STYLE
  5
11
330
3
100
AcDbSymbolTableRecord
100
AcDbTextStyleTableRecord
  2
Standard
 70
     0
 40
0.0
 41
1.0
 50
0.0
 71
     0
 42
2.5
  3
txt
  4

1001
ACAD
1000

1071
        0
  0
STYLE
  5
3B
330
3
100
AcDbSymbolTableRecord
100
AcDbTextStyleTableRecord
  2
ＭＳ ゴシック
 70
     0
 40
1.0
 41
1.0
 50
0.0
 71
     0
 42
10.0
  3

  4

1001
ACAD
1000
MS Gothic
1071
    32817
  0
ENDTAB
  0
TABLE
  2
VIEW
  5
6
330
0
100
AcDbSymbolTable
 70
     0
  0
ENDTAB
  0
TABLE
  2
UCS
  5
7
330
0
100
AcDbSymbolTable
 70
     0
  0
ENDTAB
  0
TABLE
  2
APPID
  5
9
330
0
100
AcDbSymbolTable
 70
     1
  0
APPID
  5
12
330
9
100
AcDbSymbolTableRecord
100
AcDbRegAppTableRecord
  2
ACAD
 70
     0
  0
ENDTAB
  0
TABLE
  2
DIMSTYLE
  5
A
330
0
100
AcDbSymbolTable
 70
     1
100
AcDbDimStyleTable
  0
DIMSTYLE
105
27
330
A
100
AcDbSymbolTableRecord
100
AcDbDimStyleTableRecord
  2
ISO-25
 70
     0
 41
2.5
 42
0.625
 43
3.75
 44
1.25
 73
     0
 74
     0
 77
     1
 78
     8
140
2.5
141
2.5
143
0.03937007874016
147
0.625
171
     3
172
     1
271
     2
272
     2
274
     3
278
    44
283
     0
284
     8
340
11
  0
ENDTAB
  0
TABLE
  2
BLOCK_RECORD
  5
1
330
0
100
AcDbSymbolTable
 70
     1
  0
BLOCK_RECORD
  5
1F
330
1
100
AcDbSymbolTableRecord
100
AcDbBlockTableRecord
  2
*Model_Space
340
22
  0
BLOCK_RECORD
  5
1B
330
1
100
AcDbSymbolTableRecord
100
AcDbBlockTableRecord
  2
*Paper_Space
340
1E
  0
BLOCK_RECORD
  5
23
330
1
100
AcDbSymbolTableRecord
100
AcDbBlockTableRecord
  2
*Paper_Space0
340
26
  0
ENDTAB
  0
ENDSEC
  0
SECTION
  2
BLOCKS
  0
BLOCK
  5
20
330
1F
100
AcDbEntity
  8
0
100
AcDbBlockBegin
  2
*Model_Space
 70
     0
 10
0.0
 20
0.0
 30
0.0
  3
*Model_Space
  1

  0
ENDBLK
  5
21
330
1F
100
AcDbEntity
  8
0
100
AcDbBlockEnd
  0
BLOCK
  5
1C
330
1B
100
AcDbEntity
 67
     1
  8
0
100
AcDbBlockBegin
  2
*Paper_Space
 70
     0
 10
0.0
 20
0.0
 30
0.0
  3
*Paper_Space
  1

  0
ENDBLK
  5
1D
330
1B
100
AcDbEntity
 67
     1
  8
0
100
AcDbBlockEnd
  0
BLOCK
  5
24
330
23
100
AcDbEntity
  8
0
100
AcDbBlockBegin
  2
*Paper_Space0
 70
     0
 10
0.0
 20
0.0
 30
0.0
  3
*Paper_Space0
  1

  0
ENDBLK
  5
25
330
23
100
AcDbEntity
  8
0
100
AcDbBlockEnd
  0
ENDSEC
  0
SECTION
  2
ENTITIES
  0
TEXT
  5
44
330
1F
100
AcDbEntity
  8
F-5ﾚｲﾔ
  6
Continuous
 62
     3
370
     9
100
AcDbText
 10
-334.6233825961187
 20
-528.1064930799345
 30
0.0
 40
12.192
  1
タイル用　充填深さ40㎜　鋳鉄製　側溝用
 41
0.9460526315789475
  7
ＭＳ ゴシック
100
AcDbText
  0
LINE
  5
45
330
1F
100
AcDbEntity
  8
0-E
  6
Continuous
 62
     7
370
     9
100
AcDbLine
 10
447.9508889688027
 20
265.2859546558279
 30
0.0
 11
441.5065662280936
 21
275.4087177998313
 31
0.0
  0
LINE
  5
46
330
1F
100
AcDbEntity
  8
0-E
  6
Continuous
 62
     7
370
     9
100
AcDbLine
 10
447.9508889688027
 20
265.2859546558279
 30
0.0
 11
444.3461856326544
 21
276.7317290434968
 31
0.0
  0
LINE
  5
47
330
1F
100
AcDbEntity
  8
0-E
  6
Continuous
 62
     7
370
     9
100
AcDbLine
 10
501.0688946698165
 20
294.2859018686657
 30
0.0
 11
504.6735980059652
 21
305.7316762563346
 31
0.0
  0
LINE
  5
48
330
1F
100
AcDbEntity
  8
0-E
  6
Continuous
 62
     7
370
     9
100
AcDbLine
 10
501.0688946698165
 20
294.2859018686657
 30
0.0
 11
507.5132174105261
 21
304.4086650126691
 31
0.0
  0
LINE
  5
49
330
1F
100
AcDbEntity
  8
通り芯
  6
Continuous
 62
     3
370
     9
100
AcDbLine
 10
-681.1309773213154
 20
260.2858886718752
 30
0.0
 11
-82.1310301084776
 21
260.2858886718752
 31
0.0
  0
LINE
  5
4A
330
1F
100
AcDbEntity
  8
通り芯
  6
Continuous
 62
     3
370
     9
100
AcDbLine
 10
-680.1309245341532
 20
259.2859348606421
 30
0.0
 11
-83.13108289563968
 21
259.2859348606421
 31
0.0
  0
LINE
  5
4B
330
1F
100
AcDbEntity
  8
通り芯
  6
Continuous
 62
     3
370
     9
100
AcDbLine
 10
-680.1309245341532
 20
250.2859546558279
 30
0.0
 11
-83.13108289563968
 21
250.2859546558279
 31
0.0
  0
LINE
  5
4C
330
1F
100
AcDbEntity
  8
通り芯
  6
Continuous
 62
     3
370
     9
100
AcDbLine
 10
-681.1309773213154
 20
249.2859018686657
 30
0.0
 11
-82.1310301084776
 21
249.2859018686657
 31
0.0
  0
LINE
  5
4D
330
1F
100
AcDbEntity
  8
通り芯
  6
Continuous
 62
     3
370
     9
100
AcDbLine
 10
-681.1309773213154
 20
242.7859546558279
 30
0.0
 11
-82.1310301084776
 21
242.7859546558279
 31
0.0
  0
LINE
  5
4E
330
1F
100
AcDbEntity
  8
通り芯
  6
Continuous
 62
     3
370
     9
100
AcDbLine
 10
-680.1309245341532
 20
241.7859018686657
 30
0.0
 11
-83.13108289563968
 21
241.7859018686657
 31
0.0
  0
LINE
  5
4F
330
1F
100
AcDbEntity
  8
通り芯
  6
Continuous
 62
     3
370
     9
100
AcDbLine
 10
-680.1309245341532
 20
232.7859216638516
 30
0.0
 11
-83.13108289563968
 21
232.7859216638516
 31
0.0
  0
LINE
  5
50
330
1F
100
AcDbEntity
  8
通り芯
  6
Continuous
 62
     3
370
     9
100
AcDbLine
 10
-681.1309773213154
 20
231.7858688766894
 30
0.0
 11
-82.1310301084776
 21
231.7858688766894
 31
0.0
  0
LINE
  5
51
330
1F
100
AcDbEntity
  8
躯体
  6
Continuous
 62
     2
370
     9
100
AcDbLine
 10
-586.6309377309439
 20
269.7892604518582
 30
0.0
 11
-586.6309377309439
 21
294.2859018686657
 31
0.0
  0
LINE
  5
52
330
1F
100
AcDbEntity
  8
通り芯
  6
Continuous
 62
     3
370
     9
100
AcDbLine
 10
-681.1309773213154
 20
225.2859216638516
 30
0.0
 11
-82.1310301084776
 21
225.2859216638516
 31
0.0
  0
LINE
  5
53
330
1F
100
AcDbEntity
  8
通り芯
  6
Continuous
 62
     3
370
     9
100
AcDbLine
 10
-680.1309245341532
 20
224.2858688766894
 30
0.0
 11
-83.13108289563968
 21
224.2858688766894
 31
0.0
  0
LINE
  5
54
330
1F
100
AcDbEntity
  8
通り芯
  6
Continuous
 62
     3
370
     9
100
AcDbLine
 10
-668.1309839197107
 20
215.2858886718752
 30
0.0
 11
-95.13112248601135
 21
215.2858886718752
 31
0.0
  0
LINE
  5
55
330
1F
100
AcDbEntity
  8
躯体
  6
Continuous
 62
     2
370
     9
100
AcDbLine
 10
-577.6309575261297
 20
269.7858952702704
 30
0.0
 11
-577.6309575261297
 21
294.2859018686657
 31
0.0
  0
LINE
  5
56
330
1F
100
AcDbEntity
  8
通り芯
  6
Continuous
 62
     3
370
     9
100
AcDbLine
 10
-664.6309971165012
 20
211.7859018686657
 30
0.0
 11
-98.63101031329177
 21
211.7859018686657
 31
0.0
  0
LINE
  5
57
330
1F
100
AcDbEntity
  8
躯体
  6
Continuous
 62
     2
370
     9
100
AcDbLine
 10
-586.6309377309439
 20
294.2859018686657
 30
0.0
 11
-577.6309575261297
 21
294.2859018686657
 31
0.0
  0
LINE
  5
58
330
1F
100
AcDbEntity
  8
通り芯
  6
Continuous
 62
     3
370
     9
100
AcDbLine
 10
-424.6309971165012
 20
242.7859546558279
 30
0.0
 11
-424.6309971165012
 21
249.2859018686657
 31
0.0
  0
LINE
  5
59
330
1F
100
AcDbEntity
  8
躯体
  6
Continuous
 62
     2
370
     9
100
AcDbLine
 10
13.36896329312719
 20
294.2859018686657
 30
0.0
 11
22.36894349794136
 21
294.2859018686657
 31
0.0
  0
LINE
  5
5A
330
1F
100
AcDbEntity
  8
通り芯
  6
Continuous
 62
     3
370
     9
100
AcDbLine
 10
-438.6309443293391
 20
242.7859546558279
 30
0.0
 11
-438.6309443293391
 21
249.2859018686657
 31
0.0
  0
LINE
  5
5B
330
1F
100
AcDbEntity
  8
通り芯
  6
Continuous
 62
     3
370
     9
100
AcDbLine
 10
-324.6309641245249
 20
225.2859216638516
 30
0.0
 11
-324.6309641245249
 21
231.7858688766894
 31
0.0
  0
LINE
  5
5C
330
1F
100
AcDbEntity
  8
通り芯
  6
Continuous
 62
     3
370
     9
100
AcDbLine
 10
-202.6309575261296
 20
225.2859216638516
 30
0.0
 11
-202.6309575261296
 21
231.7858688766894
 31
0.0
  0
LINE
  5
5D
330
1F
100
AcDbEntity
  8
躯体
  6
Continuous
 62
     2
370
     9
100
AcDbLine
 10
22.36894349794136
 20
269.7858952702704
 30
0.0
 11
22.36894349794136
 21
294.2859018686657
 31
0.0
  0
LINE
  5
5E
330
1F
100
AcDbEntity
  8
躯体
  6
Continuous
 62
     2
370
     9
100
AcDbLine
 10
13.36896329312719
 20
269.7892604518582
 30
0.0
 11
13.36896329312719
 21
294.2859018686657
 31
0.0
  0
LINE
  5
5F
330
1F
100
AcDbEntity
  8
通り芯
  6
Continuous
 62
     3
370
     9
100
AcDbLine
 10
-216.6310037148965
 20
225.2859216638516
 30
0.0
 11
-216.6310037148965
 21
231.7858688766894
 31
0.0
  0
LINE
  5
60
330
1F
100
AcDbEntity
  8
通り芯
  6
Continuous
 62
     3
370
     9
100
AcDbLine
 10
-338.6310103132918
 20
225.2859216638516
 30
0.0
 11
-338.6310103132918
 21
231.7858688766894
 31
0.0
  0
LINE
  5
61
330
1F
100
AcDbEntity
  8
通り芯
  6
Continuous
 62
     3
370
     9
100
AcDbLine
 10
-96.13097732131541
 20
225.2859216638516
 30
0.0
 11
-96.13097732131541
 21
231.7858688766894
 31
0.0
  0
LINE
  5
62
330
1F
100
AcDbEntity
  8
通り芯
  6
Continuous
 62
     3
370
     9
100
AcDbLine
 10
-83.13108289563968
 20
232.7859216638516
 30
0.0
 11
-83.13108289563968
 21
241.7859018686657
 31
0.0
  0
LINE
  5
63
330
1F
100
AcDbEntity
  8
通り芯
  6
Continuous
 62
     3
370
     9
100
AcDbLine
 10
-83.13108289563968
 20
250.2859546558279
 30
0.0
 11
-83.13108289563968
 21
259.2859348606421
 31
0.0
  0
LINE
  5
64
330
1F
100
AcDbEntity
  8
通り芯
  6
Continuous
 62
     3
370
     9
100
AcDbLine
 10
-96.13097732131541
 20
242.7859546558279
 30
0.0
 11
-96.13097732131541
 21
249.2859018686657
 31
0.0
  0
LINE
  5
65
330
1F
100
AcDbEntity
  8
通り芯
  6
Continuous
 62
     3
370
     9
100
AcDbLine
 10
-202.6309575261296
 20
242.7859546558279
 30
0.0
 11
-202.6309575261296
 21
249.2859018686657
 31
0.0
  0
LINE
  5
66
330
1F
100
AcDbEntity
  8
通り芯
  6
Continuous
 62
     3
370
     9
100
AcDbLine
 10
-216.6310037148965
 20
242.7859546558279
 30
0.0
 11
-216.6310037148965
 21
249.2859018686657
 31
0.0
  0
LINE
  5
67
330
1F
100
AcDbEntity
  8
通り芯
  6
Continuous
 62
     3
370
     9
100
AcDbLine
 10
-324.6309641245249
 20
242.7859546558279
 30
0.0
 11
-324.6309641245249
 21
249.2859018686657
 31
0.0
  0
LINE
  5
68
330
1F
100
AcDbEntity
  8
通り芯
  6
Continuous
 62
     3
370
     9
100
AcDbLine
 10
-338.6310103132918
 20
242.7859546558279
 30
0.0
 11
-338.6310103132918
 21
249.2859018686657
 31
0.0
  0
LINE
  5
69
330
1F
100
AcDbEntity
  8
通り芯
  6
Continuous
 62
     3
370
     9
100
AcDbLine
 10
-546.6310037148966
 20
242.7859546558279
 30
0.0
 11
-546.6310037148966
 21
249.2859018686657
 31
0.0
  0
LINE
  5
6A
330
1F
100
AcDbEntity
  8
通り芯
  6
Continuous
 62
     3
370
     9
100
AcDbLine
 10
-560.6309509277344
 20
242.7859546558279
 30
0.0
 11
-560.6309509277344
 21
249.2859018686657
 31
0.0
  0
LINE
  5
6B
330
1F
100
AcDbEntity
  8
通り芯
  6
Continuous
 62
     3
370
     9
100
AcDbLine
 10
-667.1310301084776
 20
242.7859546558279
 30
0.0
 11
-667.1310301084776
 21
249.2859018686657
 31
0.0
  0
LINE
  5
6C
330
1F
100
AcDbEntity
  8
通り芯
  6
Continuous
 62
     3
370
     9
100
AcDbLine
 10
-680.1309245341532
 20
250.2859546558279
 30
0.0
 11
-680.1309245341532
 21
259.2859348606421
 31
0.0
  0
LINE
  5
6D
330
1F
100
AcDbEntity
  8
通り芯
  6
Continuous
 62
     3
370
     9
100
AcDbLine
 10
-680.1309245341532
 20
232.7859216638516
 30
0.0
 11
-680.1309245341532
 21
241.7859018686657
 31
0.0
  0
LINE
  5
6E
330
1F
100
AcDbEntity
  8
通り芯
  6
Continuous
 62
     3
370
     9
100
AcDbLine
 10
-667.1310301084776
 20
225.2859216638516
 30
0.0
 11
-667.1310301084776
 21
231.7858688766894
 31
0.0
  0
LINE
  5
6F
330
1F
100
AcDbEntity
  8
通り芯
  6
Continuous
 62
     3
370
     9
100
AcDbLine
 10
-667.6309575261297
 20
71.7859348606421
 30
0.0
 11
-667.6309575261297
 21
208.7859414590373
 31
0.0
  0
LINE
  5
70
330
1F
100
AcDbEntity
  8
通り芯
  6
Continuous
 62
     3
370
     9
100
AcDbLine
 10
-671.1309443293391
 20
68.28589856946803
 30
0.0
 11
-671.1309443293391
 21
212.2859282622468
 31
0.0
  0
LINE
  5
71
330
1F
100
AcDbEntity
  8
通り芯
  6
Continuous
 62
     3
370
     9
100
AcDbLine
 10
-680.1309245341532
 20
56.28590846706095
 30
0.0
 11
-680.1309245341532
 21
224.2858688766894
 31
0.0
  0
LINE
  5
72
330
1F
100
AcDbEntity
  8
通り芯
  6
Continuous
 62
     3
370
     9
100
AcDbLine
 10
-424.6309971165012
 20
225.2859216638516
 30
0.0
 11
-424.6309971165012
 21
231.7858688766894
 31
0.0
  0
LINE
  5
73
330
1F
100
AcDbEntity
  8
通り芯
  6
Continuous
 62
     3
370
     9
100
AcDbLine
 10
-546.6310037148966
 20
225.2859216638516
 30
0.0
 11
-546.6310037148966
 21
231.7858688766894
 31
0.0
  0
LINE
  5
74
330
1F
100
AcDbEntity
  8
通り芯
  6
Continuous
 62
     3
370
     9
100
AcDbLine
 10
-560.6309509277344
 20
225.2859216638516
 30
0.0
 11
-560.6309509277344
 21
231.7858688766894
 31
0.0
  0
LINE
  5
75
330
1F
100
AcDbEntity
  8
通り芯
  6
Continuous
 62
     3
370
     9
100
AcDbLine
 10
-438.6309443293391
 20
225.2859216638516
 30
0.0
 11
-438.6309443293391
 21
231.7858688766894
 31
0.0
  0
LINE
  5
76
330
1F
100
AcDbEntity
  8
通り芯
  6
Continuous
 62
     3
370
     9
100
AcDbLine
 10
-681.1309773213154
 20
20.28588867187523
 30
0.0
 11
-681.1309773213154
 21
260.2858886718752
 31
0.0
  0
LINE
  5
77
330
1F
100
AcDbEntity
  8
通り芯
  6
Continuous
 62
     3
370
     9
100
AcDbLine
 10
-82.1310301084776
 20
20.28588867187523
 30
0.0
 11
-681.1309773213154
 21
20.28588867187523
 31
0.0
  0
LINE
  5
78
330
1F
100
AcDbEntity
  8
通り芯
  6
Continuous
 62
     3
370
     9
100
AcDbLine
 10
-83.13108289563968
 20
21.28589197107283
 30
0.0
 11
-680.1309245341532
 21
21.28589197107283
 31
0.0
  0
LINE
  5
79
330
1F
100
AcDbEntity
  8
通り芯
  6
Continuous
 62
     3
370
     9
100
AcDbLine
 10
-83.13108289563968
 20
30.28592166385158
 30
0.0
 11
-680.1309245341532
 21
30.28592166385158
 31
0.0
  0
LINE
  5
7A
330
1F
100
AcDbEntity
  8
通り芯
  6
Continuous
 62
     3
370
     9
100
AcDbLine
 10
-82.1310301084776
 20
31.28592496304918
 30
0.0
 11
-681.1309773213154
 21
31.28592496304918
 31
0.0
  0
LINE
  5
7B
330
1F
100
AcDbEntity
  8
通り芯
  6
Continuous
 62
     3
370
     9
100
AcDbLine
 10
-82.1310301084776
 20
37.78592166385158
 30
0.0
 11
-681.1309773213154
 21
37.78592166385158
 31
0.0
  0
LINE
  5
7C
330
1F
100
AcDbEntity
  8
通り芯
  6
Continuous
 62
     3
370
     9
100
AcDbLine
 10
-83.13108289563968
 20
38.78592496304918
 30
0.0
 11
-680.1309245341532
 21
38.78592496304918
 31
0.0
  0
LINE
  5
7D
330
1F
100
AcDbEntity
  8
通り芯
  6
Continuous
 62
     3
370
     9
100
AcDbLine
 10
-83.13108289563968
 20
47.78590516786335
 30
0.0
 11
-680.1309245341532
 21
47.78590516786335
 31
0.0
  0
LINE
  5
7E
330
1F
100
AcDbEntity
  8
通り芯
  6
Continuous
 62
     3
370
     9
100
AcDbLine
 10
-82.1310301084776
 20
48.78590846706095
 30
0.0
 11
-681.1309773213154
 21
48.78590846706095
 31
0.0
  0
LINE
  5
7F
330
1F
100
AcDbEntity
  8
通り芯
  6
Continuous
 62
     3
370
     9
100
AcDbLine
 10
-82.1310301084776
 20
55.28590516786335
 30
0.0
 11
-681.1309773213154
 21
55.28590516786335
 31
0.0
  0
LINE
  5
80
330
1F
100
AcDbEntity
  8
通り芯
  6
Continuous
 62
     3
370
     9
100
AcDbLine
 10
-83.13108289563968
 20
56.28590846706095
 30
0.0
 11
-680.1309245341532
 21
56.28590846706095
 31
0.0
  0
LINE
  5
81
330
1F
100
AcDbEntity
  8
通り芯
  6
Continuous
 62
     3
370
     9
100
AcDbLine
 10
-95.13112248601135
 20
65.28588867187523
 30
0.0
 11
-668.1309839197107
 21
65.28588867187523
 31
0.0
  0
LINE
  5
82
330
1F
100
AcDbEntity
  8
通り芯
  6
Continuous
 62
     3
370
     9
100
AcDbLine
 10
-98.63101031329177
 20
68.78592496304918
 30
0.0
 11
-664.6309971165012
 21
68.78592496304918
 31
0.0
  0
LINE
  5
83
330
1F
100
AcDbEntity
  8
通り芯
  6
Continuous
 62
     3
370
     9
100
AcDbLine
 10
-438.6309443293391
 20
55.28590516786335
 30
0.0
 11
-438.6309443293391
 21
48.78590846706095
 31
0.0
  0
LINE
  5
84
330
1F
100
AcDbEntity
  8
通り芯
  6
Continuous
 62
     3
370
     9
100
AcDbLine
 10
-560.6309509277344
 20
55.28590516786335
 30
0.0
 11
-560.6309509277344
 21
48.78590846706095
 31
0.0
  0
LINE
  5
85
330
1F
100
AcDbEntity
  8
通り芯
  6
Continuous
 62
     3
370
     9
100
AcDbLine
 10
-546.6310037148966
 20
55.28590516786335
 30
0.0
 11
-546.6310037148966
 21
48.78590846706095
 31
0.0
  0
LINE
  5
86
330
1F
100
AcDbEntity
  8
通り芯
  6
Continuous
 62
     3
370
     9
100
AcDbLine
 10
-424.6309971165012
 20
55.28590516786335
 30
0.0
 11
-424.6309971165012
 21
48.78590846706095
 31
0.0
  0
LINE
  5
87
330
1F
100
AcDbEntity
  8
通り芯
  6
Continuous
 62
     3
370
     9
100
AcDbLine
 10
-667.1310301084776
 20
55.28590516786335
 30
0.0
 11
-667.1310301084776
 21
48.78590846706095
 31
0.0
  0
LINE
  5
88
330
1F
100
AcDbEntity
  8
通り芯
  6
Continuous
 62
     3
370
     9
100
AcDbLine
 10
-680.1309245341532
 20
47.78590516786335
 30
0.0
 11
-680.1309245341532
 21
38.78592496304918
 31
0.0
  0
LINE
  5
89
330
1F
100
AcDbEntity
  8
通り芯
  6
Continuous
 62
     3
370
     9
100
AcDbLine
 10
-680.1309245341532
 20
30.28592166385158
 30
0.0
 11
-680.1309245341532
 21
21.28589197107283
 31
0.0
  0
LINE
  5
8A
330
1F
100
AcDbEntity
  8
通り芯
  6
Continuous
 62
     3
370
     9
100
AcDbLine
 10
-667.1310301084776
 20
37.78592166385158
 30
0.0
 11
-667.1310301084776
 21
31.28592496304918
 31
0.0
  0
LINE
  5
8B
330
1F
100
AcDbEntity
  8
通り芯
  6
Continuous
 62
     3
370
     9
100
AcDbLine
 10
-560.6309509277344
 20
37.78592166385158
 30
0.0
 11
-560.6309509277344
 21
31.28592496304918
 31
0.0
  0
LINE
  5
8C
330
1F
100
AcDbEntity
  8
通り芯
  6
Continuous
 62
     3
370
     9
100
AcDbLine
 10
-546.6310037148966
 20
37.78592166385158
 30
0.0
 11
-546.6310037148966
 21
31.28592496304918
 31
0.0
  0
LINE
  5
8D
330
1F
100
AcDbEntity
  8
通り芯
  6
Continuous
 62
     3
370
     9
100
AcDbLine
 10
-438.6309443293391
 20
37.78592166385158
 30
0.0
 11
-438.6309443293391
 21
31.28592496304918
 31
0.0
  0
LINE
  5
8E
330
1F
100
AcDbEntity
  8
通り芯
  6
Continuous
 62
     3
370
     9
100
AcDbLine
 10
-424.6309971165012
 20
37.78592166385158
 30
0.0
 11
-424.6309971165012
 21
31.28592496304918
 31
0.0
  0
LINE
  5
8F
330
1F
100
AcDbEntity
  8
通り芯
  6
Continuous
 62
     3
370
     9
100
AcDbLine
 10
-338.6310103132918
 20
37.78592166385158
 30
0.0
 11
-338.6310103132918
 21
31.28592496304918
 31
0.0
  0
LINE
  5
90
330
1F
100
AcDbEntity
  8
通り芯
  6
Continuous
 62
     3
370
     9
100
AcDbLine
 10
-324.6309641245249
 20
37.78592166385158
 30
0.0
 11
-324.6309641245249
 21
31.28592496304918
 31
0.0
  0
LINE
  5
91
330
1F
100
AcDbEntity
  8
通り芯
  6
Continuous
 62
     3
370
     9
100
AcDbLine
 10
-216.6310037148965
 20
37.78592166385158
 30
0.0
 11
-216.6310037148965
 21
31.28592496304918
 31
0.0
  0
LINE
  5
92
330
1F
100
AcDbEntity
  8
通り芯
  6
Continuous
 62
     3
370
     9
100
AcDbLine
 10
-202.6309575261296
 20
37.78592166385158
 30
0.0
 11
-202.6309575261296
 21
31.28592496304918
 31
0.0
  0
LINE
  5
93
330
1F
100
AcDbEntity
  8
通り芯
  6
Continuous
 62
     3
370
     9
100
AcDbLine
 10
-96.13097732131541
 20
37.78592166385158
 30
0.0
 11
-96.13097732131541
 21
31.28592496304918
 31
0.0
  0
LINE
  5
94
330
1F
100
AcDbEntity
  8
通り芯
  6
Continuous
 62
     3
370
     9
100
AcDbLine
 10
-83.13108289563968
 20
30.28592166385158
 30
0.0
 11
-83.13108289563968
 21
21.28589197107283
 31
0.0
  0
LINE
  5
95
330
1F
100
AcDbEntity
  8
通り芯
  6
Continuous
 62
     3
370
     9
100
AcDbLine
 10
-83.13108289563968
 20
47.78590516786335
 30
0.0
 11
-83.13108289563968
 21
38.78592496304918
 31
0.0
  0
LINE
  5
96
330
1F
100
AcDbEntity
  8
通り芯
  6
Continuous
 62
     3
370
     9
100
AcDbLine
 10
-96.13097732131541
 20
55.28590516786335
 30
0.0
 11
-96.13097732131541
 21
48.78590846706095
 31
0.0
  0
LINE
  5
97
330
1F
100
AcDbEntity
  8
通り芯
  6
Continuous
 62
     3
370
     9
100
AcDbLine
 10
-338.6310103132918
 20
55.28590516786335
 30
0.0
 11
-338.6310103132918
 21
48.78590846706095
 31
0.0
  0
LINE
  5
98
330
1F
100
AcDbEntity
  8
通り芯
  6
Continuous
 62
     3
370
     9
100
AcDbLine
 10
-216.6310037148965
 20
55.28590516786335
 30
0.0
 11
-216.6310037148965
 21
48.78590846706095
 31
0.0
  0
LINE
  5
99
330
1F
100
AcDbEntity
  8
通り芯
  6
Continuous
 62
     3
370
     9
100
AcDbLine
 10
-202.6309575261296
 20
55.28590516786335
 30
0.0
 11
-202.6309575261296
 21
48.78590846706095
 31
0.0
  0
LINE
  5
9A
330
1F
100
AcDbEntity
  8
通り芯
  6
Continuous
 62
     3
370
     9
100
AcDbLine
 10
-324.6309641245249
 20
55.28590516786335
 30
0.0
 11
-324.6309641245249
 21
48.78590846706095
 31
0.0
  0
LINE
  5
9B
330
1F
100
AcDbEntity
  8
躯体
  6
Continuous
 62
     2
370
     9
100
AcDbLine
 10
478.369062269056
 20
215.2858886718752
 30
0.0
 11
481.5690530313027
 21
215.2858886718752
 31
0.0
  0
LINE
  5
9C
330
1F
100
AcDbEntity
  8
躯体
  6
Continuous
 62
     2
370
     9
100
AcDbLine
 10
418.369062269056
 20
262.0858649176522
 30
0.0
 11
475.1689725308806
 21
262.0858649176522
 31
0.0
  0
LINE
  5
9D
330
1F
100
AcDbEntity
  8
躯体
  6
Continuous
 62
     2
370
     9
100
AcDbLine
 10
481.5690530313027
 20
215.2858886718752
 30
0.0
 11
481.5690530313027
 21
258.8858741554056
 31
0.0
  0
LINE
  5
9E
330
1F
100
AcDbEntity
  8
躯体
  6
Continuous
 62
     2
370
     9
100
AcDbLine
 10
478.369062269056
 20
215.2858886718752
 30
0.0
 11
478.369062269056
 21
258.8858741554056
 31
0.0
  0
LINE
  5
9F
330
1F
100
AcDbEntity
  8
躯体
  6
Continuous
 62
     2
370
     9
100
AcDbLine
 10
418.369062269056
 20
262.0858649176522
 30
0.0
 11
418.369062269056
 21
265.2859546558279
 31
0.0
  0
LINE
  5
A0
330
1F
100
AcDbEntity
  8
躯体
  6
Continuous
 62
     2
370
     9
100
AcDbLine
 10
466.5690530313027
 20
265.2859546558279
 30
0.0
 11
466.5690530313027
 21
274.2859348606421
 31
0.0
  0
LINE
  5
A1
330
1F
100
AcDbEntity
  8
躯体
  6
Continuous
 62
     2
370
     9
100
AcDbLine
 10
496.5690530313027
 20
294.2859018686657
 30
0.0
 11
505.5690332361169
 21
294.2859018686657
 31
0.0
  0
LINE
  5
A2
330
1F
100
AcDbEntity
  8
躯体
  6
Continuous
 62
     2
370
     9
100
AcDbLine
 10
418.369062269056
 20
18.48591242609814
 30
0.0
 11
418.369062269056
 21
15.28592166385158
 31
0.0
  0
LINE
  5
A3
330
1F
100
AcDbEntity
  8
躯体
  6
Continuous
 62
     2
370
     9
100
AcDbLine
 10
478.369062269056
 20
65.28588867187523
 30
0.0
 11
478.369062269056
 21
21.68585370038022
 31
0.0
  0
LINE
  5
A4
330
1F
100
AcDbEntity
  8
躯体
  6
Continuous
 62
     2
370
     9
100
AcDbLine
 10
481.5690530313027
 20
65.28588867187523
 30
0.0
 11
481.5690530313027
 21
21.68585370038022
 31
0.0
  0
LINE
  5
A5
330
1F
100
AcDbEntity
  8
躯体
  6
Continuous
 62
     2
370
     9
100
AcDbLine
 10
418.369062269056
 20
18.48591242609814
 30
0.0
 11
475.1689725308806
 21
18.48591242609814
 31
0.0
  0
LINE
  5
A6
330
1F
100
AcDbEntity
  8
躯体
  6
Continuous
 62
     2
370
     9
100
AcDbLine
 10
478.369062269056
 20
65.28588867187523
 30
0.0
 11
481.5690530313027
 21
65.28588867187523
 31
0.0
  0
LINE
  5
A7
330
1F
100
AcDbEntity
  8
躯体
  6
Continuous
 62
     2
370
     9
100
AcDbLine
 10
13.36896329312719
 20
10.78256637985658
 30
0.0
 11
13.36896329312719
 21
-13.71407503695082
 31
0.0
  0
LINE
  5
A8
330
1F
100
AcDbEntity
  8
躯体
  6
Continuous
 62
     2
370
     9
100
AcDbLine
 10
22.36894349794136
 20
10.78593156144439
 30
0.0
 11
22.36894349794136
 21
-13.71407503695082
 31
0.0
  0
LINE
  5
A9
330
1F
100
AcDbEntity
  8
躯体
  6
Continuous
 62
     2
370
     9
100
AcDbLine
 10
13.36896329312719
 20
-13.71407503695082
 30
0.0
 11
22.36894349794136
 21
-13.71407503695082
 31
0.0
  0
LINE
  5
AA
330
1F
100
AcDbEntity
  8
躯体
  6
Continuous
 62
     2
370
     9
100
AcDbLine
 10
-586.6309377309439
 20
-13.71407503695082
 30
0.0
 11
-577.6309575261297
 21
-13.71407503695082
 31
0.0
  0
LINE
  5
AB
330
1F
100
AcDbEntity
  8
躯体
  6
Continuous
 62
     2
370
     9
100
AcDbLine
 10
-577.6309575261297
 20
10.78593156144439
 30
0.0
 11
-577.6309575261297
 21
-13.71407503695082
 31
0.0
  0
LINE
  5
AC
330
1F
100
AcDbEntity
  8
躯体
  6
Continuous
 62
     2
370
     9
100
AcDbLine
 10
-586.6309377309439
 20
10.78256637985658
 30
0.0
 11
-586.6309377309439
 21
-13.71407503695082
 31
0.0
  0
LINE
  5
AD
330
1F
100
AcDbEntity
  8
躯体
  6
Continuous
 62
     2
370
     9
100
AcDbLine
 10
-682.1310301084776
 20
215.2859876478043
 30
0.0
 11
-682.1310301084776
 21
265.2859546558279
 31
0.0
  0
LINE
  5
AE
330
1F
100
AcDbEntity
  8
躯体
  6
Continuous
 62
     2
370
     9
100
AcDbLine
 10
-682.1310301084776
 20
215.2859876478043
 30
0.0
 11
-681.1309773213154
 21
215.2859876478043
 31
0.0
  0
LINE
  5
AF
330
1F
100
AcDbEntity
  8
躯体
  6
Continuous
 62
     2
370
     9
100
AcDbLine
 10
147.8690358754751
 20
160.2858556798989
 30
0.0
 11
157.8690688674516
 21
160.2858556798989
 31
0.0
  0
LINE
  5
B0
330
1F
100
AcDbEntity
  8
躯体
  6
Continuous
 62
     2
370
     9
100
AcDbLine
 10
157.8690688674516
 20
160.2858556798989
 30
0.0
 11
137.8690028834988
 21
120.2858226879225
 31
0.0
  0
LINE
  5
B1
330
1F
100
AcDbEntity
  8
躯体
  6
Continuous
 62
     2
370
     9
100
AcDbLine
 10
137.8690028834988
 20
120.2858226879225
 30
0.0
 11
147.8690358754751
 21
120.2858226879225
 31
0.0
  0
LINE
  5
B2
330
1F
100
AcDbEntity
  8
躯体
  6
Continuous
 62
     2
370
     9
100
AcDbLine
 10
-682.1310301084776
 20
265.2859546558279
 30
0.0
 11
147.8690358754751
 21
265.2859546558279
 31
0.0
  0
LINE
  5
B3
330
1F
100
AcDbEntity
  8
通り芯
  6
JWW_PHANTOM2
 62
     3
370
     9
100
AcDbLine
 10
-81.13097732131541
 20
260.2858886718752
 30
0.0
 11
147.8690358754751
 21
260.2858886718752
 31
0.0
  0
LINE
  5
B4
330
1F
100
AcDbEntity
  8
通り芯
  6
JWW_PHANTOM2
 62
     3
370
     9
100
AcDbLine
 10
-81.13097732131541
 20
20.28588867187523
 30
0.0
 11
147.8690358754751
 21
20.28588867187523
 31
0.0
  0
LINE
  5
B5
330
1F
100
AcDbEntity
  8
躯体
  6
Continuous
 62
     2
370
     9
100
AcDbLine
 10
147.8690358754751
 20
160.2858556798989
 30
0.0
 11
147.8690358754751
 21
285.2859216638516
 31
0.0
  0
LINE
  5
B6
330
1F
100
AcDbEntity
  8
躯体
  6
Continuous
 62
     2
370
     9
100
AcDbLine
 10
-682.1310301084776
 20
65.28578969594616
 30
0.0
 11
-682.1310301084776
 21
15.28582268792252
 31
0.0
  0
LINE
  5
B7
330
1F
100
AcDbEntity
  8
躯体
  6
Continuous
 62
     2
370
     9
100
AcDbLine
 10
-682.1310301084776
 20
65.28578969594616
 30
0.0
 11
-681.1309773213154
 21
65.28578969594616
 31
0.0
  0
LINE
  5
B8
330
1F
100
AcDbEntity
  8
躯体
  6
Continuous
 62
     2
370
     9
100
AcDbLine
 10
-682.1310301084776
 20
15.28582268792252
 30
0.0
 11
147.8690358754751
 21
15.28582268792252
 31
0.0
  0
LINE
  5
B9
330
1F
100
AcDbEntity
  8
躯体
  6
Continuous
 62
     2
370
     9
100
AcDbLine
 10
-682.1310301084776
 20
18.48591242609814
 30
0.0
 11
147.8690358754751
 21
18.48591242609814
 31
0.0
  0
LINE
  5
BA
330
1F
100
AcDbEntity
  8
躯体
  6
Continuous
 62
     2
370
     9
100
AcDbLine
 10
147.8690358754751
 20
-4.714193808065716
 30
0.0
 11
147.8690358754751
 21
120.2858226879225
 31
0.0
  0
LINE
  5
BB
330
1F
100
AcDbEntity
  8
通り芯
  6
JWW_CENTER1
 62
     3
370
     9
100
AcDbLine
 10
-701.1309443293391
 20
140.2858886718752
 30
0.0
 11
167.8689039075697
 21
140.2858886718752
 31
0.0
  0
LINE
  5
BC
330
1F
100
AcDbEntity
  8
躯体
  6
JWW_DASHED3
 62
     2
370
     9
100
AcDbLine
 10
-681.1309773213154
 20
215.2859876478043
 30
0.0
 11
147.8690358754751
 21
215.2859876478043
 31
0.0
  0
LINE
  5
BD
330
1F
100
AcDbEntity
  8
躯体
  6
JWW_DASHED3
 62
     2
370
     9
100
AcDbLine
 10
-681.1309773213154
 20
65.28578969594616
 30
0.0
 11
147.8690358754751
 21
65.28578969594616
 31
0.0
  0
LINE
  5
BE
330
1F
100
AcDbEntity
  8
0-F
  6
Continuous
 62
     7
370
     9
100
AcDbLine
 10
-682.1310301084776
 20
325.2859546558279
 30
0.0
 11
-670.2337275324641
 21
326.8522487331084
 31
0.0
  0
LINE
  5
BF
330
1F
100
AcDbEntity
  8
0-F
  6
Continuous
 62
     7
370
     9
100
AcDbLine
 10
-682.1310301084776
 20
325.2859546558279
 30
0.0
 11
-670.2337275324641
 21
323.7196605785475
 31
0.0
  0
LINE
  5
C0
330
1F
100
AcDbEntity
  8
0-F
  6
Continuous
 62
     7
370
     9
100
AcDbLine
 10
-570.2336945404877
 20
323.7196605785475
 30
0.0
 11
-594.0283986684439
 21
326.8522487331084
 31
0.0
  0
LINE
  5
C1
330
1F
100
AcDbEntity
  8
0-F
  6
Continuous
 62
     7
370
     9
100
AcDbLine
 10
-570.2336945404877
 20
326.8522487331084
 30
0.0
 11
-594.0283986684439
 21
323.7196605785475
 31
0.0
  0
LINE
  5
C2
330
1F
100
AcDbEntity
  8
0-F
  6
Continuous
 62
     7
370
     9
100
AcDbLine
 10
29.7663054595123
 20
323.7196605785475
 30
0.0
 11
5.971700307485321
 21
326.8522487331084
 31
0.0
  0
LINE
  5
C3
330
1F
100
AcDbEntity
  8
0-F
  6
Continuous
 62
     7
370
     9
100
AcDbLine
 10
29.7663054595123
 20
326.8522487331084
 30
0.0
 11
5.971700307485321
 21
323.7196605785475
 31
0.0
  0
LINE
  5
C4
330
1F
100
AcDbEntity
  8
0-F
  6
Continuous
 62
     7
370
     9
100
AcDbLine
 10
-682.1310301084776
 20
365.2859876478043
 30
0.0
 11
-670.2337275324641
 21
366.8522817250847
 31
0.0
  0
LINE
  5
C5
330
1F
100
AcDbEntity
  8
0-F
  6
Continuous
 62
     7
370
     9
100
AcDbLine
 10
-682.1310301084776
 20
365.2859876478043
 30
0.0
 11
-670.2337275324641
 21
363.7196935705239
 31
0.0
  0
LINE
  5
C6
330
1F
100
AcDbEntity
  8
0-F
  6
Continuous
 62
     7
370
     9
100
AcDbLine
 10
-681.1309773213154
 20
-97.03908889358092
 30
0.0
 11
-669.233674745302
 21
-95.4727948163005
 31
0.0
  0
LINE
  5
C7
330
1F
100
AcDbEntity
  8
0-F
  6
Continuous
 62
     7
370
     9
100
AcDbLine
 10
-681.1309773213154
 20
-97.03908889358092
 30
0.0
 11
-669.233674745302
 21
-98.60538297086134
 31
0.0
  0
LINE
  5
C8
330
1F
100
AcDbEntity
  8
0-F
  6
Continuous
 62
     7
370
     9
100
AcDbLine
 10
-82.13093113254854
 20
-97.03908889358092
 30
0.0
 11
-94.0281842205975
 21
-95.4727948163005
 31
0.0
  0
LINE
  5
C9
330
1F
100
AcDbEntity
  8
0-F
  6
Continuous
 62
     7
370
     9
100
AcDbLine
 10
-82.13093113254854
 20
-97.03908889358092
 30
0.0
 11
-94.0281842205975
 21
-98.60538297086134
 31
0.0
  0
LINE
  5
CA
330
1F
100
AcDbEntity
  8
0-F
  6
Continuous
 62
     7
370
     9
100
AcDbLine
 10
-81.13097732131541
 20
-97.03908889358092
 30
0.0
 11
-69.2336252573374
 21
-95.4727948163005
 31
0.0
  0
LINE
  5
CB
330
1F
100
AcDbEntity
  8
0-F
  6
Continuous
 62
     7
370
     9
100
AcDbLine
 10
-81.13097732131541
 20
-97.03908889358092
 30
0.0
 11
-69.2336252573374
 21
-98.60538297086134
 31
0.0
  0
LINE
  5
CC
330
1F
100
AcDbEntity
  8
0-F
  6
Continuous
 62
     7
370
     9
100
AcDbLine
 10
-681.1309773213154
 20
10.28585567989887
 30
0.0
 11
-681.1309773213154
 21
-98.23912254539687
 31
0.0
  0
LINE
  5
CD
330
1F
100
AcDbEntity
  8
0-F
  6
Continuous
 62
     7
370
     9
100
AcDbLine
 10
-82.13093113254854
 20
10.28585567989887
 30
0.0
 11
-82.13093113254854
 21
-98.23912254539687
 31
0.0
  0
LINE
  5
CE
330
1F
100
AcDbEntity
  8
0-F
  6
Continuous
 62
     7
370
     9
100
AcDbLine
 10
-81.13097732131541
 20
10.28585567989887
 30
0.0
 11
-81.13097732131541
 21
-98.23912254539687
 31
0.0
  0
LINE
  5
CF
330
1F
100
AcDbEntity
  8
0-F
  6
Continuous
 62
     7
370
     9
100
AcDbLine
 10
-682.1310301084776
 20
365.2859876478043
 30
0.0
 11
147.8690358754751
 21
365.2859876478043
 31
0.0
  0
LINE
  5
D0
330
1F
100
AcDbEntity
  8
0-F
  6
Continuous
 62
     7
370
     9
100
AcDbLine
 10
-681.1309773213154
 20
-97.03908889358092
 30
0.0
 11
147.8690358754751
 21
-97.03908889358092
 31
0.0
  0
LINE
  5
D1
330
1F
100
AcDbEntity
  8
0-F
  6
Continuous
 62
     7
370
     9
100
AcDbLine
 10
418.369062269056
 20
-44.71407833614853
 30
0.0
 11
478.3689632931273
 21
-44.71407833614853
 31
0.0
  0
LINE
  5
D2
330
1F
100
AcDbEntity
  8
0-F
  6
Continuous
 62
     7
370
     9
100
AcDbLine
 10
418.369062269056
 20
11.28590846706095
 30
0.0
 11
418.369062269056
 21
-85.91404600401165
 31
0.0
  0
LINE
  5
D3
330
1F
100
AcDbEntity
  8
0-F
  6
Continuous
 62
     7
370
     9
100
AcDbLine
 10
418.369062269056
 20
-44.71407833614853
 30
0.0
 11
430.2663648450698
 21
-43.14778425886811
 31
0.0
  0
LINE
  5
D4
330
1F
100
AcDbEntity
  8
0-F
  6
Continuous
 62
     7
370
     9
100
AcDbLine
 10
418.369062269056
 20
-44.71407833614853
 30
0.0
 11
430.2663648450698
 21
-46.28037241342884
 31
0.0
  0
LINE
  5
D5
330
1F
100
AcDbEntity
  8
0-F
  6
Continuous
 62
     7
370
     9
100
AcDbLine
 10
478.3689632931273
 20
-44.71407833614853
 30
0.0
 11
466.4716607171135
 21
-43.14778425886811
 31
0.0
  0
LINE
  5
D6
330
1F
100
AcDbEntity
  8
0-F
  6
Continuous
 62
     7
370
     9
100
AcDbLine
 10
478.3689632931273
 20
-44.71407833614853
 30
0.0
 11
466.4716607171135
 21
-46.28037241342884
 31
0.0
  0
LINE
  5
D7
330
1F
100
AcDbEntity
  8
0-F
  6
Continuous
 62
     7
370
     9
100
AcDbLine
 10
418.369062269056
 20
-84.7140618401603
 30
0.0
 11
430.2663648450698
 21
-83.14776776287988
 31
0.0
  0
LINE
  5
D8
330
1F
100
AcDbEntity
  8
0-F
  6
Continuous
 62
     7
370
     9
100
AcDbLine
 10
418.369062269056
 20
-84.7140618401603
 30
0.0
 11
430.2663648450698
 21
-86.28035591744072
 31
0.0
  0
LINE
  5
D9
330
1F
100
AcDbEntity
  8
0-F
  6
Continuous
 62
     7
370
     9
100
AcDbLine
 10
493.4663556073165
 20
-86.28035591744072
 30
0.0
 11
469.6717504552894
 21
-83.14776776287988
 31
0.0
  0
LINE
  5
DA
330
1F
100
AcDbEntity
  8
0-F
  6
Continuous
 62
     7
370
     9
100
AcDbLine
 10
493.4663556073165
 20
-83.14776776287988
 30
0.0
 11
469.6717504552894
 21
-86.28035591744072
 31
0.0
  0
LINE
  5
DB
330
1F
100
AcDbEntity
  8
0-F
  6
Continuous
 62
     7
370
     9
100
AcDbLine
 10
505.5690332361169
 20
-84.7140618401603
 30
0.0
 11
493.6717306601035
 21
-83.14776776287988
 31
0.0
  0
LINE
  5
DC
330
1F
100
AcDbEntity
  8
0-F
  6
Continuous
 62
     7
370
     9
100
AcDbLine
 10
505.5690332361169
 20
-84.7140618401603
 30
0.0
 11
493.6717306601035
 21
-86.28035591744072
 31
0.0
  0
LINE
  5
DD
330
1F
100
AcDbEntity
  8
0-F
  6
Continuous
 62
     7
370
     9
100
AcDbLine
 10
478.3689632931273
 20
2.28587877428231
 30
0.0
 11
478.3689632931273
 21
-45.91406249999989
 31
0.0
  0
LINE
  5
DE
330
1F
100
AcDbEntity
  8
0-F
  6
Continuous
 62
     7
370
     9
100
AcDbLine
 10
481.5690530313027
 20
2.28587877428231
 30
0.0
 11
481.5690530313027
 21
-85.91404600401165
 31
0.0
  0
LINE
  5
DF
330
1F
100
AcDbEntity
  8
0-F
  6
Continuous
 62
     7
370
     9
100
AcDbLine
 10
505.5690332361169
 20
-17.71408823374134
 30
0.0
 11
505.5690332361169
 21
-85.91404600401165
 31
0.0
  0
LINE
  5
E0
330
1F
100
AcDbEntity
  8
0-F
  6
Continuous
 62
     7
370
     9
100
AcDbLine
 10
418.3688643171981
 20
100.767670502534
 30
0.0
 11
495.3574886837523
 21
100.767670502534
 31
0.0
  0
LINE
  5
E1
330
1F
100
AcDbEntity
  8
0-F
  6
Continuous
 62
     7
370
     9
100
AcDbLine
 10
418.3688643171981
 20
100.2859051678633
 30
0.0
 11
418.3688643171981
 21
101.9676546663853
 31
0.0
  0
LINE
  5
E2
330
1F
100
AcDbEntity
  8
0-F
  6
Continuous
 62
     7
370
     9
100
AcDbLine
 10
458.3691942369614
 20
100.2859051678633
 30
0.0
 11
458.3691942369614
 21
101.9676546663853
 31
0.0
  0
LINE
  5
E3
330
1F
100
AcDbEntity
  8
0-F
  6
Continuous
 62
     7
370
     9
100
AcDbLine
 10
418.3688643171981
 20
100.767670502534
 30
0.0
 11
430.2661668932114
 21
102.3339645798144
 31
0.0
  0
LINE
  5
E4
330
1F
100
AcDbEntity
  8
0-F
  6
Continuous
 62
     7
370
     9
100
AcDbLine
 10
418.3688643171981
 20
100.767670502534
 30
0.0
 11
430.2661668932114
 21
99.20137642525356
 31
0.0
  0
LINE
  5
E5
330
1F
100
AcDbEntity
  8
0-F
  6
Continuous
 62
     7
370
     9
100
AcDbLine
 10
458.3691942369614
 20
100.767670502534
 30
0.0
 11
446.4718916609481
 21
102.3339645798144
 31
0.0
  0
LINE
  5
E6
330
1F
100
AcDbEntity
  8
0-F
  6
Continuous
 62
     7
370
     9
100
AcDbLine
 10
458.3691942369614
 20
100.767670502534
 30
0.0
 11
446.4718916609481
 21
99.20137642525356
 31
0.0
  0
LINE
  5
E7
330
1F
100
AcDbEntity
  8
0-F
  6
Continuous
 62
     7
370
     9
100
AcDbLine
 10
464.3691150562186
 20
100.2859051678633
 30
0.0
 11
464.3691150562186
 21
101.9676546663853
 31
0.0
  0
LINE
  5
E8
330
1F
100
AcDbEntity
  8
0-F
  6
Continuous
 62
     7
370
     9
100
AcDbLine
 10
469.369181040171
 20
100.767670502534
 30
0.0
 11
481.2664836161848
 21
102.3339645798144
 31
0.0
  0
LINE
  5
E9
330
1F
100
AcDbEntity
  8
0-F
  6
Continuous
 62
     7
370
     9
100
AcDbLine
 10
-682.1310301084776
 20
269.2859678526185
 30
0.0
 11
-682.1310301084776
 21
366.4859718116556
 31
0.0
  0
LINE
  5
EA
330
1F
100
AcDbEntity
  8
躯体
  6
JWW_CENTER1
 62
     2
370
     9
100
AcDbLine
 10
-582.1309971165012
 20
261.2859414590373
 30
0.0
 11
-582.1309971165012
 21
298.2859150654563
 31
0.0
  0
LINE
  5
EB
330
1F
100
AcDbEntity
  8
躯体
  6
JWW_CENTER1
 62
     2
370
     9
100
AcDbLine
 10
17.86900288349875
 20
261.2859414590373
 30
0.0
 11
17.86900288349875
 21
298.2859150654563
 31
0.0
  0
LINE
  5
EC
330
1F
100
AcDbEntity
  8
躯体
  6
JWW_CENTER1
 62
     2
370
     9
100
AcDbLine
 10
17.86900288349875
 20
19.28583588471304
 30
0.0
 11
17.86900288349875
 21
-17.71408823374134
 31
0.0
  0
LINE
  5
ED
330
1F
100
AcDbEntity
  8
躯体
  6
JWW_CENTER1
 62
     2
370
     9
100
AcDbLine
 10
-582.1309971165012
 20
19.28583588471304
 30
0.0
 11
-582.1309971165012
 21
-17.71408823374134
 31
0.0
  0
LINE
  5
EE
330
1F
100
AcDbEntity
  8
0-F
  6
Continuous
 62
     7
370
     9
100
AcDbLine
 10
17.86900288349875
 20
302.2859282622468
 30
0.0
 11
17.86900288349875
 21
326.4859388196793
 31
0.0
  0
LINE
  5
EF
330
1F
100
AcDbEntity
  8
0-F
  6
Continuous
 62
     7
370
     9
100
AcDbLine
 10
-582.1309971165012
 20
302.2859282622468
 30
0.0
 11
-582.1309971165012
 21
326.4859388196793
 31
0.0
  0
LINE
  5
F0
330
1F
100
AcDbEntity
  8
0-F
  6
Continuous
 62
     7
370
     9
100
AcDbLine
 10
-682.1310301084776
 20
325.2859546558279
 30
0.0
 11
147.8690358754751
 21
325.2859546558279
 31
0.0
  0
LINE
  5
F1
330
1F
100
AcDbEntity
  8
0-E
  6
Continuous
 62
     7
370
     9
100
AcDbLine
 10
532.0131250329919
 20
360.7027093010981
 30
0.0
 11
501.0688946698165
 21
294.2859018686657
 31
0.0
  0
LINE
  5
F2
330
1F
100
AcDbEntity
  8
0-E
  6
Continuous
 62
     7
370
     9
100
AcDbLine
 10
532.0131250329919
 20
360.7027093010981
 30
0.0
 11
691.2485689730261
 21
360.7027093010981
 31
0.0
  0
LINE
  5
F3
330
1F
100
AcDbEntity
  8
0-F
  6
Continuous
 62
     7
370
     9
100
AcDbLine
 10
414.3690490722656
 20
260.2858886718752
 30
0.0
 11
317.1690451132285
 21
260.2858886718752
 31
0.0
  0
LINE
  5
F4
330
1F
100
AcDbEntity
  8
0-F
  6
Continuous
 62
     7
370
     9
100
AcDbLine
 10
358.369062269056
 20
260.2858886718752
 30
0.0
 11
358.369062269056
 21
20.28588867187523
 31
0.0
  0
LINE
  5
F5
330
1F
100
AcDbEntity
  8
0-F
  6
Continuous
 62
     7
370
     9
100
AcDbLine
 10
414.3690490722656
 20
249.2859018686657
 30
0.0
 11
357.1690781052048
 21
249.2859018686657
 31
0.0
  0
LINE
  5
F6
330
1F
100
AcDbEntity
  8
0-F
  6
Continuous
 62
     7
370
     9
100
AcDbLine
 10
414.3690490722656
 20
242.7859546558279
 30
0.0
 11
357.1690781052048
 21
242.7859546558279
 31
0.0
  0
LINE
  5
F7
330
1F
100
AcDbEntity
  8
0-F
  6
Continuous
 62
     7
370
     9
100
AcDbLine
 10
414.3690490722656
 20
231.7858688766894
 30
0.0
 11
357.1690781052048
 21
231.7858688766894
 31
0.0
  0
LINE
  5
F8
330
1F
100
AcDbEntity
  8
0-F
  6
Continuous
 62
     7
370
     9
100
AcDbLine
 10
414.3690490722656
 20
225.2859216638516
 30
0.0
 11
357.1690781052048
 21
225.2859216638516
 31
0.0
  0
LINE
  5
F9
330
1F
100
AcDbEntity
  8
0-F
  6
Continuous
 62
     7
370
     9
100
AcDbLine
 10
414.3690490722656
 20
20.28588867187523
 30
0.0
 11
317.1690451132285
 21
20.28588867187523
 31
0.0
  0
LINE
  5
FA
330
1F
100
AcDbEntity
  8
0-F
  6
Continuous
 62
     7
370
     9
100
AcDbLine
 10
414.3690490722656
 20
215.2858886718752
 30
0.0
 11
357.1690781052048
 21
215.2858886718752
 31
0.0
  0
LINE
  5
FB
330
1F
100
AcDbEntity
  8
0-F
  6
Continuous
 62
     7
370
     9
100
AcDbLine
 10
358.369062269056
 20
215.2858886718752
 30
0.0
 11
356.8027681917756
 21
203.3885366078971
 31
0.0
  0
LINE
  5
FC
330
1F
100
AcDbEntity
  8
0-F
  6
Continuous
 62
     7
370
     9
100
AcDbLine
 10
414.3690490722656
 20
65.28588867187523
 30
0.0
 11
357.1690781052048
 21
65.28588867187523
 31
0.0
  0
LINE
  5
FD
330
1F
100
AcDbEntity
  8
0-F
  6
Continuous
 62
     7
370
     9
100
AcDbLine
 10
359.9353563463364
 20
77.18324073585325
 30
0.0
 11
356.8027681917756
 21
53.38853660789709
 31
0.0
  0
LINE
  5
FE
330
1F
100
AcDbEntity
  8
0-F
  6
Continuous
 62
     7
370
     9
100
AcDbLine
 10
356.8027681917756
 20
77.18324073585325
 30
0.0
 11
359.9353563463364
 21
53.38853660789709
 31
0.0
  0
LINE
  5
FF
330
1F
100
AcDbEntity
  8
0-F
  6
Continuous
 62
     7
370
     9
100
AcDbLine
 10
358.369062269056
 20
20.28588867187523
 30
0.0
 11
356.8027681917756
 21
32.18324073585325
 31
0.0
  0
LINE
  5
100
330
1F
100
AcDbEntity
  8
0-F
  6
Continuous
 62
     7
370
     9
100
AcDbLine
 10
358.369062269056
 20
20.28588867187523
 30
0.0
 11
359.9353563463364
 21
32.18324073585325
 31
0.0
  0
LINE
  5
101
330
1F
100
AcDbEntity
  8
0-F
  6
Continuous
 62
     7
370
     9
100
AcDbLine
 10
358.369062269056
 20
215.2858886718752
 30
0.0
 11
359.9353563463364
 21
203.3885366078971
 31
0.0
  0
LINE
  5
102
330
1F
100
AcDbEntity
  8
0-F
  6
Continuous
 62
     7
370
     9
100
AcDbLine
 10
414.3690490722656
 20
265.2859546558279
 30
0.0
 11
277.1690121212523
 21
265.2859546558279
 31
0.0
  0
LINE
  5
103
330
1F
100
AcDbEntity
  8
0-F
  6
Continuous
 62
     7
370
     9
100
AcDbLine
 10
414.3690490722656
 20
262.0858649176522
 30
0.0
 11
317.1690451132285
 21
262.0858649176522
 31
0.0
  0
LINE
  5
104
330
1F
100
AcDbEntity
  8
0-F
  6
Continuous
 62
     7
370
     9
100
AcDbLine
 10
318.3690292770798
 20
265.2859546558279
 30
0.0
 11
316.8027351997994
 21
277.1832572318414
 31
0.0
  0
LINE
  5
105
330
1F
100
AcDbEntity
  8
0-F
  6
Continuous
 62
     7
370
     9
100
AcDbLine
 10
318.3690292770798
 20
265.2859546558279
 30
0.0
 11
319.9353233543602
 21
277.1832572318414
 31
0.0
  0
LINE
  5
106
330
1F
100
AcDbEntity
  8
0-F
  6
Continuous
 62
     7
370
     9
100
AcDbLine
 10
318.3690292770798
 20
307.6634884396117
 30
0.0
 11
318.3690292770798
 21
-24.97847603462822
 31
0.0
  0
LINE
  5
107
330
1F
100
AcDbEntity
  8
0-F
  6
Continuous
 62
     7
370
     9
100
AcDbLine
 10
318.3690292770798
 20
260.2858886718752
 30
0.0
 11
316.8027351997994
 21
248.3885366078971
 31
0.0
  0
LINE
  5
108
330
1F
100
AcDbEntity
  8
0-F
  6
Continuous
 62
     7
370
     9
100
AcDbLine
 10
318.3690292770798
 20
260.2858886718752
 30
0.0
 11
319.9353233543602
 21
248.3885366078971
 31
0.0
  0
LINE
  5
109
330
1F
100
AcDbEntity
  8
0-F
  6
Continuous
 62
     7
370
     9
100
AcDbLine
 10
414.3690490722656
 20
18.48591242609814
 30
0.0
 11
317.1690451132285
 21
18.48591242609814
 31
0.0
  0
LINE
  5
10A
330
1F
100
AcDbEntity
  8
0-F
  6
Continuous
 62
     7
370
     9
100
AcDbLine
 10
318.3690292770798
 20
20.28588867187523
 30
0.0
 11
316.8027351997994
 21
32.18324073585325
 31
0.0
  0
LINE
  5
10B
330
1F
100
AcDbEntity
  8
0-F
  6
Continuous
 62
     7
370
     9
100
AcDbLine
 10
318.3690292770798
 20
20.28588867187523
 30
0.0
 11
319.9353233543602
 21
32.18324073585325
 31
0.0
  0
LINE
  5
10C
330
1F
100
AcDbEntity
  8
0-F
  6
Continuous
 62
     7
370
     9
100
AcDbLine
 10
414.3690490722656
 20
15.28592166385158
 30
0.0
 11
277.1690121212523
 21
15.28592166385158
 31
0.0
  0
LINE
  5
10D
330
1F
100
AcDbEntity
  8
0-F
  6
Continuous
 62
     7
370
     9
100
AcDbLine
 10
318.3690292770798
 20
15.28592166385158
 30
0.0
 11
316.8027351997994
 21
3.388569599873449
 31
0.0
  0
LINE
  5
10E
330
1F
100
AcDbEntity
  8
0-F
  6
Continuous
 62
     7
370
     9
100
AcDbLine
 10
318.3690292770798
 20
15.28592166385158
 30
0.0
 11
319.9353233543602
 21
3.388569599873449
 31
0.0
  0
LINE
  5
10F
330
1F
100
AcDbEntity
  8
0-F
  6
Continuous
 62
     7
370
     9
100
AcDbLine
 10
278.3689962851035
 20
15.28592166385158
 30
0.0
 11
278.3689962851035
 21
265.2859546558279
 31
0.0
  0
LINE
  5
110
330
1F
100
AcDbEntity
  8
0-F
  6
Continuous
 62
     7
370
     9
100
AcDbLine
 10
278.3689962851035
 20
15.28592166385158
 30
0.0
 11
276.8027022078231
 21
27.1832737278296
 31
0.0
  0
LINE
  5
111
330
1F
100
AcDbEntity
  8
0-F
  6
Continuous
 62
     7
370
     9
100
AcDbLine
 10
278.3689962851035
 20
15.28592166385158
 30
0.0
 11
279.935290362384
 21
27.1832737278296
 31
0.0
  0
LINE
  5
112
330
1F
100
AcDbEntity
  8
0-F
  6
Continuous
 62
     7
370
     9
100
AcDbLine
 10
278.3689962851035
 20
265.2859546558279
 30
0.0
 11
276.8027022078231
 21
253.3886025918498
 31
0.0
  0
LINE
  5
113
330
1F
100
AcDbEntity
  8
0-F
  6
Continuous
 62
     7
370
     9
100
AcDbLine
 10
278.3689962851035
 20
265.2859546558279
 30
0.0
 11
279.935290362384
 21
253.3886025918498
 31
0.0
  0
LINE
  5
114
330
1F
100
AcDbEntity
  8
0-F
  6
Continuous
 62
     7
370
     9
100
AcDbLine
 10
-671.1309443293391
 20
-55.27768026815863
 30
0.0
 11
-92.1309641245249
 21
-55.27768026815863
 31
0.0
  0
LINE
  5
115
330
1F
100
AcDbEntity
  8
0-F
  6
Continuous
 62
     7
370
     9
100
AcDbLine
 10
-671.1309443293391
 20
10.28585567989887
 30
0.0
 11
-671.1309443293391
 21
-56.47766443200999
 31
0.0
  0
LINE
  5
116
330
1F
100
AcDbEntity
  8
0-F
  6
Continuous
 62
     7
370
     9
100
AcDbLine
 10
-92.1309641245249
 20
10.28585567989887
 30
0.0
 11
-92.1309641245249
 21
-56.47766443200999
 31
0.0
  0
LINE
  5
117
330
1F
100
AcDbEntity
  8
0-F
  6
Continuous
 62
     7
370
     9
100
AcDbLine
 10
-671.1309443293391
 20
-55.27768026815863
 30
0.0
 11
-659.2336417533255
 21
-53.71138619087822
 31
0.0
  0
LINE
  5
118
330
1F
100
AcDbEntity
  8
0-F
  6
Continuous
 62
     7
370
     9
100
AcDbLine
 10
-671.1309443293391
 20
-55.27768026815863
 30
0.0
 11
-659.2336417533255
 21
-56.84397434543905
 31
0.0
  0
LINE
  5
119
330
1F
100
AcDbEntity
  8
0-F
  6
Continuous
 62
     7
370
     9
100
AcDbLine
 10
-92.1309641245249
 20
-55.27768026815863
 30
0.0
 11
-104.0283161885029
 21
-53.71138619087822
 31
0.0
  0
LINE
  5
11A
330
1F
100
AcDbEntity
  8
0-F
  6
Continuous
 62
     7
370
     9
100
AcDbLine
 10
-92.1309641245249
 20
-55.27768026815863
 30
0.0
 11
-104.0283161885029
 21
-56.84397434543905
 31
0.0
  0
LINE
  5
11B
330
1F
100
AcDbEntity
  8
通り芯
  6
Continuous
 62
     3
370
     9
100
AcDbLine
 10
-677.6915637866871
 20
-259.3193293391046
 30
0.0
 11
-681.1309773213154
 21
-206.2546716638512
 31
0.0
  0
LINE
  5
11C
330
1F
100
AcDbEntity
  8
通り芯
  6
Continuous
 62
     3
370
     9
100
AcDbLine
 10
-670.5621296650654
 20
-260.2546518686654
 30
0.0
 11
-676.6936884699641
 21
-260.2546518686654
 31
0.0
  0
LINE
  5
11D
330
1F
100
AcDbEntity
  8
通り芯
  6
Continuous
 62
     3
370
     9
100
AcDbLine
 10
-82.1310301084776
 20
-206.2546716638512
 30
0.0
 11
-681.1309773213154
 21
-206.2546716638512
 31
0.0
  0
LINE
  5
11E
330
1F
100
AcDbEntity
  8
通り芯
  6
Continuous
 62
     3
370
     9
100
AcDbLine
 10
-663.5518625620249
 20
-214.2546485694677
 30
0.0
 11
-99.71014486776812
 21
-214.2546485694677
 31
0.0
  0
LINE
  5
11F
330
1F
100
AcDbEntity
  8
通り芯
  6
Continuous
 62
     3
370
     9
100
AcDbLine
 10
-666.5443008010451
 20
-217.0408704603039
 30
0.0
 11
-669.5646502520586
 21
-259.3259112383867
 31
0.0
  0
LINE
  5
120
330
1F
100
AcDbEntity
  8
通り芯
  6
Continuous
 62
     3
370
     9
100
AcDbLine
 10
-681.1309773213154
 20
-201.254655167863
 30
0.0
 11
-681.1309773213154
 21
-206.2546716638512
 31
0.0
  0
LINE
  5
121
330
1F
100
AcDbEntity
  8
通り芯
  6
Continuous
 62
     3
370
     9
100
AcDbLine
 10
-680.1309245341532
 20
-200.2546518686654
 30
0.0
 11
-83.1310334076752
 21
-200.2546518686654
 31
0.0
  0
LINE
  5
122
330
1F
100
AcDbEntity
  8
躯体
  6
Continuous
 62
     2
370
     9
100
AcDbLine
 10
-682.1310301084776
 20
262.0858649176522
 30
0.0
 11
147.8690358754751
 21
262.0858649176522
 31
0.0
  0
LINE
  5
123
330
1F
100
AcDbEntity
  8
通り芯
  6
Continuous
 62
     3
370
     9
100
AcDbLine
 10
-428.5770684319573
 20
-260.2546518686654
 30
0.0
 11
-434.684971989812
 21
-260.2546518686654
 31
0.0
  0
LINE
  5
124
330
1F
100
AcDbEntity
  8
通り芯
  6
Continuous
 62
     3
370
     9
100
AcDbLine
 10
-438.0290717047613
 20
-217.0882304423562
 30
0.0
 11
-435.6834411621093
 21
-259.3101245777025
 31
0.0
  0
LINE
  5
125
330
1F
100
AcDbEntity
  8
通り芯
  6
Continuous
 62
     3
370
     9
100
AcDbLine
 10
-425.232869741079
 20
-217.0882304423562
 30
0.0
 11
-427.57859925966
 21
-259.3101245777025
 31
0.0
  0
LINE
  5
126
330
1F
100
AcDbEntity
  8
通り芯
  6
Continuous
 62
     3
370
     9
100
AcDbLine
 10
-550.5769760544235
 20
-260.2546518686654
 30
0.0
 11
-556.6849785882074
 21
-260.2546518686654
 31
0.0
  0
LINE
  5
127
330
1F
100
AcDbEntity
  8
通り芯
  6
Continuous
 62
     3
370
     9
100
AcDbLine
 10
-560.0290783031567
 20
-217.0882304423562
 30
0.0
 11
-557.6834477605047
 21
-259.3101245777025
 31
0.0
  0
LINE
  5
128
330
1F
100
AcDbEntity
  8
通り芯
  6
Continuous
 62
     3
370
     9
100
AcDbLine
 10
-547.2329753154032
 20
-217.0882304423562
 30
0.0
 11
-549.5785068821262
 21
-259.3101245777025
 31
0.0
  0
LINE
  5
129
330
1F
100
AcDbEntity
  8
通り芯
  6
Continuous
 62
     3
370
     9
100
AcDbLine
 10
-339.2467395679371
 20
-246.254655167863
 30
0.0
 11
-424.015267861856
 21
-246.254655167863
 31
0.0
  0
LINE
  5
12A
330
1F
100
AcDbEntity
  8
通り芯
  6
Continuous
 62
     3
370
     9
100
AcDbLine
 10
-439.2466735839843
 20
-246.254655167863
 30
0.0
 11
-546.0153734361803
 21
-246.254655167863
 31
0.0
  0
LINE
  5
12B
330
1F
100
AcDbEntity
  8
通り芯
  6
Continuous
 62
     3
370
     9
100
AcDbLine
 10
-561.2466801823797
 20
-246.254655167863
 30
0.0
 11
-668.6310103132918
 21
-246.254655167863
 31
0.0
  0
LINE
  5
12C
330
1F
100
AcDbEntity
  8
通り芯
  6
Continuous
 62
     3
370
     9
100
AcDbLine
 10
-85.57039415514146
 20
-259.3193293391046
 30
0.0
 11
-82.1310301084776
 21
-206.2546716638512
 31
0.0
  0
LINE
  5
12D
330
1F
100
AcDbEntity
  8
通り芯
  6
Continuous
 62
     3
370
     9
100
AcDbLine
 10
-92.69992725269208
 20
-260.2546518686654
 30
0.0
 11
-86.56831895982896
 21
-260.2546518686654
 31
0.0
  0
LINE
  5
12E
330
1F
100
AcDbEntity
  8
通り芯
  6
Continuous
 62
     3
370
     9
100
AcDbLine
 10
-96.7177561167124
 20
-217.0408704603039
 30
0.0
 11
-93.69735717773438
 21
-259.3259112383867
 31
0.0
  0
LINE
  5
12F
330
1F
100
AcDbEntity
  8
通り芯
  6
Continuous
 62
     3
370
     9
100
AcDbLine
 10
-82.1310301084776
 20
-201.254655167863
 30
0.0
 11
-82.1310301084776
 21
-206.2546716638512
 31
0.0
  0
LINE
  5
130
330
1F
100
AcDbEntity
  8
通り芯
  6
Continuous
 62
     3
370
     9
100
AcDbLine
 10
-334.6849389978357
 20
-260.2546518686654
 30
0.0
 11
-328.5770354399809
 21
-260.2546518686654
 31
0.0
  0
LINE
  5
131
330
1F
100
AcDbEntity
  8
通り芯
  6
Continuous
 62
     3
370
     9
100
AcDbLine
 10
-325.2327377731735
 20
-217.0882304423562
 30
0.0
 11
-327.5785662676836
 21
-259.3101245777025
 31
0.0
  0
LINE
  5
132
330
1F
100
AcDbEntity
  8
通り芯
  6
Continuous
 62
     3
370
     9
100
AcDbLine
 10
-338.0291376887141
 20
-217.0882304423562
 30
0.0
 11
-335.683408170133
 21
-259.3101245777025
 31
0.0
  0
LINE
  5
133
330
1F
100
AcDbEntity
  8
通り芯
  6
Continuous
 62
     3
370
     9
100
AcDbLine
 10
-212.6850313753695
 20
-260.2546518686654
 30
0.0
 11
-206.5770288415857
 21
-260.2546518686654
 31
0.0
  0
LINE
  5
134
330
1F
100
AcDbEntity
  8
通り芯
  6
Continuous
 62
     3
370
     9
100
AcDbLine
 10
-203.2327311747782
 20
-217.0882304423562
 30
0.0
 11
-205.5785596692884
 21
-259.3101245777025
 31
0.0
  0
LINE
  5
135
330
1F
100
AcDbEntity
  8
通り芯
  6
Continuous
 62
     3
370
     9
100
AcDbLine
 10
-216.0290321143897
 20
-217.0882304423562
 30
0.0
 11
-213.6835005476668
 21
-259.3101245777025
 31
0.0
  0
LINE
  5
136
330
1F
100
AcDbEntity
  8
通り芯
  6
Continuous
 62
     3
370
     9
100
AcDbLine
 10
-324.0153338458086
 20
-246.254655167863
 30
0.0
 11
-217.2466339936127
 21
-246.254655167863
 31
0.0
  0
LINE
  5
137
330
1F
100
AcDbEntity
  8
通り芯
  6
Continuous
 62
     3
370
     9
100
AcDbLine
 10
-202.0153272474134
 20
-246.254655167863
 30
0.0
 11
-94.63104660446572
 21
-246.254655167863
 31
0.0
  0
LINE
  5
138
330
1F
100
AcDbEntity
  8
通り芯
  6
Continuous
 62
     3
370
     9
100
AcDbLine
 10
424.369181040171
 20
258.785809491132
 30
0.0
 11
424.369181040171
 21
260.2858886718752
 31
0.0
  0
LINE
  5
139
330
1F
100
AcDbEntity
  8
通り芯
  6
Continuous
 62
     3
370
     9
100
AcDbLine
 10
418.369062269056
 20
251.1329411687079
 30
0.0
 11
418.369062269056
 21
258.4386019320103
 31
0.0
  0
LINE
  5
13A
330
1F
100
AcDbEntity
  8
通り芯
  6
Continuous
 62
     3
370
     9
100
AcDbLine
 10
424.369181040171
 20
241.2858259871201
 30
0.0
 11
424.369181040171
 21
250.7858325855154
 31
0.0
  0
LINE
  5
13B
330
1F
100
AcDbEntity
  8
通り芯
  6
Continuous
 62
     3
370
     9
100
AcDbLine
 10
432.369009481894
 20
252.6686516839106
 30
0.0
 11
432.369009481894
 21
256.9030398807012
 31
0.0
  0
LINE
  5
13C
330
1F
100
AcDbEntity
  8
通り芯
  6
Continuous
 62
     3
370
     9
100
AcDbLine
 10
419.2047160380598
 20
259.4251939928212
 30
0.0
 11
424.369181040171
 21
260.2858886718752
 31
0.0
  0
LINE
  5
13D
330
1F
100
AcDbEntity
  8
通り芯
  6
Continuous
 62
     3
370
     9
100
AcDbLine
 10
419.2047160380598
 20
250.1465470597552
 30
0.0
 11
424.369181040171
 21
249.2859513566302
 31
0.0
  0
LINE
  5
13E
330
1F
100
AcDbEntity
  8
通り芯
  6
Continuous
 62
     3
370
     9
100
AcDbLine
 10
431.4931714856948
 20
257.8954220333617
 30
0.0
 11
424.369181040171
 21
258.785809491132
 31
0.0
  0
LINE
  5
13F
330
1F
100
AcDbEntity
  8
通り芯
  6
Continuous
 62
     3
370
     9
100
AcDbLine
 10
431.4931714856948
 20
251.6763190192147
 30
0.0
 11
424.369181040171
 21
250.7858325855154
 31
0.0
  0
LINE
  5
140
330
1F
100
AcDbEntity
  8
通り芯
  6
Continuous
 62
     3
370
     9
100
AcDbLine
 10
431.4931714856948
 20
234.1764839790965
 30
0.0
 11
424.369181040171
 21
233.2859975453971
 31
0.0
  0
LINE
  5
141
330
1F
100
AcDbEntity
  8
通り芯
  6
Continuous
 62
     3
370
     9
100
AcDbLine
 10
431.4931714856948
 20
240.3953395534207
 30
0.0
 11
424.369181040171
 21
241.2858259871201
 31
0.0
  0
LINE
  5
142
330
1F
100
AcDbEntity
  8
通り芯
  6
Continuous
 62
     3
370
     9
100
AcDbLine
 10
419.2047160380598
 20
232.646712019637
 30
0.0
 11
424.369181040171
 21
231.7858193887248
 31
0.0
  0
LINE
  5
143
330
1F
100
AcDbEntity
  8
通り芯
  6
Continuous
 62
     3
370
     9
100
AcDbLine
 10
419.2047160380598
 20
241.9251115128802
 30
0.0
 11
424.369181040171
 21
242.7859051678633
 31
0.0
  0
LINE
  5
144
330
1F
100
AcDbEntity
  8
通り芯
  6
Continuous
 62
     3
370
     9
100
AcDbLine
 10
432.369009481894
 20
235.1686186919343
 30
0.0
 11
432.369009481894
 21
239.4030068887248
 31
0.0
  0
LINE
  5
145
330
1F
100
AcDbEntity
  8
通り芯
  6
Continuous
 62
     3
370
     9
100
AcDbLine
 10
424.369181040171
 20
222.6164913692992
 30
0.0
 11
424.369181040171
 21
233.2859975453971
 31
0.0
  0
LINE
  5
146
330
1F
100
AcDbEntity
  8
通り芯
  6
Continuous
 62
     3
370
     9
100
AcDbLine
 10
418.369062269056
 20
233.6330071526606
 30
0.0
 11
418.369062269056
 21
240.9387174039275
 31
0.0
  0
LINE
  5
147
330
1F
100
AcDbEntity
  8
通り芯
  6
Continuous
 62
     3
370
     9
100
AcDbLine
 10
478.369062269056
 20
214.7860107421877
 30
0.0
 11
478.369062269056
 21
251.7858853726775
 31
0.0
  0
LINE
  5
148
330
1F
100
AcDbEntity
  8
通り芯
  6
Continuous
 62
     3
370
     9
100
AcDbLine
 10
418.369062269056
 20
57.13299395587012
 30
0.0
 11
418.369062269056
 21
223.4386844119512
 31
0.0
  0
LINE
  5
149
330
1F
100
AcDbEntity
  8
通り芯
  6
Continuous
 62
     3
370
     9
100
AcDbLine
 10
466.5069951237861
 20
136.4272625897383
 30
0.0
 11
469.369181040171
 21
137.2858787742823
 31
0.0
  0
LINE
  5
14A
330
1F
100
AcDbEntity
  8
通り芯
  6
Continuous
 62
     3
370
     9
100
AcDbLine
 10
426.194693075644
 20
220.624006941512
 30
0.0
 11
460.717695081556
 21
217.6032615867823
 31
0.0
  0
LINE
  5
14B
330
1F
100
AcDbEntity
  8
通り芯
  6
Continuous
 62
     3
370
     9
100
AcDbLine
 10
419.2047160380598
 20
224.4251774968329
 30
0.0
 11
424.369181040171
 21
225.285872175887
 31
0.0
  0
LINE
  5
14C
330
1F
100
AcDbEntity
  8
通り芯
  6
Continuous
 62
     3
370
     9
100
AcDbLine
 10
431.4931714856948
 20
257.8954220333617
 30
0.0
 11
478.369062269056
 21
251.7858853726775
 31
0.0
  0
LINE
  5
14D
330
1F
100
AcDbEntity
  8
通り芯
  6
Continuous
 62
     3
370
     9
100
AcDbLine
 10
458.3690952610327
 20
71.53488241659647
 30
0.0
 11
458.3690952610327
 21
209.0368949271539
 31
0.0
  0
LINE
  5
14E
330
1F
100
AcDbEntity
  8
通り芯
  6
Continuous
 62
     3
370
     9
100
AcDbLine
 10
464.3691150562186
 20
147.0179839263093
 30
0.0
 11
464.3691150562186
 21
213.6184906830661
 31
0.0
  0
LINE
  5
14F
330
1F
100
AcDbEntity
  8
通り芯
  6
Continuous
 62
     3
370
     9
100
AcDbLine
 10
419.2820162386511
 20
215.2059656091641
 30
0.0
 11
455.6305302800361
 21
212.0254731049411
 31
0.0
  0
LINE
  5
150
330
1F
100
AcDbEntity
  8
通り芯
  6
Continuous
 62
     3
370
     9
100
AcDbLine
 10
471.5926752863706
 20
212.9700993718329
 30
0.0
 11
478.369062269056
 21
214.7860107421877
 31
0.0
  0
LINE
  5
151
330
1F
100
AcDbEntity
  8
通り芯
  6
Continuous
 62
     3
370
     9
100
AcDbLine
 10
469.369181040171
 20
70.49934675886846
 30
0.0
 11
469.369181040171
 21
210.0723810969174
 31
0.0
  0
LINE
  5
152
330
1F
100
AcDbEntity
  8
通り芯
  6
Continuous
 62
     3
370
     9
100
AcDbLine
 10
466.5069951237861
 20
144.144514754012
 30
0.0
 11
469.369181040171
 21
143.285898569468
 31
0.0
  0
LINE
  5
153
330
1F
100
AcDbEntity
  8
通り芯
  6
Continuous
 62
     3
370
     9
100
AcDbLine
 10
471.5926752863706
 20
67.60162848395294
 30
0.0
 11
478.369062269056
 21
65.78586557749168
 31
0.0
  0
LINE
  5
154
330
1F
100
AcDbEntity
  8
通り芯
  6
Continuous
 62
     3
370
     9
100
AcDbLine
 10
419.2820162386511
 20
65.36571275865731
 30
0.0
 11
455.6305302800361
 21
68.54630423880928
 31
0.0
  0
LINE
  5
155
330
1F
100
AcDbEntity
  8
通り芯
  6
Continuous
 62
     3
370
     9
100
AcDbLine
 10
464.3691150562186
 20
133.5537439294766
 30
0.0
 11
464.3691150562186
 21
66.95323717271981
 31
0.0
  0
LINE
  5
156
330
1F
100
AcDbEntity
  8
通り芯
  6
Continuous
 62
     3
370
     9
100
AcDbLine
 10
431.4931714856948
 20
22.67635531038866
 30
0.0
 11
478.369062269056
 21
28.78589197107283
 31
0.0
  0
LINE
  5
157
330
1F
100
AcDbEntity
  8
通り芯
  6
Continuous
 62
     3
370
     9
100
AcDbLine
 10
419.2047160380598
 20
56.14664933488189
 30
0.0
 11
424.369181040171
 21
55.28590516786335
 31
0.0
  0
LINE
  5
158
330
1F
100
AcDbEntity
  8
通り芯
  6
Continuous
 62
     3
370
     9
100
AcDbLine
 10
478.369062269056
 20
65.78586557749168
 30
0.0
 11
478.369062269056
 21
28.78589197107283
 31
0.0
  0
LINE
  5
159
330
1F
100
AcDbEntity
  8
通り芯
  6
Continuous
 62
     3
370
     9
100
AcDbLine
 10
418.369062269056
 20
46.93872070312523
 30
0.0
 11
418.369062269056
 21
39.63301045185824
 31
0.0
  0
LINE
  5
15A
330
1F
100
AcDbEntity
  8
通り芯
  6
Continuous
 62
     3
370
     9
100
AcDbLine
 10
424.369181040171
 20
57.95533546241575
 30
0.0
 11
424.369181040171
 21
47.28587877428231
 31
0.0
  0
LINE
  5
15B
330
1F
100
AcDbEntity
  8
通り芯
  6
Continuous
 62
     3
370
     9
100
AcDbLine
 10
432.369009481894
 20
45.40305967588699
 30
0.0
 11
432.369009481894
 21
41.16867147909647
 31
0.0
  0
LINE
  5
15C
330
1F
100
AcDbEntity
  8
通り芯
  6
Continuous
 62
     3
370
     9
100
AcDbLine
 10
419.2047160380598
 20
38.64656685494106
 30
0.0
 11
424.369181040171
 21
37.78592166385158
 31
0.0
  0
LINE
  5
15D
330
1F
100
AcDbEntity
  8
通り芯
  6
Continuous
 62
     3
370
     9
100
AcDbLine
 10
419.2047160380598
 20
47.92511481207782
 30
0.0
 11
424.369181040171
 21
48.78590846706095
 31
0.0
  0
LINE
  5
15E
330
1F
100
AcDbEntity
  8
通り芯
  6
Continuous
 62
     3
370
     9
100
AcDbLine
 10
431.4931714856948
 20
40.1764377903296
 30
0.0
 11
424.369181040171
 21
39.28585238070116
 31
0.0
  0
LINE
  5
15F
330
1F
100
AcDbEntity
  8
通り芯
  6
Continuous
 62
     3
370
     9
100
AcDbLine
 10
431.4931714856948
 20
46.39539234058293
 30
0.0
 11
424.369181040171
 21
47.28587877428231
 31
0.0
  0
LINE
  5
160
330
1F
100
AcDbEntity
  8
通り芯
  6
Continuous
 62
     3
370
     9
100
AcDbLine
 10
431.4931714856948
 20
28.89540883657116
 30
0.0
 11
424.369181040171
 21
29.78589527027043
 31
0.0
  0
LINE
  5
161
330
1F
100
AcDbEntity
  8
通り芯
  6
Continuous
 62
     3
370
     9
100
AcDbLine
 10
431.4931714856948
 20
22.67635531038866
 30
0.0
 11
424.369181040171
 21
21.78586887668939
 31
0.0
  0
LINE
  5
162
330
1F
100
AcDbEntity
  8
通り芯
  6
Continuous
 62
     3
370
     9
100
AcDbLine
 10
419.2047160380598
 20
30.42513130806606
 30
0.0
 11
424.369181040171
 21
31.28592496304918
 31
0.0
  0
LINE
  5
163
330
1F
100
AcDbEntity
  8
通り芯
  6
Continuous
 62
     3
370
     9
100
AcDbLine
 10
419.2047160380598
 20
21.14658335092918
 30
0.0
 11
424.369181040171
 21
20.28583918391064
 31
0.0
  0
LINE
  5
164
330
1F
100
AcDbEntity
  8
通り芯
  6
Continuous
 62
     3
370
     9
100
AcDbLine
 10
432.369009481894
 20
27.90307617187523
 30
0.0
 11
432.369009481894
 21
23.66863848712012
 31
0.0
  0
LINE
  5
165
330
1F
100
AcDbEntity
  8
通り芯
  6
Continuous
 62
     3
370
     9
100
AcDbLine
 10
424.369181040171
 20
39.28585238070116
 30
0.0
 11
424.369181040171
 21
29.78589527027043
 31
0.0
  0
LINE
  5
166
330
1F
100
AcDbEntity
  8
通り芯
  6
Continuous
 62
     3
370
     9
100
AcDbLine
 10
418.369062269056
 20
29.43873719911335
 30
0.0
 11
418.369062269056
 21
22.13302694784647
 31
0.0
  0
LINE
  5
167
330
1F
100
AcDbEntity
  8
通り芯
  6
Continuous
 62
     3
370
     9
100
AcDbLine
 10
424.369181040171
 20
21.78586887668939
 30
0.0
 11
424.369181040171
 21
20.28583918391064
 31
0.0
  0
LINE
  5
168
330
1F
100
AcDbEntity
  8
通り芯
  6
JWW_CENTER1
 62
     3
370
     9
100
AcDbLine
 10
398.3690952610327
 20
140.2858886718752
 30
0.0
 11
489.3691480481948
 21
140.2858886718752
 31
0.0
  0
LINE
  5
169
330
1F
100
AcDbEntity
  8
0-F
  6
Continuous
 62
     7
370
     9
100
AcDbLine
 10
469.369181040171
 20
100.767670502534
 30
0.0
 11
481.2664836161848
 21
99.20137642525356
 31
0.0
  0
LINE
  5
16A
330
1F
100
AcDbEntity
  8
0-F
  6
Continuous
 62
     7
370
     9
100
AcDbLine
 10
475.270917737806
 20
122.5036258182012
 30
0.0
 11
490.567548597181
 21
122.5036258182012
 31
0.0
  0
LINE
  5
16B
330
1F
100
AcDbEntity
  8
0-F
  6
Continuous
 62
     7
370
     9
100
AcDbLine
 10
475.270917737806
 20
122.5036258182012
 30
0.0
 11
461.3369874696473
 21
100.767670502534
 31
0.0
  0
LINE
  5
16C
330
1F
100
AcDbEntity
  8
通り芯
  6
Continuous
 62
     3
370
     9
100
AcDbLine
 10
-668.6309113373627
 20
-246.254655167863
 30
0.0
 11
-558.141904263883
 21
-251.058501372466
 31
0.0
  0
LINE
  5
16D
330
1F
100
AcDbEntity
  8
通り芯
  6
Continuous
 62
     3
370
     9
100
AcDbLine
 10
-549.1310367068728
 20
-251.2546716638512
 30
0.0
 11
-436.1310103132918
 21
-251.2546716638512
 31
0.0
  0
LINE
  5
16E
330
1F
100
AcDbEntity
  8
通り芯
  6
Continuous
 62
     3
370
     9
100
AcDbLine
 10
-427.1310301084776
 20
-251.2546716638512
 30
0.0
 11
-336.1309773213154
 21
-251.2546716638512
 31
0.0
  0
LINE
  5
16F
330
1F
100
AcDbEntity
  8
通り芯
  6
Continuous
 62
     3
370
     9
100
AcDbLine
 10
-94.63104660446572
 20
-246.254655167863
 30
0.0
 11
-205.12010316591
 21
-251.058501372466
 31
0.0
  0
LINE
  5
170
330
1F
100
AcDbEntity
  8
通り芯
  6
Continuous
 62
     3
370
     9
100
AcDbLine
 10
-214.1309707229201
 20
-251.2546716638512
 30
0.0
 11
-327.1309971165012
 21
-251.2546716638512
 31
0.0
  0
LINE
  5
171
330
1F
100
AcDbEntity
  8
躯体
  6
Continuous
 62
     2
370
     9
100
AcDbLine
 10
493.5690926216744
 20
274.2859348606421
 30
0.0
 11
466.5690530313027
 21
274.2859348606421
 31
0.0
  0
LINE
  5
172
330
1F
100
AcDbEntity
  8
躯体
  6
Continuous
 62
     2
370
     9
100
AcDbLine
 10
496.5690530313027
 20
277.2858952702704
 30
0.0
 11
496.5690530313027
 21
294.2859018686657
 31
0.0
  0
LINE
  5
173
330
1F
100
AcDbEntity
  8
躯体
  6
JWW_CENTER1
 62
     2
370
     9
100
AcDbLine
 10
493.5688946698165
 20
269.7858952702704
 30
0.0
 11
462.5690398345123
 21
269.7858952702704
 31
0.0
  0
LINE
  5
174
330
1F
100
AcDbEntity
  8
躯体
  6
JWW_CENTER1
 62
     2
370
     9
100
AcDbLine
 10
501.0688946698165
 20
277.2858952702704
 30
0.0
 11
501.0688946698165
 21
298.2859150654563
 31
0.0
  0
LINE
  5
175
330
1F
100
AcDbEntity
  8
躯体
  6
Continuous
 62
     2
370
     9
100
AcDbLine
 10
505.5690332361169
 20
277.2859942461995
 30
0.0
 11
505.5690332361169
 21
294.2859018686657
 31
0.0
  0
LINE
  5
176
330
1F
100
AcDbEntity
  8
0-F
  6
Continuous
 62
     7
370
     9
100
AcDbLine
 10
418.369062269056
 20
42.31990999788866
 30
0.0
 11
416.358267294394
 21
30.48956463788022
 31
0.0
  0
LINE
  5
177
330
1F
100
AcDbEntity
  8
0-F
  6
Continuous
 62
     7
370
     9
100
AcDbLine
 10
418.369062269056
 20
42.31990999788866
 30
0.0
 11
413.3648392960831
 21
31.41310903188366
 31
0.0
  0
LINE
  5
178
330
1F
100
AcDbEntity
  8
躯体
  6
Continuous
 62
     2
370
     9
100
AcDbLine
 10
466.5690530313027
 20
15.28582268792252
 30
0.0
 11
466.5690530313027
 21
6.28584248310824
 31
0.0
  0
LINE
  5
179
330
1F
100
AcDbEntity
  8
躯体
  6
Continuous
 62
     2
370
     9
100
AcDbLine
 10
496.5690530313027
 20
-13.71412452491541
 30
0.0
 11
505.5690332361169
 21
-13.71412452491541
 31
0.0
  0
LINE
  5
17A
330
1F
100
AcDbEntity
  8
躯体
  6
Continuous
 62
     2
370
     9
100
AcDbLine
 10
493.5690926216744
 20
6.28584248310824
 30
0.0
 11
466.5690530313027
 21
6.28584248310824
 31
0.0
  0
LINE
  5
17B
330
1F
100
AcDbEntity
  8
躯体
  6
Continuous
 62
     2
370
     9
100
AcDbLine
 10
496.5690530313027
 20
3.285882073479911
 30
0.0
 11
496.5690530313027
 21
-13.71412452491541
 31
0.0
  0
LINE
  5
17C
330
1F
100
AcDbEntity
  8
躯体
  6
JWW_CENTER1
 62
     2
370
     9
100
AcDbLine
 10
493.5688946698165
 20
10.78588207347991
 30
0.0
 11
462.5690398345123
 21
10.78588207347991
 31
0.0
  0
LINE
  5
17D
330
1F
100
AcDbEntity
  8
躯体
  6
JWW_CENTER1
 62
     2
370
     9
100
AcDbLine
 10
501.0688946698165
 20
3.285882073479911
 30
0.0
 11
501.0688946698165
 21
-17.71413772170592
 31
0.0
  0
LINE
  5
17E
330
1F
100
AcDbEntity
  8
躯体
  6
Continuous
 62
     2
370
     9
100
AcDbLine
 10
505.5690332361169
 20
3.285783097550848
 30
0.0
 11
505.5690332361169
 21
-13.71412452491541
 31
0.0
  0
LINE
  5
17F
330
1F
100
AcDbEntity
  8
躯体
  6
JWW_CENTER1
 62
     2
370
     9
100
AcDbLine
 10
-573.6310433052681
 20
269.7858952702704
 30
0.0
 11
-590.6309509277344
 21
269.7858952702704
 31
0.0
  0
LINE
  5
180
330
1F
100
AcDbEntity
  8
躯体
  6
JWW_CENTER1
 62
     2
370
     9
100
AcDbLine
 10
26.36895669473188
 20
269.7858952702704
 30
0.0
 11
9.369049072265739
 21
269.7858952702704
 31
0.0
  0
LINE
  5
181
330
1F
100
AcDbEntity
  8
躯体
  6
JWW_CENTER1
 62
     2
370
     9
100
AcDbLine
 10
-573.6310433052681
 20
10.78588207347991
 30
0.0
 11
-590.6309509277344
 21
10.78588207347991
 31
0.0
  0
LINE
  5
182
330
1F
100
AcDbEntity
  8
躯体
  6
JWW_CENTER1
 62
     2
370
     9
100
AcDbLine
 10
26.36895669473188
 20
10.78588207347991
 30
0.0
 11
9.369049072265739
 21
10.78588207347991
 31
0.0
  0
LINE
  5
183
330
1F
100
AcDbEntity
  8
通り芯
  6
Continuous
 62
     3
370
     9
100
AcDbLine
 10
-82.1310301084776
 20
20.28588867187523
 30
0.0
 11
-82.1310301084776
 21
260.2858886718752
 31
0.0
  0
LINE
  5
184
330
1F
100
AcDbEntity
  8
通り芯
  6
Continuous
 62
     3
370
     9
100
AcDbLine
 10
-83.13108289563968
 20
56.28590846706095
 30
0.0
 11
-83.13108289563968
 21
224.2858688766894
 31
0.0
  0
LINE
  5
185
330
1F
100
AcDbEntity
  8
通り芯
  6
Continuous
 62
     3
370
     9
100
AcDbLine
 10
-92.1309641245249
 20
68.28589856946803
 30
0.0
 11
-92.1309641245249
 21
212.2859282622468
 31
0.0
  0
LINE
  5
186
330
1F
100
AcDbEntity
  8
通り芯
  6
Continuous
 62
     3
370
     9
100
AcDbLine
 10
-95.63095092773438
 20
71.7859348606421
 30
0.0
 11
-95.63095092773438
 21
208.7859414590373
 31
0.0
  0
LINE
  5
187
330
1F
100
AcDbEntity
  8
通り芯
  6
JWW_PHANTOM2
 62
     3
370
     9
100
AcDbLine
 10
-81.13097732131541
 20
20.28588867187523
 30
0.0
 11
-81.13097732131541
 21
260.2858886718752
 31
0.0
  0
LINE
  5
188
330
1F
100
AcDbEntity
  8
0-E
  6
Continuous
 62
     7
370
     9
100
AcDbLine
 10
215.9059802905934
 20
349.4750778610644
 30
0.0
 11
408.7263323809652
 21
349.4750778610644
 31
0.0
  0
LINE
  5
189
330
1F
100
AcDbEntity
  8
0-E
  6
Continuous
 62
     7
370
     9
100
AcDbLine
 10
408.7263323809652
 20
349.4750778610644
 30
0.0
 11
447.9508889688027
 21
265.2859546558279
 31
0.0
  0
LINE
  5
18A
330
1F
100
AcDbEntity
  8
0-F
  6
Continuous
 62
     7
370
     9
100
AcDbLine
 10
382.456042315509
 20
-74.08132522170592
 30
0.0
 11
418.369062269056
 21
42.31990999788866
 31
0.0
  0
LINE
  5
18B
330
1F
100
AcDbEntity
  8
0-E
  6
Continuous
 62
     7
370
     9
100
AcDbLine
 10
234.2883836900866
 20
-74.08132522170592
 30
0.0
 11
382.456042315509
 21
-74.08132522170592
 31
0.0
  0
LINE
  5
18C
330
1F
100
AcDbEntity
  8
通り芯
  6
Continuous
 62
     3
370
     9
100
AcDbLine
 10
436.3692206305427
 20
59.00537109375023
 30
0.0
 11
436.3692206305427
 21
23.31187975084481
 31
0.0
  0
LINE
  5
18D
330
1F
100
AcDbEntity
  8
通り芯
  6
Continuous
 62
     3
370
     9
100
AcDbLine
 10
426.194693075644
 20
59.94772091427387
 30
0.0
 11
460.717695081556
 21
62.96841678103908
 31
0.0
  0
LINE
  5
18E
330
1F
100
AcDbEntity
  8
通り芯
  6
Continuous
 62
     3
370
     9
100
AcDbLine
 10
-607.8809707229201
 20
48.78590846706095
 30
0.0
 11
-607.8809707229201
 21
55.28590516786335
 31
0.0
  0
LINE
  5
18F
330
1F
100
AcDbEntity
  8
通り芯
  6
Continuous
 62
     3
370
     9
100
AcDbLine
 10
-619.8810103132918
 20
48.78590846706095
 30
0.0
 11
-619.8810103132918
 21
55.28590516786335
 31
0.0
  0
LINE
  5
190
330
1F
100
AcDbEntity
  8
通り芯
  6
Continuous
 62
     3
370
     9
100
AcDbLine
 10
-607.8809707229201
 20
31.28592496304918
 30
0.0
 11
-607.8809707229201
 21
37.78592166385158
 31
0.0
  0
LINE
  5
191
330
1F
100
AcDbEntity
  8
通り芯
  6
Continuous
 62
     3
370
     9
100
AcDbLine
 10
-619.8810103132918
 20
31.28592496304918
 30
0.0
 11
-619.8810103132918
 21
37.78592166385158
 31
0.0
  0
LINE
  5
192
330
1F
100
AcDbEntity
  8
通り芯
  6
Continuous
 62
     3
370
     9
100
AcDbLine
 10
-155.3810367068728
 20
48.78590846706095
 30
0.0
 11
-155.3810367068728
 21
55.28590516786335
 31
0.0
  0
LINE
  5
193
330
1F
100
AcDbEntity
  8
通り芯
  6
Continuous
 62
     3
370
     9
100
AcDbLine
 10
-143.3809971165012
 20
48.78590846706095
 30
0.0
 11
-143.3809971165012
 21
55.28590516786335
 31
0.0
  0
LINE
  5
194
330
1F
100
AcDbEntity
  8
通り芯
  6
Continuous
 62
     3
370
     9
100
AcDbLine
 10
-155.3810367068728
 20
31.28592496304918
 30
0.0
 11
-155.3810367068728
 21
37.78592166385158
 31
0.0
  0
LINE
  5
195
330
1F
100
AcDbEntity
  8
通り芯
  6
Continuous
 62
     3
370
     9
100
AcDbLine
 10
-143.3809971165012
 20
31.28592496304918
 30
0.0
 11
-143.3809971165012
 21
37.78592166385158
 31
0.0
  0
LINE
  5
196
330
1F
100
AcDbEntity
  8
通り芯
  6
Continuous
 62
     3
370
     9
100
AcDbLine
 10
-607.8809707229201
 20
231.7858688766894
 30
0.0
 11
-607.8809707229201
 21
225.285872175887
 31
0.0
  0
LINE
  5
197
330
1F
100
AcDbEntity
  8
通り芯
  6
Continuous
 62
     3
370
     9
100
AcDbLine
 10
-619.8810103132918
 20
231.7858688766894
 30
0.0
 11
-619.8810103132918
 21
225.285872175887
 31
0.0
  0
LINE
  5
198
330
1F
100
AcDbEntity
  8
通り芯
  6
Continuous
 62
     3
370
     9
100
AcDbLine
 10
-607.8809707229201
 20
249.2858523807012
 30
0.0
 11
-607.8809707229201
 21
242.7858556798989
 31
0.0
  0
LINE
  5
199
330
1F
100
AcDbEntity
  8
通り芯
  6
Continuous
 62
     3
370
     9
100
AcDbLine
 10
-619.8810103132918
 20
249.2858523807012
 30
0.0
 11
-619.8810103132918
 21
242.7858556798989
 31
0.0
  0
LINE
  5
19A
330
1F
100
AcDbEntity
  8
通り芯
  6
Continuous
 62
     3
370
     9
100
AcDbLine
 10
-155.3810367068728
 20
231.7858688766894
 30
0.0
 11
-155.3810367068728
 21
225.285872175887
 31
0.0
  0
LINE
  5
19B
330
1F
100
AcDbEntity
  8
通り芯
  6
Continuous
 62
     3
370
     9
100
AcDbLine
 10
-143.3809971165012
 20
231.7858688766894
 30
0.0
 11
-143.3809971165012
 21
225.285872175887
 31
0.0
  0
LINE
  5
19C
330
1F
100
AcDbEntity
  8
通り芯
  6
Continuous
 62
     3
370
     9
100
AcDbLine
 10
-155.3810367068728
 20
249.2858523807012
 30
0.0
 11
-155.3810367068728
 21
242.7858556798989
 31
0.0
  0
LINE
  5
19D
330
1F
100
AcDbEntity
  8
通り芯
  6
Continuous
 62
     3
370
     9
100
AcDbLine
 10
-143.3809971165012
 20
249.2858523807012
 30
0.0
 11
-143.3809971165012
 21
242.7858556798989
 31
0.0
  0
LINE
  5
19E
330
1F
100
AcDbEntity
  8
通り芯
  6
Continuous
 62
     3
370
     9
100
AcDbLine
 10
-609.8012027224978
 20
-218.2546122782937
 30
0.0
 11
-617.9608772896431
 21
-218.2546122782937
 31
0.0
  0
LINE
  5
19F
330
1F
100
AcDbEntity
  8
通り芯
  6
Continuous
 62
     3
370
     9
100
AcDbLine
 10
-618.9574659192884
 20
-217.3376992715371
 30
0.0
 11
-619.2143084551836
 21
-214.2546485694677
 31
0.0
  0
LINE
  5
1A0
330
1F
100
AcDbEntity
  8
通り芯
  6
Continuous
 62
     3
370
     9
100
AcDbLine
 10
-608.8046140928526
 20
-217.3376992715371
 30
0.0
 11
-608.5476725810282
 21
-214.2546485694677
 31
0.0
  0
LINE
  5
1A1
330
1F
100
AcDbEntity
  8
通り芯
  6
Continuous
 62
     3
370
     9
100
AcDbLine
 10
-153.4608047072951
 20
-218.2546122782937
 30
0.0
 11
-145.3011301401499
 21
-218.2546122782937
 31
0.0
  0
LINE
  5
1A2
330
1F
100
AcDbEntity
  8
通り芯
  6
Continuous
 62
     3
370
     9
100
AcDbLine
 10
-144.3045415105046
 20
-217.3376992715371
 30
0.0
 11
-144.0476989746094
 21
-214.2546485694677
 31
0.0
  0
LINE
  5
1A3
330
1F
100
AcDbEntity
  8
通り芯
  6
Continuous
 62
     3
370
     9
100
AcDbLine
 10
-154.4573933369404
 20
-217.3376992715371
 30
0.0
 11
-154.7143348487647
 21
-214.2546485694677
 31
0.0
  0
LINE
  5
1A4
330
1F
100
AcDbEntity
  8
通り芯
  6
Continuous
 62
     3
370
     9
100
AcDbLine
 10
436.3692206305427
 20
221.5664062500002
 30
0.0
 11
436.3692206305427
 21
257.2598975929056
 31
0.0
  0
LINE
  5
1A5
330
1F
100
AcDbEntity
  8
0-F
  6
Continuous
 62
     7
370
     9
100
AcDbLine
 10
418.369062269056
 20
-84.7140618401603
 30
0.0
 11
505.5690332361169
 21
-84.7140618401603
 31
0.0
  0
LINE
  5
1A6
330
1F
100
AcDbEntity
  8
躯体
  6
Continuous
 62
     2
370
     9
100
AcDbLine
 10
418.369062269056
 20
265.2859546558279
 30
0.0
 11
493.5689936457456
 21
265.2859546558279
 31
0.0
  0
LINE
  5
1A7
330
1F
100
AcDbEntity
  8
躯体
  6
Continuous
 62
     2
370
     9
100
AcDbLine
 10
418.369062269056
 20
15.28592166385158
 30
0.0
 11
493.5689936457456
 21
15.28592166385158
 31
0.0
  0
LINE
  5
1A8
330
1F
100
AcDbEntity
  8
0-F
  6
Continuous
 62
     7
370
     9
100
AcDbLine
 10
565.5690332361169
 20
-13.71412452491541
 30
0.0
 11
565.5690332361169
 21
15.28592166385158
 31
0.0
  0
LINE
  5
1A9
330
1F
100
AcDbEntity
  8
0-F
  6
Continuous
 62
     7
370
     9
100
AcDbLine
 10
513.5690596296981
 20
-13.71412452491541
 30
0.0
 11
566.7690173999686
 21
-13.71412452491541
 31
0.0
  0
LINE
  5
1AA
330
1F
100
AcDbEntity
  8
0-F
  6
Continuous
 62
     7
370
     9
100
AcDbLine
 10
501.5690200393265
 20
15.28592166385158
 30
0.0
 11
566.7690173999686
 21
15.28592166385158
 31
0.0
  0
LINE
  5
1AB
330
1F
100
AcDbEntity
  8
0-F
  6
Continuous
 62
     7
370
     9
100
AcDbLine
 10
565.5690332361169
 20
-13.71412452491541
 30
0.0
 11
564.0027391588364
 21
-1.816772460937273
 31
0.0
  0
LINE
  5
1AC
330
1F
100
AcDbEntity
  8
0-F
  6
Continuous
 62
     7
370
     9
100
AcDbLine
 10
565.5690332361169
 20
-13.71412452491541
 30
0.0
 11
567.1353273133973
 21
-1.816772460937273
 31
0.0
  0
LINE
  5
1AD
330
1F
100
AcDbEntity
  8
0-F
  6
Continuous
 62
     7
370
     9
100
AcDbLine
 10
565.5690332361169
 20
15.28592166385158
 30
0.0
 11
564.0027391588364
 21
3.388569599873449
 31
0.0
  0
LINE
  5
1AE
330
1F
100
AcDbEntity
  8
0-F
  6
Continuous
 62
     7
370
     9
100
AcDbLine
 10
565.5690332361169
 20
15.28592166385158
 30
0.0
 11
567.1353273133973
 21
3.388569599873449
 31
0.0
  0
LINE
  5
1AF
330
1F
100
AcDbEntity
  8
0-F
  6
Continuous
 62
     7
370
     9
100
AcDbLine
 10
565.5690332361169
 20
15.28592166385158
 30
0.0
 11
565.5690332361169
 21
65.28588867187523
 31
0.0
  0
LINE
  5
1B0
330
1F
100
AcDbEntity
  8
0-F
  6
Continuous
 62
     7
370
     9
100
AcDbLine
 10
489.569079424884
 20
65.28588867187523
 30
0.0
 11
566.7690173999686
 21
65.28588867187523
 31
0.0
  0
LINE
  5
1B1
330
1F
100
AcDbEntity
  8
0-F
  6
Continuous
 62
     7
370
     9
100
AcDbLine
 10
565.5690332361169
 20
15.28592166385158
 30
0.0
 11
564.0027391588364
 21
27.1832737278296
 31
0.0
  0
LINE
  5
1B2
330
1F
100
AcDbEntity
  8
0-F
  6
Continuous
 62
     7
370
     9
100
AcDbLine
 10
565.5690332361169
 20
15.28592166385158
 30
0.0
 11
567.1353273133973
 21
27.1832737278296
 31
0.0
  0
LINE
  5
1B3
330
1F
100
AcDbEntity
  8
0-F
  6
Continuous
 62
     7
370
     9
100
AcDbLine
 10
565.5690332361169
 20
65.28588867187523
 30
0.0
 11
564.0027391588364
 21
53.38853660789709
 31
0.0
  0
LINE
  5
1B4
330
1F
100
AcDbEntity
  8
0-F
  6
Continuous
 62
     7
370
     9
100
AcDbLine
 10
565.5690332361169
 20
65.28588867187523
 30
0.0
 11
567.1353273133973
 21
53.38853660789709
 31
0.0
  0
LINE
  5
1B5
330
1F
100
AcDbEntity
  8
0-F
  6
Continuous
 62
     7
370
     9
100
AcDbLine
 10
565.5690332361169
 20
65.28588867187523
 30
0.0
 11
565.5690332361169
 21
215.2858886718752
 31
0.0
  0
LINE
  5
1B6
330
1F
100
AcDbEntity
  8
0-F
  6
Continuous
 62
     7
370
     9
100
AcDbLine
 10
489.569079424884
 20
215.2858886718752
 30
0.0
 11
566.7690173999686
 21
215.2858886718752
 31
0.0
  0
LINE
  5
1B7
330
1F
100
AcDbEntity
  8
0-F
  6
Continuous
 62
     7
370
     9
100
AcDbLine
 10
565.5690332361169
 20
65.28588867187523
 30
0.0
 11
564.0027391588364
 21
77.18324073585325
 31
0.0
  0
LINE
  5
1B8
330
1F
100
AcDbEntity
  8
0-F
  6
Continuous
 62
     7
370
     9
100
AcDbLine
 10
565.5690332361169
 20
65.28588867187523
 30
0.0
 11
567.1353273133973
 21
77.18324073585325
 31
0.0
  0
LINE
  5
1B9
330
1F
100
AcDbEntity
  8
0-F
  6
Continuous
 62
     7
370
     9
100
AcDbLine
 10
565.5690332361169
 20
215.2858886718752
 30
0.0
 11
564.0027391588364
 21
203.3885366078971
 31
0.0
  0
LINE
  5
1BA
330
1F
100
AcDbEntity
  8
0-F
  6
Continuous
 62
     7
370
     9
100
AcDbLine
 10
565.5690332361169
 20
215.2858886718752
 30
0.0
 11
567.1353273133973
 21
203.3885366078971
 31
0.0
  0
LINE
  5
1BB
330
1F
100
AcDbEntity
  8
0-F
  6
Continuous
 62
     7
370
     9
100
AcDbLine
 10
565.5690332361169
 20
215.2858886718752
 30
0.0
 11
565.5690332361169
 21
265.2859546558279
 31
0.0
  0
LINE
  5
1BC
330
1F
100
AcDbEntity
  8
0-F
  6
Continuous
 62
     7
370
     9
100
AcDbLine
 10
501.5690200393265
 20
265.2859546558279
 30
0.0
 11
566.7690173999686
 21
265.2859546558279
 31
0.0
  0
LINE
  5
1BD
330
1F
100
AcDbEntity
  8
0-F
  6
Continuous
 62
     7
370
     9
100
AcDbLine
 10
565.5690332361169
 20
215.2858886718752
 30
0.0
 11
564.0027391588364
 21
227.1832407358532
 31
0.0
  0
LINE
  5
1BE
330
1F
100
AcDbEntity
  8
0-F
  6
Continuous
 62
     7
370
     9
100
AcDbLine
 10
565.5690332361169
 20
215.2858886718752
 30
0.0
 11
567.1353273133973
 21
227.1832407358532
 31
0.0
  0
LINE
  5
1BF
330
1F
100
AcDbEntity
  8
0-F
  6
Continuous
 62
     7
370
     9
100
AcDbLine
 10
565.5690332361169
 20
265.2859546558279
 30
0.0
 11
564.0027391588364
 21
253.3886025918498
 31
0.0
  0
LINE
  5
1C0
330
1F
100
AcDbEntity
  8
0-F
  6
Continuous
 62
     7
370
     9
100
AcDbLine
 10
565.5690332361169
 20
265.2859546558279
 30
0.0
 11
567.1353273133973
 21
253.3886025918498
 31
0.0
  0
LINE
  5
1C1
330
1F
100
AcDbEntity
  8
0-F
  6
Continuous
 62
     7
370
     9
100
AcDbLine
 10
565.5690332361169
 20
265.2859546558279
 30
0.0
 11
565.5690332361169
 21
294.2859018686657
 31
0.0
  0
LINE
  5
1C2
330
1F
100
AcDbEntity
  8
0-F
  6
Continuous
 62
     7
370
     9
100
AcDbLine
 10
513.5690596296981
 20
294.2859018686657
 30
0.0
 11
566.7690173999686
 21
294.2859018686657
 31
0.0
  0
LINE
  5
1C3
330
1F
100
AcDbEntity
  8
0-F
  6
Continuous
 62
     7
370
     9
100
AcDbLine
 10
565.5690332361169
 20
265.2859546558279
 30
0.0
 11
564.0027391588364
 21
277.1832572318414
 31
0.0
  0
LINE
  5
1C4
330
1F
100
AcDbEntity
  8
0-F
  6
Continuous
 62
     7
370
     9
100
AcDbLine
 10
565.5690332361169
 20
265.2859546558279
 30
0.0
 11
567.1353273133973
 21
277.1832572318414
 31
0.0
  0
LINE
  5
1C5
330
1F
100
AcDbEntity
  8
0-F
  6
Continuous
 62
     7
370
     9
100
AcDbLine
 10
565.5690332361169
 20
294.2859018686657
 30
0.0
 11
564.0027391588364
 21
282.3885992926522
 31
0.0
  0
LINE
  5
1C6
330
1F
100
AcDbEntity
  8
0-F
  6
Continuous
 62
     7
370
     9
100
AcDbLine
 10
565.5690332361169
 20
294.2859018686657
 30
0.0
 11
567.1353273133973
 21
282.3885992926522
 31
0.0
  0
CIRCLE
  5
1C7
330
1F
100
AcDbEntity
  8
躯体
  6
Continuous
 62
     2
370
     9
100
AcDbCircle
 10
-582.1309971165012
 20
269.7858952702704
 30
0.0
 40
4.500000154649889
  0
CIRCLE
  5
1C8
330
1F
100
AcDbEntity
  8
躯体
  6
Continuous
 62
     2
370
     9
100
AcDbCircle
 10
17.86900288349875
 20
269.7858952702704
 30
0.0
 40
4.500000154649889
  0
ARC
  5
1C9
330
1F
100
AcDbEntity
  8
通り芯
  6
Continuous
 62
     3
370
     9
100
AcDbCircle
 10
-98.63101031329177
 20
208.7859414590373
 30
0.0
 40
3.000000038662472
100
AcDbArc
 50
0.0
 51
90.0
  0
ARC
  5
1CA
330
1F
100
AcDbEntity
  8
通り芯
  6
Continuous
 62
     3
370
     9
100
AcDbCircle
 10
-95.13112248601135
 20
212.2859282622468
 30
0.0
 40
3.000000038662472
100
AcDbArc
 50
0.0
 51
90.0
  0
ARC
  5
1CB
330
1F
100
AcDbEntity
  8
通り芯
  6
Continuous
 62
     3
370
     9
100
AcDbCircle
 10
-668.1309839197107
 20
212.2859282622468
 30
0.0
 40
3.000000038662472
100
AcDbArc
 50
89.99998474121094
 51
180.0
  0
ARC
  5
1CC
330
1F
100
AcDbEntity
  8
通り芯
  6
Continuous
 62
     3
370
     9
100
AcDbCircle
 10
-664.6309971165012
 20
208.7859414590373
 30
0.0
 40
3.000000038662472
100
AcDbArc
 50
89.99998474121094
 51
180.0
  0
ARC
  5
1CD
330
1F
100
AcDbEntity
  8
通り芯
  6
Continuous
 62
     3
370
     9
100
AcDbCircle
 10
-664.6309971165012
 20
71.7859348606421
 30
0.0
 40
3.000000038662472
100
AcDbArc
 50
180.0
 51
270.0
  0
ARC
  5
1CE
330
1F
100
AcDbEntity
  8
通り芯
  6
Continuous
 62
     3
370
     9
100
AcDbCircle
 10
-668.1309839197107
 20
68.28589856946803
 30
0.0
 40
3.000000038662472
100
AcDbArc
 50
180.0
 51
270.0
  0
ARC
  5
1CF
330
1F
100
AcDbEntity
  8
通り芯
  6
Continuous
 62
     3
370
     9
100
AcDbCircle
 10
-95.13112248601135
 20
68.28589856946803
 30
0.0
 40
3.000000038662472
100
AcDbArc
 50
270.0
 51
0.0
  0
ARC
  5
1D0
330
1F
100
AcDbEntity
  8
通り芯
  6
Continuous
 62
     3
370
     9
100
AcDbCircle
 10
-98.63101031329177
 20
71.7859348606421
 30
0.0
 40
3.000000038662472
100
AcDbArc
 50
270.0
 51
0.0
  0
ARC
  5
1D1
330
1F
100
AcDbEntity
  8
躯体
  6
Continuous
 62
     2
370
     9
100
AcDbCircle
 10
475.1689725308806
 20
258.8858741554056
 30
0.0
 40
3.200000041239971
100
AcDbArc
 50
0.0
 51
90.0
  0
ARC
  5
1D2
330
1F
100
AcDbEntity
  8
躯体
  6
Continuous
 62
     2
370
     9
100
AcDbCircle
 10
475.1689725308806
 20
258.8858741554056
 30
0.0
 40
6.400000082479941
100
AcDbArc
 50
0.0
 51
90.0
  0
ARC
  5
1D3
330
1F
100
AcDbEntity
  8
躯体
  6
Continuous
 62
     2
370
     9
100
AcDbCircle
 10
475.1689725308806
 20
21.68585370038022
 30
0.0
 40
6.400000082479941
100
AcDbArc
 50
270.0
 51
0.0
  0
ARC
  5
1D4
330
1F
100
AcDbEntity
  8
躯体
  6
Continuous
 62
     2
370
     9
100
AcDbCircle
 10
475.1689725308806
 20
21.68585370038022
 30
0.0
 40
3.200000041239971
100
AcDbArc
 50
270.0
 51
0.0
  0
ARC
  5
1D5
330
1F
100
AcDbEntity
  8
躯体
  6
Continuous
 62
     2
370
     9
100
AcDbCircle
 10
17.86900288349875
 20
10.78593156144439
 30
0.0
 40
4.500000154649889
100
AcDbArc
 50
1.403289794921875
 51
0.0
  0
ARC
  5
1D6
330
1F
100
AcDbEntity
  8
躯体
  6
Continuous
 62
     2
370
     9
100
AcDbCircle
 10
-582.1309971165012
 20
10.78593156144439
 30
0.0
 40
4.500000154649889
100
AcDbArc
 50
1.403289794921875
 51
0.0
  0
ARC
  5
1D7
330
1F
100
AcDbEntity
  8
通り芯
  6
Continuous
 62
     3
370
     9
100
AcDbCircle
 10
-680.1309245341532
 20
-201.254655167863
 30
0.0
 40
1.000000012887491
100
AcDbArc
 50
90.0
 51
180.0
  0
ARC
  5
1D8
330
1F
100
AcDbEntity
  8
通り芯
  6
Continuous
 62
     3
370
     9
100
AcDbCircle
 10
-676.6936884699641
 20
-259.2546485694677
 30
0.0
 40
1.000000012887491
100
AcDbArc
 50
183.70849609375
 51
270.0
  0
ARC
  5
1D9
330
1F
100
AcDbEntity
  8
通り芯
  6
Continuous
 62
     3
370
     9
100
AcDbCircle
 10
-670.5621296650654
 20
-259.2546485694677
 30
0.0
 40
1.000000012887491
100
AcDbArc
 50
270.0
 51
355.9134674072266
  0
ARC
  5
1DA
330
1F
100
AcDbEntity
  8
通り芯
  6
Continuous
 62
     3
370
     9
100
AcDbCircle
 10
-663.5518625620249
 20
-217.2546584670606
 30
0.0
 40
3.000000038662472
100
AcDbArc
 50
90.0
 51
175.9139556884765
  0
ARC
  5
1DB
330
1F
100
AcDbEntity
  8
通り芯
  6
Continuous
 62
     3
370
     9
100
AcDbCircle
 10
-434.684971989812
 20
-259.2546485694677
 30
0.0
 40
1.000000012887491
100
AcDbArc
 50
183.1801452636719
 51
270.0
  0
ARC
  5
1DC
330
1F
100
AcDbEntity
  8
通り芯
  6
Continuous
 62
     3
370
     9
100
AcDbCircle
 10
-441.0244792216533
 20
-217.2546584670606
 30
0.0
 40
3.000000038662472
100
AcDbArc
 50
3.180191040039062
 51
90.0
  0
ARC
  5
1DD
330
1F
100
AcDbEntity
  8
通り芯
  6
Continuous
 62
     3
370
     9
100
AcDbCircle
 10
-439.2466735839843
 20
-249.2546650654559
 30
0.0
 40
3.000000038662472
100
AcDbArc
 50
3.180191040039062
 51
90.0
  0
ARC
  5
1DE
330
1F
100
AcDbEntity
  8
通り芯
  6
Continuous
 62
     3
370
     9
100
AcDbCircle
 10
-428.5770684319573
 20
-259.2546485694677
 30
0.0
 40
1.000000012887491
100
AcDbArc
 50
270.0
 51
356.8198547363282
  0
ARC
  5
1DF
330
1F
100
AcDbEntity
  8
通り芯
  6
Continuous
 62
     3
370
     9
100
AcDbCircle
 10
-422.237462224187
 20
-217.2546584670606
 30
0.0
 40
3.000000038662472
100
AcDbArc
 50
90.0
 51
176.8198089599609
  0
ARC
  5
1E0
330
1F
100
AcDbEntity
  8
通り芯
  6
Continuous
 62
     3
370
     9
100
AcDbCircle
 10
-424.015267861856
 20
-249.2546650654559
 30
0.0
 40
3.000000038662472
100
AcDbArc
 50
90.0
 51
176.8198089599609
  0
ARC
  5
1E1
330
1F
100
AcDbEntity
  8
通り芯
  6
Continuous
 62
     3
370
     9
100
AcDbCircle
 10
-556.6849785882074
 20
-259.2546485694677
 30
0.0
 40
1.000000012887491
100
AcDbArc
 50
183.1801452636719
 51
270.0
  0
ARC
  5
1E2
330
1F
100
AcDbEntity
  8
通り芯
  6
Continuous
 62
     3
370
     9
100
AcDbCircle
 10
-563.0244858200485
 20
-217.2546584670606
 30
0.0
 40
3.000000038662472
100
AcDbArc
 50
3.180191040039062
 51
90.0
  0
ARC
  5
1E3
330
1F
100
AcDbEntity
  8
通り芯
  6
Continuous
 62
     3
370
     9
100
AcDbCircle
 10
-561.2466801823797
 20
-249.2546650654559
 30
0.0
 40
3.000000038662472
100
AcDbArc
 50
3.180191040039062
 51
90.0
  0
ARC
  5
1E4
330
1F
100
AcDbEntity
  8
通り芯
  6
Continuous
 62
     3
370
     9
100
AcDbCircle
 10
-550.5769760544235
 20
-259.2546485694677
 30
0.0
 40
1.000000012887491
100
AcDbArc
 50
270.0
 51
356.8198547363282
  0
ARC
  5
1E5
330
1F
100
AcDbEntity
  8
通り芯
  6
Continuous
 62
     3
370
     9
100
AcDbCircle
 10
-544.2375677985113
 20
-217.2546584670606
 30
0.0
 40
3.000000038662472
100
AcDbArc
 50
90.0
 51
176.8198089599609
  0
ARC
  5
1E6
330
1F
100
AcDbEntity
  8
通り芯
  6
Continuous
 62
     3
370
     9
100
AcDbCircle
 10
-546.0153734361803
 20
-249.2546650654559
 30
0.0
 40
3.000000038662472
100
AcDbArc
 50
90.0
 51
176.8198089599609
  0
ARC
  5
1E7
330
1F
100
AcDbEntity
  8
通り芯
  6
Continuous
 62
     3
370
     9
100
AcDbCircle
 10
-83.1310334076752
 20
-201.254655167863
 30
0.0
 40
1.000000012887491
100
AcDbArc
 50
0.0
 51
90.0
  0
ARC
  5
1E8
330
1F
100
AcDbEntity
  8
通り芯
  6
Continuous
 62
     3
370
     9
100
AcDbCircle
 10
-86.56831895982896
 20
-259.2546485694677
 30
0.0
 40
1.000000012887491
100
AcDbArc
 50
270.0
 51
356.29150390625
  0
ARC
  5
1E9
330
1F
100
AcDbEntity
  8
通り芯
  6
Continuous
 62
     3
370
     9
100
AcDbCircle
 10
-92.69992725269208
 20
-259.2546485694677
 30
0.0
 40
1.000000012887491
100
AcDbArc
 50
184.0865325927734
 51
270.0
  0
ARC
  5
1EA
330
1F
100
AcDbEntity
  8
通り芯
  6
Continuous
 62
     3
370
     9
100
AcDbCircle
 10
-99.71014486776812
 20
-217.2546584670606
 30
0.0
 40
3.000000038662472
100
AcDbArc
 50
4.086044311523438
 51
90.0
  0
ARC
  5
1EB
330
1F
100
AcDbEntity
  8
通り芯
  6
Continuous
 62
     3
370
     9
100
AcDbCircle
 10
-328.5770354399809
 20
-259.2546485694677
 30
0.0
 40
1.000000012887491
100
AcDbArc
 50
270.0
 51
356.8198547363282
  0
ARC
  5
1EC
330
1F
100
AcDbEntity
  8
通り芯
  6
Continuous
 62
     3
370
     9
100
AcDbCircle
 10
-322.2375282081398
 20
-217.2546584670606
 30
0.0
 40
3.000000038662472
100
AcDbArc
 50
90.0
 51
176.8198089599609
  0
ARC
  5
1ED
330
1F
100
AcDbEntity
  8
通り芯
  6
Continuous
 62
     3
370
     9
100
AcDbCircle
 10
-324.0153338458086
 20
-249.2546650654559
 30
0.0
 40
3.000000038662472
100
AcDbArc
 50
90.0
 51
176.8198089599609
  0
ARC
  5
1EE
330
1F
100
AcDbEntity
  8
通り芯
  6
Continuous
 62
     3
370
     9
100
AcDbCircle
 10
-334.6849389978357
 20
-259.2546485694677
 30
0.0
 40
1.000000012887491
100
AcDbArc
 50
183.1801452636719
 51
270.0
  0
ARC
  5
1EF
330
1F
100
AcDbEntity
  8
通り芯
  6
Continuous
 62
     3
370
     9
100
AcDbCircle
 10
-341.0245452056059
 20
-217.2546584670606
 30
0.0
 40
3.000000038662472
100
AcDbArc
 50
3.180191040039062
 51
90.0
  0
ARC
  5
1F0
330
1F
100
AcDbEntity
  8
通り芯
  6
Continuous
 62
     3
370
     9
100
AcDbCircle
 10
-339.2467395679371
 20
-249.2546650654559
 30
0.0
 40
3.000000038662472
100
AcDbArc
 50
3.180191040039062
 51
90.0
  0
ARC
  5
1F1
330
1F
100
AcDbEntity
  8
通り芯
  6
Continuous
 62
     3
370
     9
100
AcDbCircle
 10
-206.5770288415857
 20
-259.2546485694677
 30
0.0
 40
1.000000012887491
100
AcDbArc
 50
270.0
 51
356.8198547363282
  0
ARC
  5
1F2
330
1F
100
AcDbEntity
  8
通り芯
  6
Continuous
 62
     3
370
     9
100
AcDbCircle
 10
-200.2375216097445
 20
-217.2546584670606
 30
0.0
 40
3.000000038662472
100
AcDbArc
 50
90.0
 51
176.8198089599609
  0
ARC
  5
1F3
330
1F
100
AcDbEntity
  8
通り芯
  6
Continuous
 62
     3
370
     9
100
AcDbCircle
 10
-202.0153272474134
 20
-249.2546650654559
 30
0.0
 40
3.000000038662472
100
AcDbArc
 50
90.0
 51
176.8198089599609
  0
ARC
  5
1F4
330
1F
100
AcDbEntity
  8
通り芯
  6
Continuous
 62
     3
370
     9
100
AcDbCircle
 10
-212.6850313753695
 20
-259.2546485694677
 30
0.0
 40
1.000000012887491
100
AcDbArc
 50
183.1801452636719
 51
270.0
  0
ARC
  5
1F5
330
1F
100
AcDbEntity
  8
通り芯
  6
Continuous
 62
     3
370
     9
100
AcDbCircle
 10
-219.0244396312817
 20
-217.2546584670606
 30
0.0
 40
3.000000038662472
100
AcDbArc
 50
3.180191040039062
 51
90.0
  0
ARC
  5
1F6
330
1F
100
AcDbEntity
  8
通り芯
  6
Continuous
 62
     3
370
     9
100
AcDbCircle
 10
-217.2466339936127
 20
-249.2546650654559
 30
0.0
 40
3.000000038662472
100
AcDbArc
 50
3.180191040039062
 51
90.0
  0
ARC
  5
1F7
330
1F
100
AcDbEntity
  8
通り芯
  6
Continuous
 62
     3
370
     9
100
AcDbCircle
 10
431.3691546465902
 20
235.1686186919343
 30
0.0
 40
1.000000012887491
100
AcDbArc
 50
277.1250152587891
 51
0.0000000000000254
  0
ARC
  5
1F8
330
1F
100
AcDbEntity
  8
通り芯
  6
Continuous
 62
     3
370
     9
100
AcDbCircle
 10
419.3691150562186
 20
258.4386019320103
 30
0.0
 40
1.000000012887491
100
AcDbArc
 50
99.46231079101562
 51
180.0
  0
ARC
  5
1F9
330
1F
100
AcDbEntity
  8
通り芯
  6
Continuous
 62
     3
370
     9
100
AcDbCircle
 10
419.3691150562186
 20
251.1329411687079
 30
0.0
 40
1.000000012887491
100
AcDbArc
 50
180.0
 51
260.5376739501953
  0
ARC
  5
1FA
330
1F
100
AcDbEntity
  8
通り芯
  6
Continuous
 62
     3
370
     9
100
AcDbCircle
 10
431.3691546465902
 20
256.9030398807012
 30
0.0
 40
1.000000012887491
100
AcDbArc
 50
0.0
 51
82.87496948242186
  0
ARC
  5
1FB
330
1F
100
AcDbEntity
  8
通り芯
  6
Continuous
 62
     3
370
     9
100
AcDbCircle
 10
431.3691546465902
 20
252.6686516839106
 30
0.0
 40
1.000000012887491
100
AcDbArc
 50
277.1250152587891
 51
0.0000000000000254
  0
ARC
  5
1FC
330
1F
100
AcDbEntity
  8
通り芯
  6
Continuous
 62
     3
370
     9
100
AcDbCircle
 10
431.3691546465902
 20
239.4030068887248
 30
0.0
 40
1.000000012887491
100
AcDbArc
 50
0.0
 51
82.87496948242186
  0
ARC
  5
1FD
330
1F
100
AcDbEntity
  8
通り芯
  6
Continuous
 62
     3
370
     9
100
AcDbCircle
 10
419.3691150562186
 20
233.6330071526606
 30
0.0
 40
1.000000012887491
100
AcDbArc
 50
180.0
 51
260.5376739501953
  0
ARC
  5
1FE
330
1F
100
AcDbEntity
  8
通り芯
  6
Continuous
 62
     3
370
     9
100
AcDbCircle
 10
419.3691150562186
 20
240.9387174039275
 30
0.0
 40
1.000000012887491
100
AcDbArc
 50
99.46231079101562
 51
180.0
  0
ARC
  5
1FF
330
1F
100
AcDbEntity
  8
通り芯
  6
Continuous
 62
     3
370
     9
100
AcDbCircle
 10
419.3691150562186
 20
216.2022573110221
 30
0.0
 40
1.000000012887491
100
AcDbArc
 50
180.0
 51
264.9993438720703
  0
ARC
  5
200
330
1F
100
AcDbEntity
  8
通り芯
  6
Continuous
 62
     3
370
     9
100
AcDbCircle
 10
419.3691150562186
 20
223.4386844119512
 30
0.0
 40
1.000000012887491
100
AcDbArc
 50
99.46231079101562
 51
180.0
  0
ARC
  5
201
330
1F
100
AcDbEntity
  8
通り芯
  6
Continuous
 62
     3
370
     9
100
AcDbCircle
 10
426.3691876385665
 20
222.6164913692992
 30
0.0
 40
2.000000025774982
100
AcDbArc
 50
180.0
 51
264.9993438720703
  0
ARC
  5
202
330
1F
100
AcDbEntity
  8
通り芯
  6
Continuous
 62
     3
370
     9
100
AcDbCircle
 10
455.3690358754752
 20
209.0368949271539
 30
0.0
 40
3.000000038662472
100
AcDbArc
 50
2.171249389648438
 51
84.99934387207031
  0
ARC
  5
203
330
1F
100
AcDbEntity
  8
通り芯
  6
Continuous
 62
     3
370
     9
100
AcDbCircle
 10
460.3692008353569
 20
213.6184906830661
 30
0.0
 40
4.000000051549963
100
AcDbArc
 50
0.0
 51
84.99934387207031
  0
ARC
  5
204
330
1F
100
AcDbEntity
  8
通り芯
  6
Continuous
 62
     3
370
     9
100
AcDbCircle
 10
472.3691414497994
 20
210.0723810969174
 30
0.0
 40
3.000000038662472
100
AcDbArc
 50
104.9999847412109
 51
180.0
  0
ARC
  5
205
330
1F
100
AcDbEntity
  8
通り芯
  6
Continuous
 62
     3
370
     9
100
AcDbCircle
 10
467.3691744417761
 20
147.0179839263093
 30
0.0
 40
3.000000038662472
100
AcDbArc
 50
180.0
 51
253.3007507324219
  0
ARC
  5
206
330
1F
100
AcDbEntity
  8
通り芯
  6
Continuous
 62
     3
370
     9
100
AcDbCircle
 10
467.3691744417761
 20
133.5537439294766
 30
0.0
 40
3.000000038662472
100
AcDbArc
 50
106.6992340087891
 51
180.0
  0
ARC
  5
207
330
1F
100
AcDbEntity
  8
通り芯
  6
Continuous
 62
     3
370
     9
100
AcDbCircle
 10
472.3691414497994
 20
70.49934675886846
 30
0.0
 40
3.000000038662472
100
AcDbArc
 50
180.0
 51
255.0
  0
ARC
  5
208
330
1F
100
AcDbEntity
  8
通り芯
  6
Continuous
 62
     3
370
     9
100
AcDbCircle
 10
460.3692008353569
 20
66.95323717271981
 30
0.0
 40
4.000000051549963
100
AcDbArc
 50
275.0006408691406
 51
0.0000000000000127
  0
ARC
  5
209
330
1F
100
AcDbEntity
  8
通り芯
  6
Continuous
 62
     3
370
     9
100
AcDbCircle
 10
455.3690358754752
 20
71.53488241659647
 30
0.0
 40
3.000000038662472
100
AcDbArc
 50
275.0006408691406
 51
0.0000000000000127
  0
ARC
  5
20A
330
1F
100
AcDbEntity
  8
通り芯
  6
Continuous
 62
     3
370
     9
100
AcDbCircle
 10
426.3691876385665
 20
57.95533546241575
 30
0.0
 40
2.000000025774982
100
AcDbArc
 50
95.00064086914061
 51
180.0
  0
ARC
  5
20B
330
1F
100
AcDbEntity
  8
通り芯
  6
Continuous
 62
     3
370
     9
100
AcDbCircle
 10
419.3691150562186
 20
57.13299395587012
 30
0.0
 40
1.000000012887491
100
AcDbArc
 50
180.0
 51
260.5376739501953
  0
ARC
  5
20C
330
1F
100
AcDbEntity
  8
通り芯
  6
Continuous
 62
     3
370
     9
100
AcDbCircle
 10
419.3691150562186
 20
64.36956952069272
 30
0.0
 40
1.000000012887491
100
AcDbArc
 50
95.00064086914061
 51
180.0
  0
ARC
  5
20D
330
1F
100
AcDbEntity
  8
通り芯
  6
Continuous
 62
     3
370
     9
100
AcDbCircle
 10
419.3691150562186
 20
39.63301045185824
 30
0.0
 40
1.000000012887491
100
AcDbArc
 50
180.0
 51
260.5376739501953
  0
ARC
  5
20E
330
1F
100
AcDbEntity
  8
通り芯
  6
Continuous
 62
     3
370
     9
100
AcDbCircle
 10
419.3691150562186
 20
46.93872070312523
 30
0.0
 40
1.000000012887491
100
AcDbArc
 50
99.46231079101562
 51
180.0
  0
ARC
  5
20F
330
1F
100
AcDbEntity
  8
通り芯
  6
Continuous
 62
     3
370
     9
100
AcDbCircle
 10
431.3691546465902
 20
41.16867147909647
 30
0.0
 40
1.000000012887491
100
AcDbArc
 50
277.1250152587891
 51
0.0000000000000254
  0
ARC
  5
210
330
1F
100
AcDbEntity
  8
通り芯
  6
Continuous
 62
     3
370
     9
100
AcDbCircle
 10
431.3691546465902
 20
27.90307617187523
 30
0.0
 40
1.000000012887491
100
AcDbArc
 50
1.403289794921875
 51
82.87496948242188
  0
ARC
  5
211
330
1F
100
AcDbEntity
  8
通り芯
  6
Continuous
 62
     3
370
     9
100
AcDbCircle
 10
431.3691546465902
 20
23.66863848712012
 30
0.0
 40
1.000000012887491
100
AcDbArc
 50
277.1250152587891
 51
0.0000000000000254
  0
ARC
  5
212
330
1F
100
AcDbEntity
  8
通り芯
  6
Continuous
 62
     3
370
     9
100
AcDbCircle
 10
419.3691150562186
 20
29.43873719911335
 30
0.0
 40
1.000000012887491
100
AcDbArc
 50
99.46231079101562
 51
180.0
  0
ARC
  5
213
330
1F
100
AcDbEntity
  8
通り芯
  6
Continuous
 62
     3
370
     9
100
AcDbCircle
 10
419.3691150562186
 20
22.13302694784647
 30
0.0
 40
1.000000012887491
100
AcDbArc
 50
180.0
 51
260.5376739501953
  0
ARC
  5
214
330
1F
100
AcDbEntity
  8
通り芯
  6
Continuous
 62
     3
370
     9
100
AcDbCircle
 10
431.3691546465902
 20
45.40305967588699
 30
0.0
 40
1.000000012887491
100
AcDbArc
 50
1.403289794921875
 51
82.87496948242188
  0
ARC
  5
215
330
1F
100
AcDbEntity
  8
躯体
  6
Continuous
 62
     2
370
     9
100
AcDbCircle
 10
493.5690926216744
 20
277.2858952702704
 30
0.0
 40
3.000000038662472
100
AcDbArc
 50
270.0
 51
0.0
  0
ARC
  5
216
330
1F
100
AcDbEntity
  8
躯体
  6
JWW_CENTER1
 62
     2
370
     9
100
AcDbCircle
 10
493.5688946698165
 20
277.2858952702704
 30
0.0
 40
7.5
100
AcDbArc
 50
270.0
 51
0.0
  0
ARC
  5
217
330
1F
100
AcDbEntity
  8
躯体
  6
Continuous
 62
     2
370
     9
100
AcDbCircle
 10
493.5689936457456
 20
277.2859942461995
 30
0.0
 40
12.00000015464989
100
AcDbArc
 50
270.0
 51
0.0
  0
ARC
  5
218
330
1F
100
AcDbEntity
  8
躯体
  6
Continuous
 62
     2
370
     9
100
AcDbCircle
 10
493.5690926216744
 20
3.285882073479911
 30
0.0
 40
3.000000038662472
100
AcDbArc
 50
0.0
 51
90.0
  0
ARC
  5
219
330
1F
100
AcDbEntity
  8
躯体
  6
JWW_CENTER1
 62
     2
370
     9
100
AcDbCircle
 10
493.5688946698165
 20
3.285882073479911
 30
0.0
 40
7.5
100
AcDbArc
 50
0.0
 51
90.0
  0
ARC
  5
21A
330
1F
100
AcDbEntity
  8
躯体
  6
Continuous
 62
     2
370
     9
100
AcDbCircle
 10
493.5689936457456
 20
3.285783097550848
 30
0.0
 40
12.00000015464989
100
AcDbArc
 50
0.0
 51
90.0
  0
ARC
  5
21B
330
1F
100
AcDbEntity
  8
通り芯
  6
Continuous
 62
     3
370
     9
100
AcDbCircle
 10
438.3692272289381
 20
59.00537109375023
 30
0.0
 40
2.000000025774982
100
AcDbArc
 50
94.9995880126953
 51
180.0
  0
ARC
  5
21C
330
1F
100
AcDbEntity
  8
通り芯
  6
Continuous
 62
     3
370
     9
100
AcDbCircle
 10
-617.9608772896431
 20
-217.2546584670606
 30
0.0
 40
1.000000012887491
100
AcDbArc
 50
184.763412475586
 51
270.0
  0
ARC
  5
21D
330
1F
100
AcDbEntity
  8
通り芯
  6
Continuous
 62
     3
370
     9
100
AcDbCircle
 10
-609.8012027224978
 20
-217.2546584670606
 30
0.0
 40
1.000000012887491
100
AcDbArc
 50
270.0
 51
355.2365875244141
  0
ARC
  5
21E
330
1F
100
AcDbEntity
  8
通り芯
  6
Continuous
 62
     3
370
     9
100
AcDbCircle
 10
-145.3011301401499
 20
-217.2546584670606
 30
0.0
 40
1.000000012887491
100
AcDbArc
 50
270.0
 51
355.2365875244141
  0
ARC
  5
21F
330
1F
100
AcDbEntity
  8
通り芯
  6
Continuous
 62
     3
370
     9
100
AcDbCircle
 10
-153.4608047072951
 20
-217.2546584670606
 30
0.0
 40
1.000000012887491
100
AcDbArc
 50
184.7634124755859
 51
270.0
  0
ARC
  5
220
330
1F
100
AcDbEntity
  8
通り芯
  6
Continuous
 62
     3
370
     9
100
AcDbCircle
 10
438.3692272289381
 20
221.5664062500002
 30
0.0
 40
2.000000025774982
100
AcDbArc
 50
180.0
 51
265.0004119873047
  0
TEXT
  5
221
330
1F
100
AcDbEntity
  8
0-E
  6
Continuous
 62
     7
370
     9
100
AcDbText
 10
238.7836526406777
 20
-66.56657131545592
 30
0.0
 40
9.144
  1
蓋本体：ＦＣＤ５００
 41
1.15
  7
ＭＳ ゴシック
100
AcDbText
  0
TEXT
  5
222
330
1F
100
AcDbEntity
  8
0-F
  6
Continuous
 62
     2
370
     9
100
AcDbText
 10
-644.6310243348818
 20
329.5419612542231
 30
0.0
 40
12.192
  1
100
 41
1.083333333333333
  7
ＭＳ ゴシック
100
AcDbText
  0
TEXT
  5
223
330
1F
100
AcDbEntity
  8
0-F
  6
Continuous
 62
     2
370
     9
100
AcDbText
 10
-294.6309707229202
 20
329.5419612542231
 30
0.0
 40
12.192
  1
600
 41
1.083333333333333
  7
ＭＳ ゴシック
100
AcDbText
  0
TEXT
  5
224
330
1F
100
AcDbEntity
  8
0-F
  6
Continuous
 62
     2
370
     9
100
AcDbText
 10
121.8690424738704
 20
329.5419612542231
 30
0.0
 40
12.192
  1
600
 41
1.083333333333333
  7
ＭＳ ゴシック
100
AcDbText
  0
TEXT
  5
225
330
1F
100
AcDbEntity
  8
0-F
  6
Continuous
 62
     2
370
     9
100
AcDbText
 10
-154.1133447595544
 20
369.5419942461995
 30
0.0
 40
12.192
  1
2000
 41
1.09375
  7
ＭＳ ゴシック
100
AcDbText
  0
TEXT
  5
226
330
1F
100
AcDbEntity
  8
0-F
  6
Continuous
 62
     2
370
     9
100
AcDbText
 10
-394.6310037148965
 20
-92.78308229518561
 30
0.0
 40
12.192
  1
599
 41
1.083333333333333
  7
ＭＳ ゴシック
100
AcDbText
  0
TEXT
  5
227
330
1F
100
AcDbEntity
  8
0-F
  6
Continuous
 62
     2
370
     9
100
AcDbText
 10
-63.70211956952062
 20
-92.78308229518561
 30
0.0
 40
12.192
  1
1
  7
ＭＳ ゴシック
100
AcDbText
  0
TEXT
  5
228
330
1F
100
AcDbEntity
  8
0-F
  6
Continuous
 62
     2
370
     9
100
AcDbText
 10
116.8960958944785
 20
-92.78308229518561
 30
0.0
 40
12.192
  1
599
 41
1.083333333333333
  7
ＭＳ ゴシック
100
AcDbText
  0
TEXT
  5
229
330
1F
100
AcDbEntity
  8
0-F
  6
Continuous
 62
     2
370
     9
100
AcDbText
 10
439.8690127810917
 20
-40.45807173775322
 30
0.0
 40
12.192
  1
60
 41
1.0625
  7
ＭＳ ゴシック
100
AcDbText
  0
TEXT
  5
22A
330
1F
100
AcDbEntity
  8
0-F
  6
Continuous
 62
     2
370
     9
100
AcDbText
 10
432.4690576501796
 20
-80.45805524176498
 30
0.0
 40
12.192
  1
63.2
 41
1.09375
  7
ＭＳ ゴシック
100
AcDbText
  0
TEXT
  5
22B
330
1F
100
AcDbEntity
  8
0-F
  6
Continuous
 62
     2
370
     9
100
AcDbText
 10
429.8690787650444
 20
105.0236771009292
 30
0.0
 40
12.192
  1
40
 41
1.0625
  7
ＭＳ ゴシック
100
AcDbText
  0
TEXT
  5
22C
330
1F
100
AcDbEntity
  8
0-F
  6
Continuous
 62
     2
370
     9
100
AcDbText
 10
479.2024527884819
 20
125.5410407780829
 30
0.0
 40
12.192
  1
6
  7
ＭＳ ゴシック
100
AcDbText
  0
TEXT
  5
22D
330
1F
100
AcDbEntity
  8
0-E
  6
Continuous
 62
     7
370
     9
100
AcDbText
 10
537.160378121041
 20
367.8438290751691
 30
0.0
 40
9.144
  1
アンカー：φ９
 41
1.142857142857143
  7
ＭＳ ゴシック
100
AcDbText
  0
TEXT
  5
22E
330
1F
100
AcDbEntity
  8
0-F
  6
Continuous
 62
     2
370
     9
100
AcDbText
 10
354.1130562389091
 20
127.2858885732624
 30
0.0
 40
12.192
  1
150
 50
90.00000250447873
 41
1.083333333333334
  7
ＭＳ ゴシック
100
AcDbText
  0
TEXT
  5
22F
330
1F
100
AcDbEntity
  8
0-F
  6
Continuous
 62
     2
370
     9
100
AcDbText
 10
354.1130560422079
 20
34.28588857326223
 30
0.0
 40
12.192
  1
45
 50
90.00000250447789
 41
1.062500000000005
  7
ＭＳ ゴシック
100
AcDbText
  0
TEXT
  5
230
330
1F
100
AcDbEntity
  8
0-F
  6
Continuous
 62
     2
370
     9
100
AcDbText
 10
314.1130232469328
 20
279.4885978743604
 30
0.0
 40
12.192
  1
3.2
 50
90.00000250447873
 41
1.083333333333334
  7
ＭＳ ゴシック
100
AcDbText
  0
TEXT
  5
231
330
1F
100
AcDbEntity
  8
0-F
  6
Continuous
 62
     2
370
     9
100
AcDbText
 10
314.1130232469328
 20
236.3669630559481
 30
0.0
 40
12.192
  1
1.8
 50
90.00000250447873
 41
1.083333333333334
  7
ＭＳ ゴシック
100
AcDbText
  0
TEXT
  5
232
330
1F
100
AcDbEntity
  8
0-F
  6
Continuous
 62
     2
370
     9
100
AcDbText
 10
314.1130232469328
 20
127.2858885732624
 30
0.0
 40
12.192
  1
240
 50
90.00000250447873
 41
1.083333333333334
  7
ＭＳ ゴシック
100
AcDbText
  0
TEXT
  5
233
330
1F
100
AcDbEntity
  8
0-F
  6
Continuous
 62
     2
370
     9
100
AcDbText
 10
314.1130232469328
 20
18.15547458994326
 30
0.0
 40
12.192
  1
1.8
 50
90.00000250447873
 41
1.083333333333315
  7
ＭＳ ゴシック
100
AcDbText
  0
TEXT
  5
234
330
1F
100
AcDbEntity
  8
0-F
  6
Continuous
 62
     2
370
     9
100
AcDbText
 10
314.1130232469328
 20
-23.28500458552121
 30
0.0
 40
12.192
  1
3.2
 50
90.00000250447873
 41
1.083333333333315
  7
ＭＳ ゴシック
100
AcDbText
  0
TEXT
  5
235
330
1F
100
AcDbEntity
  8
0-F
  6
Continuous
 62
     2
370
     9
100
AcDbText
 10
274.1129902549563
 20
127.2859380612269
 30
0.0
 40
12.192
  1
250
 50
90.00000250447873
 41
1.083333333333334
  7
ＭＳ ゴシック
100
AcDbText
  0
TEXT
  5
236
330
1F
100
AcDbEntity
  8
0-F
  6
Continuous
 62
     2
370
     9
100
AcDbText
 10
-394.6310037148965
 20
-51.02167366976332
 30
0.0
 40
12.192
  1
579
 41
1.083333333333333
  7
ＭＳ ゴシック
100
AcDbText
  0
TEXT
  5
237
330
1F
100
AcDbEntity
  8
0-F
  6
Continuous
 62
     2
370
     9
100
AcDbText
 10
339.4915878708298
 20
-306.4466763091215
 30
0.0
 40
12.192
  1
仕様
 41
1.0625
  7
ＭＳ ゴシック
100
AcDbText
  0
TEXT
  5
238
330
1F
100
AcDbEntity
  8
0-F
  6
Continuous
 62
     2
370
     9
100
AcDbText
 10
484.8575414709144
 20
105.0236771009292
 30
0.0
 40
12.192
  1
5
  7
ＭＳ ゴシック
100
AcDbText
  0
TEXT
  5
239
330
1F
100
AcDbEntity
  8
0-F
  6
Continuous
 62
     2
370
     9
100
AcDbText
 10
339.491568075644
 20
-330.4466565139356
 30
0.0
 40
12.192
  1
適用荷重：Ｔ－２
 41
1.109375
  7
ＭＳ ゴシック
100
AcDbText
  0
TEXT
  5
23A
330
1F
100
AcDbEntity
  8
0-F
  6
Continuous
 62
     2
370
     9
100
AcDbText
 10
339.4915977684227
 20
-378.4466664115286
 30
0.0
 40
12.192
  1
接触圧子：２００×１６０ｍｍ
 41
1.116071428571429
  7
ＭＳ ゴシック
100
AcDbText
  0
TEXT
  5
23B
330
1F
100
AcDbEntity
  8
0-E
  6
Continuous
 62
     7
370
     9
100
AcDbText
 10
538.6094780999263
 20
345.8968075907941
 30
0.0
 40
9.144
  1
ＳＳ４００，樹脂系塗装
 41
1.151515151515152
  7
ＭＳ ゴシック
100
AcDbText
  0
TEXT
  5
23C
330
1F
100
AcDbEntity
  8
0-E
  6
Continuous
 62
     7
370
     9
100
AcDbText
 10
216.5175327610327
 20
335.4166423669766
 30
0.0
 40
9.144
  1
ＳＰＨＣ，樹脂系塗装
 41
1.15
  7
ＭＳ ゴシック
100
AcDbText
  0
TEXT
  5
23D
330
1F
100
AcDbEntity
  8
0-E
  6
Continuous
 62
     7
370
     9
100
AcDbText
 10
216.9048453666069
 20
355.2017326330239
 30
0.0
 40
9.144
  1
受枠：Ｌ６０Ｇ，ｔ＝３．２
 41
1.153846153846154
  7
ＭＳ ゴシック
100
AcDbText
  0
TEXT
  5
23E
330
1F
100
AcDbEntity
  8
0-F
  6
Continuous
 62
     2
370
     9
100
AcDbText
 10
339.4916076660156
 20
-354.4466862067144
 30
0.0
 40
12.192
  1
破壊荷重：３５ｋＮ（３，６００ｋｇｆ）以上
 41
1.119047619047619
  7
ＭＳ ゴシック
100
AcDbText
  0
TEXT
  5
23F
330
1F
100
AcDbEntity
  8
0-E
  6
Continuous
 62
     7
370
     9
100
AcDbText
 10
237.7545339223502
 20
-88.64429051414686
 30
0.0
 40
9.144
  1
樹脂系塗装
 41
1.133333333333333
  7
ＭＳ ゴシック
100
AcDbText
  0
TEXT
  5
240
330
1F
100
AcDbEntity
  8
0-F
  6
Continuous
 62
     2
370
     9
100
AcDbText
 10
339.491805617874
 20
-402.4466961043073
 30
0.0
 40
12.192
  1
蓋 質 量：１１．０ｋｇ
 41
1.113636363636364
  7
ＭＳ ゴシック
100
AcDbText
  0
TEXT
  5
241
330
1F
100
AcDbEntity
  8
0-F
  6
Continuous
 62
     2
370
     9
100
AcDbText
 10
561.3130270092689
 20
-7.714101529144407
 30
0.0
 40
12.192
  1
29
 50
90.00000250448097
 41
1.062499999999973
  7
ＭＳ ゴシック
100
AcDbText
  0
TEXT
  5
242
330
1F
100
AcDbEntity
  8
0-F
  6
Continuous
 62
     2
370
     9
100
AcDbText
 10
561.3130270092689
 20
31.78590506925057
 30
0.0
 40
12.192
  1
50
 50
90.00000250448097
 41
1.062500000000001
  7
ＭＳ ゴシック
100
AcDbText
  0
TEXT
  5
243
330
1F
100
AcDbEntity
  8
0-F
  6
Continuous
 62
     2
370
     9
100
AcDbText
 10
561.3130272059699
 20
127.2858885732624
 30
0.0
 40
12.192
  1
150
 50
90.00000250447873
 41
1.083333333333334
  7
ＭＳ ゴシック
100
AcDbText
  0
TEXT
  5
244
330
1F
100
AcDbEntity
  8
0-F
  6
Continuous
 62
     2
370
     9
100
AcDbText
 10
561.3130270092689
 20
231.7859215652387
 30
0.0
 40
12.192
  1
50
 50
90.00000250448097
 41
1.062500000000001
  7
ＭＳ ゴシック
100
AcDbText
  0
TEXT
  5
245
330
1F
100
AcDbEntity
  8
0-F
  6
Continuous
 62
     2
370
     9
100
AcDbText
 10
561.3130270092689
 20
271.2859776515986
 30
0.0
 40
12.192
  1
29
 50
90.00000250448097
 41
1.062500000000001
  7
ＭＳ ゴシック
100
AcDbText
  0
TEXT
  5
246
330
1F
100
AcDbEntity
  8
0-F
  6
Continuous
 62
     2
370
     9
100
AcDbText
 10
485.06904313371
 20
-80.45805524176498
 30
0.0
 40
12.192
  1
24
 41
1.0625
  7
ＭＳ ゴシック
100
AcDbText
  0
LWPOLYLINE
  5
247
330
1F
100
AcDbEntity
  8
0-F
  6
Continuous
 62
     7
370
     9
100
AcDbPolyline
 90
        4
 70
     1
 43
0.4
 10
464.5691150562185
 20
100.767670502534
 42
0.4142135623731
 10
464.3691150562186
 20
100.967670502534
 42
0.4142135623731
 10
464.1691150562186
 20
100.767670502534
 42
0.4142135623731
 10
464.3691150562186
 20
100.567670502534
 42
0.4142135623731
  0
LWPOLYLINE
  5
248
330
1F
100
AcDbEntity
  8
0-F
  6
Continuous
 62
     7
370
     9
100
AcDbPolyline
 90
        4
 70
     1
 43
0.4
 10
358.569062269056
 20
225.2859216638516
 42
0.4142135623731
 10
358.369062269056
 20
225.4859216638516
 42
0.4142135623731
 10
358.169062269056
 20
225.2859216638516
 42
0.4142135623731
 10
358.369062269056
 20
225.0859216638516
 42
0.4142135623731
  0
LWPOLYLINE
  5
249
330
1F
100
AcDbEntity
  8
0-F
  6
Continuous
 62
     7
370
     9
100
AcDbPolyline
 90
        4
 70
     1
 43
0.4
 10
358.569062269056
 20
231.7858688766894
 42
0.4142135623731
 10
358.369062269056
 20
231.9858688766894
 42
0.4142135623731
 10
358.169062269056
 20
231.7858688766894
 42
0.4142135623731
 10
358.369062269056
 20
231.5858688766894
 42
0.4142135623731
  0
LWPOLYLINE
  5
24A
330
1F
100
AcDbEntity
  8
0-F
  6
Continuous
 62
     7
370
     9
100
AcDbPolyline
 90
        4
 70
     1
 43
0.4
 10
358.569062269056
 20
242.7859546558279
 42
0.4142135623731
 10
358.369062269056
 20
242.9859546558279
 42
0.4142135623731
 10
358.169062269056
 20
242.7859546558279
 42
0.4142135623731
 10
358.369062269056
 20
242.5859546558279
 42
0.4142135623731
  0
LWPOLYLINE
  5
24B
330
1F
100
AcDbEntity
  8
0-F
  6
Continuous
 62
     7
370
     9
100
AcDbPolyline
 90
        4
 70
     1
 43
0.4
 10
358.569062269056
 20
249.2859018686657
 42
0.4142135623731
 10
358.369062269056
 20
249.4859018686657
 42
0.4142135623731
 10
358.169062269056
 20
249.2859018686657
 42
0.4142135623731
 10
358.369062269056
 20
249.0859018686658
 42
0.4142135623731
  0
LWPOLYLINE
  5
24C
330
1F
100
AcDbEntity
  8
0-F
  6
Continuous
 62
     7
370
     9
100
AcDbPolyline
 90
        4
 70
     1
 43
0.4
 10
358.569062269056
 20
260.2858886718752
 42
0.4142135623731
 10
358.369062269056
 20
260.4858886718752
 42
0.4142135623731
 10
358.169062269056
 20
260.2858886718752
 42
0.4142135623731
 10
358.369062269056
 20
260.0858886718752
 42
0.4142135623731
  0
LWPOLYLINE
  5
24D
330
1F
100
AcDbEntity
  8
0-F
  6
Continuous
 62
     7
370
     9
100
AcDbPolyline
 90
        4
 70
     1
 43
0.4
 10
318.5690292770798
 20
18.48591242609814
 42
0.4142135623731
 10
318.3690292770798
 20
18.68591242609814
 42
0.4142135623731
 10
318.1690292770798
 20
18.48591242609814
 42
0.4142135623731
 10
318.3690292770798
 20
18.28591242609814
 42
0.4142135623731
  0
LWPOLYLINE
  5
24E
330
1F
100
AcDbEntity
  8
0-F
  6
Continuous
 62
     7
370
     9
100
AcDbPolyline
 90
        4
 70
     1
 43
0.4
 10
318.5690292770798
 20
262.0858649176522
 42
0.4142135623731
 10
318.3690292770798
 20
262.2858649176522
 42
0.4142135623731
 10
318.1690292770798
 20
262.0858649176522
 42
0.4142135623731
 10
318.3690292770798
 20
261.8858649176522
 42
0.4142135623731
  0
TEXT
  5
24F
330
1F
100
AcDbEntity
  8
F-5ﾚｲﾔ
  6
Continuous
 62
     3
370
     9
100
AcDbText
 10
-240.6233825961188
 20
-547.9630131779365
 30
0.0
 40
12.192
  1
カラー舗装用みぞ蓋　ＧＨＭ－２－２５６０＋Ｌ６０Ｇ
 41
0.9470000000000001
  7
ＭＳ ゴシック
100
AcDbText
  0
TEXT
  5
250
330
1F
100
AcDbEntity
  8
0-F
  6
Continuous
 62
     2
370
     9
100
AcDbText
 10
336.2952112808429
 20
242.0802449657878
 30
0.0
 40
12.192
  1
6.5
 50
90.00000250447899
 41
0.5916666666666691
  7
ＭＳ ゴシック
100
AcDbText
  0
TEXT
  5
251
330
1F
100
AcDbEntity
  8
0-F
  6
Continuous
 62
     2
370
     9
100
AcDbText
 10
354.1130558761043
 20
249.6198670097066
 30
0.0
 40
12.192
  1
11
 50
90.00000250447756
 41
0.587499999999992
  7
ＭＳ ゴシック
100
AcDbText
  0
TEXT
  5
252
330
1F
100
AcDbEntity
  8
0-F
  6
Continuous
 62
     2
370
     9
100
AcDbText
 10
354.1130558761043
 20
232.7814881034566
 30
0.0
 40
12.192
  1
11
 50
90.00000250447756
 41
0.587499999999992
  7
ＭＳ ゴシック
100
AcDbText
  0
TEXT
  5
253
330
1F
100
AcDbEntity
  8
0-F
  6
Continuous
 62
     2
370
     9
100
AcDbText
 10
354.1130558761043
 20
214.4351861740858
 30
0.0
 40
12.192
  1
10
 50
90.00000250447756
 41
0.587499999999992
  7
ＭＳ ゴシック
100
AcDbText
  0
TEXT
  5
254
330
1F
100
AcDbEntity
  8
0-F
  6
Continuous
 62
     2
370
     9
100
AcDbText
 10
336.2952112808429
 20
221.4721451056737
 30
0.0
 40
12.192
  1
6.5
 50
90.00000250447899
 41
0.5916666666666691
  7
ＭＳ ゴシック
100
AcDbText
  0
ENDSEC
  0
SECTION
  2
OBJECTS
  0
DICTIONARY
  5
C
330
0
100
AcDbDictionary
281
     1
  3
ACAD_GROUP
350
D
  3
ACAD_LAYOUT
350
1A
  3
ACAD_MLEADERSTYLE
350
256
  3
ACAD_MLINESTYLE
350
17
  3
ACAD_PLOTSETTINGS
350
19
  3
ACAD_PLOTSTYLENAME
350
E
  3
ACAD_TABLESTYLE
350
255
  3
ACAD_VISUALSTYLE
350
2A
  0
DICTIONARY
  5
D
102
{ACAD_REACTORS
330
C
102
}
330
C
100
AcDbDictionary
281
     1
  0
DICTIONARY
  5
1A
102
{ACAD_REACTORS
330
C
102
}
330
C
100
AcDbDictionary
281
     1
  3
Layout1
350
1E
  3
Layout2
350
26
  3
Model
350
22
  0
DICTIONARY
  5
256
102
{ACAD_REACTORS
330
C
102
}
330
C
100
AcDbDictionary
281
     1
  0
DICTIONARY
  5
17
102
{ACAD_REACTORS
330
C
102
}
330
C
100
AcDbDictionary
281
     1
  3
Standard
350
18
  0
DICTIONARY
  5
19
102
{ACAD_REACTORS
330
C
102
}
330
C
100
AcDbDictionary
281
     1
  0
ACDBDICTIONARYWDFLT
  5
E
102
{ACAD_REACTORS
330
C
102
}
330
C
100
AcDbDictionary
281
     1
  3
Normal
350
F
100
AcDbDictionaryWithDefault
340
F
  0
DICTIONARY
  5
255
102
{ACAD_REACTORS
330
C
102
}
330
C
100
AcDbDictionary
281
     1
  0
DICTIONARY
  5
2A
102
{ACAD_REACTORS
330
C
102
}
330
C
100
AcDbDictionary
281
     1
  3
2dWireframe
350
2F
  3
3D Hidden
350
31
  3
3dWireframe
350
30
  3
Basic
350
32
  3
Brighten
350
36
  3
ColorChange
350
3A
  3
Conceptual
350
34
  3
Dim
350
35
  3
Facepattern
350
39
  3
Flat
350
2B
  3
FlatWithEdges
350
2C
  3
Gouraud
350
2D
  3
GouraudWithEdges
350
2E
  3
Linepattern
350
38
  3
Realistic
350
33
  3
Thicken
350
37
  0
LAYOUT
  5
1E
102
{ACAD_REACTORS
330
1A
102
}
330
1A
100
AcDbPlotSettings
  1

  2
none_device
  4

  6

 40
0.0
 41
0.0
 42
0.0
 43
0.0
 44
0.0
 45
0.0
 46
0.0
 47
0.0
 48
0.0
 49
0.0
140
0.0
141
0.0
142
1.0
143
1.0
 70
   688
 72
     0
 73
     0
 74
     5
  7

 75
    16
 76
     0
 77
     5
 78
   300
147
1.0
148
0.0
149
0.0
100
AcDbLayout
  1
Layout1
 70
     1
 71
     1
 10
0.0
 20
0.0
 11
420.0
 21
297.0
 12
0.0
 22
0.0
 32
0.0
 14
1.000000000000000E+20
 24
1.000000000000000E+20
 34
1.000000000000000E+20
 15
-1.000000000000000E+20
 25
-1.000000000000000E+20
 35
-1.000000000000000E+20
146
0.0
 13
0.0
 23
0.0
 33
0.0
 16
1.0
 26
0.0
 36
0.0
 17
0.0
 27
1.0
 37
0.0
 76
     0
330
1B
  0
LAYOUT
  5
26
102
{ACAD_REACTORS
330
1A
102
}
330
1A
100
AcDbPlotSettings
  1

  2
none_device
  4

  6

 40
0.0
 41
0.0
 42
0.0
 43
0.0
 44
0.0
 45
0.0
 46
0.0
 47
0.0
 48
0.0
 49
0.0
140
0.0
141
0.0
142
1.0
143
1.0
 70
   688
 72
     0
 73
     0
 74
     5
  7

 75
    16
 76
     0
 77
     5
 78
   300
147
1.0
148
0.0
149
0.0
100
AcDbLayout
  1
Layout2
 70
     1
 71
     2
 10
0.0
 20
0.0
 11
0.0
 21
0.0
 12
0.0
 22
0.0
 32
0.0
 14
0.0
 24
0.0
 34
0.0
 15
0.0
 25
0.0
 35
0.0
146
0.0
 13
0.0
 23
0.0
 33
0.0
 16
1.0
 26
0.0
 36
0.0
 17
0.0
 27
1.0
 37
0.0
 76
     0
330
23
  0
LAYOUT
  5
22
102
{ACAD_REACTORS
330
1A
102
}
330
1A
100
AcDbPlotSettings
  1

  2
none_device
  4

  6

 40
0.0
 41
0.0
 42
0.0
 43
0.0
 44
0.0
 45
0.0
 46
0.0
 47
0.0
 48
0.0
 49
0.0
140
0.0
141
0.0
142
1.0
143
1.0
 70
  1712
 72
     0
 73
     0
 74
     0
  7

 75
     0
 76
     0
 77
     5
 78
   300
147
1.0
148
0.0
149
0.0
100
AcDbLayout
  1
Model
 70
     1
 71
     0
 10
-840.0
 20
-594.0
 11
840.0
 21
594.0
 12
0.0
 22
0.0
 32
0.0
 14
-840.0
 24
-594.0
 34
0.0
 15
840.0
 25
594.0
 35
0.0
146
0.0
 13
0.0
 23
0.0
 33
0.0
 16
1.0
 26
0.0
 36
0.0
 17
0.0
 27
1.0
 37
0.0
 76
     0
330
1F
331
29
  0
MLINESTYLE
  5
18
102
{ACAD_REACTORS
330
17
102
}
330
17
100
AcDbMlineStyle
  2
Standard
 70
     0
  3

 62
   256
 51
90.0
 52
90.0
 71
     2
 49
0.5
 62
   256
  6
BYLAYER
 49
-0.5
 62
   256
  6
BYLAYER
  0
ACDBPLACEHOLDER
  5
F
102
{ACAD_REACTORS
330
E
102
}
330
E
  0
VISUALSTYLE
  5
2F
102
{ACAD_REACTORS
330
2A
102
}
330
2A
100
AcDbVisualStyle
  2
2dWireframe
 70
     4
 71
     0
 72
     2
 73
     0
 90
        0
 40
-0.6
 41
-30.0
 62
     5
 63
     7
421
 16777215
 74
     1
 91
        4
 64
     7
 65
   257
 75
     1
175
     1
 42
1.0
 92
        0
 66
   257
 43
1.0
 76
     1
 77
     6
 78
     2
 67
     7
 79
     5
170
     0
171
     0
290
     0
174
     0
 93
        1
 44
0.0
173
     0
291
     0
 45
0.0
1001
ACAD
1000
AcDbSavedByObjectVersion
1070
     0
  0
VISUALSTYLE
  5
31
102
{ACAD_REACTORS
330
2A
102
}
330
2A
100
AcDbVisualStyle
  2
3D Hidden
 70
     6
 71
     1
 72
     2
 73
     2
 90
        0
 40
-0.6
 41
-30.0
 62
     5
 63
     7
421
 16777215
 74
     2
 91
        2
 64
     7
 65
   257
 75
     2
175
     1
 42
40.0
 92
        0
 66
   257
 43
1.0
 76
     1
 77
     6
 78
     2
 67
     7
 79
     3
170
     0
171
     0
290
     0
174
     0
 93
        1
 44
0.0
173
     0
291
     0
 45
0.0
1001
ACAD
1000
AcDbSavedByObjectVersion
1070
     0
  0
VISUALSTYLE
  5
30
102
{ACAD_REACTORS
330
2A
102
}
330
2A
100
AcDbVisualStyle
  2
3dWireframe
 70
     5
 71
     0
 72
     2
 73
     0
 90
        0
 40
-0.6
 41
-30.0
 62
     5
 63
     7
421
 16777215
 74
     1
 91
        4
 64
     7
 65
   257
 75
     1
175
     1
 42
1.0
 92
        0
 66
   257
 43
1.0
 76
     1
 77
     6
 78
     2
 67
     7
 79
     5
170
     0
171
     0
290
     0
174
     0
 93
        1
 44
0.0
173
     0
291
     0
 45
0.0
1001
ACAD
1000
AcDbSavedByObjectVersion
1070
     0
  0
VISUALSTYLE
  5
32
102
{ACAD_REACTORS
330
2A
102
}
330
2A
100
AcDbVisualStyle
  2
Basic
 70
     7
 71
     1
 72
     0
 73
     1
 90
        0
 40
-0.6
 41
-30.0
 62
     5
 63
     7
421
 16777215
 74
     0
 91
        4
 64
     7
 65
   257
 75
     1
175
     1
 42
1.0
 92
        8
 66
     7
 43
1.0
 76
     1
 77
     6
 78
     2
 67
     7
 79
     5
170
     0
171
     0
290
     0
174
     0
 93
        1
 44
0.0
173
     0
291
     1
 45
0.0
1001
ACAD
1000
AcDbSavedByObjectVersion
1070
     0
  0
VISUALSTYLE
  5
36
102
{ACAD_REACTORS
330
2A
102
}
330
2A
100
AcDbVisualStyle
  2
Brighten
 70
    12
 71
     2
 72
     2
 73
     0
 90
        0
 40
-0.6
 41
-30.0
 62
     5
 63
     7
421
 16777215
 74
     1
 91
        4
 64
     7
 65
   257
 75
     1
175
     1
 42
1.0
 92
        8
 66
     7
 43
1.0
 76
     1
 77
     6
 78
     2
 67
     7
 79
     5
170
     0
171
     0
290
     0
174
     0
 93
        1
 44
50.0
173
     0
291
     1
 45
0.0
1001
ACAD
1000
AcDbSavedByObjectVersion
1070
     0
  0
VISUALSTYLE
  5
3A
102
{ACAD_REACTORS
330
2A
102
}
330
2A
100
AcDbVisualStyle
  2
ColorChange
 70
    16
 71
     2
 72
     2
 73
     3
 90
        0
 40
-0.6
 41
-30.0
 62
     5
 63
     8
421
  8421504
 74
     1
 91
        4
 64
     7
 65
   257
 75
     1
175
     1
 42
1.0
 92
        8
 66
     8
424
  8421504
 43
1.0
 76
     1
 77
     6
 78
     2
 67
     7
 79
     5
170
     0
171
     0
290
     0
174
     0
 93
        1
 44
0.0
173
     0
291
     1
 45
0.0
1001
ACAD
1000
AcDbSavedByObjectVersion
1070
     0
  0
VISUALSTYLE
  5
34
102
{ACAD_REACTORS
330
2A
102
}
330
2A
100
AcDbVisualStyle
  2
Conceptual
 70
     9
 71
     3
 72
     2
 73
     0
 90
        0
 40
-0.6
 41
-30.0
 62
     5
 63
     7
421
 16777215
 74
     2
 91
        2
 64
     7
 65
   257
 75
     1
175
     1
 42
40.0
 92
        8
 66
     7
 43
1.0
 76
     1
 77
     6
 78
     2
 67
     7
 79
     3
170
     0
171
     0
290
     0
174
     0
 93
        1
 44
0.0
173
     0
291
     0
 45
0.0
1001
ACAD
1000
AcDbSavedByObjectVersion
1070
     0
  0
VISUALSTYLE
  5
35
102
{ACAD_REACTORS
330
2A
102
}
330
2A
100
AcDbVisualStyle
  2
Dim
 70
    11
 71
     2
 72
     2
 73
     0
 90
        0
 40
-0.6
 41
-30.0
 62
     5
 63
     7
421
 16777215
 74
     1
 91
        4
 64
     7
 65
   257
 75
     1
175
     1
 42
1.0
 92
        8
 66
     7
 43
1.0
 76
     1
 77
     6
 78
     2
 67
     7
 79
     5
170
     0
171
     0
290
     0
174
     0
 93
        1
 44
-50.0
173
     0
291
     1
 45
0.0
1001
ACAD
1000
AcDbSavedByObjectVersion
1070
     0
  0
VISUALSTYLE
  5
39
102
{ACAD_REACTORS
330
2A
102
}
330
2A
100
AcDbVisualStyle
  2
Facepattern
 70
    15
 71
     2
 72
     2
 73
     0
 90
        0
 40
-0.6
 41
-30.0
 62
     5
 63
     7
421
 16777215
 74
     1
 91
        4
 64
     7
 65
   257
 75
     1
175
     1
 42
1.0
 92
        8
 66
     7
 43
1.0
 76
     1
 77
     6
 78
     2
 67
     7
 79
     5
170
     0
171
     0
290
     0
174
     0
 93
        1
 44
0.0
173
     0
291
     1
 45
0.0
1001
ACAD
1000
AcDbSavedByObjectVersion
1070
     0
  0
VISUALSTYLE
  5
2B
102
{ACAD_REACTORS
330
2A
102
}
330
2A
100
AcDbVisualStyle
  2
Flat
 70
     0
 71
     2
 72
     1
 73
     1
 90
        2
 40
-0.6
 41
30.0
 62
     5
 63
     7
421
 16777215
 74
     0
 91
        4
 64
     7
 65
   257
 75
     1
175
     1
 42
1.0
 92
        8
 66
     7
 43
1.0
 76
     1
 77
     6
 78
     2
 67
     7
 79
     5
170
     0
171
     0
290
     0
174
     0
 93
       13
 44
0.0
173
     0
291
     1
 45
0.0
1001
ACAD
1000
AcDbSavedByObjectVersion
1070
     0
  0
VISUALSTYLE
  5
2C
102
{ACAD_REACTORS
330
2A
102
}
330
2A
100
AcDbVisualStyle
  2
FlatWithEdges
 70
     1
 71
     2
 72
     1
 73
     1
 90
        2
 40
-0.6
 41
30.0
 62
     5
 63
     7
421
 16777215
 74
     1
 91
        4
 64
     7
 65
   257
 75
     1
175
     1
 42
1.0
 92
        0
 66
   257
 43
1.0
 76
     1
 77
     6
 78
     2
 67
     7
 79
     5
170
     0
171
     0
290
     0
174
     0
 93
       13
 44
0.0
173
     0
291
     1
 45
0.0
1001
ACAD
1000
AcDbSavedByObjectVersion
1070
     0
  0
VISUALSTYLE
  5
2D
102
{ACAD_REACTORS
330
2A
102
}
330
2A
100
AcDbVisualStyle
  2
Gouraud
 70
     2
 71
     2
 72
     2
 73
     1
 90
        2
 40
-0.6
 41
30.0
 62
     5
 63
     7
421
 16777215
 74
     0
 91
        4
 64
     7
 65
   257
 75
     1
175
     1
 42
1.0
 92
        0
 66
     7
 43
1.0
 76
     1
 77
     6
 78
     2
 67
     7
 79
     5
170
     0
171
     0
290
     0
174
     0
 93
       13
 44
0.0
173
     0
291
     1
 45
0.0
1001
ACAD
1000
AcDbSavedByObjectVersion
1070
     0
  0
VISUALSTYLE
  5
2E
102
{ACAD_REACTORS
330
2A
102
}
330
2A
100
AcDbVisualStyle
  2
GouraudWithEdges
 70
     3
 71
     2
 72
     2
 73
     1
 90
        2
 40
-0.6
 41
30.0
 62
     5
 63
     7
421
 16777215
 74
     1
 91
        4
 64
     7
 65
   257
 75
     1
175
     1
 42
1.0
 92
        0
 66
   257
 43
1.0
 76
     1
 77
     6
 78
     2
 67
     7
 79
     5
170
     0
171
     0
290
     0
174
     0
 93
       13
 44
0.0
173
     0
291
     1
 45
0.0
1001
ACAD
1000
AcDbSavedByObjectVersion
1070
     0
  0
VISUALSTYLE
  5
38
102
{ACAD_REACTORS
330
2A
102
}
330
2A
100
AcDbVisualStyle
  2
Linepattern
 70
    14
 71
     2
 72
     2
 73
     0
 90
        0
 40
-0.6
 41
-30.0
 62
     5
 63
     7
421
 16777215
 74
     1
 91
        4
 64
     7
 65
   257
 75
     7
175
     7
 42
1.0
 92
        8
 66
     7
 43
1.0
 76
     1
 77
     6
 78
     2
 67
     7
 79
     5
170
     0
171
     0
290
     0
174
     0
 93
        1
 44
0.0
173
     0
291
     1
 45
0.0
1001
ACAD
1000
AcDbSavedByObjectVersion
1070
     0
  0
VISUALSTYLE
  5
33
102
{ACAD_REACTORS
330
2A
102
}
330
2A
100
AcDbVisualStyle
  2
Realistic
 70
     8
 71
     2
 72
     2
 73
     0
 90
        0
 40
-0.6
 41
-30.0
 62
     5
 63
     7
421
 16777215
 74
     1
 91
        0
 64
     7
 65
   257
 75
     1
175
     1
 42
1.0
 92
        8
 66
     8
424
  7895160
 43
1.0
 76
     1
 77
     6
 78
     2
 67
     7
 79
     5
170
     0
171
     0
290
     0
174
     0
 93
       13
 44
0.0
173
     0
291
     0
 45
0.0
1001
ACAD
1000
AcDbSavedByObjectVersion
1070
     0
  0
VISUALSTYLE
  5
37
102
{ACAD_REACTORS
330
2A
102
}
330
2A
100
AcDbVisualStyle
  2
Thicken
 70
    13
 71
     2
 72
     2
 73
     0
 90
        0
 40
-0.6
 41
-30.0
 62
     5
 63
     7
421
 16777215
 74
     1
 91
        4
 64
     7
 65
   257
 75
     1
175
     1
 42
1.0
 92
       12
 66
     7
 43
1.0
 76
     1
 77
     6
 78
     2
 67
     7
 79
     5
170
     0
171
     0
290
     0
174
     0
 93
        1
 44
0.0
173
     0
291
     1
 45
0.0
1001
ACAD
1000
AcDbSavedByObjectVersion
1070
     0
  0
ENDSEC
  0
EOF
