  0
SECTION
  2
HEADER
  9
$ACADVER
  1
AC1018
  9
$ACADMAINTVER
 70
     0
  9
$DWGCODEPAGE
  3
ANSI_932
  9
$INSBASE
 10
0.0
 20
0.0
 30
0.0
  9
$EXTMIN
 10
-840.0
 20
-594.0
 30
0.0
  9
$EXTMAX
 10
840.0
 20
594.0
 30
0.0
  9
$LIMMIN
 10
-840.0
 20
-594.0
  9
$LIMMAX
 10
840.0
 20
594.0
  9
$ORTHOMODE
 70
     0
  9
$REGENMODE
 70
     1
  9
$FILLMODE
 70
     1
  9
$QTEXTMODE
 70
     0
  9
$MIRRTEXT
 70
     1
  9
$LTSCALE
 40
4.0
  9
$ATTMODE
 70
     1
  9
$TEXTSIZE
 40
2.5
  9
$TRACEWID
 40
1.0
  9
$TEXTSTYLE
  7
Standard
  9
$CLAYER
  8
0
  9
$CELTYPE
  6
ByLayer
  9
$CECOLOR
 62
   256
  9
$CELTSCALE
 40
1.0
  9
$DISPSILH
 70
     0
  9
$DIMSCALE
 40
1.0
  9
$DIMASZ
 40
2.5
  9
$DIMEXO
 40
0.625
  9
$DIMDLI
 40
3.75
  9
$DIMRND
 40
0.0
  9
$DIMDLE
 40
0.0
  9
$DIMEXE
 40
1.25
  9
$DIMTP
 40
0.0
  9
$DIMTM
 40
0.0
  9
$DIMTXT
 40
2.5
  9
$DIMCEN
 40
2.5
  9
$DIMTSZ
 40
0.0
  9
$DIMTOL
 70
     0
  9
$DIMLIM
 70
     0
  9
$DIMTIH
 70
     0
  9
$DIMTOH
 70
     0
  9
$DIMSE1
 70
     0
  9
$DIMSE2
 70
     0
  9
$DIMTAD
 70
     1
  9
$DIMZIN
 70
     8
  9
$DIMBLK
  1

  9
$DIMASO
 70
     1
  9
$DIMSHO
 70
     1
  9
$DIMPOST
  1

  9
$DIMAPOST
  1

  9
$DIMALT
 70
     0
  9
$DIMALTD
 70
     3
  9
$DIMALTF
 40
0.03937007874016
  9
$DIMLFAC
 40
1.0
  9
$DIMTOFL
 70
     1
  9
$DIMTVP
 40
0.0
  9
$DIMTIX
 70
     0
  9
$DIMSOXD
 70
     0
  9
$DIMSAH
 70
     0
  9
$DIMBLK1
  1

  9
$DIMBLK2
  1

  9
$DIMSTYLE
  2
ISO-25
  9
$DIMCLRD
 70
     0
  9
$DIMCLRE
 70
     0
  9
$DIMCLRT
 70
     0
  9
$DIMTFAC
 40
1.0
  9
$DIMGAP
 40
0.625
  9
$DIMJUST
 70
     0
  9
$DIMSD1
 70
     0
  9
$DIMSD2
 70
     0
  9
$DIMTOLJ
 70
     0
  9
$DIMTZIN
 70
     8
  9
$DIMALTZ
 70
     0
  9
$DIMALTTZ
 70
     0
  9
$DIMUPT
 70
     0
  9
$DIMDEC
 70
     2
  9
$DIMTDEC
 70
     2
  9
$DIMALTU
 70
     2
  9
$DIMALTTD
 70
     3
  9
$DIMTXSTY
  7
Standard
  9
$DIMAUNIT
 70
     0
  9
$DIMADEC
 70
     0
  9
$DIMALTRND
 40
0.0
  9
$DIMAZIN
 70
     0
  9
$DIMDSEP
 70
    44
  9
$DIMATFIT
 70
     3
  9
$DIMFRAC
 70
     0
  9
$DIMLDRBLK
  1

  9
$DIMLUNIT
 70
     2
  9
$DIMLWD
 70
    -2
  9
$DIMLWE
 70
    -2
  9
$DIMTMOVE
 70
     0
  9
$LUNITS
 70
     2
  9
$LUPREC
 70
     4
  9
$SKETCHINC
 40
1.0
  9
$FILLETRAD
 40
10.0
  9
$AUNITS
 70
     0
  9
$AUPREC
 70
     0
  9
$MENU
  1
.
  9
$ELEVATION
 40
0.0
  9
$PELEVATION
 40
0.0
  9
$THICKNESS
 40
0.0
  9
$LIMCHECK
 70
     0
  9
$CHAMFERA
 40
10.0
  9
$CHAMFERB
 40
10.0
  9
$CHAMFERC
 40
20.0
  9
$CHAMFERD
 40
0.0
  9
$SKPOLY
 70
     0
  9
$TDCREATE
 40
2457529.699811238
  9
$TDUCREATE
 40
2457529.324811238
  9
$TDUPDATE
 40
2457529.69981125
  9
$TDUUPDATE
 40
2457529.32481125
  9
$TDINDWG
 40
0.0000000116
  9
$TDUSRTIMER
 40
0.0000000116
  9
$USRTIMER
 70
     1
  9
$ANGBASE
 50
0.0
  9
$ANGDIR
 70
     0
  9
$PDMODE
 70
     0
  9
$PDSIZE
 40
0.0
  9
$PLINEWID
 40
0.0
  9
$SPLFRAME
 70
     0
  9
$SPLINETYPE
 70
     6
  9
$SPLINESEGS
 70
     8
  9
$HANDSEED
  5
256
  9
$SURFTAB1
 70
     6
  9
$SURFTAB2
 70
     6
  9
$SURFTYPE
 70
     6
  9
$SURFU
 70
     6
  9
$SURFV
 70
     6
  9
$UCSBASE
  2

  9
$UCSNAME
  2

  9
$UCSORG
 10
0.0
 20
0.0
 30
0.0
  9
$UCSXDIR
 10
1.0
 20
0.0
 30
0.0
  9
$UCSYDIR
 10
0.0
 20
1.0
 30
0.0
  9
$UCSORTHOREF
  2

  9
$UCSORTHOVIEW
 70
     0
  9
$UCSORGTOP
 10
0.0
 20
0.0
 30
0.0
  9
$UCSORGBOTTOM
 10
0.0
 20
0.0
 30
0.0
  9
$UCSORGLEFT
 10
0.0
 20
0.0
 30
0.0
  9
$UCSORGRIGHT
 10
0.0
 20
0.0
 30
0.0
  9
$UCSORGFRONT
 10
0.0
 20
0.0
 30
0.0
  9
$UCSORGBACK
 10
0.0
 20
0.0
 30
0.0
  9
$PUCSBASE
  2

  9
$PUCSNAME
  2

  9
$PUCSORG
 10
0.0
 20
0.0
 30
0.0
  9
$PUCSXDIR
 10
1.0
 20
0.0
 30
0.0
  9
$PUCSYDIR
 10
0.0
 20
1.0
 30
0.0
  9
$PUCSORTHOREF
  2

  9
$PUCSORTHOVIEW
 70
     0
  9
$PUCSORGTOP
 10
0.0
 20
0.0
 30
0.0
  9
$PUCSORGBOTTOM
 10
0.0
 20
0.0
 30
0.0
  9
$PUCSORGLEFT
 10
0.0
 20
0.0
 30
0.0
  9
$PUCSORGRIGHT
 10
0.0
 20
0.0
 30
0.0
  9
$PUCSORGFRONT
 10
0.0
 20
0.0
 30
0.0
  9
$PUCSORGBACK
 10
0.0
 20
0.0
 30
0.0
  9
$USERI1
 70
     0
  9
$USERI2
 70
     0
  9
$USERI3
 70
     0
  9
$USERI4
 70
     0
  9
$USERI5
 70
     0
  9
$USERR1
 40
0.0
  9
$USERR2
 40
0.0
  9
$USERR3
 40
0.0
  9
$USERR4
 40
0.0
  9
$USERR5
 40
0.0
  9
$WORLDVIEW
 70
     1
  9
$SHADEDGE
 70
     3
  9
$SHADEDIF
 70
    70
  9
$TILEMODE
 70
     1
  9
$MAXACTVP
 70
    64
  9
$PINSBASE
 10
0.0
 20
0.0
 30
0.0
  9
$PLIMCHECK
 70
     0
  9
$PEXTMIN
 10
1.000000000000000E+20
 20
1.000000000000000E+20
 30
1.000000000000000E+20
  9
$PEXTMAX
 10
-1.000000000000000E+20
 20
-1.000000000000000E+20
 30
-1.000000000000000E+20
  9
$PLIMMIN
 10
0.0
 20
0.0
  9
$PLIMMAX
 10
420.0
 20
297.0
  9
$UNITMODE
 70
     0
  9
$VISRETAIN
 70
     1
  9
$PLINEGEN
 70
     0
  9
$PSLTSCALE
 70
     1
  9
$TREEDEPTH
 70
  3020
  9
$CMLSTYLE
  2
Standard
  9
$CMLJUST
 70
     0
  9
$CMLSCALE
 40
20.0
  9
$PROXYGRAPHICS
 70
     1
  9
$MEASUREMENT
 70
     1
  9
$CELWEIGHT
370
    -1
  9
$ENDCAPS
280
     0
  9
$JOINSTYLE
280
     0
  9
$LWDISPLAY
290
     0
  9
$INSUNITS
 70
     4
  9
$HYPERLINKBASE
  1

  9
$STYLESHEET
  1

  9
$XEDIT
290
     1
  9
$CEPSNTYPE
380
     0
  9
$PSTYLEMODE
290
     1
  9
$FINGERPRINTGUID
  2
{8C5B46AE-3151-455D-965F-163EC686FA8F}
  9
$VERSIONGUID
  2
{FAEB1C32-E019-11D5-929B-00C0DF256EC4}
  9
$EXTNAMES
290
     1
  9
$PSVPSCALE
 40
0.0
  9
$OLESTARTUP
290
     0
  9
$SORTENTS
280
   127
  9
$INDEXCTL
280
     0
  9
$HIDETEXT
280
     1
  9
$XCLIPFRAME
290
     0
  9
$HALOGAP
280
     0
  9
$OBSCOLOR
 70
   257
  9
$OBSLTYPE
280
     0
  9
$INTERSECTIONDISPLAY
280
     0
  9
$INTERSECTIONCOLOR
 70
   257
  9
$DIMASSOC
280
     2
  9
$PROJECTNAME
  1

  0
ENDSEC
  0
SECTION
  2
CLASSES
  0
CLASS
  1
ACDBDICTIONARYWDFLT
  2
AcDbDictionaryWithDefault
  3
ObjectDBX Classes
 90
        0
 91
        4
280
     0
281
     0
  0
CLASS
  1
VISUALSTYLE
  2
AcDbVisualStyle
  3
ObjectDBX Classes
 90
     4095
 91
        4
280
     0
281
     0
  0
ENDSEC
  0
SECTION
  2
TABLES
  0
TABLE
  2
VPORT
  5
8
330
0
100
AcDbSymbolTable
 70
     1
  0
VPORT
  5
29
330
8
100
AcDbSymbolTableRecord
100
AcDbViewportTableRecord
  2
*Active
 70
     0
 10
0.0
 20
0.0
 11
1.0
 21
1.0
 12
0.0
 22
0.0
 13
0.0
 23
0.0
 14
10.0
 24
10.0
 15
10.0
 25
10.0
 16
0.0
 26
0.0
 36
1.0
 17
0.0
 27
0.0
 37
0.0
 40
1306.8
 41
1.414141414141414
 42
50.0
 43
0.0
 44
0.0
 50
0.0
 51
0.0
 71
     0
 72
 10000
 73
     1
 74
     3
 75
     0
 76
     0
 77
     0
 78
     0
281
     0
 65
     1
110
0.0
120
0.0
130
0.0
111
1.0
121
0.0
131
0.0
112
0.0
122
1.0
132
0.0
 79
     0
146
0.0
  0
ENDTAB
  0
TABLE
  2
LTYPE
  5
5
330
0
100
AcDbSymbolTable
 70
     4
  0
LTYPE
  5
14
330
5
100
AcDbSymbolTableRecord
100
AcDbLinetypeTableRecord
  2
ByBlock
 70
     0
  3

 72
    65
 73
     0
 40
0.0
  0
LTYPE
  5
15
330
5
100
AcDbSymbolTableRecord
100
AcDbLinetypeTableRecord
  2
ByLayer
 70
     0
  3

 72
    65
 73
     0
 40
0.0
  0
LTYPE
  5
16
330
5
100
AcDbSymbolTableRecord
100
AcDbLinetypeTableRecord
  2
Continuous
 70
     0
  3
Solid line
 72
    65
 73
     0
 40
0.0
  0
LTYPE
  5
3C
330
5
100
AcDbSymbolTableRecord
100
AcDbLinetypeTableRecord
  2
JWW_DASHED3
 70
     0
  3
---  ------  ------  ------  ---
 72
    65
 73
     2
 40
3.386666666666667
 49
2.54
 74
     0
 49
-0.8466666666666667
 74
     0
  0
LTYPE
  5
3D
330
5
100
AcDbSymbolTableRecord
100
AcDbLinetypeTableRecord
  2
JWW_CENTER1
 70
     0
  3
-----  --  ----------  --  -----
 72
    65
 73
     4
 40
6.773333333333333
 49
4.233333333333333
 74
     0
 49
-0.8466666666666667
 74
     0
 49
0.8466666666666667
 74
     0
 49
-0.8466666666666667
 74
     0
  0
LTYPE
  5
3E
330
5
100
AcDbSymbolTableRecord
100
AcDbLinetypeTableRecord
  2
JWW_PHANTOM2
 70
     0
  3
------------  -  -  ------------
 72
    65
 73
     6
 40
13.54666666666667
 49
10.16
 74
     0
 49
-0.8466666666666667
 74
     0
 49
0.4233333333333333
 74
     0
 49
-0.8466666666666667
 74
     0
 49
0.4233333333333333
 74
     0
 49
-0.8466666666666667
 74
     0
  0
ENDTAB
  0
TABLE
  2
LAYER
  5
2
330
0
100
AcDbSymbolTable
 70
     6
  0
LAYER
  5
10
330
2
100
AcDbSymbolTableRecord
100
AcDbLayerTableRecord
  2
0
 70
     0
 62
     7
  6
Continuous
370
    -3
390
F
  0
LAYER
  5
3F
330
2
100
AcDbSymbolTableRecord
100
AcDbLayerTableRecord
  2
F-5
 70
     0
 62
     7
  6
Continuous
370
    -3
390
F
  0
LAYER
  5
40
330
2
100
AcDbSymbolTableRecord
100
AcDbLayerTableRecord
  2
0-E
 70
     0
 62
     7
  6
Continuous
370
    -3
390
F
  0
LAYER
  5
41
330
2
100
AcDbSymbolTableRecord
100
AcDbLayerTableRecord
  2
0-1
 70
     0
 62
     7
  6
Continuous
370
    -3
390
F
  0
LAYER
  5
42
330
2
100
AcDbSymbolTableRecord
100
AcDbLayerTableRecord
  2
0-F
 70
     0
 62
     7
  6
Continuous
370
    -3
390
F
  0
LAYER
  5
43
330
2
100
AcDbSymbolTableRecord
100
AcDbLayerTableRecord
  2
0-0
 70
     0
 62
     7
  6
Continuous
370
    -3
390
F
  0
ENDTAB
  0
TABLE
  2
STYLE
  5
3
330
0
100
AcDbSymbolTable
 70
     2
  0
STYLE
  5
11
330
3
100
AcDbSymbolTableRecord
100
AcDbTextStyleTableRecord
  2
Standard
 70
     0
 40
0.0
 41
1.0
 50
0.0
 71
     0
 42
2.5
  3
txt
  4

1001
ACAD
1000

1071
        0
  0
STYLE
  5
3B
330
3
100
AcDbSymbolTableRecord
100
AcDbTextStyleTableRecord
  2
ＭＳ ゴシック
 70
     0
 40
1.0
 41
1.0
 50
0.0
 71
     0
 42
10.0
  3

  4

1001
ACAD
1000
MS Gothic
1071
    32817
  0
ENDTAB
  0
TABLE
  2
VIEW
  5
6
330
0
100
AcDbSymbolTable
 70
     0
  0
ENDTAB
  0
TABLE
  2
UCS
  5
7
330
0
100
AcDbSymbolTable
 70
     0
  0
ENDTAB
  0
TABLE
  2
APPID
  5
9
330
0
100
AcDbSymbolTable
 70
     1
  0
APPID
  5
12
330
9
100
AcDbSymbolTableRecord
100
AcDbRegAppTableRecord
  2
ACAD
 70
     0
  0
ENDTAB
  0
TABLE
  2
DIMSTYLE
  5
A
330
0
100
AcDbSymbolTable
 70
     1
100
AcDbDimStyleTable
  0
DIMSTYLE
105
27
330
A
100
AcDbSymbolTableRecord
100
AcDbDimStyleTableRecord
  2
ISO-25
 70
     0
 41
2.5
 42
0.625
 43
3.75
 44
1.25
 73
     0
 74
     0
 77
     1
 78
     8
140
2.5
141
2.5
143
0.03937007874016
147
0.625
171
     3
172
     1
271
     2
272
     2
274
     3
278
    44
283
     0
284
     8
340
11
  0
ENDTAB
  0
TABLE
  2
BLOCK_RECORD
  5
1
330
0
100
AcDbSymbolTable
 70
     1
  0
BLOCK_RECORD
  5
1F
330
1
100
AcDbSymbolTableRecord
100
AcDbBlockTableRecord
  2
*Model_Space
340
22
  0
BLOCK_RECORD
  5
1B
330
1
100
AcDbSymbolTableRecord
100
AcDbBlockTableRecord
  2
*Paper_Space
340
1E
  0
BLOCK_RECORD
  5
23
330
1
100
AcDbSymbolTableRecord
100
AcDbBlockTableRecord
  2
*Paper_Space0
340
26
  0
ENDTAB
  0
ENDSEC
  0
SECTION
  2
BLOCKS
  0
BLOCK
  5
20
330
1F
100
AcDbEntity
  8
0
100
AcDbBlockBegin
  2
*Model_Space
 70
     0
 10
0.0
 20
0.0
 30
0.0
  3
*Model_Space
  1

  0
ENDBLK
  5
21
330
1F
100
AcDbEntity
  8
0
100
AcDbBlockEnd
  0
BLOCK
  5
1C
330
1B
100
AcDbEntity
 67
     1
  8
0
100
AcDbBlockBegin
  2
*Paper_Space
 70
     0
 10
0.0
 20
0.0
 30
0.0
  3
*Paper_Space
  1

  0
ENDBLK
  5
1D
330
1B
100
AcDbEntity
 67
     1
  8
0
100
AcDbBlockEnd
  0
BLOCK
  5
24
330
23
100
AcDbEntity
  8
0
100
AcDbBlockBegin
  2
*Paper_Space0
 70
     0
 10
0.0
 20
0.0
 30
0.0
  3
*Paper_Space0
  1

  0
ENDBLK
  5
25
330
23
100
AcDbEntity
  8
0
100
AcDbBlockEnd
  0
ENDSEC
  0
SECTION
  2
ENTITIES
  0
TEXT
  5
44
330
1F
100
AcDbEntity
  8
F-5
  6
Continuous
 62
     3
370
     9
100
AcDbText
 10
-334.6233825961187
 20
-528.1064930799345
 30
0.0
 40
12.192
  1
タイル用　充填深さ40㎜　鋳鉄製　側溝用
 41
0.9460526315789475
  7
ＭＳ ゴシック
100
AcDbText
  0
LINE
  5
45
330
1F
100
AcDbEntity
  8
0-E
  6
Continuous
 62
     7
370
     9
100
AcDbLine
 10
435.249307993296
 20
297.1893607474664
 30
0.0
 11
428.8049852525864
 21
307.3121238914698
 31
0.0
  0
LINE
  5
46
330
1F
100
AcDbEntity
  8
0-E
  6
Continuous
 62
     7
370
     9
100
AcDbLine
 10
435.249307993296
 20
297.1893607474664
 30
0.0
 11
431.6446046571473
 21
308.6351351351353
 31
0.0
  0
LINE
  5
47
330
1F
100
AcDbEntity
  8
0-E
  6
Continuous
 62
     7
370
     9
100
AcDbLine
 10
488.3673136943098
 20
326.1893079603043
 30
0.0
 11
491.9720170304581
 21
337.6350823479731
 31
0.0
  0
LINE
  5
48
330
1F
100
AcDbEntity
  8
0-E
  6
Continuous
 62
     7
370
     9
100
AcDbLine
 10
488.3673136943098
 20
326.1893079603043
 30
0.0
 11
494.811636435019
 21
336.3120711043076
 31
0.0
  0
LINE
  5
49
330
1F
100
AcDbEntity
  8
0-E
  6
Continuous
 62
     7
370
     9
100
AcDbLine
 10
402.3190266377219
 20
367.8688634923989
 30
0.0
 11
435.249307993296
 21
297.1893607474664
 31
0.0
  0
LINE
  5
4A
330
1F
100
AcDbEntity
  8
0-1
  6
Continuous
 62
     2
370
     9
100
AcDbLine
 10
465.6674812935494
 20
247.1891957875846
 30
0.0
 11
468.867472055796
 21
247.1891957875846
 31
0.0
  0
LINE
  5
4B
330
1F
100
AcDbEntity
  8
0-1
  6
Continuous
 62
     2
370
     9
100
AcDbLine
 10
405.6674812935494
 20
293.9892710092907
 30
0.0
 11
462.467391555374
 21
293.9892710092907
 31
0.0
  0
LINE
  5
4C
330
1F
100
AcDbEntity
  8
0-1
  6
Continuous
 62
     2
370
     9
100
AcDbLine
 10
468.867472055796
 20
247.1891957875846
 30
0.0
 11
468.867472055796
 21
290.7892802470441
 31
0.0
  0
LINE
  5
4D
330
1F
100
AcDbEntity
  8
0-1
  6
Continuous
 62
     2
370
     9
100
AcDbLine
 10
465.6674812935494
 20
247.1891957875846
 30
0.0
 11
465.6674812935494
 21
290.7892802470441
 31
0.0
  0
LINE
  5
4E
330
1F
100
AcDbEntity
  8
0-1
  6
Continuous
 62
     2
370
     9
100
AcDbLine
 10
405.6674812935494
 20
293.9892710092907
 30
0.0
 11
405.6674812935494
 21
297.1893607474664
 31
0.0
  0
LINE
  5
4F
330
1F
100
AcDbEntity
  8
0-1
  6
Continuous
 62
     2
370
     9
100
AcDbLine
 10
453.867472055796
 20
297.1893607474664
 30
0.0
 11
453.867472055796
 21
306.1893409522806
 31
0.0
  0
LINE
  5
50
330
1F
100
AcDbEntity
  8
0-1
  6
Continuous
 62
     2
370
     9
100
AcDbLine
 10
483.867472055796
 20
326.1893079603043
 30
0.0
 11
492.8674522606102
 21
326.1893079603043
 31
0.0
  0
LINE
  5
51
330
1F
100
AcDbEntity
  8
0-1
  6
Continuous
 62
     2
370
     9
100
AcDbLine
 10
405.6674812935494
 20
0.3893020217484491
 30
0.0
 11
405.6674812935494
 21
-2.810688740498108
 31
0.0
  0
LINE
  5
52
330
1F
100
AcDbEntity
  8
0-1
  6
Continuous
 62
     2
370
     9
100
AcDbLine
 10
465.6674812935494
 20
47.18927826752554
 30
0.0
 11
465.6674812935494
 21
3.589243296030531
 31
0.0
  0
LINE
  5
53
330
1F
100
AcDbEntity
  8
0-1
  6
Continuous
 62
     2
370
     9
100
AcDbLine
 10
468.867472055796
 20
47.18927826752554
 30
0.0
 11
468.867472055796
 21
3.589243296030531
 31
0.0
  0
LINE
  5
54
330
1F
100
AcDbEntity
  8
0-1
  6
Continuous
 62
     2
370
     9
100
AcDbLine
 10
405.6674812935494
 20
0.3893020217484491
 30
0.0
 11
462.467391555374
 21
0.3893020217484491
 31
0.0
  0
LINE
  5
55
330
1F
100
AcDbEntity
  8
0-1
  6
Continuous
 62
     2
370
     9
100
AcDbLine
 10
465.6674812935494
 20
47.18927826752554
 30
0.0
 11
468.867472055796
 21
47.18927826752554
 31
0.0
  0
LINE
  5
56
330
1F
100
AcDbEntity
  8
0-1
  6
Continuous
 62
     2
370
     9
100
AcDbLine
 10
-599.3325681944151
 20
-31.81068544130051
 30
0.0
 11
-590.3325385016363
 21
-31.81068544130051
 31
0.0
  0
LINE
  5
57
330
1F
100
AcDbEntity
  8
0-1
  6
Continuous
 62
     2
370
     9
100
AcDbLine
 10
-590.3325385016363
 20
-7.31067884290519
 30
0.0
 11
-590.3325385016363
 21
-31.81068544130051
 31
0.0
  0
LINE
  5
58
330
1F
100
AcDbEntity
  8
0-1
  6
Continuous
 62
     2
370
     9
100
AcDbLine
 10
-599.3325681944151
 20
-7.314044024493114
 30
0.0
 11
-599.3325681944151
 21
-31.81068544130051
 31
0.0
  0
LINE
  5
59
330
1F
100
AcDbEntity
  8
0-1
  6
Continuous
 62
     2
370
     9
100
AcDbLine
 10
-694.8325615960198
 20
247.1893937394427
 30
0.0
 11
-694.8325615960198
 21
297.1893607474664
 31
0.0
  0
LINE
  5
5A
330
1F
100
AcDbEntity
  8
0-1
  6
Continuous
 62
     2
370
     9
100
AcDbLine
 10
-694.8325615960198
 20
247.1893937394427
 30
0.0
 11
-693.8325582968222
 21
247.1893937394427
 31
0.0
  0
LINE
  5
5B
330
1F
100
AcDbEntity
  8
0-1
  6
Continuous
 62
     2
370
     9
100
AcDbLine
 10
135.1674548999684
 20
167.1892287795609
 30
0.0
 11
145.1674878919447
 21
167.1892287795609
 31
0.0
  0
LINE
  5
5C
330
1F
100
AcDbEntity
  8
0-1
  6
Continuous
 62
     2
370
     9
100
AcDbLine
 10
145.1674878919447
 20
167.1892287795609
 30
0.0
 11
125.1674219079921
 21
127.1891957875846
 31
0.0
  0
LINE
  5
5D
330
1F
100
AcDbEntity
  8
0-1
  6
Continuous
 62
     2
370
     9
100
AcDbLine
 10
125.1674219079921
 20
127.1891957875846
 30
0.0
 11
135.1674548999684
 21
127.1891957875846
 31
0.0
  0
LINE
  5
5E
330
1F
100
AcDbEntity
  8
0-1
  6
Continuous
 62
     2
370
     9
100
AcDbLine
 10
-694.8325615960198
 20
297.1893607474664
 30
0.0
 11
135.1674548999684
 21
297.1893607474664
 31
0.0
  0
LINE
  5
5F
330
1F
100
AcDbEntity
  8
0-1
  6
Continuous
 62
     2
370
     9
100
AcDbLine
 10
135.1674548999684
 20
167.1892287795609
 30
0.0
 11
135.1674548999684
 21
317.18932775549
 31
0.0
  0
LINE
  5
60
330
1F
100
AcDbEntity
  8
0-1
  6
Continuous
 62
     2
370
     9
100
AcDbLine
 10
-694.8325615960198
 20
47.18917929159647
 30
0.0
 11
-694.8325615960198
 21
-2.810787716427171
 31
0.0
  0
LINE
  5
61
330
1F
100
AcDbEntity
  8
0-1
  6
Continuous
 62
     2
370
     9
100
AcDbLine
 10
-694.8325615960198
 20
47.18917929159647
 30
0.0
 11
-693.8325582968222
 21
47.18917929159647
 31
0.0
  0
LINE
  5
62
330
1F
100
AcDbEntity
  8
0-1
  6
Continuous
 62
     2
370
     9
100
AcDbLine
 10
-694.8325615960198
 20
-2.810787716427171
 30
0.0
 11
135.1674548999684
 21
-2.810787716427171
 31
0.0
  0
LINE
  5
63
330
1F
100
AcDbEntity
  8
0-1
  6
Continuous
 62
     2
370
     9
100
AcDbLine
 10
-694.8325615960198
 20
0.3893020217484491
 30
0.0
 11
135.1674548999684
 21
0.3893020217484491
 31
0.0
  0
LINE
  5
64
330
1F
100
AcDbEntity
  8
0-1
  6
Continuous
 62
     2
370
     9
100
AcDbLine
 10
135.1674548999684
 20
-22.81080421241541
 30
0.0
 11
135.1674548999684
 21
127.1891957875846
 31
0.0
  0
LINE
  5
65
330
1F
100
AcDbEntity
  8
0-1
  6
JWW_DASHED3
 62
     2
370
     9
100
AcDbLine
 10
-693.8325582968222
 20
247.1893937394427
 30
0.0
 11
135.1674548999684
 21
247.1893937394427
 31
0.0
  0
LINE
  5
66
330
1F
100
AcDbEntity
  8
0-1
  6
JWW_DASHED3
 62
     2
370
     9
100
AcDbLine
 10
-693.8325582968222
 20
47.18917929159647
 30
0.0
 11
135.1674548999684
 21
47.18917929159647
 31
0.0
  0
LINE
  5
67
330
1F
100
AcDbEntity
  8
0-F
  6
Continuous
 62
     7
370
     9
100
AcDbLine
 10
405.6674812935494
 20
-62.81068874049811
 30
0.0
 11
465.6673823176206
 21
-62.81068874049811
 31
0.0
  0
LINE
  5
68
330
1F
100
AcDbEntity
  8
0-F
  6
Continuous
 62
     7
370
     9
100
AcDbLine
 10
405.6674812935494
 20
-6.810701937288627
 30
0.0
 11
405.6674812935494
 21
-104.0106564083613
 31
0.0
  0
LINE
  5
69
330
1F
100
AcDbEntity
  8
0-F
  6
Continuous
 62
     7
370
     9
100
AcDbLine
 10
405.6674812935494
 20
-62.81068874049811
 30
0.0
 11
417.5647838695631
 21
-61.24439466321769
 31
0.0
  0
LINE
  5
6A
330
1F
100
AcDbEntity
  8
0-F
  6
Continuous
 62
     7
370
     9
100
AcDbLine
 10
405.6674812935494
 20
-62.81068874049811
 30
0.0
 11
417.5647838695631
 21
-64.37698281777853
 31
0.0
  0
LINE
  5
6B
330
1F
100
AcDbEntity
  8
0-F
  6
Continuous
 62
     7
370
     9
100
AcDbLine
 10
465.6673823176206
 20
-62.81068874049811
 30
0.0
 11
453.7700797416069
 21
-61.24439466321769
 31
0.0
  0
LINE
  5
6C
330
1F
100
AcDbEntity
  8
0-F
  6
Continuous
 62
     7
370
     9
100
AcDbLine
 10
465.6673823176206
 20
-62.81068874049811
 30
0.0
 11
453.7700797416069
 21
-64.37698281777853
 31
0.0
  0
LINE
  5
6D
330
1F
100
AcDbEntity
  8
0-F
  6
Continuous
 62
     7
370
     9
100
AcDbLine
 10
405.6674812935494
 20
-102.81067224451
 30
0.0
 11
417.5647838695631
 21
-101.2443781672296
 31
0.0
  0
LINE
  5
6E
330
1F
100
AcDbEntity
  8
0-F
  6
Continuous
 62
     7
370
     9
100
AcDbLine
 10
405.6674812935494
 20
-102.81067224451
 30
0.0
 11
417.5647838695631
 21
-104.3769663217904
 31
0.0
  0
LINE
  5
6F
330
1F
100
AcDbEntity
  8
0-F
  6
Continuous
 62
     7
370
     9
100
AcDbLine
 10
480.7647746318098
 20
-104.3769663217904
 30
0.0
 11
456.9701694797827
 21
-101.2443781672296
 31
0.0
  0
LINE
  5
70
330
1F
100
AcDbEntity
  8
0-F
  6
Continuous
 62
     7
370
     9
100
AcDbLine
 10
480.7647746318098
 20
-101.2443781672296
 30
0.0
 11
456.9701694797827
 21
-104.3769663217904
 31
0.0
  0
LINE
  5
71
330
1F
100
AcDbEntity
  8
0-F
  6
Continuous
 62
     7
370
     9
100
AcDbLine
 10
492.8674522606102
 20
-102.81067224451
 30
0.0
 11
480.9701496845969
 21
-104.3769663217904
 31
0.0
  0
LINE
  5
72
330
1F
100
AcDbEntity
  8
0-F
  6
Continuous
 62
     7
370
     9
100
AcDbLine
 10
465.6673823176206
 20
-15.81073163006738
 30
0.0
 11
465.6673823176206
 21
-64.01067290434958
 31
0.0
  0
LINE
  5
73
330
1F
100
AcDbEntity
  8
0-F
  6
Continuous
 62
     7
370
     9
100
AcDbLine
 10
468.867472055796
 20
-15.81073163006738
 30
0.0
 11
468.867472055796
 21
-104.0106564083613
 31
0.0
  0
LINE
  5
74
330
1F
100
AcDbEntity
  8
0-F
  6
Continuous
 62
     7
370
     9
100
AcDbLine
 10
492.8674522606102
 20
-35.81069863809103
 30
0.0
 11
492.8674522606102
 21
-104.0106564083613
 31
0.0
  0
LINE
  5
75
330
1F
100
AcDbEntity
  8
0-F
  6
Continuous
 62
     7
370
     9
100
AcDbLine
 10
405.6672833416915
 20
82.67106009818428
 30
0.0
 11
487.9889287175361
 21
82.67106009818428
 31
0.0
  0
LINE
  5
76
330
1F
100
AcDbEntity
  8
0-F
  6
Continuous
 62
     7
370
     9
100
AcDbLine
 10
405.6672833416915
 20
82.18929476351366
 30
0.0
 11
405.6672833416915
 21
83.87104426203564
 31
0.0
  0
LINE
  5
77
330
1F
100
AcDbEntity
  8
0-F
  6
Continuous
 62
     7
370
     9
100
AcDbLine
 10
445.6676132614548
 20
82.18929476351366
 30
0.0
 11
445.6676132614548
 21
83.87104426203564
 31
0.0
  0
LINE
  5
78
330
1F
100
AcDbEntity
  8
0-F
  6
Continuous
 62
     7
370
     9
100
AcDbLine
 10
405.6672833416915
 20
82.67106009818428
 30
0.0
 11
417.5645859177048
 21
84.2373541754647
 31
0.0
  0
LINE
  5
79
330
1F
100
AcDbEntity
  8
0-F
  6
Continuous
 62
     7
370
     9
100
AcDbLine
 10
405.6672833416915
 20
82.67106009818428
 30
0.0
 11
417.5645859177048
 21
81.10476602090387
 31
0.0
  0
LINE
  5
7A
330
1F
100
AcDbEntity
  8
0-F
  6
Continuous
 62
     7
370
     9
100
AcDbLine
 10
445.6676132614548
 20
82.67106009818428
 30
0.0
 11
433.7703106854415
 21
84.2373541754647
 31
0.0
  0
LINE
  5
7B
330
1F
100
AcDbEntity
  8
0-F
  6
Continuous
 62
     7
370
     9
100
AcDbLine
 10
445.6676132614548
 20
82.67106009818428
 30
0.0
 11
433.7703106854415
 21
81.10476602090387
 31
0.0
  0
LINE
  5
7C
330
1F
100
AcDbEntity
  8
0-F
  6
Continuous
 62
     7
370
     9
100
AcDbLine
 10
451.6675340807114
 20
82.18929476351366
 30
0.0
 11
451.6675340807114
 21
83.87104426203564
 31
0.0
  0
LINE
  5
7D
330
1F
100
AcDbEntity
  8
0-F
  6
Continuous
 62
     7
370
     9
100
AcDbLine
 10
460.6675142855261
 20
82.67106009818428
 30
0.0
 11
472.5648168615394
 21
84.2373541754647
 31
0.0
  0
LINE
  5
7E
330
1F
100
AcDbEntity
  8
0-E
  6
Continuous
 62
     7
370
     9
100
AcDbLine
 10
519.3115440574852
 20
392.6061153927367
 30
0.0
 11
488.3673136943098
 21
326.1893079603043
 31
0.0
  0
LINE
  5
7F
330
1F
100
AcDbEntity
  8
0-E
  6
Continuous
 62
     7
370
     9
100
AcDbLine
 10
519.3115440574852
 20
392.6061153927367
 30
0.0
 11
678.546987997519
 21
392.6061153927367
 31
0.0
  0
LINE
  5
80
330
1F
100
AcDbEntity
  8
0-F
  6
Continuous
 62
     7
370
     9
100
AcDbLine
 10
401.667468096759
 20
292.1892947635137
 30
0.0
 11
304.4674641377219
 21
292.1892947635137
 31
0.0
  0
LINE
  5
81
330
1F
100
AcDbEntity
  8
0-F
  6
Continuous
 62
     7
370
     9
100
AcDbLine
 10
345.6674812935494
 20
292.1892947635137
 30
0.0
 11
345.6674812935494
 21
2.189278267525538
 31
0.0
  0
LINE
  5
82
330
1F
100
AcDbEntity
  8
0-F
  6
Continuous
 62
     7
370
     9
100
AcDbLine
 10
401.667468096759
 20
281.1893079603043
 30
0.0
 11
344.4674971296981
 21
281.1893079603043
 31
0.0
  0
LINE
  5
83
330
1F
100
AcDbEntity
  8
0-F
  6
Continuous
 62
     7
370
     9
100
AcDbLine
 10
401.667468096759
 20
274.6893607474664
 30
0.0
 11
344.4674971296981
 21
274.6893607474664
 31
0.0
  0
LINE
  5
84
330
1F
100
AcDbEntity
  8
0-F
  6
Continuous
 62
     7
370
     9
100
AcDbLine
 10
401.667468096759
 20
263.6892749683279
 30
0.0
 11
344.4674971296981
 21
263.6892749683279
 31
0.0
  0
LINE
  5
85
330
1F
100
AcDbEntity
  8
0-F
  6
Continuous
 62
     7
370
     9
100
AcDbLine
 10
401.667468096759
 20
257.18932775549
 30
0.0
 11
344.4674971296981
 21
257.18932775549
 31
0.0
  0
LINE
  5
86
330
1F
100
AcDbEntity
  8
0-F
  6
Continuous
 62
     7
370
     9
100
AcDbLine
 10
401.667468096759
 20
2.189278267525538
 30
0.0
 11
304.4674641377219
 21
2.189278267525538
 31
0.0
  0
LINE
  5
87
330
1F
100
AcDbEntity
  8
0-F
  6
Continuous
 62
     7
370
     9
100
AcDbLine
 10
401.667468096759
 20
247.1891957875846
 30
0.0
 11
344.4674971296981
 21
247.1891957875846
 31
0.0
  0
LINE
  5
88
330
1F
100
AcDbEntity
  8
0-F
  6
Continuous
 62
     7
370
     9
100
AcDbLine
 10
345.6674812935494
 20
247.1891957875846
 30
0.0
 11
344.101187216269
 21
235.2918932115712
 31
0.0
  0
LINE
  5
89
330
1F
100
AcDbEntity
  8
0-F
  6
Continuous
 62
     7
370
     9
100
AcDbLine
 10
401.667468096759
 20
47.18927826752554
 30
0.0
 11
344.4674971296981
 21
47.18927826752554
 31
0.0
  0
LINE
  5
8A
330
1F
100
AcDbEntity
  8
0-F
  6
Continuous
 62
     7
370
     9
100
AcDbLine
 10
347.2337753708298
 20
59.08663033150356
 30
0.0
 11
344.101187216269
 21
35.29192620354752
 31
0.0
  0
LINE
  5
8B
330
1F
100
AcDbEntity
  8
0-F
  6
Continuous
 62
     7
370
     9
100
AcDbLine
 10
344.101187216269
 20
59.08663033150356
 30
0.0
 11
347.2337753708298
 21
35.29192620354752
 31
0.0
  0
LINE
  5
8C
330
1F
100
AcDbEntity
  8
0-F
  6
Continuous
 62
     7
370
     9
100
AcDbLine
 10
345.6674812935494
 20
2.189278267525538
 30
0.0
 11
344.101187216269
 21
14.08663033150356
 31
0.0
  0
LINE
  5
8D
330
1F
100
AcDbEntity
  8
0-F
  6
Continuous
 62
     7
370
     9
100
AcDbLine
 10
345.6674812935494
 20
2.189278267525538
 30
0.0
 11
347.2337753708298
 21
14.08663033150356
 31
0.0
  0
LINE
  5
8E
330
1F
100
AcDbEntity
  8
0-F
  6
Continuous
 62
     7
370
     9
100
AcDbLine
 10
345.6674812935494
 20
247.1891957875846
 30
0.0
 11
347.2337753708298
 21
235.2918932115712
 31
0.0
  0
LINE
  5
8F
330
1F
100
AcDbEntity
  8
0-F
  6
Continuous
 62
     7
370
     9
100
AcDbLine
 10
401.667468096759
 20
297.1893607474664
 30
0.0
 11
264.4674311457456
 21
297.1893607474664
 31
0.0
  0
LINE
  5
90
330
1F
100
AcDbEntity
  8
0-F
  6
Continuous
 62
     7
370
     9
100
AcDbLine
 10
401.667468096759
 20
293.9892710092907
 30
0.0
 11
304.4674641377219
 21
293.9892710092907
 31
0.0
  0
LINE
  5
91
330
1F
100
AcDbEntity
  8
0-F
  6
Continuous
 62
     7
370
     9
100
AcDbLine
 10
305.6674483015731
 20
297.1893607474664
 30
0.0
 11
304.1011542242927
 21
309.0866633234799
 31
0.0
  0
LINE
  5
92
330
1F
100
AcDbEntity
  8
0-F
  6
Continuous
 62
     7
370
     9
100
AcDbLine
 10
305.6674483015731
 20
297.1893607474664
 30
0.0
 11
307.2337423788535
 21
309.0866633234799
 31
0.0
  0
LINE
  5
93
330
1F
100
AcDbEntity
  8
0-F
  6
Continuous
 62
     7
370
     9
100
AcDbLine
 10
305.6674483015731
 20
339.5668945312502
 30
0.0
 11
305.6674483015731
 21
-43.07508643897791
 31
0.0
  0
LINE
  5
94
330
1F
100
AcDbEntity
  8
0-F
  6
Continuous
 62
     7
370
     9
100
AcDbLine
 10
305.6674483015731
 20
292.1892947635137
 30
0.0
 11
304.1011542242927
 21
280.2918932115712
 31
0.0
  0
LINE
  5
95
330
1F
100
AcDbEntity
  8
0-F
  6
Continuous
 62
     7
370
     9
100
AcDbLine
 10
305.6674483015731
 20
292.1892947635137
 30
0.0
 11
307.2337423788535
 21
280.2918932115712
 31
0.0
  0
LINE
  5
96
330
1F
100
AcDbEntity
  8
0-F
  6
Continuous
 62
     7
370
     9
100
AcDbLine
 10
401.667468096759
 20
0.3893020217484491
 30
0.0
 11
304.4674641377219
 21
0.3893020217484491
 31
0.0
  0
LINE
  5
97
330
1F
100
AcDbEntity
  8
0-F
  6
Continuous
 62
     7
370
     9
100
AcDbLine
 10
305.6674483015731
 20
2.189278267525538
 30
0.0
 11
304.1011542242927
 21
14.08663033150356
 31
0.0
  0
LINE
  5
98
330
1F
100
AcDbEntity
  8
0-F
  6
Continuous
 62
     7
370
     9
100
AcDbLine
 10
305.6674483015731
 20
2.189278267525538
 30
0.0
 11
307.2337423788535
 21
14.08663033150356
 31
0.0
  0
LINE
  5
99
330
1F
100
AcDbEntity
  8
0-F
  6
Continuous
 62
     7
370
     9
100
AcDbLine
 10
401.667468096759
 20
-2.810688740498108
 30
0.0
 11
264.4674311457456
 21
-2.810688740498108
 31
0.0
  0
LINE
  5
9A
330
1F
100
AcDbEntity
  8
0-F
  6
Continuous
 62
     7
370
     9
100
AcDbLine
 10
305.6674483015731
 20
-2.810688740498108
 30
0.0
 11
304.1011542242927
 21
-14.70804080447613
 31
0.0
  0
LINE
  5
9B
330
1F
100
AcDbEntity
  8
0-F
  6
Continuous
 62
     7
370
     9
100
AcDbLine
 10
305.6674483015731
 20
-2.810688740498108
 30
0.0
 11
307.2337423788535
 21
-14.70804080447613
 31
0.0
  0
LINE
  5
9C
330
1F
100
AcDbEntity
  8
0-F
  6
Continuous
 62
     7
370
     9
100
AcDbLine
 10
265.6674153095969
 20
-2.810688740498108
 30
0.0
 11
265.6674153095969
 21
297.1893607474664
 31
0.0
  0
LINE
  5
9D
330
1F
100
AcDbEntity
  8
0-F
  6
Continuous
 62
     7
370
     9
100
AcDbLine
 10
265.6674153095969
 20
-2.810688740498108
 30
0.0
 11
264.1011212323165
 21
9.086663323479911
 31
0.0
  0
LINE
  5
9E
330
1F
100
AcDbEntity
  8
0-F
  6
Continuous
 62
     7
370
     9
100
AcDbLine
 10
265.6674153095969
 20
-2.810688740498108
 30
0.0
 11
267.2337093868773
 21
9.086663323479911
 31
0.0
  0
LINE
  5
9F
330
1F
100
AcDbEntity
  8
0-F
  6
Continuous
 62
     7
370
     9
100
AcDbLine
 10
265.6674153095969
 20
297.1893607474664
 30
0.0
 11
264.1011212323165
 21
285.2919591955239
 31
0.0
  0
LINE
  5
A0
330
1F
100
AcDbEntity
  8
0-F
  6
Continuous
 62
     7
370
     9
100
AcDbLine
 10
265.6674153095969
 20
297.1893607474664
 30
0.0
 11
267.2337093868773
 21
285.2919591955239
 31
0.0
  0
LINE
  5
A1
330
1F
100
AcDbEntity
  8
0-0
  6
Continuous
 62
     3
370
     9
100
AcDbLine
 10
-690.3931942501583
 20
-252.4159562394425
 30
0.0
 11
-693.8325582968222
 21
-199.3512738202068
 31
0.0
  0
LINE
  5
A2
330
1F
100
AcDbEntity
  8
0-0
  6
Continuous
 62
     3
370
     9
100
AcDbLine
 10
-683.2636611526076
 20
-253.3512787690032
 30
0.0
 11
-689.3952694454708
 21
-253.3512787690032
 31
0.0
  0
LINE
  5
A3
330
1F
100
AcDbEntity
  8
0-0
  6
Continuous
 62
     3
370
     9
100
AcDbLine
 10
-94.83261108398438
 20
-199.3512738202068
 30
0.0
 11
-693.8325582968222
 21
-199.3512738202068
 31
0.0
  0
LINE
  5
A4
330
1F
100
AcDbEntity
  8
0-0
  6
Continuous
 62
     3
370
     9
100
AcDbLine
 10
-676.2534435375317
 20
-207.3512754698056
 30
0.0
 11
-112.4117258432749
 21
-207.3512754698056
 31
0.0
  0
LINE
  5
A5
330
1F
100
AcDbEntity
  8
0-0
  6
Continuous
 62
     3
370
     9
100
AcDbLine
 10
-679.2458322885874
 20
-210.1375221046239
 30
0.0
 11
-682.2662312275654
 21
-252.4225381387246
 31
0.0
  0
LINE
  5
A6
330
1F
100
AcDbEntity
  8
0-0
  6
Continuous
 62
     3
370
     9
100
AcDbLine
 10
-693.8325582968222
 20
-194.3512820682008
 30
0.0
 11
-693.8325582968222
 21
-199.3512738202068
 31
0.0
  0
LINE
  5
A7
330
1F
100
AcDbEntity
  8
0-0
  6
Continuous
 62
     3
370
     9
100
AcDbLine
 10
-692.8325549976246
 20
-193.3512787690032
 30
0.0
 11
-95.83261438318198
 21
-193.3512787690032
 31
0.0
  0
LINE
  5
A8
330
1F
100
AcDbEntity
  8
0-1
  6
Continuous
 62
     2
370
     9
100
AcDbLine
 10
-694.8325615960198
 20
293.9892710092907
 30
0.0
 11
135.1674548999684
 21
293.9892710092907
 31
0.0
  0
LINE
  5
A9
330
1F
100
AcDbEntity
  8
0-0
  6
Continuous
 62
     3
370
     9
100
AcDbLine
 10
-441.2785999194995
 20
-253.3512787690032
 30
0.0
 11
-447.3865529653188
 21
-253.3512787690032
 31
0.0
  0
LINE
  5
AA
330
1F
100
AcDbEntity
  8
0-0
  6
Continuous
 62
     3
370
     9
100
AcDbLine
 10
-450.7306526802681
 20
-210.1848573426942
 30
0.0
 11
-448.3850221376161
 21
-252.4067514780404
 31
0.0
  0
LINE
  5
AB
330
1F
100
AcDbEntity
  8
0-0
  6
Continuous
 62
     3
370
     9
100
AcDbLine
 10
-437.9345002045502
 20
-210.1848573426942
 30
0.0
 11
-440.2801307472022
 21
-252.4067514780404
 31
0.0
  0
LINE
  5
AC
330
1F
100
AcDbEntity
  8
0-0
  6
Continuous
 62
     3
370
     9
100
AcDbLine
 10
-563.2786065178949
 20
-253.3512787690032
 30
0.0
 11
-569.3865595637141
 21
-253.3512787690032
 31
0.0
  0
LINE
  5
AD
330
1F
100
AcDbEntity
  8
0-0
  6
Continuous
 62
     3
370
     9
100
AcDbLine
 10
-572.7306592786634
 20
-210.1848573426942
 30
0.0
 11
-570.3850287360113
 21
-252.4067514780404
 31
0.0
  0
LINE
  5
AE
330
1F
100
AcDbEntity
  8
0-0
  6
Continuous
 62
     3
370
     9
100
AcDbLine
 10
-559.9345068029455
 20
-210.1848573426942
 30
0.0
 11
-562.2801373455976
 21
-252.4067514780404
 31
0.0
  0
LINE
  5
AF
330
1F
100
AcDbEntity
  8
0-0
  6
Continuous
 62
     3
370
     9
100
AcDbLine
 10
-351.9482710554793
 20
-239.3512820682008
 30
0.0
 11
-436.7168983253272
 21
-239.3512820682008
 31
0.0
  0
LINE
  5
B0
330
1F
100
AcDbEntity
  8
0-0
  6
Continuous
 62
     3
370
     9
100
AcDbLine
 10
-451.9482545594911
 20
-239.3512820682008
 30
0.0
 11
-558.7169049237226
 21
-239.3512820682008
 31
0.0
  0
LINE
  5
B1
330
1F
100
AcDbEntity
  8
0-0
  6
Continuous
 62
     3
370
     9
100
AcDbLine
 10
-573.9482611578863
 20
-239.3512820682008
 30
0.0
 11
-681.3325418008341
 21
-239.3512820682008
 31
0.0
  0
LINE
  5
B2
330
1F
100
AcDbEntity
  8
0-0
  6
Continuous
 62
     3
370
     9
100
AcDbLine
 10
-98.27197513064823
 20
-252.4159562394425
 30
0.0
 11
-94.83261108398438
 21
-199.3512738202068
 31
0.0
  0
LINE
  5
B3
330
1F
100
AcDbEntity
  8
0-0
  6
Continuous
 62
     3
370
     9
100
AcDbLine
 10
-105.4015082281988
 20
-253.3512787690032
 30
0.0
 11
-99.26989993533573
 21
-253.3512787690032
 31
0.0
  0
LINE
  5
B4
330
1F
100
AcDbEntity
  8
0-0
  6
Continuous
 62
     3
370
     9
100
AcDbLine
 10
-109.4193370922192
 20
-210.1375221046239
 30
0.0
 11
-106.398938153241
 21
-252.4225381387246
 31
0.0
  0
LINE
  5
B5
330
1F
100
AcDbEntity
  8
0-0
  6
Continuous
 62
     3
370
     9
100
AcDbLine
 10
-94.83261108398438
 20
-194.3512820682008
 30
0.0
 11
-94.83261108398438
 21
-199.3512738202068
 31
0.0
  0
LINE
  5
B6
330
1F
100
AcDbEntity
  8
0-0
  6
Continuous
 62
     3
370
     9
100
AcDbLine
 10
-347.386569461307
 20
-253.3512787690032
 30
0.0
 11
-341.2786164154877
 21
-253.3512787690032
 31
0.0
  0
LINE
  5
B7
330
1F
100
AcDbEntity
  8
0-0
  6
Continuous
 62
     3
370
     9
100
AcDbLine
 10
-337.9343187486803
 20
-210.1848573426942
 30
0.0
 11
-340.2801472431904
 21
-252.4067514780404
 31
0.0
  0
LINE
  5
B8
330
1F
100
AcDbEntity
  8
0-0
  6
Continuous
 62
     3
370
     9
100
AcDbLine
 10
-350.7306691762562
 20
-210.1848573426942
 30
0.0
 11
-348.3850386336043
 21
-252.4067514780404
 31
0.0
  0
LINE
  5
B9
330
1F
100
AcDbEntity
  8
0-0
  6
Continuous
 62
     3
370
     9
100
AcDbLine
 10
-225.3865628629117
 20
-253.3512787690032
 30
0.0
 11
-219.2786098170924
 21
-253.3512787690032
 31
0.0
  0
LINE
  5
BA
330
1F
100
AcDbEntity
  8
0-0
  6
Continuous
 62
     3
370
     9
100
AcDbLine
 10
-215.934312150285
 20
-210.1848573426942
 30
0.0
 11
-218.2801406447951
 21
-252.4067514780404
 31
0.0
  0
LINE
  5
BB
330
1F
100
AcDbEntity
  8
0-0
  6
Continuous
 62
     3
370
     9
100
AcDbLine
 10
-228.730662577861
 20
-210.1848573426942
 30
0.0
 11
-226.385032035209
 21
-252.4067514780404
 31
0.0
  0
LINE
  5
BC
330
1F
100
AcDbEntity
  8
0-0
  6
Continuous
 62
     3
370
     9
100
AcDbLine
 10
-336.7169148213154
 20
-239.3512820682008
 30
0.0
 11
-229.948264457084
 21
-239.3512820682008
 31
0.0
  0
LINE
  5
BD
330
1F
100
AcDbEntity
  8
0-0
  6
Continuous
 62
     3
370
     9
100
AcDbLine
 10
-214.7169082229201
 20
-239.3512820682008
 30
0.0
 11
-107.3326275799725
 21
-239.3512820682008
 31
0.0
  0
LINE
  5
BE
330
1F
100
AcDbEntity
  8
0-F
  6
Continuous
 62
     7
370
     9
100
AcDbLine
 10
460.6675142855261
 20
82.67106009818428
 30
0.0
 11
472.5648168615394
 21
81.10476602090387
 31
0.0
  0
LINE
  5
BF
330
1F
100
AcDbEntity
  8
0-F
  6
Continuous
 62
     7
370
     9
100
AcDbLine
 10
464.2758797310494
 20
109.7685909786742
 30
0.0
 11
479.5725105904244
 21
109.7685909786742
 31
0.0
  0
LINE
  5
C0
330
1F
100
AcDbEntity
  8
0-F
  6
Continuous
 62
     7
370
     9
100
AcDbLine
 10
464.2758797310494
 20
109.7685909786742
 30
0.0
 11
448.6354064941406
 21
82.67106009818428
 31
0.0
  0
LINE
  5
C1
330
1F
100
AcDbEntity
  8
0-1
  6
Continuous
 62
     2
370
     9
100
AcDbLine
 10
480.8675116461677
 20
306.1893409522806
 30
0.0
 11
453.867472055796
 21
306.1893409522806
 31
0.0
  0
LINE
  5
C2
330
1F
100
AcDbEntity
  8
0-1
  6
Continuous
 62
     2
370
     9
100
AcDbLine
 10
483.867472055796
 20
309.189301361909
 30
0.0
 11
483.867472055796
 21
326.1893079603043
 31
0.0
  0
LINE
  5
C3
330
1F
100
AcDbEntity
  8
0-1
  6
JWW_CENTER1
 62
     2
370
     9
100
AcDbLine
 10
480.8673136943098
 20
301.689301361909
 30
0.0
 11
449.8674588590056
 21
301.689301361909
 31
0.0
  0
LINE
  5
C4
330
1F
100
AcDbEntity
  8
0-1
  6
JWW_CENTER1
 62
     2
370
     9
100
AcDbLine
 10
488.3673136943098
 20
309.189301361909
 30
0.0
 11
488.3673136943098
 21
330.1893211570948
 31
0.0
  0
LINE
  5
C5
330
1F
100
AcDbEntity
  8
0-1
  6
Continuous
 62
     2
370
     9
100
AcDbLine
 10
492.8674522606102
 20
309.189400337838
 30
0.0
 11
492.8674522606102
 21
326.1893079603043
 31
0.0
  0
LINE
  5
C6
330
1F
100
AcDbEntity
  8
0-F
  6
Continuous
 62
     7
370
     9
100
AcDbLine
 10
372.6900873957456
 20
-82.66298366237311
 30
0.0
 11
405.6674812935494
 21
24.22329959353908
 31
0.0
  0
LINE
  5
C7
330
1F
100
AcDbEntity
  8
0-F
  6
Continuous
 62
     7
370
     9
100
AcDbLine
 10
405.6674812935494
 20
24.22329959353908
 30
0.0
 11
403.6566863188873
 21
12.39295423353053
 31
0.0
  0
LINE
  5
C8
330
1F
100
AcDbEntity
  8
0-F
  6
Continuous
 62
     7
370
     9
100
AcDbLine
 10
405.6674812935494
 20
24.22329959353908
 30
0.0
 11
400.6632583205765
 21
13.31649862753397
 31
0.0
  0
LINE
  5
C9
330
1F
100
AcDbEntity
  8
0-0
  6
Continuous
 62
     3
370
     9
100
AcDbLine
 10
411.6675010887352
 20
290.6893145586995
 30
0.0
 11
411.6675010887352
 21
292.1891957875846
 31
0.0
  0
LINE
  5
CA
330
1F
100
AcDbEntity
  8
0-0
  6
Continuous
 62
     3
370
     9
100
AcDbLine
 10
405.6674812935494
 20
283.036297772382
 30
0.0
 11
405.6674812935494
 21
290.3421069995779
 31
0.0
  0
LINE
  5
CB
330
1F
100
AcDbEntity
  8
0-0
  6
Continuous
 62
     3
370
     9
100
AcDbLine
 10
411.6675010887352
 20
273.1891825907941
 30
0.0
 11
411.6675010887352
 21
282.6892881651185
 31
0.0
  0
LINE
  5
CC
330
1F
100
AcDbEntity
  8
0-0
  6
Continuous
 62
     3
370
     9
100
AcDbLine
 10
419.6674285063873
 20
284.5720082875846
 30
0.0
 11
419.6674285063873
 21
288.8063964843752
 31
0.0
  0
LINE
  5
CD
330
1F
100
AcDbEntity
  8
0-0
  6
Continuous
 62
     3
370
     9
100
AcDbLine
 10
406.503036086624
 20
291.3285011085306
 30
0.0
 11
411.6675010887352
 21
292.1891957875846
 31
0.0
  0
LINE
  5
CE
330
1F
100
AcDbEntity
  8
0-0
  6
Continuous
 62
     3
370
     9
100
AcDbLine
 10
406.503036086624
 20
282.0499036634293
 30
0.0
 11
411.6675010887352
 21
281.1892089843752
 31
0.0
  0
LINE
  5
CF
330
1F
100
AcDbEntity
  8
0-0
  6
Continuous
 62
     3
370
     9
100
AcDbLine
 10
418.791491534259
 20
289.7987291490712
 30
0.0
 11
411.6675010887352
 21
290.6893145586995
 31
0.0
  0
LINE
  5
D0
330
1F
100
AcDbEntity
  8
0-0
  6
Continuous
 62
     3
370
     9
100
AcDbLine
 10
418.791491534259
 20
283.5796756228887
 30
0.0
 11
411.6675010887352
 21
282.6892881651185
 31
0.0
  0
LINE
  5
D1
330
1F
100
AcDbEntity
  8
0-0
  6
Continuous
 62
     3
370
     9
100
AcDbLine
 10
-693.8326572727512
 20
292.1891957875846
 30
0.0
 11
-94.83271005991332
 21
292.1891957875846
 31
0.0
  0
LINE
  5
D2
330
1F
100
AcDbEntity
  8
0-0
  6
Continuous
 62
     3
370
     9
100
AcDbLine
 10
-692.8327034615181
 20
291.1893409522806
 30
0.0
 11
-95.83266387114645
 21
291.1893409522806
 31
0.0
  0
LINE
  5
D3
330
1F
100
AcDbEntity
  8
0-0
  6
Continuous
 62
     3
370
     9
100
AcDbLine
 10
-692.8327034615181
 20
282.1892617715373
 30
0.0
 11
-95.83266387114645
 21
282.1892617715373
 31
0.0
  0
LINE
  5
D4
330
1F
100
AcDbEntity
  8
0-0
  6
Continuous
 62
     3
370
     9
100
AcDbLine
 10
-693.8326572727512
 20
281.1892089843752
 30
0.0
 11
-94.83271005991332
 21
281.1892089843752
 31
0.0
  0
LINE
  5
D5
330
1F
100
AcDbEntity
  8
0-0
  6
Continuous
 62
     3
370
     9
100
AcDbLine
 10
-693.8326572727512
 20
274.6892617715373
 30
0.0
 11
-94.83271005991332
 21
274.6892617715373
 31
0.0
  0
LINE
  5
D6
330
1F
100
AcDbEntity
  8
0-0
  6
Continuous
 62
     3
370
     9
100
AcDbLine
 10
-692.8327034615181
 20
273.6892089843752
 30
0.0
 11
-95.83266387114645
 21
273.6892089843752
 31
0.0
  0
LINE
  5
D7
330
1F
100
AcDbEntity
  8
0-0
  6
Continuous
 62
     3
370
     9
100
AcDbLine
 10
-692.8327034615181
 20
264.68932775549
 30
0.0
 11
-95.83266387114645
 21
264.68932775549
 31
0.0
  0
LINE
  5
D8
330
1F
100
AcDbEntity
  8
0-0
  6
Continuous
 62
     3
370
     9
100
AcDbLine
 10
-693.8326572727512
 20
263.6892749683279
 30
0.0
 11
-94.83271005991332
 21
263.6892749683279
 31
0.0
  0
LINE
  5
D9
330
1F
100
AcDbEntity
  8
0-0
  6
Continuous
 62
     3
370
     9
100
AcDbLine
 10
418.791491534259
 20
266.0797416068414
 30
0.0
 11
411.6675010887352
 21
265.1893541490712
 31
0.0
  0
LINE
  5
DA
330
1F
100
AcDbEntity
  8
0-0
  6
Continuous
 62
     3
370
     9
100
AcDbLine
 10
418.791491534259
 20
272.2987951330239
 30
0.0
 11
411.6675010887352
 21
273.1891825907941
 31
0.0
  0
LINE
  5
DB
330
1F
100
AcDbEntity
  8
0-0
  6
Continuous
 62
     3
370
     9
100
AcDbLine
 10
406.503036086624
 20
264.549969647382
 30
0.0
 11
411.6675010887352
 21
263.6892749683279
 31
0.0
  0
LINE
  5
DC
330
1F
100
AcDbEntity
  8
0-0
  6
Continuous
 62
     3
370
     9
100
AcDbLine
 10
406.503036086624
 20
273.8285670924832
 30
0.0
 11
411.6675010887352
 21
274.6892617715373
 31
0.0
  0
LINE
  5
DD
330
1F
100
AcDbEntity
  8
0-0
  6
Continuous
 62
     3
370
     9
100
AcDbLine
 10
419.6674285063873
 20
267.0720742715373
 30
0.0
 11
419.6674285063873
 21
271.3064624683279
 31
0.0
  0
LINE
  5
DE
330
1F
100
AcDbEntity
  8
0-0
  6
Continuous
 62
     3
370
     9
100
AcDbLine
 10
411.6675010887352
 20
254.5197489970441
 30
0.0
 11
411.6675010887352
 21
265.1893541490712
 31
0.0
  0
LINE
  5
DF
330
1F
100
AcDbEntity
  8
0-0
  6
Continuous
 62
     3
370
     9
100
AcDbLine
 10
405.6674812935494
 20
265.5363637563346
 30
0.0
 11
405.6674812935494
 21
272.8421729835306
 31
0.0
  0
LINE
  5
E0
330
1F
100
AcDbEntity
  8
0-0
  6
Continuous
 62
     3
370
     9
100
AcDbLine
 10
465.6674812935494
 20
246.6893178578971
 30
0.0
 11
465.6674812935494
 21
283.6893409522806
 31
0.0
  0
LINE
  5
E1
330
1F
100
AcDbEntity
  8
0-0
  6
Continuous
 62
     3
370
     9
100
AcDbLine
 10
405.6674812935494
 20
39.03638355152043
 30
0.0
 11
405.6674812935494
 21
255.3420410156252
 31
0.0
  0
LINE
  5
E2
330
1F
100
AcDbEntity
  8
0-0
  6
Continuous
 62
     3
370
     9
100
AcDbLine
 10
460.6675142855261
 20
243.0474985483532
 30
0.0
 11
460.6675142855261
 21
51.33097550675689
 31
0.0
  0
LINE
  5
E3
330
1F
100
AcDbEntity
  8
0-0
  6
Continuous
 62
     3
370
     9
100
AcDbLine
 10
413.4930131242081
 20
252.5273635451859
 30
0.0
 11
448.0161141060494
 21
249.5066181904563
 31
0.0
  0
LINE
  5
E4
330
1F
100
AcDbEntity
  8
0-0
  6
Continuous
 62
     3
370
     9
100
AcDbLine
 10
406.503036086624
 20
256.3284351245779
 30
0.0
 11
411.6675010887352
 21
257.18932775549
 31
0.0
  0
LINE
  5
E5
330
1F
100
AcDbEntity
  8
0-0
  6
Continuous
 62
     3
370
     9
100
AcDbLine
 10
-693.8326572727512
 20
257.18932775549
 30
0.0
 11
-94.83271005991332
 21
257.18932775549
 31
0.0
  0
LINE
  5
E6
330
1F
100
AcDbEntity
  8
0-0
  6
Continuous
 62
     3
370
     9
100
AcDbLine
 10
-692.8327034615181
 20
256.1892749683279
 30
0.0
 11
-95.83266387114645
 21
256.1892749683279
 31
0.0
  0
LINE
  5
E7
330
1F
100
AcDbEntity
  8
0-0
  6
Continuous
 62
     3
370
     9
100
AcDbLine
 10
-680.8326638711466
 20
247.1891957875846
 30
0.0
 11
-107.8327034615181
 21
247.1891957875846
 31
0.0
  0
LINE
  5
E8
330
1F
100
AcDbEntity
  8
0-0
  6
Continuous
 62
     3
370
     9
100
AcDbLine
 10
418.791491534259
 20
289.7987291490712
 30
0.0
 11
465.6674812935494
 21
283.6893409522806
 31
0.0
  0
LINE
  5
E9
330
1F
100
AcDbEntity
  8
0-0
  6
Continuous
 62
     3
370
     9
100
AcDbLine
 10
445.6675142855261
 20
53.43822252428231
 30
0.0
 11
445.6675142855261
 21
240.9403010187924
 31
0.0
  0
LINE
  5
EA
330
1F
100
AcDbEntity
  8
0-0
  6
Continuous
 62
     3
370
     9
100
AcDbLine
 10
451.6674351047827
 20
154.2306568042654
 30
0.0
 11
451.6674351047827
 21
245.5218967747046
 31
0.0
  0
LINE
  5
EB
330
1F
100
AcDbEntity
  8
0-0
  6
Continuous
 62
     3
370
     9
100
AcDbLine
 10
-677.3326770679371
 20
243.6892584723397
 30
0.0
 11
-111.3326902647276
 21
243.6892584723397
 31
0.0
  0
LINE
  5
EC
330
1F
100
AcDbEntity
  8
0-0
  6
Continuous
 62
     3
370
     9
100
AcDbLine
 10
406.5803362872152
 20
247.1093717008025
 30
0.0
 11
442.9289493045294
 21
243.9288791965796
 31
0.0
  0
LINE
  5
ED
330
1F
100
AcDbEntity
  8
0-0
  6
Continuous
 62
     3
370
     9
100
AcDbLine
 10
462.8910085317252
 20
245.9453157991978
 30
0.0
 11
465.6674812935494
 21
246.6893178578971
 31
0.0
  0
LINE
  5
EE
330
1F
100
AcDbEntity
  8
0-0
  6
Continuous
 62
     3
370
     9
100
AcDbLine
 10
-437.332677067937
 20
274.6892617715373
 30
0.0
 11
-437.332677067937
 21
281.1892089843752
 31
0.0
  0
LINE
  5
EF
330
1F
100
AcDbEntity
  8
0-0
  6
Continuous
 62
     3
370
     9
100
AcDbLine
 10
462.8910085317252
 20
48.43320774387689
 30
0.0
 11
465.6674812935494
 21
47.6892551731421
 31
0.0
  0
LINE
  5
F0
330
1F
100
AcDbEntity
  8
0-0
  6
Continuous
 62
     3
370
     9
100
AcDbLine
 10
454.1741984599348
 20
143.1070490656674
 30
0.0
 11
460.6675142855261
 21
144.1892518739444
 31
0.0
  0
LINE
  5
F1
330
1F
100
AcDbEntity
  8
0-0
  6
Continuous
 62
     3
370
     9
100
AcDbLine
 10
406.5803362872152
 20
47.26910235430762
 30
0.0
 11
442.9289493045294
 21
50.44964434649512
 31
0.0
  0
LINE
  5
F2
330
1F
100
AcDbEntity
  8
0-0
  6
Continuous
 62
     3
370
     9
100
AcDbLine
 10
-451.3326242807749
 20
274.6892617715373
 30
0.0
 11
-451.3326242807749
 21
281.1892089843752
 31
0.0
  0
LINE
  5
F3
330
1F
100
AcDbEntity
  8
0-0
  6
Continuous
 62
     3
370
     9
100
AcDbLine
 10
-337.3327430518898
 20
257.18932775549
 30
0.0
 11
-337.3327430518898
 21
263.6892749683279
 31
0.0
  0
LINE
  5
F4
330
1F
100
AcDbEntity
  8
0-0
  6
Continuous
 62
     3
370
     9
100
AcDbLine
 10
-215.3326374775654
 20
257.18932775549
 30
0.0
 11
-215.3326374775654
 21
263.6892749683279
 31
0.0
  0
LINE
  5
F5
330
1F
100
AcDbEntity
  8
0-0
  6
Continuous
 62
     3
370
     9
100
AcDbLine
 10
451.6674351047827
 20
140.1478667388093
 30
0.0
 11
451.6674351047827
 21
48.85662676837012
 31
0.0
  0
LINE
  5
F6
330
1F
100
AcDbEntity
  8
0-0
  6
Continuous
 62
     3
370
     9
100
AcDbLine
 10
418.791491534259
 20
4.579794394003557
 30
0.0
 11
465.6674812935494
 21
10.68928156672314
 31
0.0
  0
LINE
  5
F7
330
1F
100
AcDbEntity
  8
0-0
  6
Continuous
 62
     3
370
     9
100
AcDbLine
 10
406.503036086624
 20
38.04998944256772
 30
0.0
 11
411.6675010887352
 21
37.18924527554918
 31
0.0
  0
LINE
  5
F8
330
1F
100
AcDbEntity
  8
0-0
  6
Continuous
 62
     3
370
     9
100
AcDbLine
 10
413.4930131242081
 20
41.85106102195959
 30
0.0
 11
448.0161141060494
 21
44.87180637668939
 31
0.0
  0
LINE
  5
F9
330
1F
100
AcDbEntity
  8
0-0
  6
Continuous
 62
     3
370
     9
100
AcDbLine
 10
465.6674812935494
 20
47.6892551731421
 30
0.0
 11
465.6674812935494
 21
10.68928156672314
 31
0.0
  0
LINE
  5
FA
330
1F
100
AcDbEntity
  8
0-0
  6
Continuous
 62
     3
370
     9
100
AcDbLine
 10
405.6674812935494
 20
28.84211029877554
 30
0.0
 11
405.6674812935494
 21
21.53635055954408
 31
0.0
  0
LINE
  5
FB
330
1F
100
AcDbEntity
  8
0-0
  6
Continuous
 62
     3
370
     9
100
AcDbLine
 10
411.6675010887352
 20
39.85872505806606
 30
0.0
 11
411.6675010887352
 21
29.18926836993262
 31
0.0
  0
LINE
  5
FC
330
1F
100
AcDbEntity
  8
0-0
  6
Continuous
 62
     3
370
     9
100
AcDbLine
 10
419.6674285063873
 20
27.3064492715373
 30
0.0
 11
419.6674285063873
 21
23.07201158678231
 31
0.0
  0
LINE
  5
FD
330
1F
100
AcDbEntity
  8
0-0
  6
Continuous
 62
     3
370
     9
100
AcDbLine
 10
406.503036086624
 20
20.55000593855596
 30
0.0
 11
411.6675010887352
 21
19.6892617715373
 31
0.0
  0
LINE
  5
FE
330
1F
100
AcDbEntity
  8
0-0
  6
Continuous
 62
     3
370
     9
100
AcDbLine
 10
406.503036086624
 20
29.82850440772825
 30
0.0
 11
411.6675010887352
 21
30.68924857474678
 31
0.0
  0
LINE
  5
FF
330
1F
100
AcDbEntity
  8
0-0
  6
Continuous
 62
     3
370
     9
100
AcDbLine
 10
418.791491534259
 20
22.07977789801532
 30
0.0
 11
411.6675010887352
 21
21.18929146431606
 31
0.0
  0
LINE
  5
100
330
1F
100
AcDbEntity
  8
0-0
  6
Continuous
 62
     3
370
     9
100
AcDbLine
 10
418.791491534259
 20
28.29878193623324
 30
0.0
 11
411.6675010887352
 21
29.18926836993262
 31
0.0
  0
LINE
  5
101
330
1F
100
AcDbEntity
  8
0-0
  6
Continuous
 62
     3
370
     9
100
AcDbLine
 10
418.791491534259
 20
10.79874894425689
 30
0.0
 11
411.6675010887352
 21
11.68928486592074
 31
0.0
  0
LINE
  5
102
330
1F
100
AcDbEntity
  8
0-0
  6
Continuous
 62
     3
370
     9
100
AcDbLine
 10
418.791491534259
 20
4.579794394003557
 30
0.0
 11
411.6675010887352
 21
3.689258472339702
 31
0.0
  0
LINE
  5
103
330
1F
100
AcDbEntity
  8
0-0
  6
Continuous
 62
     3
370
     9
100
AcDbLine
 10
406.503036086624
 20
12.32847141575189
 30
0.0
 11
411.6675010887352
 21
13.18926507073502
 31
0.0
  0
LINE
  5
104
330
1F
100
AcDbEntity
  8
0-0
  6
Continuous
 62
     3
370
     9
100
AcDbLine
 10
406.503036086624
 20
3.049972946579601
 30
0.0
 11
411.6675010887352
 21
2.189278267525538
 31
0.0
  0
LINE
  5
105
330
1F
100
AcDbEntity
  8
0-0
  6
Continuous
 62
     3
370
     9
100
AcDbLine
 10
419.6674285063873
 20
9.806465767525538
 30
0.0
 11
419.6674285063873
 21
5.57202808277043
 31
0.0
  0
LINE
  5
106
330
1F
100
AcDbEntity
  8
0-0
  6
Continuous
 62
     3
370
     9
100
AcDbLine
 10
411.6675010887352
 20
21.18929146431606
 30
0.0
 11
411.6675010887352
 21
11.68928486592074
 31
0.0
  0
LINE
  5
107
330
1F
100
AcDbEntity
  8
0-0
  6
Continuous
 62
     3
370
     9
100
AcDbLine
 10
405.6674812935494
 20
11.34207730679918
 30
0.0
 11
405.6674812935494
 21
4.03636705553231
 31
0.0
  0
LINE
  5
108
330
1F
100
AcDbEntity
  8
0-0
  6
Continuous
 62
     3
370
     9
100
AcDbLine
 10
411.6675010887352
 20
3.689258472339702
 30
0.0
 11
411.6675010887352
 21
2.189278267525538
 31
0.0
  0
LINE
  5
109
330
1F
100
AcDbEntity
  8
0-0
  6
Continuous
 62
     3
370
     9
100
AcDbLine
 10
-229.3326836663323
 20
257.18932775549
 30
0.0
 11
-229.3326836663323
 21
263.6892749683279
 31
0.0
  0
LINE
  5
10A
330
1F
100
AcDbEntity
  8
0-0
  6
Continuous
 62
     3
370
     9
100
AcDbLine
 10
-351.3326902647276
 20
257.18932775549
 30
0.0
 11
-351.3326902647276
 21
263.6892749683279
 31
0.0
  0
LINE
  5
10B
330
1F
100
AcDbEntity
  8
0-0
  6
Continuous
 62
     3
370
     9
100
AcDbLine
 10
-108.8327562486803
 20
257.18932775549
 30
0.0
 11
-108.8327562486803
 21
263.6892749683279
 31
0.0
  0
LINE
  5
10C
330
1F
100
AcDbEntity
  8
0-0
  6
Continuous
 62
     3
370
     9
100
AcDbLine
 10
-95.83266387114645
 20
264.68932775549
 30
0.0
 11
-95.83266387114645
 21
273.6892089843752
 31
0.0
  0
LINE
  5
10D
330
1F
100
AcDbEntity
  8
0-0
  6
Continuous
 62
     3
370
     9
100
AcDbLine
 10
-95.83266387114645
 20
282.1892617715373
 30
0.0
 11
-95.83266387114645
 21
291.1893409522806
 31
0.0
  0
LINE
  5
10E
330
1F
100
AcDbEntity
  8
0-0
  6
Continuous
 62
     3
370
     9
100
AcDbLine
 10
-108.8327562486803
 20
274.6892617715373
 30
0.0
 11
-108.8327562486803
 21
281.1892089843752
 31
0.0
  0
LINE
  5
10F
330
1F
100
AcDbEntity
  8
0-0
  6
Continuous
 62
     3
370
     9
100
AcDbLine
 10
-215.3326374775654
 20
274.6892617715373
 30
0.0
 11
-215.3326374775654
 21
281.1892089843752
 31
0.0
  0
LINE
  5
110
330
1F
100
AcDbEntity
  8
0-0
  6
Continuous
 62
     3
370
     9
100
AcDbLine
 10
-229.3326836663323
 20
274.6892617715373
 30
0.0
 11
-229.3326836663323
 21
281.1892089843752
 31
0.0
  0
LINE
  5
111
330
1F
100
AcDbEntity
  8
0-0
  6
Continuous
 62
     3
370
     9
100
AcDbLine
 10
-337.3327430518898
 20
274.6892617715373
 30
0.0
 11
-337.3327430518898
 21
281.1892089843752
 31
0.0
  0
LINE
  5
112
330
1F
100
AcDbEntity
  8
0-0
  6
Continuous
 62
     3
370
     9
100
AcDbLine
 10
-351.3326902647276
 20
274.6892617715373
 30
0.0
 11
-351.3326902647276
 21
281.1892089843752
 31
0.0
  0
LINE
  5
113
330
1F
100
AcDbEntity
  8
0-0
  6
Continuous
 62
     3
370
     9
100
AcDbLine
 10
-559.3326836663324
 20
274.6892617715373
 30
0.0
 11
-559.3326836663324
 21
281.1892089843752
 31
0.0
  0
LINE
  5
114
330
1F
100
AcDbEntity
  8
0-0
  6
Continuous
 62
     3
370
     9
100
AcDbLine
 10
-573.3327298550993
 20
274.6892617715373
 30
0.0
 11
-573.3327298550993
 21
281.1892089843752
 31
0.0
  0
LINE
  5
115
330
1F
100
AcDbEntity
  8
0-0
  6
Continuous
 62
     3
370
     9
100
AcDbLine
 10
-679.8327100599134
 20
274.6892617715373
 30
0.0
 11
-679.8327100599134
 21
281.1892089843752
 31
0.0
  0
LINE
  5
116
330
1F
100
AcDbEntity
  8
0-0
  6
Continuous
 62
     3
370
     9
100
AcDbLine
 10
-692.8327034615181
 20
282.1892617715373
 30
0.0
 11
-692.8327034615181
 21
291.1893409522806
 31
0.0
  0
LINE
  5
117
330
1F
100
AcDbEntity
  8
0-0
  6
Continuous
 62
     3
370
     9
100
AcDbLine
 10
-692.8327034615181
 20
264.68932775549
 30
0.0
 11
-692.8327034615181
 21
273.6892089843752
 31
0.0
  0
LINE
  5
118
330
1F
100
AcDbEntity
  8
0-0
  6
Continuous
 62
     3
370
     9
100
AcDbLine
 10
-679.8327100599134
 20
257.18932775549
 30
0.0
 11
-679.8327100599134
 21
263.6892749683279
 31
0.0
  0
LINE
  5
119
330
1F
100
AcDbEntity
  8
0-0
  6
Continuous
 62
     3
370
     9
100
AcDbLine
 10
-680.3326374775654
 20
53.68927496832782
 30
0.0
 11
-680.3326374775654
 21
240.6892980627114
 31
0.0
  0
LINE
  5
11A
330
1F
100
AcDbEntity
  8
0-0
  6
Continuous
 62
     3
370
     9
100
AcDbLine
 10
-683.8326242807749
 20
50.18928816511846
 30
0.0
 11
-683.8326242807749
 21
244.1892848659207
 31
0.0
  0
LINE
  5
11B
330
1F
100
AcDbEntity
  8
0-0
  6
Continuous
 62
     3
370
     9
100
AcDbLine
 10
-692.8327034615181
 20
38.18924857474678
 30
0.0
 11
-692.8327034615181
 21
256.1892749683279
 31
0.0
  0
LINE
  5
11C
330
1F
100
AcDbEntity
  8
0-0
  6
Continuous
 62
     3
370
     9
100
AcDbLine
 10
-437.332677067937
 20
257.18932775549
 30
0.0
 11
-437.332677067937
 21
263.6892749683279
 31
0.0
  0
LINE
  5
11D
330
1F
100
AcDbEntity
  8
0-0
  6
Continuous
 62
     3
370
     9
100
AcDbLine
 10
-559.3326836663324
 20
257.18932775549
 30
0.0
 11
-559.3326836663324
 21
263.6892749683279
 31
0.0
  0
LINE
  5
11E
330
1F
100
AcDbEntity
  8
0-0
  6
Continuous
 62
     3
370
     9
100
AcDbLine
 10
-573.3327298550993
 20
257.18932775549
 30
0.0
 11
-573.3327298550993
 21
263.6892749683279
 31
0.0
  0
LINE
  5
11F
330
1F
100
AcDbEntity
  8
0-0
  6
Continuous
 62
     3
370
     9
100
AcDbLine
 10
-451.3326242807749
 20
257.18932775549
 30
0.0
 11
-451.3326242807749
 21
263.6892749683279
 31
0.0
  0
LINE
  5
120
330
1F
100
AcDbEntity
  8
0-0
  6
Continuous
 62
     3
370
     9
100
AcDbLine
 10
-693.8326572727512
 20
2.189278267525538
 30
0.0
 11
-693.8326572727512
 21
292.1891957875846
 31
0.0
  0
LINE
  5
121
330
1F
100
AcDbEntity
  8
0-0
  6
Continuous
 62
     3
370
     9
100
AcDbLine
 10
-94.83271005991332
 20
2.189278267525538
 30
0.0
 11
-693.8326572727512
 21
2.189278267525538
 31
0.0
  0
LINE
  5
122
330
1F
100
AcDbEntity
  8
0-0
  6
Continuous
 62
     3
370
     9
100
AcDbLine
 10
-95.83266387114645
 20
3.189281566723139
 30
0.0
 11
-692.8327034615181
 21
3.189281566723139
 31
0.0
  0
LINE
  5
123
330
1F
100
AcDbEntity
  8
0-0
  6
Continuous
 62
     3
370
     9
100
AcDbLine
 10
-95.83266387114645
 20
12.1892617715373
 30
0.0
 11
-692.8327034615181
 21
12.1892617715373
 31
0.0
  0
LINE
  5
124
330
1F
100
AcDbEntity
  8
0-0
  6
Continuous
 62
     3
370
     9
100
AcDbLine
 10
-94.83271005991332
 20
13.18926507073502
 30
0.0
 11
-693.8326572727512
 21
13.18926507073502
 31
0.0
  0
LINE
  5
125
330
1F
100
AcDbEntity
  8
0-0
  6
Continuous
 62
     3
370
     9
100
AcDbLine
 10
-94.83271005991332
 20
19.6892617715373
 30
0.0
 11
-693.8326572727512
 21
19.6892617715373
 31
0.0
  0
LINE
  5
126
330
1F
100
AcDbEntity
  8
0-0
  6
Continuous
 62
     3
370
     9
100
AcDbLine
 10
-95.83266387114645
 20
20.68926507073502
 30
0.0
 11
-692.8327034615181
 21
20.68926507073502
 31
0.0
  0
LINE
  5
127
330
1F
100
AcDbEntity
  8
0-0
  6
Continuous
 62
     3
370
     9
100
AcDbLine
 10
-95.83266387114645
 20
29.68924527554918
 30
0.0
 11
-692.8327034615181
 21
29.68924527554918
 31
0.0
  0
LINE
  5
128
330
1F
100
AcDbEntity
  8
0-0
  6
Continuous
 62
     3
370
     9
100
AcDbLine
 10
-94.83271005991332
 20
30.68924857474678
 30
0.0
 11
-693.8326572727512
 21
30.68924857474678
 31
0.0
  0
LINE
  5
129
330
1F
100
AcDbEntity
  8
0-0
  6
Continuous
 62
     3
370
     9
100
AcDbLine
 10
-94.83271005991332
 20
37.18924527554918
 30
0.0
 11
-693.8326572727512
 21
37.18924527554918
 31
0.0
  0
LINE
  5
12A
330
1F
100
AcDbEntity
  8
0-0
  6
Continuous
 62
     3
370
     9
100
AcDbLine
 10
-95.83266387114645
 20
38.18924857474678
 30
0.0
 11
-692.8327034615181
 21
38.18924857474678
 31
0.0
  0
LINE
  5
12B
330
1F
100
AcDbEntity
  8
0-0
  6
Continuous
 62
     3
370
     9
100
AcDbLine
 10
-107.8327034615181
 20
47.18927826752554
 30
0.0
 11
-680.8326638711466
 21
47.18927826752554
 31
0.0
  0
LINE
  5
12C
330
1F
100
AcDbEntity
  8
0-0
  6
Continuous
 62
     3
370
     9
100
AcDbLine
 10
-111.3326902647276
 20
50.68926507073502
 30
0.0
 11
-677.3326770679371
 21
50.68926507073502
 31
0.0
  0
LINE
  5
12D
330
1F
100
AcDbEntity
  8
0-0
  6
Continuous
 62
     3
370
     9
100
AcDbLine
 10
-451.3326242807749
 20
37.18924527554918
 30
0.0
 11
-451.3326242807749
 21
30.68924857474678
 31
0.0
  0
LINE
  5
12E
330
1F
100
AcDbEntity
  8
0-0
  6
Continuous
 62
     3
370
     9
100
AcDbLine
 10
-573.3327298550993
 20
37.18924527554918
 30
0.0
 11
-573.3327298550993
 21
30.68924857474678
 31
0.0
  0
LINE
  5
12F
330
1F
100
AcDbEntity
  8
0-0
  6
Continuous
 62
     3
370
     9
100
AcDbLine
 10
-559.3326836663324
 20
37.18924527554918
 30
0.0
 11
-559.3326836663324
 21
30.68924857474678
 31
0.0
  0
LINE
  5
130
330
1F
100
AcDbEntity
  8
0-0
  6
Continuous
 62
     3
370
     9
100
AcDbLine
 10
-437.332677067937
 20
37.18924527554918
 30
0.0
 11
-437.332677067937
 21
30.68924857474678
 31
0.0
  0
LINE
  5
131
330
1F
100
AcDbEntity
  8
0-0
  6
Continuous
 62
     3
370
     9
100
AcDbLine
 10
-679.8327100599134
 20
37.18924527554918
 30
0.0
 11
-679.8327100599134
 21
30.68924857474678
 31
0.0
  0
LINE
  5
132
330
1F
100
AcDbEntity
  8
0-0
  6
Continuous
 62
     3
370
     9
100
AcDbLine
 10
-692.8327034615181
 20
29.68924527554918
 30
0.0
 11
-692.8327034615181
 21
20.68926507073502
 31
0.0
  0
LINE
  5
133
330
1F
100
AcDbEntity
  8
0-0
  6
Continuous
 62
     3
370
     9
100
AcDbLine
 10
-692.8327034615181
 20
12.1892617715373
 30
0.0
 11
-692.8327034615181
 21
3.189281566723139
 31
0.0
  0
LINE
  5
134
330
1F
100
AcDbEntity
  8
0-0
  6
Continuous
 62
     3
370
     9
100
AcDbLine
 10
-679.8327100599134
 20
19.6892617715373
 30
0.0
 11
-679.8327100599134
 21
13.18926507073502
 31
0.0
  0
LINE
  5
135
330
1F
100
AcDbEntity
  8
0-0
  6
Continuous
 62
     3
370
     9
100
AcDbLine
 10
-573.3327298550993
 20
19.6892617715373
 30
0.0
 11
-573.3327298550993
 21
13.18926507073502
 31
0.0
  0
LINE
  5
136
330
1F
100
AcDbEntity
  8
0-0
  6
Continuous
 62
     3
370
     9
100
AcDbLine
 10
-559.3326836663324
 20
19.6892617715373
 30
0.0
 11
-559.3326836663324
 21
13.18926507073502
 31
0.0
  0
LINE
  5
137
330
1F
100
AcDbEntity
  8
0-0
  6
Continuous
 62
     3
370
     9
100
AcDbLine
 10
-451.3326242807749
 20
19.6892617715373
 30
0.0
 11
-451.3326242807749
 21
13.18926507073502
 31
0.0
  0
LINE
  5
138
330
1F
100
AcDbEntity
  8
0-0
  6
Continuous
 62
     3
370
     9
100
AcDbLine
 10
-437.332677067937
 20
19.6892617715373
 30
0.0
 11
-437.332677067937
 21
13.18926507073502
 31
0.0
  0
LINE
  5
139
330
1F
100
AcDbEntity
  8
0-0
  6
Continuous
 62
     3
370
     9
100
AcDbLine
 10
-351.3326902647276
 20
19.6892617715373
 30
0.0
 11
-351.3326902647276
 21
13.18926507073502
 31
0.0
  0
LINE
  5
13A
330
1F
100
AcDbEntity
  8
0-0
  6
Continuous
 62
     3
370
     9
100
AcDbLine
 10
-337.3327430518898
 20
19.6892617715373
 30
0.0
 11
-337.3327430518898
 21
13.18926507073502
 31
0.0
  0
LINE
  5
13B
330
1F
100
AcDbEntity
  8
0-0
  6
Continuous
 62
     3
370
     9
100
AcDbLine
 10
-229.3326836663323
 20
19.6892617715373
 30
0.0
 11
-229.3326836663323
 21
13.18926507073502
 31
0.0
  0
LINE
  5
13C
330
1F
100
AcDbEntity
  8
0-0
  6
Continuous
 62
     3
370
     9
100
AcDbLine
 10
-215.3326374775654
 20
19.6892617715373
 30
0.0
 11
-215.3326374775654
 21
13.18926507073502
 31
0.0
  0
LINE
  5
13D
330
1F
100
AcDbEntity
  8
0-0
  6
Continuous
 62
     3
370
     9
100
AcDbLine
 10
-108.8327562486803
 20
19.6892617715373
 30
0.0
 11
-108.8327562486803
 21
13.18926507073502
 31
0.0
  0
LINE
  5
13E
330
1F
100
AcDbEntity
  8
0-0
  6
Continuous
 62
     3
370
     9
100
AcDbLine
 10
-95.83266387114645
 20
12.1892617715373
 30
0.0
 11
-95.83266387114645
 21
3.189281566723139
 31
0.0
  0
LINE
  5
13F
330
1F
100
AcDbEntity
  8
0-0
  6
Continuous
 62
     3
370
     9
100
AcDbLine
 10
-95.83266387114645
 20
29.68924527554918
 30
0.0
 11
-95.83266387114645
 21
20.68926507073502
 31
0.0
  0
LINE
  5
140
330
1F
100
AcDbEntity
  8
0-0
  6
Continuous
 62
     3
370
     9
100
AcDbLine
 10
-108.8327562486803
 20
37.18924527554918
 30
0.0
 11
-108.8327562486803
 21
30.68924857474678
 31
0.0
  0
LINE
  5
141
330
1F
100
AcDbEntity
  8
0-0
  6
Continuous
 62
     3
370
     9
100
AcDbLine
 10
-351.3326902647276
 20
37.18924527554918
 30
0.0
 11
-351.3326902647276
 21
30.68924857474678
 31
0.0
  0
LINE
  5
142
330
1F
100
AcDbEntity
  8
0-0
  6
Continuous
 62
     3
370
     9
100
AcDbLine
 10
-229.3326836663323
 20
37.18924527554918
 30
0.0
 11
-229.3326836663323
 21
30.68924857474678
 31
0.0
  0
LINE
  5
143
330
1F
100
AcDbEntity
  8
0-0
  6
Continuous
 62
     3
370
     9
100
AcDbLine
 10
-215.3326374775654
 20
37.18924527554918
 30
0.0
 11
-215.3326374775654
 21
30.68924857474678
 31
0.0
  0
LINE
  5
144
330
1F
100
AcDbEntity
  8
0-0
  6
Continuous
 62
     3
370
     9
100
AcDbLine
 10
-337.3327430518898
 20
37.18924527554918
 30
0.0
 11
-337.3327430518898
 21
30.68924857474678
 31
0.0
  0
LINE
  5
145
330
1F
100
AcDbEntity
  8
0-0
  6
Continuous
 62
     3
370
     9
100
AcDbLine
 10
454.1741984599348
 20
151.2714249894427
 30
0.0
 11
460.6675142855261
 21
150.1892716691302
 31
0.0
  0
LINE
  5
146
330
1F
100
AcDbEntity
  8
0-0
  6
JWW_CENTER1
 62
     3
370
     9
100
AcDbLine
 10
385.6675142855256
 20
147.1892617715373
 30
0.0
 11
480.6674812935494
 21
147.1892617715373
 31
0.0
  0
LINE
  5
147
330
1F
100
AcDbEntity
  8
0-0
  6
JWW_PHANTOM2
 62
     3
370
     9
100
AcDbLine
 10
-93.83275624868031
 20
292.1891957875846
 30
0.0
 11
135.1674548999684
 21
292.1891957875846
 31
0.0
  0
LINE
  5
148
330
1F
100
AcDbEntity
  8
0-0
  6
JWW_PHANTOM2
 62
     3
370
     9
100
AcDbLine
 10
-93.83275624868031
 20
2.189278267525538
 30
0.0
 11
135.1674548999684
 21
2.189278267525538
 31
0.0
  0
LINE
  5
149
330
1F
100
AcDbEntity
  8
0-0
  6
Continuous
 62
     3
370
     9
100
AcDbLine
 10
-681.3325418008341
 20
-239.3512820682008
 30
0.0
 11
-570.6290044011297
 21
-248.0150410420184
 31
0.0
  0
LINE
  5
14A
330
1F
100
AcDbEntity
  8
0-0
  6
Continuous
 62
     3
370
     9
100
AcDbLine
 10
-562.0548186431059
 20
-248.3512870169973
 30
0.0
 11
-448.6103408401077
 21
-248.3512870169973
 31
0.0
  0
LINE
  5
14B
330
1F
100
AcDbEntity
  8
0-0
  6
Continuous
 62
     3
370
     9
100
AcDbLine
 10
-440.0548120447107
 20
-248.3512870169973
 30
0.0
 11
-348.6103573360958
 21
-248.3512870169973
 31
0.0
  0
LINE
  5
14C
330
1F
100
AcDbEntity
  8
0-0
  6
Continuous
 62
     3
370
     9
100
AcDbLine
 10
-107.3326275799725
 20
-239.3512820682008
 30
0.0
 11
-218.0361649796769
 21
-248.0150410420184
 31
0.0
  0
LINE
  5
14D
330
1F
100
AcDbEntity
  8
0-0
  6
Continuous
 62
     3
370
     9
100
AcDbLine
 10
-226.6103507377005
 20
-248.3512870169973
 30
0.0
 11
-340.0548285406988
 21
-248.3512870169973
 31
0.0
  0
LINE
  5
14E
330
1F
100
AcDbEntity
  8
0-1
  6
Continuous
 62
     2
370
     9
100
AcDbLine
 10
453.867472055796
 20
-2.81083720439176
 30
0.0
 11
453.867472055796
 21
-11.81081740920592
 31
0.0
  0
LINE
  5
14F
330
1F
100
AcDbEntity
  8
0-1
  6
Continuous
 62
     2
370
     9
100
AcDbLine
 10
483.867472055796
 20
-31.81078441722957
 30
0.0
 11
492.8674522606102
 21
-31.81078441722957
 31
0.0
  0
LINE
  5
150
330
1F
100
AcDbEntity
  8
0-1
  6
Continuous
 62
     2
370
     9
100
AcDbLine
 10
480.8675116461677
 20
-11.81081740920592
 30
0.0
 11
453.867472055796
 21
-11.81081740920592
 31
0.0
  0
LINE
  5
151
330
1F
100
AcDbEntity
  8
0-1
  6
Continuous
 62
     2
370
     9
100
AcDbLine
 10
483.867472055796
 20
-14.81077781883425
 30
0.0
 11
483.867472055796
 21
-31.81078441722957
 31
0.0
  0
LINE
  5
152
330
1F
100
AcDbEntity
  8
0-1
  6
JWW_CENTER1
 62
     2
370
     9
100
AcDbLine
 10
480.8673136943098
 20
-7.310777818834254
 30
0.0
 11
449.8674588590056
 21
-7.310777818834254
 31
0.0
  0
LINE
  5
153
330
1F
100
AcDbEntity
  8
0-1
  6
JWW_CENTER1
 62
     2
370
     9
100
AcDbLine
 10
488.3673136943098
 20
-14.81077781883425
 30
0.0
 11
488.3673136943098
 21
-35.81079761402009
 31
0.0
  0
LINE
  5
154
330
1F
100
AcDbEntity
  8
0-1
  6
Continuous
 62
     2
370
     9
100
AcDbLine
 10
492.8674522606102
 20
-14.81087679476332
 30
0.0
 11
492.8674522606102
 21
-31.81078441722957
 31
0.0
  0
LINE
  5
155
330
1F
100
AcDbEntity
  8
0-0
  6
JWW_CENTER1
 62
     3
370
     9
100
AcDbLine
 10
-713.8325253048458
 20
147.1892617715373
 30
0.0
 11
155.167322932063
 21
147.1892617715373
 31
0.0
  0
LINE
  5
156
330
1F
100
AcDbEntity
  8
0-0
  6
JWW_PHANTOM2
 62
     3
370
     9
100
AcDbLine
 10
-93.83275624868031
 20
292.1891957875846
 30
0.0
 11
-93.83275624868031
 21
2.189278267525538
 31
0.0
  0
LINE
  5
157
330
1F
100
AcDbEntity
  8
0-0
  6
Continuous
 62
     3
370
     9
100
AcDbLine
 10
-94.83271005991332
 20
2.189278267525538
 30
0.0
 11
-94.83271005991332
 21
292.1891957875846
 31
0.0
  0
LINE
  5
158
330
1F
100
AcDbEntity
  8
0-0
  6
Continuous
 62
     3
370
     9
100
AcDbLine
 10
-95.83266387114645
 20
38.18924857474678
 30
0.0
 11
-95.83266387114645
 21
256.1892749683279
 31
0.0
  0
LINE
  5
159
330
1F
100
AcDbEntity
  8
0-0
  6
Continuous
 62
     3
370
     9
100
AcDbLine
 10
-104.8327430518897
 20
50.18928816511846
 30
0.0
 11
-104.8327430518897
 21
244.1892848659207
 31
0.0
  0
LINE
  5
15A
330
1F
100
AcDbEntity
  8
0-0
  6
Continuous
 62
     3
370
     9
100
AcDbLine
 10
-108.3327298550992
 20
53.68927496832782
 30
0.0
 11
-108.3327298550992
 21
240.6892980627114
 31
0.0
  0
LINE
  5
15B
330
1F
100
AcDbEntity
  8
0-F
  6
Continuous
 62
     7
370
     9
100
AcDbLine
 10
372.6900873957456
 20
-82.66298366237311
 30
0.0
 11
223.2756289920293
 21
-82.66298366237311
 31
0.0
  0
LINE
  5
15C
330
1F
100
AcDbEntity
  8
0-0
  6
Continuous
 62
     3
370
     9
100
AcDbLine
 10
-168.0827661462732
 20
263.6890770164698
 30
0.0
 11
-168.0827661462732
 21
257.1889318517739
 31
0.0
  0
LINE
  5
15D
330
1F
100
AcDbEntity
  8
0-0
  6
Continuous
 62
     3
370
     9
100
AcDbLine
 10
-156.0826770679371
 20
263.6890770164698
 30
0.0
 11
-156.0826770679371
 21
257.1889318517739
 31
0.0
  0
LINE
  5
15E
330
1F
100
AcDbEntity
  8
0-0
  6
Continuous
 62
     3
370
     9
100
AcDbLine
 10
-168.0827661462732
 20
281.1890110325171
 30
0.0
 11
-168.0827661462732
 21
274.6890638196793
 31
0.0
  0
LINE
  5
15F
330
1F
100
AcDbEntity
  8
0-0
  6
Continuous
 62
     3
370
     9
100
AcDbLine
 10
-156.0826770679371
 20
281.1890110325171
 30
0.0
 11
-156.0826770679371
 21
274.6890638196793
 31
0.0
  0
LINE
  5
160
330
1F
100
AcDbEntity
  8
0-0
  6
Continuous
 62
     3
370
     9
100
AcDbLine
 10
-620.5826011863915
 20
263.6890770164698
 30
0.0
 11
-620.5826011863915
 21
257.1889318517739
 31
0.0
  0
LINE
  5
161
330
1F
100
AcDbEntity
  8
0-0
  6
Continuous
 62
     3
370
     9
100
AcDbLine
 10
-632.5826902647276
 20
263.6890770164698
 30
0.0
 11
-632.5826902647276
 21
257.1889318517739
 31
0.0
  0
LINE
  5
162
330
1F
100
AcDbEntity
  8
0-0
  6
Continuous
 62
     3
370
     9
100
AcDbLine
 10
-620.5826011863915
 20
281.1890110325171
 30
0.0
 11
-620.5826011863915
 21
274.6890638196793
 31
0.0
  0
LINE
  5
163
330
1F
100
AcDbEntity
  8
0-0
  6
Continuous
 62
     3
370
     9
100
AcDbLine
 10
-632.5826902647276
 20
281.1890110325171
 30
0.0
 11
-632.5826902647276
 21
274.6890638196793
 31
0.0
  0
LINE
  5
164
330
1F
100
AcDbEntity
  8
0-0
  6
Continuous
 62
     3
370
     9
100
AcDbLine
 10
-168.0827166583086
 20
30.68944652660491
 30
0.0
 11
-168.0827166583086
 21
37.18959169130085
 31
0.0
  0
LINE
  5
165
330
1F
100
AcDbEntity
  8
0-0
  6
Continuous
 62
     3
370
     9
100
AcDbLine
 10
-156.0826770679371
 20
30.68944652660491
 30
0.0
 11
-156.0826770679371
 21
37.18959169130085
 31
0.0
  0
LINE
  5
166
330
1F
100
AcDbEntity
  8
0-0
  6
Continuous
 62
     3
370
     9
100
AcDbLine
 10
-168.0827166583086
 20
13.18951251055762
 30
0.0
 11
-168.0827166583086
 21
19.68945972339543
 31
0.0
  0
LINE
  5
167
330
1F
100
AcDbEntity
  8
0-0
  6
Continuous
 62
     3
370
     9
100
AcDbLine
 10
-156.0826770679371
 20
13.18951251055762
 30
0.0
 11
-156.0826770679371
 21
19.68945972339543
 31
0.0
  0
LINE
  5
168
330
1F
100
AcDbEntity
  8
0-0
  6
Continuous
 62
     3
370
     9
100
AcDbLine
 10
-620.5826011863915
 20
30.68944652660491
 30
0.0
 11
-620.5826011863915
 21
37.18959169130085
 31
0.0
  0
LINE
  5
169
330
1F
100
AcDbEntity
  8
0-0
  6
Continuous
 62
     3
370
     9
100
AcDbLine
 10
-632.5826902647276
 20
30.68944652660491
 30
0.0
 11
-632.5826902647276
 21
37.18959169130085
 31
0.0
  0
LINE
  5
16A
330
1F
100
AcDbEntity
  8
0-0
  6
Continuous
 62
     3
370
     9
100
AcDbLine
 10
-620.5826011863915
 20
13.18951251055762
 30
0.0
 11
-620.5826011863915
 21
19.68945972339543
 31
0.0
  0
LINE
  5
16B
330
1F
100
AcDbEntity
  8
0-0
  6
Continuous
 62
     3
370
     9
100
AcDbLine
 10
-632.5826902647276
 20
13.18951251055762
 30
0.0
 11
-632.5826902647276
 21
19.68945972339543
 31
0.0
  0
LINE
  5
16C
330
1F
100
AcDbEntity
  8
0-0
  6
Continuous
 62
     3
370
     9
100
AcDbLine
 10
-166.1623856828019
 20
-211.3512391786317
 30
0.0
 11
-158.0027111156567
 21
-211.3512391786317
 31
0.0
  0
LINE
  5
16D
330
1F
100
AcDbEntity
  8
0-0
  6
Continuous
 62
     3
370
     9
100
AcDbLine
 10
-157.0061224860113
 20
-210.4343261718748
 30
0.0
 11
-156.7493294380806
 21
-207.351225981841
 31
0.0
  0
LINE
  5
16E
330
1F
100
AcDbEntity
  8
0-0
  6
Continuous
 62
     3
370
     9
100
AcDbLine
 10
-167.1590238004117
 20
-210.4343261718748
 30
0.0
 11
-167.4159158242715
 21
-207.351225981841
 31
0.0
  0
LINE
  5
16F
330
1F
100
AcDbEntity
  8
0-0
  6
Continuous
 62
     3
370
     9
100
AcDbLine
 10
-622.5027836980047
 20
-211.3512391786317
 30
0.0
 11
-630.6624582651499
 21
-211.3512391786317
 31
0.0
  0
LINE
  5
170
330
1F
100
AcDbEntity
  8
0-0
  6
Continuous
 62
     3
370
     9
100
AcDbLine
 10
-631.6590468947951
 20
-210.4343261718748
 30
0.0
 11
-631.9158399427259
 21
-207.351225981841
 31
0.0
  0
LINE
  5
171
330
1F
100
AcDbEntity
  8
0-0
  6
Continuous
 62
     3
370
     9
100
AcDbLine
 10
-621.5061455803948
 20
-210.4343261718748
 30
0.0
 11
-621.249253556535
 21
-207.351225981841
 31
0.0
  0
LINE
  5
172
330
1F
100
AcDbEntity
  8
0-1
  6
JWW_CENTER1
 62
     2
370
     9
100
AcDbLine
 10
-585.3325714936127
 20
-7.310777818834254
 30
0.0
 11
-604.3325846904032
 21
-7.310777818834254
 31
0.0
  0
LINE
  5
173
330
1F
100
AcDbEntity
  8
0-1
  6
JWW_CENTER1
 62
     2
370
     9
100
AcDbLine
 10
-594.832578092008
 20
1.189225480363348
 30
0.0
 11
-594.832578092008
 21
-36.81070193728863
 31
0.0
  0
LINE
  5
174
330
1F
100
AcDbEntity
  8
0-1
  6
Continuous
 62
     2
370
     9
100
AcDbLine
 10
-599.3325681944151
 20
326.1892089843752
 30
0.0
 11
-590.3325385016363
 21
326.1892089843752
 31
0.0
  0
LINE
  5
175
330
1F
100
AcDbEntity
  8
0-1
  6
Continuous
 62
     2
370
     9
100
AcDbLine
 10
-590.3325385016363
 20
301.6892023859799
 30
0.0
 11
-590.3325385016363
 21
326.1892089843752
 31
0.0
  0
LINE
  5
176
330
1F
100
AcDbEntity
  8
0-1
  6
Continuous
 62
     2
370
     9
100
AcDbLine
 10
-599.3325681944151
 20
301.6925675675677
 30
0.0
 11
-599.3325681944151
 21
326.1892089843752
 31
0.0
  0
LINE
  5
177
330
1F
100
AcDbEntity
  8
0-1
  6
JWW_CENTER1
 62
     2
370
     9
100
AcDbLine
 10
-585.3325714936127
 20
301.689301361909
 30
0.0
 11
-604.3325846904032
 21
301.689301361909
 31
0.0
  0
LINE
  5
178
330
1F
100
AcDbEntity
  8
0-1
  6
JWW_CENTER1
 62
     2
370
     9
100
AcDbLine
 10
-594.832578092008
 20
293.1892485747468
 30
0.0
 11
-594.832578092008
 21
331.1892749683279
 31
0.0
  0
LINE
  5
179
330
1F
100
AcDbEntity
  8
0-1
  6
Continuous
 62
     2
370
     9
100
AcDbLine
 10
0.6674812935494856
 20
-31.81068544130051
 30
0.0
 11
9.66746149836365
 21
-31.81068544130051
 31
0.0
  0
LINE
  5
17A
330
1F
100
AcDbEntity
  8
0-1
  6
Continuous
 62
     2
370
     9
100
AcDbLine
 10
9.66746149836365
 20
-7.31067884290519
 30
0.0
 11
9.66746149836365
 21
-31.81068544130051
 31
0.0
  0
LINE
  5
17B
330
1F
100
AcDbEntity
  8
0-1
  6
Continuous
 62
     2
370
     9
100
AcDbLine
 10
0.6674812935494856
 20
-7.314044024493114
 30
0.0
 11
0.6674812935494856
 21
-31.81068544130051
 31
0.0
  0
LINE
  5
17C
330
1F
100
AcDbEntity
  8
0-1
  6
JWW_CENTER1
 62
     2
370
     9
100
AcDbLine
 10
14.6674285063873
 20
-7.310777818834254
 30
0.0
 11
-4.332584690403223
 21
-7.310777818834254
 31
0.0
  0
LINE
  5
17D
330
1F
100
AcDbEntity
  8
0-1
  6
JWW_CENTER1
 62
     2
370
     9
100
AcDbLine
 10
5.167421907991979
 20
1.189225480363348
 30
0.0
 11
5.167421907991979
 21
-36.81070193728863
 31
0.0
  0
LINE
  5
17E
330
1F
100
AcDbEntity
  8
0-1
  6
Continuous
 62
     2
370
     9
100
AcDbLine
 10
0.6674812935494856
 20
326.1892089843752
 30
0.0
 11
9.66746149836365
 21
326.1892089843752
 31
0.0
  0
LINE
  5
17F
330
1F
100
AcDbEntity
  8
0-1
  6
Continuous
 62
     2
370
     9
100
AcDbLine
 10
9.66746149836365
 20
301.6892023859799
 30
0.0
 11
9.66746149836365
 21
326.1892089843752
 31
0.0
  0
LINE
  5
180
330
1F
100
AcDbEntity
  8
0-1
  6
Continuous
 62
     2
370
     9
100
AcDbLine
 10
0.6674812935494856
 20
301.6925675675677
 30
0.0
 11
0.6674812935494856
 21
326.1892089843752
 31
0.0
  0
LINE
  5
181
330
1F
100
AcDbEntity
  8
0-1
  6
JWW_CENTER1
 62
     2
370
     9
100
AcDbLine
 10
14.6674285063873
 20
301.689301361909
 30
0.0
 11
-4.332584690403223
 21
301.689301361909
 31
0.0
  0
LINE
  5
182
330
1F
100
AcDbEntity
  8
0-1
  6
JWW_CENTER1
 62
     2
370
     9
100
AcDbLine
 10
5.167421907991979
 20
293.1892485747468
 30
0.0
 11
5.167421907991979
 21
331.1892749683279
 31
0.0
  0
LINE
  5
183
330
1F
100
AcDbEntity
  8
0-F
  6
Continuous
 62
     7
370
     9
100
AcDbLine
 10
-693.8326572727512
 20
-114.1620235958613
 30
0.0
 11
-681.9353546967377
 21
-112.59582849451
 31
0.0
  0
LINE
  5
184
330
1F
100
AcDbEntity
  8
0-F
  6
Continuous
 62
     7
370
     9
100
AcDbLine
 10
-693.8326572727512
 20
-114.1620235958613
 30
0.0
 11
-681.9353546967377
 21
-115.7284166490708
 31
0.0
  0
LINE
  5
185
330
1F
100
AcDbEntity
  8
0-F
  6
Continuous
 62
     7
370
     9
100
AcDbLine
 10
-94.83261108398438
 20
-114.1620235958613
 30
0.0
 11
-106.7298641720333
 21
-112.59582849451
 31
0.0
  0
LINE
  5
186
330
1F
100
AcDbEntity
  8
0-F
  6
Continuous
 62
     7
370
     9
100
AcDbLine
 10
-94.83261108398438
 20
-114.1620235958613
 30
0.0
 11
-106.7298641720333
 21
-115.7284166490708
 31
0.0
  0
LINE
  5
187
330
1F
100
AcDbEntity
  8
0-F
  6
Continuous
 62
     7
370
     9
100
AcDbLine
 10
-93.83265727275125
 20
-114.1620235958613
 30
0.0
 11
-81.9353546967377
 21
-112.59582849451
 31
0.0
  0
LINE
  5
188
330
1F
100
AcDbEntity
  8
0-F
  6
Continuous
 62
     7
370
     9
100
AcDbLine
 10
-93.83265727275125
 20
-114.1620235958613
 30
0.0
 11
-81.9353546967377
 21
-115.7284166490708
 31
0.0
  0
LINE
  5
189
330
1F
100
AcDbEntity
  8
0-F
  6
Continuous
 62
     7
370
     9
100
AcDbLine
 10
-693.8326572727512
 20
-7.810705236486342
 30
0.0
 11
-693.8326572727512
 21
-115.3621067356416
 31
0.0
  0
LINE
  5
18A
330
1F
100
AcDbEntity
  8
0-F
  6
Continuous
 62
     7
370
     9
100
AcDbLine
 10
-93.83265727275125
 20
-7.810705236486342
 30
0.0
 11
-93.83265727275125
 21
-115.3621067356416
 31
0.0
  0
LINE
  5
18B
330
1F
100
AcDbEntity
  8
0-F
  6
Continuous
 62
     7
370
     9
100
AcDbLine
 10
-693.8326572727512
 20
-114.1620235958613
 30
0.0
 11
135.1673559240394
 21
-114.1620235958613
 31
0.0
  0
LINE
  5
18C
330
1F
100
AcDbEntity
  8
0-F
  6
Continuous
 62
     7
370
     9
100
AcDbLine
 10
-683.832723256704
 20
-76.22662848395248
 30
0.0
 11
-104.8326440759607
 21
-76.22662848395248
 31
0.0
  0
LINE
  5
18D
330
1F
100
AcDbEntity
  8
0-F
  6
Continuous
 62
     7
370
     9
100
AcDbLine
 10
-683.8326242807749
 20
-7.810705236486342
 30
0.0
 11
-683.832723256704
 21
-77.42661264780395
 31
0.0
  0
LINE
  5
18E
330
1F
100
AcDbEntity
  8
0-F
  6
Continuous
 62
     7
370
     9
100
AcDbLine
 10
-104.8326440759607
 20
-7.810705236486342
 30
0.0
 11
-104.8326440759607
 21
-77.42661264780395
 31
0.0
  0
LINE
  5
18F
330
1F
100
AcDbEntity
  8
0-F
  6
Continuous
 62
     7
370
     9
100
AcDbLine
 10
-683.832723256704
 20
-76.22662848395248
 30
0.0
 11
-671.9353217047613
 21
-74.66033440667206
 31
0.0
  0
LINE
  5
190
330
1F
100
AcDbEntity
  8
0-F
  6
Continuous
 62
     7
370
     9
100
AcDbLine
 10
-683.832723256704
 20
-76.22662848395248
 30
0.0
 11
-671.9353217047613
 21
-77.7929225612329
 31
0.0
  0
LINE
  5
191
330
1F
100
AcDbEntity
  8
0-F
  6
Continuous
 62
     7
370
     9
100
AcDbLine
 10
-104.8326440759607
 20
-76.22662848395248
 30
0.0
 11
-116.7299466519742
 21
-74.66033440667206
 31
0.0
  0
LINE
  5
192
330
1F
100
AcDbEntity
  8
0-F
  6
Continuous
 62
     7
370
     9
100
AcDbLine
 10
-104.8326440759607
 20
-76.22662848395248
 30
0.0
 11
-116.7299466519742
 21
-77.7929225612329
 31
0.0
  0
LINE
  5
193
330
1F
100
AcDbEntity
  8
0-F
  6
Continuous
 62
     7
370
     9
100
AcDbLine
 10
-694.8325615960198
 20
357.1893607474664
 30
0.0
 11
-682.9352590200064
 21
358.7557538006758
 31
0.0
  0
LINE
  5
194
330
1F
100
AcDbEntity
  8
0-F
  6
Continuous
 62
     7
370
     9
100
AcDbLine
 10
-694.8325615960198
 20
357.1893607474664
 30
0.0
 11
-682.9352590200064
 21
355.623165646115
 31
0.0
  0
LINE
  5
195
330
1F
100
AcDbEntity
  8
0-F
  6
Continuous
 62
     7
370
     9
100
AcDbLine
 10
-582.9352260280299
 20
355.623165646115
 30
0.0
 11
-606.729930155986
 21
358.7557538006758
 31
0.0
  0
LINE
  5
196
330
1F
100
AcDbEntity
  8
0-F
  6
Continuous
 62
     7
370
     9
100
AcDbLine
 10
-582.9352260280299
 20
358.7557538006758
 30
0.0
 11
-606.729930155986
 21
355.623165646115
 31
0.0
  0
LINE
  5
197
330
1F
100
AcDbEntity
  8
0-F
  6
Continuous
 62
     7
370
     9
100
AcDbLine
 10
17.06482345993459
 20
355.623165646115
 30
0.0
 11
-6.729781692092388
 21
358.7557538006758
 31
0.0
  0
LINE
  5
198
330
1F
100
AcDbEntity
  8
0-F
  6
Continuous
 62
     7
370
     9
100
AcDbLine
 10
17.06482345993459
 20
358.7557538006758
 30
0.0
 11
-6.729781692092388
 21
355.623165646115
 31
0.0
  0
LINE
  5
199
330
1F
100
AcDbEntity
  8
0-F
  6
Continuous
 62
     7
370
     9
100
AcDbLine
 10
-694.8325615960198
 20
397.1894927153718
 30
0.0
 11
-682.9352590200064
 21
398.7556878167231
 31
0.0
  0
LINE
  5
19A
330
1F
100
AcDbEntity
  8
0-F
  6
Continuous
 62
     7
370
     9
100
AcDbLine
 10
-694.8325615960198
 20
397.1894927153718
 30
0.0
 11
-682.9352590200064
 21
395.6230996621623
 31
0.0
  0
LINE
  5
19B
330
1F
100
AcDbEntity
  8
0-F
  6
Continuous
 62
     7
370
     9
100
AcDbLine
 10
-694.8325615960198
 20
397.1894927153718
 30
0.0
 11
135.1674548999684
 21
397.1894927153718
 31
0.0
  0
LINE
  5
19C
330
1F
100
AcDbEntity
  8
0-F
  6
Continuous
 62
     7
370
     9
100
AcDbLine
 10
-694.8325615960198
 20
301.189373944257
 30
0.0
 11
-694.8325615960198
 21
398.3894768792231
 31
0.0
  0
LINE
  5
19D
330
1F
100
AcDbEntity
  8
0-F
  6
Continuous
 62
     7
370
     9
100
AcDbLine
 10
5.167520883921043
 20
334.1895323057435
 30
0.0
 11
5.167520883921043
 21
358.3895428631758
 31
0.0
  0
LINE
  5
19E
330
1F
100
AcDbEntity
  8
0-F
  6
Continuous
 62
     7
370
     9
100
AcDbLine
 10
-594.8325286040434
 20
334.1895323057435
 30
0.0
 11
-594.8325286040434
 21
358.3895428631758
 31
0.0
  0
LINE
  5
19F
330
1F
100
AcDbEntity
  8
0-F
  6
Continuous
 62
     7
370
     9
100
AcDbLine
 10
-694.8325615960198
 20
357.1893607474664
 30
0.0
 11
135.1674548999684
 21
357.1893607474664
 31
0.0
  0
LINE
  5
1A0
330
1F
100
AcDbEntity
  8
0-E
  6
Continuous
 62
     7
370
     9
100
AcDbLine
 10
206.9982456516576
 20
367.8688634923989
 30
0.0
 11
402.3190266377219
 21
367.8688634923989
 31
0.0
  0
LINE
  5
1A1
330
1F
100
AcDbEntity
  8
0-0
  6
Continuous
 62
     3
370
     9
100
AcDbLine
 10
423.6675406791069
 20
253.4697133657096
 30
0.0
 11
423.6675406791069
 21
289.163204708615
 31
0.0
  0
LINE
  5
1A2
330
1F
100
AcDbEntity
  8
0-0
  6
Continuous
 62
     3
370
     9
100
AcDbLine
 10
423.6675406791069
 20
40.90881017736501
 30
0.0
 11
423.6675406791069
 21
5.215318834459595
 31
0.0
  0
LINE
  5
1A3
330
1F
100
AcDbEntity
  8
0-1
  6
Continuous
 62
     2
370
     9
100
AcDbLine
 10
405.6674812935494
 20
297.1893607474664
 30
0.0
 11
480.8674126702385
 21
297.1893607474664
 31
0.0
  0
LINE
  5
1A4
330
1F
100
AcDbEntity
  8
0-1
  6
Continuous
 62
     2
370
     9
100
AcDbLine
 10
405.6674812935494
 20
-2.810688740498108
 30
0.0
 11
480.8674126702385
 21
-2.810688740498108
 31
0.0
  0
LINE
  5
1A5
330
1F
100
AcDbEntity
  8
0-F
  6
Continuous
 62
     7
370
     9
100
AcDbLine
 10
552.8674522606102
 20
-31.81078441722957
 30
0.0
 11
552.8674522606102
 21
-2.810688740498108
 31
0.0
  0
LINE
  5
1A6
330
1F
100
AcDbEntity
  8
0-F
  6
Continuous
 62
     7
370
     9
100
AcDbLine
 10
500.8674786541915
 20
-31.81078441722957
 30
0.0
 11
554.0674364244614
 21
-31.81078441722957
 31
0.0
  0
LINE
  5
1A7
330
1F
100
AcDbEntity
  8
0-F
  6
Continuous
 62
     7
370
     9
100
AcDbLine
 10
488.8674390638198
 20
-2.810688740498108
 30
0.0
 11
554.0674364244614
 21
-2.810688740498108
 31
0.0
  0
LINE
  5
1A8
330
1F
100
AcDbEntity
  8
0-F
  6
Continuous
 62
     7
370
     9
100
AcDbLine
 10
552.8674522606102
 20
-31.81078441722957
 30
0.0
 11
551.3011581833298
 21
-19.91343235325155
 31
0.0
  0
LINE
  5
1A9
330
1F
100
AcDbEntity
  8
0-F
  6
Continuous
 62
     7
370
     9
100
AcDbLine
 10
552.8674522606102
 20
-31.81078441722957
 30
0.0
 11
554.4337463378906
 21
-19.91343235325155
 31
0.0
  0
LINE
  5
1AA
330
1F
100
AcDbEntity
  8
0-F
  6
Continuous
 62
     7
370
     9
100
AcDbLine
 10
552.8674522606102
 20
-2.810688740498108
 30
0.0
 11
551.3011581833298
 21
-14.70804080447613
 31
0.0
  0
LINE
  5
1AB
330
1F
100
AcDbEntity
  8
0-F
  6
Continuous
 62
     7
370
     9
100
AcDbLine
 10
552.8674522606102
 20
-2.810688740498108
 30
0.0
 11
554.4337463378906
 21
-14.70804080447613
 31
0.0
  0
LINE
  5
1AC
330
1F
100
AcDbEntity
  8
0-F
  6
Continuous
 62
     7
370
     9
100
AcDbLine
 10
552.8674522606102
 20
-2.810688740498108
 30
0.0
 11
552.8674522606102
 21
47.18927826752554
 31
0.0
  0
LINE
  5
1AD
330
1F
100
AcDbEntity
  8
0-F
  6
Continuous
 62
     7
370
     9
100
AcDbLine
 10
476.8674984493773
 20
47.18927826752554
 30
0.0
 11
554.0674364244614
 21
47.18927826752554
 31
0.0
  0
LINE
  5
1AE
330
1F
100
AcDbEntity
  8
0-F
  6
Continuous
 62
     7
370
     9
100
AcDbLine
 10
552.8674522606102
 20
-2.810688740498108
 30
0.0
 11
551.3011581833298
 21
9.086663323479911
 31
0.0
  0
LINE
  5
1AF
330
1F
100
AcDbEntity
  8
0-F
  6
Continuous
 62
     7
370
     9
100
AcDbLine
 10
552.8674522606102
 20
-2.810688740498108
 30
0.0
 11
554.4337463378906
 21
9.086663323479911
 31
0.0
  0
LINE
  5
1B0
330
1F
100
AcDbEntity
  8
0-F
  6
Continuous
 62
     7
370
     9
100
AcDbLine
 10
552.8674522606102
 20
47.18927826752554
 30
0.0
 11
551.3011581833298
 21
35.29192620354752
 31
0.0
  0
LINE
  5
1B1
330
1F
100
AcDbEntity
  8
0-F
  6
Continuous
 62
     7
370
     9
100
AcDbLine
 10
552.8674522606102
 20
47.18927826752554
 30
0.0
 11
554.4337463378906
 21
35.29192620354752
 31
0.0
  0
LINE
  5
1B2
330
1F
100
AcDbEntity
  8
0-F
  6
Continuous
 62
     7
370
     9
100
AcDbLine
 10
552.8674522606102
 20
47.18927826752554
 30
0.0
 11
552.8674522606102
 21
247.1891957875846
 31
0.0
  0
LINE
  5
1B3
330
1F
100
AcDbEntity
  8
0-F
  6
Continuous
 62
     7
370
     9
100
AcDbLine
 10
476.8674984493773
 20
247.1891957875846
 30
0.0
 11
554.0674364244614
 21
247.1891957875846
 31
0.0
  0
LINE
  5
1B4
330
1F
100
AcDbEntity
  8
0-F
  6
Continuous
 62
     7
370
     9
100
AcDbLine
 10
552.8674522606102
 20
47.18927826752554
 30
0.0
 11
551.3011581833298
 21
59.08663033150356
 31
0.0
  0
LINE
  5
1B5
330
1F
100
AcDbEntity
  8
0-F
  6
Continuous
 62
     7
370
     9
100
AcDbLine
 10
552.8674522606102
 20
47.18927826752554
 30
0.0
 11
554.4337463378906
 21
59.08663033150356
 31
0.0
  0
LINE
  5
1B6
330
1F
100
AcDbEntity
  8
0-F
  6
Continuous
 62
     7
370
     9
100
AcDbLine
 10
552.8674522606102
 20
247.1891957875846
 30
0.0
 11
551.3011581833298
 21
235.2918437236066
 31
0.0
  0
LINE
  5
1B7
330
1F
100
AcDbEntity
  8
0-F
  6
Continuous
 62
     7
370
     9
100
AcDbLine
 10
552.8674522606102
 20
247.1891957875846
 30
0.0
 11
554.4337463378906
 21
235.2918437236066
 31
0.0
  0
LINE
  5
1B8
330
1F
100
AcDbEntity
  8
0-F
  6
Continuous
 62
     7
370
     9
100
AcDbLine
 10
552.8674522606102
 20
247.1891957875846
 30
0.0
 11
552.8674522606102
 21
297.1893607474664
 31
0.0
  0
LINE
  5
1B9
330
1F
100
AcDbEntity
  8
0-F
  6
Continuous
 62
     7
370
     9
100
AcDbLine
 10
488.8674390638198
 20
297.1893607474664
 30
0.0
 11
554.0674364244614
 21
297.1893607474664
 31
0.0
  0
LINE
  5
1BA
330
1F
100
AcDbEntity
  8
0-F
  6
Continuous
 62
     7
370
     9
100
AcDbLine
 10
552.8674522606102
 20
247.1891957875846
 30
0.0
 11
551.3011581833298
 21
259.0865478515627
 31
0.0
  0
LINE
  5
1BB
330
1F
100
AcDbEntity
  8
0-F
  6
Continuous
 62
     7
370
     9
100
AcDbLine
 10
552.8674522606102
 20
247.1891957875846
 30
0.0
 11
554.4337463378906
 21
259.0865478515627
 31
0.0
  0
LINE
  5
1BC
330
1F
100
AcDbEntity
  8
0-F
  6
Continuous
 62
     7
370
     9
100
AcDbLine
 10
552.8674522606102
 20
297.1893607474664
 30
0.0
 11
551.3011581833298
 21
285.2920581714529
 31
0.0
  0
LINE
  5
1BD
330
1F
100
AcDbEntity
  8
0-F
  6
Continuous
 62
     7
370
     9
100
AcDbLine
 10
552.8674522606102
 20
297.1893607474664
 30
0.0
 11
554.4337463378906
 21
285.2920581714529
 31
0.0
  0
LINE
  5
1BE
330
1F
100
AcDbEntity
  8
0-F
  6
Continuous
 62
     7
370
     9
100
AcDbLine
 10
552.8674522606102
 20
297.1893607474664
 30
0.0
 11
552.8674522606102
 21
326.1893079603043
 31
0.0
  0
LINE
  5
1BF
330
1F
100
AcDbEntity
  8
0-F
  6
Continuous
 62
     7
370
     9
100
AcDbLine
 10
500.8674786541915
 20
326.1893079603043
 30
0.0
 11
554.0674364244614
 21
326.1893079603043
 31
0.0
  0
LINE
  5
1C0
330
1F
100
AcDbEntity
  8
0-F
  6
Continuous
 62
     7
370
     9
100
AcDbLine
 10
552.8674522606102
 20
297.1893607474664
 30
0.0
 11
551.3011581833298
 21
309.0866633234799
 31
0.0
  0
LINE
  5
1C1
330
1F
100
AcDbEntity
  8
0-F
  6
Continuous
 62
     7
370
     9
100
AcDbLine
 10
552.8674522606102
 20
297.1893607474664
 30
0.0
 11
554.4337463378906
 21
309.0866633234799
 31
0.0
  0
LINE
  5
1C2
330
1F
100
AcDbEntity
  8
0-F
  6
Continuous
 62
     7
370
     9
100
AcDbLine
 10
552.8674522606102
 20
326.1893079603043
 30
0.0
 11
551.3011581833298
 21
314.2920053842907
 31
0.0
  0
LINE
  5
1C3
330
1F
100
AcDbEntity
  8
0-F
  6
Continuous
 62
     7
370
     9
100
AcDbLine
 10
552.8674522606102
 20
326.1893079603043
 30
0.0
 11
554.4337463378906
 21
314.2920053842907
 31
0.0
  0
LINE
  5
1C4
330
1F
100
AcDbEntity
  8
0-F
  6
Continuous
 62
     7
370
     9
100
AcDbLine
 10
492.8674522606102
 20
-102.81067224451
 30
0.0
 11
480.9701496845969
 21
-101.2443781672296
 31
0.0
  0
LINE
  5
1C5
330
1F
100
AcDbEntity
  8
0-F
  6
Continuous
 62
     7
370
     9
100
AcDbLine
 10
405.6674812935494
 20
-102.81067224451
 30
0.0
 11
492.8674522606102
 21
-102.81067224451
 31
0.0
  0
ARC
  5
1C6
330
1F
100
AcDbEntity
  8
0-1
  6
Continuous
 62
     2
370
     9
100
AcDbCircle
 10
462.467391555374
 20
290.7892802470441
 30
0.0
 40
3.200000041239971
100
AcDbArc
 50
0.0
 51
90.0
  0
ARC
  5
1C7
330
1F
100
AcDbEntity
  8
0-1
  6
Continuous
 62
     2
370
     9
100
AcDbCircle
 10
462.467391555374
 20
290.7892802470441
 30
0.0
 40
6.400000082479941
100
AcDbArc
 50
0.0
 51
90.0
  0
ARC
  5
1C8
330
1F
100
AcDbEntity
  8
0-1
  6
Continuous
 62
     2
370
     9
100
AcDbCircle
 10
462.467391555374
 20
3.589243296030531
 30
0.0
 40
6.400000082479941
100
AcDbArc
 50
270.0
 51
0.0
  0
ARC
  5
1C9
330
1F
100
AcDbEntity
  8
0-1
  6
Continuous
 62
     2
370
     9
100
AcDbCircle
 10
462.467391555374
 20
3.589243296030531
 30
0.0
 40
3.200000041239971
100
AcDbArc
 50
270.0
 51
0.0
  0
ARC
  5
1CA
330
1F
100
AcDbEntity
  8
0-1
  6
Continuous
 62
     2
370
     9
100
AcDbCircle
 10
-594.832578092008
 20
-7.31067884290519
 30
0.0
 40
4.500000154649889
100
AcDbArc
 50
1.403289794921875
 51
0.0
  0
ARC
  5
1CB
330
1F
100
AcDbEntity
  8
0-0
  6
Continuous
 62
     3
370
     9
100
AcDbCircle
 10
-692.8325549976246
 20
-194.3512820682008
 30
0.0
 40
1.000000012887491
100
AcDbArc
 50
90.0
 51
180.0
  0
ARC
  5
1CC
330
1F
100
AcDbEntity
  8
0-0
  6
Continuous
 62
     3
370
     9
100
AcDbCircle
 10
-689.3952694454708
 20
-252.3512754698056
 30
0.0
 40
1.000000012887491
100
AcDbArc
 50
183.70849609375
 51
270.0
  0
ARC
  5
1CD
330
1F
100
AcDbEntity
  8
0-0
  6
Continuous
 62
     3
370
     9
100
AcDbCircle
 10
-683.2636611526076
 20
-252.3512754698056
 30
0.0
 40
1.000000012887491
100
AcDbArc
 50
270.0
 51
355.9134674072266
  0
ARC
  5
1CE
330
1F
100
AcDbEntity
  8
0-0
  6
Continuous
 62
     3
370
     9
100
AcDbCircle
 10
-676.2534435375317
 20
-210.3512853673985
 30
0.0
 40
3.000000038662472
100
AcDbArc
 50
90.0
 51
175.9139556884765
  0
ARC
  5
1CF
330
1F
100
AcDbEntity
  8
0-0
  6
Continuous
 62
     3
370
     9
100
AcDbCircle
 10
-447.3865529653188
 20
-252.3512754698056
 30
0.0
 40
1.000000012887491
100
AcDbArc
 50
183.1801452636719
 51
270.0
  0
ARC
  5
1D0
330
1F
100
AcDbEntity
  8
0-0
  6
Continuous
 62
     3
370
     9
100
AcDbCircle
 10
-453.72606019716
 20
-210.3512853673985
 30
0.0
 40
3.000000038662472
100
AcDbArc
 50
3.180191040039062
 51
90.0
  0
ARC
  5
1D1
330
1F
100
AcDbEntity
  8
0-0
  6
Continuous
 62
     3
370
     9
100
AcDbCircle
 10
-451.9482545594911
 20
-242.3512919657937
 30
0.0
 40
3.000000038662472
100
AcDbArc
 50
3.180191040039062
 51
90.0
  0
ARC
  5
1D2
330
1F
100
AcDbEntity
  8
0-0
  6
Continuous
 62
     3
370
     9
100
AcDbCircle
 10
-441.2785999194995
 20
-252.3512754698056
 30
0.0
 40
1.000000012887491
100
AcDbArc
 50
270.0
 51
356.8198547363282
  0
ARC
  5
1D3
330
1F
100
AcDbEntity
  8
0-0
  6
Continuous
 62
     3
370
     9
100
AcDbCircle
 10
-434.9390926876583
 20
-210.3512853673985
 30
0.0
 40
3.000000038662472
100
AcDbArc
 50
90.0
 51
176.8198089599609
  0
ARC
  5
1D4
330
1F
100
AcDbEntity
  8
0-0
  6
Continuous
 62
     3
370
     9
100
AcDbCircle
 10
-436.7168983253272
 20
-242.3512919657937
 30
0.0
 40
3.000000038662472
100
AcDbArc
 50
90.0
 51
176.8198089599609
  0
ARC
  5
1D5
330
1F
100
AcDbEntity
  8
0-0
  6
Continuous
 62
     3
370
     9
100
AcDbCircle
 10
-569.3865595637141
 20
-252.3512754698056
 30
0.0
 40
1.000000012887491
100
AcDbArc
 50
183.1801452636719
 51
270.0
  0
ARC
  5
1D6
330
1F
100
AcDbEntity
  8
0-0
  6
Continuous
 62
     3
370
     9
100
AcDbCircle
 10
-575.7260667955553
 20
-210.3512853673985
 30
0.0
 40
3.000000038662472
100
AcDbArc
 50
3.180191040039062
 51
90.0
  0
ARC
  5
1D7
330
1F
100
AcDbEntity
  8
0-0
  6
Continuous
 62
     3
370
     9
100
AcDbCircle
 10
-573.9482611578863
 20
-242.3512919657937
 30
0.0
 40
3.000000038662472
100
AcDbArc
 50
3.180191040039062
 51
90.0
  0
ARC
  5
1D8
330
1F
100
AcDbEntity
  8
0-0
  6
Continuous
 62
     3
370
     9
100
AcDbCircle
 10
-563.2786065178949
 20
-252.3512754698056
 30
0.0
 40
1.000000012887491
100
AcDbArc
 50
270.0
 51
356.8198547363282
  0
ARC
  5
1D9
330
1F
100
AcDbEntity
  8
0-0
  6
Continuous
 62
     3
370
     9
100
AcDbCircle
 10
-556.9390992860536
 20
-210.3512853673985
 30
0.0
 40
3.000000038662472
100
AcDbArc
 50
90.0
 51
176.8198089599609
  0
ARC
  5
1DA
330
1F
100
AcDbEntity
  8
0-0
  6
Continuous
 62
     3
370
     9
100
AcDbCircle
 10
-558.7169049237226
 20
-242.3512919657937
 30
0.0
 40
3.000000038662472
100
AcDbArc
 50
90.0
 51
176.8198089599609
  0
ARC
  5
1DB
330
1F
100
AcDbEntity
  8
0-0
  6
Continuous
 62
     3
370
     9
100
AcDbCircle
 10
-95.83261438318198
 20
-194.3512820682008
 30
0.0
 40
1.000000012887491
100
AcDbArc
 50
0.0
 51
90.0
  0
ARC
  5
1DC
330
1F
100
AcDbEntity
  8
0-0
  6
Continuous
 62
     3
370
     9
100
AcDbCircle
 10
-99.26989993533573
 20
-252.3512754698056
 30
0.0
 40
1.000000012887491
100
AcDbArc
 50
270.0
 51
356.29150390625
  0
ARC
  5
1DD
330
1F
100
AcDbEntity
  8
0-0
  6
Continuous
 62
     3
370
     9
100
AcDbCircle
 10
-105.4015082281988
 20
-252.3512754698056
 30
0.0
 40
1.000000012887491
100
AcDbArc
 50
184.0865325927734
 51
270.0
  0
ARC
  5
1DE
330
1F
100
AcDbEntity
  8
0-0
  6
Continuous
 62
     3
370
     9
100
AcDbCircle
 10
-112.4117258432749
 20
-210.3512853673985
 30
0.0
 40
3.000000038662472
100
AcDbArc
 50
4.086044311523438
 51
90.0
  0
ARC
  5
1DF
330
1F
100
AcDbEntity
  8
0-0
  6
Continuous
 62
     3
370
     9
100
AcDbCircle
 10
-341.2786164154877
 20
-252.3512754698056
 30
0.0
 40
1.000000012887491
100
AcDbArc
 50
270.0
 51
356.8198547363282
  0
ARC
  5
1E0
330
1F
100
AcDbEntity
  8
0-0
  6
Continuous
 62
     3
370
     9
100
AcDbCircle
 10
-334.9391091836465
 20
-210.3512853673985
 30
0.0
 40
3.000000038662472
100
AcDbArc
 50
90.0
 51
176.8198089599609
  0
ARC
  5
1E1
330
1F
100
AcDbEntity
  8
0-0
  6
Continuous
 62
     3
370
     9
100
AcDbCircle
 10
-336.7169148213154
 20
-242.3512919657937
 30
0.0
 40
3.000000038662472
100
AcDbArc
 50
90.0
 51
176.8198089599609
  0
ARC
  5
1E2
330
1F
100
AcDbEntity
  8
0-0
  6
Continuous
 62
     3
370
     9
100
AcDbCircle
 10
-347.386569461307
 20
-252.3512754698056
 30
0.0
 40
1.000000012887491
100
AcDbArc
 50
183.1801452636719
 51
270.0
  0
ARC
  5
1E3
330
1F
100
AcDbEntity
  8
0-0
  6
Continuous
 62
     3
370
     9
100
AcDbCircle
 10
-353.7260766931482
 20
-210.3512853673985
 30
0.0
 40
3.000000038662472
100
AcDbArc
 50
3.180191040039062
 51
90.0
  0
ARC
  5
1E4
330
1F
100
AcDbEntity
  8
0-0
  6
Continuous
 62
     3
370
     9
100
AcDbCircle
 10
-351.9482710554793
 20
-242.3512919657937
 30
0.0
 40
3.000000038662472
100
AcDbArc
 50
3.180191040039062
 51
90.0
  0
ARC
  5
1E5
330
1F
100
AcDbEntity
  8
0-0
  6
Continuous
 62
     3
370
     9
100
AcDbCircle
 10
-219.2786098170924
 20
-252.3512754698056
 30
0.0
 40
1.000000012887491
100
AcDbArc
 50
270.0
 51
356.8198547363282
  0
ARC
  5
1E6
330
1F
100
AcDbEntity
  8
0-0
  6
Continuous
 62
     3
370
     9
100
AcDbCircle
 10
-212.9391025852512
 20
-210.3512853673985
 30
0.0
 40
3.000000038662472
100
AcDbArc
 50
90.0
 51
176.8198089599609
  0
ARC
  5
1E7
330
1F
100
AcDbEntity
  8
0-0
  6
Continuous
 62
     3
370
     9
100
AcDbCircle
 10
-214.7169082229201
 20
-242.3512919657937
 30
0.0
 40
3.000000038662472
100
AcDbArc
 50
90.0
 51
176.8198089599609
  0
ARC
  5
1E8
330
1F
100
AcDbEntity
  8
0-0
  6
Continuous
 62
     3
370
     9
100
AcDbCircle
 10
-225.3865628629117
 20
-252.3512754698056
 30
0.0
 40
1.000000012887491
100
AcDbArc
 50
183.1801452636719
 51
270.0
  0
ARC
  5
1E9
330
1F
100
AcDbEntity
  8
0-0
  6
Continuous
 62
     3
370
     9
100
AcDbCircle
 10
-231.7260700947529
 20
-210.3512853673985
 30
0.0
 40
3.000000038662472
100
AcDbArc
 50
3.180191040039062
 51
90.0
  0
ARC
  5
1EA
330
1F
100
AcDbEntity
  8
0-0
  6
Continuous
 62
     3
370
     9
100
AcDbCircle
 10
-229.948264457084
 20
-242.3512919657937
 30
0.0
 40
3.000000038662472
100
AcDbArc
 50
3.180191040039062
 51
90.0
  0
ARC
  5
1EB
330
1F
100
AcDbEntity
  8
0-1
  6
Continuous
 62
     2
370
     9
100
AcDbCircle
 10
480.8675116461677
 20
309.189301361909
 30
0.0
 40
3.000000038662472
100
AcDbArc
 50
270.0
 51
0.0
  0
ARC
  5
1EC
330
1F
100
AcDbEntity
  8
0-1
  6
JWW_CENTER1
 62
     2
370
     9
100
AcDbCircle
 10
480.8673136943098
 20
309.189301361909
 30
0.0
 40
7.5
100
AcDbArc
 50
270.0
 51
0.0
  0
ARC
  5
1ED
330
1F
100
AcDbEntity
  8
0-1
  6
Continuous
 62
     2
370
     9
100
AcDbCircle
 10
480.8674126702385
 20
309.189400337838
 30
0.0
 40
12.00000015464989
100
AcDbArc
 50
270.0
 51
0.0
  0
ARC
  5
1EE
330
1F
100
AcDbEntity
  8
0-0
  6
Continuous
 62
     3
370
     9
100
AcDbCircle
 10
418.6674746951544
 20
267.0720742715373
 30
0.0
 40
1.000000012887491
100
AcDbArc
 50
277.1250152587891
 51
0.0000000000000254
  0
ARC
  5
1EF
330
1F
100
AcDbEntity
  8
0-0
  6
Continuous
 62
     3
370
     9
100
AcDbCircle
 10
406.6674351047827
 20
290.3421069995779
 30
0.0
 40
1.000000012887491
100
AcDbArc
 50
99.46231079101562
 51
180.0
  0
ARC
  5
1F0
330
1F
100
AcDbEntity
  8
0-0
  6
Continuous
 62
     3
370
     9
100
AcDbCircle
 10
406.6674351047827
 20
283.036297772382
 30
0.0
 40
1.000000012887491
100
AcDbArc
 50
180.0
 51
260.5376739501953
  0
ARC
  5
1F1
330
1F
100
AcDbEntity
  8
0-0
  6
Continuous
 62
     3
370
     9
100
AcDbCircle
 10
418.6674746951544
 20
288.8063964843752
 30
0.0
 40
1.000000012887491
100
AcDbArc
 50
0.0
 51
82.87496948242186
  0
ARC
  5
1F2
330
1F
100
AcDbEntity
  8
0-0
  6
Continuous
 62
     3
370
     9
100
AcDbCircle
 10
418.6674746951544
 20
284.5720082875846
 30
0.0
 40
1.000000012887491
100
AcDbArc
 50
277.1250152587891
 51
0.0000000000000254
  0
ARC
  5
1F3
330
1F
100
AcDbEntity
  8
0-0
  6
Continuous
 62
     3
370
     9
100
AcDbCircle
 10
418.6674746951544
 20
271.3064624683279
 30
0.0
 40
1.000000012887491
100
AcDbArc
 50
0.0
 51
82.87496948242186
  0
ARC
  5
1F4
330
1F
100
AcDbEntity
  8
0-0
  6
Continuous
 62
     3
370
     9
100
AcDbCircle
 10
406.6674351047827
 20
265.5363637563346
 30
0.0
 40
1.000000012887491
100
AcDbArc
 50
180.0
 51
260.5376739501953
  0
ARC
  5
1F5
330
1F
100
AcDbEntity
  8
0-0
  6
Continuous
 62
     3
370
     9
100
AcDbCircle
 10
406.6674351047827
 20
272.8421729835306
 30
0.0
 40
1.000000012887491
100
AcDbArc
 50
99.46231079101562
 51
180.0
  0
ARC
  5
1F6
330
1F
100
AcDbEntity
  8
0-0
  6
Continuous
 62
     3
370
     9
100
AcDbCircle
 10
406.6674351047827
 20
248.1055149387671
 30
0.0
 40
1.000000012887491
100
AcDbArc
 50
180.0
 51
264.9993438720703
  0
ARC
  5
1F7
330
1F
100
AcDbEntity
  8
0-0
  6
Continuous
 62
     3
370
     9
100
AcDbCircle
 10
406.6674351047827
 20
255.3420410156252
 30
0.0
 40
1.000000012887491
100
AcDbArc
 50
99.46231079101562
 51
180.0
  0
ARC
  5
1F8
330
1F
100
AcDbEntity
  8
0-0
  6
Continuous
 62
     3
370
     9
100
AcDbCircle
 10
454.6674944903402
 20
154.2306568042654
 30
0.0
 40
3.000000038662472
100
AcDbArc
 50
180.0
 51
260.5376739501953
  0
ARC
  5
1F9
330
1F
100
AcDbEntity
  8
0-0
  6
Continuous
 62
     3
370
     9
100
AcDbCircle
 10
413.6675076871306
 20
254.5197489970441
 30
0.0
 40
2.000000025774982
100
AcDbArc
 50
180.0
 51
264.9993438720703
  0
ARC
  5
1FA
330
1F
100
AcDbEntity
  8
0-0
  6
Continuous
 62
     3
370
     9
100
AcDbCircle
 10
442.6674548999686
 20
240.9403010187924
 30
0.0
 40
3.000000038662472
100
AcDbArc
 50
2.171249389648438
 51
84.99934387207031
  0
ARC
  5
1FB
330
1F
100
AcDbEntity
  8
0-0
  6
Continuous
 62
     3
370
     9
100
AcDbCircle
 10
447.667520883921
 20
245.5218967747046
 30
0.0
 40
4.000000051549963
100
AcDbArc
 50
0.0
 51
84.99934387207031
  0
ARC
  5
1FC
330
1F
100
AcDbEntity
  8
0-0
  6
Continuous
 62
     3
370
     9
100
AcDbCircle
 10
463.6674746951544
 20
243.0474985483532
 30
0.0
 40
3.000000038662472
100
AcDbArc
 50
105.0
 51
180.0
  0
ARC
  5
1FD
330
1F
100
AcDbEntity
  8
0-0
  6
Continuous
 62
     3
370
     9
100
AcDbCircle
 10
463.6674746951544
 20
51.33097550675689
 30
0.0
 40
3.000000038662472
100
AcDbArc
 50
180.0
 51
255.0
  0
ARC
  5
1FE
330
1F
100
AcDbEntity
  8
0-0
  6
Continuous
 62
     3
370
     9
100
AcDbCircle
 10
454.6674944903402
 20
140.1478667388093
 30
0.0
 40
3.000000038662472
100
AcDbArc
 50
99.46231079101562
 51
180.0
  0
ARC
  5
1FF
330
1F
100
AcDbEntity
  8
0-0
  6
Continuous
 62
     3
370
     9
100
AcDbCircle
 10
447.667520883921
 20
48.85662676837012
 30
0.0
 40
4.000000051549963
100
AcDbArc
 50
275.0006408691406
 51
0.0000000000000127
  0
ARC
  5
200
330
1F
100
AcDbEntity
  8
0-0
  6
Continuous
 62
     3
370
     9
100
AcDbCircle
 10
442.6674548999686
 20
53.43822252428231
 30
0.0
 40
3.000000038662472
100
AcDbArc
 50
275.0006408691406
 51
0.0000000000000127
  0
ARC
  5
201
330
1F
100
AcDbEntity
  8
0-0
  6
Continuous
 62
     3
370
     9
100
AcDbCircle
 10
413.6675076871306
 20
39.85872505806606
 30
0.0
 40
2.000000025774982
100
AcDbArc
 50
95.00064086914061
 51
180.0
  0
ARC
  5
202
330
1F
100
AcDbEntity
  8
0-0
  6
Continuous
 62
     3
370
     9
100
AcDbCircle
 10
406.6674351047827
 20
39.03638355152043
 30
0.0
 40
1.000000012887491
100
AcDbArc
 50
180.0
 51
260.5376739501953
  0
ARC
  5
203
330
1F
100
AcDbEntity
  8
0-0
  6
Continuous
 62
     3
370
     9
100
AcDbCircle
 10
406.6674351047827
 20
46.27295911634303
 30
0.0
 40
1.000000012887491
100
AcDbArc
 50
95.00064086914061
 51
180.0
  0
ARC
  5
204
330
1F
100
AcDbEntity
  8
0-0
  6
Continuous
 62
     3
370
     9
100
AcDbCircle
 10
406.6674351047827
 20
21.53635055954408
 30
0.0
 40
1.000000012887491
100
AcDbArc
 50
180.0
 51
260.5376739501953
  0
ARC
  5
205
330
1F
100
AcDbEntity
  8
0-0
  6
Continuous
 62
     3
370
     9
100
AcDbCircle
 10
406.6674351047827
 20
28.84211029877554
 30
0.0
 40
1.000000012887491
100
AcDbArc
 50
99.46231079101562
 51
180.0
  0
ARC
  5
206
330
1F
100
AcDbEntity
  8
0-0
  6
Continuous
 62
     3
370
     9
100
AcDbCircle
 10
418.6674746951544
 20
23.07201158678231
 30
0.0
 40
1.000000012887491
100
AcDbArc
 50
277.1250152587891
 51
0.0000000000000254
  0
ARC
  5
207
330
1F
100
AcDbEntity
  8
0-0
  6
Continuous
 62
     3
370
     9
100
AcDbCircle
 10
418.6674746951544
 20
9.806465767525538
 30
0.0
 40
1.000000012887491
100
AcDbArc
 50
1.403289794921875
 51
82.87496948242188
  0
ARC
  5
208
330
1F
100
AcDbEntity
  8
0-0
  6
Continuous
 62
     3
370
     9
100
AcDbCircle
 10
418.6674746951544
 20
5.57202808277043
 30
0.0
 40
1.000000012887491
100
AcDbArc
 50
277.1250152587891
 51
0.0000000000000254
  0
ARC
  5
209
330
1F
100
AcDbEntity
  8
0-0
  6
Continuous
 62
     3
370
     9
100
AcDbCircle
 10
406.6674351047827
 20
11.34207730679918
 30
0.0
 40
1.000000012887491
100
AcDbArc
 50
99.46231079101562
 51
180.0
  0
ARC
  5
20A
330
1F
100
AcDbEntity
  8
0-0
  6
Continuous
 62
     3
370
     9
100
AcDbCircle
 10
406.6674351047827
 20
4.03636705553231
 30
0.0
 40
1.000000012887491
100
AcDbArc
 50
180.0
 51
260.5376739501953
  0
ARC
  5
20B
330
1F
100
AcDbEntity
  8
0-0
  6
Continuous
 62
     3
370
     9
100
AcDbCircle
 10
418.6674746951544
 20
27.3064492715373
 30
0.0
 40
1.000000012887491
100
AcDbArc
 50
1.403289794921875
 51
82.87496948242188
  0
ARC
  5
20C
330
1F
100
AcDbEntity
  8
0-0
  6
Continuous
 62
     3
370
     9
100
AcDbCircle
 10
-111.3326902647276
 20
240.6892980627114
 30
0.0
 40
3.000000038662472
100
AcDbArc
 50
0.0
 51
90.0
  0
ARC
  5
20D
330
1F
100
AcDbEntity
  8
0-0
  6
Continuous
 62
     3
370
     9
100
AcDbCircle
 10
-107.8327034615181
 20
244.1892848659207
 30
0.0
 40
3.000000038662472
100
AcDbArc
 50
0.0
 51
90.0
  0
ARC
  5
20E
330
1F
100
AcDbEntity
  8
0-0
  6
Continuous
 62
     3
370
     9
100
AcDbCircle
 10
-680.8326638711466
 20
244.1892848659207
 30
0.0
 40
3.000000038662472
100
AcDbArc
 50
89.99998474121094
 51
180.0
  0
ARC
  5
20F
330
1F
100
AcDbEntity
  8
0-0
  6
Continuous
 62
     3
370
     9
100
AcDbCircle
 10
-677.3326770679371
 20
240.6892980627114
 30
0.0
 40
3.000000038662472
100
AcDbArc
 50
89.99998474121094
 51
180.0
  0
ARC
  5
210
330
1F
100
AcDbEntity
  8
0-0
  6
Continuous
 62
     3
370
     9
100
AcDbCircle
 10
-677.3326770679371
 20
53.68927496832782
 30
0.0
 40
3.000000038662472
100
AcDbArc
 50
180.0
 51
270.0
  0
ARC
  5
211
330
1F
100
AcDbEntity
  8
0-0
  6
Continuous
 62
     3
370
     9
100
AcDbCircle
 10
-680.8326638711466
 20
50.18928816511846
 30
0.0
 40
3.000000038662472
100
AcDbArc
 50
180.0
 51
270.0
  0
ARC
  5
212
330
1F
100
AcDbEntity
  8
0-0
  6
Continuous
 62
     3
370
     9
100
AcDbCircle
 10
-107.8327034615181
 20
50.18928816511846
 30
0.0
 40
3.000000038662472
100
AcDbArc
 50
270.0
 51
0.0
  0
ARC
  5
213
330
1F
100
AcDbEntity
  8
0-0
  6
Continuous
 62
     3
370
     9
100
AcDbCircle
 10
-111.3326902647276
 20
53.68927496832782
 30
0.0
 40
3.000000038662472
100
AcDbArc
 50
270.0
 51
0.0
  0
ARC
  5
214
330
1F
100
AcDbEntity
  8
0-1
  6
Continuous
 62
     2
370
     9
100
AcDbCircle
 10
480.8675116461677
 20
-14.81077781883425
 30
0.0
 40
3.000000038662472
100
AcDbArc
 50
0.0
 51
90.0
  0
ARC
  5
215
330
1F
100
AcDbEntity
  8
0-1
  6
JWW_CENTER1
 62
     2
370
     9
100
AcDbCircle
 10
480.8673136943098
 20
-14.81077781883425
 30
0.0
 40
7.5
100
AcDbArc
 50
0.0
 51
90.0
  0
ARC
  5
216
330
1F
100
AcDbEntity
  8
0-1
  6
Continuous
 62
     2
370
     9
100
AcDbCircle
 10
480.8674126702385
 20
-14.81087679476332
 30
0.0
 40
12.00000015464989
100
AcDbArc
 50
0.0
 51
90.0
  0
ARC
  5
217
330
1F
100
AcDbEntity
  8
0-0
  6
Continuous
 62
     3
370
     9
100
AcDbCircle
 10
-158.0027111156567
 20
-210.3513843433275
 30
0.0
 40
1.000000012887491
100
AcDbArc
 50
270.0
 51
355.2365875244141
  0
ARC
  5
218
330
1F
100
AcDbEntity
  8
0-0
  6
Continuous
 62
     3
370
     9
100
AcDbCircle
 10
-166.1623856828019
 20
-210.3513843433275
 30
0.0
 40
1.000000012887491
100
AcDbArc
 50
184.763412475586
 51
270.0
  0
ARC
  5
219
330
1F
100
AcDbEntity
  8
0-0
  6
Continuous
 62
     3
370
     9
100
AcDbCircle
 10
-630.6624582651499
 20
-210.3513843433275
 30
0.0
 40
1.000000012887491
100
AcDbArc
 50
184.7634124755859
 51
270.0
  0
ARC
  5
21A
330
1F
100
AcDbEntity
  8
0-0
  6
Continuous
 62
     3
370
     9
100
AcDbCircle
 10
-622.5027836980047
 20
-210.3513843433275
 30
0.0
 40
1.000000012887491
100
AcDbArc
 50
270.0
 51
355.2365875244141
  0
ARC
  5
21B
330
1F
100
AcDbEntity
  8
0-1
  6
Continuous
 62
     2
370
     9
100
AcDbCircle
 10
-594.832578092008
 20
301.6892023859799
 30
0.0
 40
4.500000154649889
100
AcDbArc
 50
0.0
 51
358.5967102050781
  0
ARC
  5
21C
330
1F
100
AcDbEntity
  8
0-1
  6
Continuous
 62
     2
370
     9
100
AcDbCircle
 10
5.167421907991979
 20
-7.31067884290519
 30
0.0
 40
4.500000154649889
100
AcDbArc
 50
1.403289794921875
 51
0.0
  0
ARC
  5
21D
330
1F
100
AcDbEntity
  8
0-1
  6
Continuous
 62
     2
370
     9
100
AcDbCircle
 10
5.167421907991979
 20
301.6892023859799
 30
0.0
 40
4.500000154649889
100
AcDbArc
 50
0.0
 51
358.5967102050781
  0
ARC
  5
21E
330
1F
100
AcDbEntity
  8
0-0
  6
Continuous
 62
     3
370
     9
100
AcDbCircle
 10
425.6675472775023
 20
253.4697133657096
 30
0.0
 40
2.000000025774982
100
AcDbArc
 50
180.0
 51
265.0004119873047
  0
ARC
  5
21F
330
1F
100
AcDbEntity
  8
0-0
  6
Continuous
 62
     3
370
     9
100
AcDbCircle
 10
425.6675472775023
 20
40.90881017736501
 30
0.0
 40
2.000000025774982
100
AcDbArc
 50
94.9995880126953
 51
180.0
  0
TEXT
  5
220
330
1F
100
AcDbEntity
  8
0-E
  6
Continuous
 62
     7
370
     9
100
AcDbText
 10
229.3335299105258
 20
-75.1482297561231
 30
0.0
 40
9.144
  1
蓋本体：ＦＣＤ５００
 41
1.15
  7
ＭＳ ゴシック
100
AcDbText
  0
TEXT
  5
221
330
1F
100
AcDbEntity
  8
0-F
  6
Continuous
 62
     2
370
     9
100
AcDbText
 10
427.167431805585
 20
-58.55468214210291
 30
0.0
 40
12.192
  1
60
 41
1.0625
  7
ＭＳ ゴシック
100
AcDbText
  0
TEXT
  5
222
330
1F
100
AcDbEntity
  8
0-F
  6
Continuous
 62
     2
370
     9
100
AcDbText
 10
419.7674766746727
 20
-98.55466564611467
 30
0.0
 40
12.192
  1
63.2
 41
1.09375
  7
ＭＳ ゴシック
100
AcDbText
  0
TEXT
  5
223
330
1F
100
AcDbEntity
  8
0-F
  6
Continuous
 62
     2
370
     9
100
AcDbText
 10
417.1674977895377
 20
86.9270666965796
 30
0.0
 40
12.192
  1
40
 41
1.0625
  7
ＭＳ ゴシック
100
AcDbText
  0
TEXT
  5
224
330
1F
100
AcDbEntity
  8
0-F
  6
Continuous
 62
     2
370
     9
100
AcDbText
 10
468.2074147817252
 20
112.806005938556
 30
0.0
 40
12.192
  1
6
  7
ＭＳ ゴシック
100
AcDbText
  0
TEXT
  5
225
330
1F
100
AcDbEntity
  8
0-E
  6
Continuous
 62
     7
370
     9
100
AcDbText
 10
524.4587971455344
 20
398.892775971284
 30
0.0
 40
9.144
  1
アンカー：φ９
 41
1.142857142857143
  7
ＭＳ ゴシック
100
AcDbText
  0
TEXT
  5
226
330
1F
100
AcDbEntity
  8
0-F
  6
Continuous
 62
     2
370
     9
100
AcDbText
 10
323.5936303053362
 20
273.9835520814972
 30
0.0
 40
12.192
  1
6.5
 50
90.00000250447899
 41
0.5916666666666691
  7
ＭＳ ゴシック
100
AcDbText
  0
TEXT
  5
227
330
1F
100
AcDbEntity
  8
0-F
  6
Continuous
 62
     2
370
     9
100
AcDbText
 10
341.4114749005977
 20
281.523174125416
 30
0.0
 40
12.192
  1
11
 50
90.00000250447756
 41
0.587499999999992
  7
ＭＳ ゴシック
100
AcDbText
  0
TEXT
  5
228
330
1F
100
AcDbEntity
  8
0-F
  6
Continuous
 62
     2
370
     9
100
AcDbText
 10
341.4114749005977
 20
264.684795219166
 30
0.0
 40
12.192
  1
11
 50
90.00000250447756
 41
0.587499999999992
  7
ＭＳ ゴシック
100
AcDbText
  0
TEXT
  5
229
330
1F
100
AcDbEntity
  8
0-F
  6
Continuous
 62
     2
370
     9
100
AcDbText
 10
341.4114749005977
 20
246.3384932897952
 30
0.0
 40
12.192
  1
10
 50
90.00000250447756
 41
0.587499999999992
  7
ＭＳ ゴシック
100
AcDbText
  0
TEXT
  5
22A
330
1F
100
AcDbEntity
  8
0-F
  6
Continuous
 62
     2
370
     9
100
AcDbText
 10
341.4114750667012
 20
16.18927816891254
 30
0.0
 40
12.192
  1
45
 50
90.00000250447789
 41
1.062500000000001
  7
ＭＳ ゴシック
100
AcDbText
  0
TEXT
  5
22B
330
1F
100
AcDbEntity
  8
0-F
  6
Continuous
 62
     2
370
     9
100
AcDbText
 10
301.4114422714259
 20
311.3920039659988
 30
0.0
 40
12.192
  1
3.2
 50
90.00000250447873
 41
1.083333333333334
  7
ＭＳ ゴシック
100
AcDbText
  0
TEXT
  5
22C
330
1F
100
AcDbEntity
  8
0-F
  6
Continuous
 62
     2
370
     9
100
AcDbText
 10
301.4114422714259
 20
268.2703691475867
 30
0.0
 40
12.192
  1
1.8
 50
90.00000250447873
 41
1.083333333333334
  7
ＭＳ ゴシック
100
AcDbText
  0
TEXT
  5
22D
330
1F
100
AcDbEntity
  8
0-F
  6
Continuous
 62
     2
370
     9
100
AcDbText
 10
301.4114422714259
 20
0.0588641855935749
 30
0.0
 40
12.192
  1
1.8
 50
90.00000250447873
 41
1.083333333333315
  7
ＭＳ ゴシック
100
AcDbText
  0
TEXT
  5
22E
330
1F
100
AcDbEntity
  8
0-F
  6
Continuous
 62
     2
370
     9
100
AcDbText
 10
301.4114422714259
 20
-41.3816149898709
 30
0.0
 40
12.192
  1
3.2
 50
90.00000250447873
 41
1.083333333333315
  7
ＭＳ ゴシック
100
AcDbText
  0
TEXT
  5
22F
330
1F
100
AcDbEntity
  8
0-F
  6
Continuous
 62
     2
370
     9
100
AcDbText
 10
323.5936303053362
 20
253.3754522213831
 30
0.0
 40
12.192
  1
6.5
 50
90.00000250447899
 41
0.5916666666666691
  7
ＭＳ ゴシック
100
AcDbText
  0
TEXT
  5
230
330
1F
100
AcDbEntity
  8
0-F
  6
Continuous
 62
     2
370
     9
100
AcDbText
 10
325.9676159008131
 20
-299.6909752956079
 30
0.0
 40
12.192
  1
仕様
 41
1.0625
  7
ＭＳ ゴシック
100
AcDbText
  0
TEXT
  5
231
330
1F
100
AcDbEntity
  8
0-F
  6
Continuous
 62
     2
370
     9
100
AcDbText
 10
325.9675961056273
 20
-323.6909555004222
 30
0.0
 40
12.192
  1
適用荷重：Ｔ－２
 41
1.109375
  7
ＭＳ ゴシック
100
AcDbText
  0
TEXT
  5
232
330
1F
100
AcDbEntity
  8
0-F
  6
Continuous
 62
     2
370
     9
100
AcDbText
 10
325.9676257984061
 20
-371.690953026024
 30
0.0
 40
12.192
  1
接触圧子：２００×１６０ｍｍ
 41
1.116071428571429
  7
ＭＳ ゴシック
100
AcDbText
  0
TEXT
  5
233
330
1F
100
AcDbEntity
  8
0-F
  6
Continuous
 62
     2
370
     9
100
AcDbText
 10
476.5906759726035
 20
86.9270666965796
 30
0.0
 40
12.192
  1
9
  7
ＭＳ ゴシック
100
AcDbText
  0
TEXT
  5
234
330
1F
100
AcDbEntity
  8
0-F
  6
Continuous
 62
     2
370
     9
100
AcDbText
 10
341.4114752634024
 20
134.1892616729245
 30
0.0
 40
12.192
  1
200
 50
90.00000250447873
 41
1.083333333333334
  7
ＭＳ ゴシック
100
AcDbText
  0
TEXT
  5
235
330
1F
100
AcDbEntity
  8
0-F
  6
Continuous
 62
     2
370
     9
100
AcDbText
 10
301.4114422714259
 20
134.1892616729245
 30
0.0
 40
12.192
  1
290
 50
90.00000250447873
 41
1.083333333333334
  7
ＭＳ ゴシック
100
AcDbText
  0
TEXT
  5
236
330
1F
100
AcDbEntity
  8
0-F
  6
Continuous
 62
     2
370
     9
100
AcDbText
 10
261.4114092794497
 20
134.189311160889
 30
0.0
 40
12.192
  1
300
 50
90.00000250447873
 41
1.083333333333334
  7
ＭＳ ゴシック
100
AcDbText
  0
TEXT
  5
237
330
1F
100
AcDbEntity
  8
0-E
  6
Continuous
 62
     7
370
     9
100
AcDbText
 10
524.458790547139
 20
378.45652306799
 30
0.0
 40
9.144
  1
ＳＳ４００，樹脂系塗装
 41
1.151515151515152
  7
ＭＳ ゴシック
100
AcDbText
  0
TEXT
  5
238
330
1F
100
AcDbEntity
  8
0-E
  6
Continuous
 62
     7
370
     9
100
AcDbText
 10
211.7364015321473
 20
353.810427998311
 30
0.0
 40
9.144
  1
ＳＰＨＣ，樹脂系塗装
 41
1.15
  7
ＭＳ ゴシック
100
AcDbText
  0
TEXT
  5
239
330
1F
100
AcDbEntity
  8
0-E
  6
Continuous
 62
     7
370
     9
100
AcDbText
 10
229.3335629025023
 20
-97.22594895481393
 30
0.0
 40
9.144
  1
樹脂系塗装
 41
1.133333333333333
  7
ＭＳ ゴシック
100
AcDbText
  0
TEXT
  5
23A
330
1F
100
AcDbEntity
  8
0-F
  6
Continuous
 62
     2
370
     9
100
AcDbText
 10
-407.3326922543079
 20
-109.9061159734377
 30
0.0
 40
12.192
  1
599
 50
0.000218111769676
 41
1.083333333333339
  7
ＭＳ ゴシック
100
AcDbText
  0
TEXT
  5
23B
330
1F
100
AcDbEntity
  8
0-F
  6
Continuous
 62
     2
370
     9
100
AcDbText
 10
-76.40379952095645
 20
-109.9061159733951
 30
0.0
 40
12.192
  1
1
  7
ＭＳ ゴシック
100
AcDbText
  0
TEXT
  5
23C
330
1F
100
AcDbEntity
  8
0-F
  6
Continuous
 62
     2
370
     9
100
AcDbText
 10
104.1944073550671
 20
-109.9061159734377
 30
0.0
 40
12.192
  1
599
 50
0.000218111769676
 41
1.083333333333339
  7
ＭＳ ゴシック
100
AcDbText
  0
TEXT
  5
23D
330
1F
100
AcDbEntity
  8
0-F
  6
Continuous
 62
     2
370
     9
100
AcDbText
 10
-407.3326836663323
 20
-71.97062188555728
 30
0.0
 40
12.192
  1
579
 41
1.083333333333333
  7
ＭＳ ゴシック
100
AcDbText
  0
TEXT
  5
23E
330
1F
100
AcDbEntity
  8
0-F
  6
Continuous
 62
     2
370
     9
100
AcDbText
 10
-657.332555822424
 20
361.4454663217907
 30
0.0
 40
12.192
  1
100
 41
1.083333333333333
  7
ＭＳ ゴシック
100
AcDbText
  0
TEXT
  5
23F
330
1F
100
AcDbEntity
  8
0-F
  6
Continuous
 62
     2
370
     9
100
AcDbText
 10
-307.3325022104623
 20
361.4454663217907
 30
0.0
 40
12.192
  1
600
 41
1.083333333333333
  7
ＭＳ ゴシック
100
AcDbText
  0
TEXT
  5
240
330
1F
100
AcDbEntity
  8
0-F
  6
Continuous
 62
     2
370
     9
100
AcDbText
 10
109.1674614983638
 20
361.4454663217907
 30
0.0
 40
12.192
  1
600
 41
1.083333333333333
  7
ＭＳ ゴシック
100
AcDbText
  0
TEXT
  5
241
330
1F
100
AcDbEntity
  8
0-F
  6
Continuous
 62
     2
370
     9
100
AcDbText
 10
-166.8148762470967
 20
401.445400337838
 30
0.0
 40
12.192
  1
2000
 41
1.09375
  7
ＭＳ ゴシック
100
AcDbText
  0
TEXT
  5
242
330
1F
100
AcDbEntity
  8
0-F
  6
Continuous
 62
     2
370
     9
100
AcDbText
 10
325.9675862080344
 20
-347.6909851932008
 30
0.0
 40
12.192
  1
破壊荷重：３５ｋＮ（３，６００ｋｇｆ）以上
 41
1.119047619047619
  7
ＭＳ ゴシック
100
AcDbText
  0
TEXT
  5
243
330
1F
100
AcDbEntity
  8
0-E
  6
Continuous
 62
     7
370
     9
100
AcDbText
 10
211.7364213273331
 20
374.8001542968752
 30
0.0
 40
9.144
  1
受枠：Ｌ６０Ｇ，ｔ＝３．２
 41
1.153846153846154
  7
ＭＳ ゴシック
100
AcDbText
  0
TEXT
  5
244
330
1F
100
AcDbEntity
  8
0-F
  6
Continuous
 62
     2
370
     9
100
AcDbText
 10
548.6114460337623
 20
-25.8107119334941
 30
0.0
 40
12.192
  1
29
 50
90.00000250448097
 41
1.062499999999973
  7
ＭＳ ゴシック
100
AcDbText
  0
TEXT
  5
245
330
1F
100
AcDbEntity
  8
0-F
  6
Continuous
 62
     2
370
     9
100
AcDbText
 10
548.6114460337623
 20
13.68929466490122
 30
0.0
 40
12.192
  1
50
 50
90.00000250448097
 41
1.062499999999973
  7
ＭＳ ゴシック
100
AcDbText
  0
TEXT
  5
246
330
1F
100
AcDbEntity
  8
0-F
  6
Continuous
 62
     2
370
     9
100
AcDbText
 10
548.6114462304632
 20
134.18921218496
 30
0.0
 40
12.192
  1
200
 50
90.00000250447873
 41
1.083333333333334
  7
ＭＳ ゴシック
100
AcDbText
  0
TEXT
  5
247
330
1F
100
AcDbEntity
  8
0-F
  6
Continuous
 62
     2
370
     9
100
AcDbText
 10
548.6114460337623
 20
263.6892781689128
 30
0.0
 40
12.192
  1
50
 50
90.00000250448097
 41
1.062500000000001
  7
ＭＳ ゴシック
100
AcDbText
  0
TEXT
  5
248
330
1F
100
AcDbEntity
  8
0-F
  6
Continuous
 62
     2
370
     9
100
AcDbText
 10
548.6114460337623
 20
303.1893837432372
 30
0.0
 40
12.192
  1
29
 50
90.00000250448097
 41
1.062500000000001
  7
ＭＳ ゴシック
100
AcDbText
  0
TEXT
  5
249
330
1F
100
AcDbEntity
  8
0-F
  6
Continuous
 62
     2
370
     9
100
AcDbText
 10
472.3674621582031
 20
-98.55466564611467
 30
0.0
 40
12.192
  1
24
 41
1.0625
  7
ＭＳ ゴシック
100
AcDbText
  0
LWPOLYLINE
  5
24A
330
1F
100
AcDbEntity
  8
0-F
  6
Continuous
 62
     7
370
     9
100
AcDbPolyline
 90
        4
 70
     1
 43
0.4
 10
451.8675340807114
 20
82.67106009818428
 42
0.4142135623731
 10
451.6675340807114
 20
82.87106009818429
 42
0.4142135623731
 10
451.4675340807115
 20
82.67106009818428
 42
0.4142135623731
 10
451.6675340807114
 20
82.47106009818428
 42
0.4142135623731
  0
LWPOLYLINE
  5
24B
330
1F
100
AcDbEntity
  8
0-F
  6
Continuous
 62
     7
370
     9
100
AcDbPolyline
 90
        4
 70
     1
 43
0.4
 10
345.8674812935494
 20
257.18932775549
 42
0.4142135623731
 10
345.6674812935494
 20
257.38932775549
 42
0.4142135623731
 10
345.4674812935494
 20
257.18932775549
 42
0.4142135623731
 10
345.6674812935494
 20
256.98932775549
 42
0.4142135623731
  0
LWPOLYLINE
  5
24C
330
1F
100
AcDbEntity
  8
0-F
  6
Continuous
 62
     7
370
     9
100
AcDbPolyline
 90
        4
 70
     1
 43
0.4
 10
345.8674812935494
 20
263.6892749683279
 42
0.4142135623731
 10
345.6674812935494
 20
263.8892749683279
 42
0.4142135623731
 10
345.4674812935494
 20
263.6892749683279
 42
0.4142135623731
 10
345.6674812935494
 20
263.4892749683279
 42
0.4142135623731
  0
LWPOLYLINE
  5
24D
330
1F
100
AcDbEntity
  8
0-F
  6
Continuous
 62
     7
370
     9
100
AcDbPolyline
 90
        4
 70
     1
 43
0.4
 10
345.8674812935494
 20
274.6893607474664
 42
0.4142135623731
 10
345.6674812935494
 20
274.8893607474664
 42
0.4142135623731
 10
345.4674812935494
 20
274.6893607474664
 42
0.4142135623731
 10
345.6674812935494
 20
274.4893607474664
 42
0.4142135623731
  0
LWPOLYLINE
  5
24E
330
1F
100
AcDbEntity
  8
0-F
  6
Continuous
 62
     7
370
     9
100
AcDbPolyline
 90
        4
 70
     1
 43
0.4
 10
345.8674812935494
 20
281.1893079603043
 42
0.4142135623731
 10
345.6674812935494
 20
281.3893079603043
 42
0.4142135623731
 10
345.4674812935494
 20
281.1893079603043
 42
0.4142135623731
 10
345.6674812935494
 20
280.9893079603043
 42
0.4142135623731
  0
LWPOLYLINE
  5
24F
330
1F
100
AcDbEntity
  8
0-F
  6
Continuous
 62
     7
370
     9
100
AcDbPolyline
 90
        4
 70
     1
 43
0.4
 10
345.8674812935494
 20
292.1892947635137
 42
0.4142135623731
 10
345.6674812935494
 20
292.3892947635136
 42
0.4142135623731
 10
345.4674812935494
 20
292.1892947635137
 42
0.4142135623731
 10
345.6674812935494
 20
291.9892947635137
 42
0.4142135623731
  0
LWPOLYLINE
  5
250
330
1F
100
AcDbEntity
  8
0-F
  6
Continuous
 62
     7
370
     9
100
AcDbPolyline
 90
        4
 70
     1
 43
0.4
 10
305.8674483015731
 20
0.3893020217484491
 42
0.4142135623731
 10
305.6674483015731
 20
0.589302021748449
 42
0.4142135623731
 10
305.4674483015731
 20
0.3893020217484491
 42
0.4142135623731
 10
305.6674483015731
 20
0.1893020217484491
 42
0.4142135623731
  0
LWPOLYLINE
  5
251
330
1F
100
AcDbEntity
  8
0-F
  6
Continuous
 62
     7
370
     9
100
AcDbPolyline
 90
        4
 70
     1
 43
0.4
 10
305.8674483015731
 20
293.9892710092907
 42
0.4142135623731
 10
305.6674483015731
 20
294.1892710092907
 42
0.4142135623731
 10
305.4674483015731
 20
293.9892710092907
 42
0.4142135623731
 10
305.6674483015731
 20
293.7892710092908
 42
0.4142135623731
  0
TEXT
  5
252
330
1F
100
AcDbEntity
  8
0-F
  6
Continuous
 62
     2
370
     9
100
AcDbText
 10
325.9678039550781
 20
-395.6909827188027
 30
0.0
 40
12.192
  1
蓋 質 量：１３．０ｋｇ
 41
1.113636363636364
  7
ＭＳ ゴシック
100
AcDbText
  0
TEXT
  5
253
330
1F
100
AcDbEntity
  8
F-5
  6
Continuous
 62
     3
370
     9
100
AcDbText
 10
-240.6233825961188
 20
-547.9630131779365
 30
0.0
 40
12.192
  1
カラー舗装用みぞ蓋　ＧＨＭ－２－３０６０＋Ｌ６０Ｇ
 41
0.9470000000000001
  7
ＭＳ ゴシック
100
AcDbText
  0
ENDSEC
  0
SECTION
  2
OBJECTS
  0
DICTIONARY
  5
C
330
0
100
AcDbDictionary
281
     1
  3
ACAD_GROUP
350
D
  3
ACAD_LAYOUT
350
1A
  3
ACAD_MLEADERSTYLE
350
255
  3
ACAD_MLINESTYLE
350
17
  3
ACAD_PLOTSETTINGS
350
19
  3
ACAD_PLOTSTYLENAME
350
E
  3
ACAD_TABLESTYLE
350
254
  3
ACAD_VISUALSTYLE
350
2A
  0
DICTIONARY
  5
D
102
{ACAD_REACTORS
330
C
102
}
330
C
100
AcDbDictionary
281
     1
  0
DICTIONARY
  5
1A
102
{ACAD_REACTORS
330
C
102
}
330
C
100
AcDbDictionary
281
     1
  3
Layout1
350
1E
  3
Layout2
350
26
  3
Model
350
22
  0
DICTIONARY
  5
255
102
{ACAD_REACTORS
330
C
102
}
330
C
100
AcDbDictionary
281
     1
  0
DICTIONARY
  5
17
102
{ACAD_REACTORS
330
C
102
}
330
C
100
AcDbDictionary
281
     1
  3
Standard
350
18
  0
DICTIONARY
  5
19
102
{ACAD_REACTORS
330
C
102
}
330
C
100
AcDbDictionary
281
     1
  0
ACDBDICTIONARYWDFLT
  5
E
102
{ACAD_REACTORS
330
C
102
}
330
C
100
AcDbDictionary
281
     1
  3
Normal
350
F
100
AcDbDictionaryWithDefault
340
F
  0
DICTIONARY
  5
254
102
{ACAD_REACTORS
330
C
102
}
330
C
100
AcDbDictionary
281
     1
  0
DICTIONARY
  5
2A
102
{ACAD_REACTORS
330
C
102
}
330
C
100
AcDbDictionary
281
     1
  3
2dWireframe
350
2F
  3
3D Hidden
350
31
  3
3dWireframe
350
30
  3
Basic
350
32
  3
Brighten
350
36
  3
ColorChange
350
3A
  3
Conceptual
350
34
  3
Dim
350
35
  3
Facepattern
350
39
  3
Flat
350
2B
  3
FlatWithEdges
350
2C
  3
Gouraud
350
2D
  3
GouraudWithEdges
350
2E
  3
Linepattern
350
38
  3
Realistic
350
33
  3
Thicken
350
37
  0
LAYOUT
  5
1E
102
{ACAD_REACTORS
330
1A
102
}
330
1A
100
AcDbPlotSettings
  1

  2
none_device
  4

  6

 40
0.0
 41
0.0
 42
0.0
 43
0.0
 44
0.0
 45
0.0
 46
0.0
 47
0.0
 48
0.0
 49
0.0
140
0.0
141
0.0
142
1.0
143
1.0
 70
   688
 72
     0
 73
     0
 74
     5
  7

 75
    16
 76
     0
 77
     5
 78
   300
147
1.0
148
0.0
149
0.0
100
AcDbLayout
  1
Layout1
 70
     1
 71
     1
 10
0.0
 20
0.0
 11
420.0
 21
297.0
 12
0.0
 22
0.0
 32
0.0
 14
1.000000000000000E+20
 24
1.000000000000000E+20
 34
1.000000000000000E+20
 15
-1.000000000000000E+20
 25
-1.000000000000000E+20
 35
-1.000000000000000E+20
146
0.0
 13
0.0
 23
0.0
 33
0.0
 16
1.0
 26
0.0
 36
0.0
 17
0.0
 27
1.0
 37
0.0
 76
     0
330
1B
  0
LAYOUT
  5
26
102
{ACAD_REACTORS
330
1A
102
}
330
1A
100
AcDbPlotSettings
  1

  2
none_device
  4

  6

 40
0.0
 41
0.0
 42
0.0
 43
0.0
 44
0.0
 45
0.0
 46
0.0
 47
0.0
 48
0.0
 49
0.0
140
0.0
141
0.0
142
1.0
143
1.0
 70
   688
 72
     0
 73
     0
 74
     5
  7

 75
    16
 76
     0
 77
     5
 78
   300
147
1.0
148
0.0
149
0.0
100
AcDbLayout
  1
Layout2
 70
     1
 71
     2
 10
0.0
 20
0.0
 11
0.0
 21
0.0
 12
0.0
 22
0.0
 32
0.0
 14
0.0
 24
0.0
 34
0.0
 15
0.0
 25
0.0
 35
0.0
146
0.0
 13
0.0
 23
0.0
 33
0.0
 16
1.0
 26
0.0
 36
0.0
 17
0.0
 27
1.0
 37
0.0
 76
     0
330
23
  0
LAYOUT
  5
22
102
{ACAD_REACTORS
330
1A
102
}
330
1A
100
AcDbPlotSettings
  1

  2
none_device
  4

  6

 40
0.0
 41
0.0
 42
0.0
 43
0.0
 44
0.0
 45
0.0
 46
0.0
 47
0.0
 48
0.0
 49
0.0
140
0.0
141
0.0
142
1.0
143
1.0
 70
  1712
 72
     0
 73
     0
 74
     0
  7

 75
     0
 76
     0
 77
     5
 78
   300
147
1.0
148
0.0
149
0.0
100
AcDbLayout
  1
Model
 70
     1
 71
     0
 10
-840.0
 20
-594.0
 11
840.0
 21
594.0
 12
0.0
 22
0.0
 32
0.0
 14
-840.0
 24
-594.0
 34
0.0
 15
840.0
 25
594.0
 35
0.0
146
0.0
 13
0.0
 23
0.0
 33
0.0
 16
1.0
 26
0.0
 36
0.0
 17
0.0
 27
1.0
 37
0.0
 76
     0
330
1F
331
29
  0
MLINESTYLE
  5
18
102
{ACAD_REACTORS
330
17
102
}
330
17
100
AcDbMlineStyle
  2
Standard
 70
     0
  3

 62
   256
 51
90.0
 52
90.0
 71
     2
 49
0.5
 62
   256
  6
BYLAYER
 49
-0.5
 62
   256
  6
BYLAYER
  0
ACDBPLACEHOLDER
  5
F
102
{ACAD_REACTORS
330
E
102
}
330
E
  0
VISUALSTYLE
  5
2F
102
{ACAD_REACTORS
330
2A
102
}
330
2A
100
AcDbVisualStyle
  2
2dWireframe
 70
     4
 71
     0
 72
     2
 73
     0
 90
        0
 40
-0.6
 41
-30.0
 62
     5
 63
     7
421
 16777215
 74
     1
 91
        4
 64
     7
 65
   257
 75
     1
175
     1
 42
1.0
 92
        0
 66
   257
 43
1.0
 76
     1
 77
     6
 78
     2
 67
     7
 79
     5
170
     0
171
     0
290
     0
174
     0
 93
        1
 44
0.0
173
     0
291
     0
 45
0.0
1001
ACAD
1000
AcDbSavedByObjectVersion
1070
     0
  0
VISUALSTYLE
  5
31
102
{ACAD_REACTORS
330
2A
102
}
330
2A
100
AcDbVisualStyle
  2
3D Hidden
 70
     6
 71
     1
 72
     2
 73
     2
 90
        0
 40
-0.6
 41
-30.0
 62
     5
 63
     7
421
 16777215
 74
     2
 91
        2
 64
     7
 65
   257
 75
     2
175
     1
 42
40.0
 92
        0
 66
   257
 43
1.0
 76
     1
 77
     6
 78
     2
 67
     7
 79
     3
170
     0
171
     0
290
     0
174
     0
 93
        1
 44
0.0
173
     0
291
     0
 45
0.0
1001
ACAD
1000
AcDbSavedByObjectVersion
1070
     0
  0
VISUALSTYLE
  5
30
102
{ACAD_REACTORS
330
2A
102
}
330
2A
100
AcDbVisualStyle
  2
3dWireframe
 70
     5
 71
     0
 72
     2
 73
     0
 90
        0
 40
-0.6
 41
-30.0
 62
     5
 63
     7
421
 16777215
 74
     1
 91
        4
 64
     7
 65
   257
 75
     1
175
     1
 42
1.0
 92
        0
 66
   257
 43
1.0
 76
     1
 77
     6
 78
     2
 67
     7
 79
     5
170
     0
171
     0
290
     0
174
     0
 93
        1
 44
0.0
173
     0
291
     0
 45
0.0
1001
ACAD
1000
AcDbSavedByObjectVersion
1070
     0
  0
VISUALSTYLE
  5
32
102
{ACAD_REACTORS
330
2A
102
}
330
2A
100
AcDbVisualStyle
  2
Basic
 70
     7
 71
     1
 72
     0
 73
     1
 90
        0
 40
-0.6
 41
-30.0
 62
     5
 63
     7
421
 16777215
 74
     0
 91
        4
 64
     7
 65
   257
 75
     1
175
     1
 42
1.0
 92
        8
 66
     7
 43
1.0
 76
     1
 77
     6
 78
     2
 67
     7
 79
     5
170
     0
171
     0
290
     0
174
     0
 93
        1
 44
0.0
173
     0
291
     1
 45
0.0
1001
ACAD
1000
AcDbSavedByObjectVersion
1070
     0
  0
VISUALSTYLE
  5
36
102
{ACAD_REACTORS
330
2A
102
}
330
2A
100
AcDbVisualStyle
  2
Brighten
 70
    12
 71
     2
 72
     2
 73
     0
 90
        0
 40
-0.6
 41
-30.0
 62
     5
 63
     7
421
 16777215
 74
     1
 91
        4
 64
     7
 65
   257
 75
     1
175
     1
 42
1.0
 92
        8
 66
     7
 43
1.0
 76
     1
 77
     6
 78
     2
 67
     7
 79
     5
170
     0
171
     0
290
     0
174
     0
 93
        1
 44
50.0
173
     0
291
     1
 45
0.0
1001
ACAD
1000
AcDbSavedByObjectVersion
1070
     0
  0
VISUALSTYLE
  5
3A
102
{ACAD_REACTORS
330
2A
102
}
330
2A
100
AcDbVisualStyle
  2
ColorChange
 70
    16
 71
     2
 72
     2
 73
     3
 90
        0
 40
-0.6
 41
-30.0
 62
     5
 63
     8
421
  8421504
 74
     1
 91
        4
 64
     7
 65
   257
 75
     1
175
     1
 42
1.0
 92
        8
 66
     8
424
  8421504
 43
1.0
 76
     1
 77
     6
 78
     2
 67
     7
 79
     5
170
     0
171
     0
290
     0
174
     0
 93
        1
 44
0.0
173
     0
291
     1
 45
0.0
1001
ACAD
1000
AcDbSavedByObjectVersion
1070
     0
  0
VISUALSTYLE
  5
34
102
{ACAD_REACTORS
330
2A
102
}
330
2A
100
AcDbVisualStyle
  2
Conceptual
 70
     9
 71
     3
 72
     2
 73
     0
 90
        0
 40
-0.6
 41
-30.0
 62
     5
 63
     7
421
 16777215
 74
     2
 91
        2
 64
     7
 65
   257
 75
     1
175
     1
 42
40.0
 92
        8
 66
     7
 43
1.0
 76
     1
 77
     6
 78
     2
 67
     7
 79
     3
170
     0
171
     0
290
     0
174
     0
 93
        1
 44
0.0
173
     0
291
     0
 45
0.0
1001
ACAD
1000
AcDbSavedByObjectVersion
1070
     0
  0
VISUALSTYLE
  5
35
102
{ACAD_REACTORS
330
2A
102
}
330
2A
100
AcDbVisualStyle
  2
Dim
 70
    11
 71
     2
 72
     2
 73
     0
 90
        0
 40
-0.6
 41
-30.0
 62
     5
 63
     7
421
 16777215
 74
     1
 91
        4
 64
     7
 65
   257
 75
     1
175
     1
 42
1.0
 92
        8
 66
     7
 43
1.0
 76
     1
 77
     6
 78
     2
 67
     7
 79
     5
170
     0
171
     0
290
     0
174
     0
 93
        1
 44
-50.0
173
     0
291
     1
 45
0.0
1001
ACAD
1000
AcDbSavedByObjectVersion
1070
     0
  0
VISUALSTYLE
  5
39
102
{ACAD_REACTORS
330
2A
102
}
330
2A
100
AcDbVisualStyle
  2
Facepattern
 70
    15
 71
     2
 72
     2
 73
     0
 90
        0
 40
-0.6
 41
-30.0
 62
     5
 63
     7
421
 16777215
 74
     1
 91
        4
 64
     7
 65
   257
 75
     1
175
     1
 42
1.0
 92
        8
 66
     7
 43
1.0
 76
     1
 77
     6
 78
     2
 67
     7
 79
     5
170
     0
171
     0
290
     0
174
     0
 93
        1
 44
0.0
173
     0
291
     1
 45
0.0
1001
ACAD
1000
AcDbSavedByObjectVersion
1070
     0
  0
VISUALSTYLE
  5
2B
102
{ACAD_REACTORS
330
2A
102
}
330
2A
100
AcDbVisualStyle
  2
Flat
 70
     0
 71
     2
 72
     1
 73
     1
 90
        2
 40
-0.6
 41
30.0
 62
     5
 63
     7
421
 16777215
 74
     0
 91
        4
 64
     7
 65
   257
 75
     1
175
     1
 42
1.0
 92
        8
 66
     7
 43
1.0
 76
     1
 77
     6
 78
     2
 67
     7
 79
     5
170
     0
171
     0
290
     0
174
     0
 93
       13
 44
0.0
173
     0
291
     1
 45
0.0
1001
ACAD
1000
AcDbSavedByObjectVersion
1070
     0
  0
VISUALSTYLE
  5
2C
102
{ACAD_REACTORS
330
2A
102
}
330
2A
100
AcDbVisualStyle
  2
FlatWithEdges
 70
     1
 71
     2
 72
     1
 73
     1
 90
        2
 40
-0.6
 41
30.0
 62
     5
 63
     7
421
 16777215
 74
     1
 91
        4
 64
     7
 65
   257
 75
     1
175
     1
 42
1.0
 92
        0
 66
   257
 43
1.0
 76
     1
 77
     6
 78
     2
 67
     7
 79
     5
170
     0
171
     0
290
     0
174
     0
 93
       13
 44
0.0
173
     0
291
     1
 45
0.0
1001
ACAD
1000
AcDbSavedByObjectVersion
1070
     0
  0
VISUALSTYLE
  5
2D
102
{ACAD_REACTORS
330
2A
102
}
330
2A
100
AcDbVisualStyle
  2
Gouraud
 70
     2
 71
     2
 72
     2
 73
     1
 90
        2
 40
-0.6
 41
30.0
 62
     5
 63
     7
421
 16777215
 74
     0
 91
        4
 64
     7
 65
   257
 75
     1
175
     1
 42
1.0
 92
        0
 66
     7
 43
1.0
 76
     1
 77
     6
 78
     2
 67
     7
 79
     5
170
     0
171
     0
290
     0
174
     0
 93
       13
 44
0.0
173
     0
291
     1
 45
0.0
1001
ACAD
1000
AcDbSavedByObjectVersion
1070
     0
  0
VISUALSTYLE
  5
2E
102
{ACAD_REACTORS
330
2A
102
}
330
2A
100
AcDbVisualStyle
  2
GouraudWithEdges
 70
     3
 71
     2
 72
     2
 73
     1
 90
        2
 40
-0.6
 41
30.0
 62
     5
 63
     7
421
 16777215
 74
     1
 91
        4
 64
     7
 65
   257
 75
     1
175
     1
 42
1.0
 92
        0
 66
   257
 43
1.0
 76
     1
 77
     6
 78
     2
 67
     7
 79
     5
170
     0
171
     0
290
     0
174
     0
 93
       13
 44
0.0
173
     0
291
     1
 45
0.0
1001
ACAD
1000
AcDbSavedByObjectVersion
1070
     0
  0
VISUALSTYLE
  5
38
102
{ACAD_REACTORS
330
2A
102
}
330
2A
100
AcDbVisualStyle
  2
Linepattern
 70
    14
 71
     2
 72
     2
 73
     0
 90
        0
 40
-0.6
 41
-30.0
 62
     5
 63
     7
421
 16777215
 74
     1
 91
        4
 64
     7
 65
   257
 75
     7
175
     7
 42
1.0
 92
        8
 66
     7
 43
1.0
 76
     1
 77
     6
 78
     2
 67
     7
 79
     5
170
     0
171
     0
290
     0
174
     0
 93
        1
 44
0.0
173
     0
291
     1
 45
0.0
1001
ACAD
1000
AcDbSavedByObjectVersion
1070
     0
  0
VISUALSTYLE
  5
33
102
{ACAD_REACTORS
330
2A
102
}
330
2A
100
AcDbVisualStyle
  2
Realistic
 70
     8
 71
     2
 72
     2
 73
     0
 90
        0
 40
-0.6
 41
-30.0
 62
     5
 63
     7
421
 16777215
 74
     1
 91
        0
 64
     7
 65
   257
 75
     1
175
     1
 42
1.0
 92
        8
 66
     8
424
  7895160
 43
1.0
 76
     1
 77
     6
 78
     2
 67
     7
 79
     5
170
     0
171
     0
290
     0
174
     0
 93
       13
 44
0.0
173
     0
291
     0
 45
0.0
1001
ACAD
1000
AcDbSavedByObjectVersion
1070
     0
  0
VISUALSTYLE
  5
37
102
{ACAD_REACTORS
330
2A
102
}
330
2A
100
AcDbVisualStyle
  2
Thicken
 70
    13
 71
     2
 72
     2
 73
     0
 90
        0
 40
-0.6
 41
-30.0
 62
     5
 63
     7
421
 16777215
 74
     1
 91
        4
 64
     7
 65
   257
 75
     1
175
     1
 42
1.0
 92
       12
 66
     7
 43
1.0
 76
     1
 77
     6
 78
     2
 67
     7
 79
     5
170
     0
171
     0
290
     0
174
     0
 93
        1
 44
0.0
173
     0
291
     1
 45
0.0
1001
ACAD
1000
AcDbSavedByObjectVersion
1070
     0
  0
ENDSEC
  0
EOF
