  0
SECTION
  2
HEADER
  9
$ACADVER
  1
AC1018
  9
$ACADMAINTVER
 70
     0
  9
$DWGCODEPAGE
  3
ANSI_932
  9
$INSBASE
 10
0.0
 20
0.0
 30
0.0
  9
$EXTMIN
 10
-840.0
 20
-594.0
 30
0.0
  9
$EXTMAX
 10
840.0
 20
594.0
 30
0.0
  9
$LIMMIN
 10
-840.0
 20
-594.0
  9
$LIMMAX
 10
840.0
 20
594.0
  9
$ORTHOMODE
 70
     0
  9
$REGENMODE
 70
     1
  9
$FILLMODE
 70
     1
  9
$QTEXTMODE
 70
     0
  9
$MIRRTEXT
 70
     1
  9
$LTSCALE
 40
4.0
  9
$ATTMODE
 70
     1
  9
$TEXTSIZE
 40
2.5
  9
$TRACEWID
 40
1.0
  9
$TEXTSTYLE
  7
Standard
  9
$CLAYER
  8
0
  9
$CELTYPE
  6
ByLayer
  9
$CECOLOR
 62
   256
  9
$CELTSCALE
 40
1.0
  9
$DISPSILH
 70
     0
  9
$DIMSCALE
 40
1.0
  9
$DIMASZ
 40
2.5
  9
$DIMEXO
 40
0.625
  9
$DIMDLI
 40
3.75
  9
$DIMRND
 40
0.0
  9
$DIMDLE
 40
0.0
  9
$DIMEXE
 40
1.25
  9
$DIMTP
 40
0.0
  9
$DIMTM
 40
0.0
  9
$DIMTXT
 40
2.5
  9
$DIMCEN
 40
2.5
  9
$DIMTSZ
 40
0.0
  9
$DIMTOL
 70
     0
  9
$DIMLIM
 70
     0
  9
$DIMTIH
 70
     0
  9
$DIMTOH
 70
     0
  9
$DIMSE1
 70
     0
  9
$DIMSE2
 70
     0
  9
$DIMTAD
 70
     1
  9
$DIMZIN
 70
     8
  9
$DIMBLK
  1

  9
$DIMASO
 70
     1
  9
$DIMSHO
 70
     1
  9
$DIMPOST
  1

  9
$DIMAPOST
  1

  9
$DIMALT
 70
     0
  9
$DIMALTD
 70
     3
  9
$DIMALTF
 40
0.03937007874016
  9
$DIMLFAC
 40
1.0
  9
$DIMTOFL
 70
     1
  9
$DIMTVP
 40
0.0
  9
$DIMTIX
 70
     0
  9
$DIMSOXD
 70
     0
  9
$DIMSAH
 70
     0
  9
$DIMBLK1
  1

  9
$DIMBLK2
  1

  9
$DIMSTYLE
  2
ISO-25
  9
$DIMCLRD
 70
     0
  9
$DIMCLRE
 70
     0
  9
$DIMCLRT
 70
     0
  9
$DIMTFAC
 40
1.0
  9
$DIMGAP
 40
0.625
  9
$DIMJUST
 70
     0
  9
$DIMSD1
 70
     0
  9
$DIMSD2
 70
     0
  9
$DIMTOLJ
 70
     0
  9
$DIMTZIN
 70
     8
  9
$DIMALTZ
 70
     0
  9
$DIMALTTZ
 70
     0
  9
$DIMUPT
 70
     0
  9
$DIMDEC
 70
     2
  9
$DIMTDEC
 70
     2
  9
$DIMALTU
 70
     2
  9
$DIMALTTD
 70
     3
  9
$DIMTXSTY
  7
Standard
  9
$DIMAUNIT
 70
     0
  9
$DIMADEC
 70
     0
  9
$DIMALTRND
 40
0.0
  9
$DIMAZIN
 70
     0
  9
$DIMDSEP
 70
    44
  9
$DIMATFIT
 70
     3
  9
$DIMFRAC
 70
     0
  9
$DIMLDRBLK
  1

  9
$DIMLUNIT
 70
     2
  9
$DIMLWD
 70
    -2
  9
$DIMLWE
 70
    -2
  9
$DIMTMOVE
 70
     0
  9
$LUNITS
 70
     2
  9
$LUPREC
 70
     4
  9
$SKETCHINC
 40
1.0
  9
$FILLETRAD
 40
10.0
  9
$AUNITS
 70
     0
  9
$AUPREC
 70
     0
  9
$MENU
  1
.
  9
$ELEVATION
 40
0.0
  9
$PELEVATION
 40
0.0
  9
$THICKNESS
 40
0.0
  9
$LIMCHECK
 70
     0
  9
$CHAMFERA
 40
10.0
  9
$CHAMFERB
 40
10.0
  9
$CHAMFERC
 40
20.0
  9
$CHAMFERD
 40
0.0
  9
$SKPOLY
 70
     0
  9
$TDCREATE
 40
2457529.699809537
  9
$TDUCREATE
 40
2457529.324809537
  9
$TDUPDATE
 40
2457529.699809548
  9
$TDUUPDATE
 40
2457529.324809548
  9
$TDINDWG
 40
0.0000000116
  9
$TDUSRTIMER
 40
0.0000000116
  9
$USRTIMER
 70
     1
  9
$ANGBASE
 50
0.0
  9
$ANGDIR
 70
     0
  9
$PDMODE
 70
     0
  9
$PDSIZE
 40
0.0
  9
$PLINEWID
 40
0.0
  9
$SPLFRAME
 70
     0
  9
$SPLINETYPE
 70
     6
  9
$SPLINESEGS
 70
     8
  9
$HANDSEED
  5
26C
  9
$SURFTAB1
 70
     6
  9
$SURFTAB2
 70
     6
  9
$SURFTYPE
 70
     6
  9
$SURFU
 70
     6
  9
$SURFV
 70
     6
  9
$UCSBASE
  2

  9
$UCSNAME
  2

  9
$UCSORG
 10
0.0
 20
0.0
 30
0.0
  9
$UCSXDIR
 10
1.0
 20
0.0
 30
0.0
  9
$UCSYDIR
 10
0.0
 20
1.0
 30
0.0
  9
$UCSORTHOREF
  2

  9
$UCSORTHOVIEW
 70
     0
  9
$UCSORGTOP
 10
0.0
 20
0.0
 30
0.0
  9
$UCSORGBOTTOM
 10
0.0
 20
0.0
 30
0.0
  9
$UCSORGLEFT
 10
0.0
 20
0.0
 30
0.0
  9
$UCSORGRIGHT
 10
0.0
 20
0.0
 30
0.0
  9
$UCSORGFRONT
 10
0.0
 20
0.0
 30
0.0
  9
$UCSORGBACK
 10
0.0
 20
0.0
 30
0.0
  9
$PUCSBASE
  2

  9
$PUCSNAME
  2

  9
$PUCSORG
 10
0.0
 20
0.0
 30
0.0
  9
$PUCSXDIR
 10
1.0
 20
0.0
 30
0.0
  9
$PUCSYDIR
 10
0.0
 20
1.0
 30
0.0
  9
$PUCSORTHOREF
  2

  9
$PUCSORTHOVIEW
 70
     0
  9
$PUCSORGTOP
 10
0.0
 20
0.0
 30
0.0
  9
$PUCSORGBOTTOM
 10
0.0
 20
0.0
 30
0.0
  9
$PUCSORGLEFT
 10
0.0
 20
0.0
 30
0.0
  9
$PUCSORGRIGHT
 10
0.0
 20
0.0
 30
0.0
  9
$PUCSORGFRONT
 10
0.0
 20
0.0
 30
0.0
  9
$PUCSORGBACK
 10
0.0
 20
0.0
 30
0.0
  9
$USERI1
 70
     0
  9
$USERI2
 70
     0
  9
$USERI3
 70
     0
  9
$USERI4
 70
     0
  9
$USERI5
 70
     0
  9
$USERR1
 40
0.0
  9
$USERR2
 40
0.0
  9
$USERR3
 40
0.0
  9
$USERR4
 40
0.0
  9
$USERR5
 40
0.0
  9
$WORLDVIEW
 70
     1
  9
$SHADEDGE
 70
     3
  9
$SHADEDIF
 70
    70
  9
$TILEMODE
 70
     1
  9
$MAXACTVP
 70
    64
  9
$PINSBASE
 10
0.0
 20
0.0
 30
0.0
  9
$PLIMCHECK
 70
     0
  9
$PEXTMIN
 10
1.000000000000000E+20
 20
1.000000000000000E+20
 30
1.000000000000000E+20
  9
$PEXTMAX
 10
-1.000000000000000E+20
 20
-1.000000000000000E+20
 30
-1.000000000000000E+20
  9
$PLIMMIN
 10
0.0
 20
0.0
  9
$PLIMMAX
 10
420.0
 20
297.0
  9
$UNITMODE
 70
     0
  9
$VISRETAIN
 70
     1
  9
$PLINEGEN
 70
     0
  9
$PSLTSCALE
 70
     1
  9
$TREEDEPTH
 70
  3020
  9
$CMLSTYLE
  2
Standard
  9
$CMLJUST
 70
     0
  9
$CMLSCALE
 40
20.0
  9
$PROXYGRAPHICS
 70
     1
  9
$MEASUREMENT
 70
     1
  9
$CELWEIGHT
370
    -1
  9
$ENDCAPS
280
     0
  9
$JOINSTYLE
280
     0
  9
$LWDISPLAY
290
     0
  9
$INSUNITS
 70
     4
  9
$HYPERLINKBASE
  1

  9
$STYLESHEET
  1

  9
$XEDIT
290
     1
  9
$CEPSNTYPE
380
     0
  9
$PSTYLEMODE
290
     1
  9
$FINGERPRINTGUID
  2
{D8FFE1A9-055D-4B36-9FDC-68E7A2F7165E}
  9
$VERSIONGUID
  2
{FAEB1C32-E019-11D5-929B-00C0DF256EC4}
  9
$EXTNAMES
290
     1
  9
$PSVPSCALE
 40
0.0
  9
$OLESTARTUP
290
     0
  9
$SORTENTS
280
   127
  9
$INDEXCTL
280
     0
  9
$HIDETEXT
280
     1
  9
$XCLIPFRAME
290
     0
  9
$HALOGAP
280
     0
  9
$OBSCOLOR
 70
   257
  9
$OBSLTYPE
280
     0
  9
$INTERSECTIONDISPLAY
280
     0
  9
$INTERSECTIONCOLOR
 70
   257
  9
$DIMASSOC
280
     2
  9
$PROJECTNAME
  1

  0
ENDSEC
  0
SECTION
  2
CLASSES
  0
CLASS
  1
ACDBDICTIONARYWDFLT
  2
AcDbDictionaryWithDefault
  3
ObjectDBX Classes
 90
        0
 91
        4
280
     0
281
     0
  0
CLASS
  1
VISUALSTYLE
  2
AcDbVisualStyle
  3
ObjectDBX Classes
 90
     4095
 91
        4
280
     0
281
     0
  0
ENDSEC
  0
SECTION
  2
TABLES
  0
TABLE
  2
VPORT
  5
8
330
0
100
AcDbSymbolTable
 70
     1
  0
VPORT
  5
29
330
8
100
AcDbSymbolTableRecord
100
AcDbViewportTableRecord
  2
*Active
 70
     0
 10
0.0
 20
0.0
 11
1.0
 21
1.0
 12
0.0
 22
0.0
 13
0.0
 23
0.0
 14
10.0
 24
10.0
 15
10.0
 25
10.0
 16
0.0
 26
0.0
 36
1.0
 17
0.0
 27
0.0
 37
0.0
 40
1306.8
 41
1.414141414141414
 42
50.0
 43
0.0
 44
0.0
 50
0.0
 51
0.0
 71
     0
 72
 10000
 73
     1
 74
     3
 75
     0
 76
     0
 77
     0
 78
     0
281
     0
 65
     1
110
0.0
120
0.0
130
0.0
111
1.0
121
0.0
131
0.0
112
0.0
122
1.0
132
0.0
 79
     0
146
0.0
  0
ENDTAB
  0
TABLE
  2
LTYPE
  5
5
330
0
100
AcDbSymbolTable
 70
     3
  0
LTYPE
  5
14
330
5
100
AcDbSymbolTableRecord
100
AcDbLinetypeTableRecord
  2
ByBlock
 70
     0
  3

 72
    65
 73
     0
 40
0.0
  0
LTYPE
  5
15
330
5
100
AcDbSymbolTableRecord
100
AcDbLinetypeTableRecord
  2
ByLayer
 70
     0
  3

 72
    65
 73
     0
 40
0.0
  0
LTYPE
  5
16
330
5
100
AcDbSymbolTableRecord
100
AcDbLinetypeTableRecord
  2
Continuous
 70
     0
  3
Solid line
 72
    65
 73
     0
 40
0.0
  0
LTYPE
  5
3C
330
5
100
AcDbSymbolTableRecord
100
AcDbLinetypeTableRecord
  2
JWW_CENTER1
 70
     0
  3
-----  --  ----------  --  -----
 72
    65
 73
     4
 40
6.773333333333333
 49
4.233333333333333
 74
     0
 49
-0.8466666666666667
 74
     0
 49
0.8466666666666667
 74
     0
 49
-0.8466666666666667
 74
     0
  0
LTYPE
  5
3D
330
5
100
AcDbSymbolTableRecord
100
AcDbLinetypeTableRecord
  2
JWW_DASHED3
 70
     0
  3
---  ------  ------  ------  ---
 72
    65
 73
     2
 40
3.386666666666667
 49
2.54
 74
     0
 49
-0.8466666666666667
 74
     0
  0
ENDTAB
  0
TABLE
  2
LAYER
  5
2
330
0
100
AcDbSymbolTable
 70
     6
  0
LAYER
  5
10
330
2
100
AcDbSymbolTableRecord
100
AcDbLayerTableRecord
  2
0
 70
     0
 62
     7
  6
Continuous
370
    -3
390
F
  0
LAYER
  5
3E
330
2
100
AcDbSymbolTableRecord
100
AcDbLayerTableRecord
  2
0-E
 70
     0
 62
     7
  6
Continuous
370
    -3
390
F
  0
LAYER
  5
3F
330
2
100
AcDbSymbolTableRecord
100
AcDbLayerTableRecord
  2
0-F
 70
     0
 62
     7
  6
Continuous
370
    -3
390
F
  0
LAYER
  5
40
330
2
100
AcDbSymbolTableRecord
100
AcDbLayerTableRecord
  2
0-1
 70
     0
 62
     7
  6
Continuous
370
    -3
390
F
  0
LAYER
  5
41
330
2
100
AcDbSymbolTableRecord
100
AcDbLayerTableRecord
  2
0-0
 70
     0
 62
     7
  6
Continuous
370
    -3
390
F
  0
LAYER
  5
42
330
2
100
AcDbSymbolTableRecord
100
AcDbLayerTableRecord
  2
F-5ﾚｲﾔ
 70
     0
 62
     7
  6
Continuous
370
    -3
390
F
  0
ENDTAB
  0
TABLE
  2
STYLE
  5
3
330
0
100
AcDbSymbolTable
 70
     2
  0
STYLE
  5
11
330
3
100
AcDbSymbolTableRecord
100
AcDbTextStyleTableRecord
  2
Standard
 70
     0
 40
0.0
 41
1.0
 50
0.0
 71
     0
 42
2.5
  3
txt
  4

1001
ACAD
1000

1071
        0
  0
STYLE
  5
3B
330
3
100
AcDbSymbolTableRecord
100
AcDbTextStyleTableRecord
  2
ＭＳ ゴシック
 70
     0
 40
1.0
 41
1.0
 50
0.0
 71
     0
 42
10.0
  3

  4

1001
ACAD
1000
MS Gothic
1071
    32817
  0
ENDTAB
  0
TABLE
  2
VIEW
  5
6
330
0
100
AcDbSymbolTable
 70
     0
  0
ENDTAB
  0
TABLE
  2
UCS
  5
7
330
0
100
AcDbSymbolTable
 70
     0
  0
ENDTAB
  0
TABLE
  2
APPID
  5
9
330
0
100
AcDbSymbolTable
 70
     1
  0
APPID
  5
12
330
9
100
AcDbSymbolTableRecord
100
AcDbRegAppTableRecord
  2
ACAD
 70
     0
  0
ENDTAB
  0
TABLE
  2
DIMSTYLE
  5
A
330
0
100
AcDbSymbolTable
 70
     1
100
AcDbDimStyleTable
  0
DIMSTYLE
105
27
330
A
100
AcDbSymbolTableRecord
100
AcDbDimStyleTableRecord
  2
ISO-25
 70
     0
 41
2.5
 42
0.625
 43
3.75
 44
1.25
 73
     0
 74
     0
 77
     1
 78
     8
140
2.5
141
2.5
143
0.03937007874016
147
0.625
171
     3
172
     1
271
     2
272
     2
274
     3
278
    44
283
     0
284
     8
340
11
  0
ENDTAB
  0
TABLE
  2
BLOCK_RECORD
  5
1
330
0
100
AcDbSymbolTable
 70
     1
  0
BLOCK_RECORD
  5
1F
330
1
100
AcDbSymbolTableRecord
100
AcDbBlockTableRecord
  2
*Model_Space
340
22
  0
BLOCK_RECORD
  5
1B
330
1
100
AcDbSymbolTableRecord
100
AcDbBlockTableRecord
  2
*Paper_Space
340
1E
  0
BLOCK_RECORD
  5
23
330
1
100
AcDbSymbolTableRecord
100
AcDbBlockTableRecord
  2
*Paper_Space0
340
26
  0
ENDTAB
  0
ENDSEC
  0
SECTION
  2
BLOCKS
  0
BLOCK
  5
20
330
1F
100
AcDbEntity
  8
0
100
AcDbBlockBegin
  2
*Model_Space
 70
     0
 10
0.0
 20
0.0
 30
0.0
  3
*Model_Space
  1

  0
ENDBLK
  5
21
330
1F
100
AcDbEntity
  8
0
100
AcDbBlockEnd
  0
BLOCK
  5
1C
330
1B
100
AcDbEntity
 67
     1
  8
0
100
AcDbBlockBegin
  2
*Paper_Space
 70
     0
 10
0.0
 20
0.0
 30
0.0
  3
*Paper_Space
  1

  0
ENDBLK
  5
1D
330
1B
100
AcDbEntity
 67
     1
  8
0
100
AcDbBlockEnd
  0
BLOCK
  5
24
330
23
100
AcDbEntity
  8
0
100
AcDbBlockBegin
  2
*Paper_Space0
 70
     0
 10
0.0
 20
0.0
 30
0.0
  3
*Paper_Space0
  1

  0
ENDBLK
  5
25
330
23
100
AcDbEntity
  8
0
100
AcDbBlockEnd
  0
ENDSEC
  0
SECTION
  2
ENTITIES
  0
LINE
  5
43
330
1F
100
AcDbEntity
  8
0-E
  6
Continuous
 62
     7
370
     9
100
AcDbLine
 10
270.0560203758446
 20
342.216282200169
 30
0.0
 11
261.1169103673988
 21
350.2220491976352
 31
0.0
  0
LINE
  5
44
330
1F
100
AcDbEntity
  8
0-E
  6
Continuous
 62
     7
370
     9
100
AcDbLine
 10
270.0560203758446
 20
342.216282200169
 30
0.0
 11
263.4936193517738
 21
352.2629328547298
 31
0.0
  0
LINE
  5
45
330
1F
100
AcDbEntity
  8
0-E
  6
Continuous
 62
     7
370
     9
100
AcDbLine
 10
329.902805637669
 20
371.2162294130068
 30
0.0
 11
334.6018858213683
 21
382.2579840582771
 31
0.0
  0
LINE
  5
46
330
1F
100
AcDbEntity
  8
0-E
  6
Continuous
 62
     7
370
     9
100
AcDbLine
 10
329.902805637669
 20
371.2162294130068
 30
0.0
 11
337.2995737436656
 21
380.6654613597974
 31
0.0
  0
LINE
  5
47
330
1F
100
AcDbEntity
  8
0-E
  6
Continuous
 62
     7
370
     9
100
AcDbLine
 10
210.4203507706927
 20
411.6655141469595
 30
0.0
 11
270.0560203758446
 21
342.216282200169
 31
0.0
  0
LINE
  5
48
330
1F
100
AcDbEntity
  8
0-F
  6
Continuous
 62
     7
370
     9
100
AcDbLine
 10
-537.2970663534628
 20
411.2162624049831
 30
0.0
 11
-437.2971323374155
 21
411.2162624049831
 31
0.0
  0
LINE
  5
49
330
1F
100
AcDbEntity
  8
0-F
  6
Continuous
 62
     7
370
     9
100
AcDbLine
 10
-537.2970663534628
 20
411.2162624049831
 30
0.0
 11
-525.3997637774494
 21
412.7825564822635
 31
0.0
  0
LINE
  5
4A
330
1F
100
AcDbEntity
  8
0-F
  6
Continuous
 62
     7
370
     9
100
AcDbLine
 10
-537.2970663534628
 20
411.2162624049831
 30
0.0
 11
-525.3997637774494
 21
409.6499683277027
 31
0.0
  0
LINE
  5
4B
330
1F
100
AcDbEntity
  8
0-F
  6
Continuous
 62
     7
370
     9
100
AcDbLine
 10
-437.2971323374155
 20
411.2162624049831
 30
0.0
 11
-449.194434913429
 21
412.7825564822635
 31
0.0
  0
LINE
  5
4C
330
1F
100
AcDbEntity
  8
0-F
  6
Continuous
 62
     7
370
     9
100
AcDbLine
 10
-437.2971323374155
 20
411.2162624049831
 30
0.0
 11
-449.194434913429
 21
409.6499683277027
 31
0.0
  0
LINE
  5
4D
330
1F
100
AcDbEntity
  8
0-F
  6
Continuous
 62
     7
370
     9
100
AcDbLine
 10
-237.2972148173563
 20
411.2162624049831
 30
0.0
 11
-137.2972808013091
 21
411.2162624049831
 31
0.0
  0
LINE
  5
4E
330
1F
100
AcDbEntity
  8
0-F
  6
Continuous
 62
     7
370
     9
100
AcDbLine
 10
-237.2972148173563
 20
411.2162624049831
 30
0.0
 11
-225.3998627533783
 21
412.7825564822635
 31
0.0
  0
LINE
  5
4F
330
1F
100
AcDbEntity
  8
0-F
  6
Continuous
 62
     7
370
     9
100
AcDbLine
 10
-237.2972148173563
 20
411.2162624049831
 30
0.0
 11
-225.3998627533783
 21
409.6499683277027
 31
0.0
  0
LINE
  5
50
330
1F
100
AcDbEntity
  8
0-F
  6
Continuous
 62
     7
370
     9
100
AcDbLine
 10
-137.2972808013091
 20
411.2162624049831
 30
0.0
 11
-149.1945833773226
 21
412.7825564822635
 31
0.0
  0
LINE
  5
51
330
1F
100
AcDbEntity
  8
0-F
  6
Continuous
 62
     7
370
     9
100
AcDbLine
 10
-137.2972808013091
 20
411.2162624049831
 30
0.0
 11
-149.1945833773226
 21
409.6499683277027
 31
0.0
  0
LINE
  5
52
330
1F
100
AcDbEntity
  8
0-F
  6
Continuous
 62
     7
370
     9
100
AcDbLine
 10
-537.2970663534628
 20
346.2162953969595
 30
0.0
 11
-537.2970663534628
 21
412.4162465688345
 31
0.0
  0
LINE
  5
53
330
1F
100
AcDbEntity
  8
0-F
  6
Continuous
 62
     7
370
     9
100
AcDbLine
 10
-137.2972808013091
 20
346.2162953969595
 30
0.0
 11
-137.2972808013091
 21
412.4162465688345
 31
0.0
  0
LINE
  5
54
330
1F
100
AcDbEntity
  8
0-F
  6
Continuous
 62
     7
370
     9
100
AcDbLine
 10
-534.0973725190033
 20
-292.7836848078547
 30
0.0
 11
-534.0973725190033
 21
-195.5837303367821
 31
0.0
  0
LINE
  5
55
330
1F
100
AcDbEntity
  8
0-F
  6
Continuous
 62
     7
370
     9
100
AcDbLine
 10
-537.2972643053209
 20
-292.7836848078547
 30
0.0
 11
-537.2972643053209
 21
-155.5836973448057
 31
0.0
  0
LINE
  5
56
330
1F
100
AcDbEntity
  8
0-F
  6
Continuous
 62
     7
370
     9
100
AcDbLine
 10
-537.2972643053209
 20
-196.7837145006334
 30
0.0
 11
-549.1947648331925
 21
-195.217420423353
 31
0.0
  0
LINE
  5
57
330
1F
100
AcDbEntity
  8
0-F
  6
Continuous
 62
     7
370
     9
100
AcDbLine
 10
-537.2972643053209
 20
-196.7837145006334
 30
0.0
 11
-549.1947648331925
 21
-198.3500580658783
 31
0.0
  0
LINE
  5
58
330
1F
100
AcDbEntity
  8
0-F
  6
Continuous
 62
     7
370
     9
100
AcDbLine
 10
-532.2972972972973
 20
-292.7836848078547
 30
0.0
 11
-532.2972972972973
 21
-195.5837303367821
 31
0.0
  0
LINE
  5
59
330
1F
100
AcDbEntity
  8
0-F
  6
Continuous
 62
     7
370
     9
100
AcDbLine
 10
-532.2972972972973
 20
-196.7837145006334
 30
0.0
 11
-520.3999947212837
 21
-195.217420423353
 31
0.0
  0
LINE
  5
5A
330
1F
100
AcDbEntity
  8
0-F
  6
Continuous
 62
     7
370
     9
100
AcDbLine
 10
-532.2972972972973
 20
-196.7837145006334
 30
0.0
 11
-520.3999947212837
 21
-198.3500580658783
 31
0.0
  0
LINE
  5
5B
330
1F
100
AcDbEntity
  8
0-F
  6
Continuous
 62
     7
370
     9
100
AcDbLine
 10
-142.2972972972973
 20
-292.7836848078547
 30
0.0
 11
-142.2972972972973
 21
-195.5837303367821
 31
0.0
  0
LINE
  5
5C
330
1F
100
AcDbEntity
  8
0-F
  6
Continuous
 62
     7
370
     9
100
AcDbLine
 10
-140.4973705394848
 20
-292.7836848078547
 30
0.0
 11
-140.4973705394848
 21
-195.5837303367821
 31
0.0
  0
LINE
  5
5D
330
1F
100
AcDbEntity
  8
0-F
  6
Continuous
 62
     7
370
     9
100
AcDbLine
 10
-142.2972972972973
 20
-196.7837145006334
 30
0.0
 11
-154.1945998733107
 21
-195.217420423353
 31
0.0
  0
LINE
  5
5E
330
1F
100
AcDbEntity
  8
0-F
  6
Continuous
 62
     7
370
     9
100
AcDbLine
 10
-142.2972972972973
 20
-196.7837145006334
 30
0.0
 11
-154.1945998733107
 21
-198.3500580658783
 31
0.0
  0
LINE
  5
5F
330
1F
100
AcDbEntity
  8
0-F
  6
Continuous
 62
     7
370
     9
100
AcDbLine
 10
-137.2972808013091
 20
-196.7837145006334
 30
0.0
 11
-125.3999782252955
 21
-195.217420423353
 31
0.0
  0
LINE
  5
60
330
1F
100
AcDbEntity
  8
0-F
  6
Continuous
 62
     7
370
     9
100
AcDbLine
 10
-137.2972808013091
 20
-196.7837145006334
 30
0.0
 11
-125.3999782252955
 21
-198.3500580658783
 31
0.0
  0
LINE
  5
61
330
1F
100
AcDbEntity
  8
0-F
  6
Continuous
 62
     7
370
     9
100
AcDbLine
 10
-137.2972808013091
 20
-292.7836848078547
 30
0.0
 11
-137.2972808013091
 21
-155.5836973448057
 31
0.0
  0
LINE
  5
62
330
1F
100
AcDbEntity
  8
0-F
  6
Continuous
 62
     7
370
     9
100
AcDbLine
 10
-537.2972643053209
 20
-156.7837804845861
 30
0.0
 11
-137.2972808013091
 21
-156.7837804845861
 31
0.0
  0
LINE
  5
63
330
1F
100
AcDbEntity
  8
0-F
  6
Continuous
 62
     7
370
     9
100
AcDbLine
 10
-537.2972643053209
 20
-156.7837804845861
 30
0.0
 11
-525.3999617293074
 21
-155.2173874313767
 31
0.0
  0
LINE
  5
64
330
1F
100
AcDbEntity
  8
0-F
  6
Continuous
 62
     7
370
     9
100
AcDbLine
 10
-537.2972643053209
 20
-156.7837804845861
 30
0.0
 11
-525.3999617293074
 21
-158.3500745618665
 31
0.0
  0
LINE
  5
65
330
1F
100
AcDbEntity
  8
0-F
  6
Continuous
 62
     7
370
     9
100
AcDbLine
 10
-137.2972808013091
 20
-156.7837804845861
 30
0.0
 11
-149.1945833773226
 21
-155.2173874313767
 31
0.0
  0
LINE
  5
66
330
1F
100
AcDbEntity
  8
0-F
  6
Continuous
 62
     7
370
     9
100
AcDbLine
 10
-137.2972808013091
 20
-156.7837804845861
 30
0.0
 11
-149.1945833773226
 21
-158.3500745618665
 31
0.0
  0
LINE
  5
67
330
1F
100
AcDbEntity
  8
0-F
  6
Continuous
 62
     7
370
     9
100
AcDbLine
 10
238.7028214738177
 20
-54.58380951752531
 30
0.0
 11
141.5028175147804
 21
-54.58380951752531
 31
0.0
  0
LINE
  5
68
330
1F
100
AcDbEntity
  8
0-F
  6
Continuous
 62
     7
370
     9
100
AcDbLine
 10
142.7028016786318
 20
-57.78375079180739
 30
0.0
 11
141.1365076013514
 21
-69.68110285578541
 31
0.0
  0
LINE
  5
69
330
1F
100
AcDbEntity
  8
0-F
  6
Continuous
 62
     7
370
     9
100
AcDbLine
 10
142.7028016786318
 20
-96.5592041015625
 30
0.0
 11
142.7028016786318
 21
379.5136784733953
 31
0.0
  0
LINE
  5
6A
330
1F
100
AcDbEntity
  8
0-F
  6
Continuous
 62
     7
370
     9
100
AcDbLine
 10
238.7028214738177
 20
-52.78378378378375
 30
0.0
 11
141.5028175147804
 21
-52.78378378378375
 31
0.0
  0
LINE
  5
6B
330
1F
100
AcDbEntity
  8
0-F
  6
Continuous
 62
     7
370
     9
100
AcDbLine
 10
142.7028016786318
 20
-52.78378378378375
 30
0.0
 11
141.1365076013514
 21
-40.88643171980573
 31
0.0
  0
LINE
  5
6C
330
1F
100
AcDbEntity
  8
0-F
  6
Continuous
 62
     7
370
     9
100
AcDbLine
 10
142.7028016786318
 20
-52.78378378378375
 30
0.0
 11
144.2690957559122
 21
-40.88643171980573
 31
0.0
  0
LINE
  5
6D
330
1F
100
AcDbEntity
  8
0-F
  6
Continuous
 62
     7
370
     9
100
AcDbLine
 10
142.7028016786318
 20
337.2162162162163
 30
0.0
 11
141.1365076013514
 21
325.3189136402027
 31
0.0
  0
LINE
  5
6E
330
1F
100
AcDbEntity
  8
0-F
  6
Continuous
 62
     7
370
     9
100
AcDbLine
 10
142.7028016786318
 20
337.2162162162163
 30
0.0
 11
144.2690957559122
 21
325.3189136402027
 31
0.0
  0
LINE
  5
6F
330
1F
100
AcDbEntity
  8
0-F
  6
Continuous
 62
     7
370
     9
100
AcDbLine
 10
238.7028214738177
 20
342.2160842483108
 30
0.0
 11
101.5027845228041
 21
342.2160842483108
 31
0.0
  0
LINE
  5
70
330
1F
100
AcDbEntity
  8
0-F
  6
Continuous
 62
     7
370
     9
100
AcDbLine
 10
142.7028016786318
 20
342.2160842483108
 30
0.0
 11
141.1365076013514
 21
354.1133868243244
 31
0.0
  0
LINE
  5
71
330
1F
100
AcDbEntity
  8
0-F
  6
Continuous
 62
     7
370
     9
100
AcDbLine
 10
142.7028016786318
 20
342.2160842483108
 30
0.0
 11
144.2690957559122
 21
354.1133868243244
 31
0.0
  0
LINE
  5
72
330
1F
100
AcDbEntity
  8
0-F
  6
Continuous
 62
     7
370
     9
100
AcDbLine
 10
142.7028016786318
 20
-57.78375079180739
 30
0.0
 11
144.2690957559122
 21
-69.68110285578541
 31
0.0
  0
LINE
  5
73
330
1F
100
AcDbEntity
  8
0-F
  6
Continuous
 62
     7
370
     9
100
AcDbLine
 10
102.7027686866554
 20
-57.78375079180739
 30
0.0
 11
102.7027686866554
 21
342.216282200169
 31
0.0
  0
LINE
  5
74
330
1F
100
AcDbEntity
  8
0-F
  6
Continuous
 62
     7
370
     9
100
AcDbLine
 10
102.7027686866554
 20
-57.78375079180739
 30
0.0
 11
101.136474609375
 21
-45.88639872782937
 31
0.0
  0
LINE
  5
75
330
1F
100
AcDbEntity
  8
0-F
  6
Continuous
 62
     7
370
     9
100
AcDbLine
 10
102.7027686866554
 20
-57.78375079180739
 30
0.0
 11
104.2690627639358
 21
-45.88639872782937
 31
0.0
  0
LINE
  5
76
330
1F
100
AcDbEntity
  8
0-F
  6
Continuous
 62
     7
370
     9
100
AcDbLine
 10
102.7027686866554
 20
342.216282200169
 30
0.0
 11
101.136474609375
 21
330.3189796241554
 31
0.0
  0
LINE
  5
77
330
1F
100
AcDbEntity
  8
0-F
  6
Continuous
 62
     7
370
     9
100
AcDbLine
 10
102.7027686866554
 20
342.216282200169
 30
0.0
 11
104.2690627639358
 21
330.3189796241554
 31
0.0
  0
LINE
  5
78
330
1F
100
AcDbEntity
  8
0-F
  6
Continuous
 62
     7
370
     9
100
AcDbLine
 10
394.9027726456927
 20
-86.78374749260979
 30
0.0
 11
394.9027726456927
 21
371.2162294130068
 31
0.0
  0
LINE
  5
79
330
1F
100
AcDbEntity
  8
0-F
  6
Continuous
 62
     7
370
     9
100
AcDbLine
 10
394.9027726456927
 20
-86.78374749260979
 30
0.0
 11
393.3364785684123
 21
-74.88639542863177
 31
0.0
  0
LINE
  5
7A
330
1F
100
AcDbEntity
  8
0-F
  6
Continuous
 62
     7
370
     9
100
AcDbLine
 10
394.9027726456927
 20
-86.78374749260979
 30
0.0
 11
396.4690667229731
 21
-74.88639542863177
 31
0.0
  0
LINE
  5
7B
330
1F
100
AcDbEntity
  8
0-F
  6
Continuous
 62
     7
370
     9
100
AcDbLine
 10
396.4690667229731
 20
-45.88639872782937
 30
0.0
 11
393.3364785684123
 21
-69.68110285578541
 31
0.0
  0
LINE
  5
7C
330
1F
100
AcDbEntity
  8
0-F
  6
Continuous
 62
     7
370
     9
100
AcDbLine
 10
393.3364785684123
 20
-45.88639872782937
 30
0.0
 11
396.4690667229731
 21
-69.68110285578541
 31
0.0
  0
LINE
  5
7D
330
1F
100
AcDbEntity
  8
0-F
  6
Continuous
 62
     7
370
     9
100
AcDbLine
 10
396.4690667229731
 20
4.113568280194272
 30
0.0
 11
393.3364785684123
 21
-19.68113584776177
 31
0.0
  0
LINE
  5
7E
330
1F
100
AcDbEntity
  8
0-F
  6
Continuous
 62
     7
370
     9
100
AcDbLine
 10
393.3364785684123
 20
4.113568280194272
 30
0.0
 11
396.4690667229731
 21
-19.68113584776177
 31
0.0
  0
LINE
  5
7F
330
1F
100
AcDbEntity
  8
0-F
  6
Continuous
 62
     7
370
     9
100
AcDbLine
 10
396.4690667229731
 20
304.1135187922298
 30
0.0
 11
393.3364785684123
 21
280.3189136402027
 31
0.0
  0
LINE
  5
80
330
1F
100
AcDbEntity
  8
0-F
  6
Continuous
 62
     7
370
     9
100
AcDbLine
 10
393.3364785684123
 20
304.1135187922298
 30
0.0
 11
396.4690667229731
 21
280.3189136402027
 31
0.0
  0
LINE
  5
81
330
1F
100
AcDbEntity
  8
0-F
  6
Continuous
 62
     7
370
     9
100
AcDbLine
 10
396.4690667229731
 20
354.1134858002534
 30
0.0
 11
393.3364785684123
 21
330.3188806482264
 31
0.0
  0
LINE
  5
82
330
1F
100
AcDbEntity
  8
0-F
  6
Continuous
 62
     7
370
     9
100
AcDbLine
 10
393.3364785684123
 20
354.1134858002534
 30
0.0
 11
396.4690667229731
 21
330.3188806482264
 31
0.0
  0
LINE
  5
83
330
1F
100
AcDbEntity
  8
0-F
  6
Continuous
 62
     7
370
     9
100
AcDbLine
 10
394.9027726456927
 20
371.2162294130068
 30
0.0
 11
393.3364785684123
 21
359.3189268369933
 31
0.0
  0
LINE
  5
84
330
1F
100
AcDbEntity
  8
0-F
  6
Continuous
 62
     7
370
     9
100
AcDbLine
 10
394.9027726456927
 20
371.2162294130068
 30
0.0
 11
396.4690667229731
 21
359.3189268369933
 31
0.0
  0
LINE
  5
85
330
1F
100
AcDbEntity
  8
0-F
  6
Continuous
 62
     7
370
     9
100
AcDbLine
 10
242.7028346706081
 20
-117.7837507918074
 30
0.0
 11
302.7028346706081
 21
-117.7837507918074
 31
0.0
  0
LINE
  5
86
330
1F
100
AcDbEntity
  8
0-F
  6
Continuous
 62
     7
370
     9
100
AcDbLine
 10
302.7028346706081
 20
-61.78376398859791
 30
0.0
 11
302.7028346706081
 21
-118.9837349556587
 31
0.0
  0
LINE
  5
87
330
1F
100
AcDbEntity
  8
0-F
  6
Continuous
 62
     7
370
     9
100
AcDbLine
 10
242.7028346706081
 20
-117.7837507918074
 30
0.0
 11
254.6001372466217
 21
-116.217456714527
 31
0.0
  0
LINE
  5
88
330
1F
100
AcDbEntity
  8
0-F
  6
Continuous
 62
     7
370
     9
100
AcDbLine
 10
242.7028346706081
 20
-117.7837507918074
 30
0.0
 11
254.6001372466217
 21
-119.3500448690878
 31
0.0
  0
LINE
  5
89
330
1F
100
AcDbEntity
  8
0-F
  6
Continuous
 62
     7
370
     9
100
AcDbLine
 10
242.7028346706081
 20
-157.7837837837837
 30
0.0
 11
254.6001372466217
 21
-156.2174402185389
 31
0.0
  0
LINE
  5
8A
330
1F
100
AcDbEntity
  8
0-F
  6
Continuous
 62
     7
370
     9
100
AcDbLine
 10
242.7028346706081
 20
-157.7837837837837
 30
0.0
 11
254.6001372466217
 21
-159.3500778610642
 31
0.0
  0
LINE
  5
8B
330
1F
100
AcDbEntity
  8
0-F
  6
Continuous
 62
     7
370
     9
100
AcDbLine
 10
305.9028254328548
 20
-61.78376398859791
 30
0.0
 11
305.9028254328548
 21
-158.9837679476351
 31
0.0
  0
LINE
  5
8C
330
1F
100
AcDbEntity
  8
0-F
  6
Continuous
 62
     7
370
     9
100
AcDbLine
 10
242.7028346706081
 20
-61.78376398859791
 30
0.0
 11
242.7028346706081
 21
-158.9837679476351
 31
0.0
  0
LINE
  5
8D
330
1F
100
AcDbEntity
  8
0-F
  6
Continuous
 62
     7
370
     9
100
AcDbLine
 10
238.7028214738177
 20
-57.78375079180739
 30
0.0
 11
101.5027845228041
 21
-57.78375079180739
 31
0.0
  0
LINE
  5
8E
330
1F
100
AcDbEntity
  8
0-F
  6
Continuous
 62
     7
370
     9
100
AcDbLine
 10
238.7028214738177
 20
339.0161924619933
 30
0.0
 11
141.5028175147804
 21
339.0161924619933
 31
0.0
  0
LINE
  5
8F
330
1F
100
AcDbEntity
  8
0-F
  6
Continuous
 62
     7
370
     9
100
AcDbLine
 10
242.7030326224663
 20
102.2162327122045
 30
0.0
 11
323.702854465794
 21
102.2162327122045
 31
0.0
  0
LINE
  5
90
330
1F
100
AcDbEntity
  8
0-F
  6
Continuous
 62
     7
370
     9
100
AcDbLine
 10
242.7030326224663
 20
102.2162327122045
 30
0.0
 11
254.6003351984798
 21
103.7825267894848
 31
0.0
  0
LINE
  5
91
330
1F
100
AcDbEntity
  8
0-F
  6
Continuous
 62
     7
370
     9
100
AcDbLine
 10
242.7030326224663
 20
102.2162327122045
 30
0.0
 11
254.6003351984798
 21
100.6499386349241
 31
0.0
  0
LINE
  5
92
330
1F
100
AcDbEntity
  8
0-F
  6
Continuous
 62
     7
370
     9
100
AcDbLine
 10
282.7028676625846
 20
102.2162327122045
 30
0.0
 11
270.8055650865711
 21
103.7825267894848
 31
0.0
  0
LINE
  5
93
330
1F
100
AcDbEntity
  8
0-F
  6
Continuous
 62
     7
370
     9
100
AcDbLine
 10
282.7028676625846
 20
102.2162327122045
 30
0.0
 11
270.8055650865711
 21
100.6499386349241
 31
0.0
  0
LINE
  5
94
330
1F
100
AcDbEntity
  8
0-F
  6
Continuous
 62
     7
370
     9
100
AcDbLine
 10
298.0829352301521
 20
123.6593182538007
 30
0.0
 11
285.7028280722129
 21
102.2162327122045
 31
0.0
  0
LINE
  5
95
330
1F
100
AcDbEntity
  8
0-1
  6
Continuous
 62
     2
370
     9
100
AcDbLine
 10
302.7028346706081
 20
-51.58379961993239
 30
0.0
 11
302.7028346706081
 21
-7.783783783783747
 31
0.0
  0
LINE
  5
96
330
1F
100
AcDbEntity
  8
0-1
  6
Continuous
 62
     2
370
     9
100
AcDbLine
 10
242.7028346706081
 20
-54.58380951752531
 30
0.0
 11
299.7028742609798
 21
-54.58380951752531
 31
0.0
  0
LINE
  5
97
330
1F
100
AcDbEntity
  8
0-1
  6
Continuous
 62
     2
370
     9
100
AcDbLine
 10
305.9028254328548
 20
-51.78378048458615
 30
0.0
 11
305.9028254328548
 21
-7.783783783783747
 31
0.0
  0
LINE
  5
98
330
1F
100
AcDbEntity
  8
0-1
  6
Continuous
 62
     2
370
     9
100
AcDbLine
 10
242.7028346706081
 20
-57.78375079180739
 30
0.0
 11
242.7028346706081
 21
-54.58380951752531
 31
0.0
  0
LINE
  5
99
330
1F
100
AcDbEntity
  8
0-1
  6
Continuous
 62
     2
370
     9
100
AcDbLine
 10
302.7028346706081
 20
-7.783783783783747
 30
0.0
 11
305.9028254328548
 21
-7.783783783783747
 31
0.0
  0
LINE
  5
9A
330
1F
100
AcDbEntity
  8
0-1
  6
Continuous
 62
     2
370
     9
100
AcDbLine
 10
290.9028254328548
 20
-66.78378048458615
 30
0.0
 11
290.9028254328548
 21
-57.78375079180739
 31
0.0
  0
LINE
  5
9B
330
1F
100
AcDbEntity
  8
0-1
  6
Continuous
 62
     2
370
     9
100
AcDbLine
 10
290.9028254328548
 20
-66.78378048458615
 30
0.0
 11
315.902858424831
 21
-66.78378048458615
 31
0.0
  0
LINE
  5
9C
330
1F
100
AcDbEntity
  8
0-1
  6
Continuous
 62
     2
370
     9
100
AcDbLine
 10
320.9028254328548
 20
-86.78374749260979
 30
0.0
 11
329.902805637669
 21
-86.78374749260979
 31
0.0
  0
LINE
  5
9D
330
1F
100
AcDbEntity
  8
0-1
  6
Continuous
 62
     2
370
     9
100
AcDbLine
 10
-232.7973236908783
 20
371.2162294130068
 30
0.0
 11
-241.7973038956925
 21
371.2162294130068
 31
0.0
  0
LINE
  5
9E
330
1F
100
AcDbEntity
  8
0-1
  6
Continuous
 62
     2
370
     9
100
AcDbLine
 10
-232.7973236908783
 20
346.7163217905406
 30
0.0
 11
-232.7973236908783
 21
371.2162294130068
 31
0.0
  0
LINE
  5
9F
330
1F
100
AcDbEntity
  8
0-1
  6
Continuous
 62
     2
370
     9
100
AcDbLine
 10
-241.7973038956925
 20
346.7163217905406
 30
0.0
 11
-241.7973038956925
 21
371.2162294130068
 31
0.0
  0
LINE
  5
A0
330
1F
100
AcDbEntity
  8
0-1
  6
Continuous
 62
     2
370
     9
100
AcDbLine
 10
-137.2973302892736
 20
342.216282200169
 30
0.0
 11
-537.2973137932854
 21
342.216282200169
 31
0.0
  0
LINE
  5
A1
330
1F
100
AcDbEntity
  8
0-1
  6
Continuous
 62
     2
370
     9
100
AcDbLine
 10
320.9028254328548
 20
371.2162294130068
 30
0.0
 11
329.902805637669
 21
371.2162294130068
 31
0.0
  0
LINE
  5
A2
330
1F
100
AcDbEntity
  8
0-1
  6
Continuous
 62
     2
370
     9
100
AcDbLine
 10
329.902805637669
 20
371.2162294130068
 30
0.0
 11
329.902805637669
 21
356.2162294130068
 31
0.0
  0
LINE
  5
A3
330
1F
100
AcDbEntity
  8
0-1
  6
Continuous
 62
     2
370
     9
100
AcDbLine
 10
320.9028254328548
 20
371.2162294130068
 30
0.0
 11
320.9028254328548
 21
356.2162294130068
 31
0.0
  0
LINE
  5
A4
330
1F
100
AcDbEntity
  8
0-1
  6
Continuous
 62
     2
370
     9
100
AcDbLine
 10
290.9028254328548
 20
351.2161634290541
 30
0.0
 11
315.902858424831
 21
351.2161634290541
 31
0.0
  0
LINE
  5
A5
330
1F
100
AcDbEntity
  8
0-1
  6
Continuous
 62
     2
370
     9
100
AcDbLine
 10
290.9028254328548
 20
351.2161634290541
 30
0.0
 11
290.9028254328548
 21
342.216282200169
 31
0.0
  0
LINE
  5
A6
330
1F
100
AcDbEntity
  8
0-1
  6
Continuous
 62
     2
370
     9
100
AcDbLine
 10
302.7028346706081
 20
292.2162162162163
 30
0.0
 11
305.9028254328548
 21
292.2162162162163
 31
0.0
  0
LINE
  5
A7
330
1F
100
AcDbEntity
  8
0-1
  6
Continuous
 62
     2
370
     9
100
AcDbLine
 10
242.7028346706081
 20
342.216282200169
 30
0.0
 11
242.7028346706081
 21
339.0161924619933
 31
0.0
  0
LINE
  5
A8
330
1F
100
AcDbEntity
  8
0-1
  6
Continuous
 62
     2
370
     9
100
AcDbLine
 10
305.9028254328548
 20
336.2161634290541
 30
0.0
 11
305.9028254328548
 21
292.2162162162163
 31
0.0
  0
LINE
  5
A9
330
1F
100
AcDbEntity
  8
0-1
  6
Continuous
 62
     2
370
     9
100
AcDbLine
 10
242.7028346706081
 20
339.0161924619933
 30
0.0
 11
299.7028742609798
 21
339.0161924619933
 31
0.0
  0
LINE
  5
AA
330
1F
100
AcDbEntity
  8
0-1
  6
Continuous
 62
     2
370
     9
100
AcDbLine
 10
-140.4973210515202
 20
339.0161924619933
 30
0.0
 11
-534.0973230310389
 21
339.0161924619933
 31
0.0
  0
LINE
  5
AB
330
1F
100
AcDbEntity
  8
0-0
  6
Continuous
 62
     3
370
     9
100
AcDbLine
 10
242.7028346706081
 20
335.3691274282095
 30
0.0
 11
242.7028346706081
 21
328.0633182010135
 31
0.0
  0
LINE
  5
AC
330
1F
100
AcDbEntity
  8
0-0
  6
Continuous
 62
     3
370
     9
100
AcDbLine
 10
248.702854465794
 20
337.2162162162163
 30
0.0
 11
248.702854465794
 21
336.5990023226352
 31
0.0
  0
LINE
  5
AD
330
1F
100
AcDbEntity
  8
0-0
  6
Continuous
 62
     3
370
     9
100
AcDbLine
 10
256.702880859375
 20
333.8334169130068
 30
0.0
 11
256.702880859375
 21
329.5990287162163
 31
0.0
  0
LINE
  5
AE
330
1F
100
AcDbEntity
  8
0-0
  6
Continuous
 62
     3
370
     9
100
AcDbLine
 10
243.5383894636825
 20
336.3555215371622
 30
0.0
 11
248.702854465794
 21
337.2162162162163
 31
0.0
  0
LINE
  5
AF
330
1F
100
AcDbEntity
  8
0-0
  6
Continuous
 62
     3
370
     9
100
AcDbLine
 10
243.5383894636825
 20
327.0769240920608
 30
0.0
 11
248.702854465794
 21
326.2162294130068
 31
0.0
  0
LINE
  5
B0
330
1F
100
AcDbEntity
  8
0-0
  6
Continuous
 62
     3
370
     9
100
AcDbLine
 10
243.5383894636825
 20
318.8553895692568
 30
0.0
 11
248.702854465794
 21
319.716282200169
 31
0.0
  0
LINE
  5
B1
330
1F
100
AcDbEntity
  8
0-0
  6
Continuous
 62
     3
370
     9
100
AcDbLine
 10
243.5383894636825
 20
309.5769900760135
 30
0.0
 11
248.702854465794
 21
308.7162953969595
 31
0.0
  0
LINE
  5
B2
330
1F
100
AcDbEntity
  8
0-0
  6
Continuous
 62
     3
370
     9
100
AcDbLine
 10
243.5383894636825
 20
301.3554555532095
 30
0.0
 11
248.702854465794
 21
302.2161502322635
 31
0.0
  0
LINE
  5
B3
330
1F
100
AcDbEntity
  8
0-0
  6
Continuous
 62
     3
370
     9
100
AcDbLine
 10
242.7028346706081
 20
292.2162162162163
 30
0.0
 11
279.9643026815879
 21
288.9557511613176
 31
0.0
  0
LINE
  5
B4
330
1F
100
AcDbEntity
  8
0-0
  6
Continuous
 62
     3
370
     9
100
AcDbLine
 10
249.5787914379223
 20
310.3257429793075
 30
0.0
 11
255.8268449113177
 21
311.106663059544
 31
0.0
  0
LINE
  5
B5
330
1F
100
AcDbEntity
  8
0-0
  6
Continuous
 62
     3
370
     9
100
AcDbLine
 10
255.8268449113177
 20
328.6067950274494
 30
0.0
 11
249.5787914379223
 21
327.8257759712839
 31
0.0
  0
LINE
  5
B6
330
1F
100
AcDbEntity
  8
0-0
  6
Continuous
 62
     3
370
     9
100
AcDbLine
 10
249.5787914379223
 20
318.106735641892
 30
0.0
 11
255.8268449113177
 21
317.3258155616554
 31
0.0
  0
LINE
  5
B7
330
1F
100
AcDbEntity
  8
0-0
  6
Continuous
 62
     3
370
     9
100
AcDbLine
 10
242.7028346706081
 20
317.8689954603041
 30
0.0
 11
242.7028346706081
 21
310.5633841849663
 31
0.0
  0
LINE
  5
B8
330
1F
100
AcDbEntity
  8
0-0
  6
Continuous
 62
     3
370
     9
100
AcDbLine
 10
248.702854465794
 20
326.8334433065879
 30
0.0
 11
248.702854465794
 21
319.0990683065879
 31
0.0
  0
LINE
  5
B9
330
1F
100
AcDbEntity
  8
0-0
  6
Continuous
 62
     3
370
     9
100
AcDbLine
 10
256.702880859375
 20
316.3334828969595
 30
0.0
 11
256.702880859375
 21
312.0989957242399
 31
0.0
  0
LINE
  5
BA
330
1F
100
AcDbEntity
  8
0-1
  6
Continuous
 62
     2
370
     9
100
AcDbLine
 10
302.7028346706081
 20
336.0161330764358
 30
0.0
 11
302.7028346706081
 21
292.2162162162163
 31
0.0
  0
LINE
  5
BB
330
1F
100
AcDbEntity
  8
0-0
  6
Continuous
 62
     3
370
     9
100
AcDbLine
 10
-532.2972972972973
 20
-52.78378378378375
 30
0.0
 11
-142.2972972972973
 21
-52.78378378378375
 31
0.0
  0
LINE
  5
BC
330
1F
100
AcDbEntity
  8
0-0
  6
Continuous
 62
     3
370
     9
100
AcDbLine
 10
-531.2972939980996
 20
-51.78378048458615
 30
0.0
 11
-143.2972511085304
 21
-51.78378048458615
 31
0.0
  0
LINE
  5
BD
330
1F
100
AcDbEntity
  8
0-0
  6
Continuous
 62
     3
370
     9
100
AcDbLine
 10
-531.2972939980996
 20
-42.78375079180739
 30
0.0
 11
-143.2972511085304
 21
-42.78375079180739
 31
0.0
  0
LINE
  5
BE
330
1F
100
AcDbEntity
  8
0-0
  6
Continuous
 62
     3
370
     9
100
AcDbLine
 10
-532.2972972972973
 20
-41.78374749260979
 30
0.0
 11
-142.2972972972973
 21
-41.78374749260979
 31
0.0
  0
LINE
  5
BF
330
1F
100
AcDbEntity
  8
0-0
  6
Continuous
 62
     3
370
     9
100
AcDbLine
 10
-532.2972972972973
 20
-35.28375079180739
 30
0.0
 11
-142.2972972972973
 21
-35.28375079180739
 31
0.0
  0
LINE
  5
C0
330
1F
100
AcDbEntity
  8
0-0
  6
Continuous
 62
     3
370
     9
100
AcDbLine
 10
-531.2972939980996
 20
-34.28374749260979
 30
0.0
 11
-143.2972511085304
 21
-34.28374749260979
 31
0.0
  0
LINE
  5
C1
330
1F
100
AcDbEntity
  8
0-0
  6
Continuous
 62
     3
370
     9
100
AcDbLine
 10
-531.2972939980996
 20
-25.28376728779563
 30
0.0
 11
-143.2972511085304
 21
-25.28376728779563
 31
0.0
  0
LINE
  5
C2
330
1F
100
AcDbEntity
  8
0-0
  6
Continuous
 62
     3
370
     9
100
AcDbLine
 10
-532.2972972972973
 20
-24.28376398859791
 30
0.0
 11
-142.2972972972973
 21
-24.28376398859791
 31
0.0
  0
LINE
  5
C3
330
1F
100
AcDbEntity
  8
0-0
  6
Continuous
 62
     3
370
     9
100
AcDbLine
 10
-532.2972972972973
 20
-17.78376728779563
 30
0.0
 11
-142.2972972972973
 21
-17.78376728779563
 31
0.0
  0
LINE
  5
C4
330
1F
100
AcDbEntity
  8
0-0
  6
Continuous
 62
     3
370
     9
100
AcDbLine
 10
-531.2972939980996
 20
-16.78376398859791
 30
0.0
 11
-143.2972511085304
 21
-16.78376398859791
 31
0.0
  0
LINE
  5
C5
330
1F
100
AcDbEntity
  8
0-0
  6
Continuous
 62
     3
370
     9
100
AcDbLine
 10
-515.7973170924831
 20
-7.783783783783747
 30
0.0
 11
-158.7972775021115
 21
-7.783783783783747
 31
0.0
  0
LINE
  5
C6
330
1F
100
AcDbEntity
  8
0-0
  6
Continuous
 62
     3
370
     9
100
AcDbLine
 10
-515.7973170924831
 20
-4.283747492609791
 30
0.0
 11
-158.7972775021115
 21
-4.283747492609791
 31
0.0
  0
LINE
  5
C7
330
1F
100
AcDbEntity
  8
0-0
  6
Continuous
 62
     3
370
     9
100
AcDbLine
 10
-143.2972511085304
 20
-51.78378048458615
 30
0.0
 11
-143.2972511085304
 21
-42.78375079180739
 31
0.0
  0
LINE
  5
C8
330
1F
100
AcDbEntity
  8
0-0
  6
Continuous
 62
     3
370
     9
100
AcDbLine
 10
-152.2973302892736
 20
-1.283787082981348
 30
0.0
 11
-152.2973302892736
 21
285.7162690033784
 31
0.0
  0
LINE
  5
C9
330
1F
100
AcDbEntity
  8
0-0
  6
Continuous
 62
     3
370
     9
100
AcDbLine
 10
-155.7973170924831
 20
-41.78374749260979
 30
0.0
 11
-155.7973170924831
 21
-35.28375079180739
 31
0.0
  0
LINE
  5
CA
330
1F
100
AcDbEntity
  8
0-0
  6
Continuous
 62
     3
370
     9
100
AcDbLine
 10
-155.7973170924831
 20
-1.283787082981348
 30
0.0
 11
-155.7973170924831
 21
285.7162690033784
 31
0.0
  0
LINE
  5
CB
330
1F
100
AcDbEntity
  8
0-0
  6
Continuous
 62
     3
370
     9
100
AcDbLine
 10
-155.7973170924831
 20
-24.28376398859791
 30
0.0
 11
-155.7973170924831
 21
-17.78376728779563
 31
0.0
  0
LINE
  5
CC
330
1F
100
AcDbEntity
  8
0-0
  6
Continuous
 62
     3
370
     9
100
AcDbLine
 10
-288.2972841005068
 20
-41.78374749260979
 30
0.0
 11
-288.2972841005068
 21
-35.28375079180739
 31
0.0
  0
LINE
  5
CD
330
1F
100
AcDbEntity
  8
0-0
  6
Continuous
 62
     3
370
     9
100
AcDbLine
 10
-274.2973368876688
 20
-41.78374749260979
 30
0.0
 11
-274.2973368876688
 21
-35.28375079180739
 31
0.0
  0
LINE
  5
CE
330
1F
100
AcDbEntity
  8
0-0
  6
Continuous
 62
     3
370
     9
100
AcDbLine
 10
-142.2972972972973
 20
-17.78376728779563
 30
0.0
 11
-143.2972511085304
 21
-16.78376398859791
 31
0.0
  0
LINE
  5
CF
330
1F
100
AcDbEntity
  8
0-0
  6
Continuous
 62
     3
370
     9
100
AcDbLine
 10
-288.2972841005068
 20
-24.28376398859791
 30
0.0
 11
-288.2972841005068
 21
-17.78376728779563
 31
0.0
  0
LINE
  5
D0
330
1F
100
AcDbEntity
  8
0-0
  6
Continuous
 62
     3
370
     9
100
AcDbLine
 10
-274.2973368876688
 20
-24.28376398859791
 30
0.0
 11
-274.2973368876688
 21
-17.78376728779563
 31
0.0
  0
LINE
  5
D1
330
1F
100
AcDbEntity
  8
0-0
  6
Continuous
 62
     3
370
     9
100
AcDbLine
 10
-142.2972972972973
 20
-24.28376398859791
 30
0.0
 11
-143.2972511085304
 21
-25.28376728779563
 31
0.0
  0
LINE
  5
D2
330
1F
100
AcDbEntity
  8
0-0
  6
Continuous
 62
     3
370
     9
100
AcDbLine
 10
-143.2972511085304
 20
-34.28374749260979
 30
0.0
 11
-142.2972972972973
 21
-35.28375079180739
 31
0.0
  0
LINE
  5
D3
330
1F
100
AcDbEntity
  8
0-0
  6
Continuous
 62
     3
370
     9
100
AcDbLine
 10
-143.2972511085304
 20
-42.78375079180739
 30
0.0
 11
-142.2972972972973
 21
-41.78374749260979
 31
0.0
  0
LINE
  5
D4
330
1F
100
AcDbEntity
  8
0-0
  6
Continuous
 62
     3
370
     9
100
AcDbLine
 10
-143.2972511085304
 20
-51.78378048458615
 30
0.0
 11
-142.2972972972973
 21
-52.78378378378375
 31
0.0
  0
LINE
  5
D5
330
1F
100
AcDbEntity
  8
0-0
  6
Continuous
 62
     3
370
     9
100
AcDbLine
 10
-143.2972511085304
 20
-34.28374749260979
 30
0.0
 11
-143.2972511085304
 21
-25.28376728779563
 31
0.0
  0
LINE
  5
D6
330
1F
100
AcDbEntity
  8
0-1
  6
Continuous
 62
     2
370
     9
100
AcDbLine
 10
-534.0973230310389
 20
-54.58380951752531
 30
0.0
 11
-534.0973230310389
 21
339.0161924619933
 31
0.0
  0
LINE
  5
D7
330
1F
100
AcDbEntity
  8
0-0
  6
Continuous
 62
     3
370
     9
100
AcDbLine
 10
-143.2972511085304
 20
318.7162294130068
 30
0.0
 11
-143.2972511085304
 21
309.7161502322635
 31
0.0
  0
LINE
  5
D8
330
1F
100
AcDbEntity
  8
0-0
  6
Continuous
 62
     3
370
     9
100
AcDbLine
 10
-143.2972511085304
 20
336.2161634290541
 30
0.0
 11
-142.2972972972973
 21
337.2162162162163
 31
0.0
  0
LINE
  5
D9
330
1F
100
AcDbEntity
  8
0-0
  6
Continuous
 62
     3
370
     9
100
AcDbLine
 10
-143.2972511085304
 20
327.216282200169
 30
0.0
 11
-142.2972972972973
 21
326.2162294130068
 31
0.0
  0
LINE
  5
DA
330
1F
100
AcDbEntity
  8
0-0
  6
Continuous
 62
     3
370
     9
100
AcDbLine
 10
-143.2972511085304
 20
318.7162294130068
 30
0.0
 11
-142.2972972972973
 21
319.716282200169
 31
0.0
  0
LINE
  5
DB
330
1F
100
AcDbEntity
  8
0-0
  6
Continuous
 62
     3
370
     9
100
AcDbLine
 10
-142.2972972972973
 20
308.7162953969595
 30
0.0
 11
-143.2972511085304
 21
309.7161502322635
 31
0.0
  0
LINE
  5
DC
330
1F
100
AcDbEntity
  8
0-0
  6
Continuous
 62
     3
370
     9
100
AcDbLine
 10
-274.2973368876688
 20
308.7162953969595
 30
0.0
 11
-274.2973368876688
 21
302.2161502322635
 31
0.0
  0
LINE
  5
DD
330
1F
100
AcDbEntity
  8
0-0
  6
Continuous
 62
     3
370
     9
100
AcDbLine
 10
-288.2972841005068
 20
308.7162953969595
 30
0.0
 11
-288.2972841005068
 21
302.2161502322635
 31
0.0
  0
LINE
  5
DE
330
1F
100
AcDbEntity
  8
0-0
  6
Continuous
 62
     3
370
     9
100
AcDbLine
 10
-142.2972972972973
 20
302.2161502322635
 30
0.0
 11
-143.2972511085304
 21
301.2162953969595
 31
0.0
  0
LINE
  5
DF
330
1F
100
AcDbEntity
  8
0-0
  6
Continuous
 62
     3
370
     9
100
AcDbLine
 10
-274.2973368876688
 20
326.2162294130068
 30
0.0
 11
-274.2973368876688
 21
319.716282200169
 31
0.0
  0
LINE
  5
E0
330
1F
100
AcDbEntity
  8
0-0
  6
Continuous
 62
     3
370
     9
100
AcDbLine
 10
-288.2972841005068
 20
326.2162294130068
 30
0.0
 11
-288.2972841005068
 21
319.716282200169
 31
0.0
  0
LINE
  5
E1
330
1F
100
AcDbEntity
  8
0-0
  6
Continuous
 62
     3
370
     9
100
AcDbLine
 10
-155.7973170924831
 20
308.7162953969595
 30
0.0
 11
-155.7973170924831
 21
302.2161502322635
 31
0.0
  0
LINE
  5
E2
330
1F
100
AcDbEntity
  8
0-0
  6
Continuous
 62
     3
370
     9
100
AcDbLine
 10
-155.7973170924831
 20
326.2162294130068
 30
0.0
 11
-155.7973170924831
 21
319.716282200169
 31
0.0
  0
LINE
  5
E3
330
1F
100
AcDbEntity
  8
0-0
  6
Continuous
 62
     3
370
     9
100
AcDbLine
 10
-143.2972511085304
 20
336.2161634290541
 30
0.0
 11
-143.2972511085304
 21
327.216282200169
 31
0.0
  0
LINE
  5
E4
330
1F
100
AcDbEntity
  8
0-0
  6
Continuous
 62
     3
370
     9
100
AcDbLine
 10
-515.7973170924831
 20
288.7162294130068
 30
0.0
 11
-158.7972775021115
 21
288.7162294130068
 31
0.0
  0
LINE
  5
E5
330
1F
100
AcDbEntity
  8
0-0
  6
Continuous
 62
     3
370
     9
100
AcDbLine
 10
-515.7973170924831
 20
292.2162162162163
 30
0.0
 11
-158.7972775021115
 21
292.2162162162163
 31
0.0
  0
LINE
  5
E6
330
1F
100
AcDbEntity
  8
0-0
  6
Continuous
 62
     3
370
     9
100
AcDbLine
 10
-531.2972939980996
 20
301.2162953969595
 30
0.0
 11
-143.2972511085304
 21
301.2162953969595
 31
0.0
  0
LINE
  5
E7
330
1F
100
AcDbEntity
  8
0-0
  6
Continuous
 62
     3
370
     9
100
AcDbLine
 10
-532.2972972972973
 20
302.2161502322635
 30
0.0
 11
-142.2972972972973
 21
302.2161502322635
 31
0.0
  0
LINE
  5
E8
330
1F
100
AcDbEntity
  8
0-0
  6
Continuous
 62
     3
370
     9
100
AcDbLine
 10
-532.2972972972973
 20
308.7162953969595
 30
0.0
 11
-142.2972972972973
 21
308.7162953969595
 31
0.0
  0
LINE
  5
E9
330
1F
100
AcDbEntity
  8
0-0
  6
Continuous
 62
     3
370
     9
100
AcDbLine
 10
-531.2972939980996
 20
309.7161502322635
 30
0.0
 11
-143.2972511085304
 21
309.7161502322635
 31
0.0
  0
LINE
  5
EA
330
1F
100
AcDbEntity
  8
0-0
  6
Continuous
 62
     3
370
     9
100
AcDbLine
 10
-531.2972939980996
 20
318.7162294130068
 30
0.0
 11
-143.2972511085304
 21
318.7162294130068
 31
0.0
  0
LINE
  5
EB
330
1F
100
AcDbEntity
  8
0-0
  6
Continuous
 62
     3
370
     9
100
AcDbLine
 10
-532.2972972972973
 20
319.716282200169
 30
0.0
 11
-142.2972972972973
 21
319.716282200169
 31
0.0
  0
LINE
  5
EC
330
1F
100
AcDbEntity
  8
0-0
  6
Continuous
 62
     3
370
     9
100
AcDbLine
 10
-532.2972972972973
 20
326.2162294130068
 30
0.0
 11
-142.2972972972973
 21
326.2162294130068
 31
0.0
  0
LINE
  5
ED
330
1F
100
AcDbEntity
  8
0-0
  6
Continuous
 62
     3
370
     9
100
AcDbLine
 10
-531.2972939980996
 20
327.216282200169
 30
0.0
 11
-143.2972511085304
 21
327.216282200169
 31
0.0
  0
LINE
  5
EE
330
1F
100
AcDbEntity
  8
0-0
  6
Continuous
 62
     3
370
     9
100
AcDbLine
 10
-531.2972939980996
 20
336.2161634290541
 30
0.0
 11
-143.2972511085304
 21
336.2161634290541
 31
0.0
  0
LINE
  5
EF
330
1F
100
AcDbEntity
  8
0-0
  6
Continuous
 62
     3
370
     9
100
AcDbLine
 10
-532.2972972972973
 20
337.2162162162163
 30
0.0
 11
-142.2972972972973
 21
337.2162162162163
 31
0.0
  0
LINE
  5
F0
330
1F
100
AcDbEntity
  8
0-0
  6
Continuous
 62
     3
370
     9
100
AcDbLine
 10
-532.2972972972973
 20
337.2162162162163
 30
0.0
 11
-532.2972972972973
 21
-52.78378378378375
 31
0.0
  0
LINE
  5
F1
330
1F
100
AcDbEntity
  8
0-0
  6
Continuous
 62
     3
370
     9
100
AcDbLine
 10
-531.2972939980996
 20
336.2161634290541
 30
0.0
 11
-531.2972939980996
 21
327.216282200169
 31
0.0
  0
LINE
  5
F2
330
1F
100
AcDbEntity
  8
0-0
  6
Continuous
 62
     3
370
     9
100
AcDbLine
 10
-522.2973137932854
 20
285.7162690033784
 30
0.0
 11
-522.2973137932854
 21
-1.283787082981348
 31
0.0
  0
LINE
  5
F3
330
1F
100
AcDbEntity
  8
0-0
  6
Continuous
 62
     3
370
     9
100
AcDbLine
 10
-518.797326990076
 20
326.2162294130068
 30
0.0
 11
-518.797326990076
 21
319.716282200169
 31
0.0
  0
LINE
  5
F4
330
1F
100
AcDbEntity
  8
0-0
  6
Continuous
 62
     3
370
     9
100
AcDbLine
 10
-518.797326990076
 20
285.7162690033784
 30
0.0
 11
-518.797326990076
 21
-1.283787082981348
 31
0.0
  0
LINE
  5
F5
330
1F
100
AcDbEntity
  8
0-0
  6
Continuous
 62
     3
370
     9
100
AcDbLine
 10
-518.797326990076
 20
308.7162953969595
 30
0.0
 11
-518.797326990076
 21
302.2161502322635
 31
0.0
  0
LINE
  5
F6
330
1F
100
AcDbEntity
  8
0-0
  6
Continuous
 62
     3
370
     9
100
AcDbLine
 10
-386.2973104940878
 20
326.2162294130068
 30
0.0
 11
-386.2973104940878
 21
319.716282200169
 31
0.0
  0
LINE
  5
F7
330
1F
100
AcDbEntity
  8
0-0
  6
Continuous
 62
     3
370
     9
100
AcDbLine
 10
-400.2973071948902
 20
326.2162294130068
 30
0.0
 11
-400.2973071948902
 21
319.716282200169
 31
0.0
  0
LINE
  5
F8
330
1F
100
AcDbEntity
  8
0-0
  6
Continuous
 62
     3
370
     9
100
AcDbLine
 10
-532.2972972972973
 20
302.2161502322635
 30
0.0
 11
-531.2972939980996
 21
301.2162953969595
 31
0.0
  0
LINE
  5
F9
330
1F
100
AcDbEntity
  8
0-0
  6
Continuous
 62
     3
370
     9
100
AcDbLine
 10
-386.2973104940878
 20
308.7162953969595
 30
0.0
 11
-386.2973104940878
 21
302.2161502322635
 31
0.0
  0
LINE
  5
FA
330
1F
100
AcDbEntity
  8
0-0
  6
Continuous
 62
     3
370
     9
100
AcDbLine
 10
-400.2973071948902
 20
308.7162953969595
 30
0.0
 11
-400.2973071948902
 21
302.2161502322635
 31
0.0
  0
LINE
  5
FB
330
1F
100
AcDbEntity
  8
0-0
  6
Continuous
 62
     3
370
     9
100
AcDbLine
 10
-532.2972972972973
 20
308.7162953969595
 30
0.0
 11
-531.2972939980996
 21
309.7161502322635
 31
0.0
  0
LINE
  5
FC
330
1F
100
AcDbEntity
  8
0-0
  6
Continuous
 62
     3
370
     9
100
AcDbLine
 10
-531.2972939980996
 20
318.7162294130068
 30
0.0
 11
-532.2972972972973
 21
319.716282200169
 31
0.0
  0
LINE
  5
FD
330
1F
100
AcDbEntity
  8
0-0
  6
Continuous
 62
     3
370
     9
100
AcDbLine
 10
-531.2972939980996
 20
327.216282200169
 30
0.0
 11
-532.2972972972973
 21
326.2162294130068
 31
0.0
  0
LINE
  5
FE
330
1F
100
AcDbEntity
  8
0-0
  6
Continuous
 62
     3
370
     9
100
AcDbLine
 10
-531.2972939980996
 20
336.2161634290541
 30
0.0
 11
-532.2972972972973
 21
337.2162162162163
 31
0.0
  0
LINE
  5
FF
330
1F
100
AcDbEntity
  8
0-0
  6
Continuous
 62
     3
370
     9
100
AcDbLine
 10
-531.2972939980996
 20
301.2162953969595
 30
0.0
 11
-531.2972939980996
 21
-16.78376398859791
 31
0.0
  0
LINE
  5
100
330
1F
100
AcDbEntity
  8
0-0
  6
Continuous
 62
     3
370
     9
100
AcDbLine
 10
-531.2972939980996
 20
318.7162294130068
 30
0.0
 11
-531.2972939980996
 21
309.7161502322635
 31
0.0
  0
LINE
  5
101
330
1F
100
AcDbEntity
  8
0-0
  6
Continuous
 62
     3
370
     9
100
AcDbLine
 10
-531.2972939980996
 20
-34.28374749260979
 30
0.0
 11
-531.2972939980996
 21
-25.28376728779563
 31
0.0
  0
LINE
  5
102
330
1F
100
AcDbEntity
  8
0-0
  6
Continuous
 62
     3
370
     9
100
AcDbLine
 10
-531.2972939980996
 20
-51.78378048458615
 30
0.0
 11
-532.2972972972973
 21
-52.78378378378375
 31
0.0
  0
LINE
  5
103
330
1F
100
AcDbEntity
  8
0-0
  6
Continuous
 62
     3
370
     9
100
AcDbLine
 10
-531.2972939980996
 20
-42.78375079180739
 30
0.0
 11
-532.2972972972973
 21
-41.78374749260979
 31
0.0
  0
LINE
  5
104
330
1F
100
AcDbEntity
  8
0-0
  6
Continuous
 62
     3
370
     9
100
AcDbLine
 10
-531.2972939980996
 20
-34.28374749260979
 30
0.0
 11
-532.2972972972973
 21
-35.28375079180739
 31
0.0
  0
LINE
  5
105
330
1F
100
AcDbEntity
  8
0-0
  6
Continuous
 62
     3
370
     9
100
AcDbLine
 10
-532.2972972972973
 20
-24.28376398859791
 30
0.0
 11
-531.2972939980996
 21
-25.28376728779563
 31
0.0
  0
LINE
  5
106
330
1F
100
AcDbEntity
  8
0-0
  6
Continuous
 62
     3
370
     9
100
AcDbLine
 10
-400.2973071948902
 20
-24.28376398859791
 30
0.0
 11
-400.2973071948902
 21
-17.78376728779563
 31
0.0
  0
LINE
  5
107
330
1F
100
AcDbEntity
  8
0-0
  6
Continuous
 62
     3
370
     9
100
AcDbLine
 10
-386.2973104940878
 20
-24.28376398859791
 30
0.0
 11
-386.2973104940878
 21
-17.78376728779563
 31
0.0
  0
LINE
  5
108
330
1F
100
AcDbEntity
  8
0-0
  6
Continuous
 62
     3
370
     9
100
AcDbLine
 10
-532.2972972972973
 20
-17.78376728779563
 30
0.0
 11
-531.2972939980996
 21
-16.78376398859791
 31
0.0
  0
LINE
  5
109
330
1F
100
AcDbEntity
  8
0-0
  6
Continuous
 62
     3
370
     9
100
AcDbLine
 10
-400.2973071948902
 20
-41.78374749260979
 30
0.0
 11
-400.2973071948902
 21
-35.28375079180739
 31
0.0
  0
LINE
  5
10A
330
1F
100
AcDbEntity
  8
0-0
  6
Continuous
 62
     3
370
     9
100
AcDbLine
 10
-386.2973104940878
 20
-41.78374749260979
 30
0.0
 11
-386.2973104940878
 21
-35.28375079180739
 31
0.0
  0
LINE
  5
10B
330
1F
100
AcDbEntity
  8
0-0
  6
Continuous
 62
     3
370
     9
100
AcDbLine
 10
-518.797326990076
 20
-24.28376398859791
 30
0.0
 11
-518.797326990076
 21
-17.78376728779563
 31
0.0
  0
LINE
  5
10C
330
1F
100
AcDbEntity
  8
0-0
  6
Continuous
 62
     3
370
     9
100
AcDbLine
 10
-518.797326990076
 20
-41.78374749260979
 30
0.0
 11
-518.797326990076
 21
-35.28375079180739
 31
0.0
  0
LINE
  5
10D
330
1F
100
AcDbEntity
  8
0-0
  6
Continuous
 62
     3
370
     9
100
AcDbLine
 10
-531.2972939980996
 20
-51.78378048458615
 30
0.0
 11
-531.2972939980996
 21
-42.78375079180739
 31
0.0
  0
LINE
  5
10E
330
1F
100
AcDbEntity
  8
0-1
  6
Continuous
 62
     2
370
     9
100
AcDbLine
 10
-537.2973137932854
 20
-57.78375079180739
 30
0.0
 11
-537.2973137932854
 21
342.216282200169
 31
0.0
  0
LINE
  5
10F
330
1F
100
AcDbEntity
  8
0-1
  6
Continuous
 62
     2
370
     9
100
AcDbLine
 10
-432.797290698902
 20
346.7163217905406
 30
0.0
 11
-432.797290698902
 21
371.2162294130068
 31
0.0
  0
LINE
  5
110
330
1F
100
AcDbEntity
  8
0-1
  6
Continuous
 62
     2
370
     9
100
AcDbLine
 10
-441.7973203916807
 20
346.7163217905406
 30
0.0
 11
-441.7973203916807
 21
371.2162294130068
 31
0.0
  0
LINE
  5
111
330
1F
100
AcDbEntity
  8
0-1
  6
Continuous
 62
     2
370
     9
100
AcDbLine
 10
-441.7973203916807
 20
371.2162294130068
 30
0.0
 11
-432.797290698902
 21
371.2162294130068
 31
0.0
  0
LINE
  5
112
330
1F
100
AcDbEntity
  8
0-1
  6
Continuous
 62
     2
370
     9
100
AcDbLine
 10
-537.2973137932854
 20
-57.78375079180739
 30
0.0
 11
-137.2973302892736
 21
-57.78375079180739
 31
0.0
  0
LINE
  5
113
330
1F
100
AcDbEntity
  8
0-1
  6
Continuous
 62
     2
370
     9
100
AcDbLine
 10
-534.0973230310389
 20
-54.58380951752531
 30
0.0
 11
-140.4973210515202
 21
-54.58380951752531
 31
0.0
  0
LINE
  5
114
330
1F
100
AcDbEntity
  8
0-1
  6
Continuous
 62
     2
370
     9
100
AcDbLine
 10
-232.7973236908783
 20
-86.78379698057432
 30
0.0
 11
-241.7973038956925
 21
-86.78379698057432
 31
0.0
  0
LINE
  5
115
330
1F
100
AcDbEntity
  8
0-1
  6
Continuous
 62
     2
370
     9
100
AcDbLine
 10
-232.7973236908783
 20
-62.28388935810813
 30
0.0
 11
-232.7973236908783
 21
-86.78379698057432
 31
0.0
  0
LINE
  5
116
330
1F
100
AcDbEntity
  8
0-1
  6
Continuous
 62
     2
370
     9
100
AcDbLine
 10
-241.7973038956925
 20
-62.28388935810813
 30
0.0
 11
-241.7973038956925
 21
-86.78379698057432
 31
0.0
  0
LINE
  5
117
330
1F
100
AcDbEntity
  8
0-1
  6
Continuous
 62
     2
370
     9
100
AcDbLine
 10
-432.797290698902
 20
-62.28388935810813
 30
0.0
 11
-432.797290698902
 21
-86.78379698057432
 31
0.0
  0
LINE
  5
118
330
1F
100
AcDbEntity
  8
0-1
  6
Continuous
 62
     2
370
     9
100
AcDbLine
 10
-441.7973203916807
 20
-62.28388935810813
 30
0.0
 11
-441.7973203916807
 21
-86.78379698057432
 31
0.0
  0
LINE
  5
119
330
1F
100
AcDbEntity
  8
0-1
  6
Continuous
 62
     2
370
     9
100
AcDbLine
 10
-441.7973203916807
 20
-86.78379698057432
 30
0.0
 11
-432.797290698902
 21
-86.78379698057432
 31
0.0
  0
LINE
  5
11A
330
1F
100
AcDbEntity
  8
0-1
  6
JWW_CENTER1
 62
     2
370
     9
100
AcDbLine
 10
-237.2972643053209
 20
335.0161792652027
 30
0.0
 11
-237.2972643053209
 21
375.2162426097974
 31
0.0
  0
LINE
  5
11B
330
1F
100
AcDbEntity
  8
0-1
  6
JWW_CENTER1
 62
     2
370
     9
100
AcDbLine
 10
-228.7973104940878
 20
346.7163217905406
 30
0.0
 11
-245.7973170924831
 21
346.7163217905406
 31
0.0
  0
LINE
  5
11C
330
1F
100
AcDbEntity
  8
0-1
  6
JWW_CENTER1
 62
     2
370
     9
100
AcDbLine
 10
-437.2973302892736
 20
335.0161792652027
 30
0.0
 11
-437.2973302892736
 21
375.2162426097974
 31
0.0
  0
LINE
  5
11D
330
1F
100
AcDbEntity
  8
0-1
  6
JWW_CENTER1
 62
     2
370
     9
100
AcDbLine
 10
-428.7973764780405
 20
346.7163217905406
 30
0.0
 11
-445.7973335884712
 21
346.7163217905406
 31
0.0
  0
LINE
  5
11E
330
1F
100
AcDbEntity
  8
0-1
  6
JWW_CENTER1
 62
     2
370
     9
100
AcDbLine
 10
-437.2973302892736
 20
-50.58364785684114
 30
0.0
 11
-437.2973302892736
 21
-90.78371120143578
 31
0.0
  0
LINE
  5
11F
330
1F
100
AcDbEntity
  8
0-1
  6
JWW_CENTER1
 62
     2
370
     9
100
AcDbLine
 10
-445.7972841005067
 20
-62.28379038217906
 30
0.0
 11
-428.797326990076
 21
-62.28379038217906
 31
0.0
  0
LINE
  5
120
330
1F
100
AcDbEntity
  8
0-1
  6
JWW_CENTER1
 62
     2
370
     9
100
AcDbLine
 10
-237.2972643053209
 20
-50.58364785684114
 30
0.0
 11
-237.2972643053209
 21
-90.78371120143578
 31
0.0
  0
LINE
  5
121
330
1F
100
AcDbEntity
  8
0-1
  6
JWW_CENTER1
 62
     2
370
     9
100
AcDbLine
 10
-245.7973170924831
 20
-62.28379038217906
 30
0.0
 11
-228.7973104940878
 21
-62.28379038217906
 31
0.0
  0
LINE
  5
122
330
1F
100
AcDbEntity
  8
0-1
  6
JWW_CENTER1
 62
     2
370
     9
100
AcDbLine
 10
325.4028650232265
 20
375.2162426097974
 30
0.0
 11
325.4028650232265
 21
356.2162294130068
 31
0.0
  0
LINE
  5
123
330
1F
100
AcDbEntity
  8
0-1
  6
JWW_CENTER1
 62
     2
370
     9
100
AcDbLine
 10
286.9028122360642
 20
346.7163217905406
 30
0.0
 11
315.902858424831
 21
346.7163217905406
 31
0.0
  0
LINE
  5
124
330
1F
100
AcDbEntity
  8
0-1
  6
JWW_CENTER1
 62
     2
370
     9
100
AcDbLine
 10
286.9028122360642
 20
-62.28379038217906
 30
0.0
 11
315.902858424831
 21
-62.28379038217906
 31
0.0
  0
LINE
  5
125
330
1F
100
AcDbEntity
  8
0-1
  6
Continuous
 62
     2
370
     9
100
AcDbLine
 10
-137.2973302892736
 20
342.216282200169
 30
0.0
 11
-142.2972972972973
 21
337.2162162162163
 31
0.0
  0
LINE
  5
126
330
1F
100
AcDbEntity
  8
0-1
  6
Continuous
 62
     2
370
     9
100
AcDbLine
 10
-155.7973170924831
 20
323.7162953969595
 30
0.0
 11
-159.7973302892736
 21
319.716282200169
 31
0.0
  0
LINE
  5
127
330
1F
100
AcDbEntity
  8
0-1
  6
Continuous
 62
     2
370
     9
100
AcDbLine
 10
-170.7973170924831
 20
308.7162953969595
 30
0.0
 11
-177.2974622571791
 21
302.2161502322635
 31
0.0
  0
LINE
  5
128
330
1F
100
AcDbEntity
  8
0-1
  6
Continuous
 62
     2
370
     9
100
AcDbLine
 10
-537.2972643053209
 20
342.216282200169
 30
0.0
 11
-532.2972972972973
 21
337.2162162162163
 31
0.0
  0
LINE
  5
129
330
1F
100
AcDbEntity
  8
0-1
  6
Continuous
 62
     2
370
     9
100
AcDbLine
 10
-518.7972775021115
 20
323.7162953969595
 30
0.0
 11
-514.7972643053209
 21
319.716282200169
 31
0.0
  0
LINE
  5
12A
330
1F
100
AcDbEntity
  8
0-1
  6
Continuous
 62
     2
370
     9
100
AcDbLine
 10
-503.797326990076
 20
308.7162953969595
 30
0.0
 11
-497.2971818253801
 21
302.2161502322635
 31
0.0
  0
LINE
  5
12B
330
1F
100
AcDbEntity
  8
0-1
  6
Continuous
 62
     2
370
     9
100
AcDbLine
 10
-137.2973302892736
 20
-57.78384976773646
 30
0.0
 11
-142.2972972972973
 21
-52.78378378378375
 31
0.0
  0
LINE
  5
12C
330
1F
100
AcDbEntity
  8
0-1
  6
Continuous
 62
     2
370
     9
100
AcDbLine
 10
-155.7973170924831
 20
-39.28386296452697
 30
0.0
 11
-159.7973302892736
 21
-35.28384976773646
 31
0.0
  0
LINE
  5
12D
330
1F
100
AcDbEntity
  8
0-1
  6
Continuous
 62
     2
370
     9
100
AcDbLine
 10
-170.7973170924831
 20
-24.28386296452697
 30
0.0
 11
-177.2974622571791
 21
-17.78371779983104
 31
0.0
  0
LINE
  5
12E
330
1F
100
AcDbEntity
  8
0-1
  6
Continuous
 62
     2
370
     9
100
AcDbLine
 10
-537.2972643053209
 20
-57.78384976773646
 30
0.0
 11
-532.2972972972973
 21
-52.78378378378375
 31
0.0
  0
LINE
  5
12F
330
1F
100
AcDbEntity
  8
0-1
  6
Continuous
 62
     2
370
     9
100
AcDbLine
 10
-518.7972775021115
 20
-39.28386296452697
 30
0.0
 11
-514.7972643053209
 21
-35.28384976773646
 31
0.0
  0
LINE
  5
130
330
1F
100
AcDbEntity
  8
0-1
  6
Continuous
 62
     2
370
     9
100
AcDbLine
 10
-503.797326990076
 20
-24.28386296452697
 30
0.0
 11
-497.2971818253801
 21
-17.78371779983104
 31
0.0
  0
LINE
  5
131
330
1F
100
AcDbEntity
  8
0-0
  6
JWW_CENTER1
 62
     3
370
     9
100
AcDbLine
 10
-337.2972972972973
 20
-77.78376728779563
 30
0.0
 11
-337.2972972972973
 21
362.2162492081926
 31
0.0
  0
LINE
  5
132
330
1F
100
AcDbEntity
  8
0-0
  6
JWW_CENTER1
 62
     3
370
     9
100
AcDbLine
 10
-117.2972643053209
 20
142.2162162162163
 30
0.0
 11
-557.2973302892736
 21
142.2162162162163
 31
0.0
  0
LINE
  5
133
330
1F
100
AcDbEntity
  8
0-F
  6
Continuous
 62
     7
370
     9
100
AcDbLine
 10
-237.2972148173563
 20
379.2162558065879
 30
0.0
 11
-237.2972148173563
 21
412.4162465688345
 31
0.0
  0
LINE
  5
134
330
1F
100
AcDbEntity
  8
0-F
  6
Continuous
 62
     7
370
     9
100
AcDbLine
 10
-437.2971323374155
 20
379.2162558065879
 30
0.0
 11
-437.2971323374155
 21
412.4162465688345
 31
0.0
  0
LINE
  5
135
330
1F
100
AcDbEntity
  8
0-F
  6
Continuous
 62
     7
370
     9
100
AcDbLine
 10
309.9028386296454
 20
292.2162162162163
 30
0.0
 11
396.102756809544
 21
292.2162162162163
 31
0.0
  0
LINE
  5
136
330
1F
100
AcDbEntity
  8
0-F
  6
Continuous
 62
     7
370
     9
100
AcDbLine
 10
333.9028188344596
 20
342.2161832242399
 30
0.0
 11
396.102756809544
 21
342.2161832242399
 31
0.0
  0
LINE
  5
137
330
1F
100
AcDbEntity
  8
0-F
  6
Continuous
 62
     7
370
     9
100
AcDbLine
 10
333.9028188344596
 20
371.2162294130068
 30
0.0
 11
396.102756809544
 21
371.2162294130068
 31
0.0
  0
LINE
  5
138
330
1F
100
AcDbEntity
  8
0-F
  6
Continuous
 62
     7
370
     9
100
AcDbLine
 10
298.0829352301521
 20
123.6593182538007
 30
0.0
 11
320.0541068412163
 21
123.6593182538007
 31
0.0
  0
LINE
  5
139
330
1F
100
AcDbEntity
  8
0-F
  6
Continuous
 62
     7
370
     9
100
AcDbLine
 10
333.9028188344596
 20
-86.78374749260979
 30
0.0
 11
396.102756809544
 21
-86.78374749260979
 31
0.0
  0
LINE
  5
13A
330
1F
100
AcDbEntity
  8
0-F
  6
Continuous
 62
     7
370
     9
100
AcDbLine
 10
333.9028188344596
 20
-57.78375079180739
 30
0.0
 11
396.102756809544
 21
-57.78375079180739
 31
0.0
  0
LINE
  5
13B
330
1F
100
AcDbEntity
  8
0-F
  6
Continuous
 62
     7
370
     9
100
AcDbLine
 10
309.9028386296454
 20
-7.783783783783747
 30
0.0
 11
396.102756809544
 21
-7.783783783783747
 31
0.0
  0
LINE
  5
13C
330
1F
100
AcDbEntity
  8
0-1
  6
Continuous
 62
     2
370
     9
100
AcDbLine
 10
-531.097412109375
 20
-356.7836980046453
 30
0.0
 11
-487.2973962732264
 21
-356.7836980046453
 31
0.0
  0
LINE
  5
13D
330
1F
100
AcDbEntity
  8
0-1
  6
Continuous
 62
     2
370
     9
100
AcDbLine
 10
-534.0973725190033
 20
-296.7836980046453
 30
0.0
 11
-534.0973725190033
 21
-353.7837375950169
 31
0.0
  0
LINE
  5
13E
330
1F
100
AcDbEntity
  8
0-1
  6
Continuous
 62
     2
370
     9
100
AcDbLine
 10
-531.2973434860642
 20
-359.9836887668919
 30
0.0
 11
-487.2973962732264
 21
-359.9836887668919
 31
0.0
  0
LINE
  5
13F
330
1F
100
AcDbEntity
  8
0-1
  6
Continuous
 62
     2
370
     9
100
AcDbLine
 10
-537.2972643053209
 20
-296.7836980046453
 30
0.0
 11
-534.0973725190033
 21
-296.7836980046453
 31
0.0
  0
LINE
  5
140
330
1F
100
AcDbEntity
  8
0-1
  6
Continuous
 62
     2
370
     9
100
AcDbLine
 10
-487.2973962732264
 20
-356.7836980046453
 30
0.0
 11
-487.2973962732264
 21
-359.9836887668919
 31
0.0
  0
LINE
  5
141
330
1F
100
AcDbEntity
  8
0-1
  6
Continuous
 62
     2
370
     9
100
AcDbLine
 10
-187.2973467852618
 20
-356.7836980046453
 30
0.0
 11
-187.2973467852618
 21
-359.9836887668919
 31
0.0
  0
LINE
  5
142
330
1F
100
AcDbEntity
  8
0-1
  6
Continuous
 62
     2
370
     9
100
AcDbLine
 10
-137.2972808013091
 20
-296.7836980046453
 30
0.0
 11
-140.4973705394848
 21
-296.7836980046453
 31
0.0
  0
LINE
  5
143
330
1F
100
AcDbEntity
  8
0-1
  6
Continuous
 62
     2
370
     9
100
AcDbLine
 10
-143.297399572424
 20
-359.9836887668919
 30
0.0
 11
-187.2973467852618
 21
-359.9836887668919
 31
0.0
  0
LINE
  5
144
330
1F
100
AcDbEntity
  8
0-1
  6
Continuous
 62
     2
370
     9
100
AcDbLine
 10
-140.4973705394848
 20
-296.7836980046453
 30
0.0
 11
-140.4973705394848
 21
-353.7837375950169
 31
0.0
  0
LINE
  5
145
330
1F
100
AcDbEntity
  8
0-1
  6
Continuous
 62
     2
370
     9
100
AcDbLine
 10
-143.4974299250422
 20
-356.7836980046453
 30
0.0
 11
-187.2973467852618
 21
-356.7836980046453
 31
0.0
  0
LINE
  5
146
330
1F
100
AcDbEntity
  8
0-1
  6
Continuous
 62
     2
370
     9
100
AcDbLine
 10
-537.2972643053209
 20
-296.7836980046453
 30
0.0
 11
-537.2972643053209
 21
-353.983668971706
 31
0.0
  0
LINE
  5
147
330
1F
100
AcDbEntity
  8
0-1
  6
Continuous
 62
     2
370
     9
100
AcDbLine
 10
-137.2972808013091
 20
-296.7836980046453
 30
0.0
 11
-137.2972808013091
 21
-353.983668971706
 31
0.0
  0
LINE
  5
148
330
1F
100
AcDbEntity
  8
0-0
  6
Continuous
 62
     3
370
     9
100
AcDbLine
 10
-143.1580414643158
 20
-297.6193022856841
 30
0.0
 11
-142.2972972972973
 21
-302.783717799831
 31
0.0
  0
LINE
  5
149
330
1F
100
AcDbEntity
  8
0-0
  6
JWW_CENTER1
 62
     3
370
     9
100
AcDbLine
 10
-337.2972972972973
 20
-276.7837309966216
 30
0.0
 11
-337.2972972972973
 21
-397.7836848078547
 31
0.0
  0
LINE
  5
14A
330
1F
100
AcDbEntity
  8
0-F
  6
Continuous
 62
     7
370
     9
100
AcDbLine
 10
-96.75936312288843
 20
-196.7837145006334
 30
0.0
 11
-573.8351192989865
 21
-196.7837145006334
 31
0.0
  0
LINE
  5
14B
330
1F
100
AcDbEntity
  8
0-F
  6
Continuous
 62
     7
370
     9
100
AcDbLine
 10
-522.2972643053209
 20
-236.7836980046453
 30
0.0
 11
-152.2972808013091
 21
-236.7836980046453
 31
0.0
  0
LINE
  5
14C
330
1F
100
AcDbEntity
  8
0-0
  6
Continuous
 62
     3
370
     9
100
AcDbLine
 10
-155.5576468802786
 20
-334.0452155035895
 30
0.0
 11
-152.3771543760557
 21
-297.6965529983108
 31
0.0
  0
LINE
  5
14D
330
1F
100
AcDbEntity
  8
0-F
  6
Continuous
 62
     7
370
     9
100
AcDbLine
 10
-152.2972808013091
 20
-292.7836848078547
 30
0.0
 11
-152.2972808013091
 21
-235.5837138407939
 31
0.0
  0
LINE
  5
14E
330
1F
100
AcDbEntity
  8
0-F
  6
Continuous
 62
     7
370
     9
100
AcDbLine
 10
-522.2972643053209
 20
-292.7836848078547
 30
0.0
 11
-522.2972643053209
 21
-235.5837138407939
 31
0.0
  0
LINE
  5
14F
330
1F
100
AcDbEntity
  8
0-F
  6
Continuous
 62
     7
370
     9
100
AcDbLine
 10
182.7028346706081
 20
-52.78358583192562
 30
0.0
 11
182.7028346706081
 21
337.2162162162163
 31
0.0
  0
LINE
  5
150
330
1F
100
AcDbEntity
  8
0-F
  6
Continuous
 62
     7
370
     9
100
AcDbLine
 10
238.7028214738177
 20
-7.783783783783747
 30
0.0
 11
181.5028505067568
 21
-7.783783783783747
 31
0.0
  0
LINE
  5
151
330
1F
100
AcDbEntity
  8
0-F
  6
Continuous
 62
     7
370
     9
100
AcDbLine
 10
181.5028505067568
 20
292.2162162162163
 30
0.0
 11
238.7028214738177
 21
292.2162162162163
 31
0.0
  0
LINE
  5
152
330
1F
100
AcDbEntity
  8
0-E
  6
Continuous
 62
     7
370
     9
100
AcDbLine
 10
377.0570167335304
 20
451.098118137669
 30
0.0
 11
329.902805637669
 21
371.2162294130068
 31
0.0
  0
LINE
  5
153
330
1F
100
AcDbEntity
  8
0-E
  6
Continuous
 62
     7
370
     9
100
AcDbLine
 10
377.0570167335304
 20
451.098118137669
 30
0.0
 11
536.8507838893581
 21
451.098118137669
 31
0.0
  0
LINE
  5
154
330
1F
100
AcDbEntity
  8
0-F
  6
Continuous
 62
     7
370
     9
100
AcDbLine
 10
302.7028346706081
 20
-117.7837507918074
 30
0.0
 11
290.8055320945946
 21
-119.3500448690878
 31
0.0
  0
LINE
  5
155
330
1F
100
AcDbEntity
  8
0-F
  6
Continuous
 62
     7
370
     9
100
AcDbLine
 10
302.7028346706081
 20
-117.7837507918074
 30
0.0
 11
290.8055320945946
 21
-116.217456714527
 31
0.0
  0
LINE
  5
156
330
1F
100
AcDbEntity
  8
0-F
  6
Continuous
 62
     7
370
     9
100
AcDbLine
 10
329.902805637669
 20
-157.7837837837837
 30
0.0
 11
341.8001082136825
 21
-159.3500778610642
 31
0.0
  0
LINE
  5
157
330
1F
100
AcDbEntity
  8
0-F
  6
Continuous
 62
     7
370
     9
100
AcDbLine
 10
329.902805637669
 20
-157.7837837837837
 30
0.0
 11
341.8001082136825
 21
-156.2174897065033
 31
0.0
  0
LINE
  5
158
330
1F
100
AcDbEntity
  8
0-F
  6
Continuous
 62
     7
370
     9
100
AcDbLine
 10
329.902805637669
 20
-90.78376068940031
 30
0.0
 11
329.902805637669
 21
-158.9837679476351
 31
0.0
  0
LINE
  5
159
330
1F
100
AcDbEntity
  8
0-F
  6
Continuous
 62
     7
370
     9
100
AcDbLine
 10
182.7028346706081
 20
292.2162162162163
 30
0.0
 11
184.2691287478885
 21
280.3189136402027
 31
0.0
  0
LINE
  5
15A
330
1F
100
AcDbEntity
  8
0-F
  6
Continuous
 62
     7
370
     9
100
AcDbLine
 10
182.7028346706081
 20
292.2162162162163
 30
0.0
 11
181.1365405933277
 21
280.3189136402027
 31
0.0
  0
LINE
  5
15B
330
1F
100
AcDbEntity
  8
0-F
  6
Continuous
 62
     7
370
     9
100
AcDbLine
 10
184.2691287478885
 20
-19.68113584776177
 30
0.0
 11
181.1365405933277
 21
4.113568280194272
 31
0.0
  0
LINE
  5
15C
330
1F
100
AcDbEntity
  8
0-F
  6
Continuous
 62
     7
370
     9
100
AcDbLine
 10
181.1365405933277
 20
-19.68113584776177
 30
0.0
 11
184.2691287478885
 21
4.113568280194272
 31
0.0
  0
LINE
  5
15D
330
1F
100
AcDbEntity
  8
0-F
  6
Continuous
 62
     7
370
     9
100
AcDbLine
 10
-522.2972643053209
 20
-236.7836980046453
 30
0.0
 11
-510.3999122413429
 21
-235.2173791833826
 31
0.0
  0
LINE
  5
15E
330
1F
100
AcDbEntity
  8
0-F
  6
Continuous
 62
     7
370
     9
100
AcDbLine
 10
-522.2972643053209
 20
-236.7836980046453
 30
0.0
 11
-510.3999122413429
 21
-238.3500168259079
 31
0.0
  0
LINE
  5
15F
330
1F
100
AcDbEntity
  8
0-F
  6
Continuous
 62
     7
370
     9
100
AcDbLine
 10
-152.2972808013091
 20
-236.7836980046453
 30
0.0
 11
-164.1946328652871
 21
-238.3500168259079
 31
0.0
  0
LINE
  5
160
330
1F
100
AcDbEntity
  8
0-F
  6
Continuous
 62
     7
370
     9
100
AcDbLine
 10
-152.2972808013091
 20
-236.7836980046453
 30
0.0
 11
-164.1946328652871
 21
-235.2173791833826
 31
0.0
  0
LINE
  5
161
330
1F
100
AcDbEntity
  8
0-0
  6
Continuous
 62
     3
370
     9
100
AcDbLine
 10
-145.7972841005068
 20
-356.7836980046453
 30
0.0
 11
-142.2972972972973
 21
-302.783717799831
 31
0.0
  0
LINE
  5
162
330
1F
100
AcDbEntity
  8
0-0
  6
Continuous
 62
     3
370
     9
100
AcDbLine
 10
-152.7973071948902
 20
-356.7836980046453
 30
0.0
 11
-145.7972841005068
 21
-356.7836980046453
 31
0.0
  0
LINE
  5
163
330
1F
100
AcDbEntity
  8
0-0
  6
Continuous
 62
     3
370
     9
100
AcDbLine
 10
302.7028346706081
 20
330.2162426097974
 30
0.0
 11
302.7028346706081
 21
293.2158730996622
 31
0.0
  0
LINE
  5
164
330
1F
100
AcDbEntity
  8
0-1
  6
Continuous
 62
     2
370
     9
100
AcDbLine
 10
320.9028254328548
 20
-86.78374749260979
 30
0.0
 11
320.9028254328548
 21
-71.78374749260979
 31
0.0
  0
LINE
  5
165
330
1F
100
AcDbEntity
  8
0-1
  6
JWW_CENTER1
 62
     2
370
     9
100
AcDbLine
 10
325.4028650232265
 20
-90.78376068940031
 30
0.0
 11
325.4028650232265
 21
-71.78374749260979
 31
0.0
  0
LINE
  5
166
330
1F
100
AcDbEntity
  8
0-1
  6
Continuous
 62
     2
370
     9
100
AcDbLine
 10
329.902805637669
 20
-71.78374749260979
 30
0.0
 11
329.902805637669
 21
-86.78374749260979
 31
0.0
  0
LINE
  5
167
330
1F
100
AcDbEntity
  8
0-E
  6
Continuous
 62
     7
370
     9
100
AcDbLine
 10
22.46852565456084
 20
411.6655141469595
 30
0.0
 11
210.4203507706927
 21
411.6655141469595
 31
0.0
  0
LINE
  5
168
330
1F
100
AcDbEntity
  8
0-0
  6
Continuous
 62
     3
370
     9
100
AcDbLine
 10
-158.5462250580658
 20
-336.7837309966216
 30
0.0
 11
-516.0483695365288
 21
-336.7837309966216
 31
0.0
  0
LINE
  5
169
330
1F
100
AcDbEntity
  8
0-0
  6
Continuous
 62
     3
370
     9
100
AcDbLine
 10
-144.1444355732685
 20
-296.7836980046453
 30
0.0
 11
-530.450159021326
 21
-296.7836980046453
 31
0.0
  0
LINE
  5
16A
330
1F
100
AcDbEntity
  8
0-0
  6
Continuous
 62
     3
370
     9
100
AcDbLine
 10
-275.9634481894003
 20
-346.6075868348818
 30
0.0
 11
-277.7419466585726
 21
-376.842456714527
 31
0.0
  0
LINE
  5
16B
330
1F
100
AcDbEntity
  8
0-0
  6
Continuous
 62
     3
370
     9
100
AcDbLine
 10
-286.6311727987753
 20
-346.6075868348818
 30
0.0
 11
-284.852674329603
 21
-376.842456714527
 31
0.0
  0
LINE
  5
16C
330
1F
100
AcDbEntity
  8
0-0
  6
Continuous
 62
     3
370
     9
100
AcDbLine
 10
-289.6260359480574
 20
-343.7837046030405
 30
0.0
 11
-384.9685586465371
 21
-343.7837046030405
 31
0.0
  0
LINE
  5
16D
330
1F
100
AcDbEntity
  8
0-0
  6
Continuous
 62
     3
370
     9
100
AcDbLine
 10
-153.0483101509712
 20
-343.7837046030405
 30
0.0
 11
-272.9685850401182
 21
-343.7837046030405
 31
0.0
  0
LINE
  5
16E
330
1F
100
AcDbEntity
  8
0-0
  6
Continuous
 62
     3
370
     9
100
AcDbLine
 10
-278.4798616976351
 20
-377.7492246885557
 30
0.0
 11
-152.0068854254645
 21
-343.6457816459037
 31
0.0
  0
LINE
  5
16F
330
1F
100
AcDbEntity
  8
0-0
  6
Continuous
 62
     3
370
     9
100
AcDbLine
 10
-152.7973071948902
 20
-356.7836980046453
 30
0.0
 11
-153.6206384607264
 21
-344.0809293179898
 31
0.0
  0
LINE
  5
170
330
1F
100
AcDbEntity
  8
0-0
  6
Continuous
 62
     3
370
     9
100
AcDbLine
 10
-278.7402178790118
 20
-377.783717799831
 30
0.0
 11
-395.8543767155828
 21
-377.783717799831
 31
0.0
  0
LINE
  5
171
330
1F
100
AcDbEntity
  8
0-0
  6
Continuous
 62
     3
370
     9
100
AcDbLine
 10
-145.9552991712416
 20
-304.6093782991976
 30
0.0
 11
-149.063539247255
 21
-340.1323836043074
 31
0.0
  0
LINE
  5
172
330
1F
100
AcDbEntity
  8
0-0
  6
Continuous
 62
     3
370
     9
100
AcDbLine
 10
-143.9629137193834
 20
-302.783717799831
 30
0.0
 11
-142.2972972972973
 21
-302.783717799831
 31
0.0
  0
LINE
  5
173
330
1F
100
AcDbEntity
  8
0-0
  6
Continuous
 62
     3
370
     9
100
AcDbLine
 10
-531.4365531302788
 20
-297.6193022856841
 30
0.0
 11
-532.2972972972973
 21
-302.783717799831
 31
0.0
  0
LINE
  5
174
330
1F
100
AcDbEntity
  8
0-0
  6
Continuous
 62
     3
370
     9
100
AcDbLine
 10
-519.0369477143158
 20
-334.0452155035895
 30
0.0
 11
-522.2174402185389
 21
-297.6965529983108
 31
0.0
  0
LINE
  5
175
330
1F
100
AcDbEntity
  8
0-0
  6
Continuous
 62
     3
370
     9
100
AcDbLine
 10
-528.7973104940878
 20
-356.7836980046453
 30
0.0
 11
-532.2972972972973
 21
-302.783717799831
 31
0.0
  0
LINE
  5
176
330
1F
100
AcDbEntity
  8
0-0
  6
Continuous
 62
     3
370
     9
100
AcDbLine
 10
-521.7972873997044
 20
-356.7836980046453
 30
0.0
 11
-528.7973104940878
 21
-356.7836980046453
 31
0.0
  0
LINE
  5
177
330
1F
100
AcDbEntity
  8
0-0
  6
Continuous
 62
     3
370
     9
100
AcDbLine
 10
-398.6311464051942
 20
-346.6075868348818
 30
0.0
 11
-396.8526479360219
 21
-376.842456714527
 31
0.0
  0
LINE
  5
178
330
1F
100
AcDbEntity
  8
0-0
  6
Continuous
 62
     3
370
     9
100
AcDbLine
 10
-387.9634217958192
 20
-346.6075868348818
 30
0.0
 11
-389.7419202649915
 21
-376.842456714527
 31
0.0
  0
LINE
  5
179
330
1F
100
AcDbEntity
  8
0-0
  6
Continuous
 62
     3
370
     9
100
AcDbLine
 10
-521.5462844436233
 20
-343.7837046030405
 30
0.0
 11
-401.6260095544764
 21
-343.7837046030405
 31
0.0
  0
LINE
  5
17A
330
1F
100
AcDbEntity
  8
0-0
  6
Continuous
 62
     3
370
     9
100
AcDbLine
 10
-396.1147328969594
 20
-377.7492246885557
 30
0.0
 11
-522.58770916913
 21
-343.6457816459037
 31
0.0
  0
LINE
  5
17B
330
1F
100
AcDbEntity
  8
0-0
  6
Continuous
 62
     3
370
     9
100
AcDbLine
 10
-521.7972873997044
 20
-356.7836980046453
 30
0.0
 11
-520.9739561338682
 21
-344.0809293179898
 31
0.0
  0
LINE
  5
17C
330
1F
100
AcDbEntity
  8
0-0
  6
Continuous
 62
     3
370
     9
100
AcDbLine
 10
-528.639295423353
 20
-304.6093782991976
 30
0.0
 11
-525.5310553473396
 21
-340.1323836043074
 31
0.0
  0
LINE
  5
17D
330
1F
100
AcDbEntity
  8
0-0
  6
Continuous
 62
     3
370
     9
100
AcDbLine
 10
-530.6316808752111
 20
-302.783717799831
 30
0.0
 11
-532.2972972972973
 21
-302.783717799831
 31
0.0
  0
LINE
  5
17E
330
1F
100
AcDbEntity
  8
0-0
  6
Continuous
 62
     3
370
     9
100
AcDbLine
 10
242.7028346706081
 20
300.3690614442568
 30
0.0
 11
242.7028346706081
 21
-15.93662901182427
 31
0.0
  0
LINE
  5
17F
330
1F
100
AcDbEntity
  8
0-0
  6
Continuous
 62
     3
370
     9
100
AcDbLine
 10
282.7028676625846
 20
285.9672719594595
 30
0.0
 11
282.7028676625846
 21
-1.534839527026975
 31
0.0
  0
LINE
  5
180
330
1F
100
AcDbEntity
  8
0-0
  6
Continuous
 62
     3
370
     9
100
AcDbLine
 10
248.702854465794
 20
309.3335092905406
 30
0.0
 11
248.702854465794
 21
298.6304502744933
 31
0.0
  0
LINE
  5
181
330
1F
100
AcDbEntity
  8
0-0
  6
Continuous
 62
     3
370
     9
100
AcDbLine
 10
289.7028412690033
 20
206.0449515677788
 30
0.0
 11
289.7028412690033
 21
291.465087890625
 31
0.0
  0
LINE
  5
182
330
1F
100
AcDbEntity
  8
0-0
  6
Continuous
 62
     3
370
     9
100
AcDbLine
 10
289.7028412690033
 20
190.3874544710727
 30
0.0
 11
289.7028412690033
 21
94.04497796135979
 31
0.0
  0
LINE
  5
183
330
1F
100
AcDbEntity
  8
0-0
  6
Continuous
 62
     3
370
     9
100
AcDbLine
 10
322.76159338049
 20
201.2715899493244
 30
0.0
 11
292.5267235008446
 21
203.0500884184967
 31
0.0
  0
LINE
  5
184
330
1F
100
AcDbEntity
  8
0-0
  6
Continuous
 62
     3
370
     9
100
AcDbLine
 10
322.76159338049
 20
195.1608160895271
 30
0.0
 11
292.5267235008446
 21
193.3823176203548
 31
0.0
  0
LINE
  5
185
330
1F
100
AcDbEntity
  8
0-0
  6
Continuous
 62
     3
370
     9
100
AcDbLine
 10
323.702854465794
 20
84.15911370354729
 30
0.0
 11
323.702854465794
 21
200.2733187288852
 31
0.0
  0
LINE
  5
186
330
1F
100
AcDbEntity
  8
0-0
  6
JWW_CENTER1
 62
     3
370
     9
100
AcDbLine
 10
222.7028676625846
 20
142.2162162162163
 30
0.0
 11
343.7028214738177
 21
142.2162162162163
 31
0.0
  0
LINE
  5
187
330
1F
100
AcDbEntity
  8
0-0
  6
Continuous
 62
     3
370
     9
100
AcDbLine
 10
299.0909060916385
 20
286.9931574641048
 30
0.0
 11
323.6650456608954
 21
200.545700485642
 31
0.0
  0
LINE
  5
188
330
1F
100
AcDbEntity
  8
0-0
  6
Continuous
 62
     3
370
     9
100
AcDbLine
 10
302.6061351879223
 20
293.18994140625
 30
0.0
 11
302.7028346706081
 21
293.2158730996622
 31
0.0
  0
LINE
  5
189
330
1F
100
AcDbEntity
  8
0-0
  6
Continuous
 62
     3
370
     9
100
AcDbLine
 10
242.7028346706081
 20
-50.93669499577697
 30
0.0
 11
242.7028346706081
 21
-43.63088576858104
 31
0.0
  0
LINE
  5
18A
330
1F
100
AcDbEntity
  8
0-0
  6
Continuous
 62
     3
370
     9
100
AcDbLine
 10
248.702854465794
 20
-52.78378378378375
 30
0.0
 11
248.702854465794
 21
-52.16656989020271
 31
0.0
  0
LINE
  5
18B
330
1F
100
AcDbEntity
  8
0-0
  6
Continuous
 62
     3
370
     9
100
AcDbLine
 10
256.702880859375
 20
-49.40098448057427
 30
0.0
 11
256.702880859375
 21
-45.16659628378375
 31
0.0
  0
LINE
  5
18C
330
1F
100
AcDbEntity
  8
0-0
  6
Continuous
 62
     3
370
     9
100
AcDbLine
 10
243.5383894636825
 20
-51.92308910472968
 30
0.0
 11
248.702854465794
 21
-52.78378378378375
 31
0.0
  0
LINE
  5
18D
330
1F
100
AcDbEntity
  8
0-0
  6
Continuous
 62
     3
370
     9
100
AcDbLine
 10
243.5383894636825
 20
-42.64449165962833
 30
0.0
 11
248.702854465794
 21
-41.78379698057427
 31
0.0
  0
LINE
  5
18E
330
1F
100
AcDbEntity
  8
0-0
  6
Continuous
 62
     3
370
     9
100
AcDbLine
 10
243.5383894636825
 20
-34.42295713682427
 30
0.0
 11
248.702854465794
 21
-35.28384976773646
 31
0.0
  0
LINE
  5
18F
330
1F
100
AcDbEntity
  8
0-0
  6
Continuous
 62
     3
370
     9
100
AcDbLine
 10
243.5383894636825
 20
-25.14455764358104
 30
0.0
 11
248.702854465794
 21
-24.28386296452697
 31
0.0
  0
LINE
  5
190
330
1F
100
AcDbEntity
  8
0-0
  6
Continuous
 62
     3
370
     9
100
AcDbLine
 10
243.5383894636825
 20
-16.92302312077697
 30
0.0
 11
248.702854465794
 21
-17.78371779983104
 31
0.0
  0
LINE
  5
191
330
1F
100
AcDbEntity
  8
0-0
  6
Continuous
 62
     3
370
     9
100
AcDbLine
 10
242.7028346706081
 20
-7.783783783783747
 30
0.0
 11
279.9643026815879
 21
-4.523318728885101
 31
0.0
  0
LINE
  5
192
330
1F
100
AcDbEntity
  8
0-0
  6
Continuous
 62
     3
370
     9
100
AcDbLine
 10
249.5787914379223
 20
-25.893310546875
 30
0.0
 11
255.8268449113177
 21
-26.67423062711146
 31
0.0
  0
LINE
  5
193
330
1F
100
AcDbEntity
  8
0-0
  6
Continuous
 62
     3
370
     9
100
AcDbLine
 10
255.8268449113177
 20
-44.17436259501687
 30
0.0
 11
249.5787914379223
 21
-43.39334353885135
 31
0.0
  0
LINE
  5
194
330
1F
100
AcDbEntity
  8
0-0
  6
Continuous
 62
     3
370
     9
100
AcDbLine
 10
249.5787914379223
 20
-33.67430320945948
 30
0.0
 11
255.8268449113177
 21
-32.89338312922291
 31
0.0
  0
LINE
  5
195
330
1F
100
AcDbEntity
  8
0-0
  6
Continuous
 62
     3
370
     9
100
AcDbLine
 10
242.7028346706081
 20
-33.43656302787156
 30
0.0
 11
242.7028346706081
 21
-26.13095175253375
 31
0.0
  0
LINE
  5
196
330
1F
100
AcDbEntity
  8
0-0
  6
Continuous
 62
     3
370
     9
100
AcDbLine
 10
248.702854465794
 20
-42.40101087415542
 30
0.0
 11
248.702854465794
 21
-34.66663587415542
 31
0.0
  0
LINE
  5
197
330
1F
100
AcDbEntity
  8
0-0
  6
Continuous
 62
     3
370
     9
100
AcDbLine
 10
256.702880859375
 20
-31.90105046452697
 30
0.0
 11
256.702880859375
 21
-27.66656329180739
 31
0.0
  0
LINE
  5
198
330
1F
100
AcDbEntity
  8
0-0
  6
Continuous
 62
     3
370
     9
100
AcDbLine
 10
302.7028346706081
 20
-45.78381017736478
 30
0.0
 11
302.7028346706081
 21
-8.783440667229684
 31
0.0
  0
LINE
  5
199
330
1F
100
AcDbEntity
  8
0-0
  6
Continuous
 62
     3
370
     9
100
AcDbLine
 10
248.702854465794
 20
-24.90107685810813
 30
0.0
 11
248.702854465794
 21
-14.19801784206084
 31
0.0
  0
LINE
  5
19A
330
1F
100
AcDbEntity
  8
0-0
  6
Continuous
 62
     3
370
     9
100
AcDbLine
 10
286.0515202702704
 20
-11.01742636190875
 30
0.0
 11
243.3130212732265
 21
-14.75713286528708
 31
0.0
  0
LINE
  5
19B
330
1F
100
AcDbEntity
  8
0-0
  6
Continuous
 62
     3
370
     9
100
AcDbLine
 10
289.7028412690033
 20
78.38748086465375
 30
0.0
 11
289.7028412690033
 21
-7.032655458192494
 31
0.0
  0
LINE
  5
19C
330
1F
100
AcDbEntity
  8
0-0
  6
Continuous
 62
     3
370
     9
100
AcDbLine
 10
322.76159338049
 20
83.16084248310813
 30
0.0
 11
292.5267235008446
 21
81.38234401393584
 31
0.0
  0
LINE
  5
19D
330
1F
100
AcDbEntity
  8
0-0
  6
Continuous
 62
     3
370
     9
100
AcDbLine
 10
322.76159338049
 20
89.27161634290542
 30
0.0
 11
292.5267235008446
 21
91.05011481207771
 31
0.0
  0
LINE
  5
19E
330
1F
100
AcDbEntity
  8
0-0
  6
Continuous
 62
     3
370
     9
100
AcDbLine
 10
299.0909060916385
 20
-2.560725031672291
 30
0.0
 11
323.6650456608954
 21
83.88673194679063
 31
0.0
  0
LINE
  5
19F
330
1F
100
AcDbEntity
  8
0-0
  6
Continuous
 62
     3
370
     9
100
AcDbLine
 10
302.6061351879223
 20
-8.757508973817494
 30
0.0
 11
302.7028346706081
 21
-8.783440667229684
 31
0.0
  0
LINE
  5
1A0
330
1F
100
AcDbEntity
  8
0-E
  6
Continuous
 62
     7
370
     9
100
AcDbLine
 10
420.9718446473819
 20
236.1732738597973
 30
0.0
 11
323.702854465794
 21
197.3070596230997
 31
0.0
  0
LINE
  5
1A1
330
1F
100
AcDbEntity
  8
0-E
  6
Continuous
 62
     7
370
     9
100
AcDbLine
 10
323.702854465794
 20
197.3070596230997
 30
0.0
 11
334.1696579391892
 21
203.1760847761825
 31
0.0
  0
LINE
  5
1A2
330
1F
100
AcDbEntity
  8
0-E
  6
Continuous
 62
     7
370
     9
100
AcDbLine
 10
323.702854465794
 20
197.3070596230997
 30
0.0
 11
335.33203125
 21
200.2670832453548
 31
0.0
  0
LINE
  5
1A3
330
1F
100
AcDbEntity
  8
0-F
  6
Continuous
 62
     7
370
     9
100
AcDbLine
 10
289.7028412690033
 20
102.2162327122045
 30
0.0
 11
301.6001438450169
 21
103.7825267894848
 31
0.0
  0
LINE
  5
1A4
330
1F
100
AcDbEntity
  8
0-F
  6
Continuous
 62
     7
370
     9
100
AcDbLine
 10
289.7028412690033
 20
102.2162327122045
 30
0.0
 11
301.6001438450169
 21
100.6499386349241
 31
0.0
  0
LINE
  5
1A5
330
1F
100
AcDbEntity
  8
0-F
  6
Continuous
 62
     7
370
     9
100
AcDbLine
 10
323.702854465794
 20
102.2162327122045
 30
0.0
 11
311.8055518897804
 21
100.6499386349241
 31
0.0
  0
LINE
  5
1A6
330
1F
100
AcDbEntity
  8
0-F
  6
Continuous
 62
     7
370
     9
100
AcDbLine
 10
323.702854465794
 20
102.2162327122045
 30
0.0
 11
311.8055518897804
 21
103.7825267894848
 31
0.0
  0
LINE
  5
1A7
330
1F
100
AcDbEntity
  8
0-F
  6
Continuous
 62
     7
370
     9
100
AcDbLine
 10
182.7028346706081
 20
-52.78358583192562
 30
0.0
 11
181.1365405933277
 21
-40.8862337679476
 31
0.0
  0
LINE
  5
1A8
330
1F
100
AcDbEntity
  8
0-F
  6
Continuous
 62
     7
370
     9
100
AcDbLine
 10
182.7028346706081
 20
-52.78358583192562
 30
0.0
 11
184.2691287478885
 21
-40.8862337679476
 31
0.0
  0
LINE
  5
1A9
330
1F
100
AcDbEntity
  8
0-F
  6
Continuous
 62
     7
370
     9
100
AcDbLine
 10
238.7028214738177
 20
326.2162294130068
 30
0.0
 11
182.7028346706081
 21
326.2162294130068
 31
0.0
  0
LINE
  5
1AA
330
1F
100
AcDbEntity
  8
0-F
  6
Continuous
 62
     7
370
     9
100
AcDbLine
 10
238.7028214738177
 20
319.716282200169
 30
0.0
 11
182.7028346706081
 21
319.716282200169
 31
0.0
  0
LINE
  5
1AB
330
1F
100
AcDbEntity
  8
0-F
  6
Continuous
 62
     7
370
     9
100
AcDbLine
 10
238.7028214738177
 20
308.7162953969595
 30
0.0
 11
182.7028346706081
 21
308.7162953969595
 31
0.0
  0
LINE
  5
1AC
330
1F
100
AcDbEntity
  8
0-F
  6
Continuous
 62
     7
370
     9
100
AcDbLine
 10
238.7028214738177
 20
302.2161502322635
 30
0.0
 11
182.7028346706081
 21
302.2161502322635
 31
0.0
  0
LINE
  5
1AD
330
1F
100
AcDbEntity
  8
0-F
  6
Continuous
 62
     7
370
     9
100
AcDbLine
 10
238.7028214738177
 20
337.2162162162163
 30
0.0
 11
141.5028175147804
 21
337.2162162162163
 31
0.0
  0
LINE
  5
1AE
330
1F
100
AcDbEntity
  8
0-1
  6
Continuous
 62
     2
370
     9
100
AcDbLine
 10
-137.2973302892736
 20
-57.78375079180739
 30
0.0
 11
-137.2973302892736
 21
342.216282200169
 31
0.0
  0
LINE
  5
1AF
330
1F
100
AcDbEntity
  8
0-1
  6
Continuous
 62
     2
370
     9
100
AcDbLine
 10
-140.4973210515202
 20
-54.58380951752531
 30
0.0
 11
-140.4973210515202
 21
339.0161924619933
 31
0.0
  0
LINE
  5
1B0
330
1F
100
AcDbEntity
  8
0-0
  6
Continuous
 62
     3
370
     9
100
AcDbLine
 10
-142.2972972972973
 20
-52.78378378378375
 30
0.0
 11
-142.2972972972973
 21
337.2162162162163
 31
0.0
  0
LINE
  5
1B1
330
1F
100
AcDbEntity
  8
0-0
  6
Continuous
 62
     3
370
     9
100
AcDbLine
 10
-143.2972511085304
 20
-16.78376398859791
 30
0.0
 11
-143.2972511085304
 21
301.2162953969595
 31
0.0
  0
LINE
  5
1B2
330
1F
100
AcDbEntity
  8
0-E
  6
Continuous
 62
     7
370
     9
100
AcDbLine
 10
420.9718446473819
 20
236.1732738597973
 30
0.0
 11
571.5334340688346
 21
236.1732738597973
 31
0.0
  0
LINE
  5
1B3
330
1F
100
AcDbEntity
  8
0-1
  6
JWW_DASHED3
 62
     2
370
     9
100
AcDbLine
 10
-487.2972972972973
 20
-7.783734295819272
 30
0.0
 11
-487.2972972972973
 21
292.2163151921453
 31
0.0
  0
LINE
  5
1B4
330
1F
100
AcDbEntity
  8
0-1
  6
JWW_DASHED3
 62
     2
370
     9
100
AcDbLine
 10
-487.2972972972973
 20
-7.783734295819272
 30
0.0
 11
-187.2973467852618
 21
-7.783734295819272
 31
0.0
  0
LINE
  5
1B5
330
1F
100
AcDbEntity
  8
0-1
  6
JWW_DASHED3
 62
     2
370
     9
100
AcDbLine
 10
-187.2973467852618
 20
292.2163151921453
 30
0.0
 11
-487.2972972972973
 21
292.2163151921453
 31
0.0
  0
LINE
  5
1B6
330
1F
100
AcDbEntity
  8
0-1
  6
JWW_DASHED3
 62
     2
370
     9
100
AcDbLine
 10
-187.2973467852618
 20
-7.783734295819272
 30
0.0
 11
-187.2973467852618
 21
292.2163151921453
 31
0.0
  0
LINE
  5
1B7
330
1F
100
AcDbEntity
  8
0-0
  6
Continuous
 62
     3
370
     9
100
AcDbLine
 10
-453.5472972972973
 20
308.7162953969595
 30
0.0
 11
-453.5472972972973
 21
302.2163481841217
 31
0.0
  0
LINE
  5
1B8
330
1F
100
AcDbEntity
  8
0-0
  6
Continuous
 62
     3
370
     9
100
AcDbLine
 10
-465.5473368876689
 20
308.7162953969595
 30
0.0
 11
-465.5473368876689
 21
302.2163481841217
 31
0.0
  0
LINE
  5
1B9
330
1F
100
AcDbEntity
  8
0-0
  6
Continuous
 62
     3
370
     9
100
AcDbLine
 10
-453.5472972972973
 20
326.2164273648649
 30
0.0
 11
-453.5472972972973
 21
319.7164801520271
 31
0.0
  0
LINE
  5
1BA
330
1F
100
AcDbEntity
  8
0-0
  6
Continuous
 62
     3
370
     9
100
AcDbLine
 10
-465.5473368876689
 20
326.2164273648649
 30
0.0
 11
-465.5473368876689
 21
319.7164801520271
 31
0.0
  0
LINE
  5
1BB
330
1F
100
AcDbEntity
  8
0-0
  6
Continuous
 62
     3
370
     9
100
AcDbLine
 10
-221.0472972972973
 20
308.7162953969595
 30
0.0
 11
-221.0472972972973
 21
302.2163481841217
 31
0.0
  0
LINE
  5
1BC
330
1F
100
AcDbEntity
  8
0-0
  6
Continuous
 62
     3
370
     9
100
AcDbLine
 10
-209.0472577069256
 20
308.7162953969595
 30
0.0
 11
-209.0472577069256
 21
302.2163481841217
 31
0.0
  0
LINE
  5
1BD
330
1F
100
AcDbEntity
  8
0-0
  6
Continuous
 62
     3
370
     9
100
AcDbLine
 10
-221.0472972972973
 20
326.2164273648649
 30
0.0
 11
-221.0472972972973
 21
319.7164801520271
 31
0.0
  0
LINE
  5
1BE
330
1F
100
AcDbEntity
  8
0-0
  6
Continuous
 62
     3
370
     9
100
AcDbLine
 10
-209.0472577069256
 20
326.2164273648649
 30
0.0
 11
-209.0472577069256
 21
319.7164801520271
 31
0.0
  0
LINE
  5
1BF
330
1F
100
AcDbEntity
  8
0-0
  6
Continuous
 62
     3
370
     9
100
AcDbLine
 10
-221.0472972972973
 20
-24.28386296452697
 30
0.0
 11
-221.0472972972973
 21
-17.78391575168916
 31
0.0
  0
LINE
  5
1C0
330
1F
100
AcDbEntity
  8
0-0
  6
Continuous
 62
     3
370
     9
100
AcDbLine
 10
-209.0472577069256
 20
-24.28386296452697
 30
0.0
 11
-209.0472577069256
 21
-17.78391575168916
 31
0.0
  0
LINE
  5
1C1
330
1F
100
AcDbEntity
  8
0-0
  6
Continuous
 62
     3
370
     9
100
AcDbLine
 10
-221.0472972972973
 20
-41.78399493243239
 30
0.0
 11
-221.0472972972973
 21
-35.28404771959458
 31
0.0
  0
LINE
  5
1C2
330
1F
100
AcDbEntity
  8
0-0
  6
Continuous
 62
     3
370
     9
100
AcDbLine
 10
-209.0472577069256
 20
-41.78399493243239
 30
0.0
 11
-209.0472577069256
 21
-35.28404771959458
 31
0.0
  0
LINE
  5
1C3
330
1F
100
AcDbEntity
  8
0-0
  6
Continuous
 62
     3
370
     9
100
AcDbLine
 10
-453.5472972972973
 20
-24.28386296452697
 30
0.0
 11
-453.5472972972973
 21
-17.78391575168916
 31
0.0
  0
LINE
  5
1C4
330
1F
100
AcDbEntity
  8
0-0
  6
Continuous
 62
     3
370
     9
100
AcDbLine
 10
-465.5473368876689
 20
-24.28386296452697
 30
0.0
 11
-465.5473368876689
 21
-17.78391575168916
 31
0.0
  0
LINE
  5
1C5
330
1F
100
AcDbEntity
  8
0-0
  6
Continuous
 62
     3
370
     9
100
AcDbLine
 10
-453.5472972972973
 20
-41.78399493243239
 30
0.0
 11
-453.5472972972973
 21
-35.28404771959458
 31
0.0
  0
LINE
  5
1C6
330
1F
100
AcDbEntity
  8
0-0
  6
Continuous
 62
     3
370
     9
100
AcDbLine
 10
-465.5473368876689
 20
-41.78399493243239
 30
0.0
 11
-465.5473368876689
 21
-35.28404771959458
 31
0.0
  0
LINE
  5
1C7
330
1F
100
AcDbEntity
  8
0-0
  6
Continuous
 62
     3
370
     9
100
AcDbLine
 10
260.7028940561656
 20
299.5005476668075
 30
0.0
 11
260.7028940561656
 21
334.1902251372467
 31
0.0
  0
LINE
  5
1C8
330
1F
100
AcDbEntity
  8
0-0
  6
Continuous
 62
     3
370
     9
100
AcDbLine
 10
286.0515202702704
 20
295.4498587943413
 30
0.0
 11
243.3130212732265
 21
299.1895652977197
 31
0.0
  0
LINE
  5
1C9
330
1F
100
AcDbEntity
  8
0-0
  6
Continuous
 62
     3
370
     9
100
AcDbLine
 10
249.5787914379223
 20
335.6066696579393
 30
0.0
 11
256.7019900760135
 21
334.716381176098
 31
0.0
  0
LINE
  5
1CA
330
1F
100
AcDbEntity
  8
0-0
  6
Continuous
 62
     3
370
     9
100
AcDbLine
 10
256.7019900760135
 20
334.716381176098
 30
0.0
 11
302.7028346706081
 21
330.2162426097974
 31
0.0
  0
LINE
  5
1CB
330
1F
100
AcDbEntity
  8
0-0
  6
Continuous
 62
     3
370
     9
100
AcDbLine
 10
260.7028940561656
 20
-15.068115234375
 30
0.0
 11
260.7028940561656
 21
-49.75779270481416
 31
0.0
  0
LINE
  5
1CC
330
1F
100
AcDbEntity
  8
0-0
  6
Continuous
 62
     3
370
     9
100
AcDbLine
 10
249.5787914379223
 20
-51.17423722550677
 30
0.0
 11
256.7019900760135
 21
-50.28394874366552
 31
0.0
  0
LINE
  5
1CD
330
1F
100
AcDbEntity
  8
0-0
  6
Continuous
 62
     3
370
     9
100
AcDbLine
 10
256.7019900760135
 20
-50.28394874366552
 30
0.0
 11
302.7028346706081
 21
-45.78381017736478
 31
0.0
  0
LINE
  5
1CE
330
1F
100
AcDbEntity
  8
0-0
  6
Continuous
 62
     3
370
     9
100
AcDbLine
 10
-219.1270652977196
 20
-347.783717799831
 30
0.0
 11
-210.9673907305743
 21
-347.783717799831
 31
0.0
  0
LINE
  5
1CF
330
1F
100
AcDbEntity
  8
0-0
  6
Continuous
 62
     3
370
     9
100
AcDbLine
 10
-209.9708021009291
 20
-346.8668047930743
 30
0.0
 11
-209.7139595650337
 21
-343.7837046030405
 31
0.0
  0
LINE
  5
1D0
330
1F
100
AcDbEntity
  8
0-0
  6
Continuous
 62
     3
370
     9
100
AcDbLine
 10
-220.1236539273648
 20
-346.8668047930743
 30
0.0
 11
-220.3805954391892
 21
-343.7837046030405
 31
0.0
  0
LINE
  5
1D1
330
1F
100
AcDbEntity
  8
0-0
  6
Continuous
 62
     3
370
     9
100
AcDbLine
 10
-455.467529296875
 20
-347.783717799831
 30
0.0
 11
-463.6272038640203
 21
-347.783717799831
 31
0.0
  0
LINE
  5
1D2
330
1F
100
AcDbEntity
  8
0-0
  6
Continuous
 62
     3
370
     9
100
AcDbLine
 10
-464.6237924936655
 20
-346.8668047930743
 30
0.0
 11
-464.8806350295608
 21
-343.7837046030405
 31
0.0
  0
LINE
  5
1D3
330
1F
100
AcDbEntity
  8
0-0
  6
Continuous
 62
     3
370
     9
100
AcDbLine
 10
-454.4709406672297
 20
-346.8668047930743
 30
0.0
 11
-454.2139991554054
 21
-343.7837046030405
 31
0.0
  0
LINE
  5
1D4
330
1F
100
AcDbEntity
  8
0-1
  6
Continuous
 62
     2
370
     9
100
AcDbLine
 10
242.7028346706081
 20
342.216282200169
 30
0.0
 11
315.902858424831
 21
342.216282200169
 31
0.0
  0
LINE
  5
1D5
330
1F
100
AcDbEntity
  8
0-1
  6
Continuous
 62
     2
370
     9
100
AcDbLine
 10
315.9027594489021
 20
-57.78375079180739
 30
0.0
 11
242.7028346706081
 21
-57.78375079180739
 31
0.0
  0
LINE
  5
1D6
330
1F
100
AcDbEntity
  8
0-F
  6
Continuous
 62
     7
370
     9
100
AcDbLine
 10
305.9028254328548
 20
-157.7837837837837
 30
0.0
 11
294.0055228568413
 21
-156.2174897065033
 31
0.0
  0
LINE
  5
1D7
330
1F
100
AcDbEntity
  8
0-F
  6
Continuous
 62
     7
370
     9
100
AcDbLine
 10
305.9028254328548
 20
-157.7837837837837
 30
0.0
 11
294.0055228568413
 21
-159.3500778610642
 31
0.0
  0
LINE
  5
1D8
330
1F
100
AcDbEntity
  8
0-F
  6
Continuous
 62
     7
370
     9
100
AcDbLine
 10
242.7028346706081
 20
-157.7837837837837
 30
0.0
 11
346.292724609375
 21
-157.7837837837837
 31
0.0
  0
ARC
  5
1D9
330
1F
100
AcDbEntity
  8
0-1
  6
Continuous
 62
     2
370
     9
100
AcDbCircle
 10
299.7028742609798
 20
-51.58379961993239
 30
0.0
 40
3.000000038662472
100
AcDbArc
 50
270.0
 51
0.0
  0
ARC
  5
1DA
330
1F
100
AcDbEntity
  8
0-1
  6
Continuous
 62
     2
370
     9
100
AcDbCircle
 10
299.902805637669
 20
-51.78378048458615
 30
0.0
 40
6.000000077324945
100
AcDbArc
 50
270.0
 51
0.0
  0
ARC
  5
1DB
330
1F
100
AcDbEntity
  8
0-1
  6
Continuous
 62
     2
370
     9
100
AcDbCircle
 10
315.902858424831
 20
-71.78374749260979
 30
0.0
 40
5.000000257749815
100
AcDbArc
 50
1.113128662109375
 51
89.99998474121094
  0
CIRCLE
  5
1DC
330
1F
100
AcDbEntity
  8
0-1
  6
Continuous
 62
     2
370
     9
100
AcDbCircle
 10
-237.2972643053209
 20
346.7163217905406
 30
0.0
 40
4.500000154649889
  0
ARC
  5
1DD
330
1F
100
AcDbEntity
  8
0-1
  6
JWW_CENTER1
 62
     2
370
     9
100
AcDbCircle
 10
315.902858424831
 20
356.2162294130068
 30
0.0
 40
9.500000412399705
100
AcDbArc
 50
270.0
 51
359.9999847412109
  0
ARC
  5
1DE
330
1F
100
AcDbEntity
  8
0-1
  6
Continuous
 62
     2
370
     9
100
AcDbCircle
 10
315.902858424831
 20
356.2162294130068
 30
0.0
 40
5.000000257749815
100
AcDbArc
 50
270.0
 51
0.0
  0
ARC
  5
1DF
330
1F
100
AcDbEntity
  8
0-1
  6
Continuous
 62
     2
370
     9
100
AcDbCircle
 10
299.902805637669
 20
336.2161634290541
 30
0.0
 40
6.000000077324945
100
AcDbArc
 50
1.085617065429688
 51
90.0
  0
ARC
  5
1E0
330
1F
100
AcDbEntity
  8
0-1
  6
Continuous
 62
     2
370
     9
100
AcDbCircle
 10
299.7028742609798
 20
336.0161330764358
 30
0.0
 40
3.000000038662472
100
AcDbArc
 50
2.171249389648438
 51
90.0
  0
ARC
  5
1E1
330
1F
100
AcDbEntity
  8
0-0
  6
Continuous
 62
     3
370
     9
100
AcDbCircle
 10
243.7028874577704
 20
335.3691274282095
 30
0.0
 40
1.000000012887491
100
AcDbArc
 50
99.46231079101562
 51
180.0
  0
ARC
  5
1E2
330
1F
100
AcDbEntity
  8
0-0
  6
Continuous
 62
     3
370
     9
100
AcDbCircle
 10
243.7028874577704
 20
328.0633182010135
 30
0.0
 40
1.000000012887491
100
AcDbArc
 50
179.9999847412109
 51
260.5376739501953
  0
ARC
  5
1E3
330
1F
100
AcDbEntity
  8
0-0
  6
Continuous
 62
     3
370
     9
100
AcDbCircle
 10
255.7028280722129
 20
329.5990287162163
 30
0.0
 40
1.000000012887491
100
AcDbArc
 50
277.1250152587891
 51
0.0000000000000254
  0
ARC
  5
1E4
330
1F
100
AcDbEntity
  8
0-0
  6
Continuous
 62
     3
370
     9
100
AcDbCircle
 10
255.7028280722129
 20
333.8334169130068
 30
0.0
 40
1.000000012887491
100
AcDbArc
 50
1.403289794921875
 51
82.87496948242188
  0
ARC
  5
1E5
330
1F
100
AcDbEntity
  8
0-0
  6
Continuous
 62
     3
370
     9
100
AcDbCircle
 10
255.7028280722129
 20
316.3334828969595
 30
0.0
 40
1.000000012887491
100
AcDbArc
 50
1.403289794921875
 51
82.87496948242188
  0
ARC
  5
1E6
330
1F
100
AcDbEntity
  8
0-0
  6
Continuous
 62
     3
370
     9
100
AcDbCircle
 10
255.7028280722129
 20
312.0989957242399
 30
0.0
 40
1.000000012887491
100
AcDbArc
 50
277.1250152587891
 51
0.0000000000000254
  0
ARC
  5
1E7
330
1F
100
AcDbEntity
  8
0-0
  6
Continuous
 62
     3
370
     9
100
AcDbCircle
 10
243.7028874577704
 20
310.5633841849663
 30
0.0
 40
1.000000012887491
100
AcDbArc
 50
179.9999847412109
 51
260.5376739501953
  0
ARC
  5
1E8
330
1F
100
AcDbEntity
  8
0-0
  6
Continuous
 62
     3
370
     9
100
AcDbCircle
 10
243.7028874577704
 20
317.8689954603041
 30
0.0
 40
1.000000012887491
100
AcDbArc
 50
99.46231079101562
 51
180.0
  0
ARC
  5
1E9
330
1F
100
AcDbEntity
  8
0-0
  6
Continuous
 62
     3
370
     9
100
AcDbCircle
 10
243.7028874577704
 20
300.3690614442568
 30
0.0
 40
1.000000012887491
100
AcDbArc
 50
99.46231079101562
 51
180.0
  0
ARC
  5
1EA
330
1F
100
AcDbEntity
  8
0-0
  6
Continuous
 62
     3
370
     9
100
AcDbCircle
 10
249.702907252956
 20
309.3335092905406
 30
0.0
 40
1.000000012887491
100
AcDbArc
 50
97.12501525878906
 51
180.0
  0
ARC
  5
1EB
330
1F
100
AcDbEntity
  8
0-0
  6
Continuous
 62
     3
370
     9
100
AcDbCircle
 10
249.702907252956
 20
319.0990683065879
 30
0.0
 40
1.000000012887491
100
AcDbArc
 50
180.0
 51
262.8749694824219
  0
ARC
  5
1EC
330
1F
100
AcDbEntity
  8
0-0
  6
Continuous
 62
     3
370
     9
100
AcDbCircle
 10
249.702907252956
 20
326.8334433065879
 30
0.0
 40
1.000000012887491
100
AcDbArc
 50
97.12501525878906
 51
180.0
  0
ARC
  5
1ED
330
1F
100
AcDbEntity
  8
0-0
  6
Continuous
 62
     3
370
     9
100
AcDbCircle
 10
249.702907252956
 20
336.5990023226352
 30
0.0
 40
1.000000012887491
100
AcDbArc
 50
180.0
 51
262.8749694824219
  0
ARC
  5
1EE
330
1F
100
AcDbEntity
  8
0-0
  6
Continuous
 62
     3
370
     9
100
AcDbCircle
 10
-158.7972775021115
 20
-1.283787082981348
 30
0.0
 40
3.000000038662472
100
AcDbArc
 50
270.0
 51
0.0
  0
ARC
  5
1EF
330
1F
100
AcDbEntity
  8
0-0
  6
Continuous
 62
     3
370
     9
100
AcDbCircle
 10
-158.7972775021115
 20
-1.283787082981348
 30
0.0
 40
6.499999793800148
100
AcDbArc
 50
270.0
 51
0.0
  0
ARC
  5
1F0
330
1F
100
AcDbEntity
  8
0-0
  6
Continuous
 62
     3
370
     9
100
AcDbCircle
 10
-158.7972775021115
 20
285.7162690033784
 30
0.0
 40
6.499999793800148
100
AcDbArc
 50
0.0
 51
90.0
  0
ARC
  5
1F1
330
1F
100
AcDbEntity
  8
0-0
  6
Continuous
 62
     3
370
     9
100
AcDbCircle
 10
-158.7972775021115
 20
285.7162690033784
 30
0.0
 40
3.000000038662472
100
AcDbArc
 50
0.0
 51
90.0
  0
ARC
  5
1F2
330
1F
100
AcDbEntity
  8
0-0
  6
Continuous
 62
     3
370
     9
100
AcDbCircle
 10
-515.7973170924831
 20
285.7162690033784
 30
0.0
 40
3.000000038662472
100
AcDbArc
 50
90.0
 51
180.0
  0
ARC
  5
1F3
330
1F
100
AcDbEntity
  8
0-0
  6
Continuous
 62
     3
370
     9
100
AcDbCircle
 10
-515.7973170924831
 20
285.7162690033784
 30
0.0
 40
6.499999793800148
100
AcDbArc
 50
90.0
 51
178.5967102050781
  0
ARC
  5
1F4
330
1F
100
AcDbEntity
  8
0-0
  6
Continuous
 62
     3
370
     9
100
AcDbCircle
 10
279.702907252956
 20
285.9672719594595
 30
0.0
 40
3.000000038662472
100
AcDbArc
 50
1.403289794921875
 51
84.99934387207031
  0
ARC
  5
1F5
330
1F
100
AcDbEntity
  8
0-0
  6
Continuous
 62
     3
370
     9
100
AcDbCircle
 10
-515.7973170924831
 20
-1.283787082981348
 30
0.0
 40
6.499999793800148
100
AcDbArc
 50
180.0
 51
270.0
  0
ARC
  5
1F6
330
1F
100
AcDbEntity
  8
0-0
  6
Continuous
 62
     3
370
     9
100
AcDbCircle
 10
-515.7973170924831
 20
-1.283787082981348
 30
0.0
 40
3.000000038662472
100
AcDbArc
 50
180.0
 51
270.0
  0
CIRCLE
  5
1F7
330
1F
100
AcDbEntity
  8
0-1
  6
Continuous
 62
     2
370
     9
100
AcDbCircle
 10
-437.2973302892736
 20
346.7163217905406
 30
0.0
 40
4.500000154649889
  0
CIRCLE
  5
1F8
330
1F
100
AcDbEntity
  8
0-1
  6
Continuous
 62
     2
370
     9
100
AcDbCircle
 10
-437.2973302892736
 20
-62.28379038217906
 30
0.0
 40
4.500000154649889
  0
ARC
  5
1F9
330
1F
100
AcDbEntity
  8
0-1
  6
Continuous
 62
     2
370
     9
100
AcDbCircle
 10
-237.2972643053209
 20
-62.28379038217906
 30
0.0
 40
4.500000154649889
100
AcDbArc
 50
180.0
 51
177.8950653076172
  0
ARC
  5
1FA
330
1F
100
AcDbEntity
  8
0-1
  6
Continuous
 62
     2
370
     9
100
AcDbCircle
 10
-531.097412109375
 20
-353.7837375950169
 30
0.0
 40
3.000000038662472
100
AcDbArc
 50
180.0
 51
270.0
  0
ARC
  5
1FB
330
1F
100
AcDbEntity
  8
0-1
  6
Continuous
 62
     2
370
     9
100
AcDbCircle
 10
-531.2973434860642
 20
-353.983668971706
 30
0.0
 40
6.000000077324945
100
AcDbArc
 50
180.0
 51
270.0
  0
ARC
  5
1FC
330
1F
100
AcDbEntity
  8
0-1
  6
Continuous
 62
     2
370
     9
100
AcDbCircle
 10
-143.297399572424
 20
-353.983668971706
 30
0.0
 40
6.000000077324945
100
AcDbArc
 50
271.0856170654297
 51
0.0
  0
ARC
  5
1FD
330
1F
100
AcDbEntity
  8
0-1
  6
Continuous
 62
     2
370
     9
100
AcDbCircle
 10
-143.4974299250422
 20
-353.7837375950169
 30
0.0
 40
3.000000038662472
100
AcDbArc
 50
272.1712493896484
 51
0.0
  0
ARC
  5
1FE
330
1F
100
AcDbEntity
  8
0-0
  6
Continuous
 62
     3
370
     9
100
AcDbCircle
 10
-151.3809616501267
 20
-297.7837013038429
 30
0.0
 40
1.000000012887491
100
AcDbArc
 50
90.0
 51
174.9990081787109
  0
ARC
  5
1FF
330
1F
100
AcDbEntity
  8
0-0
  6
Continuous
 62
     3
370
     9
100
AcDbCircle
 10
-144.1444355732685
 20
-297.7837013038429
 30
0.0
 40
1.000000012887491
100
AcDbArc
 50
9.462326049804688
 51
89.99999999999999
  0
ARC
  5
200
330
1F
100
AcDbEntity
  8
0-0
  6
Continuous
 62
     3
370
     9
100
AcDbCircle
 10
-158.5462250580658
 20
-333.7836716110642
 30
0.0
 40
3.000000038662472
100
AcDbArc
 50
270.0
 51
354.9990081787109
  0
ARC
  5
201
330
1F
100
AcDbEntity
  8
0-1
  6
JWW_CENTER1
 62
     2
370
     9
100
AcDbCircle
 10
315.902858424831
 20
-71.78374749260979
 30
0.0
 40
9.500000412399705
100
AcDbArc
 50
0.0
 51
89.99998474121094
  0
ARC
  5
202
330
1F
100
AcDbEntity
  8
0-0
  6
Continuous
 62
     3
370
     9
100
AcDbCircle
 10
-283.8544031091639
 20
-376.7837145006334
 30
0.0
 40
1.000000012887491
100
AcDbArc
 50
183.3662109375
 51
270.0
  0
ARC
  5
203
330
1F
100
AcDbEntity
  8
0-0
  6
Continuous
 62
     3
370
     9
100
AcDbCircle
 10
-278.7402178790118
 20
-376.7837145006334
 30
0.0
 40
1.000000012887491
100
AcDbArc
 50
270.0
 51
356.6337890625
  0
ARC
  5
204
330
1F
100
AcDbEntity
  8
0-0
  6
Continuous
 62
     3
370
     9
100
AcDbCircle
 10
-272.9685850401182
 20
-346.783763988598
 30
0.0
 40
3.000000038662472
100
AcDbArc
 50
90.0
 51
176.6333770751953
  0
ARC
  5
205
330
1F
100
AcDbEntity
  8
0-0
  6
Continuous
 62
     3
370
     9
100
AcDbCircle
 10
-289.6260359480574
 20
-346.783763988598
 30
0.0
 40
3.000000038662472
100
AcDbArc
 50
3.366622924804688
 51
90.0
  0
ARC
  5
206
330
1F
100
AcDbEntity
  8
0-0
  6
Continuous
 62
     3
370
     9
100
AcDbCircle
 10
-153.0483101509712
 20
-339.7837408942145
 30
0.0
 40
4.000000051549963
100
AcDbArc
 50
270.0
 51
354.9993591308594
  0
ARC
  5
207
330
1F
100
AcDbEntity
  8
0-0
  6
Continuous
 62
     3
370
     9
100
AcDbCircle
 10
-143.9629137193834
 20
-304.7837243982264
 30
0.0
 40
2.000000025774982
100
AcDbArc
 50
90.0
 51
174.9990081787109
  0
ARC
  5
208
330
1F
100
AcDbEntity
  8
0-0
  6
Continuous
 62
     3
370
     9
100
AcDbCircle
 10
-523.2136329444679
 20
-297.7837013038429
 30
0.0
 40
1.000000012887491
100
AcDbArc
 50
5.000991821289062
 51
90.0
  0
ARC
  5
209
330
1F
100
AcDbEntity
  8
0-0
  6
Continuous
 62
     3
370
     9
100
AcDbCircle
 10
-530.450159021326
 20
-297.7837013038429
 30
0.0
 40
1.000000012887491
100
AcDbArc
 50
90.0
 51
170.5376739501953
  0
ARC
  5
20A
330
1F
100
AcDbEntity
  8
0-0
  6
Continuous
 62
     3
370
     9
100
AcDbCircle
 10
-516.0483695365288
 20
-333.7836716110642
 30
0.0
 40
3.000000038662472
100
AcDbArc
 50
185.0009918212891
 51
270.0
  0
ARC
  5
20B
330
1F
100
AcDbEntity
  8
0-0
  6
Continuous
 62
     3
370
     9
100
AcDbCircle
 10
-390.7401914854307
 20
-376.7837145006334
 30
0.0
 40
1.000000012887491
100
AcDbArc
 50
270.0
 51
356.6337890625
  0
ARC
  5
20C
330
1F
100
AcDbEntity
  8
0-0
  6
Continuous
 62
     3
370
     9
100
AcDbCircle
 10
-395.8543767155828
 20
-376.7837145006334
 30
0.0
 40
1.000000012887491
100
AcDbArc
 50
183.3662109375
 51
270.0
  0
ARC
  5
20D
330
1F
100
AcDbEntity
  8
0-0
  6
Continuous
 62
     3
370
     9
100
AcDbCircle
 10
-401.6260095544764
 20
-346.783763988598
 30
0.0
 40
3.000000038662472
100
AcDbArc
 50
3.366622924804688
 51
90.0
  0
ARC
  5
20E
330
1F
100
AcDbEntity
  8
0-0
  6
Continuous
 62
     3
370
     9
100
AcDbCircle
 10
-384.9685586465371
 20
-346.783763988598
 30
0.0
 40
3.000000038662472
100
AcDbArc
 50
90.0
 51
176.6333770751953
  0
ARC
  5
20F
330
1F
100
AcDbEntity
  8
0-0
  6
Continuous
 62
     3
370
     9
100
AcDbCircle
 10
-521.5462844436233
 20
-339.7837408942145
 30
0.0
 40
4.000000051549963
100
AcDbArc
 50
185.0006408691406
 51
270.0
  0
ARC
  5
210
330
1F
100
AcDbEntity
  8
0-0
  6
Continuous
 62
     3
370
     9
100
AcDbCircle
 10
-530.6316808752111
 20
-304.7837243982264
 30
0.0
 40
2.000000025774982
100
AcDbArc
 50
5.000991821289062
 51
90.0
  0
ARC
  5
211
330
1F
100
AcDbEntity
  8
0-0
  6
Continuous
 62
     3
370
     9
100
AcDbCircle
 10
285.7028280722129
 20
291.465087890625
 30
0.0
 40
4.000000051549963
100
AcDbArc
 50
0.0
 51
84.99900817871094
  0
ARC
  5
212
330
1F
100
AcDbEntity
  8
0-0
  6
Continuous
 62
     3
370
     9
100
AcDbCircle
 10
292.7028016786319
 20
206.0449515677788
 30
0.0
 40
3.000000038662472
100
AcDbArc
 50
180.0
 51
266.63525390625
  0
ARC
  5
213
330
1F
100
AcDbEntity
  8
0-0
  6
Continuous
 62
     3
370
     9
100
AcDbCircle
 10
292.7028016786319
 20
190.3874544710727
 30
0.0
 40
3.000000038662472
100
AcDbArc
 50
93.36474609375
 51
180.0
  0
ARC
  5
214
330
1F
100
AcDbEntity
  8
0-0
  6
Continuous
 62
     3
370
     9
100
AcDbCircle
 10
322.7029006545608
 20
200.2733187288852
 30
0.0
 40
1.000000012887491
100
AcDbArc
 50
0.0
 51
86.63520812988281
  0
ARC
  5
215
330
1F
100
AcDbEntity
  8
0-0
  6
Continuous
 62
     3
370
     9
100
AcDbCircle
 10
322.7029006545608
 20
196.1590873099663
 30
0.0
 40
1.000000012887491
100
AcDbArc
 50
273.3647918701171
 51
359.9999999999999
  0
ARC
  5
216
330
1F
100
AcDbEntity
  8
0-0
  6
Continuous
 62
     3
370
     9
100
AcDbCircle
 10
303.9003444362331
 20
288.3603119721284
 30
0.0
 40
4.999999871125093
100
AcDbArc
 50
105.0012664794922
 51
195.8685913085937
  0
ARC
  5
217
330
1F
100
AcDbEntity
  8
0-0
  6
Continuous
 62
     3
370
     9
100
AcDbCircle
 10
243.7028874577704
 20
-50.93669499577697
 30
0.0
 40
1.000000012887491
100
AcDbArc
 50
180.0
 51
260.5376892089844
  0
ARC
  5
218
330
1F
100
AcDbEntity
  8
0-0
  6
Continuous
 62
     3
370
     9
100
AcDbCircle
 10
243.7028874577704
 20
-43.63088576858104
 30
0.0
 40
1.000000012887491
100
AcDbArc
 50
99.4623260498047
 51
180.0000152587891
  0
ARC
  5
219
330
1F
100
AcDbEntity
  8
0-0
  6
Continuous
 62
     3
370
     9
100
AcDbCircle
 10
255.7028280722129
 20
-45.16659628378375
 30
0.0
 40
1.000000012887491
100
AcDbArc
 50
0.0
 51
82.87498474121094
  0
ARC
  5
21A
330
1F
100
AcDbEntity
  8
0-0
  6
Continuous
 62
     3
370
     9
100
AcDbCircle
 10
255.7028280722129
 20
-49.40098448057427
 30
0.0
 40
1.000000012887491
100
AcDbArc
 50
277.1250305175781
 51
358.5967102050781
  0
ARC
  5
21B
330
1F
100
AcDbEntity
  8
0-0
  6
Continuous
 62
     3
370
     9
100
AcDbCircle
 10
255.7028280722129
 20
-31.90105046452697
 30
0.0
 40
1.000000012887491
100
AcDbArc
 50
277.1250305175781
 51
358.5967102050781
  0
ARC
  5
21C
330
1F
100
AcDbEntity
  8
0-0
  6
Continuous
 62
     3
370
     9
100
AcDbCircle
 10
255.7028280722129
 20
-27.66656329180739
 30
0.0
 40
1.000000012887491
100
AcDbArc
 50
0.0
 51
82.87498474121094
  0
ARC
  5
21D
330
1F
100
AcDbEntity
  8
0-0
  6
Continuous
 62
     3
370
     9
100
AcDbCircle
 10
243.7028874577704
 20
-26.13095175253375
 30
0.0
 40
1.000000012887491
100
AcDbArc
 50
99.4623260498047
 51
180.0000152587891
  0
ARC
  5
21E
330
1F
100
AcDbEntity
  8
0-0
  6
Continuous
 62
     3
370
     9
100
AcDbCircle
 10
243.7028874577704
 20
-33.43656302787156
 30
0.0
 40
1.000000012887491
100
AcDbArc
 50
180.0
 51
260.5376892089844
  0
ARC
  5
21F
330
1F
100
AcDbEntity
  8
0-0
  6
Continuous
 62
     3
370
     9
100
AcDbCircle
 10
243.7028874577704
 20
-15.93662901182427
 30
0.0
 40
1.000000012887491
100
AcDbArc
 50
180.0
 51
260.5376892089844
  0
ARC
  5
220
330
1F
100
AcDbEntity
  8
0-0
  6
Continuous
 62
     3
370
     9
100
AcDbCircle
 10
249.702907252956
 20
-24.90107685810813
 30
0.0
 40
1.000000012887491
100
AcDbArc
 50
180.0
 51
262.8749847412109
  0
ARC
  5
221
330
1F
100
AcDbEntity
  8
0-0
  6
Continuous
 62
     3
370
     9
100
AcDbCircle
 10
249.702907252956
 20
-34.66663587415542
 30
0.0
 40
1.000000012887491
100
AcDbArc
 50
97.12503051757812
 51
180.0
  0
ARC
  5
222
330
1F
100
AcDbEntity
  8
0-0
  6
Continuous
 62
     3
370
     9
100
AcDbCircle
 10
249.702907252956
 20
-42.40101087415542
 30
0.0
 40
1.000000012887491
100
AcDbArc
 50
180.0
 51
262.8749847412109
  0
ARC
  5
223
330
1F
100
AcDbEntity
  8
0-0
  6
Continuous
 62
     3
370
     9
100
AcDbCircle
 10
249.702907252956
 20
-52.16656989020271
 30
0.0
 40
1.000000012887491
100
AcDbArc
 50
97.12503051757812
 51
180.0
  0
ARC
  5
224
330
1F
100
AcDbEntity
  8
0-0
  6
Continuous
 62
     3
370
     9
100
AcDbCircle
 10
279.702907252956
 20
-1.534839527026975
 30
0.0
 40
3.000000038662472
100
AcDbArc
 50
275.0006561279297
 51
358.5967102050781
  0
ARC
  5
225
330
1F
100
AcDbEntity
  8
0-0
  6
Continuous
 62
     3
370
     9
100
AcDbCircle
 10
285.7028280722129
 20
-7.032655458192494
 30
0.0
 40
4.000000051549963
100
AcDbArc
 50
275.0009918212891
 51
0.0
  0
ARC
  5
226
330
1F
100
AcDbEntity
  8
0-0
  6
Continuous
 62
     3
370
     9
100
AcDbCircle
 10
292.7028016786319
 20
78.38748086465375
 30
0.0
 40
3.000000038662472
100
AcDbArc
 50
93.36474609375
 51
180.0
  0
ARC
  5
227
330
1F
100
AcDbEntity
  8
0-0
  6
Continuous
 62
     3
370
     9
100
AcDbCircle
 10
292.7028016786319
 20
94.04497796135979
 30
0.0
 40
3.000000038662472
100
AcDbArc
 50
180.0
 51
266.63525390625
  0
ARC
  5
228
330
1F
100
AcDbEntity
  8
0-0
  6
Continuous
 62
     3
370
     9
100
AcDbCircle
 10
322.7029006545608
 20
84.15911370354729
 30
0.0
 40
1.000000012887491
100
AcDbArc
 50
273.3647918701171
 51
359.9999999999999
  0
ARC
  5
229
330
1F
100
AcDbEntity
  8
0-0
  6
Continuous
 62
     3
370
     9
100
AcDbCircle
 10
322.7029006545608
 20
88.27334512246625
 30
0.0
 40
1.000000012887491
100
AcDbArc
 50
0.0
 51
86.63520812988281
  0
ARC
  5
22A
330
1F
100
AcDbEntity
  8
0-0
  6
Continuous
 62
     3
370
     9
100
AcDbCircle
 10
303.9003444362331
 20
-3.927879539695937
 30
0.0
 40
4.999999871125093
100
AcDbArc
 50
164.1314086914062
 51
254.9987335205078
  0
ARC
  5
22B
330
1F
100
AcDbEntity
  8
0-0
  6
Continuous
 62
     3
370
     9
100
AcDbCircle
 10
262.7029006545608
 20
299.5005476668075
 30
0.0
 40
2.000000025774982
100
AcDbArc
 50
180.0
 51
265.0004119873047
  0
ARC
  5
22C
330
1F
100
AcDbEntity
  8
0-0
  6
Continuous
 62
     3
370
     9
100
AcDbCircle
 10
262.7029006545608
 20
-15.068115234375
 30
0.0
 40
2.000000025774982
100
AcDbArc
 50
94.9995880126953
 51
180.0
  0
ARC
  5
22D
330
1F
100
AcDbEntity
  8
0-0
  6
Continuous
 62
     3
370
     9
100
AcDbCircle
 10
-210.9673907305743
 20
-346.783763988598
 30
0.0
 40
1.000000012887491
100
AcDbArc
 50
270.0
 51
355.2365875244141
  0
ARC
  5
22E
330
1F
100
AcDbEntity
  8
0-0
  6
Continuous
 62
     3
370
     9
100
AcDbCircle
 10
-219.1270652977196
 20
-346.783763988598
 30
0.0
 40
1.000000012887491
100
AcDbArc
 50
184.763412475586
 51
270.0
  0
ARC
  5
22F
330
1F
100
AcDbEntity
  8
0-0
  6
Continuous
 62
     3
370
     9
100
AcDbCircle
 10
-463.6272038640203
 20
-346.783763988598
 30
0.0
 40
1.000000012887491
100
AcDbArc
 50
184.763412475586
 51
270.0
  0
ARC
  5
230
330
1F
100
AcDbEntity
  8
0-0
  6
Continuous
 62
     3
370
     9
100
AcDbCircle
 10
-455.467529296875
 20
-346.783763988598
 30
0.0
 40
1.000000012887491
100
AcDbArc
 50
270.0
 51
355.2365875244141
  0
ARC
  5
231
330
1F
100
AcDbEntity
  8
0-1
  6
Continuous
 62
     2
370
     9
100
AcDbCircle
 10
315.902858424831
 20
356.2162294130068
 30
0.0
 40
13.99999979380015
100
AcDbArc
 50
270.0
 51
0.0
  0
ARC
  5
232
330
1F
100
AcDbEntity
  8
0-1
  6
Continuous
 62
     2
370
     9
100
AcDbCircle
 10
315.9027594489021
 20
-71.78374749260979
 30
0.0
 40
13.99999979380015
100
AcDbArc
 50
0.0
 51
90.0
  0
TEXT
  5
233
330
1F
100
AcDbEntity
  8
0-F
  6
Continuous
 62
     2
370
     9
100
AcDbText
 10
-500.2970993454392
 20
415.4722690033784
 30
0.0
 40
12.192
  1
100
 41
1.083333333333333
  7
ＭＳ ゴシック
100
AcDbText
  0
TEXT
  5
234
330
1F
100
AcDbEntity
  8
0-F
  6
Continuous
 62
     2
370
     9
100
AcDbText
 10
-200.2972478093328
 20
415.4722690033784
 30
0.0
 40
12.192
  1
100
 41
1.083333333333333
  7
ＭＳ ゴシック
100
AcDbText
  0
TEXT
  5
235
330
1F
100
AcDbEntity
  8
0-F
  6
Continuous
 62
     2
370
     9
100
AcDbText
 10
138.4467956484847
 20
-95.19626276753179
 30
0.0
 40
12.192
  1
3.2
 50
90.00000250447816
 41
1.083333333333333
  7
ＭＳ ゴシック
100
AcDbText
  0
TEXT
  5
236
330
1F
100
AcDbEntity
  8
0-F
  6
Continuous
 62
     2
370
     9
100
AcDbText
 10
138.4467956484847
 20
-46.54761411888314
 30
0.0
 40
12.192
  1
1.8
 50
90.00000250447816
 41
1.083333333333333
  7
ＭＳ ゴシック
100
AcDbText
  0
TEXT
  5
237
330
1F
100
AcDbEntity
  8
0-F
  6
Continuous
 62
     2
370
     9
100
AcDbText
 10
138.4467956484847
 20
352.2711411598331
 30
0.0
 40
12.192
  1
3.2
 50
90.00000250447816
 41
1.083333333333334
  7
ＭＳ ゴシック
100
AcDbText
  0
TEXT
  5
238
330
1F
100
AcDbEntity
  8
0-F
  6
Continuous
 62
     2
370
     9
100
AcDbText
 10
138.4467956484847
 20
301.7691682396473
 30
0.0
 40
12.192
  1
1.8
 50
90.00000250447816
 41
1.083333333333334
  7
ＭＳ ゴシック
100
AcDbText
  0
TEXT
  5
239
330
1F
100
AcDbEntity
  8
0-F
  6
Continuous
 62
     2
370
     9
100
AcDbText
 10
254.2029501425254
 20
106.4722393105997
 30
0.0
 40
12.192
  1
40
 41
1.0625
  7
ＭＳ ゴシック
100
AcDbText
  0
TEXT
  5
23A
330
1F
100
AcDbEntity
  8
0-F
  6
Continuous
 62
     2
370
     9
100
AcDbText
 10
98.44676265650828
 20
129.2162656055679
 30
0.0
 40
12.192
  1
400
 50
90.00000250447816
 41
1.083333333333333
  7
ＭＳ ゴシック
100
AcDbText
  0
TEXT
  5
23B
330
1F
100
AcDbEntity
  8
0-F
  6
Continuous
 62
     2
370
     9
100
AcDbText
 10
138.4467956484847
 20
129.2162161176034
 30
0.0
 40
12.192
  1
390
 50
90.00000250447816
 41
1.083333333333333
  7
ＭＳ ゴシック
100
AcDbText
  0
TEXT
  5
23C
330
1F
100
AcDbEntity
  8
0-F
  6
Continuous
 62
     2
370
     9
100
AcDbText
 10
390.6467664188442
 20
-41.28376738640846
 30
0.0
 40
12.192
  1
50
 50
90.00000250447816
 41
1.0625
  7
ＭＳ ゴシック
100
AcDbText
  0
TEXT
  5
23D
330
1F
100
AcDbEntity
  8
0-F
  6
Continuous
 62
     2
370
     9
100
AcDbText
 10
390.6467664188442
 20
-80.78372449683918
 30
0.0
 40
12.192
  1
29
 50
90.00000250447816
 41
1.0625
  7
ＭＳ ゴシック
100
AcDbText
  0
TEXT
  5
23E
330
1F
100
AcDbEntity
  8
0-F
  6
Continuous
 62
     2
370
     9
100
AcDbText
 10
390.6467664188442
 20
348.2162062200105
 30
0.0
 40
12.192
  1
29
 50
90.00000250447816
 41
1.062500000000001
  7
ＭＳ ゴシック
100
AcDbText
  0
TEXT
  5
23F
330
1F
100
AcDbEntity
  8
0-F
  6
Continuous
 62
     2
370
     9
100
AcDbText
 10
390.6467664188442
 20
308.7161996216152
 30
0.0
 40
12.192
  1
50
 50
90.00000250447816
 41
1.062500000000001
  7
ＭＳ ゴシック
100
AcDbText
  0
TEXT
  5
240
330
1F
100
AcDbEntity
  8
0-F
  6
Continuous
 62
     2
370
     9
100
AcDbText
 10
390.6467670089479
 20
120.2162408615856
 30
0.0
 40
12.192
  1
□300
 50
90.00000250447816
 41
1.1
  7
ＭＳ ゴシック
100
AcDbText
  0
TEXT
  5
241
330
1F
100
AcDbEntity
  8
0-F
  6
Continuous
 62
     2
370
     9
100
AcDbText
 10
-521.1571671769425
 20
-192.5277079022382
 30
0.0
 40
12.192
  1
1.8
 41
1.083333333333333
  7
ＭＳ ゴシック
100
AcDbText
  0
TEXT
  5
242
330
1F
100
AcDbEntity
  8
0-F
  6
Continuous
 62
     2
370
     9
100
AcDbText
 10
-573.0544903729412
 20
-192.5277079022382
 30
0.0
 40
12.192
  1
3.2
 41
1.083333333333333
  7
ＭＳ ゴシック
100
AcDbText
  0
TEXT
  5
243
330
1F
100
AcDbEntity
  8
0-F
  6
Continuous
 62
     2
370
     9
100
AcDbText
 10
-124.3652657173775
 20
-192.5277079022382
 30
0.0
 40
12.192
  1
3.2
 41
1.083333333333333
  7
ＭＳ ゴシック
100
AcDbText
  0
TEXT
  5
244
330
1F
100
AcDbEntity
  8
0-F
  6
Continuous
 62
     2
370
     9
100
AcDbText
 10
-172.8519155141469
 20
-192.5277079022382
 30
0.0
 40
12.192
  1
1.8
 41
1.083333333333333
  7
ＭＳ ゴシック
100
AcDbText
  0
TEXT
  5
245
330
1F
100
AcDbEntity
  8
0-F
  6
Continuous
 62
     2
370
     9
100
AcDbText
 10
-350.2972972972972
 20
-152.5277738861908
 30
0.0
 40
12.192
  1
400
 41
1.083333333333333
  7
ＭＳ ゴシック
100
AcDbText
  0
TEXT
  5
246
330
1F
100
AcDbEntity
  8
0-F
  6
Continuous
 62
     2
370
     9
100
AcDbText
 10
-350.2972972972972
 20
-192.5277079022382
 30
0.0
 40
12.192
  1
390
 41
1.083333333333333
  7
ＭＳ ゴシック
100
AcDbText
  0
TEXT
  5
247
330
1F
100
AcDbEntity
  8
0-F
  6
Continuous
 62
     2
370
     9
100
AcDbText
 10
-350.2972972972972
 20
-232.52769140625
 30
0.0
 40
12.192
  1
370
 41
1.083333333333333
  7
ＭＳ ゴシック
100
AcDbText
  0
TEXT
  5
248
330
1F
100
AcDbEntity
  8
0-F
  6
Continuous
 62
     2
370
     9
100
AcDbText
 10
178.446828640461
 20
129.2162161176034
 30
0.0
 40
12.192
  1
300
 50
90.00000250447816
 41
1.083333333333333
  7
ＭＳ ゴシック
100
AcDbText
  0
TEXT
  5
249
330
1F
100
AcDbEntity
  8
0-E
  6
Continuous
 62
     7
370
     9
100
AcDbText
 10
384.5735556112754
 20
456.9321617926521
 30
0.0
 40
9.144
  1
アンカー：φ９
 41
1.142857142857143
  7
ＭＳ ゴシック
100
AcDbText
  0
TEXT
  5
24A
330
1F
100
AcDbEntity
  8
0-E
  6
Continuous
 62
     7
370
     9
100
AcDbText
 10
380.4843585040119
 20
438.0749708614865
 30
0.0
 40
9.144
  1
ＳＳ４００，樹脂系塗装
 41
1.151515151515152
  7
ＭＳ ゴシック
100
AcDbText
  0
TEXT
  5
24B
330
1F
100
AcDbEntity
  8
0-E
  6
Continuous
 62
     7
370
     9
100
AcDbText
 10
429.7671228357265
 20
243.2937076646959
 30
0.0
 40
9.144
  1
蓋本体：ＦＣＤ５００
 41
1.15
  7
ＭＳ ゴシック
100
AcDbText
  0
TEXT
  5
24C
330
1F
100
AcDbEntity
  8
0-F
  6
Continuous
 62
     2
370
     9
100
AcDbText
 10
256.8028300517315
 20
-153.5277771853885
 30
0.0
 40
12.192
  1
63.2
 41
1.09375
  7
ＭＳ ゴシック
100
AcDbText
  0
TEXT
  5
24D
330
1F
100
AcDbEntity
  8
0-F
  6
Continuous
 62
     2
370
     9
100
AcDbText
 10
264.2028841585727
 20
-113.5277441934121
 30
0.0
 40
12.192
  1
60
 41
1.0625
  7
ＭＳ ゴシック
100
AcDbText
  0
TEXT
  5
24E
330
1F
100
AcDbEntity
  8
0-E
  6
Continuous
 62
     7
370
     9
100
AcDbText
 10
24.46851245777032
 20
398.968096653294
 30
0.0
 40
9.144
  1
ＳＰＨＣ，樹脂系塗装
 41
1.15
  7
ＭＳ ゴシック
100
AcDbText
  0
TEXT
  5
24F
330
1F
100
AcDbEntity
  8
0-F
  6
Continuous
 62
     2
370
     9
100
AcDbText
 10
308.9977169552366
 20
127.1622170080236
 30
0.0
 40
12.192
  1
7
  7
ＭＳ ゴシック
100
AcDbText
  0
TEXT
  5
250
330
1F
100
AcDbEntity
  8
0-F
  6
Continuous
 62
     2
370
     9
100
AcDbText
 10
298.2028973553632
 20
106.4722393105997
 30
0.0
 40
12.192
  1
34
 41
1.0625
  7
ＭＳ ゴシック
100
AcDbText
  0
TEXT
  5
251
330
1F
100
AcDbEntity
  8
0-E
  6
Continuous
 62
     2
370
     9
100
AcDbText
 10
214.7212573902028
 20
-303.4998659733952
 30
0.0
 40
12.192
  1
仕様
 41
1.0625
  7
ＭＳ ゴシック
100
AcDbText
  0
TEXT
  5
252
330
1F
100
AcDbEntity
  8
0-E
  6
Continuous
 62
     2
370
     9
100
AcDbText
 10
214.7212672877956
 20
-327.4998461782094
 30
0.0
 40
12.192
  1
適用荷重：Ｔ－１４
 41
1.111111111111111
  7
ＭＳ ゴシック
100
AcDbText
  0
TEXT
  5
253
330
1F
100
AcDbEntity
  8
0-F
  6
Continuous
 62
     2
370
     9
100
AcDbText
 10
178.4468284437597
 20
-38.78368490646757
 30
0.0
 40
12.192
  1
45
 50
90.00000250447816
 41
1.0625
  7
ＭＳ ゴシック
100
AcDbText
  0
TEXT
  5
254
330
1F
100
AcDbEntity
  8
0-F
  6
Continuous
 62
     3
370
     9
100
AcDbText
 10
178.4468282776565
 20
290.7161573918855
 30
0.0
 40
12.192
  1
10
 50
90.00000250447816
 41
0.5874999999999991
  7
ＭＳ ゴシック
100
AcDbText
  0
TEXT
  5
255
330
1F
100
AcDbEntity
  8
0-F
  6
Continuous
 62
     3
370
     9
100
AcDbText
 10
160.2041789948948
 20
294.7320740409564
 30
0.0
 40
12.192
  1
6.5
 50
90.00000250447816
 41
0.5916666666666668
  7
ＭＳ ゴシック
100
AcDbText
  0
TEXT
  5
256
330
1F
100
AcDbEntity
  8
0-F
  6
Continuous
 62
     3
370
     9
100
AcDbText
 10
178.4468282776565
 20
307.7162629662098
 30
0.0
 40
12.192
  1
11
 50
90.00000250447816
 41
0.5874999999999991
  7
ＭＳ ゴシック
100
AcDbText
  0
TEXT
  5
257
330
1F
100
AcDbEntity
  8
0-F
  6
Continuous
 62
     3
370
     9
100
AcDbText
 10
160.2041789948948
 20
316.8865490726288
 30
0.0
 40
12.192
  1
6.5
 50
90.00000250447816
 41
0.5916666666666668
  7
ＭＳ ゴシック
100
AcDbText
  0
TEXT
  5
258
330
1F
100
AcDbEntity
  8
0-F
  6
Continuous
 62
     3
370
     9
100
AcDbText
 10
178.4468282776565
 20
325.2161969822571
 30
0.0
 40
12.192
  1
11
 50
90.00000250447816
 41
0.5874999999999991
  7
ＭＳ ゴシック
100
AcDbText
  0
TEXT
  5
259
330
1F
100
AcDbEntity
  8
0-E
  6
Continuous
 62
     7
370
     9
100
AcDbText
 10
26.44706107474667
 20
417.1185994510136
 30
0.0
 40
9.144
  1
受枠：Ｌ６０Ｇ，ｔ＝３．２
 41
1.153846153846154
  7
ＭＳ ゴシック
100
AcDbText
  0
TEXT
  5
25A
330
1F
100
AcDbEntity
  8
0-E
  6
Continuous
 62
     2
370
     9
100
AcDbText
 10
214.7212672877956
 20
-375.4998560758023
 30
0.0
 40
12.192
  1
接触圧子：２００×５００ｍｍ
 41
1.116071428571429
  7
ＭＳ ゴシック
100
AcDbText
  0
TEXT
  5
25B
330
1F
100
AcDbEntity
  8
0-E
  6
Continuous
 62
     7
370
     9
100
AcDbText
 10
429.2404059332771
 20
221.9934938766893
 30
0.0
 40
9.144
  1
樹脂系塗装
 41
1.133333333333333
  7
ＭＳ ゴシック
100
AcDbText
  0
TEXT
  5
25C
330
1F
100
AcDbEntity
  8
0-E
  6
Continuous
 62
     2
370
     9
100
AcDbText
 10
214.721237595017
 20
-351.4998758709881
 30
0.0
 40
12.192
  1
破壊荷重：２４２ｋＮ（２４，７００ｋｇｆ）以上
 41
1.119565217391304
  7
ＭＳ ゴシック
100
AcDbText
  0
TEXT
  5
25D
330
1F
100
AcDbEntity
  8
0-E
  6
Continuous
 62
     2
370
     9
100
AcDbText
 10
214.7214751372467
 20
-399.4998857685811
 30
0.0
 40
12.192
  1
蓋 質 量：１４．０ｋｇ
 41
1.113636363636364
  7
ＭＳ ゴシック
100
AcDbText
  0
TEXT
  5
25E
330
1F
100
AcDbEntity
  8
0-F
  6
Continuous
 62
     2
370
     9
100
AcDbText
 10
309.4028155352619
 20
-153.5277771853885
 30
0.0
 40
12.192
  1
24
 41
1.0625
  7
ＭＳ ゴシック
100
AcDbText
  0
LWPOLYLINE
  5
25F
330
1F
100
AcDbEntity
  8
0-F
  6
Continuous
 62
     7
370
     9
100
AcDbPolyline
 90
        4
 70
     1
 43
0.4
 10
-140.2973705394848
 20
-196.7837145006334
 42
0.4142135623731
 10
-140.4973705394848
 20
-196.5837145006334
 42
0.4142135623731
 10
-140.6973705394848
 20
-196.7837145006334
 42
0.4142135623731
 10
-140.4973705394848
 20
-196.9837145006334
 42
0.4142135623731
  0
LWPOLYLINE
  5
260
330
1F
100
AcDbEntity
  8
0-F
  6
Continuous
 62
     7
370
     9
100
AcDbPolyline
 90
        4
 70
     1
 43
0.4
 10
-533.8973725190033
 20
-196.7837145006334
 42
0.4142135623731
 10
-534.0973725190033
 20
-196.5837145006334
 42
0.4142135623731
 10
-534.2973725190034
 20
-196.7837145006334
 42
0.4142135623731
 10
-534.0973725190033
 20
-196.9837145006334
 42
0.4142135623731
  0
LWPOLYLINE
  5
261
330
1F
100
AcDbEntity
  8
0-F
  6
Continuous
 62
     7
370
     9
100
AcDbPolyline
 90
        4
 70
     1
 43
0.4
 10
142.9028016786318
 20
339.0161924619933
 42
0.4142135623731
 10
142.7028016786318
 20
339.2161924619933
 42
0.4142135623731
 10
142.5028016786318
 20
339.0161924619933
 42
0.4142135623731
 10
142.7028016786318
 20
338.8161924619934
 42
0.4142135623731
  0
LWPOLYLINE
  5
262
330
1F
100
AcDbEntity
  8
0-F
  6
Continuous
 62
     7
370
     9
100
AcDbPolyline
 90
        4
 70
     1
 43
0.4
 10
142.9028016786318
 20
-54.58380951752531
 42
0.4142135623731
 10
142.7028016786318
 20
-54.38380951752531
 42
0.4142135623731
 10
142.5028016786318
 20
-54.58380951752531
 42
0.4142135623731
 10
142.7028016786318
 20
-54.78380951752531
 42
0.4142135623731
  0
LWPOLYLINE
  5
263
330
1F
100
AcDbEntity
  8
0-F
  6
Continuous
 62
     7
370
     9
100
AcDbPolyline
 90
        4
 70
     1
 43
0.4
 10
182.9028346706081
 20
302.2161502322635
 42
0.4142135623731
 10
182.7028346706081
 20
302.4161502322635
 42
0.4142135623731
 10
182.5028346706081
 20
302.2161502322635
 42
0.4142135623731
 10
182.7028346706081
 20
302.0161502322636
 42
0.4142135623731
  0
LWPOLYLINE
  5
264
330
1F
100
AcDbEntity
  8
0-F
  6
Continuous
 62
     7
370
     9
100
AcDbPolyline
 90
        4
 70
     1
 43
0.4
 10
182.9028346706081
 20
308.7162953969595
 42
0.4142135623731
 10
182.7028346706081
 20
308.9162953969595
 42
0.4142135623731
 10
182.5028346706081
 20
308.7162953969595
 42
0.4142135623731
 10
182.7028346706081
 20
308.5162953969595
 42
0.4142135623731
  0
LWPOLYLINE
  5
265
330
1F
100
AcDbEntity
  8
0-F
  6
Continuous
 62
     7
370
     9
100
AcDbPolyline
 90
        4
 70
     1
 43
0.4
 10
182.9028346706081
 20
319.716282200169
 42
0.4142135623731
 10
182.7028346706081
 20
319.916282200169
 42
0.4142135623731
 10
182.5028346706081
 20
319.716282200169
 42
0.4142135623731
 10
182.7028346706081
 20
319.516282200169
 42
0.4142135623731
  0
LWPOLYLINE
  5
266
330
1F
100
AcDbEntity
  8
0-F
  6
Continuous
 62
     7
370
     9
100
AcDbPolyline
 90
        4
 70
     1
 43
0.4
 10
182.9028346706081
 20
326.2162294130068
 42
0.4142135623731
 10
182.7028346706081
 20
326.4162294130068
 42
0.4142135623731
 10
182.5028346706081
 20
326.2162294130068
 42
0.4142135623731
 10
182.7028346706081
 20
326.0162294130068
 42
0.4142135623731
  0
LWPOLYLINE
  5
267
330
1F
100
AcDbEntity
  8
0-F
  6
Continuous
 62
     7
370
     9
100
AcDbPolyline
 90
        4
 70
     1
 43
0.4
 10
182.9028346706081
 20
337.2162162162163
 42
0.4142135623731
 10
182.7028346706081
 20
337.4162162162162
 42
0.4142135623731
 10
182.5028346706081
 20
337.2162162162163
 42
0.4142135623731
 10
182.7028346706081
 20
337.0162162162163
 42
0.4142135623731
  0
TEXT
  5
268
330
1F
100
AcDbEntity
  8
F-5ﾚｲﾔ
  6
Continuous
 62
     3
370
     9
100
AcDbText
 10
-216.4454705162533
 20
-549.8055966172748
 30
0.0
 40
12.192
  1
カラー舗装用みぞ蓋　ＧＨＷ－１４－３００＋Ｌ６０Ｇ
 41
0.9469999999999998
  7
ＭＳ ゴシック
100
AcDbText
  0
TEXT
  5
269
330
1F
100
AcDbEntity
  8
F-5ﾚｲﾔ
  6
Continuous
 62
     3
370
     9
100
AcDbText
 10
-338.0246445317165
 20
-528.2893034915943
 30
0.0
 40
12.192
  1
タイル用　充填深さ40㎜　鋳鉄製　集水桝用
 41
0.9462499999999998
  7
ＭＳ ゴシック
100
AcDbText
  0
ENDSEC
  0
SECTION
  2
OBJECTS
  0
DICTIONARY
  5
C
330
0
100
AcDbDictionary
281
     1
  3
ACAD_GROUP
350
D
  3
ACAD_LAYOUT
350
1A
  3
ACAD_MLEADERSTYLE
350
26B
  3
ACAD_MLINESTYLE
350
17
  3
ACAD_PLOTSETTINGS
350
19
  3
ACAD_PLOTSTYLENAME
350
E
  3
ACAD_TABLESTYLE
350
26A
  3
ACAD_VISUALSTYLE
350
2A
  0
DICTIONARY
  5
D
102
{ACAD_REACTORS
330
C
102
}
330
C
100
AcDbDictionary
281
     1
  0
DICTIONARY
  5
1A
102
{ACAD_REACTORS
330
C
102
}
330
C
100
AcDbDictionary
281
     1
  3
Layout1
350
1E
  3
Layout2
350
26
  3
Model
350
22
  0
DICTIONARY
  5
26B
102
{ACAD_REACTORS
330
C
102
}
330
C
100
AcDbDictionary
281
     1
  0
DICTIONARY
  5
17
102
{ACAD_REACTORS
330
C
102
}
330
C
100
AcDbDictionary
281
     1
  3
Standard
350
18
  0
DICTIONARY
  5
19
102
{ACAD_REACTORS
330
C
102
}
330
C
100
AcDbDictionary
281
     1
  0
ACDBDICTIONARYWDFLT
  5
E
102
{ACAD_REACTORS
330
C
102
}
330
C
100
AcDbDictionary
281
     1
  3
Normal
350
F
100
AcDbDictionaryWithDefault
340
F
  0
DICTIONARY
  5
26A
102
{ACAD_REACTORS
330
C
102
}
330
C
100
AcDbDictionary
281
     1
  0
DICTIONARY
  5
2A
102
{ACAD_REACTORS
330
C
102
}
330
C
100
AcDbDictionary
281
     1
  3
2dWireframe
350
2F
  3
3D Hidden
350
31
  3
3dWireframe
350
30
  3
Basic
350
32
  3
Brighten
350
36
  3
ColorChange
350
3A
  3
Conceptual
350
34
  3
Dim
350
35
  3
Facepattern
350
39
  3
Flat
350
2B
  3
FlatWithEdges
350
2C
  3
Gouraud
350
2D
  3
GouraudWithEdges
350
2E
  3
Linepattern
350
38
  3
Realistic
350
33
  3
Thicken
350
37
  0
LAYOUT
  5
1E
102
{ACAD_REACTORS
330
1A
102
}
330
1A
100
AcDbPlotSettings
  1

  2
none_device
  4

  6

 40
0.0
 41
0.0
 42
0.0
 43
0.0
 44
0.0
 45
0.0
 46
0.0
 47
0.0
 48
0.0
 49
0.0
140
0.0
141
0.0
142
1.0
143
1.0
 70
   688
 72
     0
 73
     0
 74
     5
  7

 75
    16
 76
     0
 77
     5
 78
   300
147
1.0
148
0.0
149
0.0
100
AcDbLayout
  1
Layout1
 70
     1
 71
     1
 10
0.0
 20
0.0
 11
420.0
 21
297.0
 12
0.0
 22
0.0
 32
0.0
 14
1.000000000000000E+20
 24
1.000000000000000E+20
 34
1.000000000000000E+20
 15
-1.000000000000000E+20
 25
-1.000000000000000E+20
 35
-1.000000000000000E+20
146
0.0
 13
0.0
 23
0.0
 33
0.0
 16
1.0
 26
0.0
 36
0.0
 17
0.0
 27
1.0
 37
0.0
 76
     0
330
1B
  0
LAYOUT
  5
26
102
{ACAD_REACTORS
330
1A
102
}
330
1A
100
AcDbPlotSettings
  1

  2
none_device
  4

  6

 40
0.0
 41
0.0
 42
0.0
 43
0.0
 44
0.0
 45
0.0
 46
0.0
 47
0.0
 48
0.0
 49
0.0
140
0.0
141
0.0
142
1.0
143
1.0
 70
   688
 72
     0
 73
     0
 74
     5
  7

 75
    16
 76
     0
 77
     5
 78
   300
147
1.0
148
0.0
149
0.0
100
AcDbLayout
  1
Layout2
 70
     1
 71
     2
 10
0.0
 20
0.0
 11
0.0
 21
0.0
 12
0.0
 22
0.0
 32
0.0
 14
0.0
 24
0.0
 34
0.0
 15
0.0
 25
0.0
 35
0.0
146
0.0
 13
0.0
 23
0.0
 33
0.0
 16
1.0
 26
0.0
 36
0.0
 17
0.0
 27
1.0
 37
0.0
 76
     0
330
23
  0
LAYOUT
  5
22
102
{ACAD_REACTORS
330
1A
102
}
330
1A
100
AcDbPlotSettings
  1

  2
none_device
  4

  6

 40
0.0
 41
0.0
 42
0.0
 43
0.0
 44
0.0
 45
0.0
 46
0.0
 47
0.0
 48
0.0
 49
0.0
140
0.0
141
0.0
142
1.0
143
1.0
 70
  1712
 72
     0
 73
     0
 74
     0
  7

 75
     0
 76
     0
 77
     5
 78
   300
147
1.0
148
0.0
149
0.0
100
AcDbLayout
  1
Model
 70
     1
 71
     0
 10
-840.0
 20
-594.0
 11
840.0
 21
594.0
 12
0.0
 22
0.0
 32
0.0
 14
-840.0
 24
-594.0
 34
0.0
 15
840.0
 25
594.0
 35
0.0
146
0.0
 13
0.0
 23
0.0
 33
0.0
 16
1.0
 26
0.0
 36
0.0
 17
0.0
 27
1.0
 37
0.0
 76
     0
330
1F
331
29
  0
MLINESTYLE
  5
18
102
{ACAD_REACTORS
330
17
102
}
330
17
100
AcDbMlineStyle
  2
Standard
 70
     0
  3

 62
   256
 51
90.0
 52
90.0
 71
     2
 49
0.5
 62
   256
  6
BYLAYER
 49
-0.5
 62
   256
  6
BYLAYER
  0
ACDBPLACEHOLDER
  5
F
102
{ACAD_REACTORS
330
E
102
}
330
E
  0
VISUALSTYLE
  5
2F
102
{ACAD_REACTORS
330
2A
102
}
330
2A
100
AcDbVisualStyle
  2
2dWireframe
 70
     4
 71
     0
 72
     2
 73
     0
 90
        0
 40
-0.6
 41
-30.0
 62
     5
 63
     7
421
 16777215
 74
     1
 91
        4
 64
     7
 65
   257
 75
     1
175
     1
 42
1.0
 92
        0
 66
   257
 43
1.0
 76
     1
 77
     6
 78
     2
 67
     7
 79
     5
170
     0
171
     0
290
     0
174
     0
 93
        1
 44
0.0
173
     0
291
     0
 45
0.0
1001
ACAD
1000
AcDbSavedByObjectVersion
1070
     0
  0
VISUALSTYLE
  5
31
102
{ACAD_REACTORS
330
2A
102
}
330
2A
100
AcDbVisualStyle
  2
3D Hidden
 70
     6
 71
     1
 72
     2
 73
     2
 90
        0
 40
-0.6
 41
-30.0
 62
     5
 63
     7
421
 16777215
 74
     2
 91
        2
 64
     7
 65
   257
 75
     2
175
     1
 42
40.0
 92
        0
 66
   257
 43
1.0
 76
     1
 77
     6
 78
     2
 67
     7
 79
     3
170
     0
171
     0
290
     0
174
     0
 93
        1
 44
0.0
173
     0
291
     0
 45
0.0
1001
ACAD
1000
AcDbSavedByObjectVersion
1070
     0
  0
VISUALSTYLE
  5
30
102
{ACAD_REACTORS
330
2A
102
}
330
2A
100
AcDbVisualStyle
  2
3dWireframe
 70
     5
 71
     0
 72
     2
 73
     0
 90
        0
 40
-0.6
 41
-30.0
 62
     5
 63
     7
421
 16777215
 74
     1
 91
        4
 64
     7
 65
   257
 75
     1
175
     1
 42
1.0
 92
        0
 66
   257
 43
1.0
 76
     1
 77
     6
 78
     2
 67
     7
 79
     5
170
     0
171
     0
290
     0
174
     0
 93
        1
 44
0.0
173
     0
291
     0
 45
0.0
1001
ACAD
1000
AcDbSavedByObjectVersion
1070
     0
  0
VISUALSTYLE
  5
32
102
{ACAD_REACTORS
330
2A
102
}
330
2A
100
AcDbVisualStyle
  2
Basic
 70
     7
 71
     1
 72
     0
 73
     1
 90
        0
 40
-0.6
 41
-30.0
 62
     5
 63
     7
421
 16777215
 74
     0
 91
        4
 64
     7
 65
   257
 75
     1
175
     1
 42
1.0
 92
        8
 66
     7
 43
1.0
 76
     1
 77
     6
 78
     2
 67
     7
 79
     5
170
     0
171
     0
290
     0
174
     0
 93
        1
 44
0.0
173
     0
291
     1
 45
0.0
1001
ACAD
1000
AcDbSavedByObjectVersion
1070
     0
  0
VISUALSTYLE
  5
36
102
{ACAD_REACTORS
330
2A
102
}
330
2A
100
AcDbVisualStyle
  2
Brighten
 70
    12
 71
     2
 72
     2
 73
     0
 90
        0
 40
-0.6
 41
-30.0
 62
     5
 63
     7
421
 16777215
 74
     1
 91
        4
 64
     7
 65
   257
 75
     1
175
     1
 42
1.0
 92
        8
 66
     7
 43
1.0
 76
     1
 77
     6
 78
     2
 67
     7
 79
     5
170
     0
171
     0
290
     0
174
     0
 93
        1
 44
50.0
173
     0
291
     1
 45
0.0
1001
ACAD
1000
AcDbSavedByObjectVersion
1070
     0
  0
VISUALSTYLE
  5
3A
102
{ACAD_REACTORS
330
2A
102
}
330
2A
100
AcDbVisualStyle
  2
ColorChange
 70
    16
 71
     2
 72
     2
 73
     3
 90
        0
 40
-0.6
 41
-30.0
 62
     5
 63
     8
421
  8421504
 74
     1
 91
        4
 64
     7
 65
   257
 75
     1
175
     1
 42
1.0
 92
        8
 66
     8
424
  8421504
 43
1.0
 76
     1
 77
     6
 78
     2
 67
     7
 79
     5
170
     0
171
     0
290
     0
174
     0
 93
        1
 44
0.0
173
     0
291
     1
 45
0.0
1001
ACAD
1000
AcDbSavedByObjectVersion
1070
     0
  0
VISUALSTYLE
  5
34
102
{ACAD_REACTORS
330
2A
102
}
330
2A
100
AcDbVisualStyle
  2
Conceptual
 70
     9
 71
     3
 72
     2
 73
     0
 90
        0
 40
-0.6
 41
-30.0
 62
     5
 63
     7
421
 16777215
 74
     2
 91
        2
 64
     7
 65
   257
 75
     1
175
     1
 42
40.0
 92
        8
 66
     7
 43
1.0
 76
     1
 77
     6
 78
     2
 67
     7
 79
     3
170
     0
171
     0
290
     0
174
     0
 93
        1
 44
0.0
173
     0
291
     0
 45
0.0
1001
ACAD
1000
AcDbSavedByObjectVersion
1070
     0
  0
VISUALSTYLE
  5
35
102
{ACAD_REACTORS
330
2A
102
}
330
2A
100
AcDbVisualStyle
  2
Dim
 70
    11
 71
     2
 72
     2
 73
     0
 90
        0
 40
-0.6
 41
-30.0
 62
     5
 63
     7
421
 16777215
 74
     1
 91
        4
 64
     7
 65
   257
 75
     1
175
     1
 42
1.0
 92
        8
 66
     7
 43
1.0
 76
     1
 77
     6
 78
     2
 67
     7
 79
     5
170
     0
171
     0
290
     0
174
     0
 93
        1
 44
-50.0
173
     0
291
     1
 45
0.0
1001
ACAD
1000
AcDbSavedByObjectVersion
1070
     0
  0
VISUALSTYLE
  5
39
102
{ACAD_REACTORS
330
2A
102
}
330
2A
100
AcDbVisualStyle
  2
Facepattern
 70
    15
 71
     2
 72
     2
 73
     0
 90
        0
 40
-0.6
 41
-30.0
 62
     5
 63
     7
421
 16777215
 74
     1
 91
        4
 64
     7
 65
   257
 75
     1
175
     1
 42
1.0
 92
        8
 66
     7
 43
1.0
 76
     1
 77
     6
 78
     2
 67
     7
 79
     5
170
     0
171
     0
290
     0
174
     0
 93
        1
 44
0.0
173
     0
291
     1
 45
0.0
1001
ACAD
1000
AcDbSavedByObjectVersion
1070
     0
  0
VISUALSTYLE
  5
2B
102
{ACAD_REACTORS
330
2A
102
}
330
2A
100
AcDbVisualStyle
  2
Flat
 70
     0
 71
     2
 72
     1
 73
     1
 90
        2
 40
-0.6
 41
30.0
 62
     5
 63
     7
421
 16777215
 74
     0
 91
        4
 64
     7
 65
   257
 75
     1
175
     1
 42
1.0
 92
        8
 66
     7
 43
1.0
 76
     1
 77
     6
 78
     2
 67
     7
 79
     5
170
     0
171
     0
290
     0
174
     0
 93
       13
 44
0.0
173
     0
291
     1
 45
0.0
1001
ACAD
1000
AcDbSavedByObjectVersion
1070
     0
  0
VISUALSTYLE
  5
2C
102
{ACAD_REACTORS
330
2A
102
}
330
2A
100
AcDbVisualStyle
  2
FlatWithEdges
 70
     1
 71
     2
 72
     1
 73
     1
 90
        2
 40
-0.6
 41
30.0
 62
     5
 63
     7
421
 16777215
 74
     1
 91
        4
 64
     7
 65
   257
 75
     1
175
     1
 42
1.0
 92
        0
 66
   257
 43
1.0
 76
     1
 77
     6
 78
     2
 67
     7
 79
     5
170
     0
171
     0
290
     0
174
     0
 93
       13
 44
0.0
173
     0
291
     1
 45
0.0
1001
ACAD
1000
AcDbSavedByObjectVersion
1070
     0
  0
VISUALSTYLE
  5
2D
102
{ACAD_REACTORS
330
2A
102
}
330
2A
100
AcDbVisualStyle
  2
Gouraud
 70
     2
 71
     2
 72
     2
 73
     1
 90
        2
 40
-0.6
 41
30.0
 62
     5
 63
     7
421
 16777215
 74
     0
 91
        4
 64
     7
 65
   257
 75
     1
175
     1
 42
1.0
 92
        0
 66
     7
 43
1.0
 76
     1
 77
     6
 78
     2
 67
     7
 79
     5
170
     0
171
     0
290
     0
174
     0
 93
       13
 44
0.0
173
     0
291
     1
 45
0.0
1001
ACAD
1000
AcDbSavedByObjectVersion
1070
     0
  0
VISUALSTYLE
  5
2E
102
{ACAD_REACTORS
330
2A
102
}
330
2A
100
AcDbVisualStyle
  2
GouraudWithEdges
 70
     3
 71
     2
 72
     2
 73
     1
 90
        2
 40
-0.6
 41
30.0
 62
     5
 63
     7
421
 16777215
 74
     1
 91
        4
 64
     7
 65
   257
 75
     1
175
     1
 42
1.0
 92
        0
 66
   257
 43
1.0
 76
     1
 77
     6
 78
     2
 67
     7
 79
     5
170
     0
171
     0
290
     0
174
     0
 93
       13
 44
0.0
173
     0
291
     1
 45
0.0
1001
ACAD
1000
AcDbSavedByObjectVersion
1070
     0
  0
VISUALSTYLE
  5
38
102
{ACAD_REACTORS
330
2A
102
}
330
2A
100
AcDbVisualStyle
  2
Linepattern
 70
    14
 71
     2
 72
     2
 73
     0
 90
        0
 40
-0.6
 41
-30.0
 62
     5
 63
     7
421
 16777215
 74
     1
 91
        4
 64
     7
 65
   257
 75
     7
175
     7
 42
1.0
 92
        8
 66
     7
 43
1.0
 76
     1
 77
     6
 78
     2
 67
     7
 79
     5
170
     0
171
     0
290
     0
174
     0
 93
        1
 44
0.0
173
     0
291
     1
 45
0.0
1001
ACAD
1000
AcDbSavedByObjectVersion
1070
     0
  0
VISUALSTYLE
  5
33
102
{ACAD_REACTORS
330
2A
102
}
330
2A
100
AcDbVisualStyle
  2
Realistic
 70
     8
 71
     2
 72
     2
 73
     0
 90
        0
 40
-0.6
 41
-30.0
 62
     5
 63
     7
421
 16777215
 74
     1
 91
        0
 64
     7
 65
   257
 75
     1
175
     1
 42
1.0
 92
        8
 66
     8
424
  7895160
 43
1.0
 76
     1
 77
     6
 78
     2
 67
     7
 79
     5
170
     0
171
     0
290
     0
174
     0
 93
       13
 44
0.0
173
     0
291
     0
 45
0.0
1001
ACAD
1000
AcDbSavedByObjectVersion
1070
     0
  0
VISUALSTYLE
  5
37
102
{ACAD_REACTORS
330
2A
102
}
330
2A
100
AcDbVisualStyle
  2
Thicken
 70
    13
 71
     2
 72
     2
 73
     0
 90
        0
 40
-0.6
 41
-30.0
 62
     5
 63
     7
421
 16777215
 74
     1
 91
        4
 64
     7
 65
   257
 75
     1
175
     1
 42
1.0
 92
       12
 66
     7
 43
1.0
 76
     1
 77
     6
 78
     2
 67
     7
 79
     5
170
     0
171
     0
290
     0
174
     0
 93
        1
 44
0.0
173
     0
291
     1
 45
0.0
1001
ACAD
1000
AcDbSavedByObjectVersion
1070
     0
  0
ENDSEC
  0
EOF
