  0
SECTION
  2
HEADER
  9
$ACADVER
  1
AC1018
  9
$ACADMAINTVER
 70
     0
  9
$DWGCODEPAGE
  3
ANSI_932
  9
$INSBASE
 10
0.0
 20
0.0
 30
0.0
  9
$EXTMIN
 10
-1050.0
 20
-742.5
 30
0.0
  9
$EXTMAX
 10
1050.0
 20
742.5
 30
0.0
  9
$LIMMIN
 10
-1050.0
 20
-742.5
  9
$LIMMAX
 10
1050.0
 20
742.5
  9
$ORTHOMODE
 70
     0
  9
$REGENMODE
 70
     1
  9
$FILLMODE
 70
     1
  9
$QTEXTMODE
 70
     0
  9
$MIRRTEXT
 70
     1
  9
$LTSCALE
 40
5.0
  9
$ATTMODE
 70
     1
  9
$TEXTSIZE
 40
2.5
  9
$TRACEWID
 40
1.0
  9
$TEXTSTYLE
  7
Standard
  9
$CLAYER
  8
0
  9
$CELTYPE
  6
ByLayer
  9
$CECOLOR
 62
   256
  9
$CELTSCALE
 40
1.0
  9
$DISPSILH
 70
     0
  9
$DIMSCALE
 40
1.0
  9
$DIMASZ
 40
2.5
  9
$DIMEXO
 40
0.625
  9
$DIMDLI
 40
3.75
  9
$DIMRND
 40
0.0
  9
$DIMDLE
 40
0.0
  9
$DIMEXE
 40
1.25
  9
$DIMTP
 40
0.0
  9
$DIMTM
 40
0.0
  9
$DIMTXT
 40
2.5
  9
$DIMCEN
 40
2.5
  9
$DIMTSZ
 40
0.0
  9
$DIMTOL
 70
     0
  9
$DIMLIM
 70
     0
  9
$DIMTIH
 70
     0
  9
$DIMTOH
 70
     0
  9
$DIMSE1
 70
     0
  9
$DIMSE2
 70
     0
  9
$DIMTAD
 70
     1
  9
$DIMZIN
 70
     8
  9
$DIMBLK
  1

  9
$DIMASO
 70
     1
  9
$DIMSHO
 70
     1
  9
$DIMPOST
  1

  9
$DIMAPOST
  1

  9
$DIMALT
 70
     0
  9
$DIMALTD
 70
     3
  9
$DIMALTF
 40
0.03937007874016
  9
$DIMLFAC
 40
1.0
  9
$DIMTOFL
 70
     1
  9
$DIMTVP
 40
0.0
  9
$DIMTIX
 70
     0
  9
$DIMSOXD
 70
     0
  9
$DIMSAH
 70
     0
  9
$DIMBLK1
  1

  9
$DIMBLK2
  1

  9
$DIMSTYLE
  2
ISO-25
  9
$DIMCLRD
 70
     0
  9
$DIMCLRE
 70
     0
  9
$DIMCLRT
 70
     0
  9
$DIMTFAC
 40
1.0
  9
$DIMGAP
 40
0.625
  9
$DIMJUST
 70
     0
  9
$DIMSD1
 70
     0
  9
$DIMSD2
 70
     0
  9
$DIMTOLJ
 70
     0
  9
$DIMTZIN
 70
     8
  9
$DIMALTZ
 70
     0
  9
$DIMALTTZ
 70
     0
  9
$DIMUPT
 70
     0
  9
$DIMDEC
 70
     2
  9
$DIMTDEC
 70
     2
  9
$DIMALTU
 70
     2
  9
$DIMALTTD
 70
     3
  9
$DIMTXSTY
  7
Standard
  9
$DIMAUNIT
 70
     0
  9
$DIMADEC
 70
     0
  9
$DIMALTRND
 40
0.0
  9
$DIMAZIN
 70
     0
  9
$DIMDSEP
 70
    44
  9
$DIMATFIT
 70
     3
  9
$DIMFRAC
 70
     0
  9
$DIMLDRBLK
  1

  9
$DIMLUNIT
 70
     2
  9
$DIMLWD
 70
    -2
  9
$DIMLWE
 70
    -2
  9
$DIMTMOVE
 70
     0
  9
$LUNITS
 70
     2
  9
$LUPREC
 70
     4
  9
$SKETCHINC
 40
1.0
  9
$FILLETRAD
 40
10.0
  9
$AUNITS
 70
     0
  9
$AUPREC
 70
     0
  9
$MENU
  1
.
  9
$ELEVATION
 40
0.0
  9
$PELEVATION
 40
0.0
  9
$THICKNESS
 40
0.0
  9
$LIMCHECK
 70
     0
  9
$CHAMFERA
 40
10.0
  9
$CHAMFERB
 40
10.0
  9
$CHAMFERC
 40
20.0
  9
$CHAMFERD
 40
0.0
  9
$SKPOLY
 70
     0
  9
$TDCREATE
 40
2457529.699807674
  9
$TDUCREATE
 40
2457529.324807674
  9
$TDUPDATE
 40
2457529.699807685
  9
$TDUUPDATE
 40
2457529.324807685
  9
$TDINDWG
 40
0.0000000116
  9
$TDUSRTIMER
 40
0.0000000116
  9
$USRTIMER
 70
     1
  9
$ANGBASE
 50
0.0
  9
$ANGDIR
 70
     0
  9
$PDMODE
 70
     0
  9
$PDSIZE
 40
0.0
  9
$PLINEWID
 40
0.0
  9
$SPLFRAME
 70
     0
  9
$SPLINETYPE
 70
     6
  9
$SPLINESEGS
 70
     8
  9
$HANDSEED
  5
2CA
  9
$SURFTAB1
 70
     6
  9
$SURFTAB2
 70
     6
  9
$SURFTYPE
 70
     6
  9
$SURFU
 70
     6
  9
$SURFV
 70
     6
  9
$UCSBASE
  2

  9
$UCSNAME
  2

  9
$UCSORG
 10
0.0
 20
0.0
 30
0.0
  9
$UCSXDIR
 10
1.0
 20
0.0
 30
0.0
  9
$UCSYDIR
 10
0.0
 20
1.0
 30
0.0
  9
$UCSORTHOREF
  2

  9
$UCSORTHOVIEW
 70
     0
  9
$UCSORGTOP
 10
0.0
 20
0.0
 30
0.0
  9
$UCSORGBOTTOM
 10
0.0
 20
0.0
 30
0.0
  9
$UCSORGLEFT
 10
0.0
 20
0.0
 30
0.0
  9
$UCSORGRIGHT
 10
0.0
 20
0.0
 30
0.0
  9
$UCSORGFRONT
 10
0.0
 20
0.0
 30
0.0
  9
$UCSORGBACK
 10
0.0
 20
0.0
 30
0.0
  9
$PUCSBASE
  2

  9
$PUCSNAME
  2

  9
$PUCSORG
 10
0.0
 20
0.0
 30
0.0
  9
$PUCSXDIR
 10
1.0
 20
0.0
 30
0.0
  9
$PUCSYDIR
 10
0.0
 20
1.0
 30
0.0
  9
$PUCSORTHOREF
  2

  9
$PUCSORTHOVIEW
 70
     0
  9
$PUCSORGTOP
 10
0.0
 20
0.0
 30
0.0
  9
$PUCSORGBOTTOM
 10
0.0
 20
0.0
 30
0.0
  9
$PUCSORGLEFT
 10
0.0
 20
0.0
 30
0.0
  9
$PUCSORGRIGHT
 10
0.0
 20
0.0
 30
0.0
  9
$PUCSORGFRONT
 10
0.0
 20
0.0
 30
0.0
  9
$PUCSORGBACK
 10
0.0
 20
0.0
 30
0.0
  9
$USERI1
 70
     0
  9
$USERI2
 70
     0
  9
$USERI3
 70
     0
  9
$USERI4
 70
     0
  9
$USERI5
 70
     0
  9
$USERR1
 40
0.0
  9
$USERR2
 40
0.0
  9
$USERR3
 40
0.0
  9
$USERR4
 40
0.0
  9
$USERR5
 40
0.0
  9
$WORLDVIEW
 70
     1
  9
$SHADEDGE
 70
     3
  9
$SHADEDIF
 70
    70
  9
$TILEMODE
 70
     1
  9
$MAXACTVP
 70
    64
  9
$PINSBASE
 10
0.0
 20
0.0
 30
0.0
  9
$PLIMCHECK
 70
     0
  9
$PEXTMIN
 10
1.000000000000000E+20
 20
1.000000000000000E+20
 30
1.000000000000000E+20
  9
$PEXTMAX
 10
-1.000000000000000E+20
 20
-1.000000000000000E+20
 30
-1.000000000000000E+20
  9
$PLIMMIN
 10
0.0
 20
0.0
  9
$PLIMMAX
 10
420.0
 20
297.0
  9
$UNITMODE
 70
     0
  9
$VISRETAIN
 70
     1
  9
$PLINEGEN
 70
     0
  9
$PSLTSCALE
 70
     1
  9
$TREEDEPTH
 70
  3020
  9
$CMLSTYLE
  2
Standard
  9
$CMLJUST
 70
     0
  9
$CMLSCALE
 40
20.0
  9
$PROXYGRAPHICS
 70
     1
  9
$MEASUREMENT
 70
     1
  9
$CELWEIGHT
370
    -1
  9
$ENDCAPS
280
     0
  9
$JOINSTYLE
280
     0
  9
$LWDISPLAY
290
     0
  9
$INSUNITS
 70
     4
  9
$HYPERLINKBASE
  1

  9
$STYLESHEET
  1

  9
$XEDIT
290
     1
  9
$CEPSNTYPE
380
     0
  9
$PSTYLEMODE
290
     1
  9
$FINGERPRINTGUID
  2
{5D67C7A5-DAD0-478E-B746-512B979DDDC8}
  9
$VERSIONGUID
  2
{FAEB1C32-E019-11D5-929B-00C0DF256EC4}
  9
$EXTNAMES
290
     1
  9
$PSVPSCALE
 40
0.0
  9
$OLESTARTUP
290
     0
  9
$SORTENTS
280
   127
  9
$INDEXCTL
280
     0
  9
$HIDETEXT
280
     1
  9
$XCLIPFRAME
290
     0
  9
$HALOGAP
280
     0
  9
$OBSCOLOR
 70
   257
  9
$OBSLTYPE
280
     0
  9
$INTERSECTIONDISPLAY
280
     0
  9
$INTERSECTIONCOLOR
 70
   257
  9
$DIMASSOC
280
     2
  9
$PROJECTNAME
  1

  0
ENDSEC
  0
SECTION
  2
CLASSES
  0
CLASS
  1
ACDBDICTIONARYWDFLT
  2
AcDbDictionaryWithDefault
  3
ObjectDBX Classes
 90
        0
 91
        4
280
     0
281
     0
  0
CLASS
  1
VISUALSTYLE
  2
AcDbVisualStyle
  3
ObjectDBX Classes
 90
     4095
 91
        4
280
     0
281
     0
  0
ENDSEC
  0
SECTION
  2
TABLES
  0
TABLE
  2
VPORT
  5
8
330
0
100
AcDbSymbolTable
 70
     1
  0
VPORT
  5
29
330
8
100
AcDbSymbolTableRecord
100
AcDbViewportTableRecord
  2
*Active
 70
     0
 10
0.0
 20
0.0
 11
1.0
 21
1.0
 12
0.0
 22
0.0
 13
0.0
 23
0.0
 14
10.0
 24
10.0
 15
10.0
 25
10.0
 16
0.0
 26
0.0
 36
1.0
 17
0.0
 27
0.0
 37
0.0
 40
1633.5
 41
1.414141414141414
 42
50.0
 43
0.0
 44
0.0
 50
0.0
 51
0.0
 71
     0
 72
 10000
 73
     1
 74
     3
 75
     0
 76
     0
 77
     0
 78
     0
281
     0
 65
     1
110
0.0
120
0.0
130
0.0
111
1.0
121
0.0
131
0.0
112
0.0
122
1.0
132
0.0
 79
     0
146
0.0
  0
ENDTAB
  0
TABLE
  2
LTYPE
  5
5
330
0
100
AcDbSymbolTable
 70
     3
  0
LTYPE
  5
14
330
5
100
AcDbSymbolTableRecord
100
AcDbLinetypeTableRecord
  2
ByBlock
 70
     0
  3

 72
    65
 73
     0
 40
0.0
  0
LTYPE
  5
15
330
5
100
AcDbSymbolTableRecord
100
AcDbLinetypeTableRecord
  2
ByLayer
 70
     0
  3

 72
    65
 73
     0
 40
0.0
  0
LTYPE
  5
16
330
5
100
AcDbSymbolTableRecord
100
AcDbLinetypeTableRecord
  2
Continuous
 70
     0
  3
Solid line
 72
    65
 73
     0
 40
0.0
  0
LTYPE
  5
3C
330
5
100
AcDbSymbolTableRecord
100
AcDbLinetypeTableRecord
  2
JWW_CENTER1
 70
     0
  3
-----  --  ----------  --  -----
 72
    65
 73
     4
 40
6.773333333333333
 49
4.233333333333333
 74
     0
 49
-0.8466666666666667
 74
     0
 49
0.8466666666666667
 74
     0
 49
-0.8466666666666667
 74
     0
  0
LTYPE
  5
3D
330
5
100
AcDbSymbolTableRecord
100
AcDbLinetypeTableRecord
  2
JWW_DASHED3
 70
     0
  3
---  ------  ------  ------  ---
 72
    65
 73
     2
 40
3.386666666666667
 49
2.54
 74
     0
 49
-0.8466666666666667
 74
     0
  0
ENDTAB
  0
TABLE
  2
LAYER
  5
2
330
0
100
AcDbSymbolTable
 70
     6
  0
LAYER
  5
10
330
2
100
AcDbSymbolTableRecord
100
AcDbLayerTableRecord
  2
0
 70
     0
 62
     7
  6
Continuous
370
    -3
390
F
  0
LAYER
  5
3E
330
2
100
AcDbSymbolTableRecord
100
AcDbLayerTableRecord
  2
F-5ﾚｲﾔ
 70
     0
 62
     7
  6
Continuous
370
    -3
390
F
  0
LAYER
  5
3F
330
2
100
AcDbSymbolTableRecord
100
AcDbLayerTableRecord
  2
0-E
 70
     0
 62
     7
  6
Continuous
370
    -3
390
F
  0
LAYER
  5
40
330
2
100
AcDbSymbolTableRecord
100
AcDbLayerTableRecord
  2
0-F
 70
     0
 62
     7
  6
Continuous
370
    -3
390
F
  0
LAYER
  5
41
330
2
100
AcDbSymbolTableRecord
100
AcDbLayerTableRecord
  2
0-1
 70
     0
 62
     7
  6
Continuous
370
    -3
390
F
  0
LAYER
  5
42
330
2
100
AcDbSymbolTableRecord
100
AcDbLayerTableRecord
  2
0-0
 70
     0
 62
     7
  6
Continuous
370
    -3
390
F
  0
ENDTAB
  0
TABLE
  2
STYLE
  5
3
330
0
100
AcDbSymbolTable
 70
     2
  0
STYLE
  5
11
330
3
100
AcDbSymbolTableRecord
100
AcDbTextStyleTableRecord
  2
Standard
 70
     0
 40
0.0
 41
1.0
 50
0.0
 71
     0
 42
2.5
  3
txt
  4

1001
ACAD
1000

1071
        0
  0
STYLE
  5
3B
330
3
100
AcDbSymbolTableRecord
100
AcDbTextStyleTableRecord
  2
ＭＳ ゴシック
 70
     0
 40
1.0
 41
1.0
 50
0.0
 71
     0
 42
10.0
  3

  4

1001
ACAD
1000
MS Gothic
1071
    32817
  0
ENDTAB
  0
TABLE
  2
VIEW
  5
6
330
0
100
AcDbSymbolTable
 70
     0
  0
ENDTAB
  0
TABLE
  2
UCS
  5
7
330
0
100
AcDbSymbolTable
 70
     0
  0
ENDTAB
  0
TABLE
  2
APPID
  5
9
330
0
100
AcDbSymbolTable
 70
     1
  0
APPID
  5
12
330
9
100
AcDbSymbolTableRecord
100
AcDbRegAppTableRecord
  2
ACAD
 70
     0
  0
ENDTAB
  0
TABLE
  2
DIMSTYLE
  5
A
330
0
100
AcDbSymbolTable
 70
     1
100
AcDbDimStyleTable
  0
DIMSTYLE
105
27
330
A
100
AcDbSymbolTableRecord
100
AcDbDimStyleTableRecord
  2
ISO-25
 70
     0
 41
2.5
 42
0.625
 43
3.75
 44
1.25
 73
     0
 74
     0
 77
     1
 78
     8
140
2.5
141
2.5
143
0.03937007874016
147
0.625
171
     3
172
     1
271
     2
272
     2
274
     3
278
    44
283
     0
284
     8
340
11
  0
ENDTAB
  0
TABLE
  2
BLOCK_RECORD
  5
1
330
0
100
AcDbSymbolTable
 70
     1
  0
BLOCK_RECORD
  5
1F
330
1
100
AcDbSymbolTableRecord
100
AcDbBlockTableRecord
  2
*Model_Space
340
22
  0
BLOCK_RECORD
  5
1B
330
1
100
AcDbSymbolTableRecord
100
AcDbBlockTableRecord
  2
*Paper_Space
340
1E
  0
BLOCK_RECORD
  5
23
330
1
100
AcDbSymbolTableRecord
100
AcDbBlockTableRecord
  2
*Paper_Space0
340
26
  0
ENDTAB
  0
ENDSEC
  0
SECTION
  2
BLOCKS
  0
BLOCK
  5
20
330
1F
100
AcDbEntity
  8
0
100
AcDbBlockBegin
  2
*Model_Space
 70
     0
 10
0.0
 20
0.0
 30
0.0
  3
*Model_Space
  1

  0
ENDBLK
  5
21
330
1F
100
AcDbEntity
  8
0
100
AcDbBlockEnd
  0
BLOCK
  5
1C
330
1B
100
AcDbEntity
 67
     1
  8
0
100
AcDbBlockBegin
  2
*Paper_Space
 70
     0
 10
0.0
 20
0.0
 30
0.0
  3
*Paper_Space
  1

  0
ENDBLK
  5
1D
330
1B
100
AcDbEntity
 67
     1
  8
0
100
AcDbBlockEnd
  0
BLOCK
  5
24
330
23
100
AcDbEntity
  8
0
100
AcDbBlockBegin
  2
*Paper_Space0
 70
     0
 10
0.0
 20
0.0
 30
0.0
  3
*Paper_Space0
  1

  0
ENDBLK
  5
25
330
23
100
AcDbEntity
  8
0
100
AcDbBlockEnd
  0
ENDSEC
  0
SECTION
  2
ENTITIES
  0
TEXT
  5
43
330
1F
100
AcDbEntity
  8
F-5ﾚｲﾔ
  6
Continuous
 62
     3
370
     9
100
AcDbText
 10
-422.5308056646456
 20
-660.3616293644928
 30
0.0
 40
15.24
  1
タイル用　充填深さ40㎜　鋳鉄製　集水桝用
 41
0.9462499999999997
  7
ＭＳ ゴシック
100
AcDbText
  0
LINE
  5
44
330
1F
100
AcDbEntity
  8
0-E
  6
Continuous
 62
     7
370
     9
100
AcDbLine
 10
430.8535859391498
 20
539.4122314453127
 30
0.0
 11
419.6796984285928
 21
549.4194401921454
 31
0.0
  0
LINE
  5
45
330
1F
100
AcDbEntity
  8
0-E
  6
Continuous
 62
     7
370
     9
100
AcDbLine
 10
430.8535859391498
 20
539.4122314453127
 30
0.0
 11
422.6504609391498
 21
551.9705447635138
 31
0.0
  0
LINE
  5
46
330
1F
100
AcDbEntity
  8
0-E
  6
Continuous
 62
     7
370
     9
100
AcDbLine
 10
483.8618768228073
 20
568.4121786581505
 30
0.0
 11
489.7356033325198
 21
582.2143719647383
 31
0.0
  0
LINE
  5
47
330
1F
100
AcDbEntity
  8
0-E
  6
Continuous
 62
     7
370
     9
100
AcDbLine
 10
483.8618768228073
 20
568.4121786581505
 30
0.0
 11
493.1077132353914
 21
580.2237185916388
 31
0.0
  0
LINE
  5
48
330
1F
100
AcDbEntity
  8
0-E
  6
Continuous
 62
     7
370
     9
100
AcDbLine
 10
356.3088752127982
 20
626.2237713788008
 30
0.0
 11
430.8535859391498
 21
539.4122314453127
 31
0.0
  0
LINE
  5
49
330
1F
100
AcDbEntity
  8
0-F
  6
Continuous
 62
     7
370
     9
100
AcDbLine
 10
-778.3379374323664
 20
597.8931488861912
 30
0.0
 11
-678.3379168123813
 21
597.8931488861912
 31
0.0
  0
LINE
  5
4A
330
1F
100
AcDbEntity
  8
0-F
  6
Continuous
 62
     7
370
     9
100
AcDbLine
 10
-778.3379374323664
 20
597.8931488861912
 30
0.0
 11
-763.4663092123496
 21
599.8510164827917
 31
0.0
  0
LINE
  5
4B
330
1F
100
AcDbEntity
  8
0-F
  6
Continuous
 62
     7
370
     9
100
AcDbLine
 10
-778.3379374323664
 20
597.8931488861912
 30
0.0
 11
-763.4663092123496
 21
595.9352812895906
 31
0.0
  0
LINE
  5
4C
330
1F
100
AcDbEntity
  8
0-F
  6
Continuous
 62
     7
370
     9
100
AcDbLine
 10
-678.3379168123813
 20
597.8931488861912
 30
0.0
 11
-693.2095450323981
 21
599.8510164827917
 31
0.0
  0
LINE
  5
4D
330
1F
100
AcDbEntity
  8
0-F
  6
Continuous
 62
     7
370
     9
100
AcDbLine
 10
-678.3379168123813
 20
597.8931488861912
 30
0.0
 11
-693.2095450323981
 21
595.9352812895906
 31
0.0
  0
LINE
  5
4E
330
1F
100
AcDbEntity
  8
0-F
  6
Continuous
 62
     7
370
     9
100
AcDbLine
 10
-178.3379374323664
 20
597.8931488861912
 30
0.0
 11
-78.3379786723367
 21
597.8931488861912
 31
0.0
  0
LINE
  5
4F
330
1F
100
AcDbEntity
  8
0-F
  6
Continuous
 62
     7
370
     9
100
AcDbLine
 10
-178.3379374323664
 20
597.8931488861912
 30
0.0
 11
-163.4662473523939
 21
599.8510164827917
 31
0.0
  0
LINE
  5
50
330
1F
100
AcDbEntity
  8
0-F
  6
Continuous
 62
     7
370
     9
100
AcDbLine
 10
-178.3379374323664
 20
597.8931488861912
 30
0.0
 11
-163.4662473523939
 21
595.9352812895906
 31
0.0
  0
LINE
  5
51
330
1F
100
AcDbEntity
  8
0-F
  6
Continuous
 62
     7
370
     9
100
AcDbLine
 10
-78.3379786723367
 20
597.8931488861912
 30
0.0
 11
-93.20960689235378
 21
599.8510164827917
 31
0.0
  0
LINE
  5
52
330
1F
100
AcDbEntity
  8
0-F
  6
Continuous
 62
     7
370
     9
100
AcDbLine
 10
-78.3379786723367
 20
597.8931488861912
 30
0.0
 11
-93.20960689235378
 21
595.9352812895906
 31
0.0
  0
LINE
  5
53
330
1F
100
AcDbEntity
  8
0-F
  6
Continuous
 62
     7
370
     9
100
AcDbLine
 10
-778.3379374323664
 20
544.412247941301
 30
0.0
 11
-778.3379374323664
 21
599.3931290910052
 31
0.0
  0
LINE
  5
54
330
1F
100
AcDbEntity
  8
0-F
  6
Continuous
 62
     7
370
     9
100
AcDbLine
 10
-78.3379786723367
 20
544.412247941301
 30
0.0
 11
-78.3379786723367
 21
599.3931290910052
 31
0.0
  0
LINE
  5
55
330
1F
100
AcDbEntity
  8
0-F
  6
Continuous
 62
     7
370
     9
100
AcDbLine
 10
-775.1380456460488
 20
-396.2168760557431
 30
0.0
 11
-775.1380456460488
 21
-306.3619500237542
 31
0.0
  0
LINE
  5
56
330
1F
100
AcDbEntity
  8
0-F
  6
Continuous
 62
     7
370
     9
100
AcDbLine
 10
-778.3379374323664
 20
-396.2168760557431
 30
0.0
 11
-778.3379374323664
 21
-264.0995994774069
 31
0.0
  0
LINE
  5
57
330
1F
100
AcDbEntity
  8
0-F
  6
Continuous
 62
     7
370
     9
100
AcDbLine
 10
-778.3379374323664
 20
-307.8619302285682
 30
0.0
 11
-793.209813092206
 21
-305.9041863518792
 31
0.0
  0
LINE
  5
58
330
1F
100
AcDbEntity
  8
0-F
  6
Continuous
 62
     7
370
     9
100
AcDbLine
 10
-778.3379374323664
 20
-307.8619302285682
 30
0.0
 11
-793.209813092206
 21
-309.8196741052574
 31
0.0
  0
LINE
  5
59
330
1F
100
AcDbEntity
  8
0-F
  6
Continuous
 62
     7
370
     9
100
AcDbLine
 10
-773.337982796334
 20
-396.2168760557431
 30
0.0
 11
-773.337982796334
 21
-306.3619500237542
 31
0.0
  0
LINE
  5
5A
330
1F
100
AcDbEntity
  8
0-F
  6
Continuous
 62
     7
370
     9
100
AcDbLine
 10
-773.337982796334
 20
-307.8619302285682
 30
0.0
 11
-758.466354576317
 21
-305.9041863518792
 31
0.0
  0
LINE
  5
5B
330
1F
100
AcDbEntity
  8
0-F
  6
Continuous
 62
     7
370
     9
100
AcDbLine
 10
-773.337982796334
 20
-307.8619302285682
 30
0.0
 11
-758.466354576317
 21
-309.8196741052574
 31
0.0
  0
LINE
  5
5C
330
1F
100
AcDbEntity
  8
0-F
  6
Continuous
 62
     7
370
     9
100
AcDbLine
 10
-83.3379333083694
 20
-396.2168760557431
 30
0.0
 11
-83.3379333083694
 21
-306.3619500237542
 31
0.0
  0
LINE
  5
5D
330
1F
100
AcDbEntity
  8
0-F
  6
Continuous
 62
     7
370
     9
100
AcDbLine
 10
-81.53805603852135
 20
-396.2168760557431
 30
0.0
 11
-81.53805603852135
 21
-306.3619500237542
 31
0.0
  0
LINE
  5
5E
330
1F
100
AcDbEntity
  8
0-F
  6
Continuous
 62
     7
370
     9
100
AcDbLine
 10
-83.3379333083694
 20
-307.8619302285682
 30
0.0
 11
-98.20956152838619
 21
-305.9041863518792
 31
0.0
  0
LINE
  5
5F
330
1F
100
AcDbEntity
  8
0-F
  6
Continuous
 62
     7
370
     9
100
AcDbLine
 10
-83.3379333083694
 20
-307.8619302285682
 30
0.0
 11
-98.20956152838619
 21
-309.8196741052574
 31
0.0
  0
LINE
  5
60
330
1F
100
AcDbEntity
  8
0-F
  6
Continuous
 62
     7
370
     9
100
AcDbLine
 10
-78.3379786723367
 20
-307.8619302285682
 30
0.0
 11
-63.46641231227565
 21
-305.9041863518792
 31
0.0
  0
LINE
  5
61
330
1F
100
AcDbEntity
  8
0-F
  6
Continuous
 62
     7
370
     9
100
AcDbLine
 10
-78.3379786723367
 20
-307.8619302285682
 30
0.0
 11
-63.46641231227565
 21
-309.8196741052574
 31
0.0
  0
LINE
  5
62
330
1F
100
AcDbEntity
  8
0-F
  6
Continuous
 62
     7
370
     9
100
AcDbLine
 10
-78.3379786723367
 20
-396.2168760557431
 30
0.0
 11
-78.3379786723367
 21
-264.0995994774069
 31
0.0
  0
LINE
  5
63
330
1F
100
AcDbEntity
  8
0-F
  6
Continuous
 62
     7
370
     9
100
AcDbLine
 10
-778.3379374323664
 20
-265.5995796822212
 30
0.0
 11
-78.3379786723367
 21
-265.5995796822212
 31
0.0
  0
LINE
  5
64
330
1F
100
AcDbEntity
  8
0-F
  6
Continuous
 62
     7
370
     9
100
AcDbLine
 10
-778.3379374323664
 20
-265.5995796822212
 30
0.0
 11
-763.4663092123496
 21
-263.6418358055319
 31
0.0
  0
LINE
  5
65
330
1F
100
AcDbEntity
  8
0-F
  6
Continuous
 62
     7
370
     9
100
AcDbLine
 10
-778.3379374323664
 20
-265.5995796822212
 30
0.0
 11
-763.4663092123496
 21
-267.5578184385556
 31
0.0
  0
LINE
  5
66
330
1F
100
AcDbEntity
  8
0-F
  6
Continuous
 62
     7
370
     9
100
AcDbLine
 10
-78.3379786723367
 20
-265.5995796822212
 30
0.0
 11
-93.20960689235378
 21
-263.6418358055319
 31
0.0
  0
LINE
  5
67
330
1F
100
AcDbEntity
  8
0-F
  6
Continuous
 62
     7
370
     9
100
AcDbLine
 10
-78.3379786723367
 20
-265.5995796822212
 30
0.0
 11
-93.20960689235378
 21
-267.5578184385556
 31
0.0
  0
LINE
  5
68
330
1F
100
AcDbEntity
  8
0-F
  6
Continuous
 62
     7
370
     9
100
AcDbLine
 10
391.6620873116159
 20
-157.3877736684437
 30
0.0
 11
270.1619586429082
 21
-157.3877736684437
 31
0.0
  0
LINE
  5
69
330
1F
100
AcDbEntity
  8
0-F
  6
Continuous
 62
     7
370
     9
100
AcDbLine
 10
271.6619388477224
 20
-160.5877273147171
 30
0.0
 11
269.7041949710332
 21
-175.4594173946896
 31
0.0
  0
LINE
  5
6A
330
1F
100
AcDbEntity
  8
0-F
  6
Continuous
 62
     7
370
     9
100
AcDbLine
 10
271.6619388477224
 20
-209.0570439519108
 30
0.0
 11
271.6619388477224
 21
586.0339767868456
 31
0.0
  0
LINE
  5
6B
330
1F
100
AcDbEntity
  8
0-F
  6
Continuous
 62
     7
370
     9
100
AcDbLine
 10
391.6620873116159
 20
-155.5879582585514
 30
0.0
 11
270.1619586429082
 21
-155.5879582585514
 31
0.0
  0
LINE
  5
6C
330
1F
100
AcDbEntity
  8
0-F
  6
Continuous
 62
     7
370
     9
100
AcDbLine
 10
271.6619388477224
 20
-155.5879582585514
 30
0.0
 11
269.7041949710332
 21
-140.7162681785788
 31
0.0
  0
LINE
  5
6D
330
1F
100
AcDbEntity
  8
0-F
  6
Continuous
 62
     7
370
     9
100
AcDbLine
 10
271.6619388477224
 20
-155.5879582585514
 30
0.0
 11
273.6199301642342
 21
-140.7162681785788
 31
0.0
  0
LINE
  5
6E
330
1F
100
AcDbEntity
  8
0-F
  6
Continuous
 62
     7
370
     9
100
AcDbLine
 10
271.6619388477224
 20
534.4123386692359
 30
0.0
 11
269.7041949710332
 21
519.540710449219
 31
0.0
  0
LINE
  5
6F
330
1F
100
AcDbEntity
  8
0-F
  6
Continuous
 62
     7
370
     9
100
AcDbLine
 10
271.6619388477224
 20
534.4123386692359
 30
0.0
 11
273.6199301642342
 21
519.540710449219
 31
0.0
  0
LINE
  5
70
330
1F
100
AcDbEntity
  8
0-F
  6
Continuous
 62
     7
370
     9
100
AcDbLine
 10
391.6620873116159
 20
539.4119840054901
 30
0.0
 11
220.1620411228491
 21
539.4119840054901
 31
0.0
  0
LINE
  5
71
330
1F
100
AcDbEntity
  8
0-F
  6
Continuous
 62
     7
370
     9
100
AcDbLine
 10
271.6619388477224
 20
539.4119840054901
 30
0.0
 11
269.7041949710332
 21
554.2836122255071
 31
0.0
  0
LINE
  5
72
330
1F
100
AcDbEntity
  8
0-F
  6
Continuous
 62
     7
370
     9
100
AcDbLine
 10
271.6619388477224
 20
539.4119840054901
 30
0.0
 11
273.6199301642342
 21
554.2836122255071
 31
0.0
  0
LINE
  5
73
330
1F
100
AcDbEntity
  8
0-F
  6
Continuous
 62
     7
370
     9
100
AcDbLine
 10
271.6619388477224
 20
-160.5877273147171
 30
0.0
 11
273.6199301642342
 21
-175.4594173946896
 31
0.0
  0
LINE
  5
74
330
1F
100
AcDbEntity
  8
0-F
  6
Continuous
 62
     7
370
     9
100
AcDbLine
 10
221.6620213276633
 20
-160.5877273147171
 30
0.0
 11
219.7040300111516
 21
-145.7160372347442
 31
0.0
  0
LINE
  5
75
330
1F
100
AcDbEntity
  8
0-F
  6
Continuous
 62
     7
370
     9
100
AcDbLine
 10
221.6620213276633
 20
-160.5877273147171
 30
0.0
 11
223.6197652043526
 21
-145.7160372347442
 31
0.0
  0
LINE
  5
76
330
1F
100
AcDbEntity
  8
0-F
  6
Continuous
 62
     7
370
     9
100
AcDbLine
 10
221.6620213276633
 20
539.4122314453127
 30
0.0
 11
219.7040300111516
 21
524.5406032252959
 31
0.0
  0
LINE
  5
77
330
1F
100
AcDbEntity
  8
0-F
  6
Continuous
 62
     7
370
     9
100
AcDbLine
 10
221.6620213276633
 20
539.4122314453127
 30
0.0
 11
223.6197652043526
 21
524.5406032252959
 31
0.0
  0
LINE
  5
78
330
1F
100
AcDbEntity
  8
0-F
  6
Continuous
 62
     7
370
     9
100
AcDbLine
 10
563.8618933187951
 20
-189.5877982474661
 30
0.0
 11
561.9039020022831
 21
-204.4594883274385
 31
0.0
  0
LINE
  5
79
330
1F
100
AcDbEntity
  8
0-F
  6
Continuous
 62
     7
370
     9
100
AcDbLine
 10
563.8618933187951
 20
-189.5877982474661
 30
0.0
 11
565.8196371954843
 21
-204.4594883274385
 31
0.0
  0
LINE
  5
7A
330
1F
100
AcDbEntity
  8
0-F
  6
Continuous
 62
     7
370
     9
100
AcDbLine
 10
563.8618933187951
 20
-210.5346308527766
 30
0.0
 11
563.8618933187951
 21
590.1083209063557
 31
0.0
  0
LINE
  5
7B
330
1F
100
AcDbEntity
  8
0-F
  6
Continuous
 62
     7
370
     9
100
AcDbLine
 10
563.8618933187951
 20
-160.5877273147171
 30
0.0
 11
561.9039020022831
 21
-145.7160372347442
 31
0.0
  0
LINE
  5
7C
330
1F
100
AcDbEntity
  8
0-F
  6
Continuous
 62
     7
370
     9
100
AcDbLine
 10
563.8618933187951
 20
-160.5877273147171
 30
0.0
 11
565.8196371954843
 21
-145.7160372347442
 31
0.0
  0
LINE
  5
7D
330
1F
100
AcDbEntity
  8
0-F
  6
Continuous
 62
     7
370
     9
100
AcDbLine
 10
565.8196371954843
 20
-95.71611971468514
 30
0.0
 11
561.9039020022831
 21
-125.4594998746302
 31
0.0
  0
LINE
  5
7E
330
1F
100
AcDbEntity
  8
0-F
  6
Continuous
 62
     7
370
     9
100
AcDbLine
 10
561.9039020022831
 20
-95.71611971468514
 30
0.0
 11
565.8196371954843
 21
-125.4594998746302
 31
0.0
  0
LINE
  5
7F
330
1F
100
AcDbEntity
  8
0-F
  6
Continuous
 62
     7
370
     9
100
AcDbLine
 10
565.8196371954843
 20
504.2838184253591
 30
0.0
 11
561.9039020022831
 21
474.5405619853254
 31
0.0
  0
LINE
  5
80
330
1F
100
AcDbEntity
  8
0-F
  6
Continuous
 62
     7
370
     9
100
AcDbLine
 10
561.9039020022831
 20
504.2838184253591
 30
0.0
 11
565.8196371954843
 21
474.5405619853254
 31
0.0
  0
LINE
  5
81
330
1F
100
AcDbEntity
  8
0-F
  6
Continuous
 62
     7
370
     9
100
AcDbLine
 10
563.8618933187951
 20
539.4121077254015
 30
0.0
 11
561.9039020022831
 21
524.5404795053845
 31
0.0
  0
LINE
  5
82
330
1F
100
AcDbEntity
  8
0-F
  6
Continuous
 62
     7
370
     9
100
AcDbLine
 10
563.8618933187951
 20
539.4121077254015
 30
0.0
 11
565.8196371954843
 21
524.5404795053845
 31
0.0
  0
LINE
  5
83
330
1F
100
AcDbEntity
  8
0-F
  6
Continuous
 62
     7
370
     9
100
AcDbLine
 10
563.8618933187951
 20
568.4121786581505
 30
0.0
 11
561.9039020022831
 21
583.2838068781675
 31
0.0
  0
LINE
  5
84
330
1F
100
AcDbEntity
  8
0-F
  6
Continuous
 62
     7
370
     9
100
AcDbLine
 10
563.8618933187951
 20
568.4121786581505
 30
0.0
 11
565.8196371954843
 21
583.2838068781675
 31
0.0
  0
LINE
  5
85
330
1F
100
AcDbEntity
  8
0-F
  6
Continuous
 62
     7
370
     9
100
AcDbLine
 10
396.6621038076039
 20
-235.5877273147171
 30
0.0
 11
456.6620543196393
 21
-235.5877273147171
 31
0.0
  0
LINE
  5
86
330
1F
100
AcDbEntity
  8
0-F
  6
Continuous
 62
     7
370
     9
100
AcDbLine
 10
396.6621038076039
 20
-235.5877273147171
 30
0.0
 11
411.5337320276211
 21
-233.6298597181164
 31
0.0
  0
LINE
  5
87
330
1F
100
AcDbEntity
  8
0-F
  6
Continuous
 62
     7
370
     9
100
AcDbLine
 10
396.6621038076039
 20
-235.5877273147171
 30
0.0
 11
411.5337320276211
 21
-237.5455949113174
 31
0.0
  0
LINE
  5
88
330
1F
100
AcDbEntity
  8
0-F
  6
Continuous
 62
     7
370
     9
100
AcDbLine
 10
396.6621038076039
 20
-285.5877685546872
 30
0.0
 11
411.5337320276211
 21
-283.6297772381755
 31
0.0
  0
LINE
  5
89
330
1F
100
AcDbEntity
  8
0-F
  6
Continuous
 62
     7
370
     9
100
AcDbLine
 10
396.6621038076039
 20
-285.5877685546872
 30
0.0
 11
411.5337320276211
 21
-287.5456361512879
 31
0.0
  0
LINE
  5
8A
330
1F
100
AcDbEntity
  8
0-F
  6
Continuous
 62
     7
370
     9
100
AcDbLine
 10
396.6621038076039
 20
-165.5877438107052
 30
0.0
 11
396.6621038076039
 21
-287.0877487595016
 31
0.0
  0
LINE
  5
8B
330
1F
100
AcDbEntity
  8
0-F
  6
Continuous
 62
     7
370
     9
100
AcDbLine
 10
391.6620873116159
 20
-160.5877273147171
 30
0.0
 11
220.1620411228491
 21
-160.5877273147171
 31
0.0
  0
LINE
  5
8C
330
1F
100
AcDbEntity
  8
0-F
  6
Continuous
 62
     7
370
     9
100
AcDbLine
 10
391.6620873116159
 20
534.4123386692359
 30
0.0
 11
270.1619586429082
 21
534.4123386692359
 31
0.0
  0
LINE
  5
8D
330
1F
100
AcDbEntity
  8
0-F
  6
Continuous
 62
     7
370
     9
100
AcDbLine
 10
391.6620873116159
 20
536.2122159390839
 30
0.0
 11
270.1619586429082
 21
536.2122159390839
 31
0.0
  0
LINE
  5
8E
330
1F
100
AcDbEntity
  8
0-F
  6
Continuous
 62
     7
370
     9
100
AcDbLine
 10
396.6623512474268
 20
61.96657747835744
 30
0.0
 11
494.6621302011852
 21
61.96657747835744
 31
0.0
  0
LINE
  5
8F
330
1F
100
AcDbEntity
  8
0-F
  6
Continuous
 62
     7
370
     9
100
AcDbLine
 10
396.6623512474268
 20
61.96657747835744
 30
0.0
 11
411.5339794674435
 21
63.92444507495789
 31
0.0
  0
LINE
  5
90
330
1F
100
AcDbEntity
  8
0-F
  6
Continuous
 62
     7
370
     9
100
AcDbLine
 10
396.6623512474268
 20
61.96657747835744
 30
0.0
 11
411.5339794674435
 21
60.00870988175691
 31
0.0
  0
LINE
  5
91
330
1F
100
AcDbEntity
  8
0-F
  6
Continuous
 62
     7
370
     9
100
AcDbLine
 10
436.6619883356867
 20
61.96657747835744
 30
0.0
 11
421.7903601156701
 21
63.92444507495789
 31
0.0
  0
LINE
  5
92
330
1F
100
AcDbEntity
  8
0-F
  6
Continuous
 62
     7
370
     9
100
AcDbLine
 10
436.6619883356867
 20
61.96657747835744
 30
0.0
 11
421.7903601156701
 21
60.00870988175691
 31
0.0
  0
LINE
  5
93
330
1F
100
AcDbEntity
  8
0-F
  6
Continuous
 62
     7
370
     9
100
AcDbLine
 10
455.6069709159232
 20
102.609372525602
 30
0.0
 11
440.4119388477221
 21
61.96657747835744
 31
0.0
  0
LINE
  5
94
330
1F
100
AcDbEntity
  8
0-F
  6
Continuous
 62
     7
370
     9
100
AcDbLine
 10
493.8619098147831
 20
539.4121077254015
 30
0.0
 11
565.3618735236093
 21
539.4121077254015
 31
0.0
  0
LINE
  5
95
330
1F
100
AcDbEntity
  8
0-F
  6
Continuous
 62
     7
370
     9
100
AcDbLine
 10
493.8619098147831
 20
568.4121786581505
 30
0.0
 11
565.3618735236093
 21
568.4121786581505
 31
0.0
  0
LINE
  5
96
330
1F
100
AcDbEntity
  8
0-F
  6
Continuous
 62
     7
370
     9
100
AcDbLine
 10
493.8619098147831
 20
-189.5877982474661
 30
0.0
 11
565.3618735236093
 21
-189.5877982474661
 31
0.0
  0
LINE
  5
97
330
1F
100
AcDbEntity
  8
0-F
  6
Continuous
 62
     7
370
     9
100
AcDbLine
 10
493.8619098147831
 20
-160.5877273147171
 30
0.0
 11
565.3618735236093
 21
-160.5877273147171
 31
0.0
  0
LINE
  5
98
330
1F
100
AcDbEntity
  8
0-1
  6
Continuous
 62
     2
370
     9
100
AcDbLine
 10
-772.1380852364205
 20
-461.2168430637668
 30
0.0
 11
-728.3380199123073
 21
-461.2168430637668
 31
0.0
  0
LINE
  5
99
330
1F
100
AcDbEntity
  8
0-1
  6
Continuous
 62
     2
370
     9
100
AcDbLine
 10
-775.1380456460488
 20
-401.2168925517313
 30
0.0
 11
-775.1380456460488
 21
-458.2168826541383
 31
0.0
  0
LINE
  5
9A
330
1F
100
AcDbEntity
  8
0-1
  6
Continuous
 62
     2
370
     9
100
AcDbLine
 10
-772.3380166131096
 20
-464.4168585699956
 30
0.0
 11
-728.3380199123073
 21
-464.4168585699956
 31
0.0
  0
LINE
  5
9B
330
1F
100
AcDbEntity
  8
0-1
  6
Continuous
 62
     2
370
     9
100
AcDbLine
 10
-778.3379374323664
 20
-401.2168925517313
 30
0.0
 11
-775.1380456460488
 21
-401.2168925517313
 31
0.0
  0
LINE
  5
9C
330
1F
100
AcDbEntity
  8
0-1
  6
Continuous
 62
     2
370
     9
100
AcDbLine
 10
-728.3380199123073
 20
-461.2168430637668
 30
0.0
 11
-728.3380199123073
 21
-464.4168585699956
 31
0.0
  0
LINE
  5
9D
330
1F
100
AcDbEntity
  8
0-1
  6
Continuous
 62
     2
370
     9
100
AcDbLine
 10
-128.3380817722627
 20
-461.2168430637668
 30
0.0
 11
-128.3380817722627
 21
-464.4168585699956
 31
0.0
  0
LINE
  5
9E
330
1F
100
AcDbEntity
  8
0-1
  6
Continuous
 62
     2
370
     9
100
AcDbLine
 10
-78.3379786723367
 20
-401.2168925517313
 30
0.0
 11
-81.53805603852135
 21
-401.2168925517313
 31
0.0
  0
LINE
  5
9F
330
1F
100
AcDbEntity
  8
0-1
  6
Continuous
 62
     2
370
     9
100
AcDbLine
 10
-84.33808507146054
 20
-464.4168585699956
 30
0.0
 11
-128.3380817722627
 21
-464.4168585699956
 31
0.0
  0
LINE
  5
A0
330
1F
100
AcDbEntity
  8
0-1
  6
Continuous
 62
     2
370
     9
100
AcDbLine
 10
-81.53805603852135
 20
-401.2168925517313
 30
0.0
 11
-81.53805603852135
 21
-458.2168826541383
 31
0.0
  0
LINE
  5
A1
330
1F
100
AcDbEntity
  8
0-1
  6
Continuous
 62
     2
370
     9
100
AcDbLine
 10
-84.53814016806106
 20
-461.2168430637668
 30
0.0
 11
-128.3380817722627
 21
-461.2168430637668
 31
0.0
  0
LINE
  5
A2
330
1F
100
AcDbEntity
  8
0-F
  6
Continuous
 62
     7
370
     9
100
AcDbLine
 10
-27.66551971435547
 20
-307.8619302285682
 30
0.0
 11
-824.0102561744483
 21
-307.8619302285682
 31
0.0
  0
LINE
  5
A3
330
1F
100
AcDbEntity
  8
0-F
  6
Continuous
 62
     7
370
     9
100
AcDbLine
 10
-763.3380116643132
 20
-350.8492175952807
 30
0.0
 11
-93.33790444038982
 21
-350.8492175952807
 31
0.0
  0
LINE
  5
A4
330
1F
100
AcDbEntity
  8
0-F
  6
Continuous
 62
     7
370
     9
100
AcDbLine
 10
-93.33790444038982
 20
-396.2168760557431
 30
0.0
 11
-93.33790444038982
 21
-349.3492373904664
 31
0.0
  0
LINE
  5
A5
330
1F
100
AcDbEntity
  8
0-F
  6
Continuous
 62
     7
370
     9
100
AcDbLine
 10
-763.3380116643132
 20
-396.2168760557431
 30
0.0
 11
-763.3380116643132
 21
-349.3492373904664
 31
0.0
  0
LINE
  5
A6
330
1F
100
AcDbEntity
  8
0-F
  6
Continuous
 62
     7
370
     9
100
AcDbLine
 10
321.6621038076039
 20
-155.5879582585514
 30
0.0
 11
321.6621038076039
 21
534.4123386692359
 31
0.0
  0
LINE
  5
A7
330
1F
100
AcDbEntity
  8
0-F
  6
Continuous
 62
     7
370
     9
100
AcDbLine
 10
391.6620873116159
 20
-110.5878097946578
 30
0.0
 11
320.1621236027898
 21
-110.5878097946578
 31
0.0
  0
LINE
  5
A8
330
1F
100
AcDbEntity
  8
0-F
  6
Continuous
 62
     7
370
     9
100
AcDbLine
 10
320.1621236027898
 20
489.4121902053423
 30
0.0
 11
391.6620873116159
 21
489.4121902053423
 31
0.0
  0
LINE
  5
A9
330
1F
100
AcDbEntity
  8
0-F
  6
Continuous
 62
     7
370
     9
100
AcDbLine
 10
459.8619461059573
 20
-285.5877685546872
 30
0.0
 11
444.9903178859407
 21
-287.5456361512879
 31
0.0
  0
LINE
  5
AA
330
1F
100
AcDbEntity
  8
0-F
  6
Continuous
 62
     7
370
     9
100
AcDbLine
 10
459.8619461059573
 20
-285.5877685546872
 30
0.0
 11
444.9903178859407
 21
-283.6299009580869
 31
0.0
  0
LINE
  5
AB
330
1F
100
AcDbEntity
  8
0-F
  6
Continuous
 62
     7
370
     9
100
AcDbLine
 10
456.6620543196393
 20
-235.5877273147171
 30
0.0
 11
441.7904260996227
 21
-237.5455949113174
 31
0.0
  0
LINE
  5
AC
330
1F
100
AcDbEntity
  8
0-F
  6
Continuous
 62
     7
370
     9
100
AcDbLine
 10
456.6620543196393
 20
-235.5877273147171
 30
0.0
 11
441.7904260996227
 21
-233.6298597181164
 31
0.0
  0
LINE
  5
AD
330
1F
100
AcDbEntity
  8
0-F
  6
Continuous
 62
     7
370
     9
100
AcDbLine
 10
483.8618768228073
 20
-285.5877685546872
 30
0.0
 11
498.733505042824
 21
-287.5456361512879
 31
0.0
  0
LINE
  5
AE
330
1F
100
AcDbEntity
  8
0-F
  6
Continuous
 62
     7
370
     9
100
AcDbLine
 10
483.8618768228073
 20
-285.5877685546872
 30
0.0
 11
498.733505042824
 21
-283.6299009580869
 31
0.0
  0
LINE
  5
AF
330
1F
100
AcDbEntity
  8
0-F
  6
Continuous
 62
     7
370
     9
100
AcDbLine
 10
483.8618768228073
 20
-201.8377396867081
 30
0.0
 11
483.8618768228073
 21
-287.0877487595016
 31
0.0
  0
LINE
  5
B0
330
1F
100
AcDbEntity
  8
0-F
  6
Continuous
 62
     7
370
     9
100
AcDbLine
 10
321.6621038076039
 20
489.4121902053423
 30
0.0
 11
323.6198476842935
 21
474.5405619853254
 31
0.0
  0
LINE
  5
B1
330
1F
100
AcDbEntity
  8
0-F
  6
Continuous
 62
     7
370
     9
100
AcDbLine
 10
321.6621038076039
 20
489.4121902053423
 30
0.0
 11
319.7041124910928
 21
474.5405619853254
 31
0.0
  0
LINE
  5
B2
330
1F
100
AcDbEntity
  8
0-F
  6
Continuous
 62
     7
370
     9
100
AcDbLine
 10
323.6198476842935
 20
-125.4594998746302
 30
0.0
 11
319.7041124910928
 21
-95.71611971468514
 31
0.0
  0
LINE
  5
B3
330
1F
100
AcDbEntity
  8
0-F
  6
Continuous
 62
     7
370
     9
100
AcDbLine
 10
319.7041124910928
 20
-125.4594998746302
 30
0.0
 11
323.6198476842935
 21
-95.71611971468514
 31
0.0
  0
LINE
  5
B4
330
1F
100
AcDbEntity
  8
0-F
  6
Continuous
 62
     7
370
     9
100
AcDbLine
 10
-763.3380116643132
 20
-350.8492175952807
 30
0.0
 11
-748.4663215843408
 21
-348.8914737185914
 31
0.0
  0
LINE
  5
B5
330
1F
100
AcDbEntity
  8
0-F
  6
Continuous
 62
     7
370
     9
100
AcDbLine
 10
-763.3380116643132
 20
-350.8492175952807
 30
0.0
 11
-748.4663215843408
 21
-352.8074563516151
 31
0.0
  0
LINE
  5
B6
330
1F
100
AcDbEntity
  8
0-F
  6
Continuous
 62
     7
370
     9
100
AcDbLine
 10
-93.33790444038982
 20
-350.8492175952807
 30
0.0
 11
-108.2095945203626
 21
-352.8074563516151
 31
0.0
  0
LINE
  5
B7
330
1F
100
AcDbEntity
  8
0-F
  6
Continuous
 62
     7
370
     9
100
AcDbLine
 10
-93.33790444038982
 20
-350.8492175952807
 30
0.0
 11
-108.2095945203626
 21
-348.8914737185914
 31
0.0
  0
LINE
  5
B8
330
1F
100
AcDbEntity
  8
0-E
  6
Continuous
 62
     7
370
     9
100
AcDbLine
 10
522.5243491095468
 20
633.9087573902029
 30
0.0
 11
719.9028891486093
 21
633.9087573902029
 31
0.0
  0
LINE
  5
B9
330
1F
100
AcDbEntity
  8
0-E
  6
Continuous
 62
     7
370
     9
100
AcDbLine
 10
522.5243491095468
 20
633.9087573902029
 30
0.0
 11
483.8618768228073
 21
568.4121786581505
 31
0.0
  0
LINE
  5
BA
330
1F
100
AcDbEntity
  8
0-0
  6
Continuous
 62
     3
370
     9
100
AcDbLine
 10
-84.33796135154921
 20
-401.2168925517313
 30
0.0
 11
-83.3379333083694
 21
-407.2169370908994
 31
0.0
  0
LINE
  5
BB
330
1F
100
AcDbEntity
  8
0-0
  6
Continuous
 62
     3
370
     9
100
AcDbLine
 10
-83.3379333083694
 20
-407.2169370908994
 30
0.0
 11
-86.83796959954336
 21
-461.2169667836781
 31
0.0
  0
LINE
  5
BC
330
1F
100
AcDbEntity
  8
0-1
  6
Continuous
 62
     2
370
     9
100
AcDbLine
 10
-78.3379786723367
 20
539.4122314453127
 30
0.0
 11
-778.3379374323664
 21
539.4122314453127
 31
0.0
  0
LINE
  5
BD
330
1F
100
AcDbEntity
  8
0-1
  6
Continuous
 62
     2
370
     9
100
AcDbLine
 10
-778.3379374323664
 20
-160.5877273147171
 30
0.0
 11
-78.3379786723367
 21
-160.5877273147171
 31
0.0
  0
LINE
  5
BE
330
1F
100
AcDbEntity
  8
0-1
  6
Continuous
 62
     2
370
     9
100
AcDbLine
 10
-778.3379374323664
 20
539.4122314453127
 30
0.0
 11
-778.3379374323664
 21
-160.5877273147171
 31
0.0
  0
LINE
  5
BF
330
1F
100
AcDbEntity
  8
0-1
  6
Continuous
 62
     2
370
     9
100
AcDbLine
 10
-775.1379219261376
 20
536.2122159390839
 30
0.0
 11
-775.1379219261376
 21
-157.3877736684437
 31
0.0
  0
LINE
  5
C0
330
1F
100
AcDbEntity
  8
0-1
  6
Continuous
 62
     2
370
     9
100
AcDbLine
 10
-775.1379219261376
 20
-157.3877736684437
 30
0.0
 11
-81.53793231861002
 21
-157.3877736684437
 31
0.0
  0
LINE
  5
C1
330
1F
100
AcDbEntity
  8
0-1
  6
Continuous
 62
     2
370
     9
100
AcDbLine
 10
-81.53793231861002
 20
536.2122159390839
 30
0.0
 11
-775.1379219261376
 21
536.2122159390839
 31
0.0
  0
LINE
  5
C2
330
1F
100
AcDbEntity
  8
0-1
  6
Continuous
 62
     2
370
     9
100
AcDbLine
 10
-682.837981146735
 20
568.4121786581505
 30
0.0
 11
-673.837914337983
 21
568.4121786581505
 31
0.0
  0
LINE
  5
C3
330
1F
100
AcDbEntity
  8
0-1
  6
Continuous
 62
     2
370
     9
100
AcDbLine
 10
396.6621038076039
 20
536.2122159390839
 30
0.0
 11
396.6621038076039
 21
539.4122314453127
 31
0.0
  0
LINE
  5
C4
330
1F
100
AcDbEntity
  8
0-1
  6
Continuous
 62
     2
370
     9
100
AcDbLine
 10
459.8619461059573
 20
489.4121902053423
 30
0.0
 11
456.6620543196393
 21
489.4121902053423
 31
0.0
  0
LINE
  5
C5
330
1F
100
AcDbEntity
  8
0-1
  6
Continuous
 62
     2
370
     9
100
AcDbLine
 10
469.8619790979336
 20
-169.5877322635133
 30
0.0
 11
444.8618966179927
 21
-169.5877322635133
 31
0.0
  0
LINE
  5
C6
330
1F
100
AcDbEntity
  8
0-1
  6
Continuous
 62
     2
370
     9
100
AcDbLine
 10
444.8618966179927
 20
-160.5877273147171
 30
0.0
 11
444.8618966179927
 21
-169.5877322635133
 31
0.0
  0
LINE
  5
C7
330
1F
100
AcDbEntity
  8
0-1
  6
Continuous
 62
     2
370
     9
100
AcDbLine
 10
483.8618768228073
 20
-189.5877982474661
 30
0.0
 11
474.8619955939219
 21
-189.5877982474661
 31
0.0
  0
LINE
  5
C8
330
1F
100
AcDbEntity
  8
0-1
  6
Continuous
 62
     2
370
     9
100
AcDbLine
 10
-673.837914337983
 20
543.9068521035687
 30
0.0
 11
-673.837914337983
 21
568.4121786581505
 31
0.0
  0
LINE
  5
C9
330
1F
100
AcDbEntity
  8
0-1
  6
Continuous
 62
     2
370
     9
100
AcDbLine
 10
-682.837981146735
 20
543.9122957796667
 30
0.0
 11
-682.837981146735
 21
568.4121786581505
 31
0.0
  0
LINE
  5
CA
330
1F
100
AcDbEntity
  8
0-1
  6
Continuous
 62
     2
370
     9
100
AcDbLine
 10
459.8619461059573
 20
-110.5878097946578
 30
0.0
 11
459.8619461059573
 21
-154.5878064954601
 31
0.0
  0
LINE
  5
CB
330
1F
100
AcDbEntity
  8
0-1
  6
Continuous
 62
     2
370
     9
100
AcDbLine
 10
456.6620543196393
 20
-110.0877339131121
 30
0.0
 11
456.6620543196393
 21
-154.3877513988598
 31
0.0
  0
LINE
  5
CC
330
1F
100
AcDbEntity
  8
0-1
  6
Continuous
 62
     2
370
     9
100
AcDbLine
 10
453.6620939100115
 20
-157.3877736684437
 30
0.0
 11
396.6621038076039
 21
-157.3877736684437
 31
0.0
  0
LINE
  5
CD
330
1F
100
AcDbEntity
  8
0-1
  6
Continuous
 62
     2
370
     9
100
AcDbLine
 10
459.8619461059573
 20
-110.5878097946578
 30
0.0
 11
456.6620543196393
 21
-110.5878097946578
 31
0.0
  0
LINE
  5
CE
330
1F
100
AcDbEntity
  8
0-1
  6
Continuous
 62
     2
370
     9
100
AcDbLine
 10
396.6621038076039
 20
-157.3877736684437
 30
0.0
 11
396.6621038076039
 21
-160.5877273147171
 31
0.0
  0
LINE
  5
CF
330
1F
100
AcDbEntity
  8
0-0
  6
Continuous
 62
     3
370
     9
100
AcDbLine
 10
-435.3379069147883
 20
499.4122231973187
 30
0.0
 11
-435.3379069147883
 21
505.912219898121
 31
0.0
  0
LINE
  5
D0
330
1F
100
AcDbEntity
  8
0-0
  6
Continuous
 62
     3
370
     9
100
AcDbLine
 10
-773.337982796334
 20
534.4123386692359
 30
0.0
 11
-83.3379333083694
 21
534.4123386692359
 31
0.0
  0
LINE
  5
D1
330
1F
100
AcDbEntity
  8
0-0
  6
Continuous
 62
     3
370
     9
100
AcDbLine
 10
-772.337954753154
 20
533.4121869061447
 30
0.0
 11
-84.33796135154921
 21
533.4121869061447
 31
0.0
  0
LINE
  5
D2
330
1F
100
AcDbEntity
  8
0-0
  6
Continuous
 62
     3
370
     9
100
AcDbLine
 10
-772.337954753154
 20
524.4123056772595
 30
0.0
 11
-84.33796135154921
 21
524.4123056772595
 31
0.0
  0
LINE
  5
D3
330
1F
100
AcDbEntity
  8
0-0
  6
Continuous
 62
     3
370
     9
100
AcDbLine
 10
-773.337982796334
 20
523.4121539141684
 30
0.0
 11
-83.3379333083694
 21
523.4121539141684
 31
0.0
  0
LINE
  5
D4
330
1F
100
AcDbEntity
  8
0-0
  6
Continuous
 62
     3
370
     9
100
AcDbLine
 10
-773.337982796334
 20
516.9122809332772
 30
0.0
 11
-83.3379333083694
 21
516.9122809332772
 31
0.0
  0
LINE
  5
D5
330
1F
100
AcDbEntity
  8
0-0
  6
Continuous
 62
     3
370
     9
100
AcDbLine
 10
-772.337954753154
 20
515.9121291701861
 30
0.0
 11
-84.33796135154921
 21
515.9121291701861
 31
0.0
  0
LINE
  5
D6
330
1F
100
AcDbEntity
  8
0-0
  6
Continuous
 62
     3
370
     9
100
AcDbLine
 10
-772.337954753154
 20
506.912247941301
 30
0.0
 11
-84.33796135154921
 21
506.912247941301
 31
0.0
  0
LINE
  5
D7
330
1F
100
AcDbEntity
  8
0-0
  6
Continuous
 62
     3
370
     9
100
AcDbLine
 10
-541.3379720739416
 20
499.4122231973187
 30
0.0
 11
-541.3379720739416
 21
505.912219898121
 31
0.0
  0
LINE
  5
D8
330
1F
100
AcDbEntity
  8
0-0
  6
Continuous
 62
     3
370
     9
100
AcDbLine
 10
-527.3379506291569
 20
499.4122231973187
 30
0.0
 11
-527.3379506291569
 21
505.912219898121
 31
0.0
  0
LINE
  5
D9
330
1F
100
AcDbEntity
  8
0-0
  6
Continuous
 62
     3
370
     9
100
AcDbLine
 10
-633.3379539283546
 20
499.4122231973187
 30
0.0
 11
-633.3379539283546
 21
505.912219898121
 31
0.0
  0
LINE
  5
DA
330
1F
100
AcDbEntity
  8
0-0
  6
Continuous
 62
     3
370
     9
100
AcDbLine
 10
-647.3379135131836
 20
499.4122231973187
 30
0.0
 11
-647.3379135131836
 21
505.912219898121
 31
0.0
  0
LINE
  5
DB
330
1F
100
AcDbEntity
  8
0-0
  6
Continuous
 62
     3
370
     9
100
AcDbLine
 10
-435.3379069147883
 20
516.9122809332772
 30
0.0
 11
-435.3379069147883
 21
523.4121539141684
 31
0.0
  0
LINE
  5
DC
330
1F
100
AcDbEntity
  8
0-0
  6
Continuous
 62
     3
370
     9
100
AcDbLine
 10
-773.337982796334
 20
505.912219898121
 30
0.0
 11
-83.3379333083694
 21
505.912219898121
 31
0.0
  0
LINE
  5
DD
330
1F
100
AcDbEntity
  8
0-0
  6
Continuous
 62
     3
370
     9
100
AcDbLine
 10
-773.337982796334
 20
499.4122231973187
 30
0.0
 11
-83.3379333083694
 21
499.4122231973187
 31
0.0
  0
LINE
  5
DE
330
1F
100
AcDbEntity
  8
0-0
  6
Continuous
 62
     3
370
     9
100
AcDbLine
 10
-527.3379506291569
 20
516.9122809332772
 30
0.0
 11
-527.3379506291569
 21
523.4121539141684
 31
0.0
  0
LINE
  5
DF
330
1F
100
AcDbEntity
  8
0-0
  6
Continuous
 62
     3
370
     9
100
AcDbLine
 10
-541.3379720739416
 20
516.9122809332772
 30
0.0
 11
-541.3379720739416
 21
523.4121539141684
 31
0.0
  0
LINE
  5
E0
330
1F
100
AcDbEntity
  8
0-0
  6
Continuous
 62
     3
370
     9
100
AcDbLine
 10
-772.337954753154
 20
498.4120714342275
 30
0.0
 11
-84.33796135154921
 21
498.4120714342275
 31
0.0
  0
LINE
  5
E1
330
1F
100
AcDbEntity
  8
0-0
  6
Continuous
 62
     3
370
     9
100
AcDbLine
 10
-760.3379275347736
 20
489.4121902053423
 30
0.0
 11
-96.33798856992968
 21
489.4121902053423
 31
0.0
  0
LINE
  5
E2
330
1F
100
AcDbEntity
  8
0-0
  6
Continuous
 62
     3
370
     9
100
AcDbLine
 10
-633.3379539283546
 20
516.9122809332772
 30
0.0
 11
-633.3379539283546
 21
523.4121539141684
 31
0.0
  0
LINE
  5
E3
330
1F
100
AcDbEntity
  8
0-0
  6
Continuous
 62
     3
370
     9
100
AcDbLine
 10
-756.8379531035553
 20
485.9121539141684
 30
0.0
 11
-99.83796300114804
 21
485.9121539141684
 31
0.0
  0
LINE
  5
E4
330
1F
100
AcDbEntity
  8
0-0
  6
Continuous
 62
     3
370
     9
100
AcDbLine
 10
-773.337982796334
 20
-155.5877726786844
 30
0.0
 11
-773.337982796334
 21
534.4123386692359
 31
0.0
  0
LINE
  5
E5
330
1F
100
AcDbEntity
  8
0-0
  6
Continuous
 62
     3
370
     9
100
AcDbLine
 10
-772.337954753154
 20
-119.5877528834986
 30
0.0
 11
-772.337954753154
 21
498.4120714342275
 31
0.0
  0
LINE
  5
E6
330
1F
100
AcDbEntity
  8
0-0
  6
Continuous
 62
     3
370
     9
100
AcDbLine
 10
-763.3379498043575
 20
-107.5877875250737
 30
0.0
 11
-763.3379498043575
 21
486.412229795714
 31
0.0
  0
LINE
  5
E7
330
1F
100
AcDbEntity
  8
0-0
  6
Continuous
 62
     3
370
     9
100
AcDbLine
 10
-647.3379135131836
 20
516.9122809332772
 30
0.0
 11
-647.3379135131836
 21
523.4121539141684
 31
0.0
  0
LINE
  5
E8
330
1F
100
AcDbEntity
  8
0-0
  6
Continuous
 62
     3
370
     9
100
AcDbLine
 10
-759.8379135131836
 20
-104.0877512338997
 30
0.0
 11
-759.8379135131836
 21
482.9120697846287
 31
0.0
  0
LINE
  5
E9
330
1F
100
AcDbEntity
  8
0-0
  6
Continuous
 62
     3
370
     9
100
AcDbLine
 10
-772.337954753154
 20
524.4123056772595
 30
0.0
 11
-773.337982796334
 21
523.4121539141684
 31
0.0
  0
LINE
  5
EA
330
1F
100
AcDbEntity
  8
0-0
  6
Continuous
 62
     3
370
     9
100
AcDbLine
 10
-758.8378854700036
 20
499.4122231973187
 30
0.0
 11
-758.8378854700036
 21
505.912219898121
 31
0.0
  0
LINE
  5
EB
330
1F
100
AcDbEntity
  8
0-0
  6
Continuous
 62
     3
370
     9
100
AcDbLine
 10
-758.8378854700036
 20
516.9122809332772
 30
0.0
 11
-758.8378854700036
 21
523.4121539141684
 31
0.0
  0
LINE
  5
EC
330
1F
100
AcDbEntity
  8
0-0
  6
Continuous
 62
     3
370
     9
100
AcDbLine
 10
-772.337954753154
 20
506.912247941301
 30
0.0
 11
-772.337954753154
 21
515.9121291701861
 31
0.0
  0
LINE
  5
ED
330
1F
100
AcDbEntity
  8
0-0
  6
Continuous
 62
     3
370
     9
100
AcDbLine
 10
-772.337954753154
 20
524.4123056772595
 30
0.0
 11
-772.337954753154
 21
533.4121869061447
 31
0.0
  0
LINE
  5
EE
330
1F
100
AcDbEntity
  8
0-0
  6
Continuous
 62
     3
370
     9
100
AcDbLine
 10
-772.337954753154
 20
533.4121869061447
 30
0.0
 11
-773.337982796334
 21
534.4123386692359
 31
0.0
  0
LINE
  5
EF
330
1F
100
AcDbEntity
  8
0-1
  6
Continuous
 62
     2
370
     9
100
AcDbLine
 10
-682.837981146735
 20
-165.0877916490708
 30
0.0
 11
-682.837981146735
 21
-189.5877982474661
 31
0.0
  0
LINE
  5
F0
330
1F
100
AcDbEntity
  8
0-0
  6
Continuous
 62
     3
370
     9
100
AcDbLine
 10
-772.337954753154
 20
515.9121291701861
 30
0.0
 11
-773.337982796334
 21
516.9122809332772
 31
0.0
  0
LINE
  5
F1
330
1F
100
AcDbEntity
  8
0-0
  6
Continuous
 62
     3
370
     9
100
AcDbLine
 10
-772.337954753154
 20
506.912247941301
 30
0.0
 11
-773.337982796334
 21
505.912219898121
 31
0.0
  0
LINE
  5
F2
330
1F
100
AcDbEntity
  8
0-0
  6
Continuous
 62
     3
370
     9
100
AcDbLine
 10
-773.337982796334
 20
499.4122231973187
 30
0.0
 11
-772.337954753154
 21
498.4120714342275
 31
0.0
  0
LINE
  5
F3
330
1F
100
AcDbEntity
  8
0-1
  6
Continuous
 62
     2
370
     9
100
AcDbLine
 10
-673.837914337983
 20
-165.0824716928841
 30
0.0
 11
-673.837914337983
 21
-189.5877982474661
 31
0.0
  0
LINE
  5
F4
330
1F
100
AcDbEntity
  8
0-1
  6
Continuous
 62
     2
370
     9
100
AcDbLine
 10
-173.8379349579682
 20
543.9122957796667
 30
0.0
 11
-173.8379349579682
 21
568.4121786581505
 31
0.0
  0
LINE
  5
F5
330
1F
100
AcDbEntity
  8
0-1
  6
Continuous
 62
     2
370
     9
100
AcDbLine
 10
-182.8379399067644
 20
543.9068521035687
 30
0.0
 11
-182.8379399067644
 21
568.4121786581505
 31
0.0
  0
LINE
  5
F6
330
1F
100
AcDbEntity
  8
0-1
  6
Continuous
 62
     2
370
     9
100
AcDbLine
 10
-682.837981146735
 20
-189.5877982474661
 30
0.0
 11
-673.837914337983
 21
-189.5877982474661
 31
0.0
  0
LINE
  5
F7
330
1F
100
AcDbEntity
  8
0-1
  6
Continuous
 62
     2
370
     9
100
AcDbLine
 10
-173.8379349579682
 20
-189.5877982474661
 30
0.0
 11
-182.8379399067644
 21
-189.5877982474661
 31
0.0
  0
LINE
  5
F8
330
1F
100
AcDbEntity
  8
0-0
  6
Continuous
 62
     3
370
     9
100
AcDbLine
 10
-773.337982796334
 20
-120.5877190667229
 30
0.0
 11
-772.337954753154
 21
-119.5877528834986
 31
0.0
  0
LINE
  5
F9
330
1F
100
AcDbEntity
  8
0-0
  6
Continuous
 62
     3
370
     9
100
AcDbLine
 10
-772.337954753154
 20
-128.0877438107049
 30
0.0
 11
-773.337982796334
 21
-127.0877776274807
 31
0.0
  0
LINE
  5
FA
330
1F
100
AcDbEntity
  8
0-0
  6
Continuous
 62
     3
370
     9
100
AcDbLine
 10
-772.337954753154
 20
-137.0877487595016
 30
0.0
 11
-773.337982796334
 21
-138.0877768026814
 31
0.0
  0
LINE
  5
FB
330
1F
100
AcDbEntity
  8
0-0
  6
Continuous
 62
     3
370
     9
100
AcDbLine
 10
-772.337954753154
 20
-154.5878064954601
 30
0.0
 11
-773.337982796334
 21
-155.5877726786844
 31
0.0
  0
LINE
  5
FC
330
1F
100
AcDbEntity
  8
0-0
  6
Continuous
 62
     3
370
     9
100
AcDbLine
 10
-772.337954753154
 20
-145.5878015466637
 30
0.0
 11
-772.337954753154
 21
-154.5878064954601
 31
0.0
  0
LINE
  5
FD
330
1F
100
AcDbEntity
  8
0-0
  6
Continuous
 62
     3
370
     9
100
AcDbLine
 10
-772.337954753154
 20
-128.0877438107049
 30
0.0
 11
-772.337954753154
 21
-137.0877487595016
 31
0.0
  0
LINE
  5
FE
330
1F
100
AcDbEntity
  8
0-0
  6
Continuous
 62
     3
370
     9
100
AcDbLine
 10
-758.8378854700036
 20
-138.0877768026814
 30
0.0
 11
-758.8378854700036
 21
-144.5877735034838
 31
0.0
  0
LINE
  5
FF
330
1F
100
AcDbEntity
  8
0-0
  6
Continuous
 62
     3
370
     9
100
AcDbLine
 10
-758.8378854700036
 20
-120.5877190667229
 30
0.0
 11
-758.8378854700036
 21
-127.0877776274807
 31
0.0
  0
LINE
  5
100
330
1F
100
AcDbEntity
  8
0-0
  6
Continuous
 62
     3
370
     9
100
AcDbLine
 10
-772.337954753154
 20
-145.5878015466637
 30
0.0
 11
-773.337982796334
 21
-144.5877735034838
 31
0.0
  0
LINE
  5
101
330
1F
100
AcDbEntity
  8
0-0
  6
Continuous
 62
     3
370
     9
100
AcDbLine
 10
-647.3379135131836
 20
-138.0877768026814
 30
0.0
 11
-647.3379135131836
 21
-144.5877735034838
 31
0.0
  0
LINE
  5
102
330
1F
100
AcDbEntity
  8
0-1
  6
Continuous
 62
     2
370
     9
100
AcDbLine
 10
453.6620939100115
 20
536.2122159390839
 30
0.0
 11
396.6621038076039
 21
536.2122159390839
 31
0.0
  0
LINE
  5
103
330
1F
100
AcDbEntity
  8
0-1
  6
Continuous
 62
     2
370
     9
100
AcDbLine
 10
456.6620543196393
 20
488.9121143237966
 30
0.0
 11
456.6620543196393
 21
533.2122555294554
 31
0.0
  0
LINE
  5
104
330
1F
100
AcDbEntity
  8
0-1
  6
Continuous
 62
     2
370
     9
100
AcDbLine
 10
459.8619461059573
 20
489.4121902053423
 30
0.0
 11
459.8619461059573
 21
533.4121869061447
 31
0.0
  0
LINE
  5
105
330
1F
100
AcDbEntity
  8
0-0
  6
Continuous
 62
     3
370
     9
100
AcDbLine
 10
396.6621038076039
 20
498.4120714342275
 30
0.0
 11
402.6620246268607
 21
499.4122231973187
 31
0.0
  0
LINE
  5
106
330
1F
100
AcDbEntity
  8
0-0
  6
Continuous
 62
     3
370
     9
100
AcDbLine
 10
402.6620246268607
 20
505.912219898121
 30
0.0
 11
396.6621038076039
 21
506.912247941301
 31
0.0
  0
LINE
  5
107
330
1F
100
AcDbEntity
  8
0-0
  6
Continuous
 62
     3
370
     9
100
AcDbLine
 10
396.6621038076039
 20
506.912247941301
 30
0.0
 11
396.6621038076039
 21
515.9121291701861
 31
0.0
  0
LINE
  5
108
330
1F
100
AcDbEntity
  8
0-0
  6
Continuous
 62
     3
370
     9
100
AcDbLine
 10
396.6621038076039
 20
515.9121291701861
 30
0.0
 11
402.6620246268607
 21
516.9122809332772
 31
0.0
  0
LINE
  5
109
330
1F
100
AcDbEntity
  8
0-0
  6
Continuous
 62
     3
370
     9
100
AcDbLine
 10
402.6620246268607
 20
523.4121539141684
 30
0.0
 11
396.6621038076039
 21
524.4123056772595
 31
0.0
  0
LINE
  5
10A
330
1F
100
AcDbEntity
  8
0-0
  6
Continuous
 62
     3
370
     9
100
AcDbLine
 10
396.6621038076039
 20
524.4123056772595
 30
0.0
 11
396.6621038076039
 21
533.4121869061447
 31
0.0
  0
LINE
  5
10B
330
1F
100
AcDbEntity
  8
0-0
  6
Continuous
 62
     3
370
     9
100
AcDbLine
 10
396.6621038076039
 20
533.4121869061447
 30
0.0
 11
402.6620246268607
 21
534.4123386692359
 31
0.0
  0
LINE
  5
10C
330
1F
100
AcDbEntity
  8
0-0
  6
Continuous
 62
     3
370
     9
100
AcDbLine
 10
402.6620246268607
 20
515.412300728463
 30
0.0
 11
409.3480960742846
 21
514.5764490076016
 31
0.0
  0
LINE
  5
10D
330
1F
100
AcDbEntity
  8
0-0
  6
Continuous
 62
     3
370
     9
100
AcDbLine
 10
402.6620246268607
 20
532.9122347445104
 30
0.0
 11
456.6620543196393
 21
525.9121621621624
 31
0.0
  0
LINE
  5
10E
330
1F
100
AcDbEntity
  8
0-0
  6
Continuous
 62
     3
370
     9
100
AcDbLine
 10
410.6620015324773
 20
509.7362786370357
 30
0.0
 11
410.6620015324773
 21
513.08797475454
 31
0.0
  0
LINE
  5
10F
330
1F
100
AcDbEntity
  8
0-0
  6
Continuous
 62
     3
370
     9
100
AcDbLine
 10
410.6620015324773
 20
527.2363363729943
 30
0.0
 11
410.6620015324773
 21
530.5569787927578
 31
0.0
  0
LINE
  5
110
330
1F
100
AcDbEntity
  8
0-0
  6
Continuous
 62
     3
370
     9
100
AcDbLine
 10
402.6620246268607
 20
524.9122578388938
 30
0.0
 11
409.3480960742846
 21
525.747985839844
 31
0.0
  0
LINE
  5
111
330
1F
100
AcDbEntity
  8
0-0
  6
Continuous
 62
     3
370
     9
100
AcDbLine
 10
409.3480960742846
 20
508.2480518237966
 30
0.0
 11
402.6620246268607
 21
507.4122001029352
 31
0.0
  0
LINE
  5
112
330
1F
100
AcDbEntity
  8
0-0
  6
Continuous
 62
     3
370
     9
100
AcDbLine
 10
402.6620246268607
 20
515.412300728463
 30
0.0
 11
402.6620246268607
 21
524.9122578388938
 31
0.0
  0
LINE
  5
113
330
1F
100
AcDbEntity
  8
0-0
  6
Continuous
 62
     3
370
     9
100
AcDbLine
 10
402.6620246268607
 20
532.9122347445104
 30
0.0
 11
402.6620246268607
 21
534.4123386692359
 31
0.0
  0
LINE
  5
114
330
1F
100
AcDbEntity
  8
0-0
  6
Continuous
 62
     3
370
     9
100
AcDbLine
 10
-756.8379531035553
 20
-107.0877735034838
 30
0.0
 11
-99.83796300114804
 21
-107.0877735034838
 31
0.0
  0
LINE
  5
115
330
1F
100
AcDbEntity
  8
0-0
  6
Continuous
 62
     3
370
     9
100
AcDbLine
 10
-633.3379539283546
 20
-138.0877768026814
 30
0.0
 11
-633.3379539283546
 21
-144.5877735034838
 31
0.0
  0
LINE
  5
116
330
1F
100
AcDbEntity
  8
0-0
  6
Continuous
 62
     3
370
     9
100
AcDbLine
 10
-760.3379275347736
 20
-110.5878097946578
 30
0.0
 11
-96.33798856992968
 21
-110.5878097946578
 31
0.0
  0
LINE
  5
117
330
1F
100
AcDbEntity
  8
0-0
  6
Continuous
 62
     3
370
     9
100
AcDbLine
 10
-772.337954753154
 20
-119.5877528834986
 30
0.0
 11
-84.33796135154921
 21
-119.5877528834986
 31
0.0
  0
LINE
  5
118
330
1F
100
AcDbEntity
  8
0-0
  6
Continuous
 62
     3
370
     9
100
AcDbLine
 10
-541.3379720739416
 20
-138.0877768026814
 30
0.0
 11
-541.3379720739416
 21
-144.5877735034838
 31
0.0
  0
LINE
  5
119
330
1F
100
AcDbEntity
  8
0-0
  6
Continuous
 62
     3
370
     9
100
AcDbLine
 10
-527.3379506291569
 20
-138.0877768026814
 30
0.0
 11
-527.3379506291569
 21
-144.5877735034838
 31
0.0
  0
LINE
  5
11A
330
1F
100
AcDbEntity
  8
0-0
  6
Continuous
 62
     3
370
     9
100
AcDbLine
 10
-773.337982796334
 20
-120.5877190667229
 30
0.0
 11
-83.3379333083694
 21
-120.5877190667229
 31
0.0
  0
LINE
  5
11B
330
1F
100
AcDbEntity
  8
0-0
  6
Continuous
 62
     3
370
     9
100
AcDbLine
 10
-773.337982796334
 20
-127.0877776274807
 30
0.0
 11
-83.3379333083694
 21
-127.0877776274807
 31
0.0
  0
LINE
  5
11C
330
1F
100
AcDbEntity
  8
0-0
  6
Continuous
 62
     3
370
     9
100
AcDbLine
 10
-435.3379069147883
 20
-138.0877768026814
 30
0.0
 11
-435.3379069147883
 21
-144.5877735034838
 31
0.0
  0
LINE
  5
11D
330
1F
100
AcDbEntity
  8
0-0
  6
Continuous
 62
     3
370
     9
100
AcDbLine
 10
-647.3379135131836
 20
-120.5877190667229
 30
0.0
 11
-647.3379135131836
 21
-127.0877776274807
 31
0.0
  0
LINE
  5
11E
330
1F
100
AcDbEntity
  8
0-0
  6
Continuous
 62
     3
370
     9
100
AcDbLine
 10
-633.3379539283546
 20
-120.5877190667229
 30
0.0
 11
-633.3379539283546
 21
-127.0877776274807
 31
0.0
  0
LINE
  5
11F
330
1F
100
AcDbEntity
  8
0-0
  6
Continuous
 62
     3
370
     9
100
AcDbLine
 10
-527.3379506291569
 20
-120.5877190667229
 30
0.0
 11
-527.3379506291569
 21
-127.0877776274807
 31
0.0
  0
LINE
  5
120
330
1F
100
AcDbEntity
  8
0-0
  6
Continuous
 62
     3
370
     9
100
AcDbLine
 10
-541.3379720739416
 20
-120.5877190667229
 30
0.0
 11
-541.3379720739416
 21
-127.0877776274807
 31
0.0
  0
LINE
  5
121
330
1F
100
AcDbEntity
  8
0-0
  6
Continuous
 62
     3
370
     9
100
AcDbLine
 10
-772.337954753154
 20
-128.0877438107049
 30
0.0
 11
-84.33796135154921
 21
-128.0877438107049
 31
0.0
  0
LINE
  5
122
330
1F
100
AcDbEntity
  8
0-0
  6
Continuous
 62
     3
370
     9
100
AcDbLine
 10
-772.337954753154
 20
-137.0877487595016
 30
0.0
 11
-84.33796135154921
 21
-137.0877487595016
 31
0.0
  0
LINE
  5
123
330
1F
100
AcDbEntity
  8
0-0
  6
Continuous
 62
     3
370
     9
100
AcDbLine
 10
-773.337982796334
 20
-138.0877768026814
 30
0.0
 11
-83.3379333083694
 21
-138.0877768026814
 31
0.0
  0
LINE
  5
124
330
1F
100
AcDbEntity
  8
0-0
  6
Continuous
 62
     3
370
     9
100
AcDbLine
 10
-773.337982796334
 20
-144.5877735034838
 30
0.0
 11
-83.3379333083694
 21
-144.5877735034838
 31
0.0
  0
LINE
  5
125
330
1F
100
AcDbEntity
  8
0-0
  6
Continuous
 62
     3
370
     9
100
AcDbLine
 10
-772.337954753154
 20
-145.5878015466637
 30
0.0
 11
-84.33796135154921
 21
-145.5878015466637
 31
0.0
  0
LINE
  5
126
330
1F
100
AcDbEntity
  8
0-0
  6
Continuous
 62
     3
370
     9
100
AcDbLine
 10
-772.337954753154
 20
-154.5878064954601
 30
0.0
 11
-84.33796135154921
 21
-154.5878064954601
 31
0.0
  0
LINE
  5
127
330
1F
100
AcDbEntity
  8
0-0
  6
Continuous
 62
     3
370
     9
100
AcDbLine
 10
-773.337982796334
 20
-155.5877726786844
 30
0.0
 11
-83.3379333083694
 21
-155.5877726786844
 31
0.0
  0
LINE
  5
128
330
1F
100
AcDbEntity
  8
0-0
  6
Continuous
 62
     3
370
     9
100
AcDbLine
 10
-435.3379069147883
 20
-120.5877190667229
 30
0.0
 11
-435.3379069147883
 21
-127.0877776274807
 31
0.0
  0
LINE
  5
129
330
1F
100
AcDbEntity
  8
0-0
  6
Continuous
 62
     3
370
     9
100
AcDbLine
 10
-421.3379473299591
 20
-120.5877190667229
 30
0.0
 11
-421.3379473299591
 21
-127.0877776274807
 31
0.0
  0
LINE
  5
12A
330
1F
100
AcDbEntity
  8
0-0
  6
Continuous
 62
     3
370
     9
100
AcDbLine
 10
-315.3379440307617
 20
-120.5877190667229
 30
0.0
 11
-315.3379440307617
 21
-127.0877776274807
 31
0.0
  0
LINE
  5
12B
330
1F
100
AcDbEntity
  8
0-0
  6
Continuous
 62
     3
370
     9
100
AcDbLine
 10
-329.3379036155906
 20
-120.5877190667229
 30
0.0
 11
-329.3379036155906
 21
-127.0877776274807
 31
0.0
  0
LINE
  5
12C
330
1F
100
AcDbEntity
  8
0-0
  6
Continuous
 62
     3
370
     9
100
AcDbLine
 10
-223.337900316393
 20
-120.5877190667229
 30
0.0
 11
-223.337900316393
 21
-127.0877776274807
 31
0.0
  0
LINE
  5
12D
330
1F
100
AcDbEntity
  8
0-0
  6
Continuous
 62
     3
370
     9
100
AcDbLine
 10
-209.3379407315641
 20
-120.5877190667229
 30
0.0
 11
-209.3379407315641
 21
-127.0877776274807
 31
0.0
  0
LINE
  5
12E
330
1F
100
AcDbEntity
  8
0-0
  6
Continuous
 62
     3
370
     9
100
AcDbLine
 10
-421.3379473299591
 20
-138.0877768026814
 30
0.0
 11
-421.3379473299591
 21
-144.5877735034838
 31
0.0
  0
LINE
  5
12F
330
1F
100
AcDbEntity
  8
0-0
  6
Continuous
 62
     3
370
     9
100
AcDbLine
 10
-329.3379036155906
 20
-138.0877768026814
 30
0.0
 11
-329.3379036155906
 21
-144.5877735034838
 31
0.0
  0
LINE
  5
130
330
1F
100
AcDbEntity
  8
0-0
  6
Continuous
 62
     3
370
     9
100
AcDbLine
 10
-315.3379440307617
 20
-138.0877768026814
 30
0.0
 11
-315.3379440307617
 21
-144.5877735034838
 31
0.0
  0
LINE
  5
131
330
1F
100
AcDbEntity
  8
0-0
  6
Continuous
 62
     3
370
     9
100
AcDbLine
 10
-223.337900316393
 20
-138.0877768026814
 30
0.0
 11
-223.337900316393
 21
-144.5877735034838
 31
0.0
  0
LINE
  5
132
330
1F
100
AcDbEntity
  8
0-0
  6
Continuous
 62
     3
370
     9
100
AcDbLine
 10
-209.3379407315641
 20
-138.0877768026814
 30
0.0
 11
-209.3379407315641
 21
-144.5877735034838
 31
0.0
  0
LINE
  5
133
330
1F
100
AcDbEntity
  8
0-0
  6
Continuous
 62
     3
370
     9
100
AcDbLine
 10
-84.33796135154921
 20
-145.5878015466637
 30
0.0
 11
-83.3379333083694
 21
-144.5877735034838
 31
0.0
  0
LINE
  5
134
330
1F
100
AcDbEntity
  8
0-0
  6
Continuous
 62
     3
370
     9
100
AcDbLine
 10
-97.83790691478828
 20
-120.5877190667229
 30
0.0
 11
-97.83790691478828
 21
-127.0877776274807
 31
0.0
  0
LINE
  5
135
330
1F
100
AcDbEntity
  8
0-0
  6
Continuous
 62
     3
370
     9
100
AcDbLine
 10
-97.83790691478828
 20
-138.0877768026814
 30
0.0
 11
-97.83790691478828
 21
-144.5877735034838
 31
0.0
  0
LINE
  5
136
330
1F
100
AcDbEntity
  8
0-0
  6
Continuous
 62
     3
370
     9
100
AcDbLine
 10
-84.33796135154921
 20
-128.0877438107049
 30
0.0
 11
-84.33796135154921
 21
-137.0877487595016
 31
0.0
  0
LINE
  5
137
330
1F
100
AcDbEntity
  8
0-0
  6
Continuous
 62
     3
370
     9
100
AcDbLine
 10
-84.33796135154921
 20
-145.5878015466637
 30
0.0
 11
-84.33796135154921
 21
-154.5878064954601
 31
0.0
  0
LINE
  5
138
330
1F
100
AcDbEntity
  8
0-0
  6
Continuous
 62
     3
370
     9
100
AcDbLine
 10
-84.33796135154921
 20
-154.5878064954601
 30
0.0
 11
-83.3379333083694
 21
-155.5877726786844
 31
0.0
  0
LINE
  5
139
330
1F
100
AcDbEntity
  8
0-0
  6
Continuous
 62
     3
370
     9
100
AcDbLine
 10
-84.33796135154921
 20
-137.0877487595016
 30
0.0
 11
-83.3379333083694
 21
-138.0877768026814
 31
0.0
  0
LINE
  5
13A
330
1F
100
AcDbEntity
  8
0-0
  6
Continuous
 62
     3
370
     9
100
AcDbLine
 10
-84.33796135154921
 20
-128.0877438107049
 30
0.0
 11
-83.3379333083694
 21
-127.0877776274807
 31
0.0
  0
LINE
  5
13B
330
1F
100
AcDbEntity
  8
0-0
  6
Continuous
 62
     3
370
     9
100
AcDbLine
 10
-83.3379333083694
 20
-120.5877190667229
 30
0.0
 11
-84.33796135154921
 21
-119.5877528834986
 31
0.0
  0
LINE
  5
13C
330
1F
100
AcDbEntity
  8
0-1
  6
Continuous
 62
     2
370
     9
100
AcDbLine
 10
483.8618768228073
 20
568.4121786581505
 30
0.0
 11
474.8619955939219
 21
568.4121786581505
 31
0.0
  0
LINE
  5
13D
330
1F
100
AcDbEntity
  8
0-1
  6
Continuous
 62
     2
370
     9
100
AcDbLine
 10
483.8618768228073
 20
553.4121291701861
 30
0.0
 11
483.8618768228073
 21
568.4121786581505
 31
0.0
  0
LINE
  5
13E
330
1F
100
AcDbEntity
  8
0-1
  6
Continuous
 62
     2
370
     9
100
AcDbLine
 10
474.8619955939219
 20
553.4121291701861
 30
0.0
 11
474.8619955939219
 21
568.4121786581505
 31
0.0
  0
LINE
  5
13F
330
1F
100
AcDbEntity
  8
0-1
  6
Continuous
 62
     2
370
     9
100
AcDbLine
 10
-182.8379399067644
 20
-165.0824716928841
 30
0.0
 11
-182.8379399067644
 21
-189.5877982474661
 31
0.0
  0
LINE
  5
140
330
1F
100
AcDbEntity
  8
0-1
  6
Continuous
 62
     2
370
     9
100
AcDbLine
 10
-173.8379349579682
 20
-165.0877916490708
 30
0.0
 11
-173.8379349579682
 21
-189.5877982474661
 31
0.0
  0
LINE
  5
141
330
1F
100
AcDbEntity
  8
0-1
  6
Continuous
 62
     2
370
     9
100
AcDbLine
 10
444.8618966179927
 20
539.4122314453127
 30
0.0
 11
444.8618966179927
 21
548.4122363941092
 31
0.0
  0
LINE
  5
142
330
1F
100
AcDbEntity
  8
0-1
  6
Continuous
 62
     2
370
     9
100
AcDbLine
 10
469.8619790979336
 20
548.4122363941092
 30
0.0
 11
444.8618966179927
 21
548.4122363941092
 31
0.0
  0
LINE
  5
143
330
1F
100
AcDbEntity
  8
0-0
  6
Continuous
 62
     3
370
     9
100
AcDbLine
 10
-83.3379333083694
 20
499.4122231973187
 30
0.0
 11
-84.33796135154921
 21
498.4120714342275
 31
0.0
  0
LINE
  5
144
330
1F
100
AcDbEntity
  8
0-0
  6
Continuous
 62
     3
370
     9
100
AcDbLine
 10
-84.33796135154921
 20
506.912247941301
 30
0.0
 11
-83.3379333083694
 21
505.912219898121
 31
0.0
  0
LINE
  5
145
330
1F
100
AcDbEntity
  8
0-0
  6
Continuous
 62
     3
370
     9
100
AcDbLine
 10
-84.33796135154921
 20
515.9121291701861
 30
0.0
 11
-83.3379333083694
 21
516.9122809332772
 31
0.0
  0
LINE
  5
146
330
1F
100
AcDbEntity
  8
0-0
  6
Continuous
 62
     3
370
     9
100
AcDbLine
 10
-84.33796135154921
 20
533.4121869061447
 30
0.0
 11
-83.3379333083694
 21
534.4123386692359
 31
0.0
  0
LINE
  5
147
330
1F
100
AcDbEntity
  8
0-0
  6
Continuous
 62
     3
370
     9
100
AcDbLine
 10
-84.33796135154921
 20
524.4123056772595
 30
0.0
 11
-84.33796135154921
 21
533.4121869061447
 31
0.0
  0
LINE
  5
148
330
1F
100
AcDbEntity
  8
0-0
  6
Continuous
 62
     3
370
     9
100
AcDbLine
 10
-84.33796135154921
 20
506.912247941301
 30
0.0
 11
-84.33796135154921
 21
515.9121291701861
 31
0.0
  0
LINE
  5
149
330
1F
100
AcDbEntity
  8
0-0
  6
Continuous
 62
     3
370
     9
100
AcDbLine
 10
-97.83790691478828
 20
516.9122809332772
 30
0.0
 11
-97.83790691478828
 21
523.4121539141684
 31
0.0
  0
LINE
  5
14A
330
1F
100
AcDbEntity
  8
0-0
  6
Continuous
 62
     3
370
     9
100
AcDbLine
 10
-97.83790691478828
 20
499.4122231973187
 30
0.0
 11
-97.83790691478828
 21
505.912219898121
 31
0.0
  0
LINE
  5
14B
330
1F
100
AcDbEntity
  8
0-0
  6
Continuous
 62
     3
370
     9
100
AcDbLine
 10
-84.33796135154921
 20
524.4123056772595
 30
0.0
 11
-83.3379333083694
 21
523.4121539141684
 31
0.0
  0
LINE
  5
14C
330
1F
100
AcDbEntity
  8
0-0
  6
Continuous
 62
     3
370
     9
100
AcDbLine
 10
-209.3379407315641
 20
516.9122809332772
 30
0.0
 11
-209.3379407315641
 21
523.4121539141684
 31
0.0
  0
LINE
  5
14D
330
1F
100
AcDbEntity
  8
0-0
  6
Continuous
 62
     3
370
     9
100
AcDbLine
 10
-223.337900316393
 20
516.9122809332772
 30
0.0
 11
-223.337900316393
 21
523.4121539141684
 31
0.0
  0
LINE
  5
14E
330
1F
100
AcDbEntity
  8
0-0
  6
Continuous
 62
     3
370
     9
100
AcDbLine
 10
-315.3379440307617
 20
516.9122809332772
 30
0.0
 11
-315.3379440307617
 21
523.4121539141684
 31
0.0
  0
LINE
  5
14F
330
1F
100
AcDbEntity
  8
0-0
  6
Continuous
 62
     3
370
     9
100
AcDbLine
 10
-329.3379036155906
 20
516.9122809332772
 30
0.0
 11
-329.3379036155906
 21
523.4121539141684
 31
0.0
  0
LINE
  5
150
330
1F
100
AcDbEntity
  8
0-0
  6
Continuous
 62
     3
370
     9
100
AcDbLine
 10
-421.3379473299591
 20
516.9122809332772
 30
0.0
 11
-421.3379473299591
 21
523.4121539141684
 31
0.0
  0
LINE
  5
151
330
1F
100
AcDbEntity
  8
0-0
  6
Continuous
 62
     3
370
     9
100
AcDbLine
 10
-209.3379407315641
 20
499.4122231973187
 30
0.0
 11
-209.3379407315641
 21
505.912219898121
 31
0.0
  0
LINE
  5
152
330
1F
100
AcDbEntity
  8
0-0
  6
Continuous
 62
     3
370
     9
100
AcDbLine
 10
-223.337900316393
 20
499.4122231973187
 30
0.0
 11
-223.337900316393
 21
505.912219898121
 31
0.0
  0
LINE
  5
153
330
1F
100
AcDbEntity
  8
0-0
  6
Continuous
 62
     3
370
     9
100
AcDbLine
 10
-329.3379036155906
 20
499.4122231973187
 30
0.0
 11
-329.3379036155906
 21
505.912219898121
 31
0.0
  0
LINE
  5
154
330
1F
100
AcDbEntity
  8
0-0
  6
Continuous
 62
     3
370
     9
100
AcDbLine
 10
-315.3379440307617
 20
499.4122231973187
 30
0.0
 11
-315.3379440307617
 21
505.912219898121
 31
0.0
  0
LINE
  5
155
330
1F
100
AcDbEntity
  8
0-1
  6
Continuous
 62
     2
370
     9
100
AcDbLine
 10
-173.8379349579682
 20
568.4121786581505
 30
0.0
 11
-182.8379399067644
 21
568.4121786581505
 31
0.0
  0
LINE
  5
156
330
1F
100
AcDbEntity
  8
0-0
  6
Continuous
 62
     3
370
     9
100
AcDbLine
 10
-421.3379473299591
 20
499.4122231973187
 30
0.0
 11
-421.3379473299591
 21
505.912219898121
 31
0.0
  0
LINE
  5
157
330
1F
100
AcDbEntity
  8
0-0
  6
JWW_CENTER1
 62
     3
370
     9
100
AcDbLine
 10
-428.3379580523516
 20
-185.5877479347021
 30
0.0
 11
-428.3379580523516
 21
564.4121902053423
 31
0.0
  0
LINE
  5
158
330
1F
100
AcDbEntity
  8
0-0
  6
JWW_CENTER1
 62
     3
370
     9
100
AcDbLine
 10
-53.33789619239596
 20
189.4121902053423
 30
0.0
 11
-803.3379580523517
 21
189.4121902053423
 31
0.0
  0
LINE
  5
159
330
1F
100
AcDbEntity
  8
0-1
  6
JWW_CENTER1
 62
     2
370
     9
100
AcDbLine
 10
-687.8378739228118
 20
543.9122957796667
 30
0.0
 11
-668.8379597019505
 21
543.9122957796667
 31
0.0
  0
LINE
  5
15A
330
1F
100
AcDbEntity
  8
0-1
  6
JWW_CENTER1
 62
     2
370
     9
100
AcDbLine
 10
-678.3379168123813
 20
531.2121994430958
 30
0.0
 11
-678.3379168123813
 21
573.4121951541388
 31
0.0
  0
LINE
  5
15B
330
1F
100
AcDbEntity
  8
0-1
  6
JWW_CENTER1
 62
     2
370
     9
100
AcDbLine
 10
-187.8379564027527
 20
543.9122957796667
 30
0.0
 11
-168.8379184619799
 21
543.9122957796667
 31
0.0
  0
LINE
  5
15C
330
1F
100
AcDbEntity
  8
0-1
  6
JWW_CENTER1
 62
     2
370
     9
100
AcDbLine
 10
-178.3379374323664
 20
531.2121994430958
 30
0.0
 11
-178.3379374323664
 21
573.4121951541388
 31
0.0
  0
LINE
  5
15D
330
1F
100
AcDbEntity
  8
0-1
  6
JWW_CENTER1
 62
     2
370
     9
100
AcDbLine
 10
-687.8378739228118
 20
-165.087915368982
 30
0.0
 11
-668.8379597019505
 21
-165.087915368982
 31
0.0
  0
LINE
  5
15E
330
1F
100
AcDbEntity
  8
0-1
  6
JWW_CENTER1
 62
     2
370
     9
100
AcDbLine
 10
-678.3379168123813
 20
-152.3878190324112
 30
0.0
 11
-678.3379168123813
 21
-194.5878456734322
 31
0.0
  0
LINE
  5
15F
330
1F
100
AcDbEntity
  8
0-1
  6
JWW_CENTER1
 62
     2
370
     9
100
AcDbLine
 10
-187.8379564027527
 20
-165.087915368982
 30
0.0
 11
-168.8379184619799
 21
-165.087915368982
 31
0.0
  0
LINE
  5
160
330
1F
100
AcDbEntity
  8
0-1
  6
JWW_CENTER1
 62
     2
370
     9
100
AcDbLine
 10
-178.3379374323664
 20
-152.3878190324112
 30
0.0
 11
-178.3379374323664
 21
-194.5878456734322
 31
0.0
  0
LINE
  5
161
330
1F
100
AcDbEntity
  8
0-0
  6
Continuous
 62
     3
370
     9
100
AcDbLine
 10
-86.83796959954336
 20
-461.2169667836781
 30
0.0
 11
-93.83791846197994
 21
-461.2169667836781
 31
0.0
  0
LINE
  5
162
330
1F
100
AcDbEntity
  8
0-0
  6
Continuous
 62
     3
370
     9
100
AcDbLine
 10
456.656363203719
 20
488.9106296848609
 30
0.0
 11
456.6620543196393
 21
488.9121143237966
 31
0.0
  0
LINE
  5
163
330
1F
100
AcDbEntity
  8
0-1
  6
Continuous
 62
     2
370
     9
100
AcDbLine
 10
-744.8379877451304
 20
505.912219898121
 30
0.0
 11
-738.337991044328
 21
499.4122231973187
 31
0.0
  0
LINE
  5
164
330
1F
100
AcDbEntity
  8
0-1
  6
Continuous
 62
     2
370
     9
100
AcDbLine
 10
-778.3379374323664
 20
539.4122314453127
 30
0.0
 11
-773.337982796334
 21
534.4123386692359
 31
0.0
  0
LINE
  5
165
330
1F
100
AcDbEntity
  8
0-1
  6
Continuous
 62
     2
370
     9
100
AcDbLine
 10
-758.8379473299592
 20
519.9122413429056
 30
0.0
 11
-755.8380487802866
 21
516.9122809332772
 31
0.0
  0
LINE
  5
166
330
1F
100
AcDbEntity
  8
0-1
  6
Continuous
 62
     2
370
     9
100
AcDbLine
 10
-111.8379902195284
 20
505.912219898121
 30
0.0
 11
-118.3379869203308
 21
499.4122231973187
 31
0.0
  0
LINE
  5
167
330
1F
100
AcDbEntity
  8
0-1
  6
Continuous
 62
     2
370
     9
100
AcDbLine
 10
-78.3379786723367
 20
539.4122314453127
 30
0.0
 11
-83.3379333083694
 21
534.4123386692359
 31
0.0
  0
LINE
  5
168
330
1F
100
AcDbEntity
  8
0-1
  6
Continuous
 62
     2
370
     9
100
AcDbLine
 10
-97.83790691478828
 20
519.9123650628169
 30
0.0
 11
-100.8379910443279
 21
516.9122809332772
 31
0.0
  0
LINE
  5
169
330
1F
100
AcDbEntity
  8
0-1
  6
Continuous
 62
     2
370
     9
100
AcDbLine
 10
-744.8379877451304
 20
-127.0878394874364
 30
0.0
 11
-738.337991044328
 21
-120.5878427866341
 31
0.0
  0
LINE
  5
16A
330
1F
100
AcDbEntity
  8
0-1
  6
Continuous
 62
     2
370
     9
100
AcDbLine
 10
-778.3379374323664
 20
-160.5878510346281
 30
0.0
 11
-773.337982796334
 21
-155.5879582585514
 31
0.0
  0
LINE
  5
16B
330
1F
100
AcDbEntity
  8
0-1
  6
Continuous
 62
     2
370
     9
100
AcDbLine
 10
-758.8379473299592
 20
-141.0878609322212
 30
0.0
 11
-755.8380487802866
 21
-138.0879005225927
 31
0.0
  0
LINE
  5
16C
330
1F
100
AcDbEntity
  8
0-1
  6
Continuous
 62
     2
370
     9
100
AcDbLine
 10
-111.8379902195284
 20
-127.0878394874364
 30
0.0
 11
-118.3379869203308
 21
-120.5878427866341
 31
0.0
  0
LINE
  5
16D
330
1F
100
AcDbEntity
  8
0-1
  6
Continuous
 62
     2
370
     9
100
AcDbLine
 10
-78.3379786723367
 20
-160.5878510346281
 30
0.0
 11
-83.3379333083694
 21
-155.5879582585514
 31
0.0
  0
LINE
  5
16E
330
1F
100
AcDbEntity
  8
0-1
  6
Continuous
 62
     2
370
     9
100
AcDbLine
 10
-97.83790691478828
 20
-141.0879846521324
 30
0.0
 11
-100.8379910443279
 21
-138.0879005225927
 31
0.0
  0
LINE
  5
16F
330
1F
100
AcDbEntity
  8
0-1
  6
JWW_CENTER1
 62
     2
370
     9
100
AcDbLine
 10
479.3619362083643
 20
553.4121291701861
 30
0.0
 11
479.3619362083643
 21
573.4121951541388
 31
0.0
  0
LINE
  5
170
330
1F
100
AcDbEntity
  8
0-1
  6
JWW_CENTER1
 62
     2
370
     9
100
AcDbLine
 10
469.8619790979336
 20
543.9122957796667
 30
0.0
 11
439.8618801220044
 21
543.9122957796667
 31
0.0
  0
LINE
  5
171
330
1F
100
AcDbEntity
  8
0-1
  6
JWW_CENTER1
 62
     2
370
     9
100
AcDbLine
 10
469.8619790979336
 20
-165.0877916490708
 30
0.0
 11
439.8618801220044
 21
-165.0877916490708
 31
0.0
  0
LINE
  5
172
330
1F
100
AcDbEntity
  8
0-1
  6
Continuous
 62
     2
370
     9
100
AcDbLine
 10
474.8619955939219
 20
-174.5877487595016
 30
0.0
 11
474.8619955939219
 21
-189.5877982474661
 31
0.0
  0
LINE
  5
173
330
1F
100
AcDbEntity
  8
0-1
  6
Continuous
 62
     2
370
     9
100
AcDbLine
 10
483.8618768228073
 20
-174.5877487595016
 30
0.0
 11
483.8618768228073
 21
-189.5877982474661
 31
0.0
  0
LINE
  5
174
330
1F
100
AcDbEntity
  8
0-1
  6
JWW_CENTER1
 62
     2
370
     9
100
AcDbLine
 10
479.3619362083643
 20
-174.5877487595016
 30
0.0
 11
479.3619362083643
 21
-194.5878147434541
 31
0.0
  0
LINE
  5
175
330
1F
100
AcDbEntity
  8
0-F
  6
Continuous
 62
     7
370
     9
100
AcDbLine
 10
-678.3379168123813
 20
578.4122116501269
 30
0.0
 11
-678.3379168123813
 21
599.3931290910052
 31
0.0
  0
LINE
  5
176
330
1F
100
AcDbEntity
  8
0-F
  6
Continuous
 62
     7
370
     9
100
AcDbLine
 10
-178.3379374323664
 20
578.4122116501269
 30
0.0
 11
-178.3379374323664
 21
599.3931290910052
 31
0.0
  0
LINE
  5
177
330
1F
100
AcDbEntity
  8
0-0
  6
Continuous
 62
     3
370
     9
100
AcDbLine
 10
-93.41776564314557
 20
-402.1296980574323
 30
0.0
 11
-96.59823340338619
 21
-438.4783605627109
 31
0.0
  0
LINE
  5
178
330
1F
100
AcDbEntity
  8
0-F
  6
Continuous
 62
     7
370
     9
100
AcDbLine
 10
464.861962601945
 20
489.4121902053423
 30
0.0
 11
565.3618735236093
 21
489.4121902053423
 31
0.0
  0
LINE
  5
179
330
1F
100
AcDbEntity
  8
0-F
  6
Continuous
 62
     7
370
     9
100
AcDbLine
 10
464.861962601945
 20
-110.5878097946578
 30
0.0
 11
565.3618735236093
 21
-110.5878097946578
 31
0.0
  0
LINE
  5
17A
330
1F
100
AcDbEntity
  8
0-F
  6
Continuous
 62
     7
370
     9
100
AcDbLine
 10
456.6620543196393
 20
-165.5877438107052
 30
0.0
 11
456.6620543196393
 21
-237.087707519531
 31
0.0
  0
LINE
  5
17B
330
1F
100
AcDbEntity
  8
0-F
  6
Continuous
 62
     7
370
     9
100
AcDbLine
 10
459.8619461059573
 20
-165.5877438107052
 30
0.0
 11
459.8619461059573
 21
-287.0877487595016
 31
0.0
  0
LINE
  5
17C
330
1F
100
AcDbEntity
  8
0-F
  6
Continuous
 62
     7
370
     9
100
AcDbLine
 10
221.6620213276633
 20
-160.5877273147171
 30
0.0
 11
221.6620213276633
 21
539.4122314453127
 31
0.0
  0
LINE
  5
17D
330
1F
100
AcDbEntity
  8
0-0
  6
Continuous
 62
     3
370
     9
100
AcDbLine
 10
456.6620543196393
 20
525.9121621621624
 30
0.0
 11
456.6620543196393
 21
488.9121143237966
 31
0.0
  0
LINE
  5
17E
330
1F
100
AcDbEntity
  8
0-0
  6
Continuous
 62
     3
370
     9
100
AcDbLine
 10
396.6621038076039
 20
489.4121902053423
 30
0.0
 11
433.9235718185836
 21
486.1517993823904
 31
0.0
  0
LINE
  5
17F
330
1F
100
AcDbEntity
  8
0-E
  6
Continuous
 62
     7
370
     9
100
AcDbLine
 10
119.6821728268186
 20
626.2237713788008
 30
0.0
 11
356.3088752127982
 21
626.2237713788008
 31
0.0
  0
LINE
  5
180
330
1F
100
AcDbEntity
  8
0-0
  6
Continuous
 62
     3
370
     9
100
AcDbLine
 10
-83.99964925405129
 20
-407.2168752309437
 30
0.0
 11
-83.3379333083694
 21
-407.2168752309437
 31
0.0
  0
LINE
  5
181
330
1F
100
AcDbEntity
  8
0-0
  6
Continuous
 62
     3
370
     9
100
AcDbLine
 10
-89.18778187519777
 20
-445.5655319626266
 30
0.0
 11
-85.9920965658651
 21
-409.0425481023015
 31
0.0
  0
LINE
  5
182
330
1F
100
AcDbEntity
  8
0-0
  6
Continuous
 62
     3
370
     9
100
AcDbLine
 10
-422.9531726321658
 20
-452.0969535209035
 30
0.0
 11
-424.799568588669
 21
-498.256852433488
 31
0.0
  0
LINE
  5
183
330
1F
100
AcDbEntity
  8
0-0
  6
JWW_CENTER1
 62
     3
370
     9
100
AcDbLine
 10
-428.3379580523516
 20
-376.2168719317463
 30
0.0
 11
-428.3379580523516
 21
-524.2168777053421
 31
0.0
  0
LINE
  5
184
330
1F
100
AcDbEntity
  8
0-0
  6
Continuous
 62
     3
370
     9
100
AcDbLine
 10
-316.9531693329682
 20
-452.0969535209035
 30
0.0
 11
-318.7995652894716
 21
-498.256852433488
 31
0.0
  0
LINE
  5
185
330
1F
100
AcDbEntity
  8
0-0
  6
Continuous
 62
     3
370
     9
100
AcDbLine
 10
-327.7227401733398
 20
-452.0969535209035
 30
0.0
 11
-325.8763442168364
 21
-498.256852433488
 31
0.0
  0
LINE
  5
186
330
1F
100
AcDbEntity
  8
0-0
  6
Continuous
 62
     3
370
     9
100
AcDbLine
 10
-419.9555629008524
 20
-449.2168777053421
 30
0.0
 11
-330.7203499046531
 21
-449.2168777053421
 31
0.0
  0
LINE
  5
187
330
1F
100
AcDbEntity
  8
0-0
  6
Continuous
 62
     3
370
     9
100
AcDbLine
 10
-210.9531660337706
 20
-452.0969535209035
 30
0.0
 11
-212.7995619902738
 21
-498.256852433488
 31
0.0
  0
LINE
  5
188
330
1F
100
AcDbEntity
  8
0-0
  6
Continuous
 62
     3
370
     9
100
AcDbLine
 10
-221.7227368741422
 20
-452.0969535209035
 30
0.0
 11
-219.8763409176388
 21
-498.256852433488
 31
0.0
  0
LINE
  5
189
330
1F
100
AcDbEntity
  8
0-0
  6
Continuous
 62
     3
370
     9
100
AcDbLine
 10
-94.55747346620285
 20
-450.1149605415962
 30
0.0
 11
-93.83791846197994
 21
-461.2169667836781
 31
0.0
  0
LINE
  5
18A
330
1F
100
AcDbEntity
  8
0-0
  6
Continuous
 62
     3
370
     9
100
AcDbLine
 10
-313.9555596016548
 20
-449.2168777053421
 30
0.0
 11
-224.7203466054555
 21
-449.2168777053421
 31
0.0
  0
LINE
  5
18B
330
1F
100
AcDbEntity
  8
0-0
  6
Continuous
 62
     3
370
     9
100
AcDbLine
 10
-207.9555563024572
 20
-449.2168777053421
 30
0.0
 11
-93.17255277891405
 21
-449.2168777053421
 31
0.0
  0
LINE
  5
18C
330
1F
100
AcDbEntity
  8
0-0
  6
Continuous
 62
     3
370
     9
100
AcDbLine
 10
436.6619883356867
 20
483.1632212046032
 30
0.0
 11
436.6619883356867
 21
-104.3388407939187
 31
0.0
  0
LINE
  5
18D
330
1F
100
AcDbEntity
  8
0-0
  6
Continuous
 62
     3
370
     9
100
AcDbLine
 10
396.6621038076039
 20
498.4120714342275
 30
0.0
 11
396.6621038076039
 21
-119.5876910235431
 31
0.0
  0
LINE
  5
18E
330
1F
100
AcDbEntity
  8
0-0
  6
Continuous
 62
     3
370
     9
100
AcDbLine
 10
402.6620246268607
 20
498.750445391681
 30
0.0
 11
402.6620246268607
 21
507.4122001029352
 31
0.0
  0
LINE
  5
18F
330
1F
100
AcDbEntity
  8
0-0
  6
JWW_CENTER1
 62
     3
370
     9
100
AcDbLine
 10
519.6619652413034
 20
189.4121902053423
 30
0.0
 11
371.6620213276636
 21
189.4121902053423
 31
0.0
  0
LINE
  5
190
330
1F
100
AcDbEntity
  8
0-0
  6
Continuous
 62
     3
370
     9
100
AcDbLine
 10
447.5421647767763
 20
194.2970234638938
 30
0.0
 11
493.7020636893607
 21
192.4506275073904
 31
0.0
  0
LINE
  5
191
330
1F
100
AcDbEntity
  8
0-0
  6
Continuous
 62
     3
370
     9
100
AcDbLine
 10
447.5421647767763
 20
414.2970069679056
 30
0.0
 11
493.7020636893607
 21
412.4506110114022
 31
0.0
  0
LINE
  5
192
330
1F
100
AcDbEntity
  8
0-0
  6
Continuous
 62
     3
370
     9
100
AcDbLine
 10
447.5421647767763
 20
404.5273404508026
 30
0.0
 11
493.7020636893607
 21
406.373736407306
 31
0.0
  0
LINE
  5
193
330
1F
100
AcDbEntity
  8
0-0
  6
Continuous
 62
     3
370
     9
100
AcDbLine
 10
444.6619652413034
 20
197.2946331952072
 30
0.0
 11
444.6619652413034
 21
401.5297307194892
 31
0.0
  0
LINE
  5
194
330
1F
100
AcDbEntity
  8
0-0
  6
Continuous
 62
     3
370
     9
100
AcDbLine
 10
444.6619652413034
 20
417.294616699219
 30
0.0
 11
444.6619652413034
 21
489.5773562869512
 31
0.0
  0
LINE
  5
195
330
1F
100
AcDbEntity
  8
0-0
  6
Continuous
 62
     3
370
     9
100
AcDbLine
 10
494.6621302011852
 20
411.4514490076016
 30
0.0
 11
494.6621302011852
 21
-32.62706859691704
 31
0.0
  0
LINE
  5
196
330
1F
100
AcDbEntity
  8
0-0
  6
Continuous
 62
     3
370
     9
100
AcDbLine
 10
453.5749950924435
 20
484.1994991817992
 30
0.0
 11
494.5322242943018
 21
411.9442254143794
 31
0.0
  0
LINE
  5
197
330
1F
100
AcDbEntity
  8
0-0
  6
Continuous
 62
     3
370
     9
100
AcDbLine
 10
455.4092664976378
 20
488.5769570840374
 30
0.0
 11
456.6620543196393
 21
488.9121143237966
 31
0.0
  0
LINE
  5
198
330
1F
100
AcDbEntity
  8
0-0
  6
Continuous
 62
     3
370
     9
100
AcDbLine
 10
396.6621038076039
 20
-119.5876910235431
 30
0.0
 11
402.6620246268607
 21
-120.5878427866341
 31
0.0
  0
LINE
  5
199
330
1F
100
AcDbEntity
  8
0-0
  6
Continuous
 62
     3
370
     9
100
AcDbLine
 10
402.6620246268607
 20
-127.0878394874364
 30
0.0
 11
396.6621038076039
 21
-128.0878675306164
 31
0.0
  0
LINE
  5
19A
330
1F
100
AcDbEntity
  8
0-0
  6
Continuous
 62
     3
370
     9
100
AcDbLine
 10
396.6621038076039
 20
-128.0878675306164
 30
0.0
 11
396.6621038076039
 21
-137.0877487595016
 31
0.0
  0
LINE
  5
19B
330
1F
100
AcDbEntity
  8
0-0
  6
Continuous
 62
     3
370
     9
100
AcDbLine
 10
396.6621038076039
 20
-137.0877487595016
 30
0.0
 11
402.6620246268607
 21
-138.0879005225927
 31
0.0
  0
LINE
  5
19C
330
1F
100
AcDbEntity
  8
0-0
  6
Continuous
 62
     3
370
     9
100
AcDbLine
 10
402.6620246268607
 20
-144.5877735034838
 30
0.0
 11
396.6621038076039
 21
-145.587925266575
 31
0.0
  0
LINE
  5
19D
330
1F
100
AcDbEntity
  8
0-0
  6
Continuous
 62
     3
370
     9
100
AcDbLine
 10
396.6621038076039
 20
-145.587925266575
 30
0.0
 11
396.6621038076039
 21
-154.5878064954601
 31
0.0
  0
LINE
  5
19E
330
1F
100
AcDbEntity
  8
0-0
  6
Continuous
 62
     3
370
     9
100
AcDbLine
 10
396.6621038076039
 20
-154.5878064954601
 30
0.0
 11
402.6620246268607
 21
-155.5879582585514
 31
0.0
  0
LINE
  5
19F
330
1F
100
AcDbEntity
  8
0-0
  6
Continuous
 62
     3
370
     9
100
AcDbLine
 10
402.6620246268607
 20
-136.5879203177786
 30
0.0
 11
409.3480960742846
 21
-135.7520685969172
 31
0.0
  0
LINE
  5
1A0
330
1F
100
AcDbEntity
  8
0-0
  6
Continuous
 62
     3
370
     9
100
AcDbLine
 10
402.6620246268607
 20
-154.0878543338258
 30
0.0
 11
456.6620543196393
 21
-147.0877817514778
 31
0.0
  0
LINE
  5
1A1
330
1F
100
AcDbEntity
  8
0-0
  6
Continuous
 62
     3
370
     9
100
AcDbLine
 10
410.6620015324773
 20
-130.9118982263512
 30
0.0
 11
410.6620015324773
 21
-134.2635943438556
 31
0.0
  0
LINE
  5
1A2
330
1F
100
AcDbEntity
  8
0-0
  6
Continuous
 62
     3
370
     9
100
AcDbLine
 10
410.6620015324773
 20
-148.4119559623099
 30
0.0
 11
410.6620015324773
 21
-151.7325983820734
 31
0.0
  0
LINE
  5
1A3
330
1F
100
AcDbEntity
  8
0-0
  6
Continuous
 62
     3
370
     9
100
AcDbLine
 10
402.6620246268607
 20
-146.0878774282094
 30
0.0
 11
409.3480960742846
 21
-146.9236054291594
 31
0.0
  0
LINE
  5
1A4
330
1F
100
AcDbEntity
  8
0-0
  6
Continuous
 62
     3
370
     9
100
AcDbLine
 10
409.3480960742846
 20
-129.4236714131121
 30
0.0
 11
402.6620246268607
 21
-128.5878196922506
 31
0.0
  0
LINE
  5
1A5
330
1F
100
AcDbEntity
  8
0-0
  6
Continuous
 62
     3
370
     9
100
AcDbLine
 10
402.6620246268607
 20
-136.5879203177786
 30
0.0
 11
402.6620246268607
 21
-146.0878774282094
 31
0.0
  0
LINE
  5
1A6
330
1F
100
AcDbEntity
  8
0-0
  6
Continuous
 62
     3
370
     9
100
AcDbLine
 10
402.6620246268607
 20
-154.0878543338258
 30
0.0
 11
402.6620246268607
 21
-155.5879582585514
 31
0.0
  0
LINE
  5
1A7
330
1F
100
AcDbEntity
  8
0-0
  6
Continuous
 62
     3
370
     9
100
AcDbLine
 10
456.656363203719
 20
-110.0862492741764
 30
0.0
 11
456.6620543196393
 21
-110.0877339131121
 31
0.0
  0
LINE
  5
1A8
330
1F
100
AcDbEntity
  8
0-0
  6
Continuous
 62
     3
370
     9
100
AcDbLine
 10
456.6620543196393
 20
-147.0877817514778
 30
0.0
 11
456.6620543196393
 21
-110.0877339131121
 31
0.0
  0
LINE
  5
1A9
330
1F
100
AcDbEntity
  8
0-0
  6
Continuous
 62
     3
370
     9
100
AcDbLine
 10
396.6621038076039
 20
-110.5878097946578
 30
0.0
 11
433.9235718185836
 21
-107.3274189717058
 31
0.0
  0
LINE
  5
1AA
330
1F
100
AcDbEntity
  8
0-0
  6
Continuous
 62
     3
370
     9
100
AcDbLine
 10
404.4876356382628
 20
-117.9336795291383
 30
0.0
 11
441.0107432184992
 21
-114.7378704998943
 31
0.0
  0
LINE
  5
1AB
330
1F
100
AcDbEntity
  8
0-0
  6
Continuous
 62
     3
370
     9
100
AcDbLine
 10
402.6620246268607
 20
-119.9260649809963
 30
0.0
 11
402.6620246268607
 21
-128.5878196922506
 31
0.0
  0
LINE
  5
1AC
330
1F
100
AcDbEntity
  8
0-0
  6
Continuous
 62
     3
370
     9
100
AcDbLine
 10
447.5421647767763
 20
184.5273569467907
 30
0.0
 11
493.7020636893607
 21
186.3737529032942
 31
0.0
  0
LINE
  5
1AD
330
1F
100
AcDbEntity
  8
0-0
  6
Continuous
 62
     3
370
     9
100
AcDbLine
 10
447.5421647767763
 20
-35.47262655722122
 30
0.0
 11
493.7020636893607
 21
-33.62623060071769
 31
0.0
  0
LINE
  5
1AE
330
1F
100
AcDbEntity
  8
0-0
  6
Continuous
 62
     3
370
     9
100
AcDbLine
 10
447.5421647767763
 20
-25.70296004011809
 30
0.0
 11
493.7020636893607
 21
-27.54935599662147
 31
0.0
  0
LINE
  5
1AF
330
1F
100
AcDbEntity
  8
0-0
  6
Continuous
 62
     3
370
     9
100
AcDbLine
 10
444.6619652413034
 20
181.5297472154774
 30
0.0
 11
444.6619652413034
 21
-22.70535030880467
 31
0.0
  0
LINE
  5
1B0
330
1F
100
AcDbEntity
  8
0-0
  6
Continuous
 62
     3
370
     9
100
AcDbLine
 10
444.6619652413034
 20
-38.47023628853435
 30
0.0
 11
444.6619652413034
 21
-110.7529758762666
 31
0.0
  0
LINE
  5
1B1
330
1F
100
AcDbEntity
  8
0-0
  6
Continuous
 62
     3
370
     9
100
AcDbLine
 10
453.5749950924435
 20
-105.3751187711146
 30
0.0
 11
494.5322242943018
 21
-33.11984500369491
 31
0.0
  0
LINE
  5
1B2
330
1F
100
AcDbEntity
  8
0-0
  6
Continuous
 62
     3
370
     9
100
AcDbLine
 10
455.4092664976378
 20
-109.7525766733528
 30
0.0
 11
456.6620543196393
 21
-110.0877339131121
 31
0.0
  0
LINE
  5
1B3
330
1F
100
AcDbEntity
  8
0-E
  6
Continuous
 62
     7
370
     9
100
AcDbLine
 10
608.9981336851378
 20
324.5717394029775
 30
0.0
 11
494.6621302011852
 21
278.8859351905619
 31
0.0
  0
LINE
  5
1B4
330
1F
100
AcDbEntity
  8
0-E
  6
Continuous
 62
     7
370
     9
100
AcDbLine
 10
494.6621302011852
 20
278.8859351905619
 30
0.0
 11
507.745510823018
 21
286.2222166319154
 31
0.0
  0
LINE
  5
1B5
330
1F
100
AcDbEntity
  8
0-E
  6
Continuous
 62
     7
370
     9
100
AcDbLine
 10
494.6621302011852
 20
278.8859351905619
 30
0.0
 11
509.1984774615315
 21
282.5859647183808
 31
0.0
  0
LINE
  5
1B6
330
1F
100
AcDbEntity
  8
0-F
  6
Continuous
 62
     7
370
     9
100
AcDbLine
 10
444.6619652413034
 20
61.96657747835744
 30
0.0
 11
459.53359346132
 21
63.92444507495789
 31
0.0
  0
LINE
  5
1B7
330
1F
100
AcDbEntity
  8
0-F
  6
Continuous
 62
     7
370
     9
100
AcDbLine
 10
444.6619652413034
 20
61.96657747835744
 30
0.0
 11
459.53359346132
 21
60.00870988175691
 31
0.0
  0
LINE
  5
1B8
330
1F
100
AcDbEntity
  8
0-F
  6
Continuous
 62
     7
370
     9
100
AcDbLine
 10
494.6621302011852
 20
61.96657747835744
 30
0.0
 11
479.7905019811685
 21
60.00870988175691
 31
0.0
  0
LINE
  5
1B9
330
1F
100
AcDbEntity
  8
0-F
  6
Continuous
 62
     7
370
     9
100
AcDbLine
 10
494.6621302011852
 20
61.96657747835744
 30
0.0
 11
479.7905019811685
 21
63.92444507495789
 31
0.0
  0
LINE
  5
1BA
330
1F
100
AcDbEntity
  8
0-0
  6
Continuous
 62
     3
370
     9
100
AcDbLine
 10
-116.3379926939268
 20
-449.2168777053421
 30
0.0
 11
-213.3421356613572
 21
-499.1065607844171
 31
0.0
  0
LINE
  5
1BB
330
1F
100
AcDbEntity
  8
0-0
  6
Continuous
 62
     3
370
     9
100
AcDbLine
 10
-213.7987858540301
 20
-499.216795225401
 30
0.0
 11
-642.877130250673
 21
-499.216795225401
 31
0.0
  0
LINE
  5
1BC
330
1F
100
AcDbEntity
  8
0-0
  6
Continuous
 62
     3
370
     9
100
AcDbLine
 10
-772.337954753154
 20
-401.2168925517313
 30
0.0
 11
-84.33796135154921
 21
-401.2168925517313
 31
0.0
  0
LINE
  5
1BD
330
1F
100
AcDbEntity
  8
0-0
  6
Continuous
 62
     3
370
     9
100
AcDbLine
 10
-99.58681158117344
 20
-441.2169007997254
 30
0.0
 11
-757.0891045235298
 21
-441.2169007997254
 31
0.0
  0
LINE
  5
1BE
330
1F
100
AcDbEntity
  8
0-0
  6
Continuous
 62
     3
370
     9
100
AcDbLine
 10
-772.337954753154
 20
-401.2168925517313
 30
0.0
 11
-773.337982796334
 21
-407.2169370908994
 31
0.0
  0
LINE
  5
1BF
330
1F
100
AcDbEntity
  8
0-0
  6
Continuous
 62
     3
370
     9
100
AcDbLine
 10
-773.337982796334
 20
-407.2169370908994
 30
0.0
 11
-769.8379465051598
 21
-461.2169667836781
 31
0.0
  0
LINE
  5
1C0
330
1F
100
AcDbEntity
  8
0-0
  6
Continuous
 62
     3
370
     9
100
AcDbLine
 10
-769.8379465051598
 20
-461.2169667836781
 30
0.0
 11
-762.8379976427233
 21
-461.2169667836781
 31
0.0
  0
LINE
  5
1C1
330
1F
100
AcDbEntity
  8
0-0
  6
Continuous
 62
     3
370
     9
100
AcDbLine
 10
-763.2581504615576
 20
-402.1296980574323
 30
0.0
 11
-760.077682701317
 21
-438.4783605627109
 31
0.0
  0
LINE
  5
1C2
330
1F
100
AcDbEntity
  8
0-0
  6
Continuous
 62
     3
370
     9
100
AcDbLine
 10
-772.6762668506519
 20
-407.2168752309437
 30
0.0
 11
-773.337982796334
 21
-407.2168752309437
 31
0.0
  0
LINE
  5
1C3
330
1F
100
AcDbEntity
  8
0-0
  6
Continuous
 62
     3
370
     9
100
AcDbLine
 10
-767.4881342295054
 20
-445.5655319626266
 30
0.0
 11
-770.6838195388382
 21
-409.0425481023015
 31
0.0
  0
LINE
  5
1C4
330
1F
100
AcDbEntity
  8
0-0
  6
Continuous
 62
     3
370
     9
100
AcDbLine
 10
-433.7227434725373
 20
-452.0969535209035
 30
0.0
 11
-431.8763475160341
 21
-498.256852433488
 31
0.0
  0
LINE
  5
1C5
330
1F
100
AcDbEntity
  8
0-0
  6
Continuous
 62
     3
370
     9
100
AcDbLine
 10
-539.722746771735
 20
-452.0969535209035
 30
0.0
 11
-537.8763508152317
 21
-498.256852433488
 31
0.0
  0
LINE
  5
1C6
330
1F
100
AcDbEntity
  8
0-0
  6
Continuous
 62
     3
370
     9
100
AcDbLine
 10
-528.9531759313635
 20
-452.0969535209035
 30
0.0
 11
-530.7995718878668
 21
-498.256852433488
 31
0.0
  0
LINE
  5
1C7
330
1F
100
AcDbEntity
  8
0-0
  6
Continuous
 62
     3
370
     9
100
AcDbLine
 10
-436.7203532038508
 20
-449.2168777053421
 30
0.0
 11
-525.9555662000502
 21
-449.2168777053421
 31
0.0
  0
LINE
  5
1C8
330
1F
100
AcDbEntity
  8
0-0
  6
Continuous
 62
     3
370
     9
100
AcDbLine
 10
-645.7227500709328
 20
-452.0969535209035
 30
0.0
 11
-643.8763541144294
 21
-498.256852433488
 31
0.0
  0
LINE
  5
1C9
330
1F
100
AcDbEntity
  8
0-0
  6
Continuous
 62
     3
370
     9
100
AcDbLine
 10
-634.9531792305611
 20
-452.0969535209035
 30
0.0
 11
-636.7995751870644
 21
-498.256852433488
 31
0.0
  0
LINE
  5
1CA
330
1F
100
AcDbEntity
  8
0-0
  6
Continuous
 62
     3
370
     9
100
AcDbLine
 10
-762.1184426385003
 20
-450.1149605415962
 30
0.0
 11
-762.8379976427233
 21
-461.2169667836781
 31
0.0
  0
LINE
  5
1CB
330
1F
100
AcDbEntity
  8
0-0
  6
Continuous
 62
     3
370
     9
100
AcDbLine
 10
-542.7203565030484
 20
-449.2168777053421
 30
0.0
 11
-631.9555694992478
 21
-449.2168777053421
 31
0.0
  0
LINE
  5
1CC
330
1F
100
AcDbEntity
  8
0-0
  6
Continuous
 62
     3
370
     9
100
AcDbLine
 10
-648.7203598022461
 20
-449.2168777053421
 30
0.0
 11
-763.5033633257892
 21
-449.2168777053421
 31
0.0
  0
LINE
  5
1CD
330
1F
100
AcDbEntity
  8
0-0
  6
Continuous
 62
     3
370
     9
100
AcDbLine
 10
-740.3379234107764
 20
-449.2168777053421
 30
0.0
 11
-643.3337804433461
 21
-499.1065607844171
 31
0.0
  0
LINE
  5
1CE
330
1F
100
AcDbEntity
  8
0-1
  6
Continuous
 62
     2
370
     9
100
AcDbLine
 10
-49.33803145949881
 20
443.9122132997258
 30
0.0
 11
-49.33803145949881
 21
434.912084631018
 31
0.0
  0
LINE
  5
1CF
330
1F
100
AcDbEntity
  8
0-1
  6
Continuous
 62
     2
370
     9
100
AcDbLine
 10
-73.84329615412526
 20
434.912084631018
 30
0.0
 11
-49.33803145949881
 21
434.912084631018
 31
0.0
  0
LINE
  5
1D0
330
1F
100
AcDbEntity
  8
0-1
  6
Continuous
 62
     2
370
     9
100
AcDbLine
 10
-73.83785247802734
 20
443.9122132997258
 30
0.0
 11
-49.33803145949881
 21
443.9122132997258
 31
0.0
  0
LINE
  5
1D1
330
1F
100
AcDbEntity
  8
0-1
  6
Continuous
 62
     2
370
     9
100
AcDbLine
 10
-782.8379399067647
 20
443.9122132997258
 30
0.0
 11
-807.3379155751821
 21
443.9122132997258
 31
0.0
  0
LINE
  5
1D2
330
1F
100
AcDbEntity
  8
0-1
  6
Continuous
 62
     2
370
     9
100
AcDbLine
 10
-782.832619950578
 20
434.912084631018
 30
0.0
 11
-807.3379155751821
 21
434.912084631018
 31
0.0
  0
LINE
  5
1D3
330
1F
100
AcDbEntity
  8
0-1
  6
Continuous
 62
     2
370
     9
100
AcDbLine
 10
-73.83785247802734
 20
-65.08783288904112
 30
0.0
 11
-49.33803145949881
 21
-65.08783288904112
 31
0.0
  0
LINE
  5
1D4
330
1F
100
AcDbEntity
  8
0-1
  6
Continuous
 62
     2
370
     9
100
AcDbLine
 10
-73.84329615412526
 20
-56.08782794024478
 30
0.0
 11
-49.33803145949881
 21
-56.08782794024478
 31
0.0
  0
LINE
  5
1D5
330
1F
100
AcDbEntity
  8
0-1
  6
Continuous
 62
     2
370
     9
100
AcDbLine
 10
-807.3379155751821
 20
443.9122132997258
 30
0.0
 11
-807.3379155751821
 21
434.912084631018
 31
0.0
  0
LINE
  5
1D6
330
1F
100
AcDbEntity
  8
0-1
  6
Continuous
 62
     2
370
     9
100
AcDbLine
 10
-807.3379155751821
 20
-65.08783288904112
 30
0.0
 11
-807.3379155751821
 21
-56.08782794024478
 31
0.0
  0
LINE
  5
1D7
330
1F
100
AcDbEntity
  8
0-1
  6
Continuous
 62
     2
370
     9
100
AcDbLine
 10
-782.832619950578
 20
-56.08782794024478
 30
0.0
 11
-807.3379155751821
 21
-56.08782794024478
 31
0.0
  0
LINE
  5
1D8
330
1F
100
AcDbEntity
  8
0-1
  6
Continuous
 62
     2
370
     9
100
AcDbLine
 10
-782.8379399067647
 20
-65.08783288904112
 30
0.0
 11
-807.3379155751821
 21
-65.08783288904112
 31
0.0
  0
LINE
  5
1D9
330
1F
100
AcDbEntity
  8
0-1
  6
Continuous
 62
     2
370
     9
100
AcDbLine
 10
-49.33803145949881
 20
-65.08783288904112
 30
0.0
 11
-49.33803145949881
 21
-56.08782794024478
 31
0.0
  0
LINE
  5
1DA
330
1F
100
AcDbEntity
  8
0-1
  6
JWW_CENTER1
 62
     2
370
     9
100
AcDbLine
 10
-73.83785247802734
 20
448.9121060758026
 30
0.0
 11
-73.83785247802734
 21
429.9121918549412
 31
0.0
  0
LINE
  5
1DB
330
1F
100
AcDbEntity
  8
0-1
  6
JWW_CENTER1
 62
     2
370
     9
100
AcDbLine
 10
-86.53794881459817
 20
439.4121489653719
 30
0.0
 11
-44.33801496351066
 21
439.4121489653719
 31
0.0
  0
LINE
  5
1DC
330
1F
100
AcDbEntity
  8
0-1
  6
JWW_CENTER1
 62
     2
370
     9
100
AcDbLine
 10
-73.83785247802734
 20
-51.08781144425663
 30
0.0
 11
-73.83785247802734
 21
-70.08784938502956
 31
0.0
  0
LINE
  5
1DD
330
1F
100
AcDbEntity
  8
0-1
  6
JWW_CENTER1
 62
     2
370
     9
100
AcDbLine
 10
-86.53794881459817
 20
-60.58783041464309
 30
0.0
 11
-44.33801496351066
 21
-60.58783041464309
 31
0.0
  0
LINE
  5
1DE
330
1F
100
AcDbEntity
  8
0-1
  6
JWW_CENTER1
 62
     2
370
     9
100
AcDbLine
 10
-782.8380636266759
 20
448.9121060758026
 30
0.0
 11
-782.8380636266759
 21
429.9121918549412
 31
0.0
  0
LINE
  5
1DF
330
1F
100
AcDbEntity
  8
0-1
  6
JWW_CENTER1
 62
     2
370
     9
100
AcDbLine
 10
-770.137967290105
 20
439.4121489653719
 30
0.0
 11
-812.3379939311259
 21
439.4121489653719
 31
0.0
  0
LINE
  5
1E0
330
1F
100
AcDbEntity
  8
0-1
  6
JWW_CENTER1
 62
     2
370
     9
100
AcDbLine
 10
-782.8380636266759
 20
-51.08781144425663
 30
0.0
 11
-782.8380636266759
 21
-70.08784938502956
 31
0.0
  0
LINE
  5
1E1
330
1F
100
AcDbEntity
  8
0-1
  6
JWW_CENTER1
 62
     2
370
     9
100
AcDbLine
 10
-770.137967290105
 20
-60.58783041464309
 30
0.0
 11
-812.3379939311259
 21
-60.58783041464309
 31
0.0
  0
LINE
  5
1E2
330
1F
100
AcDbEntity
  8
0-1
  6
Continuous
 62
     2
370
     9
100
AcDbLine
 10
-787.3378805212071
 20
-474.4167833070496
 30
0.0
 11
-787.3378805212071
 21
-449.4168400120089
 31
0.0
  0
LINE
  5
1E3
330
1F
100
AcDbEntity
  8
0-1
  6
Continuous
 62
     2
370
     9
100
AcDbLine
 10
-778.3378755724108
 20
-449.4168400120089
 30
0.0
 11
-787.3378805212071
 21
-449.4168400120089
 31
0.0
  0
LINE
  5
1E4
330
1F
100
AcDbEntity
  8
0-1
  6
Continuous
 62
     2
370
     9
100
AcDbLine
 10
-807.3379465051598
 20
-488.4166810319229
 30
0.0
 11
-807.3379465051598
 21
-479.4167998030377
 31
0.0
  0
LINE
  5
1E5
330
1F
100
AcDbEntity
  8
0-1
  6
Continuous
 62
     2
370
     9
100
AcDbLine
 10
-49.33803145949881
 20
-488.4166810319229
 30
0.0
 11
-49.33803145949881
 21
-479.4167998030377
 31
0.0
  0
LINE
  5
1E6
330
1F
100
AcDbEntity
  8
0-1
  6
Continuous
 62
     2
370
     9
100
AcDbLine
 10
-64.3380190875078
 20
-488.4166810319229
 30
0.0
 11
-49.33803145949881
 21
-488.4166810319229
 31
0.0
  0
LINE
  5
1E7
330
1F
100
AcDbEntity
  8
0-1
  6
Continuous
 62
     2
370
     9
100
AcDbLine
 10
-64.3380190875078
 20
-479.4167998030377
 30
0.0
 11
-49.33803145949881
 21
-479.4167998030377
 31
0.0
  0
LINE
  5
1E8
330
1F
100
AcDbEntity
  8
0-1
  6
Continuous
 62
     2
370
     9
100
AcDbLine
 10
-78.33791681238097
 20
-449.4168400120089
 30
0.0
 11
-69.33791186358462
 21
-449.4168400120089
 31
0.0
  0
LINE
  5
1E9
330
1F
100
AcDbEntity
  8
0-1
  6
Continuous
 62
     2
370
     9
100
AcDbLine
 10
-69.33791186358462
 20
-474.4167833070496
 30
0.0
 11
-69.33791186358462
 21
-449.4168400120089
 31
0.0
  0
LINE
  5
1EA
330
1F
100
AcDbEntity
  8
0-1
  6
JWW_CENTER1
 62
     2
370
     9
100
AcDbLine
 10
-64.3380190875078
 20
-483.9167404174805
 30
0.0
 11
-44.33801496351066
 21
-483.9167404174805
 31
0.0
  0
LINE
  5
1EB
330
1F
100
AcDbEntity
  8
0-1
  6
JWW_CENTER1
 62
     2
370
     9
100
AcDbLine
 10
-73.83785247802734
 20
-474.4167833070496
 30
0.0
 11
-73.83785247802734
 21
-444.4168235160207
 31
0.0
  0
LINE
  5
1EC
330
1F
100
AcDbEntity
  8
0-1
  6
JWW_CENTER1
 62
     2
370
     9
100
AcDbLine
 10
-782.8379399067647
 20
-474.4167833070496
 30
0.0
 11
-782.8379399067647
 21
-444.4168235160207
 31
0.0
  0
LINE
  5
1ED
330
1F
100
AcDbEntity
  8
0-1
  6
Continuous
 62
     2
370
     9
100
AcDbLine
 10
-792.3378970171955
 20
-479.4167998030377
 30
0.0
 11
-807.3379465051598
 21
-479.4167998030377
 31
0.0
  0
LINE
  5
1EE
330
1F
100
AcDbEntity
  8
0-1
  6
Continuous
 62
     2
370
     9
100
AcDbLine
 10
-792.3378970171955
 20
-488.4166810319229
 30
0.0
 11
-807.3379465051598
 21
-488.4166810319229
 31
0.0
  0
LINE
  5
1EF
330
1F
100
AcDbEntity
  8
0-1
  6
JWW_CENTER1
 62
     2
370
     9
100
AcDbLine
 10
-792.3378970171955
 20
-483.9167404174805
 30
0.0
 11
-812.3379630011481
 21
-483.9167404174805
 31
0.0
  0
LINE
  5
1F0
330
1F
100
AcDbEntity
  8
0-F
  6
Continuous
 62
     7
370
     9
100
AcDbLine
 10
321.6621038076039
 20
-155.5879582585514
 30
0.0
 11
319.7041124910928
 21
-140.7162681785788
 31
0.0
  0
LINE
  5
1F1
330
1F
100
AcDbEntity
  8
0-F
  6
Continuous
 62
     7
370
     9
100
AcDbLine
 10
321.6621038076039
 20
-155.5879582585514
 30
0.0
 11
323.6198476842935
 21
-140.7162681785788
 31
0.0
  0
LINE
  5
1F2
330
1F
100
AcDbEntity
  8
0-F
  6
Continuous
 62
     7
370
     9
100
AcDbLine
 10
391.6620873116159
 20
523.4121539141684
 30
0.0
 11
321.6621038076039
 21
523.4121539141684
 31
0.0
  0
LINE
  5
1F3
330
1F
100
AcDbEntity
  8
0-F
  6
Continuous
 62
     7
370
     9
100
AcDbLine
 10
391.6620873116159
 20
516.9122809332772
 30
0.0
 11
321.6621038076039
 21
516.9122809332772
 31
0.0
  0
LINE
  5
1F4
330
1F
100
AcDbEntity
  8
0-F
  6
Continuous
 62
     7
370
     9
100
AcDbLine
 10
391.6620873116159
 20
505.912219898121
 30
0.0
 11
321.6621038076039
 21
505.912219898121
 31
0.0
  0
LINE
  5
1F5
330
1F
100
AcDbEntity
  8
0-F
  6
Continuous
 62
     7
370
     9
100
AcDbLine
 10
391.6620873116159
 20
499.4122231973187
 30
0.0
 11
321.6621038076039
 21
499.4122231973187
 31
0.0
  0
LINE
  5
1F6
330
1F
100
AcDbEntity
  8
0-1
  6
Continuous
 62
     2
370
     9
100
AcDbLine
 10
-78.3379786723367
 20
-160.5877273147171
 30
0.0
 11
-78.3379786723367
 21
539.4122314453127
 31
0.0
  0
LINE
  5
1F7
330
1F
100
AcDbEntity
  8
0-1
  6
Continuous
 62
     2
370
     9
100
AcDbLine
 10
-81.53793231861002
 20
-157.3877736684437
 30
0.0
 11
-81.53793231861002
 21
536.2122159390839
 31
0.0
  0
LINE
  5
1F8
330
1F
100
AcDbEntity
  8
0-0
  6
Continuous
 62
     3
370
     9
100
AcDbLine
 10
-83.3379333083694
 20
534.4123386692359
 30
0.0
 11
-83.3379333083694
 21
-155.5877726786844
 31
0.0
  0
LINE
  5
1F9
330
1F
100
AcDbEntity
  8
0-0
  6
Continuous
 62
     3
370
     9
100
AcDbLine
 10
-84.33796135154921
 20
498.4120714342275
 30
0.0
 11
-84.33796135154921
 21
-119.5877528834986
 31
0.0
  0
LINE
  5
1FA
330
1F
100
AcDbEntity
  8
0-0
  6
Continuous
 62
     3
370
     9
100
AcDbLine
 10
-93.33796630034556
 20
486.412229795714
 30
0.0
 11
-93.33796630034556
 21
-107.5877875250737
 31
0.0
  0
LINE
  5
1FB
330
1F
100
AcDbEntity
  8
0-0
  6
Continuous
 62
     3
370
     9
100
AcDbLine
 10
-96.83794073156406
 20
482.9120697846287
 30
0.0
 11
-96.83794073156406
 21
-104.0877512338997
 31
0.0
  0
LINE
  5
1FC
330
1F
100
AcDbEntity
  8
0-1
  6
JWW_DASHED3
 62
     2
370
     9
100
AcDbLine
 10
-728.3379580523517
 20
489.4121902053423
 30
0.0
 11
-728.3379580523517
 21
-110.5877479347021
 31
0.0
  0
LINE
  5
1FD
330
1F
100
AcDbEntity
  8
0-1
  6
JWW_DASHED3
 62
     2
370
     9
100
AcDbLine
 10
-728.3379580523517
 20
-110.5877479347021
 30
0.0
 11
-128.3379580523516
 21
-110.5877479347021
 31
0.0
  0
LINE
  5
1FE
330
1F
100
AcDbEntity
  8
0-1
  6
JWW_DASHED3
 62
     2
370
     9
100
AcDbLine
 10
-128.3379580523516
 20
489.4121902053423
 30
0.0
 11
-728.3379580523517
 21
489.4121902053423
 31
0.0
  0
LINE
  5
1FF
330
1F
100
AcDbEntity
  8
0-1
  6
JWW_DASHED3
 62
     2
370
     9
100
AcDbLine
 10
-128.3379580523516
 20
-110.5877479347021
 30
0.0
 11
-128.3379580523516
 21
489.4121902053423
 31
0.0
  0
LINE
  5
200
330
1F
100
AcDbEntity
  8
0-E
  6
Continuous
 62
     7
370
     9
100
AcDbLine
 10
608.9981336851378
 20
324.5717394029775
 30
0.0
 11
800.7548409539302
 21
324.5717394029775
 31
0.0
  0
LINE
  5
201
330
1F
100
AcDbEntity
  8
0-F
  6
Continuous
 62
     7
370
     9
100
AcDbLine
 10
455.6069709159232
 20
102.609372525602
 30
0.0
 11
476.9016420519031
 21
102.609372525602
 31
0.0
  0
LINE
  5
202
330
1F
100
AcDbEntity
  8
0-0
  6
Continuous
 62
     3
370
     9
100
AcDbLine
 10
-159.5879374323664
 20
505.9120961782097
 30
0.0
 11
-159.5879374323664
 21
499.4120994774073
 31
0.0
  0
LINE
  5
203
330
1F
100
AcDbEntity
  8
0-0
  6
Continuous
 62
     3
370
     9
100
AcDbLine
 10
-147.5879102139859
 20
505.9120961782097
 30
0.0
 11
-147.5879102139859
 21
499.4120994774073
 31
0.0
  0
LINE
  5
204
330
1F
100
AcDbEntity
  8
0-0
  6
Continuous
 62
     3
370
     9
100
AcDbLine
 10
-159.5879374323664
 20
523.4121539141684
 30
0.0
 11
-159.5879374323664
 21
516.9122809332772
 31
0.0
  0
LINE
  5
205
330
1F
100
AcDbEntity
  8
0-0
  6
Continuous
 62
     3
370
     9
100
AcDbLine
 10
-147.5879102139859
 20
523.4121539141684
 30
0.0
 11
-147.5879102139859
 21
516.9122809332772
 31
0.0
  0
LINE
  5
206
330
1F
100
AcDbEntity
  8
0-0
  6
Continuous
 62
     3
370
     9
100
AcDbLine
 10
-697.0879786723368
 20
505.9120961782097
 30
0.0
 11
-697.0879786723368
 21
499.4120994774073
 31
0.0
  0
LINE
  5
207
330
1F
100
AcDbEntity
  8
0-0
  6
Continuous
 62
     3
370
     9
100
AcDbLine
 10
-709.0880058907173
 20
505.9120961782097
 30
0.0
 11
-709.0880058907173
 21
499.4120994774073
 31
0.0
  0
LINE
  5
208
330
1F
100
AcDbEntity
  8
0-0
  6
Continuous
 62
     3
370
     9
100
AcDbLine
 10
-697.0879786723368
 20
523.4121539141684
 30
0.0
 11
-697.0879786723368
 21
516.9122809332772
 31
0.0
  0
LINE
  5
209
330
1F
100
AcDbEntity
  8
0-0
  6
Continuous
 62
     3
370
     9
100
AcDbLine
 10
-709.0880058907173
 20
523.4121539141684
 30
0.0
 11
-709.0880058907173
 21
516.9122809332772
 31
0.0
  0
LINE
  5
20A
330
1F
100
AcDbEntity
  8
0-0
  6
Continuous
 62
     3
370
     9
100
AcDbLine
 10
-697.0879786723368
 20
-127.0877157675251
 30
0.0
 11
-697.0879786723368
 21
-120.5877190667229
 31
0.0
  0
LINE
  5
20B
330
1F
100
AcDbEntity
  8
0-0
  6
Continuous
 62
     3
370
     9
100
AcDbLine
 10
-709.0880058907173
 20
-127.0877157675251
 30
0.0
 11
-709.0880058907173
 21
-120.5877190667229
 31
0.0
  0
LINE
  5
20C
330
1F
100
AcDbEntity
  8
0-0
  6
Continuous
 62
     3
370
     9
100
AcDbLine
 10
-697.0879786723368
 20
-144.5877735034838
 30
0.0
 11
-697.0879786723368
 21
-138.0879005225927
 31
0.0
  0
LINE
  5
20D
330
1F
100
AcDbEntity
  8
0-0
  6
Continuous
 62
     3
370
     9
100
AcDbLine
 10
-709.0880058907173
 20
-144.5877735034838
 30
0.0
 11
-709.0880058907173
 21
-138.0879005225927
 31
0.0
  0
LINE
  5
20E
330
1F
100
AcDbEntity
  8
0-0
  6
Continuous
 62
     3
370
     9
100
AcDbLine
 10
-159.5879374323664
 20
-127.0877157675251
 30
0.0
 11
-159.5879374323664
 21
-120.5877190667229
 31
0.0
  0
LINE
  5
20F
330
1F
100
AcDbEntity
  8
0-0
  6
Continuous
 62
     3
370
     9
100
AcDbLine
 10
-147.5879102139859
 20
-127.0877157675251
 30
0.0
 11
-147.5879102139859
 21
-120.5877190667229
 31
0.0
  0
LINE
  5
210
330
1F
100
AcDbEntity
  8
0-0
  6
Continuous
 62
     3
370
     9
100
AcDbLine
 10
-159.5879374323664
 20
-144.5877735034838
 30
0.0
 11
-159.5879374323664
 21
-138.0879005225927
 31
0.0
  0
LINE
  5
211
330
1F
100
AcDbEntity
  8
0-0
  6
Continuous
 62
     3
370
     9
100
AcDbLine
 10
-147.5879102139859
 20
-144.5877735034838
 30
0.0
 11
-147.5879102139859
 21
-138.0879005225927
 31
0.0
  0
LINE
  5
212
330
1F
100
AcDbEntity
  8
0-0
  6
Continuous
 62
     3
370
     9
100
AcDbLine
 10
-157.6677425487621
 20
-453.2168661581501
 30
0.0
 11
-149.5081050975902
 21
-453.2168661581501
 31
0.0
  0
LINE
  5
213
330
1F
100
AcDbEntity
  8
0-0
  6
Continuous
 62
     3
370
     9
100
AcDbLine
 10
-148.5114793519715
 20
-452.2999778953758
 30
0.0
 11
-148.2546368160763
 21
-449.2168777053421
 31
0.0
  0
LINE
  5
214
330
1F
100
AcDbEntity
  8
0-0
  6
Continuous
 62
     3
370
     9
100
AcDbLine
 10
-158.6643682943807
 20
-452.2999778953758
 30
0.0
 11
-158.9212726902315
 21
-449.2168777053421
 31
0.0
  0
LINE
  5
215
330
1F
100
AcDbEntity
  8
0-0
  6
Continuous
 62
     3
370
     9
100
AcDbLine
 10
-699.0081735559411
 20
-453.2168661581501
 30
0.0
 11
-707.167811007113
 21
-453.2168661581501
 31
0.0
  0
LINE
  5
216
330
1F
100
AcDbEntity
  8
0-0
  6
Continuous
 62
     3
370
     9
100
AcDbLine
 10
-708.1644367527316
 20
-452.2999778953758
 30
0.0
 11
-708.4212792886269
 21
-449.2168777053421
 31
0.0
  0
LINE
  5
217
330
1F
100
AcDbEntity
  8
0-0
  6
Continuous
 62
     3
370
     9
100
AcDbLine
 10
-698.0115478103226
 20
-452.2999778953758
 30
0.0
 11
-697.7546434144715
 21
-449.2168777053421
 31
0.0
  0
LINE
  5
218
330
1F
100
AcDbEntity
  8
0-0
  6
Continuous
 62
     3
370
     9
100
AcDbLine
 10
414.6619899852857
 20
497.7004345043288
 30
0.0
 11
414.6619899852857
 21
531.3863970782309
 31
0.0
  0
LINE
  5
219
330
1F
100
AcDbEntity
  8
0-0
  6
Continuous
 62
     3
370
     9
100
AcDbLine
 10
404.4876356382628
 20
496.7580599398229
 30
0.0
 11
441.0107432184992
 21
493.5622509105788
 31
0.0
  0
LINE
  5
21A
330
1F
100
AcDbEntity
  8
0-0
  6
Continuous
 62
     3
370
     9
100
AcDbLine
 10
414.6619899852857
 20
-118.8760540936443
 30
0.0
 11
414.6619899852857
 21
-152.5620166675463
 31
0.0
  0
LINE
  5
21B
330
1F
100
AcDbEntity
  8
0-F
  6
Continuous
 62
     7
370
     9
100
AcDbLine
 10
-836.8188858032227
 20
539.4113654059335
 30
0.0
 11
-836.8176486041095
 21
439.4114066459039
 31
0.0
  0
LINE
  5
21C
330
1F
100
AcDbEntity
  8
0-F
  6
Continuous
 62
     7
370
     9
100
AcDbLine
 10
-836.8188858032227
 20
539.4113654059335
 30
0.0
 11
-838.7765678199561
 21
524.5397371859167
 31
0.0
  0
LINE
  5
21D
330
1F
100
AcDbEntity
  8
0-F
  6
Continuous
 62
     7
370
     9
100
AcDbLine
 10
-836.8188858032227
 20
539.4113654059335
 30
0.0
 11
-834.860832626755
 21
524.5397371859167
 31
0.0
  0
LINE
  5
21E
330
1F
100
AcDbEntity
  8
0-F
  6
Continuous
 62
     7
370
     9
100
AcDbLine
 10
-836.8176486041095
 20
439.4114066459039
 30
0.0
 11
-838.7757017805769
 21
454.2829111460095
 31
0.0
  0
LINE
  5
21F
330
1F
100
AcDbEntity
  8
0-F
  6
Continuous
 62
     7
370
     9
100
AcDbLine
 10
-836.8176486041095
 20
439.4114066459039
 30
0.0
 11
-834.8599665873759
 21
454.2830348659209
 31
0.0
  0
LINE
  5
220
330
1F
100
AcDbEntity
  8
0-F
  6
Continuous
 62
     7
370
     9
100
AcDbLine
 10
-836.8114471435547
 20
-60.58863459406652
 30
0.0
 11
-836.8102099444416
 21
-160.5885933540962
 31
0.0
  0
LINE
  5
221
330
1F
100
AcDbEntity
  8
0-F
  6
Continuous
 62
     7
370
     9
100
AcDbLine
 10
-836.8114471435547
 20
-60.58863459406652
 30
0.0
 11
-838.769144625277
 21
-75.46038653399478
 31
0.0
  0
LINE
  5
222
330
1F
100
AcDbEntity
  8
0-F
  6
Continuous
 62
     7
370
     9
100
AcDbLine
 10
-836.8114471435547
 20
-60.58863459406652
 30
0.0
 11
-834.8533939670871
 21
-75.46032467403904
 31
0.0
  0
LINE
  5
223
330
1F
100
AcDbEntity
  8
0-F
  6
Continuous
 62
     7
370
     9
100
AcDbLine
 10
-836.8102099444416
 20
-160.5885933540962
 30
0.0
 11
-838.768263120909
 21
-145.7169651340791
 31
0.0
  0
LINE
  5
224
330
1F
100
AcDbEntity
  8
0-F
  6
Continuous
 62
     7
370
     9
100
AcDbLine
 10
-836.8102099444416
 20
-160.5885933540962
 30
0.0
 11
-834.852512462719
 21
-145.7169651340791
 31
0.0
  0
LINE
  5
225
330
1F
100
AcDbEntity
  8
0-F
  6
Continuous
 62
     7
370
     9
100
AcDbLine
 10
-783.3379539283545
 20
539.4121077254015
 30
0.0
 11
-838.3188660080368
 21
539.4113654059335
 31
0.0
  0
LINE
  5
226
330
1F
100
AcDbEntity
  8
0-F
  6
Continuous
 62
     7
370
     9
100
AcDbLine
 10
-783.3292935345623
 20
-160.5878510346281
 30
0.0
 11
-838.3101746842668
 21
-160.5886552140518
 31
0.0
  0
LINE
  5
227
330
1F
100
AcDbEntity
  8
0-F
  6
Continuous
 62
     7
370
     9
100
AcDbLine
 10
-817.3367113680454
 20
439.4116540857266
 30
0.0
 11
-838.3176288089236
 21
439.4112829259926
 31
0.0
  0
LINE
  5
228
330
1F
100
AcDbEntity
  8
0-F
  6
Continuous
 62
     7
370
     9
100
AcDbLine
 10
-817.3305253724794
 20
-60.58838715424386
 30
0.0
 11
-838.3114273483689
 21
-60.58869645402226
 31
0.0
  0
LINE
  5
229
330
1F
100
AcDbEntity
  8
0-1
  6
Continuous
 62
     2
370
     9
100
AcDbLine
 10
469.8617316581107
 20
-160.5877273147171
 30
0.0
 11
396.6621038076039
 21
-160.5877273147171
 31
0.0
  0
LINE
  5
22A
330
1F
100
AcDbEntity
  8
0-F
  6
Continuous
 62
     7
370
     9
100
AcDbLine
 10
396.6621038076039
 20
-285.5877685546872
 30
0.0
 11
504.6796077006576
 21
-285.5877685546872
 31
0.0
  0
LINE
  5
22B
330
1F
100
AcDbEntity
  8
0-1
  6
Continuous
 62
     2
370
     9
100
AcDbLine
 10
469.8619790979336
 20
539.4122314453127
 30
0.0
 11
396.6621038076039
 21
539.4122314453127
 31
0.0
  0
LINE
  5
22C
330
1F
100
AcDbEntity
  8
0-1
  6
Continuous
 62
     2
370
     9
100
AcDbLine
 10
-78.3379786723367
 20
-401.2168925517313
 30
0.0
 11
-78.3379786723367
 21
-474.4167833070496
 31
0.0
  0
LINE
  5
22D
330
1F
100
AcDbEntity
  8
0-1
  6
Continuous
 62
     2
370
     9
100
AcDbLine
 10
-778.3379374323664
 20
-401.2168925517313
 30
0.0
 11
-778.3379374323664
 21
-474.4166595871383
 31
0.0
  0
ARC
  5
22E
330
1F
100
AcDbEntity
  8
0-1
  6
Continuous
 62
     2
370
     9
100
AcDbCircle
 10
-772.1380852364205
 20
-458.2168826541383
 30
0.0
 40
3.000000038662472
100
AcDbArc
 50
180.0
 51
270.0
  0
ARC
  5
22F
330
1F
100
AcDbEntity
  8
0-1
  6
Continuous
 62
     2
370
     9
100
AcDbCircle
 10
-772.3380166131096
 20
-458.4168140308276
 30
0.0
 40
6.000000077324945
100
AcDbArc
 50
180.0
 51
270.0
  0
ARC
  5
230
330
1F
100
AcDbEntity
  8
0-1
  6
Continuous
 62
     2
370
     9
100
AcDbCircle
 10
-84.33808507146054
 20
-458.4168140308276
 30
0.0
 40
6.000000077324945
100
AcDbArc
 50
271.0856170654297
 51
0.0
  0
ARC
  5
231
330
1F
100
AcDbEntity
  8
0-1
  6
Continuous
 62
     2
370
     9
100
AcDbCircle
 10
-84.53814016806106
 20
-458.2168826541383
 30
0.0
 40
3.000000038662472
100
AcDbArc
 50
272.1712493896484
 51
0.0
  0
CIRCLE
  5
232
330
1F
100
AcDbEntity
  8
0-1
  6
Continuous
 62
     2
370
     9
100
AcDbCircle
 10
-678.3379168123813
 20
543.9122957796667
 30
0.0
 40
4.499999574712805
  0
ARC
  5
233
330
1F
100
AcDbEntity
  8
0-1
  6
Continuous
 62
     2
370
     9
100
AcDbCircle
 10
453.8620252867003
 20
-154.5878064954601
 30
0.0
 40
5.999999594044042
100
AcDbArc
 50
270.0
 51
0.0
  0
ARC
  5
234
330
1F
100
AcDbEntity
  8
0-1
  6
Continuous
 62
     2
370
     9
100
AcDbCircle
 10
453.6620939100115
 20
-154.3877513988598
 30
0.0
 40
2.999999797022021
100
AcDbArc
 50
270.0
 51
0.0
  0
ARC
  5
235
330
1F
100
AcDbEntity
  8
0-0
  6
Continuous
 62
     3
370
     9
100
AcDbCircle
 10
-756.8379531035553
 20
482.9120697846287
 30
0.0
 40
2.999999797022021
100
AcDbArc
 50
90.0
 51
180.0
  0
ARC
  5
236
330
1F
100
AcDbEntity
  8
0-0
  6
Continuous
 62
     3
370
     9
100
AcDbCircle
 10
-760.3379275347736
 20
486.412229795714
 30
0.0
 40
2.999999797022021
100
AcDbArc
 50
90.0
 51
180.0
  0
CIRCLE
  5
237
330
1F
100
AcDbEntity
  8
0-1
  6
Continuous
 62
     2
370
     9
100
AcDbCircle
 10
-678.3379168123813
 20
-165.0877916490708
 30
0.0
 40
4.499999574712805
  0
ARC
  5
238
330
1F
100
AcDbEntity
  8
0-0
  6
Continuous
 62
     3
370
     9
100
AcDbCircle
 10
-760.3379275347736
 20
-107.5877875250737
 30
0.0
 40
2.999999797022021
100
AcDbArc
 50
180.0
 51
270.0
  0
ARC
  5
239
330
1F
100
AcDbEntity
  8
0-0
  6
Continuous
 62
     3
370
     9
100
AcDbCircle
 10
-756.8379531035553
 20
-104.0877512338997
 30
0.0
 40
2.999999797022021
100
AcDbArc
 50
180.0
 51
270.0
  0
ARC
  5
23A
330
1F
100
AcDbEntity
  8
0-1
  6
Continuous
 62
     2
370
     9
100
AcDbCircle
 10
453.6620939100115
 20
533.2122555294554
 30
0.0
 40
2.999999797022021
100
AcDbArc
 50
0.0
 51
90.0
  0
ARC
  5
23B
330
1F
100
AcDbEntity
  8
0-1
  6
Continuous
 62
     2
370
     9
100
AcDbCircle
 10
453.8620252867003
 20
533.4121869061447
 30
0.0
 40
5.999999594044042
100
AcDbArc
 50
0.0
 51
90.0
  0
ARC
  5
23C
330
1F
100
AcDbEntity
  8
0-0
  6
Continuous
 62
     3
370
     9
100
AcDbCircle
 10
409.1620213276636
 20
509.7362786370357
 30
0.0
 40
1.499999898511011
100
AcDbArc
 50
277.1250152587891
 51
359.9999847412109
  0
ARC
  5
23D
330
1F
100
AcDbEntity
  8
0-0
  6
Continuous
 62
     3
370
     9
100
AcDbCircle
 10
409.1620213276636
 20
513.08797475454
 30
0.0
 40
1.499999898511011
100
AcDbArc
 50
0.0
 51
82.87496948242186
  0
ARC
  5
23E
330
1F
100
AcDbEntity
  8
0-0
  6
Continuous
 62
     3
370
     9
100
AcDbCircle
 10
409.1620213276636
 20
527.2363363729943
 30
0.0
 40
1.499999898511011
100
AcDbArc
 50
277.1250152587891
 51
0.0000000000000254
  0
ARC
  5
23F
330
1F
100
AcDbEntity
  8
0-0
  6
Continuous
 62
     3
370
     9
100
AcDbCircle
 10
409.1620213276636
 20
530.5569787927578
 30
0.0
 40
1.499999898511011
100
AcDbArc
 50
0.0
 51
82.61395263671875
  0
ARC
  5
240
330
1F
100
AcDbEntity
  8
0-0
  6
Continuous
 62
     3
370
     9
100
AcDbCircle
 10
433.6620279260586
 20
483.1632212046032
 30
0.0
 40
2.999999797022021
100
AcDbArc
 50
0.0
 51
84.99934387207031
  0
ARC
  5
241
330
1F
100
AcDbEntity
  8
0-0
  6
Continuous
 62
     3
370
     9
100
AcDbCircle
 10
-99.83796300114804
 20
-104.0877512338997
 30
0.0
 40
2.999999797022021
100
AcDbArc
 50
270.0
 51
0.0
  0
ARC
  5
242
330
1F
100
AcDbEntity
  8
0-0
  6
Continuous
 62
     3
370
     9
100
AcDbCircle
 10
-96.33798856992968
 20
-107.5877875250737
 30
0.0
 40
2.999999797022021
100
AcDbArc
 50
270.0
 51
0.0
  0
ARC
  5
243
330
1F
100
AcDbEntity
  8
0-1
  6
Continuous
 62
     2
370
     9
100
AcDbCircle
 10
-178.3379374323664
 20
-165.0877916490708
 30
0.0
 40
4.499999574712805
100
AcDbArc
 50
8.64996337890625
 51
0.0
  0
ARC
  5
244
330
1F
100
AcDbEntity
  8
0-1
  6
JWW_CENTER1
 62
     2
370
     9
100
AcDbCircle
 10
469.8619790979336
 20
553.4121291701861
 30
0.0
 40
9.499999639150259
100
AcDbArc
 50
270.0
 51
359.9999847412109
  0
ARC
  5
245
330
1F
100
AcDbEntity
  8
0-1
  6
Continuous
 62
     2
370
     9
100
AcDbCircle
 10
469.8619790979336
 20
553.4121291701861
 30
0.0
 40
4.99999958115655
100
AcDbArc
 50
270.0
 51
0.0
  0
CIRCLE
  5
246
330
1F
100
AcDbEntity
  8
0-1
  6
Continuous
 62
     2
370
     9
100
AcDbCircle
 10
-178.3379374323664
 20
543.9122957796667
 30
0.0
 40
4.499999574712805
  0
ARC
  5
247
330
1F
100
AcDbEntity
  8
0-0
  6
Continuous
 62
     3
370
     9
100
AcDbCircle
 10
-96.33798856992968
 20
486.412229795714
 30
0.0
 40
2.999999797022021
100
AcDbArc
 50
0.0
 51
90.0
  0
ARC
  5
248
330
1F
100
AcDbEntity
  8
0-0
  6
Continuous
 62
     3
370
     9
100
AcDbCircle
 10
-99.83796300114804
 20
482.9120697846287
 30
0.0
 40
2.999999797022021
100
AcDbArc
 50
0.0
 51
90.0
  0
ARC
  5
249
330
1F
100
AcDbEntity
  8
0-0
  6
Continuous
 62
     3
370
     9
100
AcDbCircle
 10
-99.58687344112889
 20
-438.2169403900969
 30
0.0
 40
2.999999797022021
100
AcDbArc
 50
270.0011749267578
 51
354.9998168945312
  0
ARC
  5
24A
330
1F
100
AcDbEntity
  8
0-0
  6
Continuous
 62
     3
370
     9
100
AcDbCircle
 10
-92.4215729172164
 20
-402.2168587349556
 30
0.0
 40
0.9999999524773778
100
AcDbArc
 50
90.0
 51
174.9997100830078
  0
ARC
  5
24B
330
1F
100
AcDbEntity
  8
0-1
  6
Continuous
 62
     2
370
     9
100
AcDbCircle
 10
469.8619790979336
 20
-174.5877487595016
 30
0.0
 40
4.99999958115655
100
AcDbArc
 50
0.0
 51
90.0
  0
ARC
  5
24C
330
1F
100
AcDbEntity
  8
0-1
  6
JWW_CENTER1
 62
     2
370
     9
100
AcDbCircle
 10
469.8619790979336
 20
-174.5877487595016
 30
0.0
 40
9.499999639150259
100
AcDbArc
 50
0.0
 51
89.99998474121094
  0
ARC
  5
24D
330
1F
100
AcDbEntity
  8
0-0
  6
Continuous
 62
     3
370
     9
100
AcDbCircle
 10
-83.99964925405129
 20
-409.2168694573479
 30
0.0
 40
1.999999904954756
100
AcDbArc
 50
90.0
 51
174.9998626708984
  0
ARC
  5
24E
330
1F
100
AcDbEntity
  8
0-0
  6
Continuous
 62
     3
370
     9
100
AcDbCircle
 10
-93.17255277891405
 20
-445.2168892525337
 30
0.0
 40
3.999999809909511
100
AcDbArc
 50
270.0
 51
354.9994812011719
  0
ARC
  5
24F
330
1F
100
AcDbEntity
  8
0-0
  6
Continuous
 62
     3
370
     9
100
AcDbCircle
 10
-425.7987924524255
 20
-498.2168909021324
 30
0.0
 40
0.9999999524773778
100
AcDbArc
 50
270.0
 51
357.7098083496094
  0
ARC
  5
250
330
1F
100
AcDbEntity
  8
0-0
  6
Continuous
 62
     3
370
     9
100
AcDbCircle
 10
-419.9555629008524
 20
-452.2168381149703
 30
0.0
 40
2.999999797022021
100
AcDbArc
 50
90.0
 51
177.7091827392578
  0
ARC
  5
251
330
1F
100
AcDbEntity
  8
0-0
  6
Continuous
 62
     3
370
     9
100
AcDbCircle
 10
-319.7987891532279
 20
-498.2168909021324
 30
0.0
 40
0.9999999524773778
100
AcDbArc
 50
270.0
 51
357.7098083496094
  0
ARC
  5
252
330
1F
100
AcDbEntity
  8
0-0
  6
Continuous
 62
     3
370
     9
100
AcDbCircle
 10
-313.9555596016548
 20
-452.2168381149703
 30
0.0
 40
2.999999797022021
100
AcDbArc
 50
90.0
 51
177.7091827392578
  0
ARC
  5
253
330
1F
100
AcDbEntity
  8
0-0
  6
Continuous
 62
     3
370
     9
100
AcDbCircle
 10
-324.87712035308
 20
-498.2168909021324
 30
0.0
 40
0.9999999524773778
100
AcDbArc
 50
182.2901916503906
 51
270.0
  0
ARC
  5
254
330
1F
100
AcDbEntity
  8
0-0
  6
Continuous
 62
     3
370
     9
100
AcDbCircle
 10
-330.7203499046531
 20
-452.2168381149703
 30
0.0
 40
2.999999797022021
100
AcDbArc
 50
2.290817260742188
 51
90.0
  0
ARC
  5
255
330
1F
100
AcDbEntity
  8
0-0
  6
Continuous
 62
     3
370
     9
100
AcDbCircle
 10
-213.7987858540301
 20
-498.2168909021324
 30
0.0
 40
0.9999999524773778
100
AcDbArc
 50
270.0
 51
357.7098083496094
  0
ARC
  5
256
330
1F
100
AcDbEntity
  8
0-0
  6
Continuous
 62
     3
370
     9
100
AcDbCircle
 10
-207.9555563024572
 20
-452.2168381149703
 30
0.0
 40
2.999999797022021
100
AcDbArc
 50
90.0
 51
177.7091827392578
  0
ARC
  5
257
330
1F
100
AcDbEntity
  8
0-0
  6
Continuous
 62
     3
370
     9
100
AcDbCircle
 10
-218.8771170538824
 20
-498.2168909021324
 30
0.0
 40
0.9999999524773778
100
AcDbArc
 50
182.2901916503906
 51
270.0
  0
ARC
  5
258
330
1F
100
AcDbEntity
  8
0-0
  6
Continuous
 62
     3
370
     9
100
AcDbCircle
 10
-224.7203466054555
 20
-452.2168381149703
 30
0.0
 40
2.999999797022021
100
AcDbArc
 50
2.290817260742188
 51
90.0
  0
ARC
  5
259
330
1F
100
AcDbEntity
  8
0-0
  6
Continuous
 62
     3
370
     9
100
AcDbCircle
 10
440.6621005084065
 20
489.5773562869512
 30
0.0
 40
3.999999809909511
100
AcDbArc
 50
0.0
 51
84.99986267089844
  0
ARC
  5
25A
330
1F
100
AcDbEntity
  8
0-0
  6
Continuous
 62
     3
370
     9
100
AcDbCircle
 10
404.6620807132206
 20
498.750445391681
 30
0.0
 40
1.999999904954756
100
AcDbArc
 50
180.0
 51
264.9961853027344
  0
ARC
  5
25B
330
1F
100
AcDbEntity
  8
0-0
  6
Continuous
 62
     3
370
     9
100
AcDbCircle
 10
493.661978438094
 20
191.4514655035896
 30
0.0
 40
0.9999999524773778
100
AcDbArc
 50
0.0
 51
87.70967102050781
  0
ARC
  5
25C
330
1F
100
AcDbEntity
  8
0-0
  6
Continuous
 62
     3
370
     9
100
AcDbCircle
 10
447.6619256509323
 20
197.2946331952072
 30
0.0
 40
2.999999797022021
100
AcDbArc
 50
180.0
 51
267.7097625732422
  0
ARC
  5
25D
330
1F
100
AcDbEntity
  8
0-0
  6
Continuous
 62
     3
370
     9
100
AcDbCircle
 10
493.661978438094
 20
411.4514490076016
 30
0.0
 40
0.9999999524773778
100
AcDbArc
 50
0.0
 51
87.70967102050781
  0
ARC
  5
25E
330
1F
100
AcDbEntity
  8
0-0
  6
Continuous
 62
     3
370
     9
100
AcDbCircle
 10
447.6619256509323
 20
417.294616699219
 30
0.0
 40
2.999999797022021
100
AcDbArc
 50
180.0
 51
267.7097625732422
  0
ARC
  5
25F
330
1F
100
AcDbEntity
  8
0-0
  6
Continuous
 62
     3
370
     9
100
AcDbCircle
 10
493.661978438094
 20
407.3728984111067
 30
0.0
 40
0.9999999524773778
100
AcDbArc
 50
272.2903289794922
 51
0.0000000000000127
  0
ARC
  5
260
330
1F
100
AcDbEntity
  8
0-0
  6
Continuous
 62
     3
370
     9
100
AcDbCircle
 10
447.6619256509323
 20
401.5297307194892
 30
0.0
 40
2.999999797022021
100
AcDbArc
 50
92.29023742675781
 51
180.0
  0
ARC
  5
261
330
1F
100
AcDbEntity
  8
0-0
  6
Continuous
 62
     3
370
     9
100
AcDbCircle
 10
456.1847429017763
 20
485.6788181614234
 30
0.0
 40
2.999999797022021
100
AcDbArc
 50
104.9801177978516
 51
209.5452880859375
  0
ARC
  5
262
330
1F
100
AcDbEntity
  8
0-0
  6
Continuous
 62
     3
370
     9
100
AcDbCircle
 10
409.1620213276636
 20
-130.9118982263512
 30
0.0
 40
1.499999898511011
100
AcDbArc
 50
0.0000152587890625
 51
82.87498474121092
  0
ARC
  5
263
330
1F
100
AcDbEntity
  8
0-0
  6
Continuous
 62
     3
370
     9
100
AcDbCircle
 10
409.1620213276636
 20
-134.2635943438556
 30
0.0
 40
1.499999898511011
100
AcDbArc
 50
277.1250305175781
 51
0.0
  0
ARC
  5
264
330
1F
100
AcDbEntity
  8
0-0
  6
Continuous
 62
     3
370
     9
100
AcDbCircle
 10
409.1620213276636
 20
-148.4119559623099
 30
0.0
 40
1.499999898511011
100
AcDbArc
 50
0.0
 51
82.87498474121094
  0
ARC
  5
265
330
1F
100
AcDbEntity
  8
0-0
  6
Continuous
 62
     3
370
     9
100
AcDbCircle
 10
409.1620213276636
 20
-151.7325983820734
 30
0.0
 40
1.499999898511011
100
AcDbArc
 50
277.3860473632812
 51
0.0
  0
ARC
  5
266
330
1F
100
AcDbEntity
  8
0-0
  6
Continuous
 62
     3
370
     9
100
AcDbCircle
 10
433.6620279260586
 20
-104.3388407939187
 30
0.0
 40
2.999999797022021
100
AcDbArc
 50
275.0006561279297
 51
0.0
  0
ARC
  5
267
330
1F
100
AcDbEntity
  8
0-0
  6
Continuous
 62
     3
370
     9
100
AcDbCircle
 10
440.6621005084065
 20
-110.7529758762666
 30
0.0
 40
3.999999809909511
100
AcDbArc
 50
275.0001373291016
 51
0.0
  0
ARC
  5
268
330
1F
100
AcDbEntity
  8
0-0
  6
Continuous
 62
     3
370
     9
100
AcDbCircle
 10
404.6620807132206
 20
-119.9260649809963
 30
0.0
 40
1.999999904954756
100
AcDbArc
 50
95.00381469726564
 51
180.0
  0
ARC
  5
269
330
1F
100
AcDbEntity
  8
0-0
  6
Continuous
 62
     3
370
     9
100
AcDbCircle
 10
493.661978438094
 20
187.3729149070948
 30
0.0
 40
0.9999999524773778
100
AcDbArc
 50
272.2903289794922
 51
0.0000000000000127
  0
ARC
  5
26A
330
1F
100
AcDbEntity
  8
0-0
  6
Continuous
 62
     3
370
     9
100
AcDbCircle
 10
447.6619256509323
 20
181.5297472154774
 30
0.0
 40
2.999999797022021
100
AcDbArc
 50
92.29023742675781
 51
180.0
  0
ARC
  5
26B
330
1F
100
AcDbEntity
  8
0-0
  6
Continuous
 62
     3
370
     9
100
AcDbCircle
 10
493.661978438094
 20
-32.62706859691704
 30
0.0
 40
0.9999999524773778
100
AcDbArc
 50
272.2903289794922
 51
0.0000000000000127
  0
ARC
  5
26C
330
1F
100
AcDbEntity
  8
0-0
  6
Continuous
 62
     3
370
     9
100
AcDbCircle
 10
447.6619256509323
 20
-38.47023628853435
 30
0.0
 40
2.999999797022021
100
AcDbArc
 50
92.29023742675781
 51
180.0
  0
ARC
  5
26D
330
1F
100
AcDbEntity
  8
0-0
  6
Continuous
 62
     3
370
     9
100
AcDbCircle
 10
493.661978438094
 20
-28.54851800042226
 30
0.0
 40
0.9999999524773778
100
AcDbArc
 50
0.0
 51
87.70967102050781
  0
ARC
  5
26E
330
1F
100
AcDbEntity
  8
0-0
  6
Continuous
 62
     3
370
     9
100
AcDbCircle
 10
447.6619256509323
 20
-22.70535030880467
 30
0.0
 40
2.999999797022021
100
AcDbArc
 50
180.0
 51
267.7097625732422
  0
ARC
  5
26F
330
1F
100
AcDbEntity
  8
0-0
  6
Continuous
 62
     3
370
     9
100
AcDbCircle
 10
456.1847429017763
 20
-106.8544377507389
 30
0.0
 40
2.999999797022021
100
AcDbArc
 50
150.4547119140625
 51
255.0198822021484
  0
ARC
  5
270
330
1F
100
AcDbEntity
  8
0-0
  6
Continuous
 62
     3
370
     9
100
AcDbCircle
 10
-757.0890426635742
 20
-438.2169403900969
 30
0.0
 40
2.999999797022021
100
AcDbArc
 50
185.0001831054688
 51
269.9988250732422
  0
ARC
  5
271
330
1F
100
AcDbEntity
  8
0-0
  6
Continuous
 62
     3
370
     9
100
AcDbCircle
 10
-764.2543431874868
 20
-402.2168587349556
 30
0.0
 40
0.9999999524773778
100
AcDbArc
 50
5.000289916992188
 51
90.0
  0
ARC
  5
272
330
1F
100
AcDbEntity
  8
0-0
  6
Continuous
 62
     3
370
     9
100
AcDbCircle
 10
-772.6762668506519
 20
-409.2168694573479
 30
0.0
 40
1.999999904954756
100
AcDbArc
 50
5.000137329101562
 51
90.0
  0
ARC
  5
273
330
1F
100
AcDbEntity
  8
0-0
  6
Continuous
 62
     3
370
     9
100
AcDbCircle
 10
-763.5033633257892
 20
-445.2168892525337
 30
0.0
 40
3.999999809909511
100
AcDbArc
 50
185.0005187988281
 51
270.0
  0
ARC
  5
274
330
1F
100
AcDbEntity
  8
0-0
  6
Continuous
 62
     3
370
     9
100
AcDbCircle
 10
-430.8771236522778
 20
-498.2168909021324
 30
0.0
 40
0.9999999524773778
100
AcDbArc
 50
182.2901916503906
 51
270.0
  0
ARC
  5
275
330
1F
100
AcDbEntity
  8
0-0
  6
Continuous
 62
     3
370
     9
100
AcDbCircle
 10
-436.7203532038508
 20
-452.2168381149703
 30
0.0
 40
2.999999797022021
100
AcDbArc
 50
2.290817260742188
 51
90.0
  0
ARC
  5
276
330
1F
100
AcDbEntity
  8
0-0
  6
Continuous
 62
     3
370
     9
100
AcDbCircle
 10
-536.8771269514754
 20
-498.2168909021324
 30
0.0
 40
0.9999999524773778
100
AcDbArc
 50
182.2901916503906
 51
270.0
  0
ARC
  5
277
330
1F
100
AcDbEntity
  8
0-0
  6
Continuous
 62
     3
370
     9
100
AcDbCircle
 10
-542.7203565030484
 20
-452.2168381149703
 30
0.0
 40
2.999999797022021
100
AcDbArc
 50
2.290817260742188
 51
90.0
  0
ARC
  5
278
330
1F
100
AcDbEntity
  8
0-0
  6
Continuous
 62
     3
370
     9
100
AcDbCircle
 10
-531.7987957516232
 20
-498.2168909021324
 30
0.0
 40
0.9999999524773778
100
AcDbArc
 50
270.0
 51
357.7098083496094
  0
ARC
  5
279
330
1F
100
AcDbEntity
  8
0-0
  6
Continuous
 62
     3
370
     9
100
AcDbCircle
 10
-525.9555662000502
 20
-452.2168381149703
 30
0.0
 40
2.999999797022021
100
AcDbArc
 50
90.0
 51
177.7091827392578
  0
ARC
  5
27A
330
1F
100
AcDbEntity
  8
0-0
  6
Continuous
 62
     3
370
     9
100
AcDbCircle
 10
-642.877130250673
 20
-498.2168909021324
 30
0.0
 40
0.9999999524773778
100
AcDbArc
 50
182.2901916503906
 51
270.0
  0
ARC
  5
27B
330
1F
100
AcDbEntity
  8
0-0
  6
Continuous
 62
     3
370
     9
100
AcDbCircle
 10
-648.7203598022461
 20
-452.2168381149703
 30
0.0
 40
2.999999797022021
100
AcDbArc
 50
2.290817260742188
 51
90.0
  0
ARC
  5
27C
330
1F
100
AcDbEntity
  8
0-0
  6
Continuous
 62
     3
370
     9
100
AcDbCircle
 10
-637.7987990508209
 20
-498.2168909021324
 30
0.0
 40
0.9999999524773778
100
AcDbArc
 50
270.0
 51
357.7098083496094
  0
ARC
  5
27D
330
1F
100
AcDbEntity
  8
0-0
  6
Continuous
 62
     3
370
     9
100
AcDbCircle
 10
-631.9555694992478
 20
-452.2168381149703
 30
0.0
 40
2.999999797022021
100
AcDbArc
 50
90.0
 51
177.7091827392578
  0
CIRCLE
  5
27E
330
1F
100
AcDbEntity
  8
0-1
  6
Continuous
 62
     2
370
     9
100
AcDbCircle
 10
-73.83785247802734
 20
439.4121489653719
 30
0.0
 40
4.499999574712805
  0
CIRCLE
  5
27F
330
1F
100
AcDbEntity
  8
0-1
  6
Continuous
 62
     2
370
     9
100
AcDbCircle
 10
-782.8379399067647
 20
439.4121489653719
 30
0.0
 40
4.499999574712805
  0
ARC
  5
280
330
1F
100
AcDbEntity
  8
0-1
  6
Continuous
 62
     2
370
     9
100
AcDbCircle
 10
-782.8379399067647
 20
-60.58783041464309
 30
0.0
 40
4.499999574712805
100
AcDbArc
 50
278.6499633789062
 51
270.0
  0
CIRCLE
  5
281
330
1F
100
AcDbEntity
  8
0-1
  6
Continuous
 62
     2
370
     9
100
AcDbCircle
 10
-73.83785247802734
 20
-60.58783041464309
 30
0.0
 40
4.499999574712805
  0
ARC
  5
282
330
1F
100
AcDbEntity
  8
0-1
  6
JWW_CENTER1
 62
     2
370
     9
100
AcDbCircle
 10
-64.3380190875078
 20
-474.4167833070496
 30
0.0
 40
9.499999639150259
100
AcDbArc
 50
180.0
 51
269.9999847412109
  0
ARC
  5
283
330
1F
100
AcDbEntity
  8
0-1
  6
Continuous
 62
     2
370
     9
100
AcDbCircle
 10
-64.3380190875078
 20
-474.4167833070496
 30
0.0
 40
13.99999921386306
100
AcDbArc
 50
180.0
 51
270.0
  0
ARC
  5
284
330
1F
100
AcDbEntity
  8
0-1
  6
Continuous
 62
     2
370
     9
100
AcDbCircle
 10
-64.3380190875078
 20
-474.4167833070496
 30
0.0
 40
4.99999958115655
100
AcDbArc
 50
180.0
 51
270.0
  0
ARC
  5
285
330
1F
100
AcDbEntity
  8
0-1
  6
Continuous
 62
     2
370
     9
100
AcDbCircle
 10
-792.3378970171955
 20
-474.4167833070496
 30
0.0
 40
4.99999958115655
100
AcDbArc
 50
270.0
 51
0.0
  0
ARC
  5
286
330
1F
100
AcDbEntity
  8
0-1
  6
JWW_CENTER1
 62
     2
370
     9
100
AcDbCircle
 10
-792.3378970171955
 20
-474.4167833070496
 30
0.0
 40
9.499999639150259
100
AcDbArc
 50
270.0
 51
359.9999847412109
  0
ARC
  5
287
330
1F
100
AcDbEntity
  8
0-0
  6
Continuous
 62
     3
370
     9
100
AcDbCircle
 10
-149.5081050975902
 20
-452.2169618348817
 30
0.0
 40
0.9999999524773778
100
AcDbArc
 50
270.0
 51
355.2365875244141
  0
ARC
  5
288
330
1F
100
AcDbEntity
  8
0-0
  6
Continuous
 62
     3
370
     9
100
AcDbCircle
 10
-157.6677425487621
 20
-452.2169618348817
 30
0.0
 40
0.9999999524773778
100
AcDbArc
 50
184.763412475586
 51
270.0
  0
ARC
  5
289
330
1F
100
AcDbEntity
  8
0-0
  6
Continuous
 62
     3
370
     9
100
AcDbCircle
 10
-707.167811007113
 20
-452.2169618348817
 30
0.0
 40
0.9999999524773778
100
AcDbArc
 50
184.763412475586
 51
270.0
  0
ARC
  5
28A
330
1F
100
AcDbEntity
  8
0-0
  6
Continuous
 62
     3
370
     9
100
AcDbCircle
 10
-699.0081735559411
 20
-452.2169618348817
 30
0.0
 40
0.9999999524773778
100
AcDbArc
 50
270.0
 51
355.2365875244141
  0
ARC
  5
28B
330
1F
100
AcDbEntity
  8
0-0
  6
Continuous
 62
     3
370
     9
100
AcDbCircle
 10
416.6620460716456
 20
497.7004345043288
 30
0.0
 40
1.999999904954756
100
AcDbArc
 50
180.0
 51
264.9961853027344
  0
ARC
  5
28C
330
1F
100
AcDbEntity
  8
0-0
  6
Continuous
 62
     3
370
     9
100
AcDbCircle
 10
416.6620460716456
 20
-118.8760540936443
 30
0.0
 40
1.999999904954756
100
AcDbArc
 50
95.00381469726564
 51
180.0
  0
ARC
  5
28D
330
1F
100
AcDbEntity
  8
0-1
  6
Continuous
 62
     2
370
     9
100
AcDbCircle
 10
469.8617316581107
 20
-174.5877487595016
 30
0.0
 40
13.99999921386306
100
AcDbArc
 50
0.0
 51
90.0
  0
ARC
  5
28E
330
1F
100
AcDbEntity
  8
0-1
  6
Continuous
 62
     2
370
     9
100
AcDbCircle
 10
469.8619790979336
 20
553.4121291701861
 30
0.0
 40
13.99999921386306
100
AcDbArc
 50
270.0
 51
0.0
  0
ARC
  5
28F
330
1F
100
AcDbEntity
  8
0-1
  6
Continuous
 62
     2
370
     9
100
AcDbCircle
 10
-792.3378970171955
 20
-474.4166595871383
 30
0.0
 40
13.99999921386306
100
AcDbArc
 50
270.0
 51
0.0
  0
TEXT
  5
290
330
1F
100
AcDbEntity
  8
0-F
  6
Continuous
 62
     2
370
     9
100
AcDbText
 10
266.3420550299491
 20
-207.3533672843726
 30
0.0
 40
15.24
  1
3.2
 50
90.00000250447673
 41
1.083333333333334
  7
ＭＳ ゴシック
100
AcDbText
  0
TEXT
  5
291
330
1F
100
AcDbEntity
  8
0-F
  6
Continuous
 62
     2
370
     9
100
AcDbText
 10
266.3420550299491
 20
-147.7927461774254
 30
0.0
 40
15.24
  1
1.8
 50
90.00000250447673
 41
1.083333333333315
  7
ＭＳ ゴシック
100
AcDbText
  0
TEXT
  5
292
330
1F
100
AcDbEntity
  8
0-F
  6
Continuous
 62
     2
370
     9
100
AcDbText
 10
266.3420550299491
 20
551.9808051448927
 30
0.0
 40
15.24
  1
3.2
 50
90.00000250447673
 41
1.083333333333334
  7
ＭＳ ゴシック
100
AcDbText
  0
TEXT
  5
293
330
1F
100
AcDbEntity
  8
0-F
  6
Continuous
 62
     2
370
     9
100
AcDbText
 10
266.3420550299491
 20
490.1035286985245
 30
0.0
 40
15.24
  1
1.8
 50
90.00000250447673
 41
1.083333333333334
  7
ＭＳ ゴシック
100
AcDbText
  0
TEXT
  5
294
330
1F
100
AcDbEntity
  8
0-F
  6
Continuous
 62
     2
370
     9
100
AcDbText
 10
-759.4128046809017
 20
-302.5417982606629
 30
0.0
 40
15.24
  1
1.8
 41
1.083333333333333
  7
ＭＳ ゴシック
100
AcDbText
  0
TEXT
  5
295
330
1F
100
AcDbEntity
  8
0-F
  6
Continuous
 62
     2
370
     9
100
AcDbText
 10
-823.0344700168918
 20
-302.5417982606629
 30
0.0
 40
15.24
  1
3.2
 41
1.083333333333333
  7
ＭＳ ゴシック
100
AcDbText
  0
TEXT
  5
296
330
1F
100
AcDbEntity
  8
0-F
  6
Continuous
 62
     2
370
     9
100
AcDbText
 10
-62.17302167737785
 20
-302.5417982606629
 30
0.0
 40
15.24
  1
3.2
 41
1.083333333333333
  7
ＭＳ ゴシック
100
AcDbText
  0
TEXT
  5
297
330
1F
100
AcDbEntity
  8
0-F
  6
Continuous
 62
     2
370
     9
100
AcDbText
 10
-121.5312060794315
 20
-302.5417982606629
 30
0.0
 40
15.24
  1
1.8
 41
1.083333333333333
  7
ＭＳ ゴシック
100
AcDbText
  0
TEXT
  5
298
330
1F
100
AcDbEntity
  8
0-E
  6
Continuous
 62
     7
370
     9
100
AcDbText
 10
529.5563538010055
 20
641.2013119589318
 30
0.0
 40
11.43
  1
アンカー：φ９
 41
1.142857142857143
  7
ＭＳ ゴシック
100
AcDbText
  0
TEXT
  5
299
330
1F
100
AcDbEntity
  8
0-E
  6
Continuous
 62
     7
370
     9
100
AcDbText
 10
524.4449811368378
 20
617.629823294975
 30
0.0
 40
11.43
  1
ＳＳ４００，樹脂系塗装
 41
1.151515151515152
  7
ＭＳ ゴシック
100
AcDbText
  0
TEXT
  5
29A
330
1F
100
AcDbEntity
  8
0-E
  6
Continuous
 62
     7
370
     9
100
AcDbText
 10
619.9923551404802
 20
333.4722816591008
 30
0.0
 40
11.43
  1
蓋本体：ＦＣＤ５００
 41
1.15
  7
ＭＳ ゴシック
100
AcDbText
  0
TEXT
  5
29B
330
1F
100
AcDbEntity
  8
0-F
  6
Continuous
 62
     2
370
     9
100
AcDbText
 10
-744.5879425873626
 20
603.2131571341853
 30
0.0
 40
15.24
  1
100
 41
1.083333333333333
  7
ＭＳ ゴシック
100
AcDbText
  0
TEXT
  5
29C
330
1F
100
AcDbEntity
  8
0-F
  6
Continuous
 62
     2
370
     9
100
AcDbText
 10
-144.5879580523516
 20
603.2131571341853
 30
0.0
 40
15.24
  1
100
 41
1.083333333333333
  7
ＭＳ ゴシック
100
AcDbText
  0
TEXT
  5
29D
330
1F
100
AcDbEntity
  8
0-F
  6
Continuous
 62
     2
370
     9
100
AcDbText
 10
-444.5879580523516
 20
-260.2795714342271
 30
0.0
 40
15.24
  1
700
 41
1.083333333333333
  7
ＭＳ ゴシック
100
AcDbText
  0
TEXT
  5
29E
330
1F
100
AcDbEntity
  8
0-F
  6
Continuous
 62
     2
370
     9
100
AcDbText
 10
-444.5879580523516
 20
-302.5419219805744
 30
0.0
 40
15.24
  1
690
 41
1.083333333333333
  7
ＭＳ ゴシック
100
AcDbText
  0
TEXT
  5
29F
330
1F
100
AcDbEntity
  8
0-F
  6
Continuous
 62
     2
370
     9
100
AcDbText
 10
-444.5879580523516
 20
-345.5292093472866
 30
0.0
 40
15.24
  1
670
 41
1.083333333333333
  7
ＭＳ ゴシック
100
AcDbText
  0
TEXT
  5
2A0
330
1F
100
AcDbEntity
  8
0-F
  6
Continuous
 62
     2
370
     9
100
AcDbText
 10
558.541761815323
 20
543.2871430685099
 30
0.0
 40
15.24
  1
29
 50
90.00000250447789
 41
1.062500000000001
  7
ＭＳ ゴシック
100
AcDbText
  0
TEXT
  5
2A1
330
1F
100
AcDbEntity
  8
0-F
  6
Continuous
 62
     2
370
     9
100
AcDbText
 10
558.541761815323
 20
503.7872107020614
 30
0.0
 40
15.24
  1
50
 50
90.00000250447789
 41
1.062500000000001
  7
ＭＳ ゴシック
100
AcDbText
  0
TEXT
  5
2A2
330
1F
100
AcDbEntity
  8
0-F
  6
Continuous
 62
     2
370
     9
100
AcDbText
 10
558.541761815323
 20
-185.7127629043576
 30
0.0
 40
15.24
  1
29
 50
90.00000250447789
 41
1.062500000000001
  7
ＭＳ ゴシック
100
AcDbText
  0
TEXT
  5
2A3
330
1F
100
AcDbEntity
  8
0-F
  6
Continuous
 62
     2
370
     9
100
AcDbText
 10
558.541761815323
 20
-146.2127686779535
 30
0.0
 40
15.24
  1
50
 50
90.00000250447789
 41
1.062500000000001
  7
ＭＳ ゴシック
100
AcDbText
  0
TEXT
  5
2A4
330
1F
100
AcDbEntity
  8
0-F
  6
Continuous
 62
     2
370
     9
100
AcDbText
 10
416.0371409235773
 20
-230.2677190667229
 30
0.0
 40
15.24
  1
60
 41
1.0625
  7
ＭＳ ゴシック
100
AcDbText
  0
TEXT
  5
2A5
330
1F
100
AcDbEntity
  8
0-F
  6
Continuous
 62
     2
370
     9
100
AcDbText
 10
406.386963096825
 20
-280.2677603066932
 30
0.0
 40
15.24
  1
63.2
 41
1.09375
  7
ＭＳ ゴシック
100
AcDbText
  0
TEXT
  5
2A6
330
1F
100
AcDbEntity
  8
0-F
  6
Continuous
 62
     2
370
     9
100
AcDbText
 10
216.3418900700675
 20
173.1622519420319
 30
0.0
 40
15.24
  1
700
 50
90.00000250447673
 41
1.083333333333325
  7
ＭＳ ゴシック
100
AcDbText
  0
TEXT
  5
2A7
330
1F
100
AcDbEntity
  8
0-F
  6
Continuous
 62
     2
370
     9
100
AcDbText
 10
266.3420550299491
 20
173.162190082076
 30
0.0
 40
15.24
  1
690
 50
90.00000250447673
 41
1.083333333333334
  7
ＭＳ ゴシック
100
AcDbText
  0
TEXT
  5
2A8
330
1F
100
AcDbEntity
  8
0-F
  6
Continuous
 62
     2
370
     9
100
AcDbText
 10
316.3419725500084
 20
173.162190082076
 30
0.0
 40
15.24
  1
600
 50
90.00000250447673
 41
1.083333333333334
  7
ＭＳ ゴシック
100
AcDbText
  0
TEXT
  5
2A9
330
1F
100
AcDbEntity
  8
0-F
  6
Continuous
 62
     2
370
     9
100
AcDbText
 10
558.5417625529527
 20
160.912192968874
 30
0.0
 40
15.24
  1
□600
 50
90.00000250447877
 41
1.100000000000007
  7
ＭＳ ゴシック
100
AcDbText
  0
TEXT
  5
2AA
330
1F
100
AcDbEntity
  8
0-F
  6
Continuous
 62
     2
370
     9
100
AcDbText
 10
406.0371079316013
 20
67.28658572635157
 30
0.0
 40
15.24
  1
40
 41
1.0625
  7
ＭＳ ゴシック
100
AcDbText
  0
TEXT
  5
2AB
330
1F
100
AcDbEntity
  8
0-E
  6
Continuous
 62
     7
370
     9
100
AcDbText
 10
125.844884305387
 20
610.351999511719
 30
0.0
 40
11.43
  1
ＳＰＨＣ，樹脂系塗装
 41
1.15
  7
ＭＳ ゴシック
100
AcDbText
  0
TEXT
  5
2AC
330
1F
100
AcDbEntity
  8
0-F
  6
Continuous
 62
     2
370
     9
100
AcDbText
 10
459.0369858612888
 20
67.28658572635157
 30
0.0
 40
15.24
  1
50
 41
1.0625
  7
ＭＳ ゴシック
100
AcDbText
  0
TEXT
  5
2AD
330
1F
100
AcDbEntity
  8
0-F
  6
Continuous
 62
     2
370
     9
100
AcDbText
 10
461.380500793457
 20
107.8602832031253
 30
0.0
 40
15.24
  1
8
 41
0.9999999999999998
  7
ＭＳ ゴシック
100
AcDbText
  0
TEXT
  5
2AE
330
1F
100
AcDbEntity
  8
0-F
  6
Continuous
 62
     2
370
     9
100
AcDbText
 10
313.9188539659658
 20
-387.0654168041332
 30
0.0
 40
15.24
  1
仕様
 41
1.062500000000003
  7
ＭＳ ゴシック
100
AcDbText
  0
TEXT
  5
2AF
330
1F
100
AcDbEntity
  8
0-F
  6
Continuous
 62
     2
370
     9
100
AcDbText
 10
313.9188663379572
 20
-417.0653920601509
 30
0.0
 40
15.24
  1
適用荷重：Ｔ－１４
 41
1.111111111111104
  7
ＭＳ ゴシック
100
AcDbText
  0
TEXT
  5
2B0
330
1F
100
AcDbEntity
  8
0-F
  6
Continuous
 62
     2
370
     9
100
AcDbText
 10
313.9188663379572
 20
-477.065419897131
 30
0.0
 40
15.24
  1
接触圧子：２００×５００ｍｍ
 41
1.116071428571424
  7
ＭＳ ゴシック
100
AcDbText
  0
TEXT
  5
2B1
330
1F
100
AcDbEntity
  8
0-F
  6
Continuous
 62
     2
370
     9
100
AcDbText
 10
316.3419723041322
 20
-143.7128841498707
 30
0.0
 40
15.24
  1
45
 50
90.00000250447789
 41
1.062500000000001
  7
ＭＳ ゴシック
100
AcDbText
  0
TEXT
  5
2B2
330
1F
100
AcDbEntity
  8
0-F
  6
Continuous
 62
     2
370
     9
100
AcDbText
 10
316.3419720965034
 20
485.2463187969727
 30
0.0
 40
15.24
  1
10
 50
90.00000250448173
 41
0.587499999999999
  7
ＭＳ ゴシック
100
AcDbText
  0
TEXT
  5
2B3
330
1F
100
AcDbEntity
  8
0-F
  6
Continuous
 62
     2
370
     9
100
AcDbText
 10
292.5159917061006
 20
488.3721864859511
 30
0.0
 40
15.24
  1
6.5
 50
90.00000250448036
 41
0.5916666666666643
  7
ＭＳ ゴシック
100
AcDbText
  0
TEXT
  5
2B4
330
1F
100
AcDbEntity
  8
0-F
  6
Continuous
 62
     2
370
     9
100
AcDbText
 10
316.3419720965034
 20
504.645477171656
 30
0.0
 40
15.24
  1
11
 50
90.00000250448173
 41
0.587499999999999
  7
ＭＳ ゴシック
100
AcDbText
  0
TEXT
  5
2B5
330
1F
100
AcDbEntity
  8
0-F
  6
Continuous
 62
     2
370
     9
100
AcDbText
 10
291.70092493034
 20
514.1807785863518
 30
0.0
 40
15.24
  1
6.5
 50
90.00000250447806
 41
0.5916666666666691
  7
ＭＳ ゴシック
100
AcDbText
  0
TEXT
  5
2B6
330
1F
100
AcDbEntity
  8
0-F
  6
Continuous
 62
     2
370
     9
100
AcDbText
 10
316.3419720965034
 20
521.912322874781
 30
0.0
 40
15.24
  1
11
 50
90.00000250448173
 41
0.587499999999999
  7
ＭＳ ゴシック
100
AcDbText
  0
TEXT
  5
2B7
330
1F
100
AcDbEntity
  8
0-E
  6
Continuous
 62
     7
370
     9
100
AcDbText
 10
126.7606838329419
 20
633.0401280088686
 30
0.0
 40
11.43
  1
受枠：Ｌ６０Ｇ，ｔ＝３．２
 41
1.153846153846154
  7
ＭＳ ゴシック
100
AcDbText
  0
TEXT
  5
2B8
330
1F
100
AcDbEntity
  8
0-E
  6
Continuous
 62
     7
370
     9
100
AcDbText
 10
619.3339590124183
 20
306.8470144240923
 30
0.0
 40
11.43
  1
樹脂系塗装
 41
1.133333333333333
  7
ＭＳ ゴシック
100
AcDbText
  0
TEXT
  5
2B9
330
1F
100
AcDbEntity
  8
0-F
  6
Continuous
 62
     2
370
     9
100
AcDbText
 10
313.9188292219835
 20
-447.0654291761242
 30
0.0
 40
15.24
  1
破壊荷重：２４２ｋＮ（２４，７００ｋｇｆ）以上
 41
1.119565217391304
  7
ＭＳ ゴシック
100
AcDbText
  0
TEXT
  5
2BA
330
1F
100
AcDbEntity
  8
0-F
  6
Continuous
 62
     2
370
     9
100
AcDbText
 10
-842.1380752145875
 20
473.1612894184004
 30
0.0
 40
15.24
  1
100
 50
90.00070601396284
 41
1.083333333333336
  7
ＭＳ ゴシック
100
AcDbText
  0
TEXT
  5
2BB
330
1F
100
AcDbEntity
  8
0-F
  6
Continuous
 62
     2
370
     9
100
AcDbText
 10
-842.130667501023
 20
-126.8387092370127
 30
0.0
 40
15.24
  1
100
 50
90.00067869320607
 41
1.083333333333337
  7
ＭＳ ゴシック
100
AcDbText
  0
TEXT
  5
2BC
330
1F
100
AcDbEntity
  8
0-F
  6
Continuous
 62
     2
370
     9
100
AcDbText
 10
461.2369733243378
 20
-280.2677603066932
 30
0.0
 40
15.24
  1
24
 41
1.0625
  7
ＭＳ ゴシック
100
AcDbText
  0
LWPOLYLINE
  5
2BD
330
1F
100
AcDbEntity
  8
0-F
  6
Continuous
 62
     7
370
     9
100
AcDbPolyline
 90
        4
 70
     1
 43
0.5
 10
-81.28805603852135
 20
-307.8619302285682
 42
0.4142135623731
 10
-81.53805603852135
 20
-307.6119302285682
 42
0.4142135623731
 10
-81.78805603852135
 20
-307.8619302285682
 42
0.4142135623731
 10
-81.53805603852135
 20
-308.1119302285682
 42
0.4142135623731
  0
LWPOLYLINE
  5
2BE
330
1F
100
AcDbEntity
  8
0-F
  6
Continuous
 62
     7
370
     9
100
AcDbPolyline
 90
        4
 70
     1
 43
0.5
 10
-774.8880456460488
 20
-307.8619302285682
 42
0.4142135623731
 10
-775.1380456460488
 20
-307.6119302285682
 42
0.4142135623731
 10
-775.3880456460489
 20
-307.8619302285682
 42
0.4142135623731
 10
-775.1380456460488
 20
-308.1119302285682
 42
0.4142135623731
  0
LWPOLYLINE
  5
2BF
330
1F
100
AcDbEntity
  8
0-F
  6
Continuous
 62
     7
370
     9
100
AcDbPolyline
 90
        4
 70
     1
 43
0.5
 10
271.9119388477224
 20
536.2122159390839
 42
0.4142135623731
 10
271.6619388477224
 20
536.4622159390839
 42
0.4142135623731
 10
271.4119388477224
 20
536.2122159390839
 42
0.4142135623731
 10
271.6619388477224
 20
535.9622159390839
 42
0.4142135623731
  0
LWPOLYLINE
  5
2C0
330
1F
100
AcDbEntity
  8
0-F
  6
Continuous
 62
     7
370
     9
100
AcDbPolyline
 90
        4
 70
     1
 43
0.5
 10
271.9119388477224
 20
-157.3877736684437
 42
0.4142135623731
 10
271.6619388477224
 20
-157.1377736684437
 42
0.4142135623731
 10
271.4119388477224
 20
-157.3877736684437
 42
0.4142135623731
 10
271.6619388477224
 20
-157.6377736684437
 42
0.4142135623731
  0
LWPOLYLINE
  5
2C1
330
1F
100
AcDbEntity
  8
0-F
  6
Continuous
 62
     7
370
     9
100
AcDbPolyline
 90
        4
 70
     1
 43
0.5
 10
321.9121038076039
 20
499.4122231973187
 42
0.4142135623731
 10
321.6621038076039
 20
499.6622231973186
 42
0.4142135623731
 10
321.4121038076039
 20
499.4122231973187
 42
0.4142135623731
 10
321.6621038076039
 20
499.1622231973187
 42
0.4142135623731
  0
LWPOLYLINE
  5
2C2
330
1F
100
AcDbEntity
  8
0-F
  6
Continuous
 62
     7
370
     9
100
AcDbPolyline
 90
        4
 70
     1
 43
0.5
 10
321.9121038076039
 20
505.912219898121
 42
0.4142135623731
 10
321.6621038076039
 20
506.162219898121
 42
0.4142135623731
 10
321.4121038076039
 20
505.912219898121
 42
0.4142135623731
 10
321.6621038076039
 20
505.662219898121
 42
0.4142135623731
  0
LWPOLYLINE
  5
2C3
330
1F
100
AcDbEntity
  8
0-F
  6
Continuous
 62
     7
370
     9
100
AcDbPolyline
 90
        4
 70
     1
 43
0.5
 10
321.9121038076039
 20
516.9122809332772
 42
0.4142135623731
 10
321.6621038076039
 20
517.1622809332772
 42
0.4142135623731
 10
321.4121038076039
 20
516.9122809332772
 42
0.4142135623731
 10
321.6621038076039
 20
516.6622809332772
 42
0.4142135623731
  0
LWPOLYLINE
  5
2C4
330
1F
100
AcDbEntity
  8
0-F
  6
Continuous
 62
     7
370
     9
100
AcDbPolyline
 90
        4
 70
     1
 43
0.5
 10
321.9121038076039
 20
523.4121539141684
 42
0.4142135623731
 10
321.6621038076039
 20
523.6621539141684
 42
0.4142135623731
 10
321.4121038076039
 20
523.4121539141684
 42
0.4142135623731
 10
321.6621038076039
 20
523.1621539141684
 42
0.4142135623731
  0
LWPOLYLINE
  5
2C5
330
1F
100
AcDbEntity
  8
0-F
  6
Continuous
 62
     7
370
     9
100
AcDbPolyline
 90
        4
 70
     1
 43
0.5
 10
321.9121038076039
 20
534.4123386692359
 42
0.4142135623731
 10
321.6621038076039
 20
534.6623386692359
 42
0.4142135623731
 10
321.4121038076039
 20
534.4123386692359
 42
0.4142135623731
 10
321.6621038076039
 20
534.1623386692359
 42
0.4142135623731
  0
TEXT
  5
2C6
330
1F
100
AcDbEntity
  8
0-F
  6
Continuous
 62
     2
370
     9
100
AcDbText
 10
313.9191261497705
 20
-507.0654570131043
 30
0.0
 40
15.24
  1
蓋 質 量：５４．０ｋｇ
 41
1.113636363636364
  7
ＭＳ ゴシック
100
AcDbText
  0
TEXT
  5
2C7
330
1F
100
AcDbEntity
  8
F-5ﾚｲﾔ
  6
Continuous
 62
     3
370
     9
100
AcDbText
 10
-270.5568381453166
 20
-687.2569957715933
 30
0.0
 40
15.24
  1
カラー舗装用みぞ蓋　ＧＨＷ－１４－６００＋Ｌ６０Ｇ
 41
0.9469999999999998
  7
ＭＳ ゴシック
100
AcDbText
  0
ENDSEC
  0
SECTION
  2
OBJECTS
  0
DICTIONARY
  5
C
330
0
100
AcDbDictionary
281
     1
  3
ACAD_GROUP
350
D
  3
ACAD_LAYOUT
350
1A
  3
ACAD_MLEADERSTYLE
350
2C9
  3
ACAD_MLINESTYLE
350
17
  3
ACAD_PLOTSETTINGS
350
19
  3
ACAD_PLOTSTYLENAME
350
E
  3
ACAD_TABLESTYLE
350
2C8
  3
ACAD_VISUALSTYLE
350
2A
  0
DICTIONARY
  5
D
102
{ACAD_REACTORS
330
C
102
}
330
C
100
AcDbDictionary
281
     1
  0
DICTIONARY
  5
1A
102
{ACAD_REACTORS
330
C
102
}
330
C
100
AcDbDictionary
281
     1
  3
Layout1
350
1E
  3
Layout2
350
26
  3
Model
350
22
  0
DICTIONARY
  5
2C9
102
{ACAD_REACTORS
330
C
102
}
330
C
100
AcDbDictionary
281
     1
  0
DICTIONARY
  5
17
102
{ACAD_REACTORS
330
C
102
}
330
C
100
AcDbDictionary
281
     1
  3
Standard
350
18
  0
DICTIONARY
  5
19
102
{ACAD_REACTORS
330
C
102
}
330
C
100
AcDbDictionary
281
     1
  0
ACDBDICTIONARYWDFLT
  5
E
102
{ACAD_REACTORS
330
C
102
}
330
C
100
AcDbDictionary
281
     1
  3
Normal
350
F
100
AcDbDictionaryWithDefault
340
F
  0
DICTIONARY
  5
2C8
102
{ACAD_REACTORS
330
C
102
}
330
C
100
AcDbDictionary
281
     1
  0
DICTIONARY
  5
2A
102
{ACAD_REACTORS
330
C
102
}
330
C
100
AcDbDictionary
281
     1
  3
2dWireframe
350
2F
  3
3D Hidden
350
31
  3
3dWireframe
350
30
  3
Basic
350
32
  3
Brighten
350
36
  3
ColorChange
350
3A
  3
Conceptual
350
34
  3
Dim
350
35
  3
Facepattern
350
39
  3
Flat
350
2B
  3
FlatWithEdges
350
2C
  3
Gouraud
350
2D
  3
GouraudWithEdges
350
2E
  3
Linepattern
350
38
  3
Realistic
350
33
  3
Thicken
350
37
  0
LAYOUT
  5
1E
102
{ACAD_REACTORS
330
1A
102
}
330
1A
100
AcDbPlotSettings
  1

  2
none_device
  4

  6

 40
0.0
 41
0.0
 42
0.0
 43
0.0
 44
0.0
 45
0.0
 46
0.0
 47
0.0
 48
0.0
 49
0.0
140
0.0
141
0.0
142
1.0
143
1.0
 70
   688
 72
     0
 73
     0
 74
     5
  7

 75
    16
 76
     0
 77
     5
 78
   300
147
1.0
148
0.0
149
0.0
100
AcDbLayout
  1
Layout1
 70
     1
 71
     1
 10
0.0
 20
0.0
 11
420.0
 21
297.0
 12
0.0
 22
0.0
 32
0.0
 14
1.000000000000000E+20
 24
1.000000000000000E+20
 34
1.000000000000000E+20
 15
-1.000000000000000E+20
 25
-1.000000000000000E+20
 35
-1.000000000000000E+20
146
0.0
 13
0.0
 23
0.0
 33
0.0
 16
1.0
 26
0.0
 36
0.0
 17
0.0
 27
1.0
 37
0.0
 76
     0
330
1B
  0
LAYOUT
  5
26
102
{ACAD_REACTORS
330
1A
102
}
330
1A
100
AcDbPlotSettings
  1

  2
none_device
  4

  6

 40
0.0
 41
0.0
 42
0.0
 43
0.0
 44
0.0
 45
0.0
 46
0.0
 47
0.0
 48
0.0
 49
0.0
140
0.0
141
0.0
142
1.0
143
1.0
 70
   688
 72
     0
 73
     0
 74
     5
  7

 75
    16
 76
     0
 77
     5
 78
   300
147
1.0
148
0.0
149
0.0
100
AcDbLayout
  1
Layout2
 70
     1
 71
     2
 10
0.0
 20
0.0
 11
0.0
 21
0.0
 12
0.0
 22
0.0
 32
0.0
 14
0.0
 24
0.0
 34
0.0
 15
0.0
 25
0.0
 35
0.0
146
0.0
 13
0.0
 23
0.0
 33
0.0
 16
1.0
 26
0.0
 36
0.0
 17
0.0
 27
1.0
 37
0.0
 76
     0
330
23
  0
LAYOUT
  5
22
102
{ACAD_REACTORS
330
1A
102
}
330
1A
100
AcDbPlotSettings
  1

  2
none_device
  4

  6

 40
0.0
 41
0.0
 42
0.0
 43
0.0
 44
0.0
 45
0.0
 46
0.0
 47
0.0
 48
0.0
 49
0.0
140
0.0
141
0.0
142
1.0
143
1.0
 70
  1712
 72
     0
 73
     0
 74
     0
  7

 75
     0
 76
     0
 77
     5
 78
   300
147
1.0
148
0.0
149
0.0
100
AcDbLayout
  1
Model
 70
     1
 71
     0
 10
-1050.0
 20
-742.5
 11
1050.0
 21
742.5
 12
0.0
 22
0.0
 32
0.0
 14
-1050.0
 24
-742.5
 34
0.0
 15
1050.0
 25
742.5
 35
0.0
146
0.0
 13
0.0
 23
0.0
 33
0.0
 16
1.0
 26
0.0
 36
0.0
 17
0.0
 27
1.0
 37
0.0
 76
     0
330
1F
331
29
  0
MLINESTYLE
  5
18
102
{ACAD_REACTORS
330
17
102
}
330
17
100
AcDbMlineStyle
  2
Standard
 70
     0
  3

 62
   256
 51
90.0
 52
90.0
 71
     2
 49
0.5
 62
   256
  6
BYLAYER
 49
-0.5
 62
   256
  6
BYLAYER
  0
ACDBPLACEHOLDER
  5
F
102
{ACAD_REACTORS
330
E
102
}
330
E
  0
VISUALSTYLE
  5
2F
102
{ACAD_REACTORS
330
2A
102
}
330
2A
100
AcDbVisualStyle
  2
2dWireframe
 70
     4
 71
     0
 72
     2
 73
     0
 90
        0
 40
-0.6
 41
-30.0
 62
     5
 63
     7
421
 16777215
 74
     1
 91
        4
 64
     7
 65
   257
 75
     1
175
     1
 42
1.0
 92
        0
 66
   257
 43
1.0
 76
     1
 77
     6
 78
     2
 67
     7
 79
     5
170
     0
171
     0
290
     0
174
     0
 93
        1
 44
0.0
173
     0
291
     0
 45
0.0
1001
ACAD
1000
AcDbSavedByObjectVersion
1070
     0
  0
VISUALSTYLE
  5
31
102
{ACAD_REACTORS
330
2A
102
}
330
2A
100
AcDbVisualStyle
  2
3D Hidden
 70
     6
 71
     1
 72
     2
 73
     2
 90
        0
 40
-0.6
 41
-30.0
 62
     5
 63
     7
421
 16777215
 74
     2
 91
        2
 64
     7
 65
   257
 75
     2
175
     1
 42
40.0
 92
        0
 66
   257
 43
1.0
 76
     1
 77
     6
 78
     2
 67
     7
 79
     3
170
     0
171
     0
290
     0
174
     0
 93
        1
 44
0.0
173
     0
291
     0
 45
0.0
1001
ACAD
1000
AcDbSavedByObjectVersion
1070
     0
  0
VISUALSTYLE
  5
30
102
{ACAD_REACTORS
330
2A
102
}
330
2A
100
AcDbVisualStyle
  2
3dWireframe
 70
     5
 71
     0
 72
     2
 73
     0
 90
        0
 40
-0.6
 41
-30.0
 62
     5
 63
     7
421
 16777215
 74
     1
 91
        4
 64
     7
 65
   257
 75
     1
175
     1
 42
1.0
 92
        0
 66
   257
 43
1.0
 76
     1
 77
     6
 78
     2
 67
     7
 79
     5
170
     0
171
     0
290
     0
174
     0
 93
        1
 44
0.0
173
     0
291
     0
 45
0.0
1001
ACAD
1000
AcDbSavedByObjectVersion
1070
     0
  0
VISUALSTYLE
  5
32
102
{ACAD_REACTORS
330
2A
102
}
330
2A
100
AcDbVisualStyle
  2
Basic
 70
     7
 71
     1
 72
     0
 73
     1
 90
        0
 40
-0.6
 41
-30.0
 62
     5
 63
     7
421
 16777215
 74
     0
 91
        4
 64
     7
 65
   257
 75
     1
175
     1
 42
1.0
 92
        8
 66
     7
 43
1.0
 76
     1
 77
     6
 78
     2
 67
     7
 79
     5
170
     0
171
     0
290
     0
174
     0
 93
        1
 44
0.0
173
     0
291
     1
 45
0.0
1001
ACAD
1000
AcDbSavedByObjectVersion
1070
     0
  0
VISUALSTYLE
  5
36
102
{ACAD_REACTORS
330
2A
102
}
330
2A
100
AcDbVisualStyle
  2
Brighten
 70
    12
 71
     2
 72
     2
 73
     0
 90
        0
 40
-0.6
 41
-30.0
 62
     5
 63
     7
421
 16777215
 74
     1
 91
        4
 64
     7
 65
   257
 75
     1
175
     1
 42
1.0
 92
        8
 66
     7
 43
1.0
 76
     1
 77
     6
 78
     2
 67
     7
 79
     5
170
     0
171
     0
290
     0
174
     0
 93
        1
 44
50.0
173
     0
291
     1
 45
0.0
1001
ACAD
1000
AcDbSavedByObjectVersion
1070
     0
  0
VISUALSTYLE
  5
3A
102
{ACAD_REACTORS
330
2A
102
}
330
2A
100
AcDbVisualStyle
  2
ColorChange
 70
    16
 71
     2
 72
     2
 73
     3
 90
        0
 40
-0.6
 41
-30.0
 62
     5
 63
     8
421
  8421504
 74
     1
 91
        4
 64
     7
 65
   257
 75
     1
175
     1
 42
1.0
 92
        8
 66
     8
424
  8421504
 43
1.0
 76
     1
 77
     6
 78
     2
 67
     7
 79
     5
170
     0
171
     0
290
     0
174
     0
 93
        1
 44
0.0
173
     0
291
     1
 45
0.0
1001
ACAD
1000
AcDbSavedByObjectVersion
1070
     0
  0
VISUALSTYLE
  5
34
102
{ACAD_REACTORS
330
2A
102
}
330
2A
100
AcDbVisualStyle
  2
Conceptual
 70
     9
 71
     3
 72
     2
 73
     0
 90
        0
 40
-0.6
 41
-30.0
 62
     5
 63
     7
421
 16777215
 74
     2
 91
        2
 64
     7
 65
   257
 75
     1
175
     1
 42
40.0
 92
        8
 66
     7
 43
1.0
 76
     1
 77
     6
 78
     2
 67
     7
 79
     3
170
     0
171
     0
290
     0
174
     0
 93
        1
 44
0.0
173
     0
291
     0
 45
0.0
1001
ACAD
1000
AcDbSavedByObjectVersion
1070
     0
  0
VISUALSTYLE
  5
35
102
{ACAD_REACTORS
330
2A
102
}
330
2A
100
AcDbVisualStyle
  2
Dim
 70
    11
 71
     2
 72
     2
 73
     0
 90
        0
 40
-0.6
 41
-30.0
 62
     5
 63
     7
421
 16777215
 74
     1
 91
        4
 64
     7
 65
   257
 75
     1
175
     1
 42
1.0
 92
        8
 66
     7
 43
1.0
 76
     1
 77
     6
 78
     2
 67
     7
 79
     5
170
     0
171
     0
290
     0
174
     0
 93
        1
 44
-50.0
173
     0
291
     1
 45
0.0
1001
ACAD
1000
AcDbSavedByObjectVersion
1070
     0
  0
VISUALSTYLE
  5
39
102
{ACAD_REACTORS
330
2A
102
}
330
2A
100
AcDbVisualStyle
  2
Facepattern
 70
    15
 71
     2
 72
     2
 73
     0
 90
        0
 40
-0.6
 41
-30.0
 62
     5
 63
     7
421
 16777215
 74
     1
 91
        4
 64
     7
 65
   257
 75
     1
175
     1
 42
1.0
 92
        8
 66
     7
 43
1.0
 76
     1
 77
     6
 78
     2
 67
     7
 79
     5
170
     0
171
     0
290
     0
174
     0
 93
        1
 44
0.0
173
     0
291
     1
 45
0.0
1001
ACAD
1000
AcDbSavedByObjectVersion
1070
     0
  0
VISUALSTYLE
  5
2B
102
{ACAD_REACTORS
330
2A
102
}
330
2A
100
AcDbVisualStyle
  2
Flat
 70
     0
 71
     2
 72
     1
 73
     1
 90
        2
 40
-0.6
 41
30.0
 62
     5
 63
     7
421
 16777215
 74
     0
 91
        4
 64
     7
 65
   257
 75
     1
175
     1
 42
1.0
 92
        8
 66
     7
 43
1.0
 76
     1
 77
     6
 78
     2
 67
     7
 79
     5
170
     0
171
     0
290
     0
174
     0
 93
       13
 44
0.0
173
     0
291
     1
 45
0.0
1001
ACAD
1000
AcDbSavedByObjectVersion
1070
     0
  0
VISUALSTYLE
  5
2C
102
{ACAD_REACTORS
330
2A
102
}
330
2A
100
AcDbVisualStyle
  2
FlatWithEdges
 70
     1
 71
     2
 72
     1
 73
     1
 90
        2
 40
-0.6
 41
30.0
 62
     5
 63
     7
421
 16777215
 74
     1
 91
        4
 64
     7
 65
   257
 75
     1
175
     1
 42
1.0
 92
        0
 66
   257
 43
1.0
 76
     1
 77
     6
 78
     2
 67
     7
 79
     5
170
     0
171
     0
290
     0
174
     0
 93
       13
 44
0.0
173
     0
291
     1
 45
0.0
1001
ACAD
1000
AcDbSavedByObjectVersion
1070
     0
  0
VISUALSTYLE
  5
2D
102
{ACAD_REACTORS
330
2A
102
}
330
2A
100
AcDbVisualStyle
  2
Gouraud
 70
     2
 71
     2
 72
     2
 73
     1
 90
        2
 40
-0.6
 41
30.0
 62
     5
 63
     7
421
 16777215
 74
     0
 91
        4
 64
     7
 65
   257
 75
     1
175
     1
 42
1.0
 92
        0
 66
     7
 43
1.0
 76
     1
 77
     6
 78
     2
 67
     7
 79
     5
170
     0
171
     0
290
     0
174
     0
 93
       13
 44
0.0
173
     0
291
     1
 45
0.0
1001
ACAD
1000
AcDbSavedByObjectVersion
1070
     0
  0
VISUALSTYLE
  5
2E
102
{ACAD_REACTORS
330
2A
102
}
330
2A
100
AcDbVisualStyle
  2
GouraudWithEdges
 70
     3
 71
     2
 72
     2
 73
     1
 90
        2
 40
-0.6
 41
30.0
 62
     5
 63
     7
421
 16777215
 74
     1
 91
        4
 64
     7
 65
   257
 75
     1
175
     1
 42
1.0
 92
        0
 66
   257
 43
1.0
 76
     1
 77
     6
 78
     2
 67
     7
 79
     5
170
     0
171
     0
290
     0
174
     0
 93
       13
 44
0.0
173
     0
291
     1
 45
0.0
1001
ACAD
1000
AcDbSavedByObjectVersion
1070
     0
  0
VISUALSTYLE
  5
38
102
{ACAD_REACTORS
330
2A
102
}
330
2A
100
AcDbVisualStyle
  2
Linepattern
 70
    14
 71
     2
 72
     2
 73
     0
 90
        0
 40
-0.6
 41
-30.0
 62
     5
 63
     7
421
 16777215
 74
     1
 91
        4
 64
     7
 65
   257
 75
     7
175
     7
 42
1.0
 92
        8
 66
     7
 43
1.0
 76
     1
 77
     6
 78
     2
 67
     7
 79
     5
170
     0
171
     0
290
     0
174
     0
 93
        1
 44
0.0
173
     0
291
     1
 45
0.0
1001
ACAD
1000
AcDbSavedByObjectVersion
1070
     0
  0
VISUALSTYLE
  5
33
102
{ACAD_REACTORS
330
2A
102
}
330
2A
100
AcDbVisualStyle
  2
Realistic
 70
     8
 71
     2
 72
     2
 73
     0
 90
        0
 40
-0.6
 41
-30.0
 62
     5
 63
     7
421
 16777215
 74
     1
 91
        0
 64
     7
 65
   257
 75
     1
175
     1
 42
1.0
 92
        8
 66
     8
424
  7895160
 43
1.0
 76
     1
 77
     6
 78
     2
 67
     7
 79
     5
170
     0
171
     0
290
     0
174
     0
 93
       13
 44
0.0
173
     0
291
     0
 45
0.0
1001
ACAD
1000
AcDbSavedByObjectVersion
1070
     0
  0
VISUALSTYLE
  5
37
102
{ACAD_REACTORS
330
2A
102
}
330
2A
100
AcDbVisualStyle
  2
Thicken
 70
    13
 71
     2
 72
     2
 73
     0
 90
        0
 40
-0.6
 41
-30.0
 62
     5
 63
     7
421
 16777215
 74
     1
 91
        4
 64
     7
 65
   257
 75
     1
175
     1
 42
1.0
 92
       12
 66
     7
 43
1.0
 76
     1
 77
     6
 78
     2
 67
     7
 79
     5
170
     0
171
     0
290
     0
174
     0
 93
        1
 44
0.0
173
     0
291
     1
 45
0.0
1001
ACAD
1000
AcDbSavedByObjectVersion
1070
     0
  0
ENDSEC
  0
EOF
