  0
SECTION
  2
HEADER
  9
$ACADVER
  1
AC1018
  9
$ACADMAINTVER
 70
     0
  9
$DWGCODEPAGE
  3
ANSI_932
  9
$INSBASE
 10
0.0
 20
0.0
 30
0.0
  9
$EXTMIN
 10
-840.0
 20
-594.0
 30
0.0
  9
$EXTMAX
 10
840.0
 20
594.0
 30
0.0
  9
$LIMMIN
 10
-840.0
 20
-594.0
  9
$LIMMAX
 10
840.0
 20
594.0
  9
$ORTHOMODE
 70
     0
  9
$REGENMODE
 70
     1
  9
$FILLMODE
 70
     1
  9
$QTEXTMODE
 70
     0
  9
$MIRRTEXT
 70
     1
  9
$LTSCALE
 40
4.0
  9
$ATTMODE
 70
     1
  9
$TEXTSIZE
 40
2.5
  9
$TRACEWID
 40
1.0
  9
$TEXTSTYLE
  7
Standard
  9
$CLAYER
  8
0
  9
$CELTYPE
  6
ByLayer
  9
$CECOLOR
 62
   256
  9
$CELTSCALE
 40
1.0
  9
$DISPSILH
 70
     0
  9
$DIMSCALE
 40
1.0
  9
$DIMASZ
 40
2.5
  9
$DIMEXO
 40
0.625
  9
$DIMDLI
 40
3.75
  9
$DIMRND
 40
0.0
  9
$DIMDLE
 40
0.0
  9
$DIMEXE
 40
1.25
  9
$DIMTP
 40
0.0
  9
$DIMTM
 40
0.0
  9
$DIMTXT
 40
2.5
  9
$DIMCEN
 40
2.5
  9
$DIMTSZ
 40
0.0
  9
$DIMTOL
 70
     0
  9
$DIMLIM
 70
     0
  9
$DIMTIH
 70
     0
  9
$DIMTOH
 70
     0
  9
$DIMSE1
 70
     0
  9
$DIMSE2
 70
     0
  9
$DIMTAD
 70
     1
  9
$DIMZIN
 70
     8
  9
$DIMBLK
  1

  9
$DIMASO
 70
     1
  9
$DIMSHO
 70
     1
  9
$DIMPOST
  1

  9
$DIMAPOST
  1

  9
$DIMALT
 70
     0
  9
$DIMALTD
 70
     3
  9
$DIMALTF
 40
0.03937007874016
  9
$DIMLFAC
 40
1.0
  9
$DIMTOFL
 70
     1
  9
$DIMTVP
 40
0.0
  9
$DIMTIX
 70
     0
  9
$DIMSOXD
 70
     0
  9
$DIMSAH
 70
     0
  9
$DIMBLK1
  1

  9
$DIMBLK2
  1

  9
$DIMSTYLE
  2
ISO-25
  9
$DIMCLRD
 70
     0
  9
$DIMCLRE
 70
     0
  9
$DIMCLRT
 70
     0
  9
$DIMTFAC
 40
1.0
  9
$DIMGAP
 40
0.625
  9
$DIMJUST
 70
     0
  9
$DIMSD1
 70
     0
  9
$DIMSD2
 70
     0
  9
$DIMTOLJ
 70
     0
  9
$DIMTZIN
 70
     8
  9
$DIMALTZ
 70
     0
  9
$DIMALTTZ
 70
     0
  9
$DIMUPT
 70
     0
  9
$DIMDEC
 70
     2
  9
$DIMTDEC
 70
     2
  9
$DIMALTU
 70
     2
  9
$DIMALTTD
 70
     3
  9
$DIMTXSTY
  7
Standard
  9
$DIMAUNIT
 70
     0
  9
$DIMADEC
 70
     0
  9
$DIMALTRND
 40
0.0
  9
$DIMAZIN
 70
     0
  9
$DIMDSEP
 70
    44
  9
$DIMATFIT
 70
     3
  9
$DIMFRAC
 70
     0
  9
$DIMLDRBLK
  1

  9
$DIMLUNIT
 70
     2
  9
$DIMLWD
 70
    -2
  9
$DIMLWE
 70
    -2
  9
$DIMTMOVE
 70
     0
  9
$LUNITS
 70
     2
  9
$LUPREC
 70
     4
  9
$SKETCHINC
 40
1.0
  9
$FILLETRAD
 40
10.0
  9
$AUNITS
 70
     0
  9
$AUPREC
 70
     0
  9
$MENU
  1
.
  9
$ELEVATION
 40
0.0
  9
$PELEVATION
 40
0.0
  9
$THICKNESS
 40
0.0
  9
$LIMCHECK
 70
     0
  9
$CHAMFERA
 40
10.0
  9
$CHAMFERB
 40
10.0
  9
$CHAMFERC
 40
20.0
  9
$CHAMFERD
 40
0.0
  9
$SKPOLY
 70
     0
  9
$TDCREATE
 40
2457532.606015104
  9
$TDUCREATE
 40
2457532.231015104
  9
$TDUPDATE
 40
2457532.606015116
  9
$TDUUPDATE
 40
2457532.231015116
  9
$TDINDWG
 40
0.0000000116
  9
$TDUSRTIMER
 40
0.0000000116
  9
$USRTIMER
 70
     1
  9
$ANGBASE
 50
0.0
  9
$ANGDIR
 70
     0
  9
$PDMODE
 70
     0
  9
$PDSIZE
 40
0.0
  9
$PLINEWID
 40
0.0
  9
$SPLFRAME
 70
     0
  9
$SPLINETYPE
 70
     6
  9
$SPLINESEGS
 70
     8
  9
$HANDSEED
  5
26D
  9
$SURFTAB1
 70
     6
  9
$SURFTAB2
 70
     6
  9
$SURFTYPE
 70
     6
  9
$SURFU
 70
     6
  9
$SURFV
 70
     6
  9
$UCSBASE
  2

  9
$UCSNAME
  2

  9
$UCSORG
 10
0.0
 20
0.0
 30
0.0
  9
$UCSXDIR
 10
1.0
 20
0.0
 30
0.0
  9
$UCSYDIR
 10
0.0
 20
1.0
 30
0.0
  9
$UCSORTHOREF
  2

  9
$UCSORTHOVIEW
 70
     0
  9
$UCSORGTOP
 10
0.0
 20
0.0
 30
0.0
  9
$UCSORGBOTTOM
 10
0.0
 20
0.0
 30
0.0
  9
$UCSORGLEFT
 10
0.0
 20
0.0
 30
0.0
  9
$UCSORGRIGHT
 10
0.0
 20
0.0
 30
0.0
  9
$UCSORGFRONT
 10
0.0
 20
0.0
 30
0.0
  9
$UCSORGBACK
 10
0.0
 20
0.0
 30
0.0
  9
$PUCSBASE
  2

  9
$PUCSNAME
  2

  9
$PUCSORG
 10
0.0
 20
0.0
 30
0.0
  9
$PUCSXDIR
 10
1.0
 20
0.0
 30
0.0
  9
$PUCSYDIR
 10
0.0
 20
1.0
 30
0.0
  9
$PUCSORTHOREF
  2

  9
$PUCSORTHOVIEW
 70
     0
  9
$PUCSORGTOP
 10
0.0
 20
0.0
 30
0.0
  9
$PUCSORGBOTTOM
 10
0.0
 20
0.0
 30
0.0
  9
$PUCSORGLEFT
 10
0.0
 20
0.0
 30
0.0
  9
$PUCSORGRIGHT
 10
0.0
 20
0.0
 30
0.0
  9
$PUCSORGFRONT
 10
0.0
 20
0.0
 30
0.0
  9
$PUCSORGBACK
 10
0.0
 20
0.0
 30
0.0
  9
$USERI1
 70
     0
  9
$USERI2
 70
     0
  9
$USERI3
 70
     0
  9
$USERI4
 70
     0
  9
$USERI5
 70
     0
  9
$USERR1
 40
0.0
  9
$USERR2
 40
0.0
  9
$USERR3
 40
0.0
  9
$USERR4
 40
0.0
  9
$USERR5
 40
0.0
  9
$WORLDVIEW
 70
     1
  9
$SHADEDGE
 70
     3
  9
$SHADEDIF
 70
    70
  9
$TILEMODE
 70
     1
  9
$MAXACTVP
 70
    64
  9
$PINSBASE
 10
0.0
 20
0.0
 30
0.0
  9
$PLIMCHECK
 70
     0
  9
$PEXTMIN
 10
1.000000000000000E+20
 20
1.000000000000000E+20
 30
1.000000000000000E+20
  9
$PEXTMAX
 10
-1.000000000000000E+20
 20
-1.000000000000000E+20
 30
-1.000000000000000E+20
  9
$PLIMMIN
 10
0.0
 20
0.0
  9
$PLIMMAX
 10
420.0
 20
297.0
  9
$UNITMODE
 70
     0
  9
$VISRETAIN
 70
     1
  9
$PLINEGEN
 70
     0
  9
$PSLTSCALE
 70
     1
  9
$TREEDEPTH
 70
  3020
  9
$CMLSTYLE
  2
Standard
  9
$CMLJUST
 70
     0
  9
$CMLSCALE
 40
20.0
  9
$PROXYGRAPHICS
 70
     1
  9
$MEASUREMENT
 70
     1
  9
$CELWEIGHT
370
    -1
  9
$ENDCAPS
280
     0
  9
$JOINSTYLE
280
     0
  9
$LWDISPLAY
290
     0
  9
$INSUNITS
 70
     4
  9
$HYPERLINKBASE
  1

  9
$STYLESHEET
  1

  9
$XEDIT
290
     1
  9
$CEPSNTYPE
380
     0
  9
$PSTYLEMODE
290
     1
  9
$FINGERPRINTGUID
  2
{930BD8CE-2CA4-4EFC-9CE2-A2E6D15DCE7A}
  9
$VERSIONGUID
  2
{FAEB1C32-E019-11D5-929B-00C0DF256EC4}
  9
$EXTNAMES
290
     1
  9
$PSVPSCALE
 40
0.0
  9
$OLESTARTUP
290
     0
  9
$SORTENTS
280
   127
  9
$INDEXCTL
280
     0
  9
$HIDETEXT
280
     1
  9
$XCLIPFRAME
290
     0
  9
$HALOGAP
280
     0
  9
$OBSCOLOR
 70
   257
  9
$OBSLTYPE
280
     0
  9
$INTERSECTIONDISPLAY
280
     0
  9
$INTERSECTIONCOLOR
 70
   257
  9
$DIMASSOC
280
     2
  9
$PROJECTNAME
  1

  0
ENDSEC
  0
SECTION
  2
CLASSES
  0
CLASS
  1
ACDBDICTIONARYWDFLT
  2
AcDbDictionaryWithDefault
  3
ObjectDBX Classes
 90
        0
 91
        4
280
     0
281
     0
  0
CLASS
  1
VISUALSTYLE
  2
AcDbVisualStyle
  3
ObjectDBX Classes
 90
     4095
 91
        4
280
     0
281
     0
  0
ENDSEC
  0
SECTION
  2
TABLES
  0
TABLE
  2
VPORT
  5
8
330
0
100
AcDbSymbolTable
 70
     1
  0
VPORT
  5
29
330
8
100
AcDbSymbolTableRecord
100
AcDbViewportTableRecord
  2
*Active
 70
     0
 10
0.0
 20
0.0
 11
1.0
 21
1.0
 12
0.0
 22
0.0
 13
0.0
 23
0.0
 14
10.0
 24
10.0
 15
10.0
 25
10.0
 16
0.0
 26
0.0
 36
1.0
 17
0.0
 27
0.0
 37
0.0
 40
1306.8
 41
1.414141414141414
 42
50.0
 43
0.0
 44
0.0
 50
0.0
 51
0.0
 71
     0
 72
 10000
 73
     1
 74
     3
 75
     0
 76
     0
 77
     0
 78
     0
281
     0
 65
     1
110
0.0
120
0.0
130
0.0
111
1.0
121
0.0
131
0.0
112
0.0
122
1.0
132
0.0
 79
     0
146
0.0
  0
ENDTAB
  0
TABLE
  2
LTYPE
  5
5
330
0
100
AcDbSymbolTable
 70
     3
  0
LTYPE
  5
14
330
5
100
AcDbSymbolTableRecord
100
AcDbLinetypeTableRecord
  2
ByBlock
 70
     0
  3

 72
    65
 73
     0
 40
0.0
  0
LTYPE
  5
15
330
5
100
AcDbSymbolTableRecord
100
AcDbLinetypeTableRecord
  2
ByLayer
 70
     0
  3

 72
    65
 73
     0
 40
0.0
  0
LTYPE
  5
16
330
5
100
AcDbSymbolTableRecord
100
AcDbLinetypeTableRecord
  2
Continuous
 70
     0
  3
Solid line
 72
    65
 73
     0
 40
0.0
  0
LTYPE
  5
3C
330
5
100
AcDbSymbolTableRecord
100
AcDbLinetypeTableRecord
  2
JWW_CENTER1
 70
     0
  3
-----  --  ----------  --  -----
 72
    65
 73
     4
 40
6.773333333333333
 49
4.233333333333333
 74
     0
 49
-0.8466666666666667
 74
     0
 49
0.8466666666666667
 74
     0
 49
-0.8466666666666667
 74
     0
  0
LTYPE
  5
3D
330
5
100
AcDbSymbolTableRecord
100
AcDbLinetypeTableRecord
  2
JWW_DASHED3
 70
     0
  3
---  ------  ------  ------  ---
 72
    65
 73
     2
 40
3.386666666666667
 49
2.54
 74
     0
 49
-0.8466666666666667
 74
     0
  0
ENDTAB
  0
TABLE
  2
LAYER
  5
2
330
0
100
AcDbSymbolTable
 70
     6
  0
LAYER
  5
10
330
2
100
AcDbSymbolTableRecord
100
AcDbLayerTableRecord
  2
0
 70
     0
 62
     7
  6
Continuous
370
    -3
390
F
  0
LAYER
  5
3E
330
2
100
AcDbSymbolTableRecord
100
AcDbLayerTableRecord
  2
F-5ﾚｲﾔ
 70
     0
 62
     7
  6
Continuous
370
    -3
390
F
  0
LAYER
  5
3F
330
2
100
AcDbSymbolTableRecord
100
AcDbLayerTableRecord
  2
0-E
 70
     0
 62
     7
  6
Continuous
370
    -3
390
F
  0
LAYER
  5
40
330
2
100
AcDbSymbolTableRecord
100
AcDbLayerTableRecord
  2
0-F
 70
     0
 62
     7
  6
Continuous
370
    -3
390
F
  0
LAYER
  5
41
330
2
100
AcDbSymbolTableRecord
100
AcDbLayerTableRecord
  2
躯体
 70
     0
 62
     7
  6
Continuous
370
    -3
390
F
  0
LAYER
  5
42
330
2
100
AcDbSymbolTableRecord
100
AcDbLayerTableRecord
  2
通り芯
 70
     0
 62
     7
  6
Continuous
370
    -3
390
F
  0
ENDTAB
  0
TABLE
  2
STYLE
  5
3
330
0
100
AcDbSymbolTable
 70
     2
  0
STYLE
  5
11
330
3
100
AcDbSymbolTableRecord
100
AcDbTextStyleTableRecord
  2
Standard
 70
     0
 40
0.0
 41
1.0
 50
0.0
 71
     0
 42
2.5
  3
txt
  4

1001
ACAD
1000

1071
        0
  0
STYLE
  5
3B
330
3
100
AcDbSymbolTableRecord
100
AcDbTextStyleTableRecord
  2
ＭＳ ゴシック
 70
     0
 40
1.0
 41
1.0
 50
0.0
 71
     0
 42
10.0
  3

  4

1001
ACAD
1000
MS Gothic
1071
    32817
  0
ENDTAB
  0
TABLE
  2
VIEW
  5
6
330
0
100
AcDbSymbolTable
 70
     0
  0
ENDTAB
  0
TABLE
  2
UCS
  5
7
330
0
100
AcDbSymbolTable
 70
     0
  0
ENDTAB
  0
TABLE
  2
APPID
  5
9
330
0
100
AcDbSymbolTable
 70
     1
  0
APPID
  5
12
330
9
100
AcDbSymbolTableRecord
100
AcDbRegAppTableRecord
  2
ACAD
 70
     0
  0
ENDTAB
  0
TABLE
  2
DIMSTYLE
  5
A
330
0
100
AcDbSymbolTable
 70
     1
100
AcDbDimStyleTable
  0
DIMSTYLE
105
27
330
A
100
AcDbSymbolTableRecord
100
AcDbDimStyleTableRecord
  2
ISO-25
 70
     0
 41
2.5
 42
0.625
 43
3.75
 44
1.25
 73
     0
 74
     0
 77
     1
 78
     8
140
2.5
141
2.5
143
0.03937007874016
147
0.625
171
     3
172
     1
271
     2
272
     2
274
     3
278
    44
283
     0
284
     8
340
11
  0
ENDTAB
  0
TABLE
  2
BLOCK_RECORD
  5
1
330
0
100
AcDbSymbolTable
 70
     1
  0
BLOCK_RECORD
  5
1F
330
1
100
AcDbSymbolTableRecord
100
AcDbBlockTableRecord
  2
*Model_Space
340
22
  0
BLOCK_RECORD
  5
1B
330
1
100
AcDbSymbolTableRecord
100
AcDbBlockTableRecord
  2
*Paper_Space
340
1E
  0
BLOCK_RECORD
  5
23
330
1
100
AcDbSymbolTableRecord
100
AcDbBlockTableRecord
  2
*Paper_Space0
340
26
  0
ENDTAB
  0
ENDSEC
  0
SECTION
  2
BLOCKS
  0
BLOCK
  5
20
330
1F
100
AcDbEntity
  8
0
100
AcDbBlockBegin
  2
*Model_Space
 70
     0
 10
0.0
 20
0.0
 30
0.0
  3
*Model_Space
  1

  0
ENDBLK
  5
21
330
1F
100
AcDbEntity
  8
0
100
AcDbBlockEnd
  0
BLOCK
  5
1C
330
1B
100
AcDbEntity
 67
     1
  8
0
100
AcDbBlockBegin
  2
*Paper_Space
 70
     0
 10
0.0
 20
0.0
 30
0.0
  3
*Paper_Space
  1

  0
ENDBLK
  5
1D
330
1B
100
AcDbEntity
 67
     1
  8
0
100
AcDbBlockEnd
  0
BLOCK
  5
24
330
23
100
AcDbEntity
  8
0
100
AcDbBlockBegin
  2
*Paper_Space0
 70
     0
 10
0.0
 20
0.0
 30
0.0
  3
*Paper_Space0
  1

  0
ENDBLK
  5
25
330
23
100
AcDbEntity
  8
0
100
AcDbBlockEnd
  0
ENDSEC
  0
SECTION
  2
ENTITIES
  0
TEXT
  5
43
330
1F
100
AcDbEntity
  8
F-5ﾚｲﾔ
  6
Continuous
 62
     3
370
     9
100
AcDbText
 10
-338.0246445317165
 20
-528.2893034915943
 30
0.0
 40
12.192
  1
タイル用　充填深さ40㎜　鋳鉄製　集水桝用
 41
0.9462499999999998
  7
ＭＳ ゴシック
100
AcDbText
  0
LINE
  5
44
330
1F
100
AcDbEntity
  8
0-E
  6
Continuous
 62
     7
370
     9
100
AcDbLine
 10
393.4897799105256
 20
387.847847603463
 30
0.0
 11
398.1888600942252
 21
398.8896022487334
 31
0.0
  0
LINE
  5
45
330
1F
100
AcDbEntity
  8
0-E
  6
Continuous
 62
     7
370
     9
100
AcDbLine
 10
393.4897799105256
 20
387.847847603463
 30
0.0
 11
400.8865480165223
 21
397.2970795502536
 31
0.0
  0
LINE
  5
46
330
1F
100
AcDbEntity
  8
0-F
  6
Continuous
 62
     7
370
     9
100
AcDbLine
 10
-473.710092080606
 20
427.8478805954394
 30
0.0
 11
-373.7101580645586
 21
427.8478805954394
 31
0.0
  0
LINE
  5
47
330
1F
100
AcDbEntity
  8
0-F
  6
Continuous
 62
     7
370
     9
100
AcDbLine
 10
-473.710092080606
 20
427.8478805954394
 30
0.0
 11
-461.8127895045924
 21
429.4141746727198
 31
0.0
  0
LINE
  5
48
330
1F
100
AcDbEntity
  8
0-F
  6
Continuous
 62
     7
370
     9
100
AcDbLine
 10
-473.710092080606
 20
427.8478805954394
 30
0.0
 11
-461.8127895045924
 21
426.281586518159
 31
0.0
  0
LINE
  5
49
330
1F
100
AcDbEntity
  8
0-F
  6
Continuous
 62
     7
370
     9
100
AcDbLine
 10
-373.7101580645586
 20
427.8478805954394
 30
0.0
 11
-385.6074606405722
 21
429.4141746727198
 31
0.0
  0
LINE
  5
4A
330
1F
100
AcDbEntity
  8
0-F
  6
Continuous
 62
     7
370
     9
100
AcDbLine
 10
-373.7101580645586
 20
427.8478805954394
 30
0.0
 11
-385.6074606405722
 21
426.281586518159
 31
0.0
  0
LINE
  5
4B
330
1F
100
AcDbEntity
  8
0-F
  6
Continuous
 62
     7
370
     9
100
AcDbLine
 10
-173.7102405444996
 20
427.8478805954394
 30
0.0
 11
-73.71030652845218
 21
427.8478805954394
 31
0.0
  0
LINE
  5
4C
330
1F
100
AcDbEntity
  8
0-F
  6
Continuous
 62
     7
370
     9
100
AcDbLine
 10
-173.7102405444996
 20
427.8478805954394
 30
0.0
 11
-161.8128884805215
 21
429.4141746727198
 31
0.0
  0
LINE
  5
4D
330
1F
100
AcDbEntity
  8
0-F
  6
Continuous
 62
     7
370
     9
100
AcDbLine
 10
-173.7102405444996
 20
427.8478805954394
 30
0.0
 11
-161.8128884805215
 21
426.281586518159
 31
0.0
  0
LINE
  5
4E
330
1F
100
AcDbEntity
  8
0-F
  6
Continuous
 62
     7
370
     9
100
AcDbLine
 10
-73.71030652845218
 20
427.8478805954394
 30
0.0
 11
-85.60760910446572
 21
429.4141746727198
 31
0.0
  0
LINE
  5
4F
330
1F
100
AcDbEntity
  8
0-F
  6
Continuous
 62
     7
370
     9
100
AcDbLine
 10
-73.71030652845218
 20
427.8478805954394
 30
0.0
 11
-85.60760910446572
 21
426.281586518159
 31
0.0
  0
LINE
  5
50
330
1F
100
AcDbEntity
  8
0-F
  6
Continuous
 62
     7
370
     9
100
AcDbLine
 10
-473.710092080606
 20
362.8479135874157
 30
0.0
 11
-473.710092080606
 21
429.0478647592907
 31
0.0
  0
LINE
  5
51
330
1F
100
AcDbEntity
  8
0-F
  6
Continuous
 62
     7
370
     9
100
AcDbLine
 10
-73.71030652845218
 20
362.8479135874157
 30
0.0
 11
-73.71030652845218
 21
429.0478647592907
 31
0.0
  0
LINE
  5
52
330
1F
100
AcDbEntity
  8
0-F
  6
Continuous
 62
     7
370
     9
100
AcDbLine
 10
-470.5103982461465
 20
-276.1520666173985
 30
0.0
 11
-470.5103982461465
 21
-178.9521121463258
 31
0.0
  0
LINE
  5
53
330
1F
100
AcDbEntity
  8
0-F
  6
Continuous
 62
     7
370
     9
100
AcDbLine
 10
-473.7102900324641
 20
-276.1520666173985
 30
0.0
 11
-473.7102900324641
 21
-138.9520791543496
 31
0.0
  0
LINE
  5
54
330
1F
100
AcDbEntity
  8
0-F
  6
Continuous
 62
     7
370
     9
100
AcDbLine
 10
-473.7102900324641
 20
-180.1520963101773
 30
0.0
 11
-485.6077905603357
 21
-178.5858022328969
 31
0.0
  0
LINE
  5
55
330
1F
100
AcDbEntity
  8
0-F
  6
Continuous
 62
     7
370
     9
100
AcDbLine
 10
-473.7102900324641
 20
-180.1520963101773
 30
0.0
 11
-485.6077905603357
 21
-181.7184398754221
 31
0.0
  0
LINE
  5
56
330
1F
100
AcDbEntity
  8
0-F
  6
Continuous
 62
     7
370
     9
100
AcDbLine
 10
-468.7103230244404
 20
-276.1520666173985
 30
0.0
 11
-468.7103230244404
 21
-178.9521121463258
 31
0.0
  0
LINE
  5
57
330
1F
100
AcDbEntity
  8
0-F
  6
Continuous
 62
     7
370
     9
100
AcDbLine
 10
-468.7103230244404
 20
-180.1520963101773
 30
0.0
 11
-456.8130204484269
 21
-178.5858022328969
 31
0.0
  0
LINE
  5
58
330
1F
100
AcDbEntity
  8
0-F
  6
Continuous
 62
     7
370
     9
100
AcDbLine
 10
-468.7103230244404
 20
-180.1520963101773
 30
0.0
 11
-456.8130204484269
 21
-181.7184398754221
 31
0.0
  0
LINE
  5
59
330
1F
100
AcDbEntity
  8
0-F
  6
Continuous
 62
     7
370
     9
100
AcDbLine
 10
-78.71032302444041
 20
-276.1520666173985
 30
0.0
 11
-78.71032302444041
 21
-178.9521121463258
 31
0.0
  0
LINE
  5
5A
330
1F
100
AcDbEntity
  8
0-F
  6
Continuous
 62
     7
370
     9
100
AcDbLine
 10
-76.91039626662791
 20
-276.1520666173985
 30
0.0
 11
-76.91039626662791
 21
-178.9521121463258
 31
0.0
  0
LINE
  5
5B
330
1F
100
AcDbEntity
  8
0-F
  6
Continuous
 62
     7
370
     9
100
AcDbLine
 10
-78.71032302444041
 20
-180.1520963101773
 30
0.0
 11
-90.60762560045396
 21
-178.5858022328969
 31
0.0
  0
LINE
  5
5C
330
1F
100
AcDbEntity
  8
0-F
  6
Continuous
 62
     7
370
     9
100
AcDbLine
 10
-78.71032302444041
 20
-180.1520963101773
 30
0.0
 11
-90.60762560045396
 21
-181.7184398754221
 31
0.0
  0
LINE
  5
5D
330
1F
100
AcDbEntity
  8
0-F
  6
Continuous
 62
     7
370
     9
100
AcDbLine
 10
-73.71030652845218
 20
-180.1520963101773
 30
0.0
 11
-61.81300395243875
 21
-178.5858022328969
 31
0.0
  0
LINE
  5
5E
330
1F
100
AcDbEntity
  8
0-F
  6
Continuous
 62
     7
370
     9
100
AcDbLine
 10
-73.71030652845218
 20
-180.1520963101773
 30
0.0
 11
-61.81300395243875
 21
-181.7184398754221
 31
0.0
  0
LINE
  5
5F
330
1F
100
AcDbEntity
  8
0-F
  6
Continuous
 62
     7
370
     9
100
AcDbLine
 10
-73.71030652845218
 20
-276.1520666173985
 30
0.0
 11
-73.71030652845218
 21
-138.9520791543496
 31
0.0
  0
LINE
  5
60
330
1F
100
AcDbEntity
  8
0-F
  6
Continuous
 62
     7
370
     9
100
AcDbLine
 10
-473.7102900324641
 20
-140.1521622941299
 30
0.0
 11
-73.71030652845218
 21
-140.1521622941299
 31
0.0
  0
LINE
  5
61
330
1F
100
AcDbEntity
  8
0-F
  6
Continuous
 62
     7
370
     9
100
AcDbLine
 10
-473.7102900324641
 20
-140.1521622941299
 30
0.0
 11
-461.8129874564506
 21
-138.5857692409204
 31
0.0
  0
LINE
  5
62
330
1F
100
AcDbEntity
  8
0-F
  6
Continuous
 62
     7
370
     9
100
AcDbLine
 10
-473.7102900324641
 20
-140.1521622941299
 30
0.0
 11
-461.8129874564506
 21
-141.7184563714103
 31
0.0
  0
LINE
  5
63
330
1F
100
AcDbEntity
  8
0-F
  6
Continuous
 62
     7
370
     9
100
AcDbLine
 10
-73.71030652845218
 20
-140.1521622941299
 30
0.0
 11
-85.60760910446572
 21
-138.5857692409204
 31
0.0
  0
LINE
  5
64
330
1F
100
AcDbEntity
  8
0-F
  6
Continuous
 62
     7
370
     9
100
AcDbLine
 10
-73.71030652845218
 20
-140.1521622941299
 30
0.0
 11
-85.60760910446572
 21
-141.7184563714103
 31
0.0
  0
LINE
  5
65
330
1F
100
AcDbEntity
  8
0-F
  6
Continuous
 62
     7
370
     9
100
AcDbLine
 10
302.2897957466744
 20
-37.95219132706904
 30
0.0
 11
205.0897917876374
 21
-37.95219132706904
 31
0.0
  0
LINE
  5
66
330
1F
100
AcDbEntity
  8
0-F
  6
Continuous
 62
     7
370
     9
100
AcDbLine
 10
206.2897759514887
 20
-41.15213260135113
 30
0.0
 11
204.7234818742082
 21
-53.04948466532926
 31
0.0
  0
LINE
  5
67
330
1F
100
AcDbEntity
  8
0-F
  6
Continuous
 62
     7
370
     9
100
AcDbLine
 10
206.2897759514887
 20
-79.92758591110623
 30
0.0
 11
206.2897759514887
 21
396.1452966638516
 31
0.0
  0
LINE
  5
68
330
1F
100
AcDbEntity
  8
0-F
  6
Continuous
 62
     7
370
     9
100
AcDbLine
 10
302.2897957466744
 20
-36.15216559332748
 30
0.0
 11
205.0897917876374
 21
-36.15216559332748
 31
0.0
  0
LINE
  5
69
330
1F
100
AcDbEntity
  8
0-F
  6
Continuous
 62
     7
370
     9
100
AcDbLine
 10
206.2897759514887
 20
-36.15216559332748
 30
0.0
 11
204.7234818742082
 21
-24.25481352934946
 31
0.0
  0
LINE
  5
6A
330
1F
100
AcDbEntity
  8
0-F
  6
Continuous
 62
     7
370
     9
100
AcDbLine
 10
206.2897759514887
 20
-36.15216559332748
 30
0.0
 11
207.8560700287691
 21
-24.25481352934946
 31
0.0
  0
LINE
  5
6B
330
1F
100
AcDbEntity
  8
0-F
  6
Continuous
 62
     7
370
     9
100
AcDbLine
 10
206.2897759514887
 20
353.8478344066725
 30
0.0
 11
204.7234818742082
 21
341.950531830659
 31
0.0
  0
LINE
  5
6C
330
1F
100
AcDbEntity
  8
0-F
  6
Continuous
 62
     7
370
     9
100
AcDbLine
 10
206.2897759514887
 20
353.8478344066725
 30
0.0
 11
207.8560700287691
 21
341.950531830659
 31
0.0
  0
LINE
  5
6D
330
1F
100
AcDbEntity
  8
0-F
  6
Continuous
 62
     7
370
     9
100
AcDbLine
 10
302.2897957466744
 20
358.8477024387671
 30
0.0
 11
165.0897587956609
 21
358.8477024387671
 31
0.0
  0
LINE
  5
6E
330
1F
100
AcDbEntity
  8
0-F
  6
Continuous
 62
     7
370
     9
100
AcDbLine
 10
206.2897759514887
 20
358.8477024387671
 30
0.0
 11
204.7234818742082
 21
370.7450050147806
 31
0.0
  0
LINE
  5
6F
330
1F
100
AcDbEntity
  8
0-F
  6
Continuous
 62
     7
370
     9
100
AcDbLine
 10
206.2897759514887
 20
358.8477024387671
 30
0.0
 11
207.8560700287691
 21
370.7450050147806
 31
0.0
  0
LINE
  5
70
330
1F
100
AcDbEntity
  8
0-F
  6
Continuous
 62
     7
370
     9
100
AcDbLine
 10
206.2897759514887
 20
-41.15213260135113
 30
0.0
 11
207.8560700287691
 21
-53.04948466532926
 31
0.0
  0
LINE
  5
71
330
1F
100
AcDbEntity
  8
0-F
  6
Continuous
 62
     7
370
     9
100
AcDbLine
 10
166.2897429595124
 20
-41.15213260135113
 30
0.0
 11
166.2897429595124
 21
358.8479003906252
 31
0.0
  0
LINE
  5
72
330
1F
100
AcDbEntity
  8
0-F
  6
Continuous
 62
     7
370
     9
100
AcDbLine
 10
166.2897429595124
 20
-41.15213260135113
 30
0.0
 11
164.723448882232
 21
-29.25478053737311
 31
0.0
  0
LINE
  5
73
330
1F
100
AcDbEntity
  8
0-F
  6
Continuous
 62
     7
370
     9
100
AcDbLine
 10
166.2897429595124
 20
-41.15213260135113
 30
0.0
 11
167.8560370367928
 21
-29.25478053737311
 31
0.0
  0
LINE
  5
74
330
1F
100
AcDbEntity
  8
0-F
  6
Continuous
 62
     7
370
     9
100
AcDbLine
 10
166.2897429595124
 20
358.8479003906252
 30
0.0
 11
164.723448882232
 21
346.9505978146117
 31
0.0
  0
LINE
  5
75
330
1F
100
AcDbEntity
  8
0-F
  6
Continuous
 62
     7
370
     9
100
AcDbLine
 10
166.2897429595124
 20
358.8479003906252
 30
0.0
 11
167.8560370367928
 21
346.9505978146117
 31
0.0
  0
LINE
  5
76
330
1F
100
AcDbEntity
  8
0-F
  6
Continuous
 62
     7
370
     9
100
AcDbLine
 10
458.4897469185494
 20
-70.15212930215353
 30
0.0
 11
458.4897469185494
 21
387.847847603463
 31
0.0
  0
LINE
  5
77
330
1F
100
AcDbEntity
  8
0-F
  6
Continuous
 62
     7
370
     9
100
AcDbLine
 10
458.4897469185494
 20
-70.15212930215353
 30
0.0
 11
456.923452841269
 21
-58.25477723817551
 31
0.0
  0
LINE
  5
78
330
1F
100
AcDbEntity
  8
0-F
  6
Continuous
 62
     7
370
     9
100
AcDbLine
 10
458.4897469185494
 20
-70.15212930215353
 30
0.0
 11
460.0560409958298
 21
-58.25477723817551
 31
0.0
  0
LINE
  5
79
330
1F
100
AcDbEntity
  8
0-F
  6
Continuous
 62
     7
370
     9
100
AcDbLine
 10
460.0560409958298
 20
-29.25478053737311
 30
0.0
 11
456.923452841269
 21
-53.04948466532926
 31
0.0
  0
LINE
  5
7A
330
1F
100
AcDbEntity
  8
0-F
  6
Continuous
 62
     7
370
     9
100
AcDbLine
 10
456.923452841269
 20
-29.25478053737311
 30
0.0
 11
460.0560409958298
 21
-53.04948466532926
 31
0.0
  0
LINE
  5
7B
330
1F
100
AcDbEntity
  8
0-F
  6
Continuous
 62
     7
370
     9
100
AcDbLine
 10
460.0560409958298
 20
20.74518647065054
 30
0.0
 11
456.923452841269
 21
-3.049517657305614
 31
0.0
  0
LINE
  5
7C
330
1F
100
AcDbEntity
  8
0-F
  6
Continuous
 62
     7
370
     9
100
AcDbLine
 10
456.923452841269
 20
20.74518647065054
 30
0.0
 11
460.0560409958298
 21
-3.049517657305614
 31
0.0
  0
LINE
  5
7D
330
1F
100
AcDbEntity
  8
0-F
  6
Continuous
 62
     7
370
     9
100
AcDbLine
 10
460.0560409958298
 20
320.7451369826859
 30
0.0
 11
456.923452841269
 21
296.950531830659
 31
0.0
  0
LINE
  5
7E
330
1F
100
AcDbEntity
  8
0-F
  6
Continuous
 62
     7
370
     9
100
AcDbLine
 10
456.923452841269
 20
320.7451369826859
 30
0.0
 11
460.0560409958298
 21
296.950531830659
 31
0.0
  0
LINE
  5
7F
330
1F
100
AcDbEntity
  8
0-F
  6
Continuous
 62
     7
370
     9
100
AcDbLine
 10
460.0560409958298
 20
370.7451039907097
 30
0.0
 11
456.923452841269
 21
346.9504988386826
 31
0.0
  0
LINE
  5
80
330
1F
100
AcDbEntity
  8
0-F
  6
Continuous
 62
     7
370
     9
100
AcDbLine
 10
456.923452841269
 20
370.7451039907097
 30
0.0
 11
460.0560409958298
 21
346.9504988386826
 31
0.0
  0
LINE
  5
81
330
1F
100
AcDbEntity
  8
0-F
  6
Continuous
 62
     7
370
     9
100
AcDbLine
 10
458.4897469185494
 20
387.847847603463
 30
0.0
 11
456.923452841269
 21
375.9505450274495
 31
0.0
  0
LINE
  5
82
330
1F
100
AcDbEntity
  8
0-F
  6
Continuous
 62
     7
370
     9
100
AcDbLine
 10
458.4897469185494
 20
387.847847603463
 30
0.0
 11
460.0560409958298
 21
375.9505450274495
 31
0.0
  0
LINE
  5
83
330
1F
100
AcDbEntity
  8
0-F
  6
Continuous
 62
     7
370
     9
100
AcDbLine
 10
306.2898089434652
 20
-101.1521326013512
 30
0.0
 11
366.2898089434652
 21
-101.1521326013512
 31
0.0
  0
LINE
  5
84
330
1F
100
AcDbEntity
  8
0-F
  6
Continuous
 62
     7
370
     9
100
AcDbLine
 10
366.2898089434652
 20
-45.15214579814176
 30
0.0
 11
366.2898089434652
 21
-102.3521167652025
 31
0.0
  0
LINE
  5
85
330
1F
100
AcDbEntity
  8
0-F
  6
Continuous
 62
     7
370
     9
100
AcDbLine
 10
306.2898089434652
 20
-101.1521326013512
 30
0.0
 11
318.1871115194785
 21
-99.58583852407082
 31
0.0
  0
LINE
  5
86
330
1F
100
AcDbEntity
  8
0-F
  6
Continuous
 62
     7
370
     9
100
AcDbLine
 10
306.2898089434652
 20
-101.1521326013512
 30
0.0
 11
318.1871115194785
 21
-102.7184266786317
 31
0.0
  0
LINE
  5
87
330
1F
100
AcDbEntity
  8
0-F
  6
Continuous
 62
     7
370
     9
100
AcDbLine
 10
306.2898089434652
 20
-141.1521655933275
 30
0.0
 11
318.1871115194785
 21
-139.5858220280826
 31
0.0
  0
LINE
  5
88
330
1F
100
AcDbEntity
  8
0-F
  6
Continuous
 62
     7
370
     9
100
AcDbLine
 10
306.2898089434652
 20
-141.1521655933275
 30
0.0
 11
318.1871115194785
 21
-142.7184596706079
 31
0.0
  0
LINE
  5
89
330
1F
100
AcDbEntity
  8
0-F
  6
Continuous
 62
     7
370
     9
100
AcDbLine
 10
369.4897997057114
 20
-45.15214579814176
 30
0.0
 11
369.4897997057114
 21
-142.3521497571789
 31
0.0
  0
LINE
  5
8A
330
1F
100
AcDbEntity
  8
0-F
  6
Continuous
 62
     7
370
     9
100
AcDbLine
 10
306.2898089434652
 20
-45.15214579814176
 30
0.0
 11
306.2898089434652
 21
-142.3521497571789
 31
0.0
  0
LINE
  5
8B
330
1F
100
AcDbEntity
  8
0-F
  6
Continuous
 62
     7
370
     9
100
AcDbLine
 10
302.2897957466744
 20
-41.15213260135113
 30
0.0
 11
165.0897587956609
 21
-41.15213260135113
 31
0.0
  0
LINE
  5
8C
330
1F
100
AcDbEntity
  8
0-F
  6
Continuous
 62
     7
370
     9
100
AcDbLine
 10
302.2897957466744
 20
353.8478344066725
 30
0.0
 11
205.0897917876374
 21
353.8478344066725
 31
0.0
  0
LINE
  5
8D
330
1F
100
AcDbEntity
  8
0-F
  6
Continuous
 62
     7
370
     9
100
AcDbLine
 10
302.2897957466744
 20
355.6478106524495
 30
0.0
 11
205.0897917876374
 21
355.6478106524495
 31
0.0
  0
LINE
  5
8E
330
1F
100
AcDbEntity
  8
0-E
  6
Continuous
 62
     7
370
     9
100
AcDbLine
 10
484.5588189202385
 20
252.8048920502536
 30
0.0
 11
370.2898221402556
 21
207.1459103146117
 31
0.0
  0
LINE
  5
8F
330
1F
100
AcDbEntity
  8
0-E
  6
Continuous
 62
     7
370
     9
100
AcDbLine
 10
370.2898221402556
 20
207.1459103146117
 30
0.0
 11
380.7566256136506
 21
213.0149354676944
 31
0.0
  0
LINE
  5
90
330
1F
100
AcDbEntity
  8
0-E
  6
Continuous
 62
     7
370
     9
100
AcDbLine
 10
370.2898221402556
 20
207.1459103146117
 30
0.0
 11
381.9189989244614
 21
210.1059339368668
 31
0.0
  0
LINE
  5
91
330
1F
100
AcDbEntity
  8
0-F
  6
Continuous
 62
     7
370
     9
100
AcDbLine
 10
306.2900068953231
 20
112.2244312183279
 30
0.0
 11
401.765058362806
 21
112.2244312183279
 31
0.0
  0
LINE
  5
92
330
1F
100
AcDbEntity
  8
0-F
  6
Continuous
 62
     7
370
     9
100
AcDbLine
 10
306.2900068953231
 20
112.2244312183279
 30
0.0
 11
318.1873094713364
 21
113.7907252956082
 31
0.0
  0
LINE
  5
93
330
1F
100
AcDbEntity
  8
0-F
  6
Continuous
 62
     7
370
     9
100
AcDbLine
 10
306.2900068953231
 20
112.2244312183279
 30
0.0
 11
318.1873094713364
 21
110.6581371410475
 31
0.0
  0
LINE
  5
94
330
1F
100
AcDbEntity
  8
0-F
  6
Continuous
 62
     7
370
     9
100
AcDbLine
 10
346.2898419354415
 20
112.2244312183279
 30
0.0
 11
334.3925393594277
 21
113.7907252956082
 31
0.0
  0
LINE
  5
95
330
1F
100
AcDbEntity
  8
0-F
  6
Continuous
 62
     7
370
     9
100
AcDbLine
 10
346.2898419354415
 20
112.2244312183279
 30
0.0
 11
334.3925393594277
 21
110.6581371410475
 31
0.0
  0
LINE
  5
96
330
1F
100
AcDbEntity
  8
0-F
  6
Continuous
 62
     7
370
     9
100
AcDbLine
 10
361.669909503009
 20
133.6675167599242
 30
0.0
 11
349.2898023450698
 21
112.2244312183279
 31
0.0
  0
LINE
  5
97
330
1F
100
AcDbEntity
  8
躯体
  6
Continuous
 62
     2
370
     9
100
AcDbLine
 10
366.2898089434652
 20
-34.95218142947613
 30
0.0
 11
366.2898089434652
 21
8.847834406672519
 31
0.0
  0
LINE
  5
98
330
1F
100
AcDbEntity
  8
躯体
  6
Continuous
 62
     2
370
     9
100
AcDbLine
 10
306.2898089434652
 20
-37.95219132706904
 30
0.0
 11
363.2898485338364
 21
-37.95219132706904
 31
0.0
  0
LINE
  5
99
330
1F
100
AcDbEntity
  8
躯体
  6
Continuous
 62
     2
370
     9
100
AcDbLine
 10
369.4897997057114
 20
-35.15216229412988
 30
0.0
 11
369.4897997057114
 21
8.847834406672519
 31
0.0
  0
LINE
  5
9A
330
1F
100
AcDbEntity
  8
躯体
  6
Continuous
 62
     2
370
     9
100
AcDbLine
 10
306.2898089434652
 20
-41.15213260135113
 30
0.0
 11
306.2898089434652
 21
-37.95219132706904
 31
0.0
  0
LINE
  5
9B
330
1F
100
AcDbEntity
  8
躯体
  6
Continuous
 62
     2
370
     9
100
AcDbLine
 10
366.2898089434652
 20
8.847834406672519
 30
0.0
 11
369.4897997057114
 21
8.847834406672519
 31
0.0
  0
LINE
  5
9C
330
1F
100
AcDbEntity
  8
躯体
  6
Continuous
 62
     2
370
     9
100
AcDbLine
 10
354.4897997057114
 20
-50.15216229412988
 30
0.0
 11
354.4897997057114
 21
-41.15213260135113
 31
0.0
  0
LINE
  5
9D
330
1F
100
AcDbEntity
  8
躯体
  6
Continuous
 62
     2
370
     9
100
AcDbLine
 10
354.4897997057114
 20
-50.15216229412988
 30
0.0
 11
379.4898326976881
 21
-50.15216229412988
 31
0.0
  0
LINE
  5
9E
330
1F
100
AcDbEntity
  8
躯体
  6
Continuous
 62
     2
370
     9
100
AcDbLine
 10
384.4897997057114
 20
-70.15212930215353
 30
0.0
 11
393.4897799105256
 21
-70.15212930215353
 31
0.0
  0
LINE
  5
9F
330
1F
100
AcDbEntity
  8
通り芯
  6
Continuous
 62
     3
370
     9
100
AcDbLine
 10
370.2898221402556
 20
90.84785750105596
 30
0.0
 11
370.2898221402556
 21
226.8478113122891
 31
0.0
  0
LINE
  5
A0
330
1F
100
AcDbEntity
  8
通り芯
  6
Continuous
 62
     3
370
     9
100
AcDbLine
 10
352.2898617306273
 20
101.5329523859799
 30
0.0
 11
352.2898617306273
 21
216.1626669394005
 31
0.0
  0
LINE
  5
A1
330
1F
100
AcDbEntity
  8
通り芯
  6
Continuous
 62
     3
370
     9
100
AcDbLine
 10
346.2898419354415
 20
302.5988901499157
 30
0.0
 11
346.2898419354415
 21
15.09682815139377
 31
0.0
  0
LINE
  5
A2
330
1F
100
AcDbEntity
  8
躯体
  6
Continuous
 62
     2
370
     9
100
AcDbLine
 10
-169.2103494180215
 20
387.847847603463
 30
0.0
 11
-178.2103296228357
 21
387.847847603463
 31
0.0
  0
LINE
  5
A3
330
1F
100
AcDbEntity
  8
躯体
  6
Continuous
 62
     2
370
     9
100
AcDbLine
 10
-169.2103494180215
 20
363.3479399809968
 30
0.0
 11
-169.2103494180215
 21
387.847847603463
 31
0.0
  0
LINE
  5
A4
330
1F
100
AcDbEntity
  8
躯体
  6
Continuous
 62
     2
370
     9
100
AcDbLine
 10
-178.2103296228357
 20
363.3479399809968
 30
0.0
 11
-178.2103296228357
 21
387.847847603463
 31
0.0
  0
LINE
  5
A5
330
1F
100
AcDbEntity
  8
躯体
  6
Continuous
 62
     2
370
     9
100
AcDbLine
 10
-73.71035601641677
 20
358.8479003906252
 30
0.0
 11
-473.7103395204286
 21
358.8479003906252
 31
0.0
  0
LINE
  5
A6
330
1F
100
AcDbEntity
  8
躯体
  6
Continuous
 62
     2
370
     9
100
AcDbLine
 10
384.4897997057114
 20
387.847847603463
 30
0.0
 11
393.4897799105256
 21
387.847847603463
 31
0.0
  0
LINE
  5
A7
330
1F
100
AcDbEntity
  8
躯体
  6
Continuous
 62
     2
370
     9
100
AcDbLine
 10
393.4897799105256
 20
387.847847603463
 30
0.0
 11
393.4897799105256
 21
372.847847603463
 31
0.0
  0
LINE
  5
A8
330
1F
100
AcDbEntity
  8
躯体
  6
Continuous
 62
     2
370
     9
100
AcDbLine
 10
384.4897997057114
 20
387.847847603463
 30
0.0
 11
384.4897997057114
 21
372.847847603463
 31
0.0
  0
LINE
  5
A9
330
1F
100
AcDbEntity
  8
躯体
  6
Continuous
 62
     2
370
     9
100
AcDbLine
 10
354.4897997057114
 20
367.8477816195103
 30
0.0
 11
379.4898326976881
 21
367.8477816195103
 31
0.0
  0
LINE
  5
AA
330
1F
100
AcDbEntity
  8
躯体
  6
Continuous
 62
     2
370
     9
100
AcDbLine
 10
354.4897997057114
 20
367.8477816195103
 30
0.0
 11
354.4897997057114
 21
358.8479003906252
 31
0.0
  0
LINE
  5
AB
330
1F
100
AcDbEntity
  8
躯体
  6
Continuous
 62
     2
370
     9
100
AcDbLine
 10
366.2898089434652
 20
308.8478344066725
 30
0.0
 11
369.4897997057114
 21
308.8478344066725
 31
0.0
  0
LINE
  5
AC
330
1F
100
AcDbEntity
  8
躯体
  6
Continuous
 62
     2
370
     9
100
AcDbLine
 10
306.2898089434652
 20
358.8479003906252
 30
0.0
 11
306.2898089434652
 21
355.6478106524495
 31
0.0
  0
LINE
  5
AD
330
1F
100
AcDbEntity
  8
躯体
  6
Continuous
 62
     2
370
     9
100
AcDbLine
 10
369.4897997057114
 20
352.8477816195103
 30
0.0
 11
369.4897997057114
 21
308.8478344066725
 31
0.0
  0
LINE
  5
AE
330
1F
100
AcDbEntity
  8
躯体
  6
Continuous
 62
     2
370
     9
100
AcDbLine
 10
306.2898089434652
 20
355.6478106524495
 30
0.0
 11
363.2898485338364
 21
355.6478106524495
 31
0.0
  0
LINE
  5
AF
330
1F
100
AcDbEntity
  8
躯体
  6
Continuous
 62
     2
370
     9
100
AcDbLine
 10
-76.91034677866332
 20
355.6478106524495
 30
0.0
 11
-470.510348758182
 21
355.6478106524495
 31
0.0
  0
LINE
  5
B0
330
1F
100
AcDbEntity
  8
通り芯
  6
Continuous
 62
     3
370
     9
100
AcDbLine
 10
306.2898089434652
 20
352.0007456186657
 30
0.0
 11
306.2898089434652
 21
344.6949363914698
 31
0.0
  0
LINE
  5
B1
330
1F
100
AcDbEntity
  8
通り芯
  6
Continuous
 62
     3
370
     9
100
AcDbLine
 10
312.2898287386506
 20
353.8478344066725
 30
0.0
 11
312.2898287386506
 21
353.2306205130914
 31
0.0
  0
LINE
  5
B2
330
1F
100
AcDbEntity
  8
通り芯
  6
Continuous
 62
     3
370
     9
100
AcDbLine
 10
320.2898551322319
 20
350.465035103463
 30
0.0
 11
320.2898551322319
 21
346.2306469066725
 31
0.0
  0
LINE
  5
B3
330
1F
100
AcDbEntity
  8
通り芯
  6
Continuous
 62
     3
370
     9
100
AcDbLine
 10
307.1253637365394
 20
352.9871397276185
 30
0.0
 11
312.2898287386506
 21
353.8478344066725
 31
0.0
  0
LINE
  5
B4
330
1F
100
AcDbEntity
  8
通り芯
  6
Continuous
 62
     3
370
     9
100
AcDbLine
 10
307.1253637365394
 20
343.7085422825171
 30
0.0
 11
312.2898287386506
 21
342.847847603463
 31
0.0
  0
LINE
  5
B5
330
1F
100
AcDbEntity
  8
通り芯
  6
Continuous
 62
     3
370
     9
100
AcDbLine
 10
307.1253637365394
 20
335.487007759713
 30
0.0
 11
312.2898287386506
 21
336.3479003906252
 31
0.0
  0
LINE
  5
B6
330
1F
100
AcDbEntity
  8
通り芯
  6
Continuous
 62
     3
370
     9
100
AcDbLine
 10
307.1253637365394
 20
326.2086082664698
 30
0.0
 11
312.2898287386506
 21
325.3479135874157
 31
0.0
  0
LINE
  5
B7
330
1F
100
AcDbEntity
  8
通り芯
  6
Continuous
 62
     3
370
     9
100
AcDbLine
 10
307.1253637365394
 20
317.9870737436657
 30
0.0
 11
312.2898287386506
 21
318.8477684227198
 31
0.0
  0
LINE
  5
B8
330
1F
100
AcDbEntity
  8
通り芯
  6
Continuous
 62
     3
370
     9
100
AcDbLine
 10
306.2898089434652
 20
308.8478344066725
 30
0.0
 11
343.5512769544448
 21
305.5873693517739
 31
0.0
  0
LINE
  5
B9
330
1F
100
AcDbEntity
  8
通り芯
  6
Continuous
 62
     3
370
     9
100
AcDbLine
 10
313.1657657107794
 20
352.2382878483954
 30
0.0
 11
319.4138191841744
 21
351.457367768159
 31
0.0
  0
LINE
  5
BA
330
1F
100
AcDbEntity
  8
通り芯
  6
Continuous
 62
     3
370
     9
100
AcDbLine
 10
313.1657657107794
 20
326.9573611697637
 30
0.0
 11
319.4138191841744
 21
327.7382812500002
 31
0.0
  0
LINE
  5
BB
330
1F
100
AcDbEntity
  8
通り芯
  6
Continuous
 62
     3
370
     9
100
AcDbLine
 10
319.4138191841744
 20
345.2384132179056
 30
0.0
 11
313.1657657107794
 21
344.45739416174
 31
0.0
  0
LINE
  5
BC
330
1F
100
AcDbEntity
  8
通り芯
  6
Continuous
 62
     3
370
     9
100
AcDbLine
 10
313.1657657107794
 20
334.7383538323481
 30
0.0
 11
319.4138191841744
 21
333.9574337521117
 31
0.0
  0
LINE
  5
BD
330
1F
100
AcDbEntity
  8
通り芯
  6
Continuous
 62
     3
370
     9
100
AcDbLine
 10
306.2898089434652
 20
334.5006136507603
 30
0.0
 11
306.2898089434652
 21
327.1950023754225
 31
0.0
  0
LINE
  5
BE
330
1F
100
AcDbEntity
  8
通り芯
  6
Continuous
 62
     3
370
     9
100
AcDbLine
 10
306.2898089434652
 20
317.000679634713
 30
0.0
 11
306.2898089434652
 21
0.694939690667411
 31
0.0
  0
LINE
  5
BF
330
1F
100
AcDbEntity
  8
通り芯
  6
Continuous
 62
     3
370
     9
100
AcDbLine
 10
312.2898287386506
 20
325.9651274809968
 30
0.0
 11
312.2898287386506
 21
315.2620684649495
 31
0.0
  0
LINE
  5
C0
330
1F
100
AcDbEntity
  8
通り芯
  6
Continuous
 62
     3
370
     9
100
AcDbLine
 10
312.2898287386506
 20
343.4650614970441
 30
0.0
 11
312.2898287386506
 21
335.7306864970441
 31
0.0
  0
LINE
  5
C1
330
1F
100
AcDbEntity
  8
通り芯
  6
Continuous
 62
     3
370
     9
100
AcDbLine
 10
320.2898551322319
 20
332.9651010874157
 30
0.0
 11
320.2898551322319
 21
328.7306139146962
 31
0.0
  0
LINE
  5
C2
330
1F
100
AcDbEntity
  8
通り芯
  6
Continuous
 62
     3
370
     9
100
AcDbLine
 10
365.4358446275864
 20
8.077059359163968
 30
0.0
 11
366.2898089434652
 21
7.848227011191057
 31
0.0
  0
LINE
  5
C3
330
1F
100
AcDbEntity
  8
通り芯
  6
Continuous
 62
     3
370
     9
100
AcDbLine
 10
361.7600765743773
 20
13.45442158467074
 30
0.0
 11
370.2898221402556
 21
90.84785750105596
 31
0.0
  0
LINE
  5
C4
330
1F
100
AcDbEntity
  8
通り芯
  6
Continuous
 62
     3
370
     9
100
AcDbLine
 10
369.4003254658469
 20
96.94665527343773
 30
0.0
 11
354.9585497057114
 21
98.55130252322658
 31
0.0
  0
LINE
  5
C5
330
1F
100
AcDbEntity
  8
通り芯
  6
Continuous
 62
     3
370
     9
100
AcDbLine
 10
369.4003254658469
 20
90.74898054793096
 30
0.0
 11
354.9585497057114
 21
89.14438278610658
 31
0.0
  0
LINE
  5
C6
330
1F
100
AcDbEntity
  8
通り芯
  6
Continuous
 62
     3
370
     9
100
AcDbLine
 10
352.2898617306273
 20
9.598913244299183
 30
0.0
 11
352.2898617306273
 21
86.16268343538866
 31
0.0
  0
LINE
  5
C7
330
1F
100
AcDbEntity
  8
通り芯
  6
Continuous
 62
     3
370
     9
100
AcDbLine
 10
313.2027827082456
 20
3.429743586360019
 30
0.0
 11
349.5512967496306
 21
6.610285578547519
 31
0.0
  0
LINE
  5
C8
330
1F
100
AcDbEntity
  8
通り芯
  6
Continuous
 62
     3
370
     9
100
AcDbLine
 10
320.2898551322319
 20
-15.26938278610623
 30
0.0
 11
320.2898551322319
 21
-11.03494510135113
 31
0.0
  0
LINE
  5
C9
330
1F
100
AcDbEntity
  8
通り芯
  6
Continuous
 62
     3
370
     9
100
AcDbLine
 10
312.2898287386506
 20
-25.76939268369915
 30
0.0
 11
312.2898287386506
 21
-18.03496819573468
 31
0.0
  0
LINE
  5
CA
330
1F
100
AcDbEntity
  8
通り芯
  6
Continuous
 62
     3
370
     9
100
AcDbLine
 10
306.2898089434652
 20
-16.80504381334447
 30
0.0
 11
306.2898089434652
 21
-9.499333562077481
 31
0.0
  0
LINE
  5
CB
330
1F
100
AcDbEntity
  8
通り芯
  6
Continuous
 62
     3
370
     9
100
AcDbLine
 10
313.1657657107794
 20
-17.04263553103863
 30
0.0
 11
319.4138191841744
 21
-16.2616659628377
 31
0.0
  0
LINE
  5
CC
330
1F
100
AcDbEntity
  8
通り芯
  6
Continuous
 62
     3
370
     9
100
AcDbLine
 10
319.4138191841744
 20
-27.54264542863154
 30
0.0
 11
313.1657657107794
 21
-26.76162637246603
 31
0.0
  0
LINE
  5
CD
330
1F
100
AcDbEntity
  8
通り芯
  6
Continuous
 62
     3
370
     9
100
AcDbLine
 10
313.1657657107794
 20
-9.26164286845426
 30
0.0
 11
319.4138191841744
 21
-10.04266192461978
 31
0.0
  0
LINE
  5
CE
330
1F
100
AcDbEntity
  8
躯体
  6
Continuous
 62
     2
370
     9
100
AcDbLine
 10
366.2898089434652
 20
352.6477512668921
 30
0.0
 11
366.2898089434652
 21
308.8478344066725
 31
0.0
  0
LINE
  5
CF
330
1F
100
AcDbEntity
  8
通り芯
  6
Continuous
 62
     3
370
     9
100
AcDbLine
 10
320.2898551322319
 20
351.3479003906252
 30
0.0
 11
366.2898089434652
 21
346.8478608002536
 31
0.0
  0
LINE
  5
D0
330
1F
100
AcDbEntity
  8
通り芯
  6
Continuous
 62
     3
370
     9
100
AcDbLine
 10
306.2898089434652
 20
8.847834406672519
 30
0.0
 11
343.5512769544448
 21
12.10824997360658
 31
0.0
  0
LINE
  5
D1
330
1F
100
AcDbEntity
  8
通り芯
  6
Continuous
 62
     3
370
     9
100
AcDbLine
 10
307.1253637365394
 20
-0.2914544182852978
 30
0.0
 11
312.2898287386506
 21
-1.152149097339361
 31
0.0
  0
LINE
  5
D2
330
1F
100
AcDbEntity
  8
通り芯
  6
Continuous
 62
     3
370
     9
100
AcDbLine
 10
307.1253637365394
 20
-8.512939453124773
 30
0.0
 11
312.2898287386506
 21
-7.65214579814176
 31
0.0
  0
LINE
  5
D3
330
1F
100
AcDbEntity
  8
通り芯
  6
Continuous
 62
     3
370
     9
100
AcDbLine
 10
307.1253637365394
 20
-17.79143792229718
 30
0.0
 11
312.2898287386506
 21
-18.65213260135113
 31
0.0
  0
LINE
  5
D4
330
1F
100
AcDbEntity
  8
通り芯
  6
Continuous
 62
     3
370
     9
100
AcDbLine
 10
307.1253637365394
 20
-26.01292295713665
 30
0.0
 11
312.2898287386506
 21
-25.15212930215353
 31
0.0
  0
LINE
  5
D5
330
1F
100
AcDbEntity
  8
通り芯
  6
Continuous
 62
     3
370
     9
100
AcDbLine
 10
307.1253637365394
 20
-35.29142142630894
 30
0.0
 11
312.2898287386506
 21
-36.15216559332748
 31
0.0
  0
LINE
  5
D6
330
1F
100
AcDbEntity
  8
通り芯
  6
Continuous
 62
     3
370
     9
100
AcDbLine
 10
-468.7103230244404
 20
-36.15216559332748
 30
0.0
 11
-78.71032302444041
 21
-36.15216559332748
 31
0.0
  0
LINE
  5
D7
330
1F
100
AcDbEntity
  8
通り芯
  6
Continuous
 62
     3
370
     9
100
AcDbLine
 10
-467.7103197252428
 20
-35.15216229412988
 30
0.0
 11
-79.71027683567354
 21
-35.15216229412988
 31
0.0
  0
LINE
  5
D8
330
1F
100
AcDbEntity
  8
通り芯
  6
Continuous
 62
     3
370
     9
100
AcDbLine
 10
-467.7103197252428
 20
-26.15213260135113
 30
0.0
 11
-79.71027683567354
 21
-26.15213260135113
 31
0.0
  0
LINE
  5
D9
330
1F
100
AcDbEntity
  8
通り芯
  6
Continuous
 62
     3
370
     9
100
AcDbLine
 10
-468.7103230244404
 20
-25.15212930215353
 30
0.0
 11
-78.71032302444041
 21
-25.15212930215353
 31
0.0
  0
LINE
  5
DA
330
1F
100
AcDbEntity
  8
通り芯
  6
Continuous
 62
     3
370
     9
100
AcDbLine
 10
-468.7103230244404
 20
-18.65213260135113
 30
0.0
 11
-78.71032302444041
 21
-18.65213260135113
 31
0.0
  0
LINE
  5
DB
330
1F
100
AcDbEntity
  8
通り芯
  6
Continuous
 62
     3
370
     9
100
AcDbLine
 10
-467.7103197252428
 20
-17.65212930215353
 30
0.0
 11
-79.71027683567354
 21
-17.65212930215353
 31
0.0
  0
LINE
  5
DC
330
1F
100
AcDbEntity
  8
通り芯
  6
Continuous
 62
     3
370
     9
100
AcDbLine
 10
-467.7103197252428
 20
-8.652149097339361
 30
0.0
 11
-79.71027683567354
 21
-8.652149097339361
 31
0.0
  0
LINE
  5
DD
330
1F
100
AcDbEntity
  8
通り芯
  6
Continuous
 62
     3
370
     9
100
AcDbLine
 10
-468.7103230244404
 20
-7.65214579814176
 30
0.0
 11
-78.71032302444041
 21
-7.65214579814176
 31
0.0
  0
LINE
  5
DE
330
1F
100
AcDbEntity
  8
通り芯
  6
Continuous
 62
     3
370
     9
100
AcDbLine
 10
-468.7103230244404
 20
-1.152149097339361
 30
0.0
 11
-78.71032302444041
 21
-1.152149097339361
 31
0.0
  0
LINE
  5
DF
330
1F
100
AcDbEntity
  8
通り芯
  6
Continuous
 62
     3
370
     9
100
AcDbLine
 10
-467.7103197252428
 20
-0.1521457981417598
 30
0.0
 11
-79.71027683567354
 21
-0.1521457981417598
 31
0.0
  0
LINE
  5
E0
330
1F
100
AcDbEntity
  8
通り芯
  6
Continuous
 62
     3
370
     9
100
AcDbLine
 10
-452.2103428196262
 20
8.847834406672519
 30
0.0
 11
-95.21030322925458
 21
8.847834406672519
 31
0.0
  0
LINE
  5
E1
330
1F
100
AcDbEntity
  8
通り芯
  6
Continuous
 62
     3
370
     9
100
AcDbLine
 10
-452.2103428196262
 20
12.34787069784647
 30
0.0
 11
-95.21030322925458
 21
12.34787069784647
 31
0.0
  0
LINE
  5
E2
330
1F
100
AcDbEntity
  8
通り芯
  6
Continuous
 62
     3
370
     9
100
AcDbLine
 10
-79.71027683567354
 20
-35.15216229412988
 30
0.0
 11
-79.71027683567354
 21
-26.15213260135113
 31
0.0
  0
LINE
  5
E3
330
1F
100
AcDbEntity
  8
通り芯
  6
Continuous
 62
     3
370
     9
100
AcDbLine
 10
-92.21034281962625
 20
-25.15212930215353
 30
0.0
 11
-92.21034281962625
 21
-18.65213260135113
 31
0.0
  0
LINE
  5
E4
330
1F
100
AcDbEntity
  8
通り芯
  6
Continuous
 62
     3
370
     9
100
AcDbLine
 10
-92.21034281962625
 20
-7.65214579814176
 30
0.0
 11
-92.21034281962625
 21
-1.152149097339361
 31
0.0
  0
LINE
  5
E5
330
1F
100
AcDbEntity
  8
通り芯
  6
Continuous
 62
     3
370
     9
100
AcDbLine
 10
-224.7103098276499
 20
-25.15212930215353
 30
0.0
 11
-224.7103098276499
 21
-18.65213260135113
 31
0.0
  0
LINE
  5
E6
330
1F
100
AcDbEntity
  8
通り芯
  6
Continuous
 62
     3
370
     9
100
AcDbLine
 10
-210.7103626148121
 20
-25.15212930215353
 30
0.0
 11
-210.7103626148121
 21
-18.65213260135113
 31
0.0
  0
LINE
  5
E7
330
1F
100
AcDbEntity
  8
通り芯
  6
Continuous
 62
     3
370
     9
100
AcDbLine
 10
-78.71032302444041
 20
-1.152149097339361
 30
0.0
 11
-79.71027683567354
 21
-0.1521457981417598
 31
0.0
  0
LINE
  5
E8
330
1F
100
AcDbEntity
  8
通り芯
  6
Continuous
 62
     3
370
     9
100
AcDbLine
 10
-224.7103098276499
 20
-7.65214579814176
 30
0.0
 11
-224.7103098276499
 21
-1.152149097339361
 31
0.0
  0
LINE
  5
E9
330
1F
100
AcDbEntity
  8
通り芯
  6
Continuous
 62
     3
370
     9
100
AcDbLine
 10
-210.7103626148121
 20
-7.65214579814176
 30
0.0
 11
-210.7103626148121
 21
-1.152149097339361
 31
0.0
  0
LINE
  5
EA
330
1F
100
AcDbEntity
  8
通り芯
  6
Continuous
 62
     3
370
     9
100
AcDbLine
 10
-78.71032302444041
 20
-7.65214579814176
 30
0.0
 11
-79.71027683567354
 21
-8.652149097339361
 31
0.0
  0
LINE
  5
EB
330
1F
100
AcDbEntity
  8
通り芯
  6
Continuous
 62
     3
370
     9
100
AcDbLine
 10
-79.71027683567354
 20
-17.65212930215353
 30
0.0
 11
-78.71032302444041
 21
-18.65213260135113
 31
0.0
  0
LINE
  5
EC
330
1F
100
AcDbEntity
  8
通り芯
  6
Continuous
 62
     3
370
     9
100
AcDbLine
 10
-79.71027683567354
 20
-26.15213260135113
 30
0.0
 11
-78.71032302444041
 21
-25.15212930215353
 31
0.0
  0
LINE
  5
ED
330
1F
100
AcDbEntity
  8
通り芯
  6
Continuous
 62
     3
370
     9
100
AcDbLine
 10
-79.71027683567354
 20
-35.15216229412988
 30
0.0
 11
-78.71032302444041
 21
-36.15216559332748
 31
0.0
  0
LINE
  5
EE
330
1F
100
AcDbEntity
  8
通り芯
  6
Continuous
 62
     3
370
     9
100
AcDbLine
 10
-79.71027683567354
 20
-17.65212930215353
 30
0.0
 11
-79.71027683567354
 21
-8.652149097339361
 31
0.0
  0
LINE
  5
EF
330
1F
100
AcDbEntity
  8
躯体
  6
Continuous
 62
     2
370
     9
100
AcDbLine
 10
-470.510348758182
 20
-37.95219132706904
 30
0.0
 11
-470.510348758182
 21
355.6478106524495
 31
0.0
  0
LINE
  5
F0
330
1F
100
AcDbEntity
  8
通り芯
  6
Continuous
 62
     3
370
     9
100
AcDbLine
 10
313.2027827082456
 20
314.2659747149495
 30
0.0
 11
349.5512967496306
 21
311.0852842588685
 31
0.0
  0
LINE
  5
F1
330
1F
100
AcDbEntity
  8
通り芯
  6
Continuous
 62
     3
370
     9
100
AcDbLine
 10
352.2898617306273
 20
308.0968050570103
 30
0.0
 11
352.2898617306273
 21
231.5329358899918
 31
0.0
  0
LINE
  5
F2
330
1F
100
AcDbEntity
  8
通り芯
  6
Continuous
 62
     3
370
     9
100
AcDbLine
 10
-79.71027683567354
 20
335.347847603463
 30
0.0
 11
-79.71027683567354
 21
326.3477684227198
 31
0.0
  0
LINE
  5
F3
330
1F
100
AcDbEntity
  8
通り芯
  6
Continuous
 62
     3
370
     9
100
AcDbLine
 10
-79.71027683567354
 20
352.8477816195103
 30
0.0
 11
-78.71032302444041
 21
353.8478344066725
 31
0.0
  0
LINE
  5
F4
330
1F
100
AcDbEntity
  8
通り芯
  6
Continuous
 62
     3
370
     9
100
AcDbLine
 10
-79.71027683567354
 20
343.8479003906252
 30
0.0
 11
-78.71032302444041
 21
342.847847603463
 31
0.0
  0
LINE
  5
F5
330
1F
100
AcDbEntity
  8
通り芯
  6
Continuous
 62
     3
370
     9
100
AcDbLine
 10
-79.71027683567354
 20
335.347847603463
 30
0.0
 11
-78.71032302444041
 21
336.3479003906252
 31
0.0
  0
LINE
  5
F6
330
1F
100
AcDbEntity
  8
通り芯
  6
Continuous
 62
     3
370
     9
100
AcDbLine
 10
-78.71032302444041
 20
325.3479135874157
 30
0.0
 11
-79.71027683567354
 21
326.3477684227198
 31
0.0
  0
LINE
  5
F7
330
1F
100
AcDbEntity
  8
通り芯
  6
Continuous
 62
     3
370
     9
100
AcDbLine
 10
-210.7103626148121
 20
325.3479135874157
 30
0.0
 11
-210.7103626148121
 21
318.8477684227198
 31
0.0
  0
LINE
  5
F8
330
1F
100
AcDbEntity
  8
通り芯
  6
Continuous
 62
     3
370
     9
100
AcDbLine
 10
-224.7103098276499
 20
325.3479135874157
 30
0.0
 11
-224.7103098276499
 21
318.8477684227198
 31
0.0
  0
LINE
  5
F9
330
1F
100
AcDbEntity
  8
通り芯
  6
Continuous
 62
     3
370
     9
100
AcDbLine
 10
-78.71032302444041
 20
318.8477684227198
 30
0.0
 11
-79.71027683567354
 21
317.8479135874157
 31
0.0
  0
LINE
  5
FA
330
1F
100
AcDbEntity
  8
通り芯
  6
Continuous
 62
     3
370
     9
100
AcDbLine
 10
-210.7103626148121
 20
342.847847603463
 30
0.0
 11
-210.7103626148121
 21
336.3479003906252
 31
0.0
  0
LINE
  5
FB
330
1F
100
AcDbEntity
  8
通り芯
  6
Continuous
 62
     3
370
     9
100
AcDbLine
 10
-224.7103098276499
 20
342.847847603463
 30
0.0
 11
-224.7103098276499
 21
336.3479003906252
 31
0.0
  0
LINE
  5
FC
330
1F
100
AcDbEntity
  8
通り芯
  6
Continuous
 62
     3
370
     9
100
AcDbLine
 10
-92.21034281962625
 20
325.3479135874157
 30
0.0
 11
-92.21034281962625
 21
318.8477684227198
 31
0.0
  0
LINE
  5
FD
330
1F
100
AcDbEntity
  8
通り芯
  6
Continuous
 62
     3
370
     9
100
AcDbLine
 10
-92.21034281962625
 20
342.847847603463
 30
0.0
 11
-92.21034281962625
 21
336.3479003906252
 31
0.0
  0
LINE
  5
FE
330
1F
100
AcDbEntity
  8
通り芯
  6
Continuous
 62
     3
370
     9
100
AcDbLine
 10
-79.71027683567354
 20
352.8477816195103
 30
0.0
 11
-79.71027683567354
 21
343.8479003906252
 31
0.0
  0
LINE
  5
FF
330
1F
100
AcDbEntity
  8
通り芯
  6
Continuous
 62
     3
370
     9
100
AcDbLine
 10
-452.2103428196262
 20
305.347847603463
 30
0.0
 11
-95.21030322925458
 21
305.347847603463
 31
0.0
  0
LINE
  5
100
330
1F
100
AcDbEntity
  8
通り芯
  6
Continuous
 62
     3
370
     9
100
AcDbLine
 10
-452.2103428196262
 20
308.8478344066725
 30
0.0
 11
-95.21030322925458
 21
308.8478344066725
 31
0.0
  0
LINE
  5
101
330
1F
100
AcDbEntity
  8
通り芯
  6
Continuous
 62
     3
370
     9
100
AcDbLine
 10
-467.7103197252428
 20
317.8479135874157
 30
0.0
 11
-79.71027683567354
 21
317.8479135874157
 31
0.0
  0
LINE
  5
102
330
1F
100
AcDbEntity
  8
通り芯
  6
Continuous
 62
     3
370
     9
100
AcDbLine
 10
-468.7103230244404
 20
318.8477684227198
 30
0.0
 11
-78.71032302444041
 21
318.8477684227198
 31
0.0
  0
LINE
  5
103
330
1F
100
AcDbEntity
  8
通り芯
  6
Continuous
 62
     3
370
     9
100
AcDbLine
 10
-468.7103230244404
 20
325.3479135874157
 30
0.0
 11
-78.71032302444041
 21
325.3479135874157
 31
0.0
  0
LINE
  5
104
330
1F
100
AcDbEntity
  8
通り芯
  6
Continuous
 62
     3
370
     9
100
AcDbLine
 10
-467.7103197252428
 20
326.3477684227198
 30
0.0
 11
-79.71027683567354
 21
326.3477684227198
 31
0.0
  0
LINE
  5
105
330
1F
100
AcDbEntity
  8
通り芯
  6
Continuous
 62
     3
370
     9
100
AcDbLine
 10
-467.7103197252428
 20
335.347847603463
 30
0.0
 11
-79.71027683567354
 21
335.347847603463
 31
0.0
  0
LINE
  5
106
330
1F
100
AcDbEntity
  8
通り芯
  6
Continuous
 62
     3
370
     9
100
AcDbLine
 10
-468.7103230244404
 20
336.3479003906252
 30
0.0
 11
-78.71032302444041
 21
336.3479003906252
 31
0.0
  0
LINE
  5
107
330
1F
100
AcDbEntity
  8
通り芯
  6
Continuous
 62
     3
370
     9
100
AcDbLine
 10
-468.7103230244404
 20
342.847847603463
 30
0.0
 11
-78.71032302444041
 21
342.847847603463
 31
0.0
  0
LINE
  5
108
330
1F
100
AcDbEntity
  8
通り芯
  6
Continuous
 62
     3
370
     9
100
AcDbLine
 10
-467.7103197252428
 20
343.8479003906252
 30
0.0
 11
-79.71027683567354
 21
343.8479003906252
 31
0.0
  0
LINE
  5
109
330
1F
100
AcDbEntity
  8
通り芯
  6
Continuous
 62
     3
370
     9
100
AcDbLine
 10
-467.7103197252428
 20
352.8477816195103
 30
0.0
 11
-79.71027683567354
 21
352.8477816195103
 31
0.0
  0
LINE
  5
10A
330
1F
100
AcDbEntity
  8
通り芯
  6
Continuous
 62
     3
370
     9
100
AcDbLine
 10
-468.7103230244404
 20
353.8478344066725
 30
0.0
 11
-78.71032302444041
 21
353.8478344066725
 31
0.0
  0
LINE
  5
10B
330
1F
100
AcDbEntity
  8
通り芯
  6
Continuous
 62
     3
370
     9
100
AcDbLine
 10
-468.7103230244404
 20
353.8478344066725
 30
0.0
 11
-468.7103230244404
 21
-36.15216559332748
 31
0.0
  0
LINE
  5
10C
330
1F
100
AcDbEntity
  8
通り芯
  6
Continuous
 62
     3
370
     9
100
AcDbLine
 10
-467.7103197252428
 20
352.8477816195103
 30
0.0
 11
-467.7103197252428
 21
343.8479003906252
 31
0.0
  0
LINE
  5
10D
330
1F
100
AcDbEntity
  8
通り芯
  6
Continuous
 62
     3
370
     9
100
AcDbLine
 10
-458.7103395204286
 20
302.3478871938346
 30
0.0
 11
-458.7103395204286
 21
15.3478311074748
 31
0.0
  0
LINE
  5
10E
330
1F
100
AcDbEntity
  8
通り芯
  6
Continuous
 62
     3
370
     9
100
AcDbLine
 10
-455.2103527172192
 20
342.847847603463
 30
0.0
 11
-455.2103527172192
 21
336.3479003906252
 31
0.0
  0
LINE
  5
10F
330
1F
100
AcDbEntity
  8
通り芯
  6
Continuous
 62
     3
370
     9
100
AcDbLine
 10
-455.2103527172192
 20
302.3478871938346
 30
0.0
 11
-455.2103527172192
 21
15.3478311074748
 31
0.0
  0
LINE
  5
110
330
1F
100
AcDbEntity
  8
通り芯
  6
Continuous
 62
     3
370
     9
100
AcDbLine
 10
-455.2103527172192
 20
325.3479135874157
 30
0.0
 11
-455.2103527172192
 21
318.8477684227198
 31
0.0
  0
LINE
  5
111
330
1F
100
AcDbEntity
  8
通り芯
  6
Continuous
 62
     3
370
     9
100
AcDbLine
 10
-322.7103362212309
 20
342.847847603463
 30
0.0
 11
-322.7103362212309
 21
336.3479003906252
 31
0.0
  0
LINE
  5
112
330
1F
100
AcDbEntity
  8
通り芯
  6
Continuous
 62
     3
370
     9
100
AcDbLine
 10
-336.7103329220333
 20
342.847847603463
 30
0.0
 11
-336.7103329220333
 21
336.3479003906252
 31
0.0
  0
LINE
  5
113
330
1F
100
AcDbEntity
  8
通り芯
  6
Continuous
 62
     3
370
     9
100
AcDbLine
 10
-468.7103230244404
 20
318.8477684227198
 30
0.0
 11
-467.7103197252428
 21
317.8479135874157
 31
0.0
  0
LINE
  5
114
330
1F
100
AcDbEntity
  8
通り芯
  6
Continuous
 62
     3
370
     9
100
AcDbLine
 10
-322.7103362212309
 20
325.3479135874157
 30
0.0
 11
-322.7103362212309
 21
318.8477684227198
 31
0.0
  0
LINE
  5
115
330
1F
100
AcDbEntity
  8
通り芯
  6
Continuous
 62
     3
370
     9
100
AcDbLine
 10
-336.7103329220333
 20
325.3479135874157
 30
0.0
 11
-336.7103329220333
 21
318.8477684227198
 31
0.0
  0
LINE
  5
116
330
1F
100
AcDbEntity
  8
通り芯
  6
Continuous
 62
     3
370
     9
100
AcDbLine
 10
-468.7103230244404
 20
325.3479135874157
 30
0.0
 11
-467.7103197252428
 21
326.3477684227198
 31
0.0
  0
LINE
  5
117
330
1F
100
AcDbEntity
  8
通り芯
  6
Continuous
 62
     3
370
     9
100
AcDbLine
 10
-467.7103197252428
 20
335.347847603463
 30
0.0
 11
-468.7103230244404
 21
336.3479003906252
 31
0.0
  0
LINE
  5
118
330
1F
100
AcDbEntity
  8
通り芯
  6
Continuous
 62
     3
370
     9
100
AcDbLine
 10
-467.7103197252428
 20
343.8479003906252
 30
0.0
 11
-468.7103230244404
 21
342.847847603463
 31
0.0
  0
LINE
  5
119
330
1F
100
AcDbEntity
  8
通り芯
  6
Continuous
 62
     3
370
     9
100
AcDbLine
 10
-467.7103197252428
 20
352.8477816195103
 30
0.0
 11
-468.7103230244404
 21
353.8478344066725
 31
0.0
  0
LINE
  5
11A
330
1F
100
AcDbEntity
  8
通り芯
  6
Continuous
 62
     3
370
     9
100
AcDbLine
 10
-467.7103197252428
 20
317.8479135874157
 30
0.0
 11
-467.7103197252428
 21
-0.1521457981417598
 31
0.0
  0
LINE
  5
11B
330
1F
100
AcDbEntity
  8
通り芯
  6
Continuous
 62
     3
370
     9
100
AcDbLine
 10
-467.7103197252428
 20
335.347847603463
 30
0.0
 11
-467.7103197252428
 21
326.3477684227198
 31
0.0
  0
LINE
  5
11C
330
1F
100
AcDbEntity
  8
通り芯
  6
Continuous
 62
     3
370
     9
100
AcDbLine
 10
361.7600765743773
 20
304.2412967166387
 30
0.0
 11
370.2898221402556
 21
226.8478113122891
 31
0.0
  0
LINE
  5
11D
330
1F
100
AcDbEntity
  8
通り芯
  6
Continuous
 62
     3
370
     9
100
AcDbLine
 10
-467.7103197252428
 20
-17.65212930215353
 30
0.0
 11
-467.7103197252428
 21
-8.652149097339361
 31
0.0
  0
LINE
  5
11E
330
1F
100
AcDbEntity
  8
通り芯
  6
Continuous
 62
     3
370
     9
100
AcDbLine
 10
-467.7103197252428
 20
-35.15216229412988
 30
0.0
 11
-468.7103230244404
 21
-36.15216559332748
 31
0.0
  0
LINE
  5
11F
330
1F
100
AcDbEntity
  8
通り芯
  6
Continuous
 62
     3
370
     9
100
AcDbLine
 10
-467.7103197252428
 20
-26.15213260135113
 30
0.0
 11
-468.7103230244404
 21
-25.15212930215353
 31
0.0
  0
LINE
  5
120
330
1F
100
AcDbEntity
  8
通り芯
  6
Continuous
 62
     3
370
     9
100
AcDbLine
 10
-467.7103197252428
 20
-17.65212930215353
 30
0.0
 11
-468.7103230244404
 21
-18.65213260135113
 31
0.0
  0
LINE
  5
121
330
1F
100
AcDbEntity
  8
通り芯
  6
Continuous
 62
     3
370
     9
100
AcDbLine
 10
-468.7103230244404
 20
-7.65214579814176
 30
0.0
 11
-467.7103197252428
 21
-8.652149097339361
 31
0.0
  0
LINE
  5
122
330
1F
100
AcDbEntity
  8
通り芯
  6
Continuous
 62
     3
370
     9
100
AcDbLine
 10
365.4358446275864
 20
309.6186589421454
 30
0.0
 11
366.2898089434652
 21
309.8474912901185
 31
0.0
  0
LINE
  5
123
330
1F
100
AcDbEntity
  8
通り芯
  6
Continuous
 62
     3
370
     9
100
AcDbLine
 10
320.2898551322319
 20
-32.76941577808259
 30
0.0
 11
320.2898551322319
 21
-28.53497809332748
 31
0.0
  0
LINE
  5
124
330
1F
100
AcDbEntity
  8
通り芯
  6
Continuous
 62
     3
370
     9
100
AcDbLine
 10
312.2898287386506
 20
-36.15216559332748
 30
0.0
 11
312.2898287386506
 21
-35.53495169974644
 31
0.0
  0
LINE
  5
125
330
1F
100
AcDbEntity
  8
通り芯
  6
Continuous
 62
     3
370
     9
100
AcDbLine
 10
306.2898089434652
 20
-34.30502731735623
 30
0.0
 11
306.2898089434652
 21
-26.99931706608936
 31
0.0
  0
LINE
  5
126
330
1F
100
AcDbEntity
  8
通り芯
  6
Continuous
 62
     3
370
     9
100
AcDbLine
 10
-336.7103329220333
 20
-7.65214579814176
 30
0.0
 11
-336.7103329220333
 21
-1.152149097339361
 31
0.0
  0
LINE
  5
127
330
1F
100
AcDbEntity
  8
通り芯
  6
Continuous
 62
     3
370
     9
100
AcDbLine
 10
-322.7103362212309
 20
-7.65214579814176
 30
0.0
 11
-322.7103362212309
 21
-1.152149097339361
 31
0.0
  0
LINE
  5
128
330
1F
100
AcDbEntity
  8
通り芯
  6
Continuous
 62
     3
370
     9
100
AcDbLine
 10
-468.7103230244404
 20
-1.152149097339361
 30
0.0
 11
-467.7103197252428
 21
-0.1521457981417598
 31
0.0
  0
LINE
  5
129
330
1F
100
AcDbEntity
  8
通り芯
  6
Continuous
 62
     3
370
     9
100
AcDbLine
 10
-336.7103329220333
 20
-25.15212930215353
 30
0.0
 11
-336.7103329220333
 21
-18.65213260135113
 31
0.0
  0
LINE
  5
12A
330
1F
100
AcDbEntity
  8
通り芯
  6
Continuous
 62
     3
370
     9
100
AcDbLine
 10
-322.7103362212309
 20
-25.15212930215353
 30
0.0
 11
-322.7103362212309
 21
-18.65213260135113
 31
0.0
  0
LINE
  5
12B
330
1F
100
AcDbEntity
  8
通り芯
  6
Continuous
 62
     3
370
     9
100
AcDbLine
 10
-455.2103527172192
 20
-7.65214579814176
 30
0.0
 11
-455.2103527172192
 21
-1.152149097339361
 31
0.0
  0
LINE
  5
12C
330
1F
100
AcDbEntity
  8
通り芯
  6
Continuous
 62
     3
370
     9
100
AcDbLine
 10
-455.2103527172192
 20
-25.15212930215353
 30
0.0
 11
-455.2103527172192
 21
-18.65213260135113
 31
0.0
  0
LINE
  5
12D
330
1F
100
AcDbEntity
  8
通り芯
  6
Continuous
 62
     3
370
     9
100
AcDbLine
 10
-467.7103197252428
 20
-35.15216229412988
 30
0.0
 11
-467.7103197252428
 21
-26.15213260135113
 31
0.0
  0
LINE
  5
12E
330
1F
100
AcDbEntity
  8
躯体
  6
Continuous
 62
     2
370
     9
100
AcDbLine
 10
-473.7103395204286
 20
-41.15213260135113
 30
0.0
 11
-473.7103395204286
 21
358.8479003906252
 31
0.0
  0
LINE
  5
12F
330
1F
100
AcDbEntity
  8
躯体
  6
Continuous
 62
     2
370
     9
100
AcDbLine
 10
-369.2103164260452
 20
363.3479399809968
 30
0.0
 11
-369.2103164260452
 21
387.847847603463
 31
0.0
  0
LINE
  5
130
330
1F
100
AcDbEntity
  8
躯体
  6
Continuous
 62
     2
370
     9
100
AcDbLine
 10
-378.2103461188238
 20
363.3479399809968
 30
0.0
 11
-378.2103461188238
 21
387.847847603463
 31
0.0
  0
LINE
  5
131
330
1F
100
AcDbEntity
  8
躯体
  6
Continuous
 62
     2
370
     9
100
AcDbLine
 10
-378.2103461188238
 20
387.847847603463
 30
0.0
 11
-369.2103164260452
 21
387.847847603463
 31
0.0
  0
LINE
  5
132
330
1F
100
AcDbEntity
  8
躯体
  6
Continuous
 62
     2
370
     9
100
AcDbLine
 10
-473.7103395204286
 20
-41.15213260135113
 30
0.0
 11
-73.71035601641677
 21
-41.15213260135113
 31
0.0
  0
LINE
  5
133
330
1F
100
AcDbEntity
  8
躯体
  6
Continuous
 62
     2
370
     9
100
AcDbLine
 10
-470.510348758182
 20
-37.95219132706904
 30
0.0
 11
-76.91034677866332
 21
-37.95219132706904
 31
0.0
  0
LINE
  5
134
330
1F
100
AcDbEntity
  8
躯体
  6
Continuous
 62
     2
370
     9
100
AcDbLine
 10
-169.2103494180215
 20
-70.15217879011811
 30
0.0
 11
-178.2103296228357
 21
-70.15217879011811
 31
0.0
  0
LINE
  5
135
330
1F
100
AcDbEntity
  8
躯体
  6
Continuous
 62
     2
370
     9
100
AcDbLine
 10
-169.2103494180215
 20
-45.65227116765186
 30
0.0
 11
-169.2103494180215
 21
-70.15217879011811
 31
0.0
  0
LINE
  5
136
330
1F
100
AcDbEntity
  8
躯体
  6
Continuous
 62
     2
370
     9
100
AcDbLine
 10
-178.2103296228357
 20
-45.65227116765186
 30
0.0
 11
-178.2103296228357
 21
-70.15217879011811
 31
0.0
  0
LINE
  5
137
330
1F
100
AcDbEntity
  8
躯体
  6
Continuous
 62
     2
370
     9
100
AcDbLine
 10
-369.2103164260452
 20
-45.65227116765186
 30
0.0
 11
-369.2103164260452
 21
-70.15217879011811
 31
0.0
  0
LINE
  5
138
330
1F
100
AcDbEntity
  8
躯体
  6
Continuous
 62
     2
370
     9
100
AcDbLine
 10
-378.2103461188238
 20
-45.65227116765186
 30
0.0
 11
-378.2103461188238
 21
-70.15217879011811
 31
0.0
  0
LINE
  5
139
330
1F
100
AcDbEntity
  8
躯体
  6
Continuous
 62
     2
370
     9
100
AcDbLine
 10
-378.2103461188238
 20
-70.15217879011811
 30
0.0
 11
-369.2103164260452
 21
-70.15217879011811
 31
0.0
  0
LINE
  5
13A
330
1F
100
AcDbEntity
  8
躯体
  6
JWW_CENTER1
 62
     2
370
     9
100
AcDbLine
 10
-173.7102900324641
 20
351.647797455659
 30
0.0
 11
-173.7102900324641
 21
391.8478608002536
 31
0.0
  0
LINE
  5
13B
330
1F
100
AcDbEntity
  8
躯体
  6
JWW_CENTER1
 62
     2
370
     9
100
AcDbLine
 10
-165.2103362212309
 20
363.3479399809968
 30
0.0
 11
-182.2103428196262
 21
363.3479399809968
 31
0.0
  0
LINE
  5
13C
330
1F
100
AcDbEntity
  8
躯体
  6
JWW_CENTER1
 62
     2
370
     9
100
AcDbLine
 10
-373.7103560164168
 20
351.647797455659
 30
0.0
 11
-373.7103560164168
 21
391.8478608002536
 31
0.0
  0
LINE
  5
13D
330
1F
100
AcDbEntity
  8
躯体
  6
JWW_CENTER1
 62
     2
370
     9
100
AcDbLine
 10
-365.2104022051836
 20
363.3479399809968
 30
0.0
 11
-382.2103593156144
 21
363.3479399809968
 31
0.0
  0
LINE
  5
13E
330
1F
100
AcDbEntity
  8
躯体
  6
JWW_CENTER1
 62
     2
370
     9
100
AcDbLine
 10
-373.7103560164168
 20
-33.95202966638499
 30
0.0
 11
-373.7103560164168
 21
-74.15209301097957
 31
0.0
  0
LINE
  5
13F
330
1F
100
AcDbEntity
  8
躯体
  6
JWW_CENTER1
 62
     2
370
     9
100
AcDbLine
 10
-382.2103098276499
 20
-45.6521721917228
 30
0.0
 11
-365.2103527172191
 21
-45.6521721917228
 31
0.0
  0
LINE
  5
140
330
1F
100
AcDbEntity
  8
躯体
  6
JWW_CENTER1
 62
     2
370
     9
100
AcDbLine
 10
-173.7102900324641
 20
-33.95202966638499
 30
0.0
 11
-173.7102900324641
 21
-74.15209301097957
 31
0.0
  0
LINE
  5
141
330
1F
100
AcDbEntity
  8
躯体
  6
JWW_CENTER1
 62
     2
370
     9
100
AcDbLine
 10
-182.2103428196262
 20
-45.6521721917228
 30
0.0
 11
-165.2103362212309
 21
-45.6521721917228
 31
0.0
  0
LINE
  5
142
330
1F
100
AcDbEntity
  8
躯体
  6
JWW_CENTER1
 62
     2
370
     9
100
AcDbLine
 10
388.9898392960831
 20
391.8478608002536
 30
0.0
 11
388.9898392960831
 21
372.847847603463
 31
0.0
  0
LINE
  5
143
330
1F
100
AcDbEntity
  8
躯体
  6
JWW_CENTER1
 62
     2
370
     9
100
AcDbLine
 10
350.489786508921
 20
363.3479399809968
 30
0.0
 11
379.4898326976881
 21
363.3479399809968
 31
0.0
  0
LINE
  5
144
330
1F
100
AcDbEntity
  8
躯体
  6
JWW_CENTER1
 62
     2
370
     9
100
AcDbLine
 10
350.489786508921
 20
-45.6521721917228
 30
0.0
 11
379.4898326976881
 21
-45.6521721917228
 31
0.0
  0
LINE
  5
145
330
1F
100
AcDbEntity
  8
躯体
  6
Continuous
 62
     2
370
     9
100
AcDbLine
 10
-73.71035601641677
 20
358.8479003906252
 30
0.0
 11
-78.71032302444041
 21
353.8478344066725
 31
0.0
  0
LINE
  5
146
330
1F
100
AcDbEntity
  8
躯体
  6
Continuous
 62
     2
370
     9
100
AcDbLine
 10
-92.21034281962625
 20
340.3479135874157
 30
0.0
 11
-96.21035601641677
 21
336.3479003906252
 31
0.0
  0
LINE
  5
147
330
1F
100
AcDbEntity
  8
躯体
  6
Continuous
 62
     2
370
     9
100
AcDbLine
 10
-107.2103428196262
 20
325.3479135874157
 30
0.0
 11
-113.7104879843222
 21
318.8477684227198
 31
0.0
  0
LINE
  5
148
330
1F
100
AcDbEntity
  8
躯体
  6
Continuous
 62
     2
370
     9
100
AcDbLine
 10
-473.7102900324641
 20
358.8479003906252
 30
0.0
 11
-468.7103230244404
 21
353.8478344066725
 31
0.0
  0
LINE
  5
149
330
1F
100
AcDbEntity
  8
躯体
  6
Continuous
 62
     2
370
     9
100
AcDbLine
 10
-455.2103032292546
 20
340.3479135874157
 30
0.0
 11
-451.2102900324641
 21
336.3479003906252
 31
0.0
  0
LINE
  5
14A
330
1F
100
AcDbEntity
  8
躯体
  6
Continuous
 62
     2
370
     9
100
AcDbLine
 10
-440.2103527172192
 20
325.3479135874157
 30
0.0
 11
-433.7102075525232
 21
318.8477684227198
 31
0.0
  0
LINE
  5
14B
330
1F
100
AcDbEntity
  8
躯体
  6
Continuous
 62
     2
370
     9
100
AcDbLine
 10
-73.71035601641677
 20
-41.15223157728019
 30
0.0
 11
-78.71032302444041
 21
-36.15216559332748
 31
0.0
  0
LINE
  5
14C
330
1F
100
AcDbEntity
  8
躯体
  6
Continuous
 62
     2
370
     9
100
AcDbLine
 10
-92.21034281962625
 20
-22.65224477407082
 30
0.0
 11
-96.21035601641677
 21
-18.65223157728019
 31
0.0
  0
LINE
  5
14D
330
1F
100
AcDbEntity
  8
躯体
  6
Continuous
 62
     2
370
     9
100
AcDbLine
 10
-107.2103428196262
 20
-7.652244774070823
 30
0.0
 11
-113.7104879843222
 21
-1.152099609374773
 31
0.0
  0
LINE
  5
14E
330
1F
100
AcDbEntity
  8
躯体
  6
Continuous
 62
     2
370
     9
100
AcDbLine
 10
-473.7102900324641
 20
-41.15223157728019
 30
0.0
 11
-468.7103230244404
 21
-36.15216559332748
 31
0.0
  0
LINE
  5
14F
330
1F
100
AcDbEntity
  8
躯体
  6
Continuous
 62
     2
370
     9
100
AcDbLine
 10
-455.2103032292546
 20
-22.65224477407082
 30
0.0
 11
-451.2102900324641
 21
-18.65223157728019
 31
0.0
  0
LINE
  5
150
330
1F
100
AcDbEntity
  8
躯体
  6
Continuous
 62
     2
370
     9
100
AcDbLine
 10
-440.2103527172192
 20
-7.652244774070823
 30
0.0
 11
-433.7102075525232
 21
-1.152099609374773
 31
0.0
  0
LINE
  5
151
330
1F
100
AcDbEntity
  8
通り芯
  6
JWW_CENTER1
 62
     3
370
     9
100
AcDbLine
 10
-273.7103230244404
 20
-61.15214909733936
 30
0.0
 11
-273.7103230244404
 21
378.8478673986489
 31
0.0
  0
LINE
  5
152
330
1F
100
AcDbEntity
  8
0-F
  6
Continuous
 62
     7
370
     9
100
AcDbLine
 10
-173.7102405444996
 20
395.8478739970441
 30
0.0
 11
-173.7102405444996
 21
429.0478647592907
 31
0.0
  0
LINE
  5
153
330
1F
100
AcDbEntity
  8
0-F
  6
Continuous
 62
     7
370
     9
100
AcDbLine
 10
-373.7101580645586
 20
395.8478739970441
 30
0.0
 11
-373.7101580645586
 21
429.0478647592907
 31
0.0
  0
LINE
  5
154
330
1F
100
AcDbEntity
  8
0-F
  6
Continuous
 62
     7
370
     9
100
AcDbLine
 10
373.4898129025023
 20
308.8478344066725
 30
0.0
 11
459.6897310824011
 21
308.8478344066725
 31
0.0
  0
LINE
  5
155
330
1F
100
AcDbEntity
  8
0-F
  6
Continuous
 62
     7
370
     9
100
AcDbLine
 10
397.4897931073165
 20
358.8478014146962
 30
0.0
 11
459.6897310824011
 21
358.8478014146962
 31
0.0
  0
LINE
  5
156
330
1F
100
AcDbEntity
  8
0-F
  6
Continuous
 62
     7
370
     9
100
AcDbLine
 10
397.4897931073165
 20
387.847847603463
 30
0.0
 11
459.6897310824011
 21
387.847847603463
 31
0.0
  0
LINE
  5
157
330
1F
100
AcDbEntity
  8
通り芯
  6
JWW_CENTER1
 62
     3
370
     9
100
AcDbLine
 10
286.2898419354415
 20
158.8478344066725
 30
0.0
 11
390.2897891482794
 21
158.8478344066725
 31
0.0
  0
LINE
  5
158
330
1F
100
AcDbEntity
  8
0-F
  6
Continuous
 62
     7
370
     9
100
AcDbLine
 10
361.669909503009
 20
133.6675167599242
 30
0.0
 11
383.6410811140731
 21
133.6675167599242
 31
0.0
  0
LINE
  5
159
330
1F
100
AcDbEntity
  8
0-F
  6
Continuous
 62
     7
370
     9
100
AcDbLine
 10
370.2898221402556
 20
112.2244312183279
 30
0.0
 11
382.187124716269
 21
113.7907252956082
 31
0.0
  0
LINE
  5
15A
330
1F
100
AcDbEntity
  8
0-F
  6
Continuous
 62
     7
370
     9
100
AcDbLine
 10
370.2898221402556
 20
112.2244312183279
 30
0.0
 11
382.187124716269
 21
110.6581371410475
 31
0.0
  0
LINE
  5
15B
330
1F
100
AcDbEntity
  8
0-F
  6
Continuous
 62
     7
370
     9
100
AcDbLine
 10
397.4897931073165
 20
-70.15212930215353
 30
0.0
 11
459.6897310824011
 21
-70.15212930215353
 31
0.0
  0
LINE
  5
15C
330
1F
100
AcDbEntity
  8
0-F
  6
Continuous
 62
     7
370
     9
100
AcDbLine
 10
397.4897931073165
 20
-41.15213260135113
 30
0.0
 11
459.6897310824011
 21
-41.15213260135113
 31
0.0
  0
LINE
  5
15D
330
1F
100
AcDbEntity
  8
0-F
  6
Continuous
 62
     7
370
     9
100
AcDbLine
 10
373.4898129025023
 20
8.847834406672519
 30
0.0
 11
459.6897310824011
 21
8.847834406672519
 31
0.0
  0
LINE
  5
15E
330
1F
100
AcDbEntity
  8
躯体
  6
Continuous
 62
     2
370
     9
100
AcDbLine
 10
-467.5104378365181
 20
-340.1520798141891
 30
0.0
 11
-423.7104220003695
 21
-340.1520798141891
 31
0.0
  0
LINE
  5
15F
330
1F
100
AcDbEntity
  8
躯体
  6
Continuous
 62
     2
370
     9
100
AcDbLine
 10
-470.5103982461465
 20
-280.1520798141891
 30
0.0
 11
-470.5103982461465
 21
-337.1521194045606
 31
0.0
  0
LINE
  5
160
330
1F
100
AcDbEntity
  8
躯体
  6
Continuous
 62
     2
370
     9
100
AcDbLine
 10
-467.7103692132073
 20
-343.3520705764356
 30
0.0
 11
-423.7104220003695
 21
-343.3520705764356
 31
0.0
  0
LINE
  5
161
330
1F
100
AcDbEntity
  8
躯体
  6
Continuous
 62
     2
370
     9
100
AcDbLine
 10
-473.7102900324641
 20
-280.1520798141891
 30
0.0
 11
-470.5103982461465
 21
-280.1520798141891
 31
0.0
  0
LINE
  5
162
330
1F
100
AcDbEntity
  8
躯体
  6
Continuous
 62
     2
370
     9
100
AcDbLine
 10
-423.7104220003695
 20
-340.1520798141891
 30
0.0
 11
-423.7104220003695
 21
-343.3520705764356
 31
0.0
  0
LINE
  5
163
330
1F
100
AcDbEntity
  8
躯体
  6
Continuous
 62
     2
370
     9
100
AcDbLine
 10
-123.7103725124049
 20
-340.1520798141891
 30
0.0
 11
-123.7103725124049
 21
-343.3520705764356
 31
0.0
  0
LINE
  5
164
330
1F
100
AcDbEntity
  8
躯体
  6
Continuous
 62
     2
370
     9
100
AcDbLine
 10
-73.71030652845218
 20
-280.1520798141891
 30
0.0
 11
-76.91039626662791
 21
-280.1520798141891
 31
0.0
  0
LINE
  5
165
330
1F
100
AcDbEntity
  8
躯体
  6
Continuous
 62
     2
370
     9
100
AcDbLine
 10
-79.71042529956708
 20
-343.3520705764356
 30
0.0
 11
-123.7103725124049
 21
-343.3520705764356
 31
0.0
  0
LINE
  5
166
330
1F
100
AcDbEntity
  8
躯体
  6
Continuous
 62
     2
370
     9
100
AcDbLine
 10
-76.91039626662791
 20
-280.1520798141891
 30
0.0
 11
-76.91039626662791
 21
-337.1521194045606
 31
0.0
  0
LINE
  5
167
330
1F
100
AcDbEntity
  8
躯体
  6
Continuous
 62
     2
370
     9
100
AcDbLine
 10
-79.9104556521853
 20
-340.1520798141891
 30
0.0
 11
-123.7103725124049
 21
-340.1520798141891
 31
0.0
  0
LINE
  5
168
330
1F
100
AcDbEntity
  8
躯体
  6
Continuous
 62
     2
370
     9
100
AcDbLine
 10
-473.7102900324641
 20
-280.1520798141891
 30
0.0
 11
-473.7102900324641
 21
-337.3520507812499
 31
0.0
  0
LINE
  5
169
330
1F
100
AcDbEntity
  8
躯体
  6
Continuous
 62
     2
370
     9
100
AcDbLine
 10
-73.71030652845218
 20
-280.1520798141891
 30
0.0
 11
-73.71030652845218
 21
-337.3520507812499
 31
0.0
  0
LINE
  5
16A
330
1F
100
AcDbEntity
  8
通り芯
  6
Continuous
 62
     3
370
     9
100
AcDbLine
 10
-79.57106719145895
 20
-280.9876840952279
 30
0.0
 11
-78.71032302444041
 21
-286.1520996093748
 31
0.0
  0
LINE
  5
16B
330
1F
100
AcDbEntity
  8
通り芯
  6
Continuous
 62
     3
370
     9
100
AcDbLine
 10
-86.39288412558062
 20
-322.5007126266891
 30
0.0
 11
-83.37213877085082
 21
-287.9777106207769
 31
0.0
  0
LINE
  5
16C
330
1F
100
AcDbEntity
  8
通り芯
  6
Continuous
 62
     3
370
     9
100
AcDbLine
 10
-81.37975331899281
 20
-286.1520996093748
 30
0.0
 11
-78.71032302444041
 21
-286.1520996093748
 31
0.0
  0
LINE
  5
16D
330
1F
100
AcDbEntity
  8
通り芯
  6
JWW_CENTER1
 62
     3
370
     9
100
AcDbLine
 10
-273.7103230244404
 20
-260.1521128061654
 30
0.0
 11
-273.7103230244404
 21
-364.1520600190032
 31
0.0
  0
LINE
  5
16E
330
1F
100
AcDbEntity
  8
0-F
  6
Continuous
 62
     7
370
     9
100
AcDbLine
 10
-33.17238885003167
 20
-180.1520963101773
 30
0.0
 11
-510.2481450261296
 21
-180.1520963101773
 31
0.0
  0
LINE
  5
16F
330
1F
100
AcDbEntity
  8
0-F
  6
Continuous
 62
     7
370
     9
100
AcDbLine
 10
-458.7102900324641
 20
-220.1520798141891
 30
0.0
 11
-88.71030652845218
 21
-220.1520798141891
 31
0.0
  0
LINE
  5
170
330
1F
100
AcDbEntity
  8
通り芯
  6
Continuous
 62
     3
370
     9
100
AcDbLine
 10
-91.97067260742188
 20
-317.4135973131333
 30
0.0
 11
-88.79018010319885
 21
-281.0649348078546
 31
0.0
  0
LINE
  5
171
330
1F
100
AcDbEntity
  8
0-F
  6
Continuous
 62
     7
370
     9
100
AcDbLine
 10
-88.71030652845218
 20
-276.1520666173985
 30
0.0
 11
-88.71030652845218
 21
-218.9520956503377
 31
0.0
  0
LINE
  5
172
330
1F
100
AcDbEntity
  8
0-F
  6
Continuous
 62
     7
370
     9
100
AcDbLine
 10
-458.7102900324641
 20
-276.1520666173985
 30
0.0
 11
-458.7102900324641
 21
-218.9520956503377
 31
0.0
  0
LINE
  5
173
330
1F
100
AcDbEntity
  8
0-F
  6
Continuous
 62
     7
370
     9
100
AcDbLine
 10
246.2898089434651
 20
-36.15196764146947
 30
0.0
 11
246.2898089434651
 21
353.8478344066725
 31
0.0
  0
LINE
  5
174
330
1F
100
AcDbEntity
  8
0-F
  6
Continuous
 62
     7
370
     9
100
AcDbLine
 10
302.2897957466744
 20
8.847834406672519
 30
0.0
 11
245.0898247796137
 21
8.847834406672519
 31
0.0
  0
LINE
  5
175
330
1F
100
AcDbEntity
  8
0-F
  6
Continuous
 62
     7
370
     9
100
AcDbLine
 10
245.0898247796137
 20
308.8478344066725
 30
0.0
 11
302.2897957466744
 21
308.8478344066725
 31
0.0
  0
LINE
  5
176
330
1F
100
AcDbEntity
  8
0-E
  6
Continuous
 62
     7
370
     9
100
AcDbLine
 10
440.6439910063873
 20
467.7297363281252
 30
0.0
 11
393.4897799105256
 21
387.847847603463
 31
0.0
  0
LINE
  5
177
330
1F
100
AcDbEntity
  8
0-E
  6
Continuous
 62
     7
370
     9
100
AcDbLine
 10
440.6439910063873
 20
467.7297363281252
 30
0.0
 11
600.4377581622152
 21
467.7297363281252
 31
0.0
  0
LINE
  5
178
330
1F
100
AcDbEntity
  8
0-F
  6
Continuous
 62
     7
370
     9
100
AcDbLine
 10
366.2898089434652
 20
-101.1521326013512
 30
0.0
 11
354.3925063674515
 21
-102.7184266786317
 31
0.0
  0
LINE
  5
179
330
1F
100
AcDbEntity
  8
0-F
  6
Continuous
 62
     7
370
     9
100
AcDbLine
 10
366.2898089434652
 20
-101.1521326013512
 30
0.0
 11
354.3925063674515
 21
-99.58583852407082
 31
0.0
  0
LINE
  5
17A
330
1F
100
AcDbEntity
  8
0-F
  6
Continuous
 62
     7
370
     9
100
AcDbLine
 10
393.4897799105256
 20
-141.1521655933275
 30
0.0
 11
405.3870824865394
 21
-142.7184596706079
 31
0.0
  0
LINE
  5
17B
330
1F
100
AcDbEntity
  8
0-F
  6
Continuous
 62
     7
370
     9
100
AcDbLine
 10
393.4897799105256
 20
-141.1521655933275
 30
0.0
 11
405.3870824865394
 21
-139.5858715160471
 31
0.0
  0
LINE
  5
17C
330
1F
100
AcDbEntity
  8
0-F
  6
Continuous
 62
     7
370
     9
100
AcDbLine
 10
393.4897799105256
 20
-74.15214249894416
 30
0.0
 11
393.4897799105256
 21
-142.3521497571789
 31
0.0
  0
LINE
  5
17D
330
1F
100
AcDbEntity
  8
0-F
  6
Continuous
 62
     7
370
     9
100
AcDbLine
 10
246.2898089434651
 20
308.8478344066725
 30
0.0
 11
247.8561030207455
 21
296.950531830659
 31
0.0
  0
LINE
  5
17E
330
1F
100
AcDbEntity
  8
0-F
  6
Continuous
 62
     7
370
     9
100
AcDbLine
 10
246.2898089434651
 20
308.8478344066725
 30
0.0
 11
244.7235148661847
 21
296.950531830659
 31
0.0
  0
LINE
  5
17F
330
1F
100
AcDbEntity
  8
0-F
  6
Continuous
 62
     7
370
     9
100
AcDbLine
 10
247.8561030207455
 20
-3.049517657305614
 30
0.0
 11
244.7235148661847
 21
20.74518647065054
 31
0.0
  0
LINE
  5
180
330
1F
100
AcDbEntity
  8
0-F
  6
Continuous
 62
     7
370
     9
100
AcDbLine
 10
244.7235148661847
 20
-3.049517657305614
 30
0.0
 11
247.8561030207455
 21
20.74518647065054
 31
0.0
  0
LINE
  5
181
330
1F
100
AcDbEntity
  8
0-F
  6
Continuous
 62
     7
370
     9
100
AcDbLine
 10
-458.7102900324641
 20
-220.1520798141891
 30
0.0
 11
-446.812937968486
 21
-218.5857609929263
 31
0.0
  0
LINE
  5
182
330
1F
100
AcDbEntity
  8
0-F
  6
Continuous
 62
     7
370
     9
100
AcDbLine
 10
-458.7102900324641
 20
-220.1520798141891
 30
0.0
 11
-446.812937968486
 21
-221.7183986354516
 31
0.0
  0
LINE
  5
183
330
1F
100
AcDbEntity
  8
0-F
  6
Continuous
 62
     7
370
     9
100
AcDbLine
 10
-88.71030652845218
 20
-220.1520798141891
 30
0.0
 11
-100.6076585924303
 21
-221.7183986354516
 31
0.0
  0
LINE
  5
184
330
1F
100
AcDbEntity
  8
0-F
  6
Continuous
 62
     7
370
     9
100
AcDbLine
 10
-88.71030652845218
 20
-220.1520798141891
 30
0.0
 11
-100.6076585924303
 21
-218.5857609929263
 31
0.0
  0
LINE
  5
185
330
1F
100
AcDbEntity
  8
通り芯
  6
Continuous
 62
     3
370
     9
100
AcDbLine
 10
-82.2103098276499
 20
-340.1520798141891
 30
0.0
 11
-78.71032302444041
 21
-286.1520996093748
 31
0.0
  0
LINE
  5
186
330
1F
100
AcDbEntity
  8
通り芯
  6
Continuous
 62
     3
370
     9
100
AcDbLine
 10
-89.21033292203333
 20
-340.1520798141891
 30
0.0
 11
-82.2103098276499
 21
-340.1520798141891
 31
0.0
  0
LINE
  5
187
330
1F
100
AcDbEntity
  8
通り芯
  6
Continuous
 62
     3
370
     9
100
AcDbLine
 10
-89.21033292203333
 20
-340.1520798141891
 30
0.0
 11
-90.11774423960082
 21
-326.1520831133867
 31
0.0
  0
LINE
  5
188
330
1F
100
AcDbEntity
  8
通り芯
  6
Continuous
 62
     3
370
     9
100
AcDbLine
 10
366.2898089434652
 20
346.8478608002536
 30
0.0
 11
366.2898089434652
 21
309.8474912901185
 31
0.0
  0
LINE
  5
189
330
1F
100
AcDbEntity
  8
通り芯
  6
Continuous
 62
     3
370
     9
100
AcDbLine
 10
366.2898089434652
 20
-29.15214249894404
 30
0.0
 11
366.2898089434652
 21
7.848227011191057
 31
0.0
  0
LINE
  5
18A
330
1F
100
AcDbEntity
  8
躯体
  6
Continuous
 62
     2
370
     9
100
AcDbLine
 10
384.4897997057114
 20
-70.15212930215353
 30
0.0
 11
384.4897997057114
 21
-55.15212930215353
 31
0.0
  0
LINE
  5
18B
330
1F
100
AcDbEntity
  8
躯体
  6
JWW_CENTER1
 62
     2
370
     9
100
AcDbLine
 10
388.9898392960831
 20
-74.15214249894416
 30
0.0
 11
388.9898392960831
 21
-55.15212930215353
 31
0.0
  0
LINE
  5
18C
330
1F
100
AcDbEntity
  8
躯体
  6
Continuous
 62
     2
370
     9
100
AcDbLine
 10
393.4897799105256
 20
-55.15212930215353
 30
0.0
 11
393.4897799105256
 21
-70.15212930215353
 31
0.0
  0
LINE
  5
18D
330
1F
100
AcDbEntity
  8
通り芯
  6
Continuous
 62
     3
370
     9
100
AcDbLine
 10
-212.5068747030722
 20
-328.8207958324534
 30
0.0
 11
-214.111521952861
 21
-343.2625221046239
 31
0.0
  0
LINE
  5
18E
330
1F
100
AcDbEntity
  8
通り芯
  6
Continuous
 62
     3
370
     9
100
AcDbLine
 10
-209.5252248403187
 20
-326.1520831133867
 30
0.0
 11
-90.37765502929688
 21
-326.1520831133867
 31
0.0
  0
LINE
  5
18F
330
1F
100
AcDbEntity
  8
通り芯
  6
Continuous
 62
     3
370
     9
100
AcDbLine
 10
-222.9137977393897
 20
-328.8207958324534
 30
0.0
 11
-221.3091504896009
 21
-343.2625221046239
 31
0.0
  0
LINE
  5
190
330
1F
100
AcDbEntity
  8
通り芯
  6
Continuous
 62
     3
370
     9
100
AcDbLine
 10
-214.9628139186549
 20
-344.1418737463048
 30
0.0
 11
-89.80725675015833
 21
-326.1112555426519
 31
0.0
  0
LINE
  5
191
330
1F
100
AcDbEntity
  8
通り芯
  6
Continuous
 62
     3
370
     9
100
AcDbLine
 10
-332.3152573044235
 20
-344.1520930109796
 30
0.0
 11
-215.1053887444573
 21
-344.1520930109796
 31
0.0
  0
LINE
  5
192
330
1F
100
AcDbEntity
  8
通り芯
  6
Continuous
 62
     3
370
     9
100
AcDbLine
 10
-225.8954476021431
 20
-326.1520831133867
 30
0.0
 11
-321.5251984467377
 21
-326.1520831133867
 31
0.0
  0
LINE
  5
193
330
1F
100
AcDbEntity
  8
通り芯
  6
Continuous
 62
     3
370
     9
100
AcDbLine
 10
-80.55746130041166
 20
-280.1520798141891
 30
0.0
 11
-466.8631847484692
 21
-280.1520798141891
 31
0.0
  0
LINE
  5
194
330
1F
100
AcDbEntity
  8
通り芯
  6
Continuous
 62
     3
370
     9
100
AcDbLine
 10
-94.95925078520895
 20
-320.1521128061654
 30
0.0
 11
-452.4613952636718
 21
-320.1521128061654
 31
0.0
  0
LINE
  5
195
330
1F
100
AcDbEntity
  8
通り芯
  6
Continuous
 62
     3
370
     9
100
AcDbLine
 10
-467.8495788574218
 20
-280.9876840952279
 30
0.0
 11
-468.7103230244404
 21
-286.1520996093748
 31
0.0
  0
LINE
  5
196
330
1F
100
AcDbEntity
  8
通り芯
  6
Continuous
 62
     3
370
     9
100
AcDbLine
 10
-461.0277619233002
 20
-322.5007126266891
 30
0.0
 11
-464.0485072780299
 21
-287.9777106207769
 31
0.0
  0
LINE
  5
197
330
1F
100
AcDbEntity
  8
通り芯
  6
Continuous
 62
     3
370
     9
100
AcDbLine
 10
-466.0408927298881
 20
-286.1520996093748
 30
0.0
 11
-468.7103230244404
 21
-286.1520996093748
 31
0.0
  0
LINE
  5
198
330
1F
100
AcDbEntity
  8
通り芯
  6
Continuous
 62
     3
370
     9
100
AcDbLine
 10
-455.449973441459
 20
-317.4135973131333
 30
0.0
 11
-458.630465945682
 21
-281.0649348078546
 31
0.0
  0
LINE
  5
199
330
1F
100
AcDbEntity
  8
通り芯
  6
Continuous
 62
     3
370
     9
100
AcDbLine
 10
-465.210336221231
 20
-340.1520798141891
 30
0.0
 11
-468.7103230244404
 21
-286.1520996093748
 31
0.0
  0
LINE
  5
19A
330
1F
100
AcDbEntity
  8
通り芯
  6
Continuous
 62
     3
370
     9
100
AcDbLine
 10
-458.2103131268475
 20
-340.1520798141891
 30
0.0
 11
-465.210336221231
 21
-340.1520798141891
 31
0.0
  0
LINE
  5
19B
330
1F
100
AcDbEntity
  8
通り芯
  6
Continuous
 62
     3
370
     9
100
AcDbLine
 10
-458.2103131268475
 20
-340.1520798141891
 30
0.0
 11
-457.3029018092799
 21
-326.1520831133867
 31
0.0
  0
LINE
  5
19C
330
1F
100
AcDbEntity
  8
通り芯
  6
Continuous
 62
     3
370
     9
100
AcDbLine
 10
-334.9137713458086
 20
-328.8207958324534
 30
0.0
 11
-333.3091240960198
 21
-343.2625221046239
 31
0.0
  0
LINE
  5
19D
330
1F
100
AcDbEntity
  8
通り芯
  6
Continuous
 62
     3
370
     9
100
AcDbLine
 10
-337.8954212085621
 20
-326.1520831133867
 30
0.0
 11
-457.042991019584
 21
-326.1520831133867
 31
0.0
  0
LINE
  5
19E
330
1F
100
AcDbEntity
  8
通り芯
  6
Continuous
 62
     3
370
     9
100
AcDbLine
 10
-324.5068483094911
 20
-328.8207958324534
 30
0.0
 11
-326.1114955592799
 21
-343.2625221046239
 31
0.0
  0
LINE
  5
19F
330
1F
100
AcDbEntity
  8
通り芯
  6
Continuous
 62
     3
370
     9
100
AcDbLine
 10
-332.4578321302259
 20
-344.1418737463048
 30
0.0
 11
-457.6133892987225
 21
-326.1112555426519
 31
0.0
  0
LINE
  5
1A0
330
1F
100
AcDbEntity
  8
通り芯
  6
Continuous
 62
     3
370
     9
100
AcDbLine
 10
369.4003254658469
 20
226.9466882654141
 30
0.0
 11
354.9585497057114
 21
228.5512860272383
 31
0.0
  0
LINE
  5
1A1
330
1F
100
AcDbEntity
  8
通り芯
  6
Continuous
 62
     3
370
     9
100
AcDbLine
 10
369.4003254658469
 20
220.7489640519427
 30
0.0
 11
354.9585497057114
 21
219.1443662901185
 31
0.0
  0
LINE
  5
1A2
330
1F
100
AcDbEntity
  8
0-E
  6
Continuous
 62
     7
370
     9
100
AcDbLine
 10
98.12462471626907
 20
439.8395072318414
 30
0.0
 11
286.0764498324006
 21
439.8395072318414
 31
0.0
  0
LINE
  5
1A3
330
1F
100
AcDbEntity
  8
0-F
  6
Continuous
 62
     7
370
     9
100
AcDbLine
 10
246.2898089434651
 20
-36.15196764146947
 30
0.0
 11
244.7235148661847
 21
-24.25461557749134
 31
0.0
  0
LINE
  5
1A4
330
1F
100
AcDbEntity
  8
0-F
  6
Continuous
 62
     7
370
     9
100
AcDbLine
 10
246.2898089434651
 20
-36.15196764146947
 30
0.0
 11
247.8561030207455
 21
-24.25461557749134
 31
0.0
  0
LINE
  5
1A5
330
1F
100
AcDbEntity
  8
0-F
  6
Continuous
 62
     7
370
     9
100
AcDbLine
 10
302.2897957466744
 20
342.847847603463
 30
0.0
 11
246.2898089434651
 21
342.847847603463
 31
0.0
  0
LINE
  5
1A6
330
1F
100
AcDbEntity
  8
0-F
  6
Continuous
 62
     7
370
     9
100
AcDbLine
 10
302.2897957466744
 20
336.3479003906252
 30
0.0
 11
246.2898089434651
 21
336.3479003906252
 31
0.0
  0
LINE
  5
1A7
330
1F
100
AcDbEntity
  8
0-F
  6
Continuous
 62
     7
370
     9
100
AcDbLine
 10
302.2897957466744
 20
325.3479135874157
 30
0.0
 11
246.2898089434651
 21
325.3479135874157
 31
0.0
  0
LINE
  5
1A8
330
1F
100
AcDbEntity
  8
0-F
  6
Continuous
 62
     7
370
     9
100
AcDbLine
 10
302.2897957466744
 20
318.8477684227198
 30
0.0
 11
246.2898089434651
 21
318.8477684227198
 31
0.0
  0
LINE
  5
1A9
330
1F
100
AcDbEntity
  8
躯体
  6
Continuous
 62
     2
370
     9
100
AcDbLine
 10
-73.71035601641677
 20
-41.15213260135113
 30
0.0
 11
-73.71035601641677
 21
358.8479003906252
 31
0.0
  0
LINE
  5
1AA
330
1F
100
AcDbEntity
  8
躯体
  6
Continuous
 62
     2
370
     9
100
AcDbLine
 10
-76.91034677866332
 20
-37.95219132706904
 30
0.0
 11
-76.91034677866332
 21
355.6478106524495
 31
0.0
  0
LINE
  5
1AB
330
1F
100
AcDbEntity
  8
通り芯
  6
Continuous
 62
     3
370
     9
100
AcDbLine
 10
-78.71032302444041
 20
-36.15216559332748
 30
0.0
 11
-78.71032302444041
 21
353.8478344066725
 31
0.0
  0
LINE
  5
1AC
330
1F
100
AcDbEntity
  8
通り芯
  6
Continuous
 62
     3
370
     9
100
AcDbLine
 10
-88.71035601641677
 20
15.3478311074748
 30
0.0
 11
-88.71035601641677
 21
302.3478871938346
 31
0.0
  0
LINE
  5
1AD
330
1F
100
AcDbEntity
  8
通り芯
  6
Continuous
 62
     3
370
     9
100
AcDbLine
 10
-92.21034281962625
 20
15.3478311074748
 30
0.0
 11
-92.21034281962625
 21
302.3478871938346
 31
0.0
  0
LINE
  5
1AE
330
1F
100
AcDbEntity
  8
通り芯
  6
Continuous
 62
     3
370
     9
100
AcDbLine
 10
-79.71027683567354
 20
-0.1521457981417598
 30
0.0
 11
-79.71027683567354
 21
317.8479135874157
 31
0.0
  0
LINE
  5
1AF
330
1F
100
AcDbEntity
  8
通り芯
  6
JWW_CENTER1
 62
     3
370
     9
100
AcDbLine
 10
-493.7103560164168
 20
158.8478344066725
 30
0.0
 11
-53.71029003246406
 21
158.8478344066725
 31
0.0
  0
LINE
  5
1B0
330
1F
100
AcDbEntity
  8
0-E
  6
Continuous
 62
     7
370
     9
100
AcDbLine
 10
484.5588189202385
 20
252.8048920502536
 30
0.0
 11
636.8742618045294
 21
252.8048920502536
 31
0.0
  0
LINE
  5
1B1
330
1F
100
AcDbEntity
  8
0-E
  6
Continuous
 62
     7
370
     9
100
AcDbLine
 10
286.0764498324006
 20
439.8395072318414
 30
0.0
 11
333.8856836267419
 21
358.8479003906252
 31
0.0
  0
LINE
  5
1B2
330
1F
100
AcDbEntity
  8
0-F
  6
Continuous
 62
     7
370
     9
100
AcDbLine
 10
333.8856836267419
 20
358.8479003906252
 30
0.0
 11
326.4889155207456
 21
368.2971323374157
 31
0.0
  0
LINE
  5
1B3
330
1F
100
AcDbEntity
  8
0-F
  6
Continuous
 62
     7
370
     9
100
AcDbLine
 10
333.8856836267419
 20
358.8479003906252
 30
0.0
 11
329.1866034430427
 21
369.8895560599664
 31
0.0
  0
LINE
  5
1B4
330
1F
100
AcDbEntity
  8
躯体
  6
JWW_DASHED3
 62
     2
370
     9
100
AcDbLine
 10
-423.7103230244404
 20
8.847883894636993
 30
0.0
 11
-423.7103230244404
 21
308.8479333826016
 31
0.0
  0
LINE
  5
1B5
330
1F
100
AcDbEntity
  8
躯体
  6
JWW_DASHED3
 62
     2
370
     9
100
AcDbLine
 10
-423.7103230244404
 20
8.847883894636993
 30
0.0
 11
-123.7103725124049
 21
8.847883894636993
 31
0.0
  0
LINE
  5
1B6
330
1F
100
AcDbEntity
  8
躯体
  6
JWW_DASHED3
 62
     2
370
     9
100
AcDbLine
 10
-123.7103725124049
 20
308.8479333826016
 30
0.0
 11
-423.7103230244404
 21
308.8479333826016
 31
0.0
  0
LINE
  5
1B7
330
1F
100
AcDbEntity
  8
躯体
  6
JWW_DASHED3
 62
     2
370
     9
100
AcDbLine
 10
-123.7103725124049
 20
8.847883894636993
 30
0.0
 11
-123.7103725124049
 21
308.8479333826016
 31
0.0
  0
LINE
  5
1B8
330
1F
100
AcDbEntity
  8
通り芯
  6
Continuous
 62
     3
370
     9
100
AcDbLine
 10
-389.9603230244404
 20
325.3479135874157
 30
0.0
 11
-389.9603230244404
 21
318.8479663745779
 31
0.0
  0
LINE
  5
1B9
330
1F
100
AcDbEntity
  8
通り芯
  6
Continuous
 62
     3
370
     9
100
AcDbLine
 10
-401.960362614812
 20
325.3479135874157
 30
0.0
 11
-401.960362614812
 21
318.8479663745779
 31
0.0
  0
LINE
  5
1BA
330
1F
100
AcDbEntity
  8
通り芯
  6
Continuous
 62
     3
370
     9
100
AcDbLine
 10
-389.9603230244404
 20
342.8480455553212
 30
0.0
 11
-389.9603230244404
 21
336.3480983424834
 31
0.0
  0
LINE
  5
1BB
330
1F
100
AcDbEntity
  8
通り芯
  6
Continuous
 62
     3
370
     9
100
AcDbLine
 10
-401.960362614812
 20
342.8480455553212
 30
0.0
 11
-401.960362614812
 21
336.3480983424834
 31
0.0
  0
LINE
  5
1BC
330
1F
100
AcDbEntity
  8
通り芯
  6
Continuous
 62
     3
370
     9
100
AcDbLine
 10
-157.4603230244404
 20
325.3479135874157
 30
0.0
 11
-157.4603230244404
 21
318.8479663745779
 31
0.0
  0
LINE
  5
1BD
330
1F
100
AcDbEntity
  8
通り芯
  6
Continuous
 62
     3
370
     9
100
AcDbLine
 10
-145.4602834340687
 20
325.3479135874157
 30
0.0
 11
-145.4602834340687
 21
318.8479663745779
 31
0.0
  0
LINE
  5
1BE
330
1F
100
AcDbEntity
  8
通り芯
  6
Continuous
 62
     3
370
     9
100
AcDbLine
 10
-157.4603230244404
 20
342.8480455553212
 30
0.0
 11
-157.4603230244404
 21
336.3480983424834
 31
0.0
  0
LINE
  5
1BF
330
1F
100
AcDbEntity
  8
通り芯
  6
Continuous
 62
     3
370
     9
100
AcDbLine
 10
-145.4602834340687
 20
342.8480455553212
 30
0.0
 11
-145.4602834340687
 21
336.3480983424834
 31
0.0
  0
LINE
  5
1C0
330
1F
100
AcDbEntity
  8
通り芯
  6
Continuous
 62
     3
370
     9
100
AcDbLine
 10
-157.4603230244404
 20
-7.652244774070823
 30
0.0
 11
-157.4603230244404
 21
-1.152297561232899
 31
0.0
  0
LINE
  5
1C1
330
1F
100
AcDbEntity
  8
通り芯
  6
Continuous
 62
     3
370
     9
100
AcDbLine
 10
-145.4602834340687
 20
-7.652244774070823
 30
0.0
 11
-145.4602834340687
 21
-1.152297561232899
 31
0.0
  0
LINE
  5
1C2
330
1F
100
AcDbEntity
  8
通り芯
  6
Continuous
 62
     3
370
     9
100
AcDbLine
 10
-157.4603230244404
 20
-25.15237674197613
 30
0.0
 11
-157.4603230244404
 21
-18.65242952913832
 31
0.0
  0
LINE
  5
1C3
330
1F
100
AcDbEntity
  8
通り芯
  6
Continuous
 62
     3
370
     9
100
AcDbLine
 10
-145.4602834340687
 20
-25.15237674197613
 30
0.0
 11
-145.4602834340687
 21
-18.65242952913832
 31
0.0
  0
LINE
  5
1C4
330
1F
100
AcDbEntity
  8
通り芯
  6
Continuous
 62
     3
370
     9
100
AcDbLine
 10
-389.9603230244404
 20
-7.652244774070823
 30
0.0
 11
-389.9603230244404
 21
-1.152297561232899
 31
0.0
  0
LINE
  5
1C5
330
1F
100
AcDbEntity
  8
通り芯
  6
Continuous
 62
     3
370
     9
100
AcDbLine
 10
-401.960362614812
 20
-7.652244774070823
 30
0.0
 11
-401.960362614812
 21
-1.152297561232899
 31
0.0
  0
LINE
  5
1C6
330
1F
100
AcDbEntity
  8
通り芯
  6
Continuous
 62
     3
370
     9
100
AcDbLine
 10
-389.9603230244404
 20
-25.15237674197613
 30
0.0
 11
-389.9603230244404
 21
-18.65242952913832
 31
0.0
  0
LINE
  5
1C7
330
1F
100
AcDbEntity
  8
通り芯
  6
Continuous
 62
     3
370
     9
100
AcDbLine
 10
-401.960362614812
 20
-25.15237674197613
 30
0.0
 11
-401.960362614812
 21
-18.65242952913832
 31
0.0
  0
LINE
  5
1C8
330
1F
100
AcDbEntity
  8
通り芯
  6
Continuous
 62
     3
370
     9
100
AcDbLine
 10
-391.8805550240181
 20
-330.1520468222127
 30
0.0
 11
-400.0402295911634
 21
-330.1520468222127
 31
0.0
  0
LINE
  5
1C9
330
1F
100
AcDbEntity
  8
通り芯
  6
Continuous
 62
     3
370
     9
100
AcDbLine
 10
-401.0368182208086
 20
-329.2351338154559
 30
0.0
 11
-401.293660756704
 21
-326.1520336254222
 31
0.0
  0
LINE
  5
1CA
330
1F
100
AcDbEntity
  8
通り芯
  6
Continuous
 62
     3
370
     9
100
AcDbLine
 10
-390.8839663943729
 20
-329.2351338154559
 30
0.0
 11
-390.6270248825485
 21
-326.1520336254222
 31
0.0
  0
LINE
  5
1CB
330
1F
100
AcDbEntity
  8
通り芯
  6
Continuous
 62
     3
370
     9
100
AcDbLine
 10
-155.5400910248627
 20
-330.1520468222127
 30
0.0
 11
-147.3804164577174
 21
-330.1520468222127
 31
0.0
  0
LINE
  5
1CC
330
1F
100
AcDbEntity
  8
通り芯
  6
Continuous
 62
     3
370
     9
100
AcDbLine
 10
-146.3838278280722
 20
-329.2351338154559
 30
0.0
 11
-146.1269852921769
 21
-326.1520336254222
 31
0.0
  0
LINE
  5
1CD
330
1F
100
AcDbEntity
  8
通り芯
  6
Continuous
 62
     3
370
     9
100
AcDbLine
 10
-156.536679654508
 20
-329.2351338154559
 30
0.0
 11
-156.7936211663323
 21
-326.1520336254222
 31
0.0
  0
LINE
  5
1CE
330
1F
100
AcDbEntity
  8
通り芯
  6
Continuous
 62
     3
370
     9
100
AcDbLine
 10
324.2898683290223
 20
2.567316828547519
 30
0.0
 11
324.2898683290223
 21
-33.1261745143579
 31
0.0
  0
LINE
  5
1CF
330
1F
100
AcDbEntity
  8
通り芯
  6
Continuous
 62
     3
370
     9
100
AcDbLine
 10
313.1657657107794
 20
-34.54266852301498
 30
0.0
 11
320.2902510359481
 21
-33.65208311338665
 31
0.0
  0
LINE
  5
1D0
330
1F
100
AcDbEntity
  8
通り芯
  6
Continuous
 62
     3
370
     9
100
AcDbLine
 10
320.2902510359481
 20
-33.65208311338665
 30
0.0
 11
366.2898089434652
 21
-29.15214249894404
 31
0.0
  0
LINE
  5
1D1
330
1F
100
AcDbEntity
  8
通り芯
  6
Continuous
 62
     3
370
     9
100
AcDbLine
 10
312.2898287386506
 20
-8.269409179687273
 30
0.0
 11
312.2898287386506
 21
2.43360034839543
 31
0.0
  0
LINE
  5
1D2
330
1F
100
AcDbEntity
  8
通り芯
  6
Continuous
 62
     3
370
     9
100
AcDbLine
 10
324.2898683290223
 20
315.1283519847975
 30
0.0
 11
324.2898683290223
 21
350.8218433277029
 31
0.0
  0
LINE
  5
1D3
330
1F
100
AcDbEntity
  8
躯体
  6
Continuous
 62
     2
370
     9
100
AcDbLine
 10
379.489733721759
 20
-41.15213260135113
 30
0.0
 11
306.2898089434652
 21
-41.15213260135113
 31
0.0
  0
LINE
  5
1D4
330
1F
100
AcDbEntity
  8
0-F
  6
Continuous
 62
     7
370
     9
100
AcDbLine
 10
369.4897997057114
 20
-141.1521655933275
 30
0.0
 11
357.5924971296981
 21
-139.5858715160471
 31
0.0
  0
LINE
  5
1D5
330
1F
100
AcDbEntity
  8
0-F
  6
Continuous
 62
     7
370
     9
100
AcDbLine
 10
369.4897997057114
 20
-141.1521655933275
 30
0.0
 11
357.5924971296981
 21
-142.7184596706079
 31
0.0
  0
LINE
  5
1D6
330
1F
100
AcDbEntity
  8
0-F
  6
Continuous
 62
     7
370
     9
100
AcDbLine
 10
306.2898089434652
 20
-141.1521655933275
 30
0.0
 11
410.4904793404244
 21
-141.1521655933275
 31
0.0
  0
LINE
  5
1D7
330
1F
100
AcDbEntity
  8
躯体
  6
Continuous
 62
     2
370
     9
100
AcDbLine
 10
306.2898089434652
 20
358.8479003906252
 30
0.0
 11
379.4898326976881
 21
358.8479003906252
 31
0.0
  0
ARC
  5
1D8
330
1F
100
AcDbEntity
  8
躯体
  6
Continuous
 62
     2
370
     9
100
AcDbCircle
 10
363.2898485338364
 20
-34.95218142947613
 30
0.0
 40
3.000000038662472
100
AcDbArc
 50
270.0
 51
0.0
  0
ARC
  5
1D9
330
1F
100
AcDbEntity
  8
躯体
  6
Continuous
 62
     2
370
     9
100
AcDbCircle
 10
363.4897799105256
 20
-35.15216229412988
 30
0.0
 40
6.000000077324945
100
AcDbArc
 50
270.0
 51
0.0
  0
ARC
  5
1DA
330
1F
100
AcDbEntity
  8
躯体
  6
Continuous
 62
     2
370
     9
100
AcDbCircle
 10
379.4898326976881
 20
-55.15212930215353
 30
0.0
 40
5.000000257749815
100
AcDbArc
 50
1.113128662109375
 51
89.99998474121094
  0
CIRCLE
  5
1DB
330
1F
100
AcDbEntity
  8
躯体
  6
Continuous
 62
     2
370
     9
100
AcDbCircle
 10
-173.7102900324641
 20
363.3479399809968
 30
0.0
 40
4.500000154649889
  0
ARC
  5
1DC
330
1F
100
AcDbEntity
  8
躯体
  6
JWW_CENTER1
 62
     2
370
     9
100
AcDbCircle
 10
379.4898326976881
 20
372.847847603463
 30
0.0
 40
9.500000412399705
100
AcDbArc
 50
270.0
 51
359.9999847412109
  0
ARC
  5
1DD
330
1F
100
AcDbEntity
  8
躯体
  6
Continuous
 62
     2
370
     9
100
AcDbCircle
 10
379.4898326976881
 20
372.847847603463
 30
0.0
 40
13.99999979380015
100
AcDbArc
 50
270.0
 51
0.0
  0
ARC
  5
1DE
330
1F
100
AcDbEntity
  8
躯体
  6
Continuous
 62
     2
370
     9
100
AcDbCircle
 10
379.4898326976881
 20
372.847847603463
 30
0.0
 40
5.000000257749815
100
AcDbArc
 50
270.0
 51
0.0
  0
ARC
  5
1DF
330
1F
100
AcDbEntity
  8
躯体
  6
Continuous
 62
     2
370
     9
100
AcDbCircle
 10
363.4897799105256
 20
352.8477816195103
 30
0.0
 40
6.000000077324945
100
AcDbArc
 50
1.085617065429688
 51
90.0
  0
ARC
  5
1E0
330
1F
100
AcDbEntity
  8
躯体
  6
Continuous
 62
     2
370
     9
100
AcDbCircle
 10
363.2898485338364
 20
352.6477512668921
 30
0.0
 40
3.000000038662472
100
AcDbArc
 50
2.171249389648438
 51
90.0
  0
ARC
  5
1E1
330
1F
100
AcDbEntity
  8
通り芯
  6
Continuous
 62
     3
370
     9
100
AcDbCircle
 10
366.7298559240394
 20
12.90668879328564
 30
0.0
 40
5.000000257749815
100
AcDbArc
 50
173.7106170654297
 51
254.9999847412109
  0
ARC
  5
1E2
330
1F
100
AcDbEntity
  8
通り芯
  6
Continuous
 62
     3
370
     9
100
AcDbCircle
 10
307.2898617306273
 20
352.0007456186657
 30
0.0
 40
1.000000012887491
100
AcDbArc
 50
99.46231079101562
 51
180.0
  0
ARC
  5
1E3
330
1F
100
AcDbEntity
  8
通り芯
  6
Continuous
 62
     3
370
     9
100
AcDbCircle
 10
343.2898815258131
 20
15.09682815139377
 30
0.0
 40
3.000000038662472
100
AcDbArc
 50
275.0006408691406
 51
0.0000000000000127
  0
ARC
  5
1E4
330
1F
100
AcDbEntity
  8
通り芯
  6
Continuous
 62
     3
370
     9
100
AcDbCircle
 10
369.2898683290223
 20
95.95278848184137
 30
0.0
 40
1.000000012887491
100
AcDbArc
 50
1.113128662109375
 51
83.65980529785156
  0
ARC
  5
1E5
330
1F
100
AcDbEntity
  8
通り芯
  6
Continuous
 62
     3
370
     9
100
AcDbCircle
 10
307.2898617306273
 20
344.6949363914698
 30
0.0
 40
1.000000012887491
100
AcDbArc
 50
179.9999847412109
 51
260.5376739501953
  0
ARC
  5
1E6
330
1F
100
AcDbEntity
  8
通り芯
  6
Continuous
 62
     3
370
     9
100
AcDbCircle
 10
319.2898023450698
 20
346.2306469066725
 30
0.0
 40
1.000000012887491
100
AcDbArc
 50
277.1250152587891
 51
0.0000000000000254
  0
ARC
  5
1E7
330
1F
100
AcDbEntity
  8
通り芯
  6
Continuous
 62
     3
370
     9
100
AcDbCircle
 10
319.2898023450698
 20
350.465035103463
 30
0.0
 40
1.000000012887491
100
AcDbArc
 50
1.403289794921875
 51
82.87496948242188
  0
ARC
  5
1E8
330
1F
100
AcDbEntity
  8
通り芯
  6
Continuous
 62
     3
370
     9
100
AcDbCircle
 10
319.2898023450698
 20
332.9651010874157
 30
0.0
 40
1.000000012887491
100
AcDbArc
 50
1.403289794921875
 51
82.87496948242188
  0
ARC
  5
1E9
330
1F
100
AcDbEntity
  8
通り芯
  6
Continuous
 62
     3
370
     9
100
AcDbCircle
 10
369.2898683290223
 20
91.74289682749168
 30
0.0
 40
1.000000012887491
100
AcDbArc
 50
276.3401794433594
 51
0.0
  0
ARC
  5
1EA
330
1F
100
AcDbEntity
  8
通り芯
  6
Continuous
 62
     3
370
     9
100
AcDbCircle
 10
355.2898221402556
 20
101.5329523859799
 30
0.0
 40
3.000000038662472
100
AcDbArc
 50
180.0
 51
263.6598052978516
  0
ARC
  5
1EB
330
1F
100
AcDbEntity
  8
通り芯
  6
Continuous
 62
     3
370
     9
100
AcDbCircle
 10
355.2898221402556
 20
86.16268343538866
 30
0.0
 40
3.000000038662472
100
AcDbArc
 50
96.34017944335938
 51
180.0
  0
ARC
  5
1EC
330
1F
100
AcDbEntity
  8
通り芯
  6
Continuous
 62
     3
370
     9
100
AcDbCircle
 10
319.2898023450698
 20
328.7306139146962
 30
0.0
 40
1.000000012887491
100
AcDbArc
 50
277.1250152587891
 51
0.0000000000000254
  0
ARC
  5
1ED
330
1F
100
AcDbEntity
  8
通り芯
  6
Continuous
 62
     3
370
     9
100
AcDbCircle
 10
307.2898617306273
 20
327.1950023754225
 30
0.0
 40
1.000000012887491
100
AcDbArc
 50
179.9999847412109
 51
260.5376739501953
  0
ARC
  5
1EE
330
1F
100
AcDbEntity
  8
通り芯
  6
Continuous
 62
     3
370
     9
100
AcDbCircle
 10
307.2898617306273
 20
334.5006136507603
 30
0.0
 40
1.000000012887491
100
AcDbArc
 50
99.46231079101562
 51
180.0
  0
ARC
  5
1EF
330
1F
100
AcDbEntity
  8
通り芯
  6
Continuous
 62
     3
370
     9
100
AcDbCircle
 10
307.2898617306273
 20
317.000679634713
 30
0.0
 40
1.000000012887491
100
AcDbArc
 50
99.46231079101562
 51
180.0
  0
ARC
  5
1F0
330
1F
100
AcDbEntity
  8
通り芯
  6
Continuous
 62
     3
370
     9
100
AcDbCircle
 10
349.2898023450698
 20
9.598913244299183
 30
0.0
 40
3.000000038662472
100
AcDbArc
 50
275.0006408691406
 51
359.9999847412109
  0
ARC
  5
1F1
330
1F
100
AcDbEntity
  8
通り芯
  6
Continuous
 62
     3
370
     9
100
AcDbCircle
 10
313.2898815258131
 20
-35.53495169974644
 30
0.0
 40
1.000000012887491
100
AcDbArc
 50
97.12501525878906
 51
179.9999847412109
  0
ARC
  5
1F2
330
1F
100
AcDbEntity
  8
通り芯
  6
Continuous
 62
     3
370
     9
100
AcDbCircle
 10
313.2898815258131
 20
-25.76939268369915
 30
0.0
 40
1.000000012887491
100
AcDbArc
 50
180.0
 51
262.8749694824219
  0
ARC
  5
1F3
330
1F
100
AcDbEntity
  8
通り芯
  6
Continuous
 62
     3
370
     9
100
AcDbCircle
 10
313.2898815258131
 20
-18.03496819573468
 30
0.0
 40
1.000000012887491
100
AcDbArc
 50
97.12501525878906
 51
180.0
  0
ARC
  5
1F4
330
1F
100
AcDbEntity
  8
通り芯
  6
Continuous
 62
     3
370
     9
100
AcDbCircle
 10
313.2898815258131
 20
-8.269409179687273
 30
0.0
 40
1.000000012887491
100
AcDbArc
 50
180.0
 51
262.8749694824219
  0
ARC
  5
1F5
330
1F
100
AcDbEntity
  8
通り芯
  6
Continuous
 62
     3
370
     9
100
AcDbCircle
 10
307.2898617306273
 20
0.694939690667411
 30
0.0
 40
1.000000012887491
100
AcDbArc
 50
180.0
 51
260.5376739501953
  0
ARC
  5
1F6
330
1F
100
AcDbEntity
  8
通り芯
  6
Continuous
 62
     3
370
     9
100
AcDbCircle
 10
307.2898617306273
 20
-16.80504381334447
 30
0.0
 40
1.000000012887491
100
AcDbArc
 50
180.0
 51
260.5376739501953
  0
ARC
  5
1F7
330
1F
100
AcDbEntity
  8
通り芯
  6
Continuous
 62
     3
370
     9
100
AcDbCircle
 10
307.2898617306273
 20
-9.499333562077481
 30
0.0
 40
1.000000012887491
100
AcDbArc
 50
99.46231079101562
 51
180.0
  0
ARC
  5
1F8
330
1F
100
AcDbEntity
  8
通り芯
  6
Continuous
 62
     3
370
     9
100
AcDbCircle
 10
319.2898023450698
 20
-11.03494510135113
 30
0.0
 40
1.000000012887491
100
AcDbArc
 50
0.0
 51
82.87496948242186
  0
ARC
  5
1F9
330
1F
100
AcDbEntity
  8
通り芯
  6
Continuous
 62
     3
370
     9
100
AcDbCircle
 10
319.2898023450698
 20
-15.26938278610623
 30
0.0
 40
1.000000012887491
100
AcDbArc
 50
277.1250152587891
 51
0.0000000000000254
  0
ARC
  5
1FA
330
1F
100
AcDbEntity
  8
通り芯
  6
Continuous
 62
     3
370
     9
100
AcDbCircle
 10
319.2898023450698
 20
-32.76941577808259
 30
0.0
 40
1.000000012887491
100
AcDbArc
 50
277.1250152587891
 51
0.0000000000000254
  0
ARC
  5
1FB
330
1F
100
AcDbEntity
  8
通り芯
  6
Continuous
 62
     3
370
     9
100
AcDbCircle
 10
319.2898023450698
 20
-28.53497809332748
 30
0.0
 40
1.000000012887491
100
AcDbArc
 50
0.0
 51
82.87496948242186
  0
ARC
  5
1FC
330
1F
100
AcDbEntity
  8
通り芯
  6
Continuous
 62
     3
370
     9
100
AcDbCircle
 10
307.2898617306273
 20
-26.99931706608936
 30
0.0
 40
1.000000012887491
100
AcDbArc
 50
99.46231079101562
 51
180.0
  0
ARC
  5
1FD
330
1F
100
AcDbEntity
  8
通り芯
  6
Continuous
 62
     3
370
     9
100
AcDbCircle
 10
307.2898617306273
 20
-34.30502731735623
 30
0.0
 40
1.000000012887491
100
AcDbArc
 50
180.0
 51
260.5376739501953
  0
ARC
  5
1FE
330
1F
100
AcDbEntity
  8
通り芯
  6
Continuous
 62
     3
370
     9
100
AcDbCircle
 10
313.2898815258131
 20
325.9651274809968
 30
0.0
 40
1.000000012887491
100
AcDbArc
 50
97.12501525878906
 51
180.0
  0
ARC
  5
1FF
330
1F
100
AcDbEntity
  8
通り芯
  6
Continuous
 62
     3
370
     9
100
AcDbCircle
 10
313.2898815258131
 20
335.7306864970441
 30
0.0
 40
1.000000012887491
100
AcDbArc
 50
180.0
 51
262.8749694824219
  0
ARC
  5
200
330
1F
100
AcDbEntity
  8
通り芯
  6
Continuous
 62
     3
370
     9
100
AcDbCircle
 10
313.2898815258131
 20
343.4650614970441
 30
0.0
 40
1.000000012887491
100
AcDbArc
 50
97.12501525878906
 51
180.0
  0
ARC
  5
201
330
1F
100
AcDbEntity
  8
通り芯
  6
Continuous
 62
     3
370
     9
100
AcDbCircle
 10
313.2898815258131
 20
353.2306205130914
 30
0.0
 40
1.000000012887491
100
AcDbArc
 50
180.0
 51
262.8749694824219
  0
ARC
  5
202
330
1F
100
AcDbEntity
  8
通り芯
  6
Continuous
 62
     3
370
     9
100
AcDbCircle
 10
-95.21030322925458
 20
15.3478311074748
 30
0.0
 40
3.000000038662472
100
AcDbArc
 50
270.0
 51
0.0
  0
ARC
  5
203
330
1F
100
AcDbEntity
  8
通り芯
  6
Continuous
 62
     3
370
     9
100
AcDbCircle
 10
-95.21030322925458
 20
15.3478311074748
 30
0.0
 40
6.499999793800148
100
AcDbArc
 50
270.0
 51
0.0
  0
ARC
  5
204
330
1F
100
AcDbEntity
  8
通り芯
  6
Continuous
 62
     3
370
     9
100
AcDbCircle
 10
349.2898023450698
 20
308.0968050570103
 30
0.0
 40
3.000000038662472
100
AcDbArc
 50
1.879837036132813
 51
84.99934387207031
  0
ARC
  5
205
330
1F
100
AcDbEntity
  8
通り芯
  6
Continuous
 62
     3
370
     9
100
AcDbCircle
 10
-95.21030322925458
 20
302.3478871938346
 30
0.0
 40
6.499999793800148
100
AcDbArc
 50
0.0
 51
90.0
  0
ARC
  5
206
330
1F
100
AcDbEntity
  8
通り芯
  6
Continuous
 62
     3
370
     9
100
AcDbCircle
 10
-95.21030322925458
 20
302.3478871938346
 30
0.0
 40
3.000000038662472
100
AcDbArc
 50
0.0
 51
90.0
  0
ARC
  5
207
330
1F
100
AcDbEntity
  8
通り芯
  6
Continuous
 62
     3
370
     9
100
AcDbCircle
 10
-452.2103428196262
 20
302.3478871938346
 30
0.0
 40
3.000000038662472
100
AcDbArc
 50
90.0
 51
180.0
  0
ARC
  5
208
330
1F
100
AcDbEntity
  8
通り芯
  6
Continuous
 62
     3
370
     9
100
AcDbCircle
 10
-452.2103428196262
 20
302.3478871938346
 30
0.0
 40
6.499999793800148
100
AcDbArc
 50
90.0
 51
178.5967102050781
  0
ARC
  5
209
330
1F
100
AcDbEntity
  8
通り芯
  6
Continuous
 62
     3
370
     9
100
AcDbCircle
 10
355.2898221402556
 20
231.5329358899918
 30
0.0
 40
3.000000038662472
100
AcDbArc
 50
180.0
 51
263.6598052978516
  0
ARC
  5
20A
330
1F
100
AcDbEntity
  8
通り芯
  6
Continuous
 62
     3
370
     9
100
AcDbCircle
 10
355.2898221402556
 20
216.1626669394005
 30
0.0
 40
3.000000038662472
100
AcDbArc
 50
96.34017944335938
 51
180.0
  0
ARC
  5
20B
330
1F
100
AcDbEntity
  8
通り芯
  6
Continuous
 62
     3
370
     9
100
AcDbCircle
 10
313.2898815258131
 20
315.2620684649495
 30
0.0
 40
1.000000012887491
100
AcDbArc
 50
180.0
 51
264.9993438720703
  0
ARC
  5
20C
330
1F
100
AcDbEntity
  8
通り芯
  6
Continuous
 62
     3
370
     9
100
AcDbCircle
 10
369.2898683290223
 20
225.9527719858532
 30
0.0
 40
1.000000012887491
100
AcDbArc
 50
0.0
 51
83.65980529785156
  0
ARC
  5
20D
330
1F
100
AcDbEntity
  8
通り芯
  6
Continuous
 62
     3
370
     9
100
AcDbCircle
 10
369.2898683290223
 20
221.7428803315036
 30
0.0
 40
1.000000012887491
100
AcDbArc
 50
276.3401794433594
 51
0.0
  0
ARC
  5
20E
330
1F
100
AcDbEntity
  8
通り芯
  6
Continuous
 62
     3
370
     9
100
AcDbCircle
 10
343.2898815258131
 20
302.5988901499157
 30
0.0
 40
3.000000038662472
100
AcDbArc
 50
1.403289794921875
 51
84.99934387207031
  0
ARC
  5
20F
330
1F
100
AcDbEntity
  8
通り芯
  6
Continuous
 62
     3
370
     9
100
AcDbCircle
 10
-452.2103428196262
 20
15.3478311074748
 30
0.0
 40
6.499999793800148
100
AcDbArc
 50
180.0
 51
270.0
  0
ARC
  5
210
330
1F
100
AcDbEntity
  8
通り芯
  6
Continuous
 62
     3
370
     9
100
AcDbCircle
 10
-452.2103428196262
 20
15.3478311074748
 30
0.0
 40
3.000000038662472
100
AcDbArc
 50
180.0
 51
270.0
  0
ARC
  5
211
330
1F
100
AcDbEntity
  8
通り芯
  6
Continuous
 62
     3
370
     9
100
AcDbCircle
 10
366.7298559240394
 20
304.7890295080239
 30
0.0
 40
5.000000257749815
100
AcDbArc
 50
105.0
 51
186.2893676757812
  0
CIRCLE
  5
212
330
1F
100
AcDbEntity
  8
躯体
  6
Continuous
 62
     2
370
     9
100
AcDbCircle
 10
-373.7103560164168
 20
363.3479399809968
 30
0.0
 40
4.500000154649889
  0
CIRCLE
  5
213
330
1F
100
AcDbEntity
  8
躯体
  6
Continuous
 62
     2
370
     9
100
AcDbCircle
 10
-373.7103560164168
 20
-45.6521721917228
 30
0.0
 40
4.500000154649889
  0
ARC
  5
214
330
1F
100
AcDbEntity
  8
躯体
  6
Continuous
 62
     2
370
     9
100
AcDbCircle
 10
-173.7102900324641
 20
-45.6521721917228
 30
0.0
 40
4.500000154649889
100
AcDbArc
 50
180.0
 51
177.8950653076172
  0
ARC
  5
215
330
1F
100
AcDbEntity
  8
躯体
  6
Continuous
 62
     2
370
     9
100
AcDbCircle
 10
-467.5104378365181
 20
-337.1521194045606
 30
0.0
 40
3.000000038662472
100
AcDbArc
 50
180.0
 51
270.0
  0
ARC
  5
216
330
1F
100
AcDbEntity
  8
躯体
  6
Continuous
 62
     2
370
     9
100
AcDbCircle
 10
-467.7103692132073
 20
-337.3520507812499
 30
0.0
 40
6.000000077324945
100
AcDbArc
 50
180.0
 51
270.0
  0
ARC
  5
217
330
1F
100
AcDbEntity
  8
躯体
  6
Continuous
 62
     2
370
     9
100
AcDbCircle
 10
-79.71042529956708
 20
-337.3520507812499
 30
0.0
 40
6.000000077324945
100
AcDbArc
 50
271.0856170654297
 51
0.0
  0
ARC
  5
218
330
1F
100
AcDbEntity
  8
躯体
  6
Continuous
 62
     2
370
     9
100
AcDbCircle
 10
-79.9104556521853
 20
-337.1521194045606
 30
0.0
 40
3.000000038662472
100
AcDbArc
 50
272.1712493896484
 51
0.0
  0
ARC
  5
219
330
1F
100
AcDbEntity
  8
通り芯
  6
Continuous
 62
     3
370
     9
100
AcDbCircle
 10
-87.79398737726979
 20
-281.1520831133867
 30
0.0
 40
1.000000012887491
100
AcDbArc
 50
90.0
 51
174.9990081787109
  0
ARC
  5
21A
330
1F
100
AcDbEntity
  8
通り芯
  6
Continuous
 62
     3
370
     9
100
AcDbCircle
 10
-80.55746130041166
 20
-281.1520831133867
 30
0.0
 40
1.000000012887491
100
AcDbArc
 50
9.462326049804688
 51
89.99999999999999
  0
ARC
  5
21B
330
1F
100
AcDbEntity
  8
通り芯
  6
Continuous
 62
     3
370
     9
100
AcDbCircle
 10
-94.95925078520895
 20
-317.1520534206079
 30
0.0
 40
3.000000038662472
100
AcDbArc
 50
270.0
 51
354.9990081787109
  0
ARC
  5
21C
330
1F
100
AcDbEntity
  8
通り芯
  6
Continuous
 62
     3
370
     9
100
AcDbCircle
 10
-81.37975331899281
 20
-288.1521062077701
 30
0.0
 40
2.000000025774982
100
AcDbArc
 50
90.0
 51
174.9990081787109
  0
ARC
  5
21D
330
1F
100
AcDbEntity
  8
通り芯
  6
Continuous
 62
     3
370
     9
100
AcDbCircle
 10
-90.37765502929688
 20
-322.1521194045606
 30
0.0
 40
4.000000051549963
100
AcDbArc
 50
270.0
 51
354.9997100830078
  0
ARC
  5
21E
330
1F
100
AcDbEntity
  8
躯体
  6
JWW_CENTER1
 62
     2
370
     9
100
AcDbCircle
 10
379.4898326976881
 20
-55.15212930215353
 30
0.0
 40
9.500000412399705
100
AcDbArc
 50
0.0
 51
89.99998474121094
  0
ARC
  5
21F
330
1F
100
AcDbEntity
  8
躯体
  6
Continuous
 62
     2
370
     9
100
AcDbCircle
 10
379.489733721759
 20
-55.15212930215353
 30
0.0
 40
13.99999979380015
100
AcDbArc
 50
0.0
 51
90.0
  0
ARC
  5
220
330
1F
100
AcDbEntity
  8
通り芯
  6
Continuous
 62
     3
370
     9
100
AcDbCircle
 10
-215.1053887444573
 20
-343.152089711782
 30
0.0
 40
1.000000012887491
100
AcDbArc
 50
270.0
 51
353.6596527099609
  0
ARC
  5
221
330
1F
100
AcDbEntity
  8
通り芯
  6
Continuous
 62
     3
370
     9
100
AcDbCircle
 10
-220.3152836980046
 20
-343.152089711782
 30
0.0
 40
1.000000012887491
100
AcDbArc
 50
186.3403472900391
 51
270.0
  0
ARC
  5
222
330
1F
100
AcDbEntity
  8
通り芯
  6
Continuous
 62
     3
370
     9
100
AcDbCircle
 10
-209.5252248403187
 20
-329.1520930109796
 30
0.0
 40
3.000000038662472
100
AcDbArc
 50
90.0
 51
173.6597595214844
  0
ARC
  5
223
330
1F
100
AcDbEntity
  8
通り芯
  6
Continuous
 62
     3
370
     9
100
AcDbCircle
 10
-225.8954476021431
 20
-329.1520930109796
 30
0.0
 40
3.000000038662472
100
AcDbArc
 50
6.340240478515625
 51
90.0
  0
ARC
  5
224
330
1F
100
AcDbEntity
  8
通り芯
  6
Continuous
 62
     3
370
     9
100
AcDbCircle
 10
-459.626658671611
 20
-281.1520831133867
 30
0.0
 40
1.000000012887491
100
AcDbArc
 50
5.000991821289062
 51
90.0
  0
ARC
  5
225
330
1F
100
AcDbEntity
  8
通り芯
  6
Continuous
 62
     3
370
     9
100
AcDbCircle
 10
-466.8631847484692
 20
-281.1520831133867
 30
0.0
 40
1.000000012887491
100
AcDbArc
 50
90.0
 51
170.5376739501953
  0
ARC
  5
226
330
1F
100
AcDbEntity
  8
通り芯
  6
Continuous
 62
     3
370
     9
100
AcDbCircle
 10
-452.4613952636718
 20
-317.1520534206079
 30
0.0
 40
3.000000038662472
100
AcDbArc
 50
185.0009918212891
 51
270.0
  0
ARC
  5
227
330
1F
100
AcDbEntity
  8
通り芯
  6
Continuous
 62
     3
370
     9
100
AcDbCircle
 10
-466.0408927298881
 20
-288.1521062077701
 30
0.0
 40
2.000000025774982
100
AcDbArc
 50
5.000991821289062
 51
90.0
  0
ARC
  5
228
330
1F
100
AcDbEntity
  8
通り芯
  6
Continuous
 62
     3
370
     9
100
AcDbCircle
 10
-457.042991019584
 20
-322.1521194045606
 30
0.0
 40
4.000000051549963
100
AcDbArc
 50
185.0002899169922
 51
270.0
  0
ARC
  5
229
330
1F
100
AcDbEntity
  8
通り芯
  6
Continuous
 62
     3
370
     9
100
AcDbCircle
 10
-332.3152573044235
 20
-343.152089711782
 30
0.0
 40
1.000000012887491
100
AcDbArc
 50
186.3403472900391
 51
270.0
  0
ARC
  5
22A
330
1F
100
AcDbEntity
  8
通り芯
  6
Continuous
 62
     3
370
     9
100
AcDbCircle
 10
-327.1053623508762
 20
-343.152089711782
 30
0.0
 40
1.000000012887491
100
AcDbArc
 50
270.0
 51
353.6596527099609
  0
ARC
  5
22B
330
1F
100
AcDbEntity
  8
通り芯
  6
Continuous
 62
     3
370
     9
100
AcDbCircle
 10
-337.8954212085621
 20
-329.1520930109796
 30
0.0
 40
3.000000038662472
100
AcDbArc
 50
6.340240478515625
 51
90.0
  0
ARC
  5
22C
330
1F
100
AcDbEntity
  8
通り芯
  6
Continuous
 62
     3
370
     9
100
AcDbCircle
 10
-321.5251984467377
 20
-329.1520930109796
 30
0.0
 40
3.000000038662472
100
AcDbArc
 50
90.0
 51
173.6597595214844
  0
ARC
  5
22D
330
1F
100
AcDbEntity
  8
通り芯
  6
Continuous
 62
     3
370
     9
100
AcDbCircle
 10
-400.0402295911634
 20
-329.1520930109796
 30
0.0
 40
1.000000012887491
100
AcDbArc
 50
184.763412475586
 51
270.0
  0
ARC
  5
22E
330
1F
100
AcDbEntity
  8
通り芯
  6
Continuous
 62
     3
370
     9
100
AcDbCircle
 10
-391.8805550240181
 20
-329.1520930109796
 30
0.0
 40
1.000000012887491
100
AcDbArc
 50
270.0
 51
355.2365875244141
  0
ARC
  5
22F
330
1F
100
AcDbEntity
  8
通り芯
  6
Continuous
 62
     3
370
     9
100
AcDbCircle
 10
-147.3804164577174
 20
-329.1520930109796
 30
0.0
 40
1.000000012887491
100
AcDbArc
 50
270.0
 51
355.2365875244141
  0
ARC
  5
230
330
1F
100
AcDbEntity
  8
通り芯
  6
Continuous
 62
     3
370
     9
100
AcDbCircle
 10
-155.5400910248627
 20
-329.1520930109796
 30
0.0
 40
1.000000012887491
100
AcDbArc
 50
184.763412475586
 51
270.0
  0
ARC
  5
231
330
1F
100
AcDbEntity
  8
通り芯
  6
Continuous
 62
     3
370
     9
100
AcDbCircle
 10
326.2898749274177
 20
2.567316828547519
 30
0.0
 40
2.000000025774982
100
AcDbArc
 50
94.9995880126953
 51
180.0
  0
ARC
  5
232
330
1F
100
AcDbEntity
  8
通り芯
  6
Continuous
 62
     3
370
     9
100
AcDbCircle
 10
313.2898815258131
 20
2.43360034839543
 30
0.0
 40
1.000000012887491
100
AcDbArc
 50
95.00064086914061
 51
180.0
  0
ARC
  5
233
330
1F
100
AcDbEntity
  8
通り芯
  6
Continuous
 62
     3
370
     9
100
AcDbCircle
 10
326.2898749274177
 20
315.1283519847975
 30
0.0
 40
2.000000025774982
100
AcDbArc
 50
180.0
 51
265.0004119873047
  0
TEXT
  5
234
330
1F
100
AcDbEntity
  8
0-F
  6
Continuous
 62
     2
370
     9
100
AcDbText
 10
-436.7101250725823
 20
432.1038871938347
 30
0.0
 40
12.192
  1
100
 41
1.083333333333333
  7
ＭＳ ゴシック
100
AcDbText
  0
TEXT
  5
235
330
1F
100
AcDbEntity
  8
0-F
  6
Continuous
 62
     2
370
     9
100
AcDbText
 10
-136.7102735364758
 20
432.1038871938347
 30
0.0
 40
12.192
  1
100
 41
1.083333333333333
  7
ＭＳ ゴシック
100
AcDbText
  0
TEXT
  5
236
330
1F
100
AcDbEntity
  8
0-F
  6
Continuous
 62
     2
370
     9
100
AcDbText
 10
202.0337699213416
 20
-78.56464457707527
 30
0.0
 40
12.192
  1
3.2
 50
90.00000250447873
 41
1.083333333333315
  7
ＭＳ ゴシック
100
AcDbText
  0
TEXT
  5
237
330
1F
100
AcDbEntity
  8
0-F
  6
Continuous
 62
     2
370
     9
100
AcDbText
 10
202.0337699213416
 20
-29.91599592842663
 30
0.0
 40
12.192
  1
1.8
 50
90.00000250447873
 41
1.083333333333315
  7
ＭＳ ゴシック
100
AcDbText
  0
TEXT
  5
238
330
1F
100
AcDbEntity
  8
0-F
  6
Continuous
 62
     2
370
     9
100
AcDbText
 10
202.0337699213416
 20
368.9027593502894
 30
0.0
 40
12.192
  1
3.2
 50
90.00000250447873
 41
1.083333333333334
  7
ＭＳ ゴシック
100
AcDbText
  0
TEXT
  5
239
330
1F
100
AcDbEntity
  8
0-F
  6
Continuous
 62
     2
370
     9
100
AcDbText
 10
202.0337699213416
 20
318.4007864301036
 30
0.0
 40
12.192
  1
1.8
 50
90.00000250447873
 41
1.083333333333334
  7
ＭＳ ゴシック
100
AcDbText
  0
TEXT
  5
23A
330
1F
100
AcDbEntity
  8
0-F
  6
Continuous
 62
     2
370
     9
100
AcDbText
 10
317.7899244153823
 20
116.4804378167231
 30
0.0
 40
12.192
  1
40
 41
1.0625
  7
ＭＳ ゴシック
100
AcDbText
  0
TEXT
  5
23B
330
1F
100
AcDbEntity
  8
0-F
  6
Continuous
 62
     2
370
     9
100
AcDbText
 10
372.5846912280933
 20
137.1704155141471
 30
0.0
 40
12.192
  1
6
  7
ＭＳ ゴシック
100
AcDbText
  0
TEXT
  5
23C
330
1F
100
AcDbEntity
  8
0-F
  6
Continuous
 62
     2
370
     9
100
AcDbText
 10
162.0337369293652
 20
145.8478837960242
 30
0.0
 40
12.192
  1
400
 50
90.00000250447873
 41
1.083333333333334
  7
ＭＳ ゴシック
100
AcDbText
  0
TEXT
  5
23D
330
1F
100
AcDbEntity
  8
0-F
  6
Continuous
 62
     2
370
     9
100
AcDbText
 10
202.0337699213416
 20
145.8478343080596
 30
0.0
 40
12.192
  1
390
 50
90.00000250447873
 41
1.083333333333334
  7
ＭＳ ゴシック
100
AcDbText
  0
TEXT
  5
23E
330
1F
100
AcDbEntity
  8
0-F
  6
Continuous
 62
     2
370
     9
100
AcDbText
 10
454.2337406917012
 20
-24.65214919595224
 30
0.0
 40
12.192
  1
50
 50
90.00000250447789
 41
1.062500000000001
  7
ＭＳ ゴシック
100
AcDbText
  0
TEXT
  5
23F
330
1F
100
AcDbEntity
  8
0-F
  6
Continuous
 62
     2
370
     9
100
AcDbText
 10
454.2337406917012
 20
-64.15210630638298
 30
0.0
 40
12.192
  1
29
 50
90.00000250447789
 41
1.062500000000001
  7
ＭＳ ゴシック
100
AcDbText
  0
TEXT
  5
240
330
1F
100
AcDbEntity
  8
0-F
  6
Continuous
 62
     2
370
     9
100
AcDbText
 10
454.2337406917012
 20
364.8478244104667
 30
0.0
 40
12.192
  1
29
 50
90.00000250447789
 41
1.062500000000001
  7
ＭＳ ゴシック
100
AcDbText
  0
TEXT
  5
241
330
1F
100
AcDbEntity
  8
0-F
  6
Continuous
 62
     2
370
     9
100
AcDbText
 10
454.2337406917012
 20
325.3478178120715
 30
0.0
 40
12.192
  1
50
 50
90.00000250447789
 41
1.062500000000001
  7
ＭＳ ゴシック
100
AcDbText
  0
TEXT
  5
242
330
1F
100
AcDbEntity
  8
0-F
  6
Continuous
 62
     2
370
     9
100
AcDbText
 10
454.233741281805
 20
136.8478590520419
 30
0.0
 40
12.192
  1
□300
 50
90.00000250447819
 41
1.100000000000001
  7
ＭＳ ゴシック
100
AcDbText
  0
TEXT
  5
243
330
1F
100
AcDbEntity
  8
0-F
  6
Continuous
 62
     2
370
     9
100
AcDbText
 10
383.9277187038113
 20
116.4804378167231
 30
0.0
 40
12.192
  1
18
 41
1.0625
  7
ＭＳ ゴシック
100
AcDbText
  0
TEXT
  5
244
330
1F
100
AcDbEntity
  8
0-F
  6
Continuous
 62
     2
370
     9
100
AcDbText
 10
-457.5701929040857
 20
-175.8960897117819
 30
0.0
 40
12.192
  1
1.8
 41
1.083333333333333
  7
ＭＳ ゴシック
100
AcDbText
  0
TEXT
  5
245
330
1F
100
AcDbEntity
  8
0-F
  6
Continuous
 62
     2
370
     9
100
AcDbText
 10
-509.4675161000845
 20
-175.8960897117819
 30
0.0
 40
12.192
  1
3.2
 41
1.083333333333333
  7
ＭＳ ゴシック
100
AcDbText
  0
TEXT
  5
246
330
1F
100
AcDbEntity
  8
0-F
  6
Continuous
 62
     2
370
     9
100
AcDbText
 10
-60.77829144452062
 20
-175.8960897117819
 30
0.0
 40
12.192
  1
3.2
 41
1.083333333333333
  7
ＭＳ ゴシック
100
AcDbText
  0
TEXT
  5
247
330
1F
100
AcDbEntity
  8
0-F
  6
Continuous
 62
     2
370
     9
100
AcDbText
 10
-109.26494124129
 20
-175.8960897117819
 30
0.0
 40
12.192
  1
1.8
 41
1.083333333333333
  7
ＭＳ ゴシック
100
AcDbText
  0
TEXT
  5
248
330
1F
100
AcDbEntity
  8
0-F
  6
Continuous
 62
     2
370
     9
100
AcDbText
 10
-286.7103230244404
 20
-135.8961556957346
 30
0.0
 40
12.192
  1
400
 41
1.083333333333333
  7
ＭＳ ゴシック
100
AcDbText
  0
TEXT
  5
249
330
1F
100
AcDbEntity
  8
0-F
  6
Continuous
 62
     2
370
     9
100
AcDbText
 10
-286.7103230244404
 20
-175.8960897117819
 30
0.0
 40
12.192
  1
390
 41
1.083333333333333
  7
ＭＳ ゴシック
100
AcDbText
  0
TEXT
  5
24A
330
1F
100
AcDbEntity
  8
0-F
  6
Continuous
 62
     2
370
     9
100
AcDbText
 10
-286.7103230244404
 20
-215.8960732157937
 30
0.0
 40
12.192
  1
370
 41
1.083333333333333
  7
ＭＳ ゴシック
100
AcDbText
  0
TEXT
  5
24B
330
1F
100
AcDbEntity
  8
0-F
  6
Continuous
 62
     2
370
     9
100
AcDbText
 10
242.0338029133179
 20
145.8478343080596
 30
0.0
 40
12.192
  1
300
 50
90.00000250447873
 41
1.083333333333334
  7
ＭＳ ゴシック
100
AcDbText
  0
TEXT
  5
24C
330
1F
100
AcDbEntity
  8
0-E
  6
Continuous
 62
     7
370
     9
100
AcDbText
 10
448.1605298841323
 20
473.5637799831084
 30
0.0
 40
9.144
  1
アンカー：φ９
 41
1.142857142857143
  7
ＭＳ ゴシック
100
AcDbText
  0
TEXT
  5
24D
330
1F
100
AcDbEntity
  8
0-E
  6
Continuous
 62
     7
370
     9
100
AcDbText
 10
444.0713327768688
 20
454.7065890519427
 30
0.0
 40
9.144
  1
ＳＳ４００，樹脂系塗装
 41
1.151515151515152
  7
ＭＳ ゴシック
100
AcDbText
  0
TEXT
  5
24E
330
1F
100
AcDbEntity
  8
0-E
  6
Continuous
 62
     7
370
     9
100
AcDbText
 10
493.3540971085831
 20
259.9253258551522
 30
0.0
 40
9.144
  1
蓋本体：ＦＣＤ５００
 41
1.15
  7
ＭＳ ゴシック
100
AcDbText
  0
TEXT
  5
24F
330
1F
100
AcDbEntity
  8
0-F
  6
Continuous
 62
     2
370
     9
100
AcDbText
 10
320.3898043245883
 20
-136.8961589949323
 30
0.0
 40
12.192
  1
63.2
 41
1.09375
  7
ＭＳ ゴシック
100
AcDbText
  0
TEXT
  5
250
330
1F
100
AcDbEntity
  8
0-F
  6
Continuous
 62
     2
370
     9
100
AcDbText
 10
327.7898584314296
 20
-96.89612600295592
 30
0.0
 40
12.192
  1
60
 41
1.0625
  7
ＭＳ ゴシック
100
AcDbText
  0
TEXT
  5
251
330
1F
100
AcDbEntity
  8
0-F
  6
Continuous
 62
     2
370
     9
100
AcDbText
 10
329.3486336372994
 20
-299.1713021801096
 30
0.0
 40
12.192
  1
仕様
 41
1.0625
  7
ＭＳ ゴシック
100
AcDbText
  0
TEXT
  5
252
330
1F
100
AcDbEntity
  8
0-F
  6
Continuous
 62
     2
370
     9
100
AcDbText
 10
329.3486134489994
 20
-323.1712823849261
 30
0.0
 40
12.192
  1
適用荷重：Ｔ－２
 50
0.0000099839861083
 41
1.109374999999996
  7
ＭＳ ゴシック
100
AcDbText
  0
TEXT
  5
253
330
1F
100
AcDbEntity
  8
0-F
  6
Continuous
 62
     2
370
     9
100
AcDbText
 10
329.3486435348923
 20
-371.1712799105256
 30
0.0
 40
12.192
  1
接触圧子：２００×１６０ｍｍ
 41
1.116071428571429
  7
ＭＳ ゴシック
100
AcDbText
  0
TEXT
  5
254
330
1F
100
AcDbEntity
  8
0-E
  6
Continuous
 62
     7
370
     9
100
AcDbText
 10
100.1246115194785
 20
427.1420897381759
 30
0.0
 40
9.144
  1
ＳＰＨＣ，樹脂系塗装
 41
1.15
  7
ＭＳ ゴシック
100
AcDbText
  0
TEXT
  5
255
330
1F
100
AcDbEntity
  8
0-F
  6
Continuous
 62
     2
370
     9
100
AcDbText
 10
242.0338027166167
 20
-22.15206671601102
 30
0.0
 40
12.192
  1
45
 50
90.00000250447944
 41
1.062499999999973
  7
ＭＳ ゴシック
100
AcDbText
  0
TEXT
  5
256
330
1F
100
AcDbEntity
  8
0-F
  6
Continuous
 62
     3
370
     9
100
AcDbText
 10
242.0338025505132
 20
307.3477755823416
 30
0.0
 40
12.192
  1
10
 50
90.00000250447756
 41
0.5874999999999991
  7
ＭＳ ゴシック
100
AcDbText
  0
TEXT
  5
257
330
1F
100
AcDbEntity
  8
0-F
  6
Continuous
 62
     3
370
     9
100
AcDbText
 10
224.2156610274646
 20
311.3652758462776
 30
0.0
 40
12.192
  1
6.5
 50
90.00000250447899
 41
0.5916666666666645
  7
ＭＳ ゴシック
100
AcDbText
  0
TEXT
  5
258
330
1F
100
AcDbEntity
  8
0-F
  6
Continuous
 62
     3
370
     9
100
AcDbText
 10
242.0338025505132
 20
326.3538263108044
 30
0.0
 40
12.192
  1
11
 50
90.00000250447756
 41
0.5874999999999991
  7
ＭＳ ゴシック
100
AcDbText
  0
TEXT
  5
259
330
1F
100
AcDbEntity
  8
0-F
  6
Continuous
 62
     3
370
     9
100
AcDbText
 10
224.2156610274646
 20
334.8447416401965
 30
0.0
 40
12.192
  1
6.5
 50
90.00000250447899
 41
0.5916666666666645
  7
ＭＳ ゴシック
100
AcDbText
  0
TEXT
  5
25A
330
1F
100
AcDbEntity
  8
0-F
  6
Continuous
 62
     3
370
     9
100
AcDbText
 10
242.0338025505132
 20
342.8866665240646
 30
0.0
 40
12.192
  1
11
 50
90.00000250447756
 41
0.5874999999999991
  7
ＭＳ ゴシック
100
AcDbText
  0
TEXT
  5
25B
330
1F
100
AcDbEntity
  8
0-E
  6
Continuous
 62
     7
370
     9
100
AcDbText
 10
102.103160136455
 20
445.2925925358954
 30
0.0
 40
9.144
  1
受枠：Ｌ６０Ｇ，ｔ＝３．２
 41
1.153846153846151
  7
ＭＳ ゴシック
100
AcDbText
  0
TEXT
  5
25C
330
1F
100
AcDbEntity
  8
0-E
  6
Continuous
 62
     7
370
     9
100
AcDbText
 10
492.827380206134
 20
238.6251120671454
 30
0.0
 40
9.144
  1
樹脂系塗装
 41
1.133333333333333
  7
ＭＳ ゴシック
100
AcDbText
  0
TEXT
  5
25D
330
1F
100
AcDbEntity
  8
0-F
  6
Continuous
 62
     2
370
     9
100
AcDbText
 10
329.3486039445208
 20
-347.1713120777025
 30
0.0
 40
12.192
  1
破壊荷重：３５ｋＮ（３，６００ｋｇｆ）以上
 41
1.119047619047619
  7
ＭＳ ゴシック
100
AcDbText
  0
TEXT
  5
25E
330
1F
100
AcDbEntity
  8
0-F
  6
Continuous
 62
     2
370
     9
100
AcDbText
 10
329.3488513843436
 20
-395.1713096033044
 30
0.0
 40
12.192
  1
蓋 質 量：１１．０ｋｇ
 41
1.113636363636364
  7
ＭＳ ゴシック
100
AcDbText
  0
TEXT
  5
25F
330
1F
100
AcDbEntity
  8
0-F
  6
Continuous
 62
     2
370
     9
100
AcDbText
 10
372.9897898081188
 20
-136.8961589949323
 30
0.0
 40
12.192
  1
24
 41
1.0625
  7
ＭＳ ゴシック
100
AcDbText
  0
LWPOLYLINE
  5
260
330
1F
100
AcDbEntity
  8
0-F
  6
Continuous
 62
     7
370
     9
100
AcDbPolyline
 90
        4
 70
     1
 43
0.4
 10
-76.71039626662791
 20
-180.1520963101773
 42
0.4142135623731
 10
-76.91039626662791
 20
-179.9520963101773
 42
0.4142135623731
 10
-77.11039626662792
 20
-180.1520963101773
 42
0.4142135623731
 10
-76.91039626662791
 20
-180.3520963101773
 42
0.4142135623731
  0
LWPOLYLINE
  5
261
330
1F
100
AcDbEntity
  8
0-F
  6
Continuous
 62
     7
370
     9
100
AcDbPolyline
 90
        4
 70
     1
 43
0.4
 10
-470.3103982461465
 20
-180.1520963101773
 42
0.4142135623731
 10
-470.5103982461465
 20
-179.9520963101773
 42
0.4142135623731
 10
-470.7103982461465
 20
-180.1520963101773
 42
0.4142135623731
 10
-470.5103982461465
 20
-180.3520963101773
 42
0.4142135623731
  0
LWPOLYLINE
  5
262
330
1F
100
AcDbEntity
  8
0-F
  6
Continuous
 62
     7
370
     9
100
AcDbPolyline
 90
        4
 70
     1
 43
0.4
 10
206.4897759514886
 20
355.6478106524495
 42
0.4142135623731
 10
206.2897759514887
 20
355.8478106524495
 42
0.4142135623731
 10
206.0897759514887
 20
355.6478106524495
 42
0.4142135623731
 10
206.2897759514887
 20
355.4478106524495
 42
0.4142135623731
  0
LWPOLYLINE
  5
263
330
1F
100
AcDbEntity
  8
0-F
  6
Continuous
 62
     7
370
     9
100
AcDbPolyline
 90
        4
 70
     1
 43
0.4
 10
206.4897759514886
 20
-37.95219132706904
 42
0.4142135623731
 10
206.2897759514887
 20
-37.75219132706904
 42
0.4142135623731
 10
206.0897759514887
 20
-37.95219132706904
 42
0.4142135623731
 10
206.2897759514887
 20
-38.15219132706905
 42
0.4142135623731
  0
LWPOLYLINE
  5
264
330
1F
100
AcDbEntity
  8
0-F
  6
Continuous
 62
     7
370
     9
100
AcDbPolyline
 90
        4
 70
     1
 43
0.4
 10
352.4898617306273
 20
112.2244312183279
 42
0.4142135623731
 10
352.2898617306273
 20
112.4244312183279
 42
0.4142135623731
 10
352.0898617306273
 20
112.2244312183279
 42
0.4142135623731
 10
352.2898617306273
 20
112.0244312183279
 42
0.4142135623731
  0
LWPOLYLINE
  5
265
330
1F
100
AcDbEntity
  8
0-F
  6
Continuous
 62
     7
370
     9
100
AcDbPolyline
 90
        4
 70
     1
 43
0.4
 10
246.4898089434651
 20
318.8477684227198
 42
0.4142135623731
 10
246.2898089434651
 20
319.0477684227198
 42
0.4142135623731
 10
246.0898089434651
 20
318.8477684227198
 42
0.4142135623731
 10
246.2898089434651
 20
318.6477684227198
 42
0.4142135623731
  0
LWPOLYLINE
  5
266
330
1F
100
AcDbEntity
  8
0-F
  6
Continuous
 62
     7
370
     9
100
AcDbPolyline
 90
        4
 70
     1
 43
0.4
 10
246.4898089434651
 20
325.3479135874157
 42
0.4142135623731
 10
246.2898089434651
 20
325.5479135874157
 42
0.4142135623731
 10
246.0898089434651
 20
325.3479135874157
 42
0.4142135623731
 10
246.2898089434651
 20
325.1479135874158
 42
0.4142135623731
  0
LWPOLYLINE
  5
267
330
1F
100
AcDbEntity
  8
0-F
  6
Continuous
 62
     7
370
     9
100
AcDbPolyline
 90
        4
 70
     1
 43
0.4
 10
246.4898089434651
 20
336.3479003906252
 42
0.4142135623731
 10
246.2898089434651
 20
336.5479003906252
 42
0.4142135623731
 10
246.0898089434651
 20
336.3479003906252
 42
0.4142135623731
 10
246.2898089434651
 20
336.1479003906252
 42
0.4142135623731
  0
LWPOLYLINE
  5
268
330
1F
100
AcDbEntity
  8
0-F
  6
Continuous
 62
     7
370
     9
100
AcDbPolyline
 90
        4
 70
     1
 43
0.4
 10
246.4898089434651
 20
342.847847603463
 42
0.4142135623731
 10
246.2898089434651
 20
343.047847603463
 42
0.4142135623731
 10
246.0898089434651
 20
342.847847603463
 42
0.4142135623731
 10
246.2898089434651
 20
342.647847603463
 42
0.4142135623731
  0
LWPOLYLINE
  5
269
330
1F
100
AcDbEntity
  8
0-F
  6
Continuous
 62
     7
370
     9
100
AcDbPolyline
 90
        4
 70
     1
 43
0.4
 10
246.4898089434651
 20
353.8478344066725
 42
0.4142135623731
 10
246.2898089434651
 20
354.0478344066725
 42
0.4142135623731
 10
246.0898089434651
 20
353.8478344066725
 42
0.4142135623731
 10
246.2898089434651
 20
353.6478344066725
 42
0.4142135623731
  0
TEXT
  5
26A
330
1F
100
AcDbEntity
  8
F-5ﾚｲﾔ
  6
Continuous
 62
     3
370
     9
100
AcDbText
 10
-208.8454705162533
 20
-549.8055966172748
 30
0.0
 40
12.192
  1
カラー舗装用みぞ蓋　ＧＨＷ－２－３００＋Ｌ６０Ｇ
 41
0.9468749999999999
  7
ＭＳ ゴシック
100
AcDbText
  0
ENDSEC
  0
SECTION
  2
OBJECTS
  0
DICTIONARY
  5
C
330
0
100
AcDbDictionary
281
     1
  3
ACAD_GROUP
350
D
  3
ACAD_LAYOUT
350
1A
  3
ACAD_MLEADERSTYLE
350
26C
  3
ACAD_MLINESTYLE
350
17
  3
ACAD_PLOTSETTINGS
350
19
  3
ACAD_PLOTSTYLENAME
350
E
  3
ACAD_TABLESTYLE
350
26B
  3
ACAD_VISUALSTYLE
350
2A
  0
DICTIONARY
  5
D
102
{ACAD_REACTORS
330
C
102
}
330
C
100
AcDbDictionary
281
     1
  0
DICTIONARY
  5
1A
102
{ACAD_REACTORS
330
C
102
}
330
C
100
AcDbDictionary
281
     1
  3
Layout1
350
1E
  3
Layout2
350
26
  3
Model
350
22
  0
DICTIONARY
  5
26C
102
{ACAD_REACTORS
330
C
102
}
330
C
100
AcDbDictionary
281
     1
  0
DICTIONARY
  5
17
102
{ACAD_REACTORS
330
C
102
}
330
C
100
AcDbDictionary
281
     1
  3
Standard
350
18
  0
DICTIONARY
  5
19
102
{ACAD_REACTORS
330
C
102
}
330
C
100
AcDbDictionary
281
     1
  0
ACDBDICTIONARYWDFLT
  5
E
102
{ACAD_REACTORS
330
C
102
}
330
C
100
AcDbDictionary
281
     1
  3
Normal
350
F
100
AcDbDictionaryWithDefault
340
F
  0
DICTIONARY
  5
26B
102
{ACAD_REACTORS
330
C
102
}
330
C
100
AcDbDictionary
281
     1
  0
DICTIONARY
  5
2A
102
{ACAD_REACTORS
330
C
102
}
330
C
100
AcDbDictionary
281
     1
  3
2dWireframe
350
2F
  3
3D Hidden
350
31
  3
3dWireframe
350
30
  3
Basic
350
32
  3
Brighten
350
36
  3
ColorChange
350
3A
  3
Conceptual
350
34
  3
Dim
350
35
  3
Facepattern
350
39
  3
Flat
350
2B
  3
FlatWithEdges
350
2C
  3
Gouraud
350
2D
  3
GouraudWithEdges
350
2E
  3
Linepattern
350
38
  3
Realistic
350
33
  3
Thicken
350
37
  0
LAYOUT
  5
1E
102
{ACAD_REACTORS
330
1A
102
}
330
1A
100
AcDbPlotSettings
  1

  2
none_device
  4

  6

 40
0.0
 41
0.0
 42
0.0
 43
0.0
 44
0.0
 45
0.0
 46
0.0
 47
0.0
 48
0.0
 49
0.0
140
0.0
141
0.0
142
1.0
143
1.0
 70
   688
 72
     0
 73
     0
 74
     5
  7

 75
    16
 76
     0
 77
     5
 78
   300
147
1.0
148
0.0
149
0.0
100
AcDbLayout
  1
Layout1
 70
     1
 71
     1
 10
0.0
 20
0.0
 11
420.0
 21
297.0
 12
0.0
 22
0.0
 32
0.0
 14
1.000000000000000E+20
 24
1.000000000000000E+20
 34
1.000000000000000E+20
 15
-1.000000000000000E+20
 25
-1.000000000000000E+20
 35
-1.000000000000000E+20
146
0.0
 13
0.0
 23
0.0
 33
0.0
 16
1.0
 26
0.0
 36
0.0
 17
0.0
 27
1.0
 37
0.0
 76
     0
330
1B
  0
LAYOUT
  5
26
102
{ACAD_REACTORS
330
1A
102
}
330
1A
100
AcDbPlotSettings
  1

  2
none_device
  4

  6

 40
0.0
 41
0.0
 42
0.0
 43
0.0
 44
0.0
 45
0.0
 46
0.0
 47
0.0
 48
0.0
 49
0.0
140
0.0
141
0.0
142
1.0
143
1.0
 70
   688
 72
     0
 73
     0
 74
     5
  7

 75
    16
 76
     0
 77
     5
 78
   300
147
1.0
148
0.0
149
0.0
100
AcDbLayout
  1
Layout2
 70
     1
 71
     2
 10
0.0
 20
0.0
 11
0.0
 21
0.0
 12
0.0
 22
0.0
 32
0.0
 14
0.0
 24
0.0
 34
0.0
 15
0.0
 25
0.0
 35
0.0
146
0.0
 13
0.0
 23
0.0
 33
0.0
 16
1.0
 26
0.0
 36
0.0
 17
0.0
 27
1.0
 37
0.0
 76
     0
330
23
  0
LAYOUT
  5
22
102
{ACAD_REACTORS
330
1A
102
}
330
1A
100
AcDbPlotSettings
  1

  2
none_device
  4

  6

 40
0.0
 41
0.0
 42
0.0
 43
0.0
 44
0.0
 45
0.0
 46
0.0
 47
0.0
 48
0.0
 49
0.0
140
0.0
141
0.0
142
1.0
143
1.0
 70
  1712
 72
     0
 73
     0
 74
     0
  7

 75
     0
 76
     0
 77
     5
 78
   300
147
1.0
148
0.0
149
0.0
100
AcDbLayout
  1
Model
 70
     1
 71
     0
 10
-840.0
 20
-594.0
 11
840.0
 21
594.0
 12
0.0
 22
0.0
 32
0.0
 14
-840.0
 24
-594.0
 34
0.0
 15
840.0
 25
594.0
 35
0.0
146
0.0
 13
0.0
 23
0.0
 33
0.0
 16
1.0
 26
0.0
 36
0.0
 17
0.0
 27
1.0
 37
0.0
 76
     0
330
1F
331
29
  0
MLINESTYLE
  5
18
102
{ACAD_REACTORS
330
17
102
}
330
17
100
AcDbMlineStyle
  2
Standard
 70
     0
  3

 62
   256
 51
90.0
 52
90.0
 71
     2
 49
0.5
 62
   256
  6
BYLAYER
 49
-0.5
 62
   256
  6
BYLAYER
  0
ACDBPLACEHOLDER
  5
F
102
{ACAD_REACTORS
330
E
102
}
330
E
  0
VISUALSTYLE
  5
2F
102
{ACAD_REACTORS
330
2A
102
}
330
2A
100
AcDbVisualStyle
  2
2dWireframe
 70
     4
 71
     0
 72
     2
 73
     0
 90
        0
 40
-0.6
 41
-30.0
 62
     5
 63
     7
421
 16777215
 74
     1
 91
        4
 64
     7
 65
   257
 75
     1
175
     1
 42
1.0
 92
        0
 66
   257
 43
1.0
 76
     1
 77
     6
 78
     2
 67
     7
 79
     5
170
     0
171
     0
290
     0
174
     0
 93
        1
 44
0.0
173
     0
291
     0
 45
0.0
1001
ACAD
1000
AcDbSavedByObjectVersion
1070
     0
  0
VISUALSTYLE
  5
31
102
{ACAD_REACTORS
330
2A
102
}
330
2A
100
AcDbVisualStyle
  2
3D Hidden
 70
     6
 71
     1
 72
     2
 73
     2
 90
        0
 40
-0.6
 41
-30.0
 62
     5
 63
     7
421
 16777215
 74
     2
 91
        2
 64
     7
 65
   257
 75
     2
175
     1
 42
40.0
 92
        0
 66
   257
 43
1.0
 76
     1
 77
     6
 78
     2
 67
     7
 79
     3
170
     0
171
     0
290
     0
174
     0
 93
        1
 44
0.0
173
     0
291
     0
 45
0.0
1001
ACAD
1000
AcDbSavedByObjectVersion
1070
     0
  0
VISUALSTYLE
  5
30
102
{ACAD_REACTORS
330
2A
102
}
330
2A
100
AcDbVisualStyle
  2
3dWireframe
 70
     5
 71
     0
 72
     2
 73
     0
 90
        0
 40
-0.6
 41
-30.0
 62
     5
 63
     7
421
 16777215
 74
     1
 91
        4
 64
     7
 65
   257
 75
     1
175
     1
 42
1.0
 92
        0
 66
   257
 43
1.0
 76
     1
 77
     6
 78
     2
 67
     7
 79
     5
170
     0
171
     0
290
     0
174
     0
 93
        1
 44
0.0
173
     0
291
     0
 45
0.0
1001
ACAD
1000
AcDbSavedByObjectVersion
1070
     0
  0
VISUALSTYLE
  5
32
102
{ACAD_REACTORS
330
2A
102
}
330
2A
100
AcDbVisualStyle
  2
Basic
 70
     7
 71
     1
 72
     0
 73
     1
 90
        0
 40
-0.6
 41
-30.0
 62
     5
 63
     7
421
 16777215
 74
     0
 91
        4
 64
     7
 65
   257
 75
     1
175
     1
 42
1.0
 92
        8
 66
     7
 43
1.0
 76
     1
 77
     6
 78
     2
 67
     7
 79
     5
170
     0
171
     0
290
     0
174
     0
 93
        1
 44
0.0
173
     0
291
     1
 45
0.0
1001
ACAD
1000
AcDbSavedByObjectVersion
1070
     0
  0
VISUALSTYLE
  5
36
102
{ACAD_REACTORS
330
2A
102
}
330
2A
100
AcDbVisualStyle
  2
Brighten
 70
    12
 71
     2
 72
     2
 73
     0
 90
        0
 40
-0.6
 41
-30.0
 62
     5
 63
     7
421
 16777215
 74
     1
 91
        4
 64
     7
 65
   257
 75
     1
175
     1
 42
1.0
 92
        8
 66
     7
 43
1.0
 76
     1
 77
     6
 78
     2
 67
     7
 79
     5
170
     0
171
     0
290
     0
174
     0
 93
        1
 44
50.0
173
     0
291
     1
 45
0.0
1001
ACAD
1000
AcDbSavedByObjectVersion
1070
     0
  0
VISUALSTYLE
  5
3A
102
{ACAD_REACTORS
330
2A
102
}
330
2A
100
AcDbVisualStyle
  2
ColorChange
 70
    16
 71
     2
 72
     2
 73
     3
 90
        0
 40
-0.6
 41
-30.0
 62
     5
 63
     8
421
  8421504
 74
     1
 91
        4
 64
     7
 65
   257
 75
     1
175
     1
 42
1.0
 92
        8
 66
     8
424
  8421504
 43
1.0
 76
     1
 77
     6
 78
     2
 67
     7
 79
     5
170
     0
171
     0
290
     0
174
     0
 93
        1
 44
0.0
173
     0
291
     1
 45
0.0
1001
ACAD
1000
AcDbSavedByObjectVersion
1070
     0
  0
VISUALSTYLE
  5
34
102
{ACAD_REACTORS
330
2A
102
}
330
2A
100
AcDbVisualStyle
  2
Conceptual
 70
     9
 71
     3
 72
     2
 73
     0
 90
        0
 40
-0.6
 41
-30.0
 62
     5
 63
     7
421
 16777215
 74
     2
 91
        2
 64
     7
 65
   257
 75
     1
175
     1
 42
40.0
 92
        8
 66
     7
 43
1.0
 76
     1
 77
     6
 78
     2
 67
     7
 79
     3
170
     0
171
     0
290
     0
174
     0
 93
        1
 44
0.0
173
     0
291
     0
 45
0.0
1001
ACAD
1000
AcDbSavedByObjectVersion
1070
     0
  0
VISUALSTYLE
  5
35
102
{ACAD_REACTORS
330
2A
102
}
330
2A
100
AcDbVisualStyle
  2
Dim
 70
    11
 71
     2
 72
     2
 73
     0
 90
        0
 40
-0.6
 41
-30.0
 62
     5
 63
     7
421
 16777215
 74
     1
 91
        4
 64
     7
 65
   257
 75
     1
175
     1
 42
1.0
 92
        8
 66
     7
 43
1.0
 76
     1
 77
     6
 78
     2
 67
     7
 79
     5
170
     0
171
     0
290
     0
174
     0
 93
        1
 44
-50.0
173
     0
291
     1
 45
0.0
1001
ACAD
1000
AcDbSavedByObjectVersion
1070
     0
  0
VISUALSTYLE
  5
39
102
{ACAD_REACTORS
330
2A
102
}
330
2A
100
AcDbVisualStyle
  2
Facepattern
 70
    15
 71
     2
 72
     2
 73
     0
 90
        0
 40
-0.6
 41
-30.0
 62
     5
 63
     7
421
 16777215
 74
     1
 91
        4
 64
     7
 65
   257
 75
     1
175
     1
 42
1.0
 92
        8
 66
     7
 43
1.0
 76
     1
 77
     6
 78
     2
 67
     7
 79
     5
170
     0
171
     0
290
     0
174
     0
 93
        1
 44
0.0
173
     0
291
     1
 45
0.0
1001
ACAD
1000
AcDbSavedByObjectVersion
1070
     0
  0
VISUALSTYLE
  5
2B
102
{ACAD_REACTORS
330
2A
102
}
330
2A
100
AcDbVisualStyle
  2
Flat
 70
     0
 71
     2
 72
     1
 73
     1
 90
        2
 40
-0.6
 41
30.0
 62
     5
 63
     7
421
 16777215
 74
     0
 91
        4
 64
     7
 65
   257
 75
     1
175
     1
 42
1.0
 92
        8
 66
     7
 43
1.0
 76
     1
 77
     6
 78
     2
 67
     7
 79
     5
170
     0
171
     0
290
     0
174
     0
 93
       13
 44
0.0
173
     0
291
     1
 45
0.0
1001
ACAD
1000
AcDbSavedByObjectVersion
1070
     0
  0
VISUALSTYLE
  5
2C
102
{ACAD_REACTORS
330
2A
102
}
330
2A
100
AcDbVisualStyle
  2
FlatWithEdges
 70
     1
 71
     2
 72
     1
 73
     1
 90
        2
 40
-0.6
 41
30.0
 62
     5
 63
     7
421
 16777215
 74
     1
 91
        4
 64
     7
 65
   257
 75
     1
175
     1
 42
1.0
 92
        0
 66
   257
 43
1.0
 76
     1
 77
     6
 78
     2
 67
     7
 79
     5
170
     0
171
     0
290
     0
174
     0
 93
       13
 44
0.0
173
     0
291
     1
 45
0.0
1001
ACAD
1000
AcDbSavedByObjectVersion
1070
     0
  0
VISUALSTYLE
  5
2D
102
{ACAD_REACTORS
330
2A
102
}
330
2A
100
AcDbVisualStyle
  2
Gouraud
 70
     2
 71
     2
 72
     2
 73
     1
 90
        2
 40
-0.6
 41
30.0
 62
     5
 63
     7
421
 16777215
 74
     0
 91
        4
 64
     7
 65
   257
 75
     1
175
     1
 42
1.0
 92
        0
 66
     7
 43
1.0
 76
     1
 77
     6
 78
     2
 67
     7
 79
     5
170
     0
171
     0
290
     0
174
     0
 93
       13
 44
0.0
173
     0
291
     1
 45
0.0
1001
ACAD
1000
AcDbSavedByObjectVersion
1070
     0
  0
VISUALSTYLE
  5
2E
102
{ACAD_REACTORS
330
2A
102
}
330
2A
100
AcDbVisualStyle
  2
GouraudWithEdges
 70
     3
 71
     2
 72
     2
 73
     1
 90
        2
 40
-0.6
 41
30.0
 62
     5
 63
     7
421
 16777215
 74
     1
 91
        4
 64
     7
 65
   257
 75
     1
175
     1
 42
1.0
 92
        0
 66
   257
 43
1.0
 76
     1
 77
     6
 78
     2
 67
     7
 79
     5
170
     0
171
     0
290
     0
174
     0
 93
       13
 44
0.0
173
     0
291
     1
 45
0.0
1001
ACAD
1000
AcDbSavedByObjectVersion
1070
     0
  0
VISUALSTYLE
  5
38
102
{ACAD_REACTORS
330
2A
102
}
330
2A
100
AcDbVisualStyle
  2
Linepattern
 70
    14
 71
     2
 72
     2
 73
     0
 90
        0
 40
-0.6
 41
-30.0
 62
     5
 63
     7
421
 16777215
 74
     1
 91
        4
 64
     7
 65
   257
 75
     7
175
     7
 42
1.0
 92
        8
 66
     7
 43
1.0
 76
     1
 77
     6
 78
     2
 67
     7
 79
     5
170
     0
171
     0
290
     0
174
     0
 93
        1
 44
0.0
173
     0
291
     1
 45
0.0
1001
ACAD
1000
AcDbSavedByObjectVersion
1070
     0
  0
VISUALSTYLE
  5
33
102
{ACAD_REACTORS
330
2A
102
}
330
2A
100
AcDbVisualStyle
  2
Realistic
 70
     8
 71
     2
 72
     2
 73
     0
 90
        0
 40
-0.6
 41
-30.0
 62
     5
 63
     7
421
 16777215
 74
     1
 91
        0
 64
     7
 65
   257
 75
     1
175
     1
 42
1.0
 92
        8
 66
     8
424
  7895160
 43
1.0
 76
     1
 77
     6
 78
     2
 67
     7
 79
     5
170
     0
171
     0
290
     0
174
     0
 93
       13
 44
0.0
173
     0
291
     0
 45
0.0
1001
ACAD
1000
AcDbSavedByObjectVersion
1070
     0
  0
VISUALSTYLE
  5
37
102
{ACAD_REACTORS
330
2A
102
}
330
2A
100
AcDbVisualStyle
  2
Thicken
 70
    13
 71
     2
 72
     2
 73
     0
 90
        0
 40
-0.6
 41
-30.0
 62
     5
 63
     7
421
 16777215
 74
     1
 91
        4
 64
     7
 65
   257
 75
     1
175
     1
 42
1.0
 92
       12
 66
     7
 43
1.0
 76
     1
 77
     6
 78
     2
 67
     7
 79
     5
170
     0
171
     0
290
     0
174
     0
 93
        1
 44
0.0
173
     0
291
     1
 45
0.0
1001
ACAD
1000
AcDbSavedByObjectVersion
1070
     0
  0
ENDSEC
  0
EOF
