  0
SECTION
  2
HEADER
  9
$ACADVER
  1
AC1018
  9
$ACADMAINTVER
 70
     0
  9
$DWGCODEPAGE
  3
ANSI_932
  9
$INSBASE
 10
0.0
 20
0.0
 30
0.0
  9
$EXTMIN
 10
-840.0
 20
-594.0
 30
0.0
  9
$EXTMAX
 10
840.0
 20
594.0
 30
0.0
  9
$LIMMIN
 10
-840.0
 20
-594.0
  9
$LIMMAX
 10
840.0
 20
594.0
  9
$ORTHOMODE
 70
     0
  9
$REGENMODE
 70
     1
  9
$FILLMODE
 70
     1
  9
$QTEXTMODE
 70
     0
  9
$MIRRTEXT
 70
     1
  9
$LTSCALE
 40
4.0
  9
$ATTMODE
 70
     1
  9
$TEXTSIZE
 40
2.5
  9
$TRACEWID
 40
1.0
  9
$TEXTSTYLE
  7
Standard
  9
$CLAYER
  8
0
  9
$CELTYPE
  6
ByLayer
  9
$CECOLOR
 62
   256
  9
$CELTSCALE
 40
1.0
  9
$DISPSILH
 70
     0
  9
$DIMSCALE
 40
1.0
  9
$DIMASZ
 40
2.5
  9
$DIMEXO
 40
0.625
  9
$DIMDLI
 40
3.75
  9
$DIMRND
 40
0.0
  9
$DIMDLE
 40
0.0
  9
$DIMEXE
 40
1.25
  9
$DIMTP
 40
0.0
  9
$DIMTM
 40
0.0
  9
$DIMTXT
 40
2.5
  9
$DIMCEN
 40
2.5
  9
$DIMTSZ
 40
0.0
  9
$DIMTOL
 70
     0
  9
$DIMLIM
 70
     0
  9
$DIMTIH
 70
     0
  9
$DIMTOH
 70
     0
  9
$DIMSE1
 70
     0
  9
$DIMSE2
 70
     0
  9
$DIMTAD
 70
     1
  9
$DIMZIN
 70
     8
  9
$DIMBLK
  1

  9
$DIMASO
 70
     1
  9
$DIMSHO
 70
     1
  9
$DIMPOST
  1

  9
$DIMAPOST
  1

  9
$DIMALT
 70
     0
  9
$DIMALTD
 70
     3
  9
$DIMALTF
 40
0.03937007874016
  9
$DIMLFAC
 40
1.0
  9
$DIMTOFL
 70
     1
  9
$DIMTVP
 40
0.0
  9
$DIMTIX
 70
     0
  9
$DIMSOXD
 70
     0
  9
$DIMSAH
 70
     0
  9
$DIMBLK1
  1

  9
$DIMBLK2
  1

  9
$DIMSTYLE
  2
ISO-25
  9
$DIMCLRD
 70
     0
  9
$DIMCLRE
 70
     0
  9
$DIMCLRT
 70
     0
  9
$DIMTFAC
 40
1.0
  9
$DIMGAP
 40
0.625
  9
$DIMJUST
 70
     0
  9
$DIMSD1
 70
     0
  9
$DIMSD2
 70
     0
  9
$DIMTOLJ
 70
     0
  9
$DIMTZIN
 70
     8
  9
$DIMALTZ
 70
     0
  9
$DIMALTTZ
 70
     0
  9
$DIMUPT
 70
     0
  9
$DIMDEC
 70
     2
  9
$DIMTDEC
 70
     2
  9
$DIMALTU
 70
     2
  9
$DIMALTTD
 70
     3
  9
$DIMTXSTY
  7
Standard
  9
$DIMAUNIT
 70
     0
  9
$DIMADEC
 70
     0
  9
$DIMALTRND
 40
0.0
  9
$DIMAZIN
 70
     0
  9
$DIMDSEP
 70
    44
  9
$DIMATFIT
 70
     3
  9
$DIMFRAC
 70
     0
  9
$DIMLDRBLK
  1

  9
$DIMLUNIT
 70
     2
  9
$DIMLWD
 70
    -2
  9
$DIMLWE
 70
    -2
  9
$DIMTMOVE
 70
     0
  9
$LUNITS
 70
     2
  9
$LUPREC
 70
     4
  9
$SKETCHINC
 40
1.0
  9
$FILLETRAD
 40
10.0
  9
$AUNITS
 70
     0
  9
$AUPREC
 70
     0
  9
$MENU
  1
.
  9
$ELEVATION
 40
0.0
  9
$PELEVATION
 40
0.0
  9
$THICKNESS
 40
0.0
  9
$LIMCHECK
 70
     0
  9
$CHAMFERA
 40
10.0
  9
$CHAMFERB
 40
10.0
  9
$CHAMFERC
 40
20.0
  9
$CHAMFERD
 40
0.0
  9
$SKPOLY
 70
     0
  9
$TDCREATE
 40
2457532.606011551
  9
$TDUCREATE
 40
2457532.231011551
  9
$TDUPDATE
 40
2457532.606011563
  9
$TDUUPDATE
 40
2457532.231011563
  9
$TDINDWG
 40
0.0000000116
  9
$TDUSRTIMER
 40
0.0000000116
  9
$USRTIMER
 70
     1
  9
$ANGBASE
 50
0.0
  9
$ANGDIR
 70
     0
  9
$PDMODE
 70
     0
  9
$PDSIZE
 40
0.0
  9
$PLINEWID
 40
0.0
  9
$SPLFRAME
 70
     0
  9
$SPLINETYPE
 70
     6
  9
$SPLINESEGS
 70
     8
  9
$HANDSEED
  5
28C
  9
$SURFTAB1
 70
     6
  9
$SURFTAB2
 70
     6
  9
$SURFTYPE
 70
     6
  9
$SURFU
 70
     6
  9
$SURFV
 70
     6
  9
$UCSBASE
  2

  9
$UCSNAME
  2

  9
$UCSORG
 10
0.0
 20
0.0
 30
0.0
  9
$UCSXDIR
 10
1.0
 20
0.0
 30
0.0
  9
$UCSYDIR
 10
0.0
 20
1.0
 30
0.0
  9
$UCSORTHOREF
  2

  9
$UCSORTHOVIEW
 70
     0
  9
$UCSORGTOP
 10
0.0
 20
0.0
 30
0.0
  9
$UCSORGBOTTOM
 10
0.0
 20
0.0
 30
0.0
  9
$UCSORGLEFT
 10
0.0
 20
0.0
 30
0.0
  9
$UCSORGRIGHT
 10
0.0
 20
0.0
 30
0.0
  9
$UCSORGFRONT
 10
0.0
 20
0.0
 30
0.0
  9
$UCSORGBACK
 10
0.0
 20
0.0
 30
0.0
  9
$PUCSBASE
  2

  9
$PUCSNAME
  2

  9
$PUCSORG
 10
0.0
 20
0.0
 30
0.0
  9
$PUCSXDIR
 10
1.0
 20
0.0
 30
0.0
  9
$PUCSYDIR
 10
0.0
 20
1.0
 30
0.0
  9
$PUCSORTHOREF
  2

  9
$PUCSORTHOVIEW
 70
     0
  9
$PUCSORGTOP
 10
0.0
 20
0.0
 30
0.0
  9
$PUCSORGBOTTOM
 10
0.0
 20
0.0
 30
0.0
  9
$PUCSORGLEFT
 10
0.0
 20
0.0
 30
0.0
  9
$PUCSORGRIGHT
 10
0.0
 20
0.0
 30
0.0
  9
$PUCSORGFRONT
 10
0.0
 20
0.0
 30
0.0
  9
$PUCSORGBACK
 10
0.0
 20
0.0
 30
0.0
  9
$USERI1
 70
     0
  9
$USERI2
 70
     0
  9
$USERI3
 70
     0
  9
$USERI4
 70
     0
  9
$USERI5
 70
     0
  9
$USERR1
 40
0.0
  9
$USERR2
 40
0.0
  9
$USERR3
 40
0.0
  9
$USERR4
 40
0.0
  9
$USERR5
 40
0.0
  9
$WORLDVIEW
 70
     1
  9
$SHADEDGE
 70
     3
  9
$SHADEDIF
 70
    70
  9
$TILEMODE
 70
     1
  9
$MAXACTVP
 70
    64
  9
$PINSBASE
 10
0.0
 20
0.0
 30
0.0
  9
$PLIMCHECK
 70
     0
  9
$PEXTMIN
 10
1.000000000000000E+20
 20
1.000000000000000E+20
 30
1.000000000000000E+20
  9
$PEXTMAX
 10
-1.000000000000000E+20
 20
-1.000000000000000E+20
 30
-1.000000000000000E+20
  9
$PLIMMIN
 10
0.0
 20
0.0
  9
$PLIMMAX
 10
420.0
 20
297.0
  9
$UNITMODE
 70
     0
  9
$VISRETAIN
 70
     1
  9
$PLINEGEN
 70
     0
  9
$PSLTSCALE
 70
     1
  9
$TREEDEPTH
 70
  3020
  9
$CMLSTYLE
  2
Standard
  9
$CMLJUST
 70
     0
  9
$CMLSCALE
 40
20.0
  9
$PROXYGRAPHICS
 70
     1
  9
$MEASUREMENT
 70
     1
  9
$CELWEIGHT
370
    -1
  9
$ENDCAPS
280
     0
  9
$JOINSTYLE
280
     0
  9
$LWDISPLAY
290
     0
  9
$INSUNITS
 70
     4
  9
$HYPERLINKBASE
  1

  9
$STYLESHEET
  1

  9
$XEDIT
290
     1
  9
$CEPSNTYPE
380
     0
  9
$PSTYLEMODE
290
     1
  9
$FINGERPRINTGUID
  2
{0A9E4C5A-770B-4A66-87DE-0CA92D46A8EF}
  9
$VERSIONGUID
  2
{FAEB1C32-E019-11D5-929B-00C0DF256EC4}
  9
$EXTNAMES
290
     1
  9
$PSVPSCALE
 40
0.0
  9
$OLESTARTUP
290
     0
  9
$SORTENTS
280
   127
  9
$INDEXCTL
280
     0
  9
$HIDETEXT
280
     1
  9
$XCLIPFRAME
290
     0
  9
$HALOGAP
280
     0
  9
$OBSCOLOR
 70
   257
  9
$OBSLTYPE
280
     0
  9
$INTERSECTIONDISPLAY
280
     0
  9
$INTERSECTIONCOLOR
 70
   257
  9
$DIMASSOC
280
     2
  9
$PROJECTNAME
  1

  0
ENDSEC
  0
SECTION
  2
CLASSES
  0
CLASS
  1
ACDBDICTIONARYWDFLT
  2
AcDbDictionaryWithDefault
  3
ObjectDBX Classes
 90
        0
 91
        4
280
     0
281
     0
  0
CLASS
  1
VISUALSTYLE
  2
AcDbVisualStyle
  3
ObjectDBX Classes
 90
     4095
 91
        4
280
     0
281
     0
  0
ENDSEC
  0
SECTION
  2
TABLES
  0
TABLE
  2
VPORT
  5
8
330
0
100
AcDbSymbolTable
 70
     1
  0
VPORT
  5
29
330
8
100
AcDbSymbolTableRecord
100
AcDbViewportTableRecord
  2
*Active
 70
     0
 10
0.0
 20
0.0
 11
1.0
 21
1.0
 12
0.0
 22
0.0
 13
0.0
 23
0.0
 14
10.0
 24
10.0
 15
10.0
 25
10.0
 16
0.0
 26
0.0
 36
1.0
 17
0.0
 27
0.0
 37
0.0
 40
1306.8
 41
1.414141414141414
 42
50.0
 43
0.0
 44
0.0
 50
0.0
 51
0.0
 71
     0
 72
 10000
 73
     1
 74
     3
 75
     0
 76
     0
 77
     0
 78
     0
281
     0
 65
     1
110
0.0
120
0.0
130
0.0
111
1.0
121
0.0
131
0.0
112
0.0
122
1.0
132
0.0
 79
     0
146
0.0
  0
ENDTAB
  0
TABLE
  2
LTYPE
  5
5
330
0
100
AcDbSymbolTable
 70
     3
  0
LTYPE
  5
14
330
5
100
AcDbSymbolTableRecord
100
AcDbLinetypeTableRecord
  2
ByBlock
 70
     0
  3

 72
    65
 73
     0
 40
0.0
  0
LTYPE
  5
15
330
5
100
AcDbSymbolTableRecord
100
AcDbLinetypeTableRecord
  2
ByLayer
 70
     0
  3

 72
    65
 73
     0
 40
0.0
  0
LTYPE
  5
16
330
5
100
AcDbSymbolTableRecord
100
AcDbLinetypeTableRecord
  2
Continuous
 70
     0
  3
Solid line
 72
    65
 73
     0
 40
0.0
  0
LTYPE
  5
3C
330
5
100
AcDbSymbolTableRecord
100
AcDbLinetypeTableRecord
  2
JWW_CENTER1
 70
     0
  3
-----  --  ----------  --  -----
 72
    65
 73
     4
 40
6.773333333333333
 49
4.233333333333333
 74
     0
 49
-0.8466666666666667
 74
     0
 49
0.8466666666666667
 74
     0
 49
-0.8466666666666667
 74
     0
  0
LTYPE
  5
3D
330
5
100
AcDbSymbolTableRecord
100
AcDbLinetypeTableRecord
  2
JWW_DASHED3
 70
     0
  3
---  ------  ------  ------  ---
 72
    65
 73
     2
 40
3.386666666666667
 49
2.54
 74
     0
 49
-0.8466666666666667
 74
     0
  0
ENDTAB
  0
TABLE
  2
LAYER
  5
2
330
0
100
AcDbSymbolTable
 70
     6
  0
LAYER
  5
10
330
2
100
AcDbSymbolTableRecord
100
AcDbLayerTableRecord
  2
0
 70
     0
 62
     7
  6
Continuous
370
    -3
390
F
  0
LAYER
  5
3E
330
2
100
AcDbSymbolTableRecord
100
AcDbLayerTableRecord
  2
F-5ﾚｲﾔ
 70
     0
 62
     7
  6
Continuous
370
    -3
390
F
  0
LAYER
  5
3F
330
2
100
AcDbSymbolTableRecord
100
AcDbLayerTableRecord
  2
0-E
 70
     0
 62
     7
  6
Continuous
370
    -3
390
F
  0
LAYER
  5
40
330
2
100
AcDbSymbolTableRecord
100
AcDbLayerTableRecord
  2
0-F
 70
     0
 62
     7
  6
Continuous
370
    -3
390
F
  0
LAYER
  5
41
330
2
100
AcDbSymbolTableRecord
100
AcDbLayerTableRecord
  2
躯体
 70
     0
 62
     7
  6
Continuous
370
    -3
390
F
  0
LAYER
  5
42
330
2
100
AcDbSymbolTableRecord
100
AcDbLayerTableRecord
  2
通り芯
 70
     0
 62
     7
  6
Continuous
370
    -3
390
F
  0
ENDTAB
  0
TABLE
  2
STYLE
  5
3
330
0
100
AcDbSymbolTable
 70
     2
  0
STYLE
  5
11
330
3
100
AcDbSymbolTableRecord
100
AcDbTextStyleTableRecord
  2
Standard
 70
     0
 40
0.0
 41
1.0
 50
0.0
 71
     0
 42
2.5
  3
txt
  4

1001
ACAD
1000

1071
        0
  0
STYLE
  5
3B
330
3
100
AcDbSymbolTableRecord
100
AcDbTextStyleTableRecord
  2
ＭＳ ゴシック
 70
     0
 40
1.0
 41
1.0
 50
0.0
 71
     0
 42
10.0
  3

  4

1001
ACAD
1000
MS Gothic
1071
    32817
  0
ENDTAB
  0
TABLE
  2
VIEW
  5
6
330
0
100
AcDbSymbolTable
 70
     0
  0
ENDTAB
  0
TABLE
  2
UCS
  5
7
330
0
100
AcDbSymbolTable
 70
     0
  0
ENDTAB
  0
TABLE
  2
APPID
  5
9
330
0
100
AcDbSymbolTable
 70
     1
  0
APPID
  5
12
330
9
100
AcDbSymbolTableRecord
100
AcDbRegAppTableRecord
  2
ACAD
 70
     0
  0
ENDTAB
  0
TABLE
  2
DIMSTYLE
  5
A
330
0
100
AcDbSymbolTable
 70
     1
100
AcDbDimStyleTable
  0
DIMSTYLE
105
27
330
A
100
AcDbSymbolTableRecord
100
AcDbDimStyleTableRecord
  2
ISO-25
 70
     0
 41
2.5
 42
0.625
 43
3.75
 44
1.25
 73
     0
 74
     0
 77
     1
 78
     8
140
2.5
141
2.5
143
0.03937007874016
147
0.625
171
     3
172
     1
271
     2
272
     2
274
     3
278
    44
283
     0
284
     8
340
11
  0
ENDTAB
  0
TABLE
  2
BLOCK_RECORD
  5
1
330
0
100
AcDbSymbolTable
 70
     1
  0
BLOCK_RECORD
  5
1F
330
1
100
AcDbSymbolTableRecord
100
AcDbBlockTableRecord
  2
*Model_Space
340
22
  0
BLOCK_RECORD
  5
1B
330
1
100
AcDbSymbolTableRecord
100
AcDbBlockTableRecord
  2
*Paper_Space
340
1E
  0
BLOCK_RECORD
  5
23
330
1
100
AcDbSymbolTableRecord
100
AcDbBlockTableRecord
  2
*Paper_Space0
340
26
  0
ENDTAB
  0
ENDSEC
  0
SECTION
  2
BLOCKS
  0
BLOCK
  5
20
330
1F
100
AcDbEntity
  8
0
100
AcDbBlockBegin
  2
*Model_Space
 70
     0
 10
0.0
 20
0.0
 30
0.0
  3
*Model_Space
  1

  0
ENDBLK
  5
21
330
1F
100
AcDbEntity
  8
0
100
AcDbBlockEnd
  0
BLOCK
  5
1C
330
1B
100
AcDbEntity
 67
     1
  8
0
100
AcDbBlockBegin
  2
*Paper_Space
 70
     0
 10
0.0
 20
0.0
 30
0.0
  3
*Paper_Space
  1

  0
ENDBLK
  5
1D
330
1B
100
AcDbEntity
 67
     1
  8
0
100
AcDbBlockEnd
  0
BLOCK
  5
24
330
23
100
AcDbEntity
  8
0
100
AcDbBlockBegin
  2
*Paper_Space0
 70
     0
 10
0.0
 20
0.0
 30
0.0
  3
*Paper_Space0
  1

  0
ENDBLK
  5
25
330
23
100
AcDbEntity
  8
0
100
AcDbBlockEnd
  0
ENDSEC
  0
SECTION
  2
ENTITIES
  0
TEXT
  5
43
330
1F
100
AcDbEntity
  8
F-5ﾚｲﾔ
  6
Continuous
 62
     3
370
     9
100
AcDbText
 10
-338.0246445317165
 20
-528.2893034915943
 30
0.0
 40
12.192
  1
タイル用　充填深さ40㎜　鋳鉄製　集水桝用
 41
0.9462499999999998
  7
ＭＳ ゴシック
100
AcDbText
  0
LINE
  5
44
330
1F
100
AcDbEntity
  8
0-E
  6
Continuous
 62
     7
370
     9
100
AcDbLine
 10
310.8935753074852
 20
453.4156395164698
 30
0.0
 11
301.9544652990394
 21
461.4214065139361
 31
0.0
  0
LINE
  5
45
330
1F
100
AcDbEntity
  8
0-E
  6
Continuous
 62
     7
370
     9
100
AcDbLine
 10
310.8935753074852
 20
453.4156395164698
 30
0.0
 11
304.3311742834144
 21
463.4622901710306
 31
0.0
  0
LINE
  5
46
330
1F
100
AcDbEntity
  8
0-E
  6
Continuous
 62
     7
370
     9
100
AcDbLine
 10
370.7403605693098
 20
482.4155867293077
 30
0.0
 11
375.439440753009
 21
493.4573413745779
 31
0.0
  0
LINE
  5
47
330
1F
100
AcDbEntity
  8
0-E
  6
Continuous
 62
     7
370
     9
100
AcDbLine
 10
370.7403605693098
 20
482.4155867293077
 30
0.0
 11
378.137128675306
 21
491.8648186760981
 31
0.0
  0
LINE
  5
48
330
1F
100
AcDbEntity
  8
0-E
  6
Continuous
 62
     7
370
     9
100
AcDbLine
 10
251.2579057023332
 20
522.8648714632604
 30
0.0
 11
310.8935753074852
 21
453.4156395164698
 31
0.0
  0
LINE
  5
49
330
1F
100
AcDbEntity
  8
0-F
  6
Continuous
 62
     7
370
     9
100
AcDbLine
 10
-646.4596103977512
 20
522.415619721284
 30
0.0
 11
-546.4597258696684
 21
522.415619721284
 31
0.0
  0
LINE
  5
4A
330
1F
100
AcDbEntity
  8
0-F
  6
Continuous
 62
     7
370
     9
100
AcDbLine
 10
-646.4596103977512
 20
522.415619721284
 30
0.0
 11
-634.5623078217377
 21
523.9819137985644
 31
0.0
  0
LINE
  5
4B
330
1F
100
AcDbEntity
  8
0-F
  6
Continuous
 62
     7
370
     9
100
AcDbLine
 10
-646.4596103977512
 20
522.415619721284
 30
0.0
 11
-634.5623078217377
 21
520.8493256440036
 31
0.0
  0
LINE
  5
4C
330
1F
100
AcDbEntity
  8
0-F
  6
Continuous
 62
     7
370
     9
100
AcDbLine
 10
-546.4597258696684
 20
522.415619721284
 30
0.0
 11
-558.3569789577174
 21
523.9819137985644
 31
0.0
  0
LINE
  5
4D
330
1F
100
AcDbEntity
  8
0-F
  6
Continuous
 62
     7
370
     9
100
AcDbLine
 10
-546.4597258696684
 20
522.415619721284
 30
0.0
 11
-558.3569789577174
 21
520.8493256440036
 31
0.0
  0
LINE
  5
4E
330
1F
100
AcDbEntity
  8
0-F
  6
Continuous
 62
     7
370
     9
100
AcDbLine
 10
-196.4596103977512
 20
522.415619721284
 30
0.0
 11
-96.45967638170396
 21
522.415619721284
 31
0.0
  0
LINE
  5
4F
330
1F
100
AcDbEntity
  8
0-F
  6
Continuous
 62
     7
370
     9
100
AcDbLine
 10
-196.4596103977512
 20
522.415619721284
 30
0.0
 11
-184.5622583337732
 21
523.9819137985644
 31
0.0
  0
LINE
  5
50
330
1F
100
AcDbEntity
  8
0-F
  6
Continuous
 62
     7
370
     9
100
AcDbLine
 10
-196.4596103977512
 20
522.415619721284
 30
0.0
 11
-184.5622583337732
 21
520.8493256440036
 31
0.0
  0
LINE
  5
51
330
1F
100
AcDbEntity
  8
0-F
  6
Continuous
 62
     7
370
     9
100
AcDbLine
 10
-96.45967638170396
 20
522.415619721284
 30
0.0
 11
-108.3569789577174
 21
523.9819137985644
 31
0.0
  0
LINE
  5
52
330
1F
100
AcDbEntity
  8
0-F
  6
Continuous
 62
     7
370
     9
100
AcDbLine
 10
-96.45967638170396
 20
522.415619721284
 30
0.0
 11
-108.3569789577174
 21
520.8493256440036
 31
0.0
  0
LINE
  5
53
330
1F
100
AcDbEntity
  8
0-F
  6
Continuous
 62
     7
370
     9
100
AcDbLine
 10
-646.4596103977512
 20
457.4156527132604
 30
0.0
 11
-646.4596103977512
 21
523.6156038851354
 31
0.0
  0
LINE
  5
54
330
1F
100
AcDbEntity
  8
0-F
  6
Continuous
 62
     7
370
     9
100
AcDbLine
 10
-96.45967638170396
 20
457.4156527132604
 30
0.0
 11
-96.45967638170396
 21
523.6156038851354
 31
0.0
  0
LINE
  5
55
330
1F
100
AcDbEntity
  8
0-F
  6
Continuous
 62
     7
370
     9
100
AcDbLine
 10
-643.2597186114336
 20
-300.7026499155404
 30
0.0
 11
-643.2597186114336
 21
-230.356597075591
 31
0.0
  0
LINE
  5
56
330
1F
100
AcDbEntity
  8
0-F
  6
Continuous
 62
     7
370
     9
100
AcDbLine
 10
-646.4596103977512
 20
-300.7026499155404
 30
0.0
 11
-646.4596103977512
 21
-195.7932128906248
 31
0.0
  0
LINE
  5
57
330
1F
100
AcDbEntity
  8
0-F
  6
Continuous
 62
     7
370
     9
100
AcDbLine
 10
-646.4596103977512
 20
-231.5565812394424
 30
0.0
 11
-658.3571109256228
 21
-229.9903366501266
 31
0.0
  0
LINE
  5
58
330
1F
100
AcDbEntity
  8
0-F
  6
Continuous
 62
     7
370
     9
100
AcDbLine
 10
-646.4596103977512
 20
-231.5565812394424
 30
0.0
 11
-658.3571109256228
 21
-233.1228753167228
 31
0.0
  0
LINE
  5
59
330
1F
100
AcDbEntity
  8
0-F
  6
Continuous
 62
     7
370
     9
100
AcDbLine
 10
-641.4596433897276
 20
-300.7026499155404
 30
0.0
 11
-641.4596433897276
 21
-230.356597075591
 31
0.0
  0
LINE
  5
5A
330
1F
100
AcDbEntity
  8
0-F
  6
Continuous
 62
     7
370
     9
100
AcDbLine
 10
-641.4596433897276
 20
-231.5565812394424
 30
0.0
 11
-629.5623903016786
 21
-229.9903366501266
 31
0.0
  0
LINE
  5
5B
330
1F
100
AcDbEntity
  8
0-F
  6
Continuous
 62
     7
370
     9
100
AcDbLine
 10
-641.4596433897276
 20
-231.5565812394424
 30
0.0
 11
-629.5623903016786
 21
-233.1228753167228
 31
0.0
  0
LINE
  5
5C
330
1F
100
AcDbEntity
  8
0-F
  6
Continuous
 62
     7
370
     9
100
AcDbLine
 10
-101.4596928776921
 20
-300.7026499155404
 30
0.0
 11
-101.4596928776921
 21
-230.356597075591
 31
0.0
  0
LINE
  5
5D
330
1F
100
AcDbEntity
  8
0-F
  6
Continuous
 62
     7
370
     9
100
AcDbLine
 10
-99.65976611987958
 20
-300.7026499155404
 30
0.0
 11
-99.65976611987958
 21
-230.356597075591
 31
0.0
  0
LINE
  5
5E
330
1F
100
AcDbEntity
  8
0-F
  6
Continuous
 62
     7
370
     9
100
AcDbLine
 10
-101.4596928776921
 20
-231.5565812394424
 30
0.0
 11
-113.3569954537056
 21
-229.9903366501266
 31
0.0
  0
LINE
  5
5F
330
1F
100
AcDbEntity
  8
0-F
  6
Continuous
 62
     7
370
     9
100
AcDbLine
 10
-101.4596928776921
 20
-231.5565812394424
 30
0.0
 11
-113.3569954537056
 21
-233.1228753167228
 31
0.0
  0
LINE
  5
60
330
1F
100
AcDbEntity
  8
0-F
  6
Continuous
 62
     7
370
     9
100
AcDbLine
 10
-96.45967638170396
 20
-231.5565812394424
 30
0.0
 11
-84.56242329365489
 21
-229.9903366501266
 31
0.0
  0
LINE
  5
61
330
1F
100
AcDbEntity
  8
0-F
  6
Continuous
 62
     7
370
     9
100
AcDbLine
 10
-96.45967638170396
 20
-231.5565812394424
 30
0.0
 11
-84.56242329365489
 21
-233.1228753167228
 31
0.0
  0
LINE
  5
62
330
1F
100
AcDbEntity
  8
0-F
  6
Continuous
 62
     7
370
     9
100
AcDbLine
 10
-96.45967638170396
 20
-300.7026499155404
 30
0.0
 11
-96.45967638170396
 21
-195.7932128906248
 31
0.0
  0
LINE
  5
63
330
1F
100
AcDbEntity
  8
0-F
  6
Continuous
 62
     7
370
     9
100
AcDbLine
 10
-646.4596103977512
 20
-196.9932960304052
 30
0.0
 11
-96.45967638170396
 21
-196.9932960304052
 31
0.0
  0
LINE
  5
64
330
1F
100
AcDbEntity
  8
0-F
  6
Continuous
 62
     7
370
     9
100
AcDbLine
 10
-646.4596103977512
 20
-196.9932960304052
 30
0.0
 11
-634.5623078217377
 21
-195.4269029771958
 31
0.0
  0
LINE
  5
65
330
1F
100
AcDbEntity
  8
0-F
  6
Continuous
 62
     7
370
     9
100
AcDbLine
 10
-646.4596103977512
 20
-196.9932960304052
 30
0.0
 11
-634.5623078217377
 21
-198.5595901076856
 31
0.0
  0
LINE
  5
66
330
1F
100
AcDbEntity
  8
0-F
  6
Continuous
 62
     7
370
     9
100
AcDbLine
 10
-96.45967638170396
 20
-196.9932960304052
 30
0.0
 11
-108.3569789577174
 21
-195.4269029771958
 31
0.0
  0
LINE
  5
67
330
1F
100
AcDbEntity
  8
0-F
  6
Continuous
 62
     7
370
     9
100
AcDbLine
 10
-96.45967638170396
 20
-196.9932960304052
 30
0.0
 11
-108.3569789577174
 21
-198.5595901076856
 31
0.0
  0
LINE
  5
68
330
1F
100
AcDbEntity
  8
0-F
  6
Continuous
 62
     7
370
     9
100
AcDbLine
 10
279.5403764054581
 20
-93.38450168918894
 30
0.0
 11
182.3403724464212
 21
-93.38450168918894
 31
0.0
  0
LINE
  5
69
330
1F
100
AcDbEntity
  8
0-F
  6
Continuous
 62
     7
370
     9
100
AcDbLine
 10
183.5403566102724
 20
-96.58439347550666
 30
0.0
 11
181.974062532992
 21
-108.4817950274492
 31
0.0
  0
LINE
  5
6A
330
1F
100
AcDbEntity
  8
0-F
  6
Continuous
 62
     7
370
     9
100
AcDbLine
 10
183.5403566102724
 20
-135.3598467852617
 30
0.0
 11
183.5403566102724
 21
490.7130357896961
 31
0.0
  0
LINE
  5
6B
330
1F
100
AcDbEntity
  8
0-F
  6
Continuous
 62
     7
370
     9
100
AcDbLine
 10
279.5403764054581
 20
-91.5844264674829
 30
0.0
 11
182.3403724464212
 21
-91.5844264674829
 31
0.0
  0
LINE
  5
6C
330
1F
100
AcDbEntity
  8
0-F
  6
Continuous
 62
     7
370
     9
100
AcDbLine
 10
279.5403764054581
 20
448.4155735325171
 30
0.0
 11
182.3403724464212
 21
448.4155735325171
 31
0.0
  0
LINE
  5
6D
330
1F
100
AcDbEntity
  8
0-F
  6
Continuous
 62
     7
370
     9
100
AcDbLine
 10
183.5403566102724
 20
-91.5844264674829
 30
0.0
 11
181.974062532992
 21
-79.68707440350488
 31
0.0
  0
LINE
  5
6E
330
1F
100
AcDbEntity
  8
0-F
  6
Continuous
 62
     7
370
     9
100
AcDbLine
 10
183.5403566102724
 20
-91.5844264674829
 30
0.0
 11
185.1066506875528
 21
-79.68707440350488
 31
0.0
  0
LINE
  5
6F
330
1F
100
AcDbEntity
  8
0-F
  6
Continuous
 62
     7
370
     9
100
AcDbLine
 10
183.5403566102724
 20
448.4155735325171
 30
0.0
 11
181.974062532992
 21
436.5182709565036
 31
0.0
  0
LINE
  5
70
330
1F
100
AcDbEntity
  8
0-F
  6
Continuous
 62
     7
370
     9
100
AcDbLine
 10
183.5403566102724
 20
448.4155735325171
 30
0.0
 11
185.1066506875528
 21
436.5182709565036
 31
0.0
  0
LINE
  5
71
330
1F
100
AcDbEntity
  8
0-F
  6
Continuous
 62
     7
370
     9
100
AcDbLine
 10
279.5403764054581
 20
453.4154415646117
 30
0.0
 11
142.3403394544447
 21
453.4154415646117
 31
0.0
  0
LINE
  5
72
330
1F
100
AcDbEntity
  8
0-F
  6
Continuous
 62
     7
370
     9
100
AcDbLine
 10
183.5403566102724
 20
453.4154415646117
 30
0.0
 11
181.974062532992
 21
465.3127441406252
 31
0.0
  0
LINE
  5
73
330
1F
100
AcDbEntity
  8
0-F
  6
Continuous
 62
     7
370
     9
100
AcDbLine
 10
183.5403566102724
 20
453.4154415646117
 30
0.0
 11
185.1066506875528
 21
465.3127441406252
 31
0.0
  0
LINE
  5
74
330
1F
100
AcDbEntity
  8
0-F
  6
Continuous
 62
     7
370
     9
100
AcDbLine
 10
183.5403566102724
 20
-96.58439347550666
 30
0.0
 11
185.1066506875528
 21
-108.4817950274492
 31
0.0
  0
LINE
  5
75
330
1F
100
AcDbEntity
  8
0-F
  6
Continuous
 62
     7
370
     9
100
AcDbLine
 10
143.540323618296
 20
-96.58439347550666
 30
0.0
 11
143.540323618296
 21
453.4156395164698
 31
0.0
  0
LINE
  5
76
330
1F
100
AcDbEntity
  8
0-F
  6
Continuous
 62
     7
370
     9
100
AcDbLine
 10
143.540323618296
 20
-96.58439347550666
 30
0.0
 11
141.9740295410157
 21
-84.68704141152853
 31
0.0
  0
LINE
  5
77
330
1F
100
AcDbEntity
  8
0-F
  6
Continuous
 62
     7
370
     9
100
AcDbLine
 10
143.540323618296
 20
-96.58439347550666
 30
0.0
 11
145.1066176955765
 21
-84.68704141152853
 31
0.0
  0
LINE
  5
78
330
1F
100
AcDbEntity
  8
0-F
  6
Continuous
 62
     7
370
     9
100
AcDbLine
 10
143.540323618296
 20
453.4156395164698
 30
0.0
 11
141.9740295410157
 21
441.5183369404563
 31
0.0
  0
LINE
  5
79
330
1F
100
AcDbEntity
  8
0-F
  6
Continuous
 62
     7
370
     9
100
AcDbLine
 10
143.540323618296
 20
453.4156395164698
 30
0.0
 11
145.1066176955765
 21
441.5183369404563
 31
0.0
  0
LINE
  5
7A
330
1F
100
AcDbEntity
  8
0-F
  6
Continuous
 62
     7
370
     9
100
AcDbLine
 10
435.7403275773331
 20
-125.5843901763089
 30
0.0
 11
435.7403275773331
 21
482.4155867293077
 31
0.0
  0
LINE
  5
7B
330
1F
100
AcDbEntity
  8
0-F
  6
Continuous
 62
     7
370
     9
100
AcDbLine
 10
435.7403275773331
 20
-125.5843901763089
 30
0.0
 11
434.1740335000527
 21
-113.6870381123309
 31
0.0
  0
LINE
  5
7C
330
1F
100
AcDbEntity
  8
0-F
  6
Continuous
 62
     7
370
     9
100
AcDbLine
 10
435.7403275773331
 20
-125.5843901763089
 30
0.0
 11
437.3066216546135
 21
-113.6870381123309
 31
0.0
  0
LINE
  5
7D
330
1F
100
AcDbEntity
  8
0-F
  6
Continuous
 62
     7
370
     9
100
AcDbLine
 10
437.3066216546135
 20
-84.68704141152853
 30
0.0
 11
434.1740335000527
 21
-108.4817950274492
 31
0.0
  0
LINE
  5
7E
330
1F
100
AcDbEntity
  8
0-F
  6
Continuous
 62
     7
370
     9
100
AcDbLine
 10
434.1740335000527
 20
-84.68704141152853
 30
0.0
 11
437.3066216546135
 21
-108.4817950274492
 31
0.0
  0
LINE
  5
7F
330
1F
100
AcDbEntity
  8
0-F
  6
Continuous
 62
     7
370
     9
100
AcDbLine
 10
437.3066216546135
 20
-34.68707440350488
 30
0.0
 11
434.1740335000527
 21
-58.48177853146103
 31
0.0
  0
LINE
  5
80
330
1F
100
AcDbEntity
  8
0-F
  6
Continuous
 62
     7
370
     9
100
AcDbLine
 10
434.1740335000527
 20
-34.68707440350488
 30
0.0
 11
437.3066216546135
 21
-58.48177853146103
 31
0.0
  0
LINE
  5
81
330
1F
100
AcDbEntity
  8
0-F
  6
Continuous
 62
     7
370
     9
100
AcDbLine
 10
437.3066216546135
 20
415.3128761085306
 30
0.0
 11
434.1740335000527
 21
391.5182709565036
 31
0.0
  0
LINE
  5
82
330
1F
100
AcDbEntity
  8
0-F
  6
Continuous
 62
     7
370
     9
100
AcDbLine
 10
434.1740335000527
 20
415.3128761085306
 30
0.0
 11
437.3066216546135
 21
391.5182709565036
 31
0.0
  0
LINE
  5
83
330
1F
100
AcDbEntity
  8
0-F
  6
Continuous
 62
     7
370
     9
100
AcDbLine
 10
437.3066216546135
 20
465.3128431165542
 30
0.0
 11
434.1740335000527
 21
441.5182379645272
 31
0.0
  0
LINE
  5
84
330
1F
100
AcDbEntity
  8
0-F
  6
Continuous
 62
     7
370
     9
100
AcDbLine
 10
434.1740335000527
 20
465.3128431165542
 30
0.0
 11
437.3066216546135
 21
441.5182379645272
 31
0.0
  0
LINE
  5
85
330
1F
100
AcDbEntity
  8
0-F
  6
Continuous
 62
     7
370
     9
100
AcDbLine
 10
435.7403275773331
 20
482.4155867293077
 30
0.0
 11
434.1740335000527
 21
470.5182841532942
 31
0.0
  0
LINE
  5
86
330
1F
100
AcDbEntity
  8
0-F
  6
Continuous
 62
     7
370
     9
100
AcDbLine
 10
435.7403275773331
 20
482.4155867293077
 30
0.0
 11
437.3066216546135
 21
470.5182841532942
 31
0.0
  0
LINE
  5
87
330
1F
100
AcDbEntity
  8
0-F
  6
Continuous
 62
     7
370
     9
100
AcDbLine
 10
283.540389602249
 20
-156.5843934755067
 30
0.0
 11
343.540389602249
 21
-156.5843934755067
 31
0.0
  0
LINE
  5
88
330
1F
100
AcDbEntity
  8
0-F
  6
Continuous
 62
     7
370
     9
100
AcDbLine
 10
343.540389602249
 20
-100.5844561602617
 30
0.0
 11
343.540389602249
 21
-157.7843776393579
 31
0.0
  0
LINE
  5
89
330
1F
100
AcDbEntity
  8
0-F
  6
Continuous
 62
     7
370
     9
100
AcDbLine
 10
283.540389602249
 20
-156.5843934755067
 30
0.0
 11
295.4376921782623
 21
-155.0180993982262
 31
0.0
  0
LINE
  5
8A
330
1F
100
AcDbEntity
  8
0-F
  6
Continuous
 62
     7
370
     9
100
AcDbLine
 10
283.540389602249
 20
-156.5843934755067
 30
0.0
 11
295.4376921782623
 21
-158.1507370407516
 31
0.0
  0
LINE
  5
8B
330
1F
100
AcDbEntity
  8
0-F
  6
Continuous
 62
     7
370
     9
100
AcDbLine
 10
283.540389602249
 20
-196.5844264674829
 30
0.0
 11
295.4376921782623
 21
-195.018082902238
 31
0.0
  0
LINE
  5
8C
330
1F
100
AcDbEntity
  8
0-F
  6
Continuous
 62
     7
370
     9
100
AcDbLine
 10
283.540389602249
 20
-196.5844264674829
 30
0.0
 11
295.4376921782623
 21
-198.1507205447633
 31
0.0
  0
LINE
  5
8D
330
1F
100
AcDbEntity
  8
0-F
  6
Continuous
 62
     7
370
     9
100
AcDbLine
 10
346.7403803644956
 20
-100.5844561602617
 30
0.0
 11
346.7403803644956
 21
-197.7843611433698
 31
0.0
  0
LINE
  5
8E
330
1F
100
AcDbEntity
  8
0-F
  6
Continuous
 62
     7
370
     9
100
AcDbLine
 10
283.540389602249
 20
-100.5844561602617
 30
0.0
 11
283.540389602249
 21
-197.7843611433698
 31
0.0
  0
LINE
  5
8F
330
1F
100
AcDbEntity
  8
0-F
  6
Continuous
 62
     7
370
     9
100
AcDbLine
 10
279.5403764054581
 20
-96.58439347550666
 30
0.0
 11
142.3403394544447
 21
-96.58439347550666
 31
0.0
  0
LINE
  5
90
330
1F
100
AcDbEntity
  8
0-F
  6
Continuous
 62
     7
370
     9
100
AcDbLine
 10
279.5403764054581
 20
450.2155497782941
 30
0.0
 11
182.3403724464212
 21
450.2155497782941
 31
0.0
  0
LINE
  5
91
330
1F
100
AcDbEntity
  8
0-E
  6
Continuous
 62
     7
370
     9
100
AcDbLine
 10
353.5404225942252
 20
229.1110938819681
 30
0.0
 11
364.0072260676206
 21
234.9801190350508
 31
0.0
  0
LINE
  5
92
330
1F
100
AcDbEntity
  8
0-E
  6
Continuous
 62
     7
370
     9
100
AcDbLine
 10
353.5404225942252
 20
229.1110938819681
 30
0.0
 11
365.169599378431
 21
232.0711175042231
 31
0.0
  0
LINE
  5
93
330
1F
100
AcDbEntity
  8
0-F
  6
Continuous
 62
     7
370
     9
100
AcDbLine
 10
283.5405875541069
 20
82.2420489336995
 30
0.0
 11
383.5406205460831
 21
82.2420489336995
 31
0.0
  0
LINE
  5
94
330
1F
100
AcDbEntity
  8
0-F
  6
Continuous
 62
     7
370
     9
100
AcDbLine
 10
283.5405875541069
 20
82.2420489336995
 30
0.0
 11
295.4378901301206
 21
83.80834301097991
 31
0.0
  0
LINE
  5
95
330
1F
100
AcDbEntity
  8
0-F
  6
Continuous
 62
     7
370
     9
100
AcDbLine
 10
283.5405875541069
 20
82.2420489336995
 30
0.0
 11
295.4378901301206
 21
80.67575485641908
 31
0.0
  0
LINE
  5
96
330
1F
100
AcDbEntity
  8
0-F
  6
Continuous
 62
     7
370
     9
100
AcDbLine
 10
323.5404225942252
 20
82.2420489336995
 30
0.0
 11
311.6431200182114
 21
83.80834301097991
 31
0.0
  0
LINE
  5
97
330
1F
100
AcDbEntity
  8
0-F
  6
Continuous
 62
     7
370
     9
100
AcDbLine
 10
323.5404225942252
 20
82.2420489336995
 30
0.0
 11
311.6431200182114
 21
80.67575485641908
 31
0.0
  0
LINE
  5
98
330
1F
100
AcDbEntity
  8
0-F
  6
Continuous
 62
     7
370
     9
100
AcDbLine
 10
335.7163424105256
 20
103.9030299831082
 30
0.0
 11
326.5403830038535
 21
82.2420489336995
 31
0.0
  0
LINE
  5
99
330
1F
100
AcDbEntity
  8
0-F
  6
Continuous
 62
     7
370
     9
100
AcDbLine
 10
-196.4596103977512
 20
490.4156131228888
 30
0.0
 11
-196.4596103977512
 21
523.6156038851354
 31
0.0
  0
LINE
  5
9A
330
1F
100
AcDbEntity
  8
0-F
  6
Continuous
 62
     7
370
     9
100
AcDbLine
 10
-546.4597258696684
 20
490.4156131228888
 30
0.0
 11
-546.4597258696684
 21
523.6156038851354
 31
0.0
  0
LINE
  5
9B
330
1F
100
AcDbEntity
  8
0-F
  6
Continuous
 62
     7
370
     9
100
AcDbLine
 10
350.7403935612861
 20
403.4155735325171
 30
0.0
 11
436.9403117411848
 21
403.4155735325171
 31
0.0
  0
LINE
  5
9C
330
1F
100
AcDbEntity
  8
0-F
  6
Continuous
 62
     7
370
     9
100
AcDbLine
 10
379.740340774124
 20
453.4155405405407
 30
0.0
 11
436.9403117411848
 21
453.4155405405407
 31
0.0
  0
LINE
  5
9D
330
1F
100
AcDbEntity
  8
0-F
  6
Continuous
 62
     7
370
     9
100
AcDbLine
 10
379.740340774124
 20
482.4155867293077
 30
0.0
 11
436.9403117411848
 21
482.4155867293077
 31
0.0
  0
LINE
  5
9E
330
1F
100
AcDbEntity
  8
0-F
  6
Continuous
 62
     7
370
     9
100
AcDbLine
 10
353.5404225942252
 20
82.2420489336995
 30
0.0
 11
365.4377251702385
 21
80.67575485641908
 31
0.0
  0
LINE
  5
9F
330
1F
100
AcDbEntity
  8
0-F
  6
Continuous
 62
     7
370
     9
100
AcDbLine
 10
379.740340774124
 20
-125.5843901763089
 30
0.0
 11
436.9403117411848
 21
-125.5843901763089
 31
0.0
  0
LINE
  5
A0
330
1F
100
AcDbEntity
  8
0-F
  6
Continuous
 62
     7
370
     9
100
AcDbLine
 10
379.740340774124
 20
-96.58439347550666
 30
0.0
 11
436.9403117411848
 21
-96.58439347550666
 31
0.0
  0
LINE
  5
A1
330
1F
100
AcDbEntity
  8
0-F
  6
Continuous
 62
     7
370
     9
100
AcDbLine
 10
350.7403935612861
 20
-46.5844264674829
 30
0.0
 11
436.9403117411848
 21
-46.5844264674829
 31
0.0
  0
LINE
  5
A2
330
1F
100
AcDbEntity
  8
躯体
  6
Continuous
 62
     2
370
     9
100
AcDbLine
 10
-640.2597582018053
 20
-364.7026631123309
 30
0.0
 11
-596.4597918536211
 21
-364.7026631123309
 31
0.0
  0
LINE
  5
A3
330
1F
100
AcDbEntity
  8
躯体
  6
Continuous
 62
     2
370
     9
100
AcDbLine
 10
-643.2597186114336
 20
-304.7026631123309
 30
0.0
 11
-643.2597186114336
 21
-361.7027027027025
 31
0.0
  0
LINE
  5
A4
330
1F
100
AcDbEntity
  8
躯体
  6
Continuous
 62
     2
370
     9
100
AcDbLine
 10
-640.4596895784945
 20
-367.9026538745775
 30
0.0
 11
-596.4597918536211
 21
-367.9026538745775
 31
0.0
  0
LINE
  5
A5
330
1F
100
AcDbEntity
  8
躯体
  6
Continuous
 62
     2
370
     9
100
AcDbLine
 10
-646.4596103977512
 20
-304.7026631123309
 30
0.0
 11
-643.2597186114336
 21
-304.7026631123309
 31
0.0
  0
LINE
  5
A6
330
1F
100
AcDbEntity
  8
躯体
  6
Continuous
 62
     2
370
     9
100
AcDbLine
 10
-596.4597918536211
 20
-364.7026631123309
 30
0.0
 11
-596.4597918536211
 21
-367.9026538745775
 31
0.0
  0
LINE
  5
A7
330
1F
100
AcDbEntity
  8
躯体
  6
Continuous
 62
     2
370
     9
100
AcDbLine
 10
-146.4597423656567
 20
-364.7026631123309
 30
0.0
 11
-146.4597423656567
 21
-367.9026538745775
 31
0.0
  0
LINE
  5
A8
330
1F
100
AcDbEntity
  8
躯体
  6
Continuous
 62
     2
370
     9
100
AcDbLine
 10
-96.45967638170396
 20
-304.7026631123309
 30
0.0
 11
-99.65976611987958
 21
-304.7026631123309
 31
0.0
  0
LINE
  5
A9
330
1F
100
AcDbEntity
  8
躯体
  6
Continuous
 62
     2
370
     9
100
AcDbLine
 10
-102.4597951528187
 20
-367.9026538745775
 30
0.0
 11
-146.4597423656567
 21
-367.9026538745775
 31
0.0
  0
LINE
  5
AA
330
1F
100
AcDbEntity
  8
躯体
  6
Continuous
 62
     2
370
     9
100
AcDbLine
 10
-99.65976611987958
 20
-304.7026631123309
 30
0.0
 11
-99.65976611987958
 21
-361.7027027027025
 31
0.0
  0
LINE
  5
AB
330
1F
100
AcDbEntity
  8
躯体
  6
Continuous
 62
     2
370
     9
100
AcDbLine
 10
-102.659825505437
 20
-364.7026631123309
 30
0.0
 11
-146.4597423656567
 21
-364.7026631123309
 31
0.0
  0
LINE
  5
AC
330
1F
100
AcDbEntity
  8
躯体
  6
Continuous
 62
     2
370
     9
100
AcDbLine
 10
-646.4596103977512
 20
-304.7026631123309
 30
0.0
 11
-646.4596103977512
 21
-361.9026340793918
 31
0.0
  0
LINE
  5
AD
330
1F
100
AcDbEntity
  8
躯体
  6
Continuous
 62
     2
370
     9
100
AcDbLine
 10
-96.45967638170396
 20
-304.7026631123309
 30
0.0
 11
-96.45967638170396
 21
-361.9026340793918
 31
0.0
  0
LINE
  5
AE
330
1F
100
AcDbEntity
  8
0-F
  6
Continuous
 62
     7
370
     9
100
AcDbLine
 10
-55.92175870328333
 20
-231.5565812394424
 30
0.0
 11
-682.9975148793814
 21
-231.5565812394424
 31
0.0
  0
LINE
  5
AF
330
1F
100
AcDbEntity
  8
0-F
  6
Continuous
 62
     7
370
     9
100
AcDbLine
 10
-631.4596103977512
 20
-265.8298174883867
 30
0.0
 11
-111.459676381704
 21
-265.8298174883867
 31
0.0
  0
LINE
  5
B0
330
1F
100
AcDbEntity
  8
0-F
  6
Continuous
 62
     7
370
     9
100
AcDbLine
 10
-111.459676381704
 20
-300.7026499155404
 30
0.0
 11
-111.459676381704
 21
-264.6297838365708
 31
0.0
  0
LINE
  5
B1
330
1F
100
AcDbEntity
  8
0-F
  6
Continuous
 62
     7
370
     9
100
AcDbLine
 10
-631.4596103977512
 20
-300.7026499155404
 30
0.0
 11
-631.4596103977512
 21
-264.6297838365708
 31
0.0
  0
LINE
  5
B2
330
1F
100
AcDbEntity
  8
0-F
  6
Continuous
 62
     7
370
     9
100
AcDbLine
 10
223.5403896022489
 20
-91.5844264674829
 30
0.0
 11
223.5403896022489
 21
448.4156725084462
 31
0.0
  0
LINE
  5
B3
330
1F
100
AcDbEntity
  8
0-F
  6
Continuous
 62
     7
370
     9
100
AcDbLine
 10
279.5403764054581
 20
-46.5844264674829
 30
0.0
 11
222.3404054383974
 21
-46.5844264674829
 31
0.0
  0
LINE
  5
B4
330
1F
100
AcDbEntity
  8
0-F
  6
Continuous
 62
     7
370
     9
100
AcDbLine
 10
222.3404054383974
 20
403.4155735325171
 30
0.0
 11
279.5403764054581
 21
403.4155735325171
 31
0.0
  0
LINE
  5
B5
330
1F
100
AcDbEntity
  8
0-F
  6
Continuous
 62
     7
370
     9
100
AcDbLine
 10
343.540389602249
 20
-156.5843934755067
 30
0.0
 11
331.6430870262352
 21
-158.1507370407516
 31
0.0
  0
LINE
  5
B6
330
1F
100
AcDbEntity
  8
0-F
  6
Continuous
 62
     7
370
     9
100
AcDbLine
 10
343.540389602249
 20
-156.5843934755067
 30
0.0
 11
331.6430870262352
 21
-155.0180993982262
 31
0.0
  0
LINE
  5
B7
330
1F
100
AcDbEntity
  8
0-F
  6
Continuous
 62
     7
370
     9
100
AcDbLine
 10
370.7403605693098
 20
-196.5844264674829
 30
0.0
 11
382.6376631453231
 21
-198.1507205447633
 31
0.0
  0
LINE
  5
B8
330
1F
100
AcDbEntity
  8
0-F
  6
Continuous
 62
     7
370
     9
100
AcDbLine
 10
370.7403605693098
 20
-196.5844264674829
 30
0.0
 11
382.6376631453231
 21
-195.0181323902025
 31
0.0
  0
LINE
  5
B9
330
1F
100
AcDbEntity
  8
0-F
  6
Continuous
 62
     7
370
     9
100
AcDbLine
 10
370.7403605693098
 20
-129.5844528610641
 30
0.0
 11
370.7403605693098
 21
-197.7843611433698
 31
0.0
  0
LINE
  5
BA
330
1F
100
AcDbEntity
  8
0-F
  6
Continuous
 62
     7
370
     9
100
AcDbLine
 10
223.5403896022489
 20
403.4155735325171
 30
0.0
 11
225.1066836795293
 21
391.5182709565036
 31
0.0
  0
LINE
  5
BB
330
1F
100
AcDbEntity
  8
0-F
  6
Continuous
 62
     7
370
     9
100
AcDbLine
 10
223.5403896022489
 20
403.4155735325171
 30
0.0
 11
221.9740955249684
 21
391.5182709565036
 31
0.0
  0
LINE
  5
BC
330
1F
100
AcDbEntity
  8
0-F
  6
Continuous
 62
     7
370
     9
100
AcDbLine
 10
225.1066836795293
 20
-58.48177853146103
 30
0.0
 11
221.9740955249684
 21
-34.68707440350488
 31
0.0
  0
LINE
  5
BD
330
1F
100
AcDbEntity
  8
0-F
  6
Continuous
 62
     7
370
     9
100
AcDbLine
 10
221.9740955249684
 20
-58.48177853146103
 30
0.0
 11
225.1066836795293
 21
-34.68707440350488
 31
0.0
  0
LINE
  5
BE
330
1F
100
AcDbEntity
  8
0-F
  6
Continuous
 62
     7
370
     9
100
AcDbLine
 10
-631.4596103977512
 20
-265.8298174883867
 30
0.0
 11
-619.5622583337732
 21
-264.2634739231418
 31
0.0
  0
LINE
  5
BF
330
1F
100
AcDbEntity
  8
0-F
  6
Continuous
 62
     7
370
     9
100
AcDbLine
 10
-631.4596103977512
 20
-265.8298174883867
 30
0.0
 11
-619.5622583337732
 21
-267.3961610536317
 31
0.0
  0
LINE
  5
C0
330
1F
100
AcDbEntity
  8
0-F
  6
Continuous
 62
     7
370
     9
100
AcDbLine
 10
-111.459676381704
 20
-265.8298174883867
 30
0.0
 11
-123.357028445682
 21
-267.3961610536317
 31
0.0
  0
LINE
  5
C1
330
1F
100
AcDbEntity
  8
0-F
  6
Continuous
 62
     7
370
     9
100
AcDbLine
 10
-111.459676381704
 20
-265.8298174883867
 30
0.0
 11
-123.357028445682
 21
-264.2634739231418
 31
0.0
  0
LINE
  5
C2
330
1F
100
AcDbEntity
  8
通り芯
  6
Continuous
 62
     3
370
     9
100
AcDbLine
 10
-101.4596433897276
 20
-91.5844264674829
 30
0.0
 11
-641.4595444137985
 21
-91.5844264674829
 31
0.0
  0
LINE
  5
C3
330
1F
100
AcDbEntity
  8
通り芯
  6
Continuous
 62
     3
370
     9
100
AcDbLine
 10
-641.4595444137985
 20
-91.5844264674829
 30
0.0
 11
-641.4595444137985
 21
448.4156725084462
 31
0.0
  0
LINE
  5
C4
330
1F
100
AcDbEntity
  8
通り芯
  6
Continuous
 62
     3
370
     9
100
AcDbLine
 10
-102.4596466889252
 20
-90.58437368032082
 30
0.0
 11
-640.4595906025654
 21
-90.58437368032082
 31
0.0
  0
LINE
  5
C5
330
1F
100
AcDbEntity
  8
通り芯
  6
Continuous
 62
     3
370
     9
100
AcDbLine
 10
-102.4596466889252
 20
-81.58439347550666
 30
0.0
 11
-640.4595906025654
 21
-81.58439347550666
 31
0.0
  0
LINE
  5
C6
330
1F
100
AcDbEntity
  8
通り芯
  6
Continuous
 62
     3
370
     9
100
AcDbLine
 10
-101.4596433897276
 20
-80.58443966427353
 30
0.0
 11
-641.4595444137985
 21
-80.58443966427353
 31
0.0
  0
LINE
  5
C7
330
1F
100
AcDbEntity
  8
通り芯
  6
Continuous
 62
     3
370
     9
100
AcDbLine
 10
-101.4596433897276
 20
-74.08444296347113
 30
0.0
 11
-641.4595444137985
 21
-74.08444296347113
 31
0.0
  0
LINE
  5
C8
330
1F
100
AcDbEntity
  8
通り芯
  6
Continuous
 62
     3
370
     9
100
AcDbLine
 10
-102.4596466889252
 20
-73.08439017630894
 30
0.0
 11
-640.4595906025654
 21
-73.08439017630894
 31
0.0
  0
LINE
  5
C9
330
1F
100
AcDbEntity
  8
通り芯
  6
Continuous
 62
     3
370
     9
100
AcDbLine
 10
-102.4596466889252
 20
-64.08440997149478
 30
0.0
 11
-640.4595906025654
 21
-64.08440997149478
 31
0.0
  0
LINE
  5
CA
330
1F
100
AcDbEntity
  8
通り芯
  6
Continuous
 62
     3
370
     9
100
AcDbLine
 10
-101.4596433897276
 20
-63.08445616026165
 30
0.0
 11
-641.4595444137985
 21
-63.08445616026165
 31
0.0
  0
LINE
  5
CB
330
1F
100
AcDbEntity
  8
通り芯
  6
Continuous
 62
     3
370
     9
100
AcDbLine
 10
-101.4596433897276
 20
-56.58440997149478
 30
0.0
 11
-641.4595444137985
 21
-56.58440997149478
 31
0.0
  0
LINE
  5
CC
330
1F
100
AcDbEntity
  8
通り芯
  6
Continuous
 62
     3
370
     9
100
AcDbLine
 10
-102.4596466889252
 20
-55.58445616026165
 30
0.0
 11
-640.4595906025654
 21
-55.58445616026165
 31
0.0
  0
LINE
  5
CD
330
1F
100
AcDbEntity
  8
通り芯
  6
Continuous
 62
     3
370
     9
100
AcDbLine
 10
-117.9596235945418
 20
-46.5844264674829
 30
0.0
 11
-624.9596631849134
 21
-46.5844264674829
 31
0.0
  0
LINE
  5
CE
330
1F
100
AcDbEntity
  8
通り芯
  6
Continuous
 62
     3
370
     9
100
AcDbLine
 10
-117.9596235945418
 20
-43.08443966427353
 30
0.0
 11
-624.9596631849134
 21
-43.08443966427353
 31
0.0
  0
LINE
  5
CF
330
1F
100
AcDbEntity
  8
通り芯
  6
Continuous
 62
     3
370
     9
100
AcDbLine
 10
-640.4595906025654
 20
-90.58437368032082
 30
0.0
 11
-640.4595906025654
 21
-81.58439347550666
 31
0.0
  0
LINE
  5
D0
330
1F
100
AcDbEntity
  8
通り芯
  6
Continuous
 62
     3
370
     9
100
AcDbLine
 10
-631.4596103977512
 20
-40.08438027871603
 30
0.0
 11
-631.4596103977512
 21
396.9156263196793
 31
0.0
  0
LINE
  5
D1
330
1F
100
AcDbEntity
  8
通り芯
  6
Continuous
 62
     3
370
     9
100
AcDbLine
 10
-627.9596235945418
 20
-80.58443966427353
 30
0.0
 11
-627.9596235945418
 21
-74.08444296347113
 31
0.0
  0
LINE
  5
D2
330
1F
100
AcDbEntity
  8
通り芯
  6
Continuous
 62
     3
370
     9
100
AcDbLine
 10
-627.9596235945418
 20
-40.08438027871603
 30
0.0
 11
-627.9596235945418
 21
396.9156263196793
 31
0.0
  0
LINE
  5
D3
330
1F
100
AcDbEntity
  8
通り芯
  6
Continuous
 62
     3
370
     9
100
AcDbLine
 10
-627.9596235945418
 20
-63.08445616026165
 30
0.0
 11
-627.9596235945418
 21
-56.58440997149478
 31
0.0
  0
LINE
  5
D4
330
1F
100
AcDbEntity
  8
通り芯
  6
Continuous
 62
     3
370
     9
100
AcDbLine
 10
-412.9596070985536
 20
-80.58443966427353
 30
0.0
 11
-412.9596070985536
 21
-74.08444296347113
 31
0.0
  0
LINE
  5
D5
330
1F
100
AcDbEntity
  8
通り芯
  6
Continuous
 62
     3
370
     9
100
AcDbLine
 10
-426.9596532873205
 20
-80.58443966427353
 30
0.0
 11
-426.9596532873205
 21
-74.08444296347113
 31
0.0
  0
LINE
  5
D6
330
1F
100
AcDbEntity
  8
通り芯
  6
Continuous
 62
     3
370
     9
100
AcDbLine
 10
-641.4595444137985
 20
-56.58440997149478
 30
0.0
 11
-640.4595906025654
 21
-55.58445616026165
 31
0.0
  0
LINE
  5
D7
330
1F
100
AcDbEntity
  8
通り芯
  6
Continuous
 62
     3
370
     9
100
AcDbLine
 10
-412.9596070985536
 20
-63.08445616026165
 30
0.0
 11
-412.9596070985536
 21
-56.58440997149478
 31
0.0
  0
LINE
  5
D8
330
1F
100
AcDbEntity
  8
通り芯
  6
Continuous
 62
     3
370
     9
100
AcDbLine
 10
-426.9596532873205
 20
-63.08445616026165
 30
0.0
 11
-426.9596532873205
 21
-56.58440997149478
 31
0.0
  0
LINE
  5
D9
330
1F
100
AcDbEntity
  8
通り芯
  6
Continuous
 62
     3
370
     9
100
AcDbLine
 10
-641.4595444137985
 20
-63.08445616026165
 30
0.0
 11
-640.4595906025654
 21
-64.08440997149478
 31
0.0
  0
LINE
  5
DA
330
1F
100
AcDbEntity
  8
通り芯
  6
Continuous
 62
     3
370
     9
100
AcDbLine
 10
-640.4595906025654
 20
-73.08439017630894
 30
0.0
 11
-641.4595444137985
 21
-74.08444296347113
 31
0.0
  0
LINE
  5
DB
330
1F
100
AcDbEntity
  8
通り芯
  6
Continuous
 62
     3
370
     9
100
AcDbLine
 10
-640.4595906025654
 20
-81.58439347550666
 30
0.0
 11
-641.4595444137985
 21
-80.58443966427353
 31
0.0
  0
LINE
  5
DC
330
1F
100
AcDbEntity
  8
通り芯
  6
Continuous
 62
     3
370
     9
100
AcDbLine
 10
-640.4595906025654
 20
-90.58437368032082
 30
0.0
 11
-641.4595444137985
 21
-91.5844264674829
 31
0.0
  0
LINE
  5
DD
330
1F
100
AcDbEntity
  8
通り芯
  6
Continuous
 62
     3
370
     9
100
AcDbLine
 10
-640.4595906025654
 20
-55.58445616026165
 30
0.0
 11
-640.4595906025654
 21
412.4155537373313
 31
0.0
  0
LINE
  5
DE
330
1F
100
AcDbEntity
  8
通り芯
  6
Continuous
 62
     3
370
     9
100
AcDbLine
 10
-640.4595906025654
 20
-73.08439017630894
 30
0.0
 11
-640.4595906025654
 21
-64.08440997149478
 31
0.0
  0
LINE
  5
DF
330
1F
100
AcDbEntity
  8
通り芯
  6
Continuous
 62
     3
370
     9
100
AcDbLine
 10
-218.9596103977512
 20
419.9156527132603
 30
0.0
 11
-218.9596103977512
 21
413.4156065244935
 31
0.0
  0
LINE
  5
E0
330
1F
100
AcDbEntity
  8
通り芯
  6
Continuous
 62
     3
370
     9
100
AcDbLine
 10
-232.9596565865181
 20
419.9156527132603
 30
0.0
 11
-232.9596565865181
 21
413.4156065244935
 31
0.0
  0
LINE
  5
E1
330
1F
100
AcDbEntity
  8
通り芯
  6
Continuous
 62
     3
370
     9
100
AcDbLine
 10
-218.9596103977512
 20
437.4155867293076
 30
0.0
 11
-218.9596103977512
 21
430.9155405405407
 31
0.0
  0
LINE
  5
E2
330
1F
100
AcDbEntity
  8
通り芯
  6
Continuous
 62
     3
370
     9
100
AcDbLine
 10
-232.9596565865181
 20
437.4155867293076
 30
0.0
 11
-232.9596565865181
 21
430.9155405405407
 31
0.0
  0
LINE
  5
E3
330
1F
100
AcDbEntity
  8
通り芯
  6
Continuous
 62
     3
370
     9
100
AcDbLine
 10
-509.959630192937
 20
437.4155867293076
 30
0.0
 11
-509.959630192937
 21
430.9155405405407
 31
0.0
  0
LINE
  5
E4
330
1F
100
AcDbEntity
  8
通り芯
  6
Continuous
 62
     3
370
     9
100
AcDbLine
 10
-523.9596268937394
 20
437.4155867293076
 30
0.0
 11
-523.9596268937394
 21
430.9155405405407
 31
0.0
  0
LINE
  5
E5
330
1F
100
AcDbEntity
  8
通り芯
  6
Continuous
 62
     3
370
     9
100
AcDbLine
 10
-509.959630192937
 20
419.9156527132603
 30
0.0
 11
-509.959630192937
 21
413.4156065244935
 31
0.0
  0
LINE
  5
E6
330
1F
100
AcDbEntity
  8
通り芯
  6
Continuous
 62
     3
370
     9
100
AcDbLine
 10
-523.9596268937394
 20
419.9156527132603
 30
0.0
 11
-523.9596268937394
 21
413.4156065244935
 31
0.0
  0
LINE
  5
E7
330
1F
100
AcDbEntity
  8
通り芯
  6
Continuous
 62
     3
370
     9
100
AcDbLine
 10
-232.9596565865181
 20
-80.58443966427353
 30
0.0
 11
-232.9596565865181
 21
-74.08444296347113
 31
0.0
  0
LINE
  5
E8
330
1F
100
AcDbEntity
  8
通り芯
  6
Continuous
 62
     3
370
     9
100
AcDbLine
 10
-218.9596103977512
 20
-80.58443966427353
 30
0.0
 11
-218.9596103977512
 21
-74.08444296347113
 31
0.0
  0
LINE
  5
E9
330
1F
100
AcDbEntity
  8
通り芯
  6
Continuous
 62
     3
370
     9
100
AcDbLine
 10
-232.9596565865181
 20
-63.08445616026165
 30
0.0
 11
-232.9596565865181
 21
-56.58440997149478
 31
0.0
  0
LINE
  5
EA
330
1F
100
AcDbEntity
  8
通り芯
  6
Continuous
 62
     3
370
     9
100
AcDbLine
 10
-218.9596103977512
 20
-63.08445616026165
 30
0.0
 11
-218.9596103977512
 21
-56.58440997149478
 31
0.0
  0
LINE
  5
EB
330
1F
100
AcDbEntity
  8
通り芯
  6
Continuous
 62
     3
370
     9
100
AcDbLine
 10
-640.4595906025654
 20
429.9156857052367
 30
0.0
 11
-640.4595906025654
 21
420.9156065244935
 31
0.0
  0
LINE
  5
EC
330
1F
100
AcDbEntity
  8
通り芯
  6
Continuous
 62
     3
370
     9
100
AcDbLine
 10
-640.4595906025654
 20
447.415619721284
 30
0.0
 11
-641.4595444137985
 21
448.4156725084462
 31
0.0
  0
LINE
  5
ED
330
1F
100
AcDbEntity
  8
通り芯
  6
Continuous
 62
     3
370
     9
100
AcDbLine
 10
-640.4595906025654
 20
438.4155405405407
 30
0.0
 11
-641.4595444137985
 21
437.4155867293076
 31
0.0
  0
LINE
  5
EE
330
1F
100
AcDbEntity
  8
通り芯
  6
Continuous
 62
     3
370
     9
100
AcDbLine
 10
-640.4595906025654
 20
429.9156857052367
 30
0.0
 11
-641.4595444137985
 21
430.9155405405407
 31
0.0
  0
LINE
  5
EF
330
1F
100
AcDbEntity
  8
通り芯
  6
Continuous
 62
     3
370
     9
100
AcDbLine
 10
-641.4595444137985
 20
419.9156527132603
 30
0.0
 11
-640.4595906025654
 21
420.9156065244935
 31
0.0
  0
LINE
  5
F0
330
1F
100
AcDbEntity
  8
躯体
  6
Continuous
 62
     2
370
     9
100
AcDbLine
 10
-99.65966714395051
 20
450.215450802365
 30
0.0
 11
-643.2596196355047
 21
450.215450802365
 31
0.0
  0
LINE
  5
F1
330
1F
100
AcDbEntity
  8
通り芯
  6
Continuous
 62
     3
370
     9
100
AcDbLine
 10
-426.9596532873205
 20
419.9156527132603
 30
0.0
 11
-426.9596532873205
 21
413.4156065244935
 31
0.0
  0
LINE
  5
F2
330
1F
100
AcDbEntity
  8
通り芯
  6
Continuous
 62
     3
370
     9
100
AcDbLine
 10
-412.9596070985536
 20
419.9156527132603
 30
0.0
 11
-412.9596070985536
 21
413.4156065244935
 31
0.0
  0
LINE
  5
F3
330
1F
100
AcDbEntity
  8
通り芯
  6
Continuous
 62
     3
370
     9
100
AcDbLine
 10
-641.4595444137985
 20
413.4156065244935
 30
0.0
 11
-640.4595906025654
 21
412.4155537373313
 31
0.0
  0
LINE
  5
F4
330
1F
100
AcDbEntity
  8
通り芯
  6
Continuous
 62
     3
370
     9
100
AcDbLine
 10
-426.9596532873205
 20
437.4155867293076
 30
0.0
 11
-426.9596532873205
 21
430.9155405405407
 31
0.0
  0
LINE
  5
F5
330
1F
100
AcDbEntity
  8
通り芯
  6
Continuous
 62
     3
370
     9
100
AcDbLine
 10
-412.9596070985536
 20
437.4155867293076
 30
0.0
 11
-412.9596070985536
 21
430.9155405405407
 31
0.0
  0
LINE
  5
F6
330
1F
100
AcDbEntity
  8
通り芯
  6
Continuous
 62
     3
370
     9
100
AcDbLine
 10
-627.9596235945418
 20
419.9156527132603
 30
0.0
 11
-627.9596235945418
 21
413.4156065244935
 31
0.0
  0
LINE
  5
F7
330
1F
100
AcDbEntity
  8
通り芯
  6
Continuous
 62
     3
370
     9
100
AcDbLine
 10
-627.9596235945418
 20
437.4155867293076
 30
0.0
 11
-627.9596235945418
 21
430.9155405405407
 31
0.0
  0
LINE
  5
F8
330
1F
100
AcDbEntity
  8
通り芯
  6
Continuous
 62
     3
370
     9
100
AcDbLine
 10
-640.4595906025654
 20
447.415619721284
 30
0.0
 11
-640.4595906025654
 21
438.4155405405407
 31
0.0
  0
LINE
  5
F9
330
1F
100
AcDbEntity
  8
通り芯
  6
Continuous
 62
     3
370
     9
100
AcDbLine
 10
-117.9596235945418
 20
399.9155867293076
 30
0.0
 11
-624.9596631849134
 21
399.9155867293076
 31
0.0
  0
LINE
  5
FA
330
1F
100
AcDbEntity
  8
通り芯
  6
Continuous
 62
     3
370
     9
100
AcDbLine
 10
-117.9596235945418
 20
403.4155735325171
 30
0.0
 11
-624.9596631849134
 21
403.4155735325171
 31
0.0
  0
LINE
  5
FB
330
1F
100
AcDbEntity
  8
通り芯
  6
Continuous
 62
     3
370
     9
100
AcDbLine
 10
-102.4596466889252
 20
412.4155537373313
 30
0.0
 11
-640.4595906025654
 21
412.4155537373313
 31
0.0
  0
LINE
  5
FC
330
1F
100
AcDbEntity
  8
通り芯
  6
Continuous
 62
     3
370
     9
100
AcDbLine
 10
-101.4596433897276
 20
413.4156065244935
 30
0.0
 11
-641.4595444137985
 21
413.4156065244935
 31
0.0
  0
LINE
  5
FD
330
1F
100
AcDbEntity
  8
通り芯
  6
Continuous
 62
     3
370
     9
100
AcDbLine
 10
-101.4596433897276
 20
419.9156527132603
 30
0.0
 11
-641.4595444137985
 21
419.9156527132603
 31
0.0
  0
LINE
  5
FE
330
1F
100
AcDbEntity
  8
通り芯
  6
Continuous
 62
     3
370
     9
100
AcDbLine
 10
-102.4596466889252
 20
420.9156065244935
 30
0.0
 11
-640.4595906025654
 21
420.9156065244935
 31
0.0
  0
LINE
  5
FF
330
1F
100
AcDbEntity
  8
通り芯
  6
Continuous
 62
     3
370
     9
100
AcDbLine
 10
-102.4596466889252
 20
429.9156857052367
 30
0.0
 11
-640.4595906025654
 21
429.9156857052367
 31
0.0
  0
LINE
  5
100
330
1F
100
AcDbEntity
  8
通り芯
  6
Continuous
 62
     3
370
     9
100
AcDbLine
 10
-101.4596433897276
 20
430.9155405405407
 30
0.0
 11
-641.4595444137985
 21
430.9155405405407
 31
0.0
  0
LINE
  5
101
330
1F
100
AcDbEntity
  8
通り芯
  6
Continuous
 62
     3
370
     9
100
AcDbLine
 10
-101.4596433897276
 20
437.4155867293076
 30
0.0
 11
-641.4595444137985
 21
437.4155867293076
 31
0.0
  0
LINE
  5
102
330
1F
100
AcDbEntity
  8
通り芯
  6
Continuous
 62
     3
370
     9
100
AcDbLine
 10
-102.4596466889252
 20
438.4155405405407
 30
0.0
 11
-640.4595906025654
 21
438.4155405405407
 31
0.0
  0
LINE
  5
103
330
1F
100
AcDbEntity
  8
通り芯
  6
Continuous
 62
     3
370
     9
100
AcDbLine
 10
-102.4596466889252
 20
447.415619721284
 30
0.0
 11
-640.4595906025654
 21
447.415619721284
 31
0.0
  0
LINE
  5
104
330
1F
100
AcDbEntity
  8
通り芯
  6
Continuous
 62
     3
370
     9
100
AcDbLine
 10
-101.4596433897276
 20
448.4156725084462
 30
0.0
 11
-641.4595444137985
 21
448.4156725084462
 31
0.0
  0
LINE
  5
105
330
1F
100
AcDbEntity
  8
通り芯
  6
Continuous
 62
     3
370
     9
100
AcDbLine
 10
-102.4596466889252
 20
447.415619721284
 30
0.0
 11
-102.4596466889252
 21
438.4155405405407
 31
0.0
  0
LINE
  5
106
330
1F
100
AcDbEntity
  8
通り芯
  6
Continuous
 62
     3
370
     9
100
AcDbLine
 10
-114.9596631849133
 20
437.4155867293076
 30
0.0
 11
-114.9596631849133
 21
430.9155405405407
 31
0.0
  0
LINE
  5
107
330
1F
100
AcDbEntity
  8
通り芯
  6
Continuous
 62
     3
370
     9
100
AcDbLine
 10
-114.9596631849133
 20
419.9156527132603
 30
0.0
 11
-114.9596631849133
 21
413.4156065244935
 31
0.0
  0
LINE
  5
108
330
1F
100
AcDbEntity
  8
通り芯
  6
Continuous
 62
     3
370
     9
100
AcDbLine
 10
-329.9596301929371
 20
437.4155867293076
 30
0.0
 11
-329.9596301929371
 21
430.9155405405407
 31
0.0
  0
LINE
  5
109
330
1F
100
AcDbEntity
  8
通り芯
  6
Continuous
 62
     3
370
     9
100
AcDbLine
 10
-315.9596334921347
 20
437.4155867293076
 30
0.0
 11
-315.9596334921347
 21
430.9155405405407
 31
0.0
  0
LINE
  5
10A
330
1F
100
AcDbEntity
  8
通り芯
  6
Continuous
 62
     3
370
     9
100
AcDbLine
 10
-101.4596433897276
 20
413.4156065244935
 30
0.0
 11
-102.4596466889252
 21
412.4155537373313
 31
0.0
  0
LINE
  5
10B
330
1F
100
AcDbEntity
  8
通り芯
  6
Continuous
 62
     3
370
     9
100
AcDbLine
 10
-329.9596301929371
 20
419.9156527132603
 30
0.0
 11
-329.9596301929371
 21
413.4156065244935
 31
0.0
  0
LINE
  5
10C
330
1F
100
AcDbEntity
  8
通り芯
  6
Continuous
 62
     3
370
     9
100
AcDbLine
 10
-315.9596334921347
 20
419.9156527132603
 30
0.0
 11
-315.9596334921347
 21
413.4156065244935
 31
0.0
  0
LINE
  5
10D
330
1F
100
AcDbEntity
  8
通り芯
  6
Continuous
 62
     3
370
     9
100
AcDbLine
 10
-101.4596433897276
 20
419.9156527132603
 30
0.0
 11
-102.4596466889252
 21
420.9156065244935
 31
0.0
  0
LINE
  5
10E
330
1F
100
AcDbEntity
  8
通り芯
  6
Continuous
 62
     3
370
     9
100
AcDbLine
 10
-102.4596466889252
 20
429.9156857052367
 30
0.0
 11
-101.4596433897276
 21
430.9155405405407
 31
0.0
  0
LINE
  5
10F
330
1F
100
AcDbEntity
  8
通り芯
  6
Continuous
 62
     3
370
     9
100
AcDbLine
 10
-102.4596466889252
 20
438.4155405405407
 30
0.0
 11
-101.4596433897276
 21
437.4155867293076
 31
0.0
  0
LINE
  5
110
330
1F
100
AcDbEntity
  8
通り芯
  6
Continuous
 62
     3
370
     9
100
AcDbLine
 10
-102.4596466889252
 20
447.415619721284
 30
0.0
 11
-101.4596433897276
 21
448.4156725084462
 31
0.0
  0
LINE
  5
111
330
1F
100
AcDbEntity
  8
通り芯
  6
Continuous
 62
     3
370
     9
100
AcDbLine
 10
-102.4596466889252
 20
429.9156857052367
 30
0.0
 11
-102.4596466889252
 21
420.9156065244935
 31
0.0
  0
LINE
  5
112
330
1F
100
AcDbEntity
  8
通り芯
  6
Continuous
 62
     3
370
     9
100
AcDbLine
 10
-523.9596268937394
 20
-63.08445616026165
 30
0.0
 11
-523.9596268937394
 21
-56.58440997149478
 31
0.0
  0
LINE
  5
113
330
1F
100
AcDbEntity
  8
通り芯
  6
Continuous
 62
     3
370
     9
100
AcDbLine
 10
-509.959630192937
 20
-63.08445616026165
 30
0.0
 11
-509.959630192937
 21
-56.58440997149478
 31
0.0
  0
LINE
  5
114
330
1F
100
AcDbEntity
  8
通り芯
  6
Continuous
 62
     3
370
     9
100
AcDbLine
 10
-523.9596268937394
 20
-80.58443966427353
 30
0.0
 11
-523.9596268937394
 21
-74.08444296347113
 31
0.0
  0
LINE
  5
115
330
1F
100
AcDbEntity
  8
通り芯
  6
Continuous
 62
     3
370
     9
100
AcDbLine
 10
-509.959630192937
 20
-80.58443966427353
 30
0.0
 11
-509.959630192937
 21
-74.08444296347113
 31
0.0
  0
LINE
  5
116
330
1F
100
AcDbEntity
  8
躯体
  6
Continuous
 62
     2
370
     9
100
AcDbLine
 10
-643.2596196355047
 20
450.215450802365
 30
0.0
 11
-643.2596196355047
 21
-93.38440271325999
 31
0.0
  0
LINE
  5
117
330
1F
100
AcDbEntity
  8
通り芯
  6
Continuous
 62
     3
370
     9
100
AcDbLine
 10
-102.4596466889252
 20
-73.08439017630894
 30
0.0
 11
-102.4596466889252
 21
-64.08440997149478
 31
0.0
  0
LINE
  5
118
330
1F
100
AcDbEntity
  8
通り芯
  6
Continuous
 62
     3
370
     9
100
AcDbLine
 10
-102.4596466889252
 20
-90.58437368032082
 30
0.0
 11
-101.4596433897276
 21
-91.5844264674829
 31
0.0
  0
LINE
  5
119
330
1F
100
AcDbEntity
  8
通り芯
  6
Continuous
 62
     3
370
     9
100
AcDbLine
 10
-102.4596466889252
 20
-81.58439347550666
 30
0.0
 11
-101.4596433897276
 21
-80.58443966427353
 31
0.0
  0
LINE
  5
11A
330
1F
100
AcDbEntity
  8
通り芯
  6
Continuous
 62
     3
370
     9
100
AcDbLine
 10
-102.4596466889252
 20
-73.08439017630894
 30
0.0
 11
-101.4596433897276
 21
-74.08444296347113
 31
0.0
  0
LINE
  5
11B
330
1F
100
AcDbEntity
  8
通り芯
  6
Continuous
 62
     3
370
     9
100
AcDbLine
 10
-101.4596433897276
 20
-63.08445616026165
 30
0.0
 11
-102.4596466889252
 21
-64.08440997149478
 31
0.0
  0
LINE
  5
11C
330
1F
100
AcDbEntity
  8
通り芯
  6
Continuous
 62
     3
370
     9
100
AcDbLine
 10
-315.9596334921347
 20
-63.08445616026165
 30
0.0
 11
-315.9596334921347
 21
-56.58440997149478
 31
0.0
  0
LINE
  5
11D
330
1F
100
AcDbEntity
  8
通り芯
  6
Continuous
 62
     3
370
     9
100
AcDbLine
 10
-329.9596301929371
 20
-63.08445616026165
 30
0.0
 11
-329.9596301929371
 21
-56.58440997149478
 31
0.0
  0
LINE
  5
11E
330
1F
100
AcDbEntity
  8
通り芯
  6
Continuous
 62
     3
370
     9
100
AcDbLine
 10
-101.4596433897276
 20
-56.58440997149478
 30
0.0
 11
-102.4596466889252
 21
-55.58445616026165
 31
0.0
  0
LINE
  5
11F
330
1F
100
AcDbEntity
  8
通り芯
  6
Continuous
 62
     3
370
     9
100
AcDbLine
 10
-315.9596334921347
 20
-80.58443966427353
 30
0.0
 11
-315.9596334921347
 21
-74.08444296347113
 31
0.0
  0
LINE
  5
120
330
1F
100
AcDbEntity
  8
通り芯
  6
Continuous
 62
     3
370
     9
100
AcDbLine
 10
-329.9596301929371
 20
-80.58443966427353
 30
0.0
 11
-329.9596301929371
 21
-74.08444296347113
 31
0.0
  0
LINE
  5
121
330
1F
100
AcDbEntity
  8
通り芯
  6
Continuous
 62
     3
370
     9
100
AcDbLine
 10
-114.9596631849133
 20
-63.08445616026165
 30
0.0
 11
-114.9596631849133
 21
-56.58440997149478
 31
0.0
  0
LINE
  5
122
330
1F
100
AcDbEntity
  8
通り芯
  6
Continuous
 62
     3
370
     9
100
AcDbLine
 10
-114.9596631849133
 20
-80.58443966427353
 30
0.0
 11
-114.9596631849133
 21
-74.08444296347113
 31
0.0
  0
LINE
  5
123
330
1F
100
AcDbEntity
  8
通り芯
  6
Continuous
 62
     3
370
     9
100
AcDbLine
 10
-102.4596466889252
 20
-90.58437368032082
 30
0.0
 11
-102.4596466889252
 21
-81.58439347550666
 31
0.0
  0
LINE
  5
124
330
1F
100
AcDbEntity
  8
躯体
  6
Continuous
 62
     2
370
     9
100
AcDbLine
 10
343.540389602249
 20
447.2154903927367
 30
0.0
 11
343.540389602249
 21
403.4155735325171
 31
0.0
  0
LINE
  5
125
330
1F
100
AcDbEntity
  8
通り芯
  6
Continuous
 62
     3
370
     9
100
AcDbLine
 10
297.5405347669448
 20
427.5328402132603
 30
0.0
 11
297.5405347669448
 21
423.2982540646117
 31
0.0
  0
LINE
  5
126
330
1F
100
AcDbEntity
  8
通り芯
  6
Continuous
 62
     3
370
     9
100
AcDbLine
 10
289.5406073492927
 20
438.0328006228887
 30
0.0
 11
289.5406073492927
 21
430.2983266469597
 31
0.0
  0
LINE
  5
127
330
1F
100
AcDbEntity
  8
通り芯
  6
Continuous
 62
     3
370
     9
100
AcDbLine
 10
283.540389602249
 20
429.068451752534
 30
0.0
 11
283.540389602249
 21
421.762642525338
 31
0.0
  0
LINE
  5
128
330
1F
100
AcDbEntity
  8
通り芯
  6
Continuous
 62
     3
370
     9
100
AcDbLine
 10
290.416544321421
 20
429.3060929581927
 30
0.0
 11
296.6644988188873
 21
428.5251728779563
 31
0.0
  0
LINE
  5
129
330
1F
100
AcDbEntity
  8
通り芯
  6
Continuous
 62
     3
370
     9
100
AcDbLine
 10
296.6644988188873
 20
439.8060533678212
 30
0.0
 11
290.416544321421
 21
439.0251332875847
 31
0.0
  0
LINE
  5
12A
330
1F
100
AcDbEntity
  8
通り芯
  6
Continuous
 62
     3
370
     9
100
AcDbLine
 10
290.416544321421
 20
421.5251002956084
 30
0.0
 11
296.6644988188873
 21
422.3061193517739
 31
0.0
  0
LINE
  5
12B
330
1F
100
AcDbEntity
  8
通り芯
  6
Continuous
 62
     3
370
     9
100
AcDbLine
 10
290.416544321421
 20
446.8061259501691
 30
0.0
 11
296.6644988188873
 21
446.0251068940036
 31
0.0
  0
LINE
  5
12C
330
1F
100
AcDbEntity
  8
通り芯
  6
Continuous
 62
     3
370
     9
100
AcDbLine
 10
283.540389602249
 20
403.4155735325171
 30
0.0
 11
320.8022535169448
 21
400.1552074535475
 31
0.0
  0
LINE
  5
12D
330
1F
100
AcDbEntity
  8
通り芯
  6
Continuous
 62
     3
370
     9
100
AcDbLine
 10
284.3762413231102
 20
412.5548128695103
 30
0.0
 11
289.5406073492927
 21
413.4156065244935
 31
0.0
  0
LINE
  5
12E
330
1F
100
AcDbEntity
  8
通り芯
  6
Continuous
 62
     3
370
     9
100
AcDbLine
 10
284.3762413231102
 20
420.7763473923144
 30
0.0
 11
289.5406073492927
 21
419.9156527132603
 31
0.0
  0
LINE
  5
12F
330
1F
100
AcDbEntity
  8
通り芯
  6
Continuous
 62
     3
370
     9
100
AcDbLine
 10
284.3762413231102
 20
430.0547468855576
 30
0.0
 11
289.5406073492927
 21
430.9155405405407
 31
0.0
  0
LINE
  5
130
330
1F
100
AcDbEntity
  8
通り芯
  6
Continuous
 62
     3
370
     9
100
AcDbLine
 10
284.3762413231102
 20
438.2762814083617
 30
0.0
 11
289.5406073492927
 21
437.4155867293076
 31
0.0
  0
LINE
  5
131
330
1F
100
AcDbEntity
  8
通り芯
  6
Continuous
 62
     3
370
     9
100
AcDbLine
 10
284.3762413231102
 20
447.554779877534
 30
0.0
 11
289.5406073492927
 21
448.4156725084462
 31
0.0
  0
LINE
  5
132
330
1F
100
AcDbEntity
  8
通り芯
  6
Continuous
 62
     3
370
     9
100
AcDbLine
 10
297.5405347669448
 20
445.0327742293076
 30
0.0
 11
297.5405347669448
 21
440.798287056588
 31
0.0
  0
LINE
  5
133
330
1F
100
AcDbEntity
  8
通り芯
  6
Continuous
 62
     3
370
     9
100
AcDbLine
 10
289.5406073492927
 20
448.4156725084462
 30
0.0
 11
289.5406073492927
 21
447.798260663007
 31
0.0
  0
LINE
  5
134
330
1F
100
AcDbEntity
  8
通り芯
  6
Continuous
 62
     3
370
     9
100
AcDbLine
 10
283.540389602249
 20
446.5684847445103
 30
0.0
 11
283.540389602249
 21
439.2626755173144
 31
0.0
  0
LINE
  5
135
330
1F
100
AcDbEntity
  8
躯体
  6
Continuous
 62
     2
370
     9
100
AcDbLine
 10
-96.45967638170396
 20
-96.58439347550666
 30
0.0
 11
-646.4596103977512
 21
-96.58439347550666
 31
0.0
  0
LINE
  5
136
330
1F
100
AcDbEntity
  8
躯体
  6
Continuous
 62
     2
370
     9
100
AcDbLine
 10
-99.65966714395051
 20
-93.38440271325999
 30
0.0
 11
-643.2596196355047
 21
-93.38440271325999
 31
0.0
  0
LINE
  5
137
330
1F
100
AcDbEntity
  8
躯体
  6
Continuous
 62
     2
370
     9
100
AcDbLine
 10
-200.9596499881228
 20
482.4155867293077
 30
0.0
 11
-200.9596499881228
 21
457.9155801309123
 31
0.0
  0
LINE
  5
138
330
1F
100
AcDbEntity
  8
躯体
  6
Continuous
 62
     2
370
     9
100
AcDbLine
 10
-191.9596697833086
 20
482.4155867293077
 30
0.0
 11
-191.9596697833086
 21
457.9155801309123
 31
0.0
  0
LINE
  5
139
330
1F
100
AcDbEntity
  8
躯体
  6
Continuous
 62
     2
370
     9
100
AcDbLine
 10
-200.9596499881228
 20
482.4155867293077
 30
0.0
 11
-191.9596697833086
 21
482.4155867293077
 31
0.0
  0
LINE
  5
13A
330
1F
100
AcDbEntity
  8
躯体
  6
Continuous
 62
     2
370
     9
100
AcDbLine
 10
283.540389602249
 20
450.215450802365
 30
0.0
 11
283.540389602249
 21
453.4156395164698
 31
0.0
  0
LINE
  5
13B
330
1F
100
AcDbEntity
  8
躯体
  6
Continuous
 62
     2
370
     9
100
AcDbLine
 10
361.7406772922827
 20
482.4155867293077
 30
0.0
 11
370.7405585211677
 21
482.4155867293077
 31
0.0
  0
LINE
  5
13C
330
1F
100
AcDbEntity
  8
躯体
  6
Continuous
 62
     2
370
     9
100
AcDbLine
 10
361.7406772922827
 20
467.4156857052367
 30
0.0
 11
361.7406772922827
 21
482.4155867293077
 31
0.0
  0
LINE
  5
13D
330
1F
100
AcDbEntity
  8
躯体
  6
Continuous
 62
     2
370
     9
100
AcDbLine
 10
370.7405585211677
 20
467.4156857052367
 30
0.0
 11
370.7405585211677
 21
482.4155867293077
 31
0.0
  0
LINE
  5
13E
330
1F
100
AcDbEntity
  8
躯体
  6
Continuous
 62
     2
370
     9
100
AcDbLine
 10
343.540389602249
 20
403.4155735325171
 30
0.0
 11
346.7405783163535
 21
403.4155735325171
 31
0.0
  0
LINE
  5
13F
330
1F
100
AcDbEntity
  8
躯体
  6
Continuous
 62
     2
370
     9
100
AcDbLine
 10
283.540389602249
 20
450.215450802365
 30
0.0
 11
340.5405281685494
 21
450.215450802365
 31
0.0
  0
LINE
  5
140
330
1F
100
AcDbEntity
  8
躯体
  6
Continuous
 62
     2
370
     9
100
AcDbLine
 10
331.7406772922827
 20
453.4156395164698
 30
0.0
 11
331.7406772922827
 21
462.415619721284
 31
0.0
  0
LINE
  5
141
330
1F
100
AcDbEntity
  8
躯体
  6
Continuous
 62
     2
370
     9
100
AcDbLine
 10
331.7406772922827
 20
462.415619721284
 30
0.0
 11
356.7406113083298
 21
462.415619721284
 31
0.0
  0
LINE
  5
142
330
1F
100
AcDbEntity
  8
躯体
  6
Continuous
 62
     2
370
     9
100
AcDbLine
 10
346.7405783163535
 20
403.4155735325171
 30
0.0
 11
346.7405783163535
 21
447.2154903927367
 31
0.0
  0
LINE
  5
143
330
1F
100
AcDbEntity
  8
躯体
  6
Continuous
 62
     2
370
     9
100
AcDbLine
 10
-541.9596367913323
 20
482.4155867293077
 30
0.0
 11
-541.9596367913323
 21
457.9155801309123
 31
0.0
  0
LINE
  5
144
330
1F
100
AcDbEntity
  8
躯体
  6
Continuous
 62
     2
370
     9
100
AcDbLine
 10
-550.959666484111
 20
482.4155867293077
 30
0.0
 11
-550.959666484111
 21
457.9155801309123
 31
0.0
  0
LINE
  5
145
330
1F
100
AcDbEntity
  8
躯体
  6
Continuous
 62
     2
370
     9
100
AcDbLine
 10
-541.9596367913323
 20
482.4155867293077
 30
0.0
 11
-550.959666484111
 21
482.4155867293077
 31
0.0
  0
LINE
  5
146
330
1F
100
AcDbEntity
  8
躯体
  6
Continuous
 62
     2
370
     9
100
AcDbLine
 10
-200.9596499881228
 20
-125.5844396642735
 30
0.0
 11
-200.9596499881228
 21
-101.0844330658782
 31
0.0
  0
LINE
  5
147
330
1F
100
AcDbEntity
  8
躯体
  6
Continuous
 62
     2
370
     9
100
AcDbLine
 10
-191.9596697833086
 20
-125.5844396642735
 30
0.0
 11
-191.9596697833086
 21
-101.0844330658782
 31
0.0
  0
LINE
  5
148
330
1F
100
AcDbEntity
  8
躯体
  6
Continuous
 62
     2
370
     9
100
AcDbLine
 10
-200.9596499881228
 20
-125.5844396642735
 30
0.0
 11
-191.9596697833086
 21
-125.5844396642735
 31
0.0
  0
LINE
  5
149
330
1F
100
AcDbEntity
  8
躯体
  6
Continuous
 62
     2
370
     9
100
AcDbLine
 10
-541.9596862792969
 20
-125.5844396642735
 30
0.0
 11
-541.9596862792969
 21
-101.0844330658782
 31
0.0
  0
LINE
  5
14A
330
1F
100
AcDbEntity
  8
躯体
  6
Continuous
 62
     2
370
     9
100
AcDbLine
 10
-550.959666484111
 20
-125.5844396642735
 30
0.0
 11
-550.959666484111
 21
-101.0844330658782
 31
0.0
  0
LINE
  5
14B
330
1F
100
AcDbEntity
  8
躯体
  6
Continuous
 62
     2
370
     9
100
AcDbLine
 10
-541.9596862792969
 20
-125.5844396642735
 30
0.0
 11
-550.959666484111
 21
-125.5844396642735
 31
0.0
  0
LINE
  5
14C
330
1F
100
AcDbEntity
  8
通り芯
  6
JWW_CENTER1
 62
     3
370
     9
100
AcDbLine
 10
-371.4596433897276
 20
-116.5844099714948
 30
0.0
 11
-371.4596433897276
 21
473.4156065244933
 31
0.0
  0
LINE
  5
14D
330
1F
100
AcDbEntity
  8
通り芯
  6
JWW_CENTER1
 62
     3
370
     9
100
AcDbLine
 10
-76.45965988571572
 20
178.4155735325171
 30
0.0
 11
-666.4595774057749
 21
178.4155735325171
 31
0.0
  0
LINE
  5
14E
330
1F
100
AcDbEntity
  8
躯体
  6
JWW_CENTER1
 62
     2
370
     9
100
AcDbLine
 10
366.2406179067252
 20
467.4156857052367
 30
0.0
 11
366.2406179067252
 21
486.4155999260981
 31
0.0
  0
LINE
  5
14F
330
1F
100
AcDbEntity
  8
躯体
  6
JWW_CENTER1
 62
     2
370
     9
100
AcDbLine
 10
327.7406640954919
 20
457.9155801309123
 30
0.0
 11
356.7406113083298
 21
457.9155801309123
 31
0.0
  0
LINE
  5
150
330
1F
100
AcDbEntity
  8
躯体
  6
Continuous
 62
     2
370
     9
100
AcDbLine
 10
-129.9596631849133
 20
419.9156527132603
 30
0.0
 11
-136.4597093736803
 21
413.4156065244935
 31
0.0
  0
LINE
  5
151
330
1F
100
AcDbEntity
  8
躯体
  6
Continuous
 62
     2
370
     9
100
AcDbLine
 10
-96.45967638170396
 20
453.4156395164698
 30
0.0
 11
-101.4596433897276
 21
448.4156725084462
 31
0.0
  0
LINE
  5
152
330
1F
100
AcDbEntity
  8
躯体
  6
Continuous
 62
     2
370
     9
100
AcDbLine
 10
-114.9596631849133
 20
434.9156527132603
 30
0.0
 11
-118.959775357633
 21
430.9155405405407
 31
0.0
  0
LINE
  5
153
330
1F
100
AcDbEntity
  8
躯体
  6
Continuous
 62
     2
370
     9
100
AcDbLine
 10
-96.45967638170396
 20
453.4156395164698
 30
0.0
 11
-646.4596103977512
 21
453.4156395164698
 31
0.0
  0
LINE
  5
154
330
1F
100
AcDbEntity
  8
躯体
  6
Continuous
 62
     2
370
     9
100
AcDbLine
 10
-646.4596103977512
 20
453.4156395164698
 30
0.0
 11
-646.4596103977512
 21
-96.58439347550666
 31
0.0
  0
LINE
  5
155
330
1F
100
AcDbEntity
  8
躯体
  6
Continuous
 62
     2
370
     9
100
AcDbLine
 10
-612.9596235945418
 20
419.9156527132603
 30
0.0
 11
-606.4595774057749
 21
413.4156065244935
 31
0.0
  0
LINE
  5
156
330
1F
100
AcDbEntity
  8
躯体
  6
Continuous
 62
     2
370
     9
100
AcDbLine
 10
-646.4596103977512
 20
453.4156395164698
 30
0.0
 11
-641.4595444137985
 21
448.4155735325171
 31
0.0
  0
LINE
  5
157
330
1F
100
AcDbEntity
  8
躯体
  6
Continuous
 62
     2
370
     9
100
AcDbLine
 10
-627.9596235945418
 20
434.9156527132603
 30
0.0
 11
-623.9595114218222
 21
430.9155405405407
 31
0.0
  0
LINE
  5
158
330
1F
100
AcDbEntity
  8
躯体
  6
Continuous
 62
     2
370
     9
100
AcDbLine
 10
-129.9596631849133
 20
-63.08450564822624
 30
0.0
 11
-136.4597093736803
 21
-56.58440997149478
 31
0.0
  0
LINE
  5
159
330
1F
100
AcDbEntity
  8
躯体
  6
Continuous
 62
     2
370
     9
100
AcDbLine
 10
-96.45967638170396
 20
-96.58449245143561
 30
0.0
 11
-101.4596433897276
 21
-91.58457493137644
 31
0.0
  0
LINE
  5
15A
330
1F
100
AcDbEntity
  8
躯体
  6
Continuous
 62
     2
370
     9
100
AcDbLine
 10
-114.9596631849133
 20
-78.08450564822624
 30
0.0
 11
-118.959775357633
 21
-74.08439347550666
 31
0.0
  0
LINE
  5
15B
330
1F
100
AcDbEntity
  8
躯体
  6
Continuous
 62
     2
370
     9
100
AcDbLine
 10
-612.9596235945418
 20
-63.08450564822624
 30
0.0
 11
-606.4595774057749
 21
-56.58440997149478
 31
0.0
  0
LINE
  5
15C
330
1F
100
AcDbEntity
  8
躯体
  6
Continuous
 62
     2
370
     9
100
AcDbLine
 10
-646.4596103977512
 20
-96.58449245143561
 30
0.0
 11
-641.4595444137985
 21
-91.5844264674829
 31
0.0
  0
LINE
  5
15D
330
1F
100
AcDbEntity
  8
躯体
  6
Continuous
 62
     2
370
     9
100
AcDbLine
 10
-627.9596235945418
 20
-78.08450564822624
 30
0.0
 11
-623.9595114218222
 21
-74.08439347550666
 31
0.0
  0
LINE
  5
15E
330
1F
100
AcDbEntity
  8
通り芯
  6
Continuous
 62
     3
370
     9
100
AcDbLine
 10
289.5406073492927
 20
411.7499406144427
 30
0.0
 11
289.5406073492927
 21
420.5328666068414
 31
0.0
  0
LINE
  5
15F
330
1F
100
AcDbEntity
  8
通り芯
  6
Continuous
 62
     3
370
     9
100
AcDbLine
 10
283.540389602249
 20
-54.73737067145248
 30
0.0
 11
283.540389602249
 21
411.5685177364867
 31
0.0
  0
LINE
  5
160
330
1F
100
AcDbEntity
  8
通り芯
  6
Continuous
 62
     3
370
     9
100
AcDbLine
 10
323.5404225942252
 20
397.1666292757603
 30
0.0
 11
323.5404225942252
 21
-40.33548221072613
 31
0.0
  0
LINE
  5
161
330
1F
100
AcDbEntity
  8
通り芯
  6
Continuous
 62
     3
370
     9
100
AcDbLine
 10
297.5405347669448
 20
445.9156395164698
 30
0.0
 11
343.540389602249
 21
441.4156989020272
 31
0.0
  0
LINE
  5
162
330
1F
100
AcDbEntity
  8
通り芯
  6
Continuous
 62
     3
370
     9
100
AcDbLine
 10
330.540396200644
 20
356.1660486169766
 30
0.0
 11
330.540396200644
 21
402.664643158784
 31
0.0
  0
LINE
  5
163
330
1F
100
AcDbEntity
  8
通り芯
  6
Continuous
 62
     3
370
     9
100
AcDbLine
 10
333.2805447965056
 20
353.1773714632603
 30
0.0
 11
353.5404225942252
 21
351.4155999260981
 31
0.0
  0
LINE
  5
164
330
1F
100
AcDbEntity
  8
通り芯
  6
Continuous
 62
     3
370
     9
100
AcDbLine
 10
333.2805447965056
 20
343.6539075696793
 30
0.0
 11
353.5404225942252
 21
345.4154811549834
 31
0.0
  0
LINE
  5
165
330
1F
100
AcDbEntity
  8
通り芯
  6
Continuous
 62
     3
370
     9
100
AcDbLine
 10
333.2805447965056
 20
183.1774044552367
 30
0.0
 11
353.5404225942252
 21
181.4156329180745
 31
0.0
  0
LINE
  5
166
330
1F
100
AcDbEntity
  8
通り芯
  6
Continuous
 62
     3
370
     9
100
AcDbLine
 10
330.540396200644
 20
340.6650324641049
 30
0.0
 11
330.540396200644
 21
186.1660816089529
 31
0.0
  0
LINE
  5
167
330
1F
100
AcDbEntity
  8
通り芯
  6
Continuous
 62
     3
370
     9
100
AcDbLine
 10
343.4715023556273
 20
404.3972167968752
 30
0.0
 11
343.540389602249
 21
404.4156263196793
 31
0.0
  0
LINE
  5
168
330
1F
100
AcDbEntity
  8
通り芯
  6
Continuous
 62
     3
370
     9
100
AcDbLine
 10
343.540389602249
 20
441.4156989020272
 30
0.0
 11
343.540389602249
 21
404.4156263196793
 31
0.0
  0
LINE
  5
169
330
1F
100
AcDbEntity
  8
通り芯
  6
Continuous
 62
     3
370
     9
100
AcDbLine
 10
339.9638944058806
 20
398.1733134501691
 30
0.0
 11
353.5404225942252
 21
351.4155999260981
 31
0.0
  0
LINE
  5
16A
330
1F
100
AcDbEntity
  8
通り芯
  6
Continuous
 62
     3
370
     9
100
AcDbLine
 10
353.5404225942252
 20
351.4155999260981
 30
0.0
 11
353.5404225942252
 21
5.415547138935949
 31
0.0
  0
LINE
  5
16B
330
1F
100
AcDbEntity
  8
通り芯
  6
JWW_CENTER1
 62
     3
370
     9
100
AcDbLine
 10
263.5404225942252
 20
178.4155735325171
 30
0.0
 11
373.540389602249
 21
178.4155735325171
 31
0.0
  0
LINE
  5
16C
330
1F
100
AcDbEntity
  8
通り芯
  6
Continuous
 62
     3
370
     9
100
AcDbLine
 10
297.5405347669448
 20
-70.70169314822624
 30
0.0
 11
297.5405347669448
 21
-66.46710699957748
 31
0.0
  0
LINE
  5
16D
330
1F
100
AcDbEntity
  8
通り芯
  6
Continuous
 62
     3
370
     9
100
AcDbLine
 10
289.5406073492927
 20
-81.20170304581916
 30
0.0
 11
289.5406073492927
 21
-73.4671795819255
 31
0.0
  0
LINE
  5
16E
330
1F
100
AcDbEntity
  8
通り芯
  6
Continuous
 62
     3
370
     9
100
AcDbLine
 10
283.540389602249
 20
-72.23730468749977
 30
0.0
 11
283.540389602249
 21
-64.93149546030395
 31
0.0
  0
LINE
  5
16F
330
1F
100
AcDbEntity
  8
通り芯
  6
Continuous
 62
     3
370
     9
100
AcDbLine
 10
290.416544321421
 20
-72.47494589315863
 30
0.0
 11
296.6644988188873
 21
-71.69407530088665
 31
0.0
  0
LINE
  5
170
330
1F
100
AcDbEntity
  8
通り芯
  6
Continuous
 62
     3
370
     9
100
AcDbLine
 10
296.6644988188873
 20
-82.97495579075144
 30
0.0
 11
290.416544321421
 21
-82.1939862225505
 31
0.0
  0
LINE
  5
171
330
1F
100
AcDbEntity
  8
通り芯
  6
Continuous
 62
     3
370
     9
100
AcDbLine
 10
290.416544321421
 20
-64.69395323057415
 30
0.0
 11
296.6644988188873
 21
-65.47497228673967
 31
0.0
  0
LINE
  5
172
330
1F
100
AcDbEntity
  8
通り芯
  6
Continuous
 62
     3
370
     9
100
AcDbLine
 10
290.416544321421
 20
-89.97497888513499
 30
0.0
 11
296.6644988188873
 21
-89.19400931693394
 31
0.0
  0
LINE
  5
173
330
1F
100
AcDbEntity
  8
通り芯
  6
Continuous
 62
     3
370
     9
100
AcDbLine
 10
283.540389602249
 20
-46.5844264674829
 30
0.0
 11
320.8022535169448
 21
-43.32406038851332
 31
0.0
  0
LINE
  5
174
330
1F
100
AcDbEntity
  8
通り芯
  6
Continuous
 62
     3
370
     9
100
AcDbLine
 10
284.3762413231102
 20
-55.72366580447613
 30
0.0
 11
289.5406073492927
 21
-56.58440997149478
 31
0.0
  0
LINE
  5
175
330
1F
100
AcDbEntity
  8
通り芯
  6
Continuous
 62
     3
370
     9
100
AcDbLine
 10
284.3762413231102
 20
-63.94520032728019
 30
0.0
 11
289.5406073492927
 21
-63.08450564822624
 31
0.0
  0
LINE
  5
176
330
1F
100
AcDbEntity
  8
通り芯
  6
Continuous
 62
     3
370
     9
100
AcDbLine
 10
284.3762413231102
 20
-73.22359982052353
 30
0.0
 11
289.5406073492927
 21
-74.08439347550666
 31
0.0
  0
LINE
  5
177
330
1F
100
AcDbEntity
  8
通り芯
  6
Continuous
 62
     3
370
     9
100
AcDbLine
 10
284.3762413231102
 20
-81.44513434332748
 30
0.0
 11
289.5406073492927
 21
-80.58443966427353
 31
0.0
  0
LINE
  5
178
330
1F
100
AcDbEntity
  8
通り芯
  6
Continuous
 62
     3
370
     9
100
AcDbLine
 10
284.3762413231102
 20
-90.72363281249977
 30
0.0
 11
289.5406073492927
 21
-91.58457493137644
 31
0.0
  0
LINE
  5
179
330
1F
100
AcDbEntity
  8
通り芯
  6
Continuous
 62
     3
370
     9
100
AcDbLine
 10
297.5405347669448
 20
-88.20162716427353
 30
0.0
 11
297.5405347669448
 21
-83.96713999155395
 31
0.0
  0
LINE
  5
17A
330
1F
100
AcDbEntity
  8
通り芯
  6
Continuous
 62
     3
370
     9
100
AcDbLine
 10
289.5406073492927
 20
-91.58457493137644
 30
0.0
 11
289.5406073492927
 21
-90.9671135979728
 31
0.0
  0
LINE
  5
17B
330
1F
100
AcDbEntity
  8
通り芯
  6
Continuous
 62
     3
370
     9
100
AcDbLine
 10
283.540389602249
 20
-89.73733767947624
 30
0.0
 11
283.540389602249
 21
-82.43152845228019
 31
0.0
  0
LINE
  5
17C
330
1F
100
AcDbEntity
  8
通り芯
  6
Continuous
 62
     3
370
     9
100
AcDbLine
 10
289.5406073492927
 20
-54.91879354940863
 30
0.0
 11
289.5406073492927
 21
-63.70171954180728
 31
0.0
  0
LINE
  5
17D
330
1F
100
AcDbEntity
  8
通り芯
  6
Continuous
 62
     3
370
     9
100
AcDbLine
 10
326.8890752019111
 20
-49.81821750950155
 30
0.0
 11
291.366317336624
 21
-52.92640809755051
 31
0.0
  0
LINE
  5
17E
330
1F
100
AcDbEntity
  8
通り芯
  6
Continuous
 62
     3
370
     9
100
AcDbLine
 10
297.5405347669448
 20
-89.08449245143561
 30
0.0
 11
343.540389602249
 21
-84.58455183699311
 31
0.0
  0
LINE
  5
17F
330
1F
100
AcDbEntity
  8
通り芯
  6
Continuous
 62
     3
370
     9
100
AcDbLine
 10
330.540396200644
 20
0.6650984480576199
 30
0.0
 11
330.540396200644
 21
-45.83349609374989
 31
0.0
  0
LINE
  5
180
330
1F
100
AcDbEntity
  8
通り芯
  6
Continuous
 62
     3
370
     9
100
AcDbLine
 10
333.2805447965056
 20
3.653775601773873
 30
0.0
 11
353.5404225942252
 21
5.415547138935949
 31
0.0
  0
LINE
  5
181
330
1F
100
AcDbEntity
  8
通り芯
  6
Continuous
 62
     3
370
     9
100
AcDbLine
 10
333.2805447965056
 20
13.17723949535491
 30
0.0
 11
353.5404225942252
 21
11.41566591005085
 31
0.0
  0
LINE
  5
182
330
1F
100
AcDbEntity
  8
通り芯
  6
Continuous
 62
     3
370
     9
100
AcDbLine
 10
333.2805447965056
 20
173.6537426097975
 30
0.0
 11
353.5404225942252
 21
175.4155141469596
 31
0.0
  0
LINE
  5
183
330
1F
100
AcDbEntity
  8
通り芯
  6
Continuous
 62
     3
370
     9
100
AcDbLine
 10
330.540396200644
 20
16.16611460092918
 30
0.0
 11
330.540396200644
 21
170.6650654560813
 31
0.0
  0
LINE
  5
184
330
1F
100
AcDbEntity
  8
通り芯
  6
Continuous
 62
     3
370
     9
100
AcDbLine
 10
343.4715023556273
 20
-47.56606973184103
 30
0.0
 11
343.540389602249
 21
-47.58447925464509
 31
0.0
  0
LINE
  5
185
330
1F
100
AcDbEntity
  8
通り芯
  6
Continuous
 62
     3
370
     9
100
AcDbLine
 10
343.540389602249
 20
-84.58455183699311
 30
0.0
 11
343.540389602249
 21
-47.58447925464509
 31
0.0
  0
LINE
  5
186
330
1F
100
AcDbEntity
  8
通り芯
  6
Continuous
 62
     3
370
     9
100
AcDbLine
 10
339.9638944058806
 20
-41.34216638513499
 30
0.0
 11
353.5404225942252
 21
5.415547138935949
 31
0.0
  0
LINE
  5
187
330
1F
100
AcDbEntity
  8
躯体
  6
Continuous
 62
     2
370
     9
100
AcDbLine
 10
343.540389602249
 20
-90.38434332770248
 30
0.0
 11
343.540389602249
 21
-46.5844264674829
 31
0.0
  0
LINE
  5
188
330
1F
100
AcDbEntity
  8
躯体
  6
Continuous
 62
     2
370
     9
100
AcDbLine
 10
283.540389602249
 20
-93.38430373733092
 30
0.0
 11
283.540389602249
 21
-96.58449245143561
 31
0.0
  0
LINE
  5
189
330
1F
100
AcDbEntity
  8
躯体
  6
Continuous
 62
     2
370
     9
100
AcDbLine
 10
361.7406772922827
 20
-125.5844396642735
 30
0.0
 11
370.7405585211677
 21
-125.5844396642735
 31
0.0
  0
LINE
  5
18A
330
1F
100
AcDbEntity
  8
躯体
  6
Continuous
 62
     2
370
     9
100
AcDbLine
 10
343.540389602249
 20
-46.5844264674829
 30
0.0
 11
346.7405783163535
 21
-46.5844264674829
 31
0.0
  0
LINE
  5
18B
330
1F
100
AcDbEntity
  8
躯体
  6
Continuous
 62
     2
370
     9
100
AcDbLine
 10
283.540389602249
 20
-93.38430373733092
 30
0.0
 11
340.5405281685494
 21
-93.38430373733092
 31
0.0
  0
LINE
  5
18C
330
1F
100
AcDbEntity
  8
躯体
  6
Continuous
 62
     2
370
     9
100
AcDbLine
 10
331.7406772922827
 20
-96.58449245143561
 30
0.0
 11
331.7406772922827
 21
-105.5844726562498
 31
0.0
  0
LINE
  5
18D
330
1F
100
AcDbEntity
  8
躯体
  6
Continuous
 62
     2
370
     9
100
AcDbLine
 10
346.7405783163535
 20
-46.5844264674829
 30
0.0
 11
346.7405783163535
 21
-90.38434332770248
 31
0.0
  0
LINE
  5
18E
330
1F
100
AcDbEntity
  8
0-E
  6
Continuous
 62
     7
370
     9
100
AcDbLine
 10
461.8093995790223
 20
272.3726311760981
 30
0.0
 11
353.5404225942252
 21
229.1110938819681
 31
0.0
  0
LINE
  5
18F
330
1F
100
AcDbEntity
  8
躯体
  6
JWW_CENTER1
 62
     2
370
     9
100
AcDbLine
 10
-204.9596631849134
 20
457.9155801309123
 30
0.0
 11
-187.9596070985535
 21
457.9155801309123
 31
0.0
  0
LINE
  5
190
330
1F
100
AcDbEntity
  8
躯体
  6
JWW_CENTER1
 62
     2
370
     9
100
AcDbLine
 10
-196.4596103977512
 20
486.4155999260981
 30
0.0
 11
-196.4596103977512
 21
446.2154376055745
 31
0.0
  0
LINE
  5
191
330
1F
100
AcDbEntity
  8
躯体
  6
JWW_CENTER1
 62
     2
370
     9
100
AcDbLine
 10
-554.9597291688661
 20
457.9155801309123
 30
0.0
 11
-537.9596235945418
 21
457.9155801309123
 31
0.0
  0
LINE
  5
192
330
1F
100
AcDbEntity
  8
躯体
  6
JWW_CENTER1
 62
     2
370
     9
100
AcDbLine
 10
-546.4596268937395
 20
486.4155999260981
 30
0.0
 11
-546.4596268937395
 21
446.2154376055745
 31
0.0
  0
LINE
  5
193
330
1F
100
AcDbEntity
  8
躯体
  6
JWW_CENTER1
 62
     2
370
     9
100
AcDbLine
 10
-537.9595741065773
 20
-101.0844330658782
 30
0.0
 11
-554.959630192937
 21
-101.0844330658782
 31
0.0
  0
LINE
  5
194
330
1F
100
AcDbEntity
  8
躯体
  6
JWW_CENTER1
 62
     2
370
     9
100
AcDbLine
 10
-546.4596268937395
 20
-129.5844528610641
 30
0.0
 11
-546.4596268937395
 21
-89.3842905405404
 31
0.0
  0
LINE
  5
195
330
1F
100
AcDbEntity
  8
躯体
  6
JWW_CENTER1
 62
     2
370
     9
100
AcDbLine
 10
-187.9595576105891
 20
-101.0844330658782
 30
0.0
 11
-204.9596136969488
 21
-101.0844330658782
 31
0.0
  0
LINE
  5
196
330
1F
100
AcDbEntity
  8
躯体
  6
JWW_CENTER1
 62
     2
370
     9
100
AcDbLine
 10
-196.4596103977512
 20
-129.5844528610641
 30
0.0
 11
-196.4596103977512
 21
-89.3842905405404
 31
0.0
  0
LINE
  5
197
330
1F
100
AcDbEntity
  8
通り芯
  6
Continuous
 62
     3
370
     9
100
AcDbLine
 10
-102.3204370447107
 20
-305.5383168813344
 30
0.0
 11
-101.4596433897276
 21
-310.7026829075168
 31
0.0
  0
LINE
  5
198
330
1F
100
AcDbEntity
  8
通り芯
  6
Continuous
 62
     3
370
     9
100
AcDbLine
 10
-114.7199434847445
 20
-341.9642300992397
 30
0.0
 11
-111.5394509805215
 21
-305.6155181059964
 31
0.0
  0
LINE
  5
199
330
1F
100
AcDbEntity
  8
通り芯
  6
Continuous
 62
     3
370
     9
100
AcDbLine
 10
-104.959531217008
 20
-364.7026631123309
 30
0.0
 11
-101.4596433897276
 21
-310.7026829075168
 31
0.0
  0
LINE
  5
19A
330
1F
100
AcDbEntity
  8
通り芯
  6
Continuous
 62
     3
370
     9
100
AcDbLine
 10
-111.9596037993559
 20
-364.7026631123309
 30
0.0
 11
-104.959531217008
 21
-364.7026631123309
 31
0.0
  0
LINE
  5
19B
330
1F
100
AcDbEntity
  8
通り芯
  6
Continuous
 62
     3
370
     9
100
AcDbLine
 10
-105.1175957757073
 20
-312.5283928948478
 30
0.0
 11
-108.2258358517208
 21
-348.0514476879222
 31
0.0
  0
LINE
  5
19C
330
1F
100
AcDbEntity
  8
通り芯
  6
Continuous
 62
     3
370
     9
100
AcDbLine
 10
-103.1252103238492
 20
-310.7026829075168
 30
0.0
 11
-101.4596433897276
 21
-310.7026829075168
 31
0.0
  0
LINE
  5
19D
330
1F
100
AcDbEntity
  8
通り芯
  6
JWW_CENTER1
 62
     3
370
     9
100
AcDbLine
 10
-371.4596433897276
 20
-284.7026961043073
 30
0.0
 11
-371.4596433897276
 21
-394.70276208826
 31
0.0
  0
LINE
  5
19E
330
1F
100
AcDbEntity
  8
0-F
  6
Continuous
 62
     7
370
     9
100
AcDbLine
 10
353.5404225942252
 20
82.2420489336995
 30
0.0
 11
365.4377251702385
 21
83.80834301097991
 31
0.0
  0
LINE
  5
19F
330
1F
100
AcDbEntity
  8
0-E
  6
Continuous
 62
     7
370
     9
100
AcDbLine
 10
401.6704373746306
 20
534.8128497149496
 30
0.0
 11
559.5732694058806
 21
534.8128497149496
 31
0.0
  0
LINE
  5
1A0
330
1F
100
AcDbEntity
  8
0-E
  6
Continuous
 62
     7
370
     9
100
AcDbLine
 10
401.6704373746306
 20
534.8128497149496
 30
0.0
 11
370.7403605693098
 21
482.4155867293077
 31
0.0
  0
LINE
  5
1A1
330
1F
100
AcDbEntity
  8
躯体
  6
Continuous
 62
     2
370
     9
100
AcDbLine
 10
361.7406772922827
 20
-110.5845386402025
 30
0.0
 11
361.7406772922827
 21
-125.5844396642735
 31
0.0
  0
LINE
  5
1A2
330
1F
100
AcDbEntity
  8
躯体
  6
Continuous
 62
     2
370
     9
100
AcDbLine
 10
331.7406772922827
 20
-105.5844726562498
 30
0.0
 11
356.7406113083298
 21
-105.5844726562498
 31
0.0
  0
LINE
  5
1A3
330
1F
100
AcDbEntity
  8
躯体
  6
JWW_CENTER1
 62
     2
370
     9
100
AcDbLine
 10
327.7406640954919
 20
-101.0844330658782
 30
0.0
 11
356.7406113083298
 21
-101.0844330658782
 31
0.0
  0
LINE
  5
1A4
330
1F
100
AcDbEntity
  8
躯体
  6
JWW_CENTER1
 62
     2
370
     9
100
AcDbLine
 10
366.2406179067252
 20
-110.5845386402025
 30
0.0
 11
366.2406179067252
 21
-129.5844528610641
 31
0.0
  0
LINE
  5
1A5
330
1F
100
AcDbEntity
  8
躯体
  6
Continuous
 62
     2
370
     9
100
AcDbLine
 10
370.7405585211677
 20
-110.5845386402025
 30
0.0
 11
370.7405585211677
 21
-125.5844396642735
 31
0.0
  0
LINE
  5
1A6
330
1F
100
AcDbEntity
  8
通り芯
  6
Continuous
 62
     3
370
     9
100
AcDbLine
 10
-117.7086206384607
 20
-344.7026961043073
 30
0.0
 11
-625.2106661409945
 21
-344.7026961043073
 31
0.0
  0
LINE
  5
1A7
330
1F
100
AcDbEntity
  8
通り芯
  6
Continuous
 62
     3
370
     9
100
AcDbLine
 10
-103.3068311536633
 20
-304.7026631123309
 30
0.0
 11
-639.6124556257918
 21
-304.7026631123309
 31
0.0
  0
LINE
  5
1A8
330
1F
100
AcDbEntity
  8
通り芯
  6
Continuous
 62
     3
370
     9
100
AcDbLine
 10
-330.7100656870249
 20
-351.7026697107262
 30
0.0
 11
-412.2092210924303
 21
-351.7026697107262
 31
0.0
  0
LINE
  5
1A9
330
1F
100
AcDbEntity
  8
通り芯
  6
Continuous
 62
     3
370
     9
100
AcDbLine
 10
-319.8802185058594
 20
-373.7893462309964
 30
0.0
 11
-318.1979246397276
 21
-354.4428183065877
 31
0.0
  0
LINE
  5
1AA
330
1F
100
AcDbEntity
  8
通り芯
  6
Continuous
 62
     3
370
     9
100
AcDbLine
 10
-326.0390946671769
 20
-373.7893462309964
 30
0.0
 11
-327.7213885333086
 21
-354.4428183065877
 31
0.0
  0
LINE
  5
1AB
330
1F
100
AcDbEntity
  8
通り芯
  6
Continuous
 62
     3
370
     9
100
AcDbLine
 10
-222.8802448994404
 20
-373.7893462309964
 30
0.0
 11
-221.1979510333086
 21
-354.4428183065877
 31
0.0
  0
LINE
  5
1AC
330
1F
100
AcDbEntity
  8
通り芯
  6
Continuous
 62
     3
370
     9
100
AcDbLine
 10
-229.039121060758
 20
-373.7893462309964
 30
0.0
 11
-230.7214149268897
 21
-354.4428183065877
 31
0.0
  0
LINE
  5
1AD
330
1F
100
AcDbEntity
  8
通り芯
  6
Continuous
 62
     3
370
     9
100
AcDbLine
 10
-315.2091979980469
 20
-351.7026697107262
 30
0.0
 11
-233.7101415685705
 21
-351.7026697107262
 31
0.0
  0
LINE
  5
1AE
330
1F
100
AcDbEntity
  8
通り芯
  6
Continuous
 62
     3
370
     9
100
AcDbLine
 10
-218.2091749036634
 20
-351.7026697107262
 30
0.0
 11
-112.210606755437
 21
-351.7026697107262
 31
0.0
  0
LINE
  5
1AF
330
1F
100
AcDbEntity
  8
通り芯
  6
Continuous
 62
     3
370
     9
100
AcDbLine
 10
-223.6752195616026
 20
-374.6822080869931
 30
0.0
 11
-111.405783988334
 21
-351.6210145692567
 31
0.0
  0
LINE
  5
1B0
330
1F
100
AcDbEntity
  8
通り芯
  6
Continuous
 62
     3
370
     9
100
AcDbLine
 10
-111.9596037993559
 20
-364.7026631123309
 30
0.0
 11
-112.7891705487225
 21
-351.9050754856418
 31
0.0
  0
LINE
  5
1B1
330
1F
100
AcDbEntity
  8
通り芯
  6
Continuous
 62
     3
370
     9
100
AcDbLine
 10
-519.0428491540856
 20
-374.7026961043073
 30
0.0
 11
-223.8764376253695
 21
-374.7026961043073
 31
0.0
  0
LINE
  5
1B2
330
1F
100
AcDbEntity
  8
通り芯
  6
Continuous
 62
     3
370
     9
100
AcDbLine
 10
-640.5988497347445
 20
-305.5383168813344
 30
0.0
 11
-641.4596433897276
 21
-310.7026829075168
 31
0.0
  0
LINE
  5
1B3
330
1F
100
AcDbEntity
  8
通り芯
  6
Continuous
 62
     3
370
     9
100
AcDbLine
 10
-628.1993432947107
 20
-341.9642300992397
 30
0.0
 11
-631.3798357989336
 21
-305.6155181059964
 31
0.0
  0
LINE
  5
1B4
330
1F
100
AcDbEntity
  8
通り芯
  6
Continuous
 62
     3
370
     9
100
AcDbLine
 10
-637.9597555624472
 20
-364.7026631123309
 30
0.0
 11
-641.4596433897276
 21
-310.7026829075168
 31
0.0
  0
LINE
  5
1B5
330
1F
100
AcDbEntity
  8
通り芯
  6
Continuous
 62
     3
370
     9
100
AcDbLine
 10
-630.9597324680637
 20
-364.7026631123309
 30
0.0
 11
-637.9597555624472
 21
-364.7026631123309
 31
0.0
  0
LINE
  5
1B6
330
1F
100
AcDbEntity
  8
通り芯
  6
Continuous
 62
     3
370
     9
100
AcDbLine
 10
-637.8016910037478
 20
-312.5283928948478
 30
0.0
 11
-634.6934509277344
 21
-348.0514476879222
 31
0.0
  0
LINE
  5
1B7
330
1F
100
AcDbEntity
  8
通り芯
  6
Continuous
 62
     3
370
     9
100
AcDbLine
 10
-639.7940764556059
 20
-310.7026829075168
 30
0.0
 11
-641.4596433897276
 21
-310.7026829075168
 31
0.0
  0
LINE
  5
1B8
330
1F
100
AcDbEntity
  8
通り芯
  6
Continuous
 62
     3
370
     9
100
AcDbLine
 10
-423.0390682735958
 20
-373.7893462309964
 30
0.0
 11
-424.7213621397276
 21
-354.4428183065877
 31
0.0
  0
LINE
  5
1B9
330
1F
100
AcDbEntity
  8
通り芯
  6
Continuous
 62
     3
370
     9
100
AcDbLine
 10
-416.8801921122783
 20
-373.7893462309964
 30
0.0
 11
-415.1978982461465
 21
-354.4428183065877
 31
0.0
  0
LINE
  5
1BA
330
1F
100
AcDbEntity
  8
通り芯
  6
Continuous
 62
     3
370
     9
100
AcDbLine
 10
-520.0390418800148
 20
-373.7893462309964
 30
0.0
 11
-521.7213357461465
 21
-354.4428183065877
 31
0.0
  0
LINE
  5
1BB
330
1F
100
AcDbEntity
  8
通り芯
  6
Continuous
 62
     3
370
     9
100
AcDbLine
 10
-513.8801657186972
 20
-373.7893462309964
 30
0.0
 11
-512.1978718525654
 21
-354.4428183065877
 31
0.0
  0
LINE
  5
1BC
330
1F
100
AcDbEntity
  8
通り芯
  6
Continuous
 62
     3
370
     9
100
AcDbLine
 10
-427.7100887814083
 20
-351.7026697107262
 30
0.0
 11
-509.2091452108847
 21
-351.7026697107262
 31
0.0
  0
LINE
  5
1BD
330
1F
100
AcDbEntity
  8
通り芯
  6
Continuous
 62
     3
370
     9
100
AcDbLine
 10
-524.7101118757918
 20
-351.7026697107262
 30
0.0
 11
-630.7086800240181
 21
-351.7026697107262
 31
0.0
  0
LINE
  5
1BE
330
1F
100
AcDbEntity
  8
通り芯
  6
Continuous
 62
     3
370
     9
100
AcDbLine
 10
-519.2440672178526
 20
-374.6822080869931
 30
0.0
 11
-631.5135027911211
 21
-351.6210145692567
 31
0.0
  0
LINE
  5
1BF
330
1F
100
AcDbEntity
  8
通り芯
  6
Continuous
 62
     3
370
     9
100
AcDbLine
 10
-630.9597324680637
 20
-364.7026631123309
 30
0.0
 11
-630.1301162307326
 21
-351.9050754856418
 31
0.0
  0
LINE
  5
1C0
330
1F
100
AcDbEntity
  8
0-E
  6
Continuous
 62
     7
370
     9
100
AcDbLine
 10
56.57205530115084
 20
522.8648714632604
 30
0.0
 11
251.2579057023332
 21
522.8648714632604
 31
0.0
  0
LINE
  5
1C1
330
1F
100
AcDbEntity
  8
0-F
  6
Continuous
 62
     7
370
     9
100
AcDbLine
 10
223.5403896022489
 20
-91.5844264674829
 30
0.0
 11
221.9740955249684
 21
-79.68707440350488
 31
0.0
  0
LINE
  5
1C2
330
1F
100
AcDbEntity
  8
0-F
  6
Continuous
 62
     7
370
     9
100
AcDbLine
 10
223.5403896022489
 20
-91.5844264674829
 30
0.0
 11
225.1066836795293
 21
-79.68707440350488
 31
0.0
  0
LINE
  5
1C3
330
1F
100
AcDbEntity
  8
0-F
  6
Continuous
 62
     7
370
     9
100
AcDbLine
 10
279.5403764054581
 20
437.4155867293076
 30
0.0
 11
223.5403896022489
 21
437.4155867293076
 31
0.0
  0
LINE
  5
1C4
330
1F
100
AcDbEntity
  8
0-F
  6
Continuous
 62
     7
370
     9
100
AcDbLine
 10
279.5403764054581
 20
430.9155405405407
 30
0.0
 11
223.5403896022489
 21
430.9155405405407
 31
0.0
  0
LINE
  5
1C5
330
1F
100
AcDbEntity
  8
0-F
  6
Continuous
 62
     7
370
     9
100
AcDbLine
 10
279.5403764054581
 20
419.9156527132603
 30
0.0
 11
223.5403896022489
 21
419.9156527132603
 31
0.0
  0
LINE
  5
1C6
330
1F
100
AcDbEntity
  8
0-F
  6
Continuous
 62
     7
370
     9
100
AcDbLine
 10
279.5403764054581
 20
413.4156065244935
 30
0.0
 11
223.5403896022489
 21
413.4156065244935
 31
0.0
  0
LINE
  5
1C7
330
1F
100
AcDbEntity
  8
通り芯
  6
Continuous
 62
     3
370
     9
100
AcDbLine
 10
-101.4596433897276
 20
448.4156725084462
 30
0.0
 11
-101.4596433897276
 21
-91.5844264674829
 31
0.0
  0
LINE
  5
1C8
330
1F
100
AcDbEntity
  8
通り芯
  6
Continuous
 62
     3
370
     9
100
AcDbLine
 10
-111.459676381704
 20
396.9156263196793
 30
0.0
 11
-111.459676381704
 21
-40.08438027871603
 31
0.0
  0
LINE
  5
1C9
330
1F
100
AcDbEntity
  8
通り芯
  6
Continuous
 62
     3
370
     9
100
AcDbLine
 10
-114.9596631849133
 20
396.9156263196793
 30
0.0
 11
-114.9596631849133
 21
-40.08438027871603
 31
0.0
  0
LINE
  5
1CA
330
1F
100
AcDbEntity
  8
通り芯
  6
Continuous
 62
     3
370
     9
100
AcDbLine
 10
-102.4596466889252
 20
412.4155537373313
 30
0.0
 11
-102.4596466889252
 21
-55.58445616026165
 31
0.0
  0
LINE
  5
1CB
330
1F
100
AcDbEntity
  8
躯体
  6
Continuous
 62
     2
370
     9
100
AcDbLine
 10
-99.65966714395051
 20
-93.38440271325999
 30
0.0
 11
-99.65966714395051
 21
450.215450802365
 31
0.0
  0
LINE
  5
1CC
330
1F
100
AcDbEntity
  8
躯体
  6
Continuous
 62
     2
370
     9
100
AcDbLine
 10
-96.45967638170396
 20
-96.58439347550666
 30
0.0
 11
-96.45967638170396
 21
453.4156395164698
 31
0.0
  0
LINE
  5
1CD
330
1F
100
AcDbEntity
  8
0-E
  6
Continuous
 62
     7
370
     9
100
AcDbLine
 10
461.8093995790223
 20
272.3726311760981
 30
0.0
 11
612.5252924738706
 21
272.3726311760981
 31
0.0
  0
LINE
  5
1CE
330
1F
100
AcDbEntity
  8
0-F
  6
Continuous
 62
     7
370
     9
100
AcDbLine
 10
335.7163424105256
 20
103.9030299831082
 30
0.0
 11
348.5154146761506
 21
103.9030299831082
 31
0.0
  0
LINE
  5
1CF
330
1F
100
AcDbEntity
  8
躯体
  6
JWW_DASHED3
 62
     2
370
     9
100
AcDbLine
 10
-596.4596433897276
 20
403.4156725084462
 30
0.0
 11
-596.4596433897276
 21
-46.58437697951842
 31
0.0
  0
LINE
  5
1D0
330
1F
100
AcDbEntity
  8
躯体
  6
JWW_DASHED3
 62
     2
370
     9
100
AcDbLine
 10
-146.4596928776921
 20
-46.58437697951842
 30
0.0
 11
-596.4596433897276
 21
-46.58437697951842
 31
0.0
  0
LINE
  5
1D1
330
1F
100
AcDbEntity
  8
躯体
  6
JWW_DASHED3
 62
     2
370
     9
100
AcDbLine
 10
-146.4596928776921
 20
403.4156725084462
 30
0.0
 11
-596.4596433897276
 21
403.4156725084462
 31
0.0
  0
LINE
  5
1D2
330
1F
100
AcDbEntity
  8
躯体
  6
JWW_DASHED3
 62
     2
370
     9
100
AcDbLine
 10
-146.4596928776921
 20
-46.58437697951842
 30
0.0
 11
-146.4596928776921
 21
403.4156725084462
 31
0.0
  0
LINE
  5
1D3
330
1F
100
AcDbEntity
  8
通り芯
  6
Continuous
 62
     3
370
     9
100
AcDbLine
 10
301.5406469396644
 20
410.6999049831084
 30
0.0
 11
301.5406469396644
 21
445.3897804054056
 31
0.0
  0
LINE
  5
1D4
330
1F
100
AcDbEntity
  8
通り芯
  6
Continuous
 62
     3
370
     9
100
AcDbLine
 10
326.8890752019111
 20
406.6493150865712
 30
0.0
 11
291.366317336624
 21
409.7575551625847
 31
0.0
  0
LINE
  5
1D5
330
1F
100
AcDbEntity
  8
通り芯
  6
Continuous
 62
     3
370
     9
100
AcDbLine
 10
301.5406469396644
 20
-53.86875791807415
 30
0.0
 11
301.5406469396644
 21
-88.55863334037144
 31
0.0
  0
LINE
  5
1D6
330
1F
100
AcDbEntity
  8
通り芯
  6
Continuous
 62
     3
370
     9
100
AcDbLine
 10
-172.9597060744826
 20
419.9156527132603
 30
0.0
 11
-172.9597060744826
 21
413.4153095967063
 31
0.0
  0
LINE
  5
1D7
330
1F
100
AcDbEntity
  8
通り芯
  6
Continuous
 62
     3
370
     9
100
AcDbLine
 10
-160.959666484111
 20
419.9156527132603
 30
0.0
 11
-160.959666484111
 21
413.4153095967063
 31
0.0
  0
LINE
  5
1D8
330
1F
100
AcDbEntity
  8
通り芯
  6
Continuous
 62
     3
370
     9
100
AcDbLine
 10
-172.9597060744826
 20
437.4153887774495
 30
0.0
 11
-172.9597060744826
 21
430.9154415646117
 31
0.0
  0
LINE
  5
1D9
330
1F
100
AcDbEntity
  8
通り芯
  6
Continuous
 62
     3
370
     9
100
AcDbLine
 10
-160.959666484111
 20
437.4153887774495
 30
0.0
 11
-160.959666484111
 21
430.9154415646117
 31
0.0
  0
LINE
  5
1DA
330
1F
100
AcDbEntity
  8
通り芯
  6
Continuous
 62
     3
370
     9
100
AcDbLine
 10
-569.9595807049726
 20
419.9156527132603
 30
0.0
 11
-569.9595807049726
 21
413.4153095967063
 31
0.0
  0
LINE
  5
1DB
330
1F
100
AcDbEntity
  8
通り芯
  6
Continuous
 62
     3
370
     9
100
AcDbLine
 10
-581.9596697833086
 20
419.9156527132603
 30
0.0
 11
-581.9596697833086
 21
413.4153095967063
 31
0.0
  0
LINE
  5
1DC
330
1F
100
AcDbEntity
  8
通り芯
  6
Continuous
 62
     3
370
     9
100
AcDbLine
 10
-569.9595807049726
 20
437.4153887774495
 30
0.0
 11
-569.9595807049726
 21
430.9154415646117
 31
0.0
  0
LINE
  5
1DD
330
1F
100
AcDbEntity
  8
通り芯
  6
Continuous
 62
     3
370
     9
100
AcDbLine
 10
-581.9596697833086
 20
437.4153887774495
 30
0.0
 11
-581.9596697833086
 21
430.9154415646117
 31
0.0
  0
LINE
  5
1DE
330
1F
100
AcDbEntity
  8
通り芯
  6
Continuous
 62
     3
370
     9
100
AcDbLine
 10
-172.9597060744826
 20
-63.08450564822624
 30
0.0
 11
-172.9597060744826
 21
-56.58421201963665
 31
0.0
  0
LINE
  5
1DF
330
1F
100
AcDbEntity
  8
通り芯
  6
Continuous
 62
     3
370
     9
100
AcDbLine
 10
-160.959666484111
 20
-63.08450564822624
 30
0.0
 11
-160.959666484111
 21
-56.58421201963665
 31
0.0
  0
LINE
  5
1E0
330
1F
100
AcDbEntity
  8
通り芯
  6
Continuous
 62
     3
370
     9
100
AcDbLine
 10
-172.9597060744826
 20
-80.5842417124154
 30
0.0
 11
-172.9597060744826
 21
-74.08429449957748
 31
0.0
  0
LINE
  5
1E1
330
1F
100
AcDbEntity
  8
通り芯
  6
Continuous
 62
     3
370
     9
100
AcDbLine
 10
-160.959666484111
 20
-80.5842417124154
 30
0.0
 11
-160.959666484111
 21
-74.08429449957748
 31
0.0
  0
LINE
  5
1E2
330
1F
100
AcDbEntity
  8
通り芯
  6
Continuous
 62
     3
370
     9
100
AcDbLine
 10
-569.9595807049726
 20
-63.08450564822624
 30
0.0
 11
-569.9595807049726
 21
-56.58421201963665
 31
0.0
  0
LINE
  5
1E3
330
1F
100
AcDbEntity
  8
通り芯
  6
Continuous
 62
     3
370
     9
100
AcDbLine
 10
-581.9596697833086
 20
-63.08450564822624
 30
0.0
 11
-581.9596697833086
 21
-56.58421201963665
 31
0.0
  0
LINE
  5
1E4
330
1F
100
AcDbEntity
  8
通り芯
  6
Continuous
 62
     3
370
     9
100
AcDbLine
 10
-569.9595807049726
 20
-80.5842417124154
 30
0.0
 11
-569.9595807049726
 21
-74.08429449957748
 31
0.0
  0
LINE
  5
1E5
330
1F
100
AcDbEntity
  8
通り芯
  6
Continuous
 62
     3
370
     9
100
AcDbLine
 10
-581.9596697833086
 20
-80.5842417124154
 30
0.0
 11
-581.9596697833086
 21
-74.08429449957748
 31
0.0
  0
LINE
  5
1E6
330
1F
100
AcDbEntity
  8
通り芯
  6
Continuous
 62
     3
370
     9
100
AcDbLine
 10
-171.0395235628695
 20
-355.7026829075168
 30
0.0
 11
-162.8798489957242
 21
-355.7026829075168
 31
0.0
  0
LINE
  5
1E7
330
1F
100
AcDbEntity
  8
通り芯
  6
Continuous
 62
     3
370
     9
100
AcDbLine
 10
-161.8833098540434
 20
-354.78576990076
 30
0.0
 11
-161.6264178301836
 21
-351.7026697107262
 31
0.0
  0
LINE
  5
1E8
330
1F
100
AcDbEntity
  8
通り芯
  6
Continuous
 62
     3
370
     9
100
AcDbLine
 10
-172.0361616804793
 20
-354.78576990076
 30
0.0
 11
-172.2931031923035
 21
-351.7026697107262
 31
0.0
  0
LINE
  5
1E9
330
1F
100
AcDbEntity
  8
通り芯
  6
Continuous
 62
     3
370
     9
100
AcDbLine
 10
-571.8797632165857
 20
-355.7026829075168
 30
0.0
 11
-580.0394377837309
 21
-355.7026829075168
 31
0.0
  0
LINE
  5
1EA
330
1F
100
AcDbEntity
  8
通り芯
  6
Continuous
 62
     3
370
     9
100
AcDbLine
 10
-581.0360264133762
 20
-354.78576990076
 30
0.0
 11
-581.292918437236
 21
-351.7026697107262
 31
0.0
  0
LINE
  5
1EB
330
1F
100
AcDbEntity
  8
通り芯
  6
Continuous
 62
     3
370
     9
100
AcDbLine
 10
-570.8831250989759
 20
-354.78576990076
 30
0.0
 11
-570.6262330751161
 21
-351.7026697107262
 31
0.0
  0
LINE
  5
1EC
330
1F
100
AcDbEntity
  8
躯体
  6
Continuous
 62
     2
370
     9
100
AcDbLine
 10
283.540389602249
 20
453.4156395164698
 30
0.0
 11
356.7406113083298
 21
453.4156395164698
 31
0.0
  0
LINE
  5
1ED
330
1F
100
AcDbEntity
  8
躯体
  6
Continuous
 62
     2
370
     9
100
AcDbLine
 10
283.540389602249
 20
-96.58449245143561
 30
0.0
 11
356.7406113083298
 21
-96.58449245143561
 31
0.0
  0
LINE
  5
1EE
330
1F
100
AcDbEntity
  8
0-F
  6
Continuous
 62
     7
370
     9
100
AcDbLine
 10
346.7403803644956
 20
-196.5844264674829
 30
0.0
 11
334.8430777884819
 21
-195.0181323902025
 31
0.0
  0
LINE
  5
1EF
330
1F
100
AcDbEntity
  8
0-F
  6
Continuous
 62
     7
370
     9
100
AcDbLine
 10
346.7403803644956
 20
-196.5844264674829
 30
0.0
 11
334.8430777884819
 21
-198.1507205447633
 31
0.0
  0
LINE
  5
1F0
330
1F
100
AcDbEntity
  8
0-F
  6
Continuous
 62
     7
370
     9
100
AcDbLine
 10
283.540389602249
 20
-196.5844264674829
 30
0.0
 11
392.9499651934652
 21
-196.5844264674829
 31
0.0
  0
ARC
  5
1F1
330
1F
100
AcDbEntity
  8
躯体
  6
Continuous
 62
     2
370
     9
100
AcDbCircle
 10
-640.2597582018053
 20
-361.7027027027025
 30
0.0
 40
3.000000038662472
100
AcDbArc
 50
180.0
 51
270.0
  0
ARC
  5
1F2
330
1F
100
AcDbEntity
  8
躯体
  6
Continuous
 62
     2
370
     9
100
AcDbCircle
 10
-640.4596895784945
 20
-361.9026340793918
 30
0.0
 40
6.000000077324945
100
AcDbArc
 50
180.0
 51
270.0
  0
ARC
  5
1F3
330
1F
100
AcDbEntity
  8
躯体
  6
Continuous
 62
     2
370
     9
100
AcDbCircle
 10
-102.4597951528187
 20
-361.9026340793918
 30
0.0
 40
6.000000077324945
100
AcDbArc
 50
271.0856170654297
 51
0.0
  0
ARC
  5
1F4
330
1F
100
AcDbEntity
  8
躯体
  6
Continuous
 62
     2
370
     9
100
AcDbCircle
 10
-102.659825505437
 20
-361.7027027027025
 30
0.0
 40
3.000000038662472
100
AcDbArc
 50
272.1712493896484
 51
0.0
  0
ARC
  5
1F5
330
1F
100
AcDbEntity
  8
通り芯
  6
Continuous
 62
     3
370
     9
100
AcDbCircle
 10
-624.9596631849134
 20
-40.08438027871603
 30
0.0
 40
2.999999845350111
100
AcDbArc
 50
180.0
 51
270.0
  0
ARC
  5
1F6
330
1F
100
AcDbEntity
  8
通り芯
  6
Continuous
 62
     3
370
     9
100
AcDbCircle
 10
-624.9596631849134
 20
-40.08438027871603
 30
0.0
 40
6.499999793800148
100
AcDbArc
 50
180.0
 51
270.0
  0
ARC
  5
1F7
330
1F
100
AcDbEntity
  8
通り芯
  6
Continuous
 62
     3
370
     9
100
AcDbCircle
 10
320.5404621845969
 20
397.1666292757603
 30
0.0
 40
2.999999845350111
100
AcDbArc
 50
1.403289794921875
 51
84.99934387207031
  0
ARC
  5
1F8
330
1F
100
AcDbEntity
  8
通り芯
  6
Continuous
 62
     3
370
     9
100
AcDbCircle
 10
-624.9596631849134
 20
396.9156263196793
 30
0.0
 40
6.499999793800148
100
AcDbArc
 50
90.0
 51
178.5967102050781
  0
ARC
  5
1F9
330
1F
100
AcDbEntity
  8
通り芯
  6
Continuous
 62
     3
370
     9
100
AcDbCircle
 10
-624.9596631849134
 20
396.9156263196793
 30
0.0
 40
2.999999845350111
100
AcDbArc
 50
90.0
 51
180.0
  0
ARC
  5
1FA
330
1F
100
AcDbEntity
  8
通り芯
  6
Continuous
 62
     3
370
     9
100
AcDbCircle
 10
-117.9596235945418
 20
396.9156263196793
 30
0.0
 40
2.999999845350111
100
AcDbArc
 50
0.0
 51
90.0
  0
ARC
  5
1FB
330
1F
100
AcDbEntity
  8
通り芯
  6
Continuous
 62
     3
370
     9
100
AcDbCircle
 10
-117.9596235945418
 20
396.9156263196793
 30
0.0
 40
6.499999793800148
100
AcDbArc
 50
0.0
 51
90.0
  0
ARC
  5
1FC
330
1F
100
AcDbEntity
  8
通り芯
  6
Continuous
 62
     3
370
     9
100
AcDbCircle
 10
-117.9596235945418
 20
-40.08438027871603
 30
0.0
 40
6.499999793800148
100
AcDbArc
 50
270.0
 51
0.0
  0
ARC
  5
1FD
330
1F
100
AcDbEntity
  8
通り芯
  6
Continuous
 62
     3
370
     9
100
AcDbCircle
 10
-117.9596235945418
 20
-40.08438027871603
 30
0.0
 40
2.999999845350111
100
AcDbArc
 50
270.0
 51
0.0
  0
ARC
  5
1FE
330
1F
100
AcDbEntity
  8
通り芯
  6
Continuous
 62
     3
370
     9
100
AcDbCircle
 10
290.5406601364548
 20
447.798260663007
 30
0.0
 40
0.9999999162313101
100
AcDbArc
 50
180.0
 51
262.8749694824219
  0
ARC
  5
1FF
330
1F
100
AcDbEntity
  8
通り芯
  6
Continuous
 62
     3
370
     9
100
AcDbCircle
 10
290.5406601364548
 20
438.0328006228887
 30
0.0
 40
0.9999999162313101
100
AcDbArc
 50
97.12501525878906
 51
180.0
  0
ARC
  5
200
330
1F
100
AcDbEntity
  8
通り芯
  6
Continuous
 62
     3
370
     9
100
AcDbCircle
 10
290.5406601364548
 20
430.2983266469597
 30
0.0
 40
0.9999999162313101
100
AcDbArc
 50
180.0
 51
262.8749694824219
  0
ARC
  5
201
330
1F
100
AcDbEntity
  8
通り芯
  6
Continuous
 62
     3
370
     9
100
AcDbCircle
 10
290.5406601364548
 20
420.5328666068414
 30
0.0
 40
0.9999999162313101
100
AcDbArc
 50
97.12501525878906
 51
180.0
  0
ARC
  5
202
330
1F
100
AcDbEntity
  8
通り芯
  6
Continuous
 62
     3
370
     9
100
AcDbCircle
 10
284.5405413653402
 20
411.5685177364867
 30
0.0
 40
0.9999999162313101
100
AcDbArc
 50
99.46231079101562
 51
180.0
  0
ARC
  5
203
330
1F
100
AcDbEntity
  8
通り芯
  6
Continuous
 62
     3
370
     9
100
AcDbCircle
 10
284.5405413653402
 20
429.068451752534
 30
0.0
 40
0.9999999162313101
100
AcDbArc
 50
99.46231079101562
 51
180.0
  0
ARC
  5
204
330
1F
100
AcDbEntity
  8
通り芯
  6
Continuous
 62
     3
370
     9
100
AcDbCircle
 10
284.5405413653402
 20
421.762642525338
 30
0.0
 40
0.9999999162313101
100
AcDbArc
 50
179.9999847412109
 51
260.5376739501953
  0
ARC
  5
205
330
1F
100
AcDbEntity
  8
通り芯
  6
Continuous
 62
     3
370
     9
100
AcDbCircle
 10
296.5405809557114
 20
423.2982540646117
 30
0.0
 40
0.9999999162313101
100
AcDbArc
 50
277.1250152587891
 51
0.0000000000000254
  0
ARC
  5
206
330
1F
100
AcDbEntity
  8
通り芯
  6
Continuous
 62
     3
370
     9
100
AcDbCircle
 10
296.5405809557114
 20
427.5328402132603
 30
0.0
 40
0.9999999162313101
100
AcDbArc
 50
1.403289794921875
 51
82.87496948242188
  0
ARC
  5
207
330
1F
100
AcDbEntity
  8
通り芯
  6
Continuous
 62
     3
370
     9
100
AcDbCircle
 10
296.5405809557114
 20
445.0327742293076
 30
0.0
 40
0.9999999162313101
100
AcDbArc
 50
1.403289794921875
 51
82.87496948242188
  0
ARC
  5
208
330
1F
100
AcDbEntity
  8
通り芯
  6
Continuous
 62
     3
370
     9
100
AcDbCircle
 10
296.5405809557114
 20
440.798287056588
 30
0.0
 40
0.9999999162313101
100
AcDbArc
 50
277.1250152587891
 51
0.0000000000000254
  0
ARC
  5
209
330
1F
100
AcDbEntity
  8
通り芯
  6
Continuous
 62
     3
370
     9
100
AcDbCircle
 10
284.5405413653402
 20
439.2626755173144
 30
0.0
 40
0.9999999162313101
100
AcDbArc
 50
179.9999847412109
 51
260.5376739501953
  0
ARC
  5
20A
330
1F
100
AcDbEntity
  8
通り芯
  6
Continuous
 62
     3
370
     9
100
AcDbCircle
 10
284.5405413653402
 20
446.5684847445103
 30
0.0
 40
0.9999999162313101
100
AcDbArc
 50
99.46231079101562
 51
180.0
  0
CIRCLE
  5
20B
330
1F
100
AcDbEntity
  8
躯体
  6
Continuous
 62
     2
370
     9
100
AcDbCircle
 10
-196.4596103977512
 20
457.9155801309123
 30
0.0
 40
4.499999768025167
  0
ARC
  5
20C
330
1F
100
AcDbEntity
  8
躯体
  6
JWW_CENTER1
 62
     2
370
     9
100
AcDbCircle
 10
356.7406113083298
 20
467.4156857052367
 30
0.0
 40
9.500000412399705
100
AcDbArc
 50
270.0
 51
0.0
  0
ARC
  5
20D
330
1F
100
AcDbEntity
  8
躯体
  6
Continuous
 62
     2
370
     9
100
AcDbCircle
 10
356.7406113083298
 20
467.4156857052367
 30
0.0
 40
4.999999484500369
100
AcDbArc
 50
270.0
 51
0.0
  0
ARC
  5
20E
330
1F
100
AcDbEntity
  8
躯体
  6
Continuous
 62
     2
370
     9
100
AcDbCircle
 10
340.5405281685494
 20
447.2154903927367
 30
0.0
 40
2.999999845350111
100
AcDbArc
 50
0.0
 51
90.0
  0
ARC
  5
20F
330
1F
100
AcDbEntity
  8
躯体
  6
Continuous
 62
     2
370
     9
100
AcDbCircle
 10
340.5405281685494
 20
447.2154903927367
 30
0.0
 40
6.199999499965359
100
AcDbArc
 50
0.0
 51
90.0
  0
CIRCLE
  5
210
330
1F
100
AcDbEntity
  8
躯体
  6
Continuous
 62
     2
370
     9
100
AcDbCircle
 10
-546.4596268937395
 20
457.9155801309123
 30
0.0
 40
4.499999768025167
  0
CIRCLE
  5
211
330
1F
100
AcDbEntity
  8
躯体
  6
Continuous
 62
     2
370
     9
100
AcDbCircle
 10
-196.4596103977512
 20
-101.0844330658782
 30
0.0
 40
4.499999768025167
  0
CIRCLE
  5
212
330
1F
100
AcDbEntity
  8
躯体
  6
Continuous
 62
     2
370
     9
100
AcDbCircle
 10
-546.4596268937395
 20
-101.0844330658782
 30
0.0
 40
4.499999768025167
  0
ARC
  5
213
330
1F
100
AcDbEntity
  8
通り芯
  6
Continuous
 62
     3
370
     9
100
AcDbCircle
 10
291.5406139476881
 20
411.7499406144427
 30
0.0
 40
2.000000025774982
100
AcDbArc
 50
180.0
 51
265.0004119873047
  0
ARC
  5
214
330
1F
100
AcDbEntity
  8
通り芯
  6
Continuous
 62
     3
370
     9
100
AcDbCircle
 10
326.5403830038535
 20
402.664643158784
 30
0.0
 40
4.000000051549963
100
AcDbArc
 50
0.0
 51
84.99888610839845
  0
ARC
  5
215
330
1F
100
AcDbEntity
  8
通り芯
  6
Continuous
 62
     3
370
     9
100
AcDbCircle
 10
333.5403566102723
 20
340.6650324641049
 30
0.0
 40
3.000000038662472
100
AcDbArc
 50
94.96826171875
 51
180.0
  0
ARC
  5
216
330
1F
100
AcDbEntity
  8
通り芯
  6
Continuous
 62
     3
370
     9
100
AcDbCircle
 10
333.5403566102723
 20
356.1660486169766
 30
0.0
 40
3.000000038662472
100
AcDbArc
 50
180.0
 51
265.03173828125
  0
ARC
  5
217
330
1F
100
AcDbEntity
  8
通り芯
  6
Continuous
 62
     3
370
     9
100
AcDbCircle
 10
333.5403566102723
 20
186.1660816089529
 30
0.0
 40
3.000000038662472
100
AcDbArc
 50
180.0
 51
265.03173828125
  0
ARC
  5
218
330
1F
100
AcDbEntity
  8
通り芯
  6
Continuous
 62
     3
370
     9
100
AcDbCircle
 10
344.765612628009
 20
399.5674883868245
 30
0.0
 40
5.000000257749815
100
AcDbArc
 50
104.9998779296875
 51
196.1906127929688
  0
ARC
  5
219
330
1F
100
AcDbEntity
  8
通り芯
  6
Continuous
 62
     3
370
     9
100
AcDbCircle
 10
320.5404621845969
 20
-40.33548221072613
 30
0.0
 40
2.999999845350111
100
AcDbArc
 50
275.0006561279297
 51
358.5967102050781
  0
ARC
  5
21A
330
1F
100
AcDbEntity
  8
通り芯
  6
Continuous
 62
     3
370
     9
100
AcDbCircle
 10
290.5406601364548
 20
-90.9671135979728
 30
0.0
 40
0.9999999162313101
100
AcDbArc
 50
97.12503051757812
 51
180.0
  0
ARC
  5
21B
330
1F
100
AcDbEntity
  8
通り芯
  6
Continuous
 62
     3
370
     9
100
AcDbCircle
 10
290.5406601364548
 20
-81.20170304581916
 30
0.0
 40
0.9999999162313101
100
AcDbArc
 50
180.0
 51
262.8749847412109
  0
ARC
  5
21C
330
1F
100
AcDbEntity
  8
通り芯
  6
Continuous
 62
     3
370
     9
100
AcDbCircle
 10
290.5406601364548
 20
-73.4671795819255
 30
0.0
 40
0.9999999162313101
100
AcDbArc
 50
97.12503051757812
 51
180.0
  0
ARC
  5
21D
330
1F
100
AcDbEntity
  8
通り芯
  6
Continuous
 62
     3
370
     9
100
AcDbCircle
 10
290.5406601364548
 20
-63.70171954180728
 30
0.0
 40
0.9999999162313101
100
AcDbArc
 50
180.0
 51
262.8749847412109
  0
ARC
  5
21E
330
1F
100
AcDbEntity
  8
通り芯
  6
Continuous
 62
     3
370
     9
100
AcDbCircle
 10
284.5405413653402
 20
-54.73737067145248
 30
0.0
 40
0.9999999162313101
100
AcDbArc
 50
180.0
 51
260.5376892089844
  0
ARC
  5
21F
330
1F
100
AcDbEntity
  8
通り芯
  6
Continuous
 62
     3
370
     9
100
AcDbCircle
 10
284.5405413653402
 20
-72.23730468749977
 30
0.0
 40
0.9999999162313101
100
AcDbArc
 50
180.0
 51
260.5376892089844
  0
ARC
  5
220
330
1F
100
AcDbEntity
  8
通り芯
  6
Continuous
 62
     3
370
     9
100
AcDbCircle
 10
284.5405413653402
 20
-64.93149546030395
 30
0.0
 40
0.9999999162313101
100
AcDbArc
 50
99.4623260498047
 51
180.0000152587891
  0
ARC
  5
221
330
1F
100
AcDbEntity
  8
通り芯
  6
Continuous
 62
     3
370
     9
100
AcDbCircle
 10
296.5405809557114
 20
-66.46710699957748
 30
0.0
 40
0.9999999162313101
100
AcDbArc
 50
0.0
 51
82.87498474121094
  0
ARC
  5
222
330
1F
100
AcDbEntity
  8
通り芯
  6
Continuous
 62
     3
370
     9
100
AcDbCircle
 10
296.5405809557114
 20
-70.70169314822624
 30
0.0
 40
0.9999999162313101
100
AcDbArc
 50
277.1250305175781
 51
358.5967102050781
  0
ARC
  5
223
330
1F
100
AcDbEntity
  8
通り芯
  6
Continuous
 62
     3
370
     9
100
AcDbCircle
 10
296.5405809557114
 20
-88.20162716427353
 30
0.0
 40
0.9999999162313101
100
AcDbArc
 50
277.1250305175781
 51
358.5967102050781
  0
ARC
  5
224
330
1F
100
AcDbEntity
  8
通り芯
  6
Continuous
 62
     3
370
     9
100
AcDbCircle
 10
296.5405809557114
 20
-83.96713999155395
 30
0.0
 40
0.9999999162313101
100
AcDbArc
 50
0.0
 51
82.87498474121094
  0
ARC
  5
225
330
1F
100
AcDbEntity
  8
通り芯
  6
Continuous
 62
     3
370
     9
100
AcDbCircle
 10
284.5405413653402
 20
-82.43152845228019
 30
0.0
 40
0.9999999162313101
100
AcDbArc
 50
99.4623260498047
 51
180.0000152587891
  0
ARC
  5
226
330
1F
100
AcDbEntity
  8
通り芯
  6
Continuous
 62
     3
370
     9
100
AcDbCircle
 10
284.5405413653402
 20
-89.73733767947624
 30
0.0
 40
0.9999999162313101
100
AcDbArc
 50
180.0
 51
260.5376892089844
  0
ARC
  5
227
330
1F
100
AcDbEntity
  8
通り芯
  6
Continuous
 62
     3
370
     9
100
AcDbCircle
 10
291.5406139476881
 20
-54.91879354940863
 30
0.0
 40
2.000000025774982
100
AcDbArc
 50
94.9995880126953
 51
180.0
  0
ARC
  5
228
330
1F
100
AcDbEntity
  8
通り芯
  6
Continuous
 62
     3
370
     9
100
AcDbCircle
 10
326.5403830038535
 20
-45.83349609374989
 30
0.0
 40
4.000000051549963
100
AcDbArc
 50
275.0011138916016
 51
0.0000000000000254
  0
ARC
  5
229
330
1F
100
AcDbEntity
  8
通り芯
  6
Continuous
 62
     3
370
     9
100
AcDbCircle
 10
333.5403566102723
 20
16.16611460092918
 30
0.0
 40
3.000000038662472
100
AcDbArc
 50
180.0
 51
265.03173828125
  0
ARC
  5
22A
330
1F
100
AcDbEntity
  8
通り芯
  6
Continuous
 62
     3
370
     9
100
AcDbCircle
 10
333.5403566102723
 20
0.6650984480576199
 30
0.0
 40
3.000000038662472
100
AcDbArc
 50
94.96826171875
 51
180.0
  0
ARC
  5
22B
330
1F
100
AcDbEntity
  8
通り芯
  6
Continuous
 62
     3
370
     9
100
AcDbCircle
 10
333.5403566102723
 20
170.6650654560813
 30
0.0
 40
3.000000038662472
100
AcDbArc
 50
94.96826171875
 51
180.0
  0
ARC
  5
22C
330
1F
100
AcDbEntity
  8
通り芯
  6
Continuous
 62
     3
370
     9
100
AcDbCircle
 10
344.765612628009
 20
-42.73634132179041
 30
0.0
 40
5.000000257749815
100
AcDbArc
 50
163.8093872070312
 51
255.0001220703125
  0
ARC
  5
22D
330
1F
100
AcDbEntity
  8
躯体
  6
Continuous
 62
     2
370
     9
100
AcDbCircle
 10
340.5405281685494
 20
-90.38434332770248
 30
0.0
 40
2.999999845350111
100
AcDbArc
 50
270.0
 51
0.0
  0
ARC
  5
22E
330
1F
100
AcDbEntity
  8
躯体
  6
Continuous
 62
     2
370
     9
100
AcDbCircle
 10
340.5405281685494
 20
-90.38434332770248
 30
0.0
 40
6.199999499965359
100
AcDbArc
 50
270.0
 51
0.0
  0
ARC
  5
22F
330
1F
100
AcDbEntity
  8
通り芯
  6
Continuous
 62
     3
370
     9
100
AcDbCircle
 10
-110.5433572305215
 20
-305.7027158994931
 30
0.0
 40
1.000000012887491
100
AcDbArc
 50
90.0
 51
174.9990081787109
  0
ARC
  5
230
330
1F
100
AcDbEntity
  8
通り芯
  6
Continuous
 62
     3
370
     9
100
AcDbCircle
 10
-103.3068311536633
 20
-305.7027158994931
 30
0.0
 40
1.000000012887491
100
AcDbArc
 50
9.462326049804688
 51
89.99999999999999
  0
ARC
  5
231
330
1F
100
AcDbEntity
  8
通り芯
  6
Continuous
 62
     3
370
     9
100
AcDbCircle
 10
-117.7086206384607
 20
-341.7026367187499
 30
0.0
 40
3.000000038662472
100
AcDbArc
 50
270.0
 51
354.9990081787109
  0
ARC
  5
232
330
1F
100
AcDbEntity
  8
通り芯
  6
Continuous
 62
     3
370
     9
100
AcDbCircle
 10
-112.210606755437
 20
-347.7027554898647
 30
0.0
 40
4.000000051549963
100
AcDbArc
 50
270.0
 51
354.9993591308594
  0
ARC
  5
233
330
1F
100
AcDbEntity
  8
通り芯
  6
Continuous
 62
     3
370
     9
100
AcDbCircle
 10
-103.1252103238492
 20
-312.7026895059121
 30
0.0
 40
2.000000025774982
100
AcDbArc
 50
90.0
 51
174.9990081787109
  0
ARC
  5
234
330
1F
100
AcDbEntity
  8
躯体
  6
JWW_CENTER1
 62
     2
370
     9
100
AcDbCircle
 10
356.7406113083298
 20
-110.5845386402025
 30
0.0
 40
9.500000412399705
100
AcDbArc
 50
0.0
 51
90.0
  0
ARC
  5
235
330
1F
100
AcDbEntity
  8
躯体
  6
Continuous
 62
     2
370
     9
100
AcDbCircle
 10
356.7406113083298
 20
-110.5845386402025
 30
0.0
 40
4.999999484500369
100
AcDbArc
 50
0.0
 51
90.0
  0
ARC
  5
236
330
1F
100
AcDbEntity
  8
通り芯
  6
Continuous
 62
     3
370
     9
100
AcDbCircle
 10
-330.7100656870249
 20
-354.7027290962836
 30
0.0
 40
3.000000038662472
100
AcDbArc
 50
4.969680786132812
 51
90.0
  0
ARC
  5
237
330
1F
100
AcDbEntity
  8
通り芯
  6
Continuous
 62
     3
370
     9
100
AcDbCircle
 10
-315.2091979980469
 20
-354.7027290962836
 30
0.0
 40
3.000000038662472
100
AcDbArc
 50
90.0
 51
175.0303192138672
  0
ARC
  5
238
330
1F
100
AcDbEntity
  8
通り芯
  6
Continuous
 62
     3
370
     9
100
AcDbCircle
 10
-320.8764607197529
 20
-373.7027422930742
 30
0.0
 40
1.000000012887491
100
AcDbArc
 50
270.0
 51
355.0303192138672
  0
ARC
  5
239
330
1F
100
AcDbEntity
  8
通り芯
  6
Continuous
 62
     3
370
     9
100
AcDbCircle
 10
-325.0429019412478
 20
-373.7027422930742
 30
0.0
 40
1.000000012887491
100
AcDbArc
 50
184.9696807861328
 51
270.0
  0
ARC
  5
23A
330
1F
100
AcDbEntity
  8
通り芯
  6
Continuous
 62
     3
370
     9
100
AcDbCircle
 10
-233.7100920806059
 20
-354.7027290962836
 30
0.0
 40
3.000000038662472
100
AcDbArc
 50
4.969680786132812
 51
90.0
  0
ARC
  5
23B
330
1F
100
AcDbEntity
  8
通り芯
  6
Continuous
 62
     3
370
     9
100
AcDbCircle
 10
-218.2091749036634
 20
-354.7027290962836
 30
0.0
 40
3.000000038662472
100
AcDbArc
 50
90.0
 51
175.0303192138672
  0
ARC
  5
23C
330
1F
100
AcDbEntity
  8
通り芯
  6
Continuous
 62
     3
370
     9
100
AcDbCircle
 10
-223.8764376253695
 20
-373.7027422930742
 30
0.0
 40
1.000000012887491
100
AcDbArc
 50
270.0
 51
355.0303192138672
  0
ARC
  5
23D
330
1F
100
AcDbEntity
  8
通り芯
  6
Continuous
 62
     3
370
     9
100
AcDbCircle
 10
-228.0428293588999
 20
-373.7027422930742
 30
0.0
 40
1.000000012887491
100
AcDbArc
 50
184.9696807861328
 51
270.0
  0
ARC
  5
23E
330
1F
100
AcDbEntity
  8
通り芯
  6
Continuous
 62
     3
370
     9
100
AcDbCircle
 10
-632.3759295489336
 20
-305.7027158994931
 30
0.0
 40
1.000000012887491
100
AcDbArc
 50
5.000991821289062
 51
90.0
  0
ARC
  5
23F
330
1F
100
AcDbEntity
  8
通り芯
  6
Continuous
 62
     3
370
     9
100
AcDbCircle
 10
-639.6124556257918
 20
-305.7027158994931
 30
0.0
 40
1.000000012887491
100
AcDbArc
 50
90.0
 51
170.5376739501953
  0
ARC
  5
240
330
1F
100
AcDbEntity
  8
通り芯
  6
Continuous
 62
     3
370
     9
100
AcDbCircle
 10
-625.2106661409945
 20
-341.7026367187499
 30
0.0
 40
3.000000038662472
100
AcDbArc
 50
185.0009918212891
 51
270.0
  0
ARC
  5
241
330
1F
100
AcDbEntity
  8
通り芯
  6
Continuous
 62
     3
370
     9
100
AcDbCircle
 10
-630.7086800240181
 20
-347.7027554898647
 30
0.0
 40
4.000000051549963
100
AcDbArc
 50
185.0006408691406
 51
270.0
  0
ARC
  5
242
330
1F
100
AcDbEntity
  8
通り芯
  6
Continuous
 62
     3
370
     9
100
AcDbCircle
 10
-639.7940764556059
 20
-312.7026895059121
 30
0.0
 40
2.000000025774982
100
AcDbArc
 50
5.000991821289062
 51
90.0
  0
ARC
  5
243
330
1F
100
AcDbEntity
  8
通り芯
  6
Continuous
 62
     3
370
     9
100
AcDbCircle
 10
-412.2092210924303
 20
-354.7027290962836
 30
0.0
 40
3.000000038662472
100
AcDbArc
 50
90.0
 51
175.0303192138672
  0
ARC
  5
244
330
1F
100
AcDbEntity
  8
通り芯
  6
Continuous
 62
     3
370
     9
100
AcDbCircle
 10
-427.7100887814083
 20
-354.7027290962836
 30
0.0
 40
3.000000038662472
100
AcDbArc
 50
4.969680786132812
 51
90.0
  0
ARC
  5
245
330
1F
100
AcDbEntity
  8
通り芯
  6
Continuous
 62
     3
370
     9
100
AcDbCircle
 10
-422.0428260597022
 20
-373.7027422930742
 30
0.0
 40
1.000000012887491
100
AcDbArc
 50
184.9696807861328
 51
270.0
  0
ARC
  5
246
330
1F
100
AcDbEntity
  8
通り芯
  6
Continuous
 62
     3
370
     9
100
AcDbCircle
 10
-417.8764343261718
 20
-373.7027422930742
 30
0.0
 40
1.000000012887491
100
AcDbArc
 50
270.0
 51
355.0303192138672
  0
ARC
  5
247
330
1F
100
AcDbEntity
  8
通り芯
  6
Continuous
 62
     3
370
     9
100
AcDbCircle
 10
-509.2091946988492
 20
-354.7027290962836
 30
0.0
 40
3.000000038662472
100
AcDbArc
 50
90.0
 51
175.0303192138672
  0
ARC
  5
248
330
1F
100
AcDbEntity
  8
通り芯
  6
Continuous
 62
     3
370
     9
100
AcDbCircle
 10
-524.7101118757918
 20
-354.7027290962836
 30
0.0
 40
3.000000038662472
100
AcDbArc
 50
4.969680786132812
 51
90.0
  0
ARC
  5
249
330
1F
100
AcDbEntity
  8
通り芯
  6
Continuous
 62
     3
370
     9
100
AcDbCircle
 10
-519.0428491540856
 20
-373.7027422930742
 30
0.0
 40
1.000000012887491
100
AcDbArc
 50
184.9696807861328
 51
270.0
  0
ARC
  5
24A
330
1F
100
AcDbEntity
  8
通り芯
  6
Continuous
 62
     3
370
     9
100
AcDbCircle
 10
-514.8764574205553
 20
-373.7027422930742
 30
0.0
 40
1.000000012887491
100
AcDbArc
 50
270.0
 51
355.0303192138672
  0
ARC
  5
24B
330
1F
100
AcDbEntity
  8
通り芯
  6
Continuous
 62
     3
370
     9
100
AcDbCircle
 10
303.5406535380598
 20
410.6999049831084
 30
0.0
 40
2.000000025774982
100
AcDbArc
 50
180.0
 51
265.0004119873047
  0
ARC
  5
24C
330
1F
100
AcDbEntity
  8
通り芯
  6
Continuous
 62
     3
370
     9
100
AcDbCircle
 10
303.5406535380598
 20
-53.86875791807415
 30
0.0
 40
2.000000025774982
100
AcDbArc
 50
94.9995880126953
 51
180.0
  0
ARC
  5
24D
330
1F
100
AcDbEntity
  8
通り芯
  6
Continuous
 62
     3
370
     9
100
AcDbCircle
 10
-162.8798489957242
 20
-354.7027290962836
 30
0.0
 40
1.000000012887491
100
AcDbArc
 50
270.0
 51
355.2365875244141
  0
ARC
  5
24E
330
1F
100
AcDbEntity
  8
通り芯
  6
Continuous
 62
     3
370
     9
100
AcDbCircle
 10
-171.0395235628695
 20
-354.7027290962836
 30
0.0
 40
1.000000012887491
100
AcDbArc
 50
184.763412475586
 51
270.0
  0
ARC
  5
24F
330
1F
100
AcDbEntity
  8
通り芯
  6
Continuous
 62
     3
370
     9
100
AcDbCircle
 10
-580.0394377837309
 20
-354.7027290962836
 30
0.0
 40
1.000000012887491
100
AcDbArc
 50
184.763412475586
 51
270.0
  0
ARC
  5
250
330
1F
100
AcDbEntity
  8
通り芯
  6
Continuous
 62
     3
370
     9
100
AcDbCircle
 10
-571.8797632165857
 20
-354.7027290962836
 30
0.0
 40
1.000000012887491
100
AcDbArc
 50
270.0
 51
355.2365875244141
  0
ARC
  5
251
330
1F
100
AcDbEntity
  8
躯体
  6
Continuous
 62
     2
370
     9
100
AcDbCircle
 10
356.7406113083298
 20
467.4156857052367
 30
0.0
 40
13.99999979380015
100
AcDbArc
 50
270.0
 51
0.0
  0
ARC
  5
252
330
1F
100
AcDbEntity
  8
躯体
  6
Continuous
 62
     2
370
     9
100
AcDbCircle
 10
356.7406113083298
 20
-110.5845386402025
 30
0.0
 40
13.99999979380015
100
AcDbArc
 50
0.0
 51
90.0
  0
TEXT
  5
253
330
1F
100
AcDbEntity
  8
0-F
  6
Continuous
 62
     2
370
     9
100
AcDbText
 10
-609.4596310177366
 20
528.6716329180746
 30
0.0
 40
12.192
  1
100
 41
1.083333333333333
  7
ＭＳ ゴシック
100
AcDbText
  0
TEXT
  5
254
330
1F
100
AcDbEntity
  8
0-F
  6
Continuous
 62
     2
370
     9
100
AcDbText
 10
-159.4596433897275
 20
528.6716329180746
 30
0.0
 40
12.192
  1
100
 41
1.083333333333333
  7
ＭＳ ゴシック
100
AcDbText
  0
TEXT
  5
255
330
1F
100
AcDbEntity
  8
0-F
  6
Continuous
 62
     2
370
     9
100
AcDbText
 10
177.2843439817302
 20
-133.996905451231
 30
0.0
 40
12.192
  1
3.2
 50
90.00000250447873
 41
1.083333333333334
  7
ＭＳ ゴシック
100
AcDbText
  0
TEXT
  5
256
330
1F
100
AcDbEntity
  8
0-F
  6
Continuous
 62
     2
370
     9
100
AcDbText
 10
177.2843439817302
 20
-85.34825680258204
 30
0.0
 40
12.192
  1
1.8
 50
90.00000250447873
 41
1.083333333333315
  7
ＭＳ ゴシック
100
AcDbText
  0
TEXT
  5
257
330
1F
100
AcDbEntity
  8
0-F
  6
Continuous
 62
     2
370
     9
100
AcDbText
 10
177.2843439817302
 20
463.4704984761339
 30
0.0
 40
12.192
  1
3.2
 50
90.00000250447873
 41
1.083333333333334
  7
ＭＳ ゴシック
100
AcDbText
  0
TEXT
  5
258
330
1F
100
AcDbEntity
  8
0-F
  6
Continuous
 62
     2
370
     9
100
AcDbText
 10
177.2843439817302
 20
412.9685255559481
 30
0.0
 40
12.192
  1
1.8
 50
90.00000250447873
 41
1.083333333333334
  7
ＭＳ ゴシック
100
AcDbText
  0
TEXT
  5
259
330
1F
100
AcDbEntity
  8
0-F
  6
Continuous
 62
     2
370
     9
100
AcDbText
 10
295.040505074166
 20
88.49806213049001
 30
0.0
 40
12.192
  1
40
 41
1.0625
  7
ＭＳ ゴシック
100
AcDbText
  0
TEXT
  5
25A
330
1F
100
AcDbEntity
  8
0-F
  6
Continuous
 62
     2
370
     9
100
AcDbText
 10
429.48431475209
 20
-80.08441007010755
 30
0.0
 40
12.192
  1
50
 50
90.00000250448097
 41
1.062500000000001
  7
ＭＳ ゴシック
100
AcDbText
  0
TEXT
  5
25B
330
1F
100
AcDbEntity
  8
0-F
  6
Continuous
 62
     2
370
     9
100
AcDbText
 10
429.48431475209
 20
-119.5843671805383
 30
0.0
 40
12.192
  1
29
 50
90.00000250448097
 41
1.062500000000001
  7
ＭＳ ゴシック
100
AcDbText
  0
TEXT
  5
25C
330
1F
100
AcDbEntity
  8
0-F
  6
Continuous
 62
     2
370
     9
100
AcDbText
 10
429.48431475209
 20
459.4155635363114
 30
0.0
 40
12.192
  1
29
 50
90.00000250448097
 41
1.062500000000001
  7
ＭＳ ゴシック
100
AcDbText
  0
TEXT
  5
25D
330
1F
100
AcDbEntity
  8
0-F
  6
Continuous
 62
     2
370
     9
100
AcDbText
 10
429.48431475209
 20
419.9155569379162
 30
0.0
 40
12.192
  1
50
 50
90.00000250448097
 41
1.062500000000001
  7
ＭＳ ゴシック
100
AcDbText
  0
TEXT
  5
25E
330
1F
100
AcDbEntity
  8
0-F
  6
Continuous
 62
     2
370
     9
100
AcDbText
 10
-630.3195008973818
 20
-225.3006175306164
 30
0.0
 40
12.192
  1
1.8
 41
1.083333333333333
  7
ＭＳ ゴシック
100
AcDbText
  0
TEXT
  5
25F
330
1F
100
AcDbEntity
  8
0-F
  6
Continuous
 62
     2
370
     9
100
AcDbText
 10
-682.2168364653716
 20
-225.3006175306164
 30
0.0
 40
12.192
  1
3.2
 41
1.083333333333333
  7
ＭＳ ゴシック
100
AcDbText
  0
TEXT
  5
260
330
1F
100
AcDbEntity
  8
0-F
  6
Continuous
 62
     2
370
     9
100
AcDbText
 10
-83.52773552971917
 20
-225.3006175306164
 30
0.0
 40
12.192
  1
3.2
 41
1.083333333333333
  7
ＭＳ ゴシック
100
AcDbText
  0
TEXT
  5
261
330
1F
100
AcDbEntity
  8
0-F
  6
Continuous
 62
     2
370
     9
100
AcDbText
 10
-132.0143110945417
 20
-225.3006175306164
 30
0.0
 40
12.192
  1
1.8
 41
1.083333333333333
  7
ＭＳ ゴシック
100
AcDbText
  0
TEXT
  5
262
330
1F
100
AcDbEntity
  8
0-E
  6
Continuous
 62
     7
370
     9
100
AcDbText
 10
407.2960411277977
 20
540.6468933699327
 30
0.0
 40
9.144
  1
アンカー：φ９
 41
1.142857142857143
  7
ＭＳ ゴシック
100
AcDbText
  0
TEXT
  5
263
330
1F
100
AcDbEntity
  8
0-E
  6
Continuous
 62
     7
370
     9
100
AcDbText
 10
403.2068440205344
 20
521.7897024387671
 30
0.0
 40
9.144
  1
ＳＳ４００，樹脂系塗装
 41
1.151515151515152
  7
ＭＳ ゴシック
100
AcDbText
  0
TEXT
  5
264
330
1F
100
AcDbEntity
  8
0-E
  6
Continuous
 62
     7
370
     9
100
AcDbText
 10
470.6046777673669
 20
279.4930649809968
 30
0.0
 40
9.144
  1
蓋本体：ＦＣＤ５００
 41
1.15
  7
ＭＳ ゴシック
100
AcDbText
  0
TEXT
  5
265
330
1F
100
AcDbEntity
  8
0-F
  6
Continuous
 62
     2
370
     9
100
AcDbText
 10
297.6403849833721
 20
-190.3284132706924
 30
0.0
 40
12.192
  1
63.2
 41
1.09375
  7
ＭＳ ゴシック
100
AcDbText
  0
TEXT
  5
266
330
1F
100
AcDbEntity
  8
0-F
  6
Continuous
 62
     2
370
     9
100
AcDbText
 10
305.0404390902133
 20
-150.328380278716
 30
0.0
 40
12.192
  1
60
 41
1.0625
  7
ＭＳ ゴシック
100
AcDbText
  0
TEXT
  5
267
330
1F
100
AcDbEntity
  8
0-F
  6
Continuous
 62
     2
370
     9
100
AcDbText
 10
262.3426224992081
 20
-308.1459940350505
 30
0.0
 40
12.192
  1
仕様
 41
1.0625
  7
ＭＳ ゴシック
100
AcDbText
  0
TEXT
  5
268
330
1F
100
AcDbEntity
  8
0-F
  6
Continuous
 62
     2
370
     9
100
AcDbText
 10
262.3426027040225
 20
-332.1459742398647
 30
0.0
 40
12.192
  1
適用荷重：Ｔ－２
 41
1.109375
  7
ＭＳ ゴシック
100
AcDbText
  0
TEXT
  5
269
330
1F
100
AcDbEntity
  8
0-F
  6
Continuous
 62
     2
370
     9
100
AcDbText
 10
262.342632396801
 20
-380.1459346494931
 30
0.0
 40
12.192
  1
接触圧子：２００×１６０ｍｍ
 41
1.116071428571429
  7
ＭＳ ゴシック
100
AcDbText
  0
TEXT
  5
26A
330
1F
100
AcDbEntity
  8
0-F
  6
Continuous
 62
     2
370
     9
100
AcDbText
 10
137.2843109897537
 20
165.4156229218688
 30
0.0
 40
12.192
  1
550
 50
90.00000250447873
 41
1.083333333333334
  7
ＭＳ ゴシック
100
AcDbText
  0
TEXT
  5
26B
330
1F
100
AcDbEntity
  8
0-F
  6
Continuous
 62
     2
370
     9
100
AcDbText
 10
177.2843439817302
 20
165.4155734339042
 30
0.0
 40
12.192
  1
540
 50
90.00000250447873
 41
1.083333333333334
  7
ＭＳ ゴシック
100
AcDbText
  0
TEXT
  5
26C
330
1F
100
AcDbEntity
  8
0-F
  6
Continuous
 62
     2
370
     9
100
AcDbText
 10
217.2843769737064
 20
165.4155734339042
 30
0.0
 40
12.192
  1
450
 50
90.00000250447873
 41
1.083333333333334
  7
ＭＳ ゴシック
100
AcDbText
  0
TEXT
  5
26D
330
1F
100
AcDbEntity
  8
0-F
  6
Continuous
 62
     2
370
     9
100
AcDbText
 10
429.4843153421933
 20
156.4155981778864
 30
0.0
 40
12.192
  1
□450
 50
90.00000250447819
 41
1.100000000000001
  7
ＭＳ ゴシック
100
AcDbText
  0
TEXT
  5
26E
330
1F
100
AcDbEntity
  8
0-F
  6
Continuous
 62
     2
370
     9
100
AcDbText
 10
337.9564778095969
 20
109.7145422825171
 30
0.0
 40
12.192
  1
7
  7
ＭＳ ゴシック
100
AcDbText
  0
TEXT
  5
26F
330
1F
100
AcDbEntity
  8
0-F
  6
Continuous
 62
     2
370
     9
100
AcDbText
 10
366.4184809504329
 20
88.49806213049001
 30
0.0
 40
12.192
  1
23
 41
1.0625
  7
ＭＳ ゴシック
100
AcDbText
  0
TEXT
  5
270
330
1F
100
AcDbEntity
  8
0-F
  6
Continuous
 62
     2
370
     9
100
AcDbText
 10
-384.4596433897275
 20
-190.7372828336148
 30
0.0
 40
12.192
  1
550
 41
1.083333333333333
  7
ＭＳ ゴシック
100
AcDbText
  0
TEXT
  5
271
330
1F
100
AcDbEntity
  8
0-F
  6
Continuous
 62
     2
370
     9
100
AcDbText
 10
-384.4596433897275
 20
-225.3006175306164
 30
0.0
 40
12.192
  1
540
 41
1.083333333333333
  7
ＭＳ ゴシック
100
AcDbText
  0
TEXT
  5
272
330
1F
100
AcDbEntity
  8
0-F
  6
Continuous
 62
     2
370
     9
100
AcDbText
 10
-384.4596433897275
 20
-259.5737053156671
 30
0.0
 40
12.192
  1
520
 41
1.083333333333333
  7
ＭＳ ゴシック
100
AcDbText
  0
TEXT
  5
273
330
1F
100
AcDbEntity
  8
0-E
  6
Continuous
 62
     7
370
     9
100
AcDbText
 10
62.19713448189407
 20
510.1674539695948
 30
0.0
 40
9.144
  1
ＳＰＨＣ，樹脂系塗装
 41
1.15
  7
ＭＳ ゴシック
100
AcDbText
  0
TEXT
  5
274
330
1F
100
AcDbEntity
  8
0-F
  6
Continuous
 62
     7
370
     9
100
AcDbText
 10
219.8483832879773
 20
-75.58442654144264
 30
0.0
 40
9.144
  1
45
 50
90.00000250447673
 41
1.083333333333334
  7
ＭＳ ゴシック
100
AcDbText
  0
TEXT
  5
275
330
1F
100
AcDbEntity
  8
0-F
  6
Continuous
 62
     6
370
     9
100
AcDbText
 10
219.2843832267815
 20
401.5268969400275
 30
0.0
 40
12.192
  1
10
 50
90.00000250447789
 41
0.6374999999999964
  7
ＭＳ ゴシック
100
AcDbText
  0
TEXT
  5
276
330
1F
100
AcDbEntity
  8
0-F
  6
Continuous
 62
     6
370
     9
100
AcDbText
 10
199.6707193835054
 20
405.2804587537944
 30
0.0
 40
12.192
  1
6.5
 50
90.0000025044775
 41
0.6416666666666663
  7
ＭＳ ゴシック
100
AcDbText
  0
TEXT
  5
277
330
1F
100
AcDbEntity
  8
0-F
  6
Continuous
 62
     6
370
     9
100
AcDbText
 10
219.2843832267815
 20
419.9374095033721
 30
0.0
 40
12.192
  1
11
 50
90.00000250447789
 41
0.6374999999999964
  7
ＭＳ ゴシック
100
AcDbText
  0
TEXT
  5
278
330
1F
100
AcDbEntity
  8
0-F
  6
Continuous
 62
     6
370
     9
100
AcDbText
 10
199.6707193835054
 20
427.4282034222909
 30
0.0
 40
12.192
  1
6.5
 50
90.0000025044775
 41
0.6416666666666663
  7
ＭＳ ゴシック
100
AcDbText
  0
TEXT
  5
279
330
1F
100
AcDbEntity
  8
0-F
  6
Continuous
 62
     6
370
     9
100
AcDbText
 10
219.2843832267815
 20
437.0967673475444
 30
0.0
 40
12.192
  1
11
 50
90.00000250447789
 41
0.6374999999999998
  7
ＭＳ ゴシック
100
AcDbText
  0
TEXT
  5
27A
330
1F
100
AcDbEntity
  8
0-E
  6
Continuous
 62
     7
370
     9
100
AcDbText
 10
63.40555139490084
 20
528.3179567673144
 30
0.0
 40
9.144
  1
受枠：Ｌ６０Ｇ，ｔ＝３．２
 41
1.153846153846154
  7
ＭＳ ゴシック
100
AcDbText
  0
TEXT
  5
27B
330
1F
100
AcDbEntity
  8
0-F
  6
Continuous
 62
     2
370
     9
100
AcDbText
 10
262.342642294394
 20
-356.1460534206079
 30
0.0
 40
12.192
  1
破壊荷重：３５ｋＮ（３，６００ｋｇｆ）以上
 41
1.119047619047619
  7
ＭＳ ゴシック
100
AcDbText
  0
TEXT
  5
27C
330
1F
100
AcDbEntity
  8
0-E
  6
Continuous
 62
     7
370
     9
100
AcDbText
 10
470.0779608649177
 20
258.19285119299
 30
0.0
 40
9.144
  1
樹脂系塗装
 41
1.133333333333333
  7
ＭＳ ゴシック
100
AcDbText
  0
TEXT
  5
27D
330
1F
100
AcDbEntity
  8
0-F
  6
Continuous
 62
     2
370
     9
100
AcDbText
 10
262.3428402462523
 20
-404.1460138302364
 30
0.0
 40
12.192
  1
蓋 質 量：２５．０ｋｇ
 41
1.113636363636364
  7
ＭＳ ゴシック
100
AcDbText
  0
TEXT
  5
27E
330
1F
100
AcDbEntity
  8
0-F
  6
Continuous
 62
     2
370
     9
100
AcDbText
 10
350.2403704669025
 20
-190.3284132706924
 30
0.0
 40
12.192
  1
24
 41
1.0625
  7
ＭＳ ゴシック
100
AcDbText
  0
LWPOLYLINE
  5
27F
330
1F
100
AcDbEntity
  8
0-F
  6
Continuous
 62
     7
370
     9
100
AcDbPolyline
 90
        4
 70
     1
 43
0.4
 10
-99.45976611987957
 20
-231.5565812394424
 42
0.4142135623731
 10
-99.65976611987958
 20
-231.3565812394424
 42
0.4142135623731
 10
-99.85976611987958
 20
-231.5565812394424
 42
0.4142135623731
 10
-99.65976611987958
 20
-231.7565812394424
 42
0.4142135623731
  0
LWPOLYLINE
  5
280
330
1F
100
AcDbEntity
  8
0-F
  6
Continuous
 62
     7
370
     9
100
AcDbPolyline
 90
        4
 70
     1
 43
0.4
 10
-643.0597186114336
 20
-231.5565812394424
 42
0.4142135623731
 10
-643.2597186114336
 20
-231.3565812394424
 42
0.4142135623731
 10
-643.4597186114337
 20
-231.5565812394424
 42
0.4142135623731
 10
-643.2597186114336
 20
-231.7565812394424
 42
0.4142135623731
  0
LWPOLYLINE
  5
281
330
1F
100
AcDbEntity
  8
0-F
  6
Continuous
 62
     7
370
     9
100
AcDbPolyline
 90
        4
 70
     1
 43
0.4
 10
183.7403566102724
 20
450.2155497782941
 42
0.4142135623731
 10
183.5403566102724
 20
450.4155497782941
 42
0.4142135623731
 10
183.3403566102724
 20
450.2155497782941
 42
0.4142135623731
 10
183.5403566102724
 20
450.0155497782941
 42
0.4142135623731
  0
LWPOLYLINE
  5
282
330
1F
100
AcDbEntity
  8
0-F
  6
Continuous
 62
     7
370
     9
100
AcDbPolyline
 90
        4
 70
     1
 43
0.4
 10
183.7403566102724
 20
-93.38450168918894
 42
0.4142135623731
 10
183.5403566102724
 20
-93.18450168918893
 42
0.4142135623731
 10
183.3403566102724
 20
-93.38450168918894
 42
0.4142135623731
 10
183.5403566102724
 20
-93.58450168918894
 42
0.4142135623731
  0
LWPOLYLINE
  5
283
330
1F
100
AcDbEntity
  8
0-F
  6
Continuous
 62
     7
370
     9
100
AcDbPolyline
 90
        4
 70
     1
 43
0.4
 10
330.7403962006439
 20
82.2420489336995
 42
0.4142135623731
 10
330.540396200644
 20
82.4420489336995
 42
0.4142135623731
 10
330.340396200644
 20
82.2420489336995
 42
0.4142135623731
 10
330.540396200644
 20
82.04204893369949
 42
0.4142135623731
  0
LWPOLYLINE
  5
284
330
1F
100
AcDbEntity
  8
0-F
  6
Continuous
 62
     7
370
     9
100
AcDbPolyline
 90
        4
 70
     1
 43
0.4
 10
223.7403896022489
 20
413.4156065244935
 42
0.4142135623731
 10
223.5403896022489
 20
413.6156065244934
 42
0.4142135623731
 10
223.3403896022489
 20
413.4156065244935
 42
0.4142135623731
 10
223.5403896022489
 20
413.2156065244935
 42
0.4142135623731
  0
LWPOLYLINE
  5
285
330
1F
100
AcDbEntity
  8
0-F
  6
Continuous
 62
     7
370
     9
100
AcDbPolyline
 90
        4
 70
     1
 43
0.4
 10
223.7403896022489
 20
419.9156527132603
 42
0.4142135623731
 10
223.5403896022489
 20
420.1156527132603
 42
0.4142135623731
 10
223.3403896022489
 20
419.9156527132603
 42
0.4142135623731
 10
223.5403896022489
 20
419.7156527132603
 42
0.4142135623731
  0
LWPOLYLINE
  5
286
330
1F
100
AcDbEntity
  8
0-F
  6
Continuous
 62
     7
370
     9
100
AcDbPolyline
 90
        4
 70
     1
 43
0.4
 10
223.7403896022489
 20
430.9155405405407
 42
0.4142135623731
 10
223.5403896022489
 20
431.1155405405407
 42
0.4142135623731
 10
223.3403896022489
 20
430.9155405405407
 42
0.4142135623731
 10
223.5403896022489
 20
430.7155405405408
 42
0.4142135623731
  0
LWPOLYLINE
  5
287
330
1F
100
AcDbEntity
  8
0-F
  6
Continuous
 62
     7
370
     9
100
AcDbPolyline
 90
        4
 70
     1
 43
0.4
 10
223.7403896022489
 20
437.4155867293076
 42
0.4142135623731
 10
223.5403896022489
 20
437.6155867293076
 42
0.4142135623731
 10
223.3403896022489
 20
437.4155867293076
 42
0.4142135623731
 10
223.5403896022489
 20
437.2155867293076
 42
0.4142135623731
  0
LWPOLYLINE
  5
288
330
1F
100
AcDbEntity
  8
0-F
  6
Continuous
 62
     7
370
     9
100
AcDbPolyline
 90
        4
 70
     1
 43
0.4
 10
223.7403896022489
 20
448.4156725084462
 42
0.4142135623731
 10
223.5403896022489
 20
448.6156725084462
 42
0.4142135623731
 10
223.3403896022489
 20
448.4156725084462
 42
0.4142135623731
 10
223.5403896022489
 20
448.2156725084462
 42
0.4142135623731
  0
TEXT
  5
289
330
1F
100
AcDbEntity
  8
F-5ﾚｲﾔ
  6
Continuous
 62
     3
370
     9
100
AcDbText
 10
-208.8454705162533
 20
-549.8055966172748
 30
0.0
 40
12.192
  1
カラー舗装用みぞ蓋　ＧＨＷ－２－４５０＋Ｌ６０Ｇ
 41
0.946875
  7
ＭＳ ゴシック
100
AcDbText
  0
ENDSEC
  0
SECTION
  2
OBJECTS
  0
DICTIONARY
  5
C
330
0
100
AcDbDictionary
281
     1
  3
ACAD_GROUP
350
D
  3
ACAD_LAYOUT
350
1A
  3
ACAD_MLEADERSTYLE
350
28B
  3
ACAD_MLINESTYLE
350
17
  3
ACAD_PLOTSETTINGS
350
19
  3
ACAD_PLOTSTYLENAME
350
E
  3
ACAD_TABLESTYLE
350
28A
  3
ACAD_VISUALSTYLE
350
2A
  0
DICTIONARY
  5
D
102
{ACAD_REACTORS
330
C
102
}
330
C
100
AcDbDictionary
281
     1
  0
DICTIONARY
  5
1A
102
{ACAD_REACTORS
330
C
102
}
330
C
100
AcDbDictionary
281
     1
  3
Layout1
350
1E
  3
Layout2
350
26
  3
Model
350
22
  0
DICTIONARY
  5
28B
102
{ACAD_REACTORS
330
C
102
}
330
C
100
AcDbDictionary
281
     1
  0
DICTIONARY
  5
17
102
{ACAD_REACTORS
330
C
102
}
330
C
100
AcDbDictionary
281
     1
  3
Standard
350
18
  0
DICTIONARY
  5
19
102
{ACAD_REACTORS
330
C
102
}
330
C
100
AcDbDictionary
281
     1
  0
ACDBDICTIONARYWDFLT
  5
E
102
{ACAD_REACTORS
330
C
102
}
330
C
100
AcDbDictionary
281
     1
  3
Normal
350
F
100
AcDbDictionaryWithDefault
340
F
  0
DICTIONARY
  5
28A
102
{ACAD_REACTORS
330
C
102
}
330
C
100
AcDbDictionary
281
     1
  0
DICTIONARY
  5
2A
102
{ACAD_REACTORS
330
C
102
}
330
C
100
AcDbDictionary
281
     1
  3
2dWireframe
350
2F
  3
3D Hidden
350
31
  3
3dWireframe
350
30
  3
Basic
350
32
  3
Brighten
350
36
  3
ColorChange
350
3A
  3
Conceptual
350
34
  3
Dim
350
35
  3
Facepattern
350
39
  3
Flat
350
2B
  3
FlatWithEdges
350
2C
  3
Gouraud
350
2D
  3
GouraudWithEdges
350
2E
  3
Linepattern
350
38
  3
Realistic
350
33
  3
Thicken
350
37
  0
LAYOUT
  5
1E
102
{ACAD_REACTORS
330
1A
102
}
330
1A
100
AcDbPlotSettings
  1

  2
none_device
  4

  6

 40
0.0
 41
0.0
 42
0.0
 43
0.0
 44
0.0
 45
0.0
 46
0.0
 47
0.0
 48
0.0
 49
0.0
140
0.0
141
0.0
142
1.0
143
1.0
 70
   688
 72
     0
 73
     0
 74
     5
  7

 75
    16
 76
     0
 77
     5
 78
   300
147
1.0
148
0.0
149
0.0
100
AcDbLayout
  1
Layout1
 70
     1
 71
     1
 10
0.0
 20
0.0
 11
420.0
 21
297.0
 12
0.0
 22
0.0
 32
0.0
 14
1.000000000000000E+20
 24
1.000000000000000E+20
 34
1.000000000000000E+20
 15
-1.000000000000000E+20
 25
-1.000000000000000E+20
 35
-1.000000000000000E+20
146
0.0
 13
0.0
 23
0.0
 33
0.0
 16
1.0
 26
0.0
 36
0.0
 17
0.0
 27
1.0
 37
0.0
 76
     0
330
1B
  0
LAYOUT
  5
26
102
{ACAD_REACTORS
330
1A
102
}
330
1A
100
AcDbPlotSettings
  1

  2
none_device
  4

  6

 40
0.0
 41
0.0
 42
0.0
 43
0.0
 44
0.0
 45
0.0
 46
0.0
 47
0.0
 48
0.0
 49
0.0
140
0.0
141
0.0
142
1.0
143
1.0
 70
   688
 72
     0
 73
     0
 74
     5
  7

 75
    16
 76
     0
 77
     5
 78
   300
147
1.0
148
0.0
149
0.0
100
AcDbLayout
  1
Layout2
 70
     1
 71
     2
 10
0.0
 20
0.0
 11
0.0
 21
0.0
 12
0.0
 22
0.0
 32
0.0
 14
0.0
 24
0.0
 34
0.0
 15
0.0
 25
0.0
 35
0.0
146
0.0
 13
0.0
 23
0.0
 33
0.0
 16
1.0
 26
0.0
 36
0.0
 17
0.0
 27
1.0
 37
0.0
 76
     0
330
23
  0
LAYOUT
  5
22
102
{ACAD_REACTORS
330
1A
102
}
330
1A
100
AcDbPlotSettings
  1

  2
none_device
  4

  6

 40
0.0
 41
0.0
 42
0.0
 43
0.0
 44
0.0
 45
0.0
 46
0.0
 47
0.0
 48
0.0
 49
0.0
140
0.0
141
0.0
142
1.0
143
1.0
 70
  1712
 72
     0
 73
     0
 74
     0
  7

 75
     0
 76
     0
 77
     5
 78
   300
147
1.0
148
0.0
149
0.0
100
AcDbLayout
  1
Model
 70
     1
 71
     0
 10
-840.0
 20
-594.0
 11
840.0
 21
594.0
 12
0.0
 22
0.0
 32
0.0
 14
-840.0
 24
-594.0
 34
0.0
 15
840.0
 25
594.0
 35
0.0
146
0.0
 13
0.0
 23
0.0
 33
0.0
 16
1.0
 26
0.0
 36
0.0
 17
0.0
 27
1.0
 37
0.0
 76
     0
330
1F
331
29
  0
MLINESTYLE
  5
18
102
{ACAD_REACTORS
330
17
102
}
330
17
100
AcDbMlineStyle
  2
Standard
 70
     0
  3

 62
   256
 51
90.0
 52
90.0
 71
     2
 49
0.5
 62
   256
  6
BYLAYER
 49
-0.5
 62
   256
  6
BYLAYER
  0
ACDBPLACEHOLDER
  5
F
102
{ACAD_REACTORS
330
E
102
}
330
E
  0
VISUALSTYLE
  5
2F
102
{ACAD_REACTORS
330
2A
102
}
330
2A
100
AcDbVisualStyle
  2
2dWireframe
 70
     4
 71
     0
 72
     2
 73
     0
 90
        0
 40
-0.6
 41
-30.0
 62
     5
 63
     7
421
 16777215
 74
     1
 91
        4
 64
     7
 65
   257
 75
     1
175
     1
 42
1.0
 92
        0
 66
   257
 43
1.0
 76
     1
 77
     6
 78
     2
 67
     7
 79
     5
170
     0
171
     0
290
     0
174
     0
 93
        1
 44
0.0
173
     0
291
     0
 45
0.0
1001
ACAD
1000
AcDbSavedByObjectVersion
1070
     0
  0
VISUALSTYLE
  5
31
102
{ACAD_REACTORS
330
2A
102
}
330
2A
100
AcDbVisualStyle
  2
3D Hidden
 70
     6
 71
     1
 72
     2
 73
     2
 90
        0
 40
-0.6
 41
-30.0
 62
     5
 63
     7
421
 16777215
 74
     2
 91
        2
 64
     7
 65
   257
 75
     2
175
     1
 42
40.0
 92
        0
 66
   257
 43
1.0
 76
     1
 77
     6
 78
     2
 67
     7
 79
     3
170
     0
171
     0
290
     0
174
     0
 93
        1
 44
0.0
173
     0
291
     0
 45
0.0
1001
ACAD
1000
AcDbSavedByObjectVersion
1070
     0
  0
VISUALSTYLE
  5
30
102
{ACAD_REACTORS
330
2A
102
}
330
2A
100
AcDbVisualStyle
  2
3dWireframe
 70
     5
 71
     0
 72
     2
 73
     0
 90
        0
 40
-0.6
 41
-30.0
 62
     5
 63
     7
421
 16777215
 74
     1
 91
        4
 64
     7
 65
   257
 75
     1
175
     1
 42
1.0
 92
        0
 66
   257
 43
1.0
 76
     1
 77
     6
 78
     2
 67
     7
 79
     5
170
     0
171
     0
290
     0
174
     0
 93
        1
 44
0.0
173
     0
291
     0
 45
0.0
1001
ACAD
1000
AcDbSavedByObjectVersion
1070
     0
  0
VISUALSTYLE
  5
32
102
{ACAD_REACTORS
330
2A
102
}
330
2A
100
AcDbVisualStyle
  2
Basic
 70
     7
 71
     1
 72
     0
 73
     1
 90
        0
 40
-0.6
 41
-30.0
 62
     5
 63
     7
421
 16777215
 74
     0
 91
        4
 64
     7
 65
   257
 75
     1
175
     1
 42
1.0
 92
        8
 66
     7
 43
1.0
 76
     1
 77
     6
 78
     2
 67
     7
 79
     5
170
     0
171
     0
290
     0
174
     0
 93
        1
 44
0.0
173
     0
291
     1
 45
0.0
1001
ACAD
1000
AcDbSavedByObjectVersion
1070
     0
  0
VISUALSTYLE
  5
36
102
{ACAD_REACTORS
330
2A
102
}
330
2A
100
AcDbVisualStyle
  2
Brighten
 70
    12
 71
     2
 72
     2
 73
     0
 90
        0
 40
-0.6
 41
-30.0
 62
     5
 63
     7
421
 16777215
 74
     1
 91
        4
 64
     7
 65
   257
 75
     1
175
     1
 42
1.0
 92
        8
 66
     7
 43
1.0
 76
     1
 77
     6
 78
     2
 67
     7
 79
     5
170
     0
171
     0
290
     0
174
     0
 93
        1
 44
50.0
173
     0
291
     1
 45
0.0
1001
ACAD
1000
AcDbSavedByObjectVersion
1070
     0
  0
VISUALSTYLE
  5
3A
102
{ACAD_REACTORS
330
2A
102
}
330
2A
100
AcDbVisualStyle
  2
ColorChange
 70
    16
 71
     2
 72
     2
 73
     3
 90
        0
 40
-0.6
 41
-30.0
 62
     5
 63
     8
421
  8421504
 74
     1
 91
        4
 64
     7
 65
   257
 75
     1
175
     1
 42
1.0
 92
        8
 66
     8
424
  8421504
 43
1.0
 76
     1
 77
     6
 78
     2
 67
     7
 79
     5
170
     0
171
     0
290
     0
174
     0
 93
        1
 44
0.0
173
     0
291
     1
 45
0.0
1001
ACAD
1000
AcDbSavedByObjectVersion
1070
     0
  0
VISUALSTYLE
  5
34
102
{ACAD_REACTORS
330
2A
102
}
330
2A
100
AcDbVisualStyle
  2
Conceptual
 70
     9
 71
     3
 72
     2
 73
     0
 90
        0
 40
-0.6
 41
-30.0
 62
     5
 63
     7
421
 16777215
 74
     2
 91
        2
 64
     7
 65
   257
 75
     1
175
     1
 42
40.0
 92
        8
 66
     7
 43
1.0
 76
     1
 77
     6
 78
     2
 67
     7
 79
     3
170
     0
171
     0
290
     0
174
     0
 93
        1
 44
0.0
173
     0
291
     0
 45
0.0
1001
ACAD
1000
AcDbSavedByObjectVersion
1070
     0
  0
VISUALSTYLE
  5
35
102
{ACAD_REACTORS
330
2A
102
}
330
2A
100
AcDbVisualStyle
  2
Dim
 70
    11
 71
     2
 72
     2
 73
     0
 90
        0
 40
-0.6
 41
-30.0
 62
     5
 63
     7
421
 16777215
 74
     1
 91
        4
 64
     7
 65
   257
 75
     1
175
     1
 42
1.0
 92
        8
 66
     7
 43
1.0
 76
     1
 77
     6
 78
     2
 67
     7
 79
     5
170
     0
171
     0
290
     0
174
     0
 93
        1
 44
-50.0
173
     0
291
     1
 45
0.0
1001
ACAD
1000
AcDbSavedByObjectVersion
1070
     0
  0
VISUALSTYLE
  5
39
102
{ACAD_REACTORS
330
2A
102
}
330
2A
100
AcDbVisualStyle
  2
Facepattern
 70
    15
 71
     2
 72
     2
 73
     0
 90
        0
 40
-0.6
 41
-30.0
 62
     5
 63
     7
421
 16777215
 74
     1
 91
        4
 64
     7
 65
   257
 75
     1
175
     1
 42
1.0
 92
        8
 66
     7
 43
1.0
 76
     1
 77
     6
 78
     2
 67
     7
 79
     5
170
     0
171
     0
290
     0
174
     0
 93
        1
 44
0.0
173
     0
291
     1
 45
0.0
1001
ACAD
1000
AcDbSavedByObjectVersion
1070
     0
  0
VISUALSTYLE
  5
2B
102
{ACAD_REACTORS
330
2A
102
}
330
2A
100
AcDbVisualStyle
  2
Flat
 70
     0
 71
     2
 72
     1
 73
     1
 90
        2
 40
-0.6
 41
30.0
 62
     5
 63
     7
421
 16777215
 74
     0
 91
        4
 64
     7
 65
   257
 75
     1
175
     1
 42
1.0
 92
        8
 66
     7
 43
1.0
 76
     1
 77
     6
 78
     2
 67
     7
 79
     5
170
     0
171
     0
290
     0
174
     0
 93
       13
 44
0.0
173
     0
291
     1
 45
0.0
1001
ACAD
1000
AcDbSavedByObjectVersion
1070
     0
  0
VISUALSTYLE
  5
2C
102
{ACAD_REACTORS
330
2A
102
}
330
2A
100
AcDbVisualStyle
  2
FlatWithEdges
 70
     1
 71
     2
 72
     1
 73
     1
 90
        2
 40
-0.6
 41
30.0
 62
     5
 63
     7
421
 16777215
 74
     1
 91
        4
 64
     7
 65
   257
 75
     1
175
     1
 42
1.0
 92
        0
 66
   257
 43
1.0
 76
     1
 77
     6
 78
     2
 67
     7
 79
     5
170
     0
171
     0
290
     0
174
     0
 93
       13
 44
0.0
173
     0
291
     1
 45
0.0
1001
ACAD
1000
AcDbSavedByObjectVersion
1070
     0
  0
VISUALSTYLE
  5
2D
102
{ACAD_REACTORS
330
2A
102
}
330
2A
100
AcDbVisualStyle
  2
Gouraud
 70
     2
 71
     2
 72
     2
 73
     1
 90
        2
 40
-0.6
 41
30.0
 62
     5
 63
     7
421
 16777215
 74
     0
 91
        4
 64
     7
 65
   257
 75
     1
175
     1
 42
1.0
 92
        0
 66
     7
 43
1.0
 76
     1
 77
     6
 78
     2
 67
     7
 79
     5
170
     0
171
     0
290
     0
174
     0
 93
       13
 44
0.0
173
     0
291
     1
 45
0.0
1001
ACAD
1000
AcDbSavedByObjectVersion
1070
     0
  0
VISUALSTYLE
  5
2E
102
{ACAD_REACTORS
330
2A
102
}
330
2A
100
AcDbVisualStyle
  2
GouraudWithEdges
 70
     3
 71
     2
 72
     2
 73
     1
 90
        2
 40
-0.6
 41
30.0
 62
     5
 63
     7
421
 16777215
 74
     1
 91
        4
 64
     7
 65
   257
 75
     1
175
     1
 42
1.0
 92
        0
 66
   257
 43
1.0
 76
     1
 77
     6
 78
     2
 67
     7
 79
     5
170
     0
171
     0
290
     0
174
     0
 93
       13
 44
0.0
173
     0
291
     1
 45
0.0
1001
ACAD
1000
AcDbSavedByObjectVersion
1070
     0
  0
VISUALSTYLE
  5
38
102
{ACAD_REACTORS
330
2A
102
}
330
2A
100
AcDbVisualStyle
  2
Linepattern
 70
    14
 71
     2
 72
     2
 73
     0
 90
        0
 40
-0.6
 41
-30.0
 62
     5
 63
     7
421
 16777215
 74
     1
 91
        4
 64
     7
 65
   257
 75
     7
175
     7
 42
1.0
 92
        8
 66
     7
 43
1.0
 76
     1
 77
     6
 78
     2
 67
     7
 79
     5
170
     0
171
     0
290
     0
174
     0
 93
        1
 44
0.0
173
     0
291
     1
 45
0.0
1001
ACAD
1000
AcDbSavedByObjectVersion
1070
     0
  0
VISUALSTYLE
  5
33
102
{ACAD_REACTORS
330
2A
102
}
330
2A
100
AcDbVisualStyle
  2
Realistic
 70
     8
 71
     2
 72
     2
 73
     0
 90
        0
 40
-0.6
 41
-30.0
 62
     5
 63
     7
421
 16777215
 74
     1
 91
        0
 64
     7
 65
   257
 75
     1
175
     1
 42
1.0
 92
        8
 66
     8
424
  7895160
 43
1.0
 76
     1
 77
     6
 78
     2
 67
     7
 79
     5
170
     0
171
     0
290
     0
174
     0
 93
       13
 44
0.0
173
     0
291
     0
 45
0.0
1001
ACAD
1000
AcDbSavedByObjectVersion
1070
     0
  0
VISUALSTYLE
  5
37
102
{ACAD_REACTORS
330
2A
102
}
330
2A
100
AcDbVisualStyle
  2
Thicken
 70
    13
 71
     2
 72
     2
 73
     0
 90
        0
 40
-0.6
 41
-30.0
 62
     5
 63
     7
421
 16777215
 74
     1
 91
        4
 64
     7
 65
   257
 75
     1
175
     1
 42
1.0
 92
       12
 66
     7
 43
1.0
 76
     1
 77
     6
 78
     2
 67
     7
 79
     5
170
     0
171
     0
290
     0
174
     0
 93
        1
 44
0.0
173
     0
291
     1
 45
0.0
1001
ACAD
1000
AcDbSavedByObjectVersion
1070
     0
  0
ENDSEC
  0
EOF
