  0
SECTION
  2
HEADER
  9
$ACADVER
  1
AC1018
  9
$ACADMAINTVER
 70
     0
  9
$DWGCODEPAGE
  3
ANSI_932
  9
$INSBASE
 10
0.0
 20
0.0
 30
0.0
  9
$EXTMIN
 10
-1050.0
 20
-742.5
 30
0.0
  9
$EXTMAX
 10
1050.0
 20
742.5
 30
0.0
  9
$LIMMIN
 10
-1050.0
 20
-742.5
  9
$LIMMAX
 10
1050.0
 20
742.5
  9
$ORTHOMODE
 70
     0
  9
$REGENMODE
 70
     1
  9
$FILLMODE
 70
     1
  9
$QTEXTMODE
 70
     0
  9
$MIRRTEXT
 70
     1
  9
$LTSCALE
 40
5.0
  9
$ATTMODE
 70
     1
  9
$TEXTSIZE
 40
2.5
  9
$TRACEWID
 40
1.0
  9
$TEXTSTYLE
  7
Standard
  9
$CLAYER
  8
0
  9
$CELTYPE
  6
ByLayer
  9
$CECOLOR
 62
   256
  9
$CELTSCALE
 40
1.0
  9
$DISPSILH
 70
     0
  9
$DIMSCALE
 40
1.0
  9
$DIMASZ
 40
2.5
  9
$DIMEXO
 40
0.625
  9
$DIMDLI
 40
3.75
  9
$DIMRND
 40
0.0
  9
$DIMDLE
 40
0.0
  9
$DIMEXE
 40
1.25
  9
$DIMTP
 40
0.0
  9
$DIMTM
 40
0.0
  9
$DIMTXT
 40
2.5
  9
$DIMCEN
 40
2.5
  9
$DIMTSZ
 40
0.0
  9
$DIMTOL
 70
     0
  9
$DIMLIM
 70
     0
  9
$DIMTIH
 70
     0
  9
$DIMTOH
 70
     0
  9
$DIMSE1
 70
     0
  9
$DIMSE2
 70
     0
  9
$DIMTAD
 70
     1
  9
$DIMZIN
 70
     8
  9
$DIMBLK
  1

  9
$DIMASO
 70
     1
  9
$DIMSHO
 70
     1
  9
$DIMPOST
  1

  9
$DIMAPOST
  1

  9
$DIMALT
 70
     0
  9
$DIMALTD
 70
     3
  9
$DIMALTF
 40
0.03937007874016
  9
$DIMLFAC
 40
1.0
  9
$DIMTOFL
 70
     1
  9
$DIMTVP
 40
0.0
  9
$DIMTIX
 70
     0
  9
$DIMSOXD
 70
     0
  9
$DIMSAH
 70
     0
  9
$DIMBLK1
  1

  9
$DIMBLK2
  1

  9
$DIMSTYLE
  2
ISO-25
  9
$DIMCLRD
 70
     0
  9
$DIMCLRE
 70
     0
  9
$DIMCLRT
 70
     0
  9
$DIMTFAC
 40
1.0
  9
$DIMGAP
 40
0.625
  9
$DIMJUST
 70
     0
  9
$DIMSD1
 70
     0
  9
$DIMSD2
 70
     0
  9
$DIMTOLJ
 70
     0
  9
$DIMTZIN
 70
     8
  9
$DIMALTZ
 70
     0
  9
$DIMALTTZ
 70
     0
  9
$DIMUPT
 70
     0
  9
$DIMDEC
 70
     2
  9
$DIMTDEC
 70
     2
  9
$DIMALTU
 70
     2
  9
$DIMALTTD
 70
     3
  9
$DIMTXSTY
  7
Standard
  9
$DIMAUNIT
 70
     0
  9
$DIMADEC
 70
     0
  9
$DIMALTRND
 40
0.0
  9
$DIMAZIN
 70
     0
  9
$DIMDSEP
 70
    44
  9
$DIMATFIT
 70
     3
  9
$DIMFRAC
 70
     0
  9
$DIMLDRBLK
  1

  9
$DIMLUNIT
 70
     2
  9
$DIMLWD
 70
    -2
  9
$DIMLWE
 70
    -2
  9
$DIMTMOVE
 70
     0
  9
$LUNITS
 70
     2
  9
$LUPREC
 70
     4
  9
$SKETCHINC
 40
1.0
  9
$FILLETRAD
 40
10.0
  9
$AUNITS
 70
     0
  9
$AUPREC
 70
     0
  9
$MENU
  1
.
  9
$ELEVATION
 40
0.0
  9
$PELEVATION
 40
0.0
  9
$THICKNESS
 40
0.0
  9
$LIMCHECK
 70
     0
  9
$CHAMFERA
 40
10.0
  9
$CHAMFERB
 40
10.0
  9
$CHAMFERC
 40
20.0
  9
$CHAMFERD
 40
0.0
  9
$SKPOLY
 70
     0
  9
$TDCREATE
 40
2457532.606013507
  9
$TDUCREATE
 40
2457532.231013507
  9
$TDUPDATE
 40
2457532.606013518
  9
$TDUUPDATE
 40
2457532.231013518
  9
$TDINDWG
 40
0.0000000116
  9
$TDUSRTIMER
 40
0.0000000116
  9
$USRTIMER
 70
     1
  9
$ANGBASE
 50
0.0
  9
$ANGDIR
 70
     0
  9
$PDMODE
 70
     0
  9
$PDSIZE
 40
0.0
  9
$PLINEWID
 40
0.0
  9
$SPLFRAME
 70
     0
  9
$SPLINETYPE
 70
     6
  9
$SPLINESEGS
 70
     8
  9
$HANDSEED
  5
2C9
  9
$SURFTAB1
 70
     6
  9
$SURFTAB2
 70
     6
  9
$SURFTYPE
 70
     6
  9
$SURFU
 70
     6
  9
$SURFV
 70
     6
  9
$UCSBASE
  2

  9
$UCSNAME
  2

  9
$UCSORG
 10
0.0
 20
0.0
 30
0.0
  9
$UCSXDIR
 10
1.0
 20
0.0
 30
0.0
  9
$UCSYDIR
 10
0.0
 20
1.0
 30
0.0
  9
$UCSORTHOREF
  2

  9
$UCSORTHOVIEW
 70
     0
  9
$UCSORGTOP
 10
0.0
 20
0.0
 30
0.0
  9
$UCSORGBOTTOM
 10
0.0
 20
0.0
 30
0.0
  9
$UCSORGLEFT
 10
0.0
 20
0.0
 30
0.0
  9
$UCSORGRIGHT
 10
0.0
 20
0.0
 30
0.0
  9
$UCSORGFRONT
 10
0.0
 20
0.0
 30
0.0
  9
$UCSORGBACK
 10
0.0
 20
0.0
 30
0.0
  9
$PUCSBASE
  2

  9
$PUCSNAME
  2

  9
$PUCSORG
 10
0.0
 20
0.0
 30
0.0
  9
$PUCSXDIR
 10
1.0
 20
0.0
 30
0.0
  9
$PUCSYDIR
 10
0.0
 20
1.0
 30
0.0
  9
$PUCSORTHOREF
  2

  9
$PUCSORTHOVIEW
 70
     0
  9
$PUCSORGTOP
 10
0.0
 20
0.0
 30
0.0
  9
$PUCSORGBOTTOM
 10
0.0
 20
0.0
 30
0.0
  9
$PUCSORGLEFT
 10
0.0
 20
0.0
 30
0.0
  9
$PUCSORGRIGHT
 10
0.0
 20
0.0
 30
0.0
  9
$PUCSORGFRONT
 10
0.0
 20
0.0
 30
0.0
  9
$PUCSORGBACK
 10
0.0
 20
0.0
 30
0.0
  9
$USERI1
 70
     0
  9
$USERI2
 70
     0
  9
$USERI3
 70
     0
  9
$USERI4
 70
     0
  9
$USERI5
 70
     0
  9
$USERR1
 40
0.0
  9
$USERR2
 40
0.0
  9
$USERR3
 40
0.0
  9
$USERR4
 40
0.0
  9
$USERR5
 40
0.0
  9
$WORLDVIEW
 70
     1
  9
$SHADEDGE
 70
     3
  9
$SHADEDIF
 70
    70
  9
$TILEMODE
 70
     1
  9
$MAXACTVP
 70
    64
  9
$PINSBASE
 10
0.0
 20
0.0
 30
0.0
  9
$PLIMCHECK
 70
     0
  9
$PEXTMIN
 10
1.000000000000000E+20
 20
1.000000000000000E+20
 30
1.000000000000000E+20
  9
$PEXTMAX
 10
-1.000000000000000E+20
 20
-1.000000000000000E+20
 30
-1.000000000000000E+20
  9
$PLIMMIN
 10
0.0
 20
0.0
  9
$PLIMMAX
 10
420.0
 20
297.0
  9
$UNITMODE
 70
     0
  9
$VISRETAIN
 70
     1
  9
$PLINEGEN
 70
     0
  9
$PSLTSCALE
 70
     1
  9
$TREEDEPTH
 70
  3020
  9
$CMLSTYLE
  2
Standard
  9
$CMLJUST
 70
     0
  9
$CMLSCALE
 40
20.0
  9
$PROXYGRAPHICS
 70
     1
  9
$MEASUREMENT
 70
     1
  9
$CELWEIGHT
370
    -1
  9
$ENDCAPS
280
     0
  9
$JOINSTYLE
280
     0
  9
$LWDISPLAY
290
     0
  9
$INSUNITS
 70
     4
  9
$HYPERLINKBASE
  1

  9
$STYLESHEET
  1

  9
$XEDIT
290
     1
  9
$CEPSNTYPE
380
     0
  9
$PSTYLEMODE
290
     1
  9
$FINGERPRINTGUID
  2
{C24E629F-439D-42B9-B0E8-9D8426DA77BC}
  9
$VERSIONGUID
  2
{FAEB1C32-E019-11D5-929B-00C0DF256EC4}
  9
$EXTNAMES
290
     1
  9
$PSVPSCALE
 40
0.0
  9
$OLESTARTUP
290
     0
  9
$SORTENTS
280
   127
  9
$INDEXCTL
280
     0
  9
$HIDETEXT
280
     1
  9
$XCLIPFRAME
290
     0
  9
$HALOGAP
280
     0
  9
$OBSCOLOR
 70
   257
  9
$OBSLTYPE
280
     0
  9
$INTERSECTIONDISPLAY
280
     0
  9
$INTERSECTIONCOLOR
 70
   257
  9
$DIMASSOC
280
     2
  9
$PROJECTNAME
  1

  0
ENDSEC
  0
SECTION
  2
CLASSES
  0
CLASS
  1
ACDBDICTIONARYWDFLT
  2
AcDbDictionaryWithDefault
  3
ObjectDBX Classes
 90
        0
 91
        4
280
     0
281
     0
  0
CLASS
  1
VISUALSTYLE
  2
AcDbVisualStyle
  3
ObjectDBX Classes
 90
     4095
 91
        4
280
     0
281
     0
  0
ENDSEC
  0
SECTION
  2
TABLES
  0
TABLE
  2
VPORT
  5
8
330
0
100
AcDbSymbolTable
 70
     1
  0
VPORT
  5
29
330
8
100
AcDbSymbolTableRecord
100
AcDbViewportTableRecord
  2
*Active
 70
     0
 10
0.0
 20
0.0
 11
1.0
 21
1.0
 12
0.0
 22
0.0
 13
0.0
 23
0.0
 14
10.0
 24
10.0
 15
10.0
 25
10.0
 16
0.0
 26
0.0
 36
1.0
 17
0.0
 27
0.0
 37
0.0
 40
1633.5
 41
1.414141414141414
 42
50.0
 43
0.0
 44
0.0
 50
0.0
 51
0.0
 71
     0
 72
 10000
 73
     1
 74
     3
 75
     0
 76
     0
 77
     0
 78
     0
281
     0
 65
     1
110
0.0
120
0.0
130
0.0
111
1.0
121
0.0
131
0.0
112
0.0
122
1.0
132
0.0
 79
     0
146
0.0
  0
ENDTAB
  0
TABLE
  2
LTYPE
  5
5
330
0
100
AcDbSymbolTable
 70
     3
  0
LTYPE
  5
14
330
5
100
AcDbSymbolTableRecord
100
AcDbLinetypeTableRecord
  2
ByBlock
 70
     0
  3

 72
    65
 73
     0
 40
0.0
  0
LTYPE
  5
15
330
5
100
AcDbSymbolTableRecord
100
AcDbLinetypeTableRecord
  2
ByLayer
 70
     0
  3

 72
    65
 73
     0
 40
0.0
  0
LTYPE
  5
16
330
5
100
AcDbSymbolTableRecord
100
AcDbLinetypeTableRecord
  2
Continuous
 70
     0
  3
Solid line
 72
    65
 73
     0
 40
0.0
  0
LTYPE
  5
3C
330
5
100
AcDbSymbolTableRecord
100
AcDbLinetypeTableRecord
  2
JWW_CENTER1
 70
     0
  3
-----  --  ----------  --  -----
 72
    65
 73
     4
 40
6.773333333333333
 49
4.233333333333333
 74
     0
 49
-0.8466666666666667
 74
     0
 49
0.8466666666666667
 74
     0
 49
-0.8466666666666667
 74
     0
  0
LTYPE
  5
3D
330
5
100
AcDbSymbolTableRecord
100
AcDbLinetypeTableRecord
  2
JWW_DASHED3
 70
     0
  3
---  ------  ------  ------  ---
 72
    65
 73
     2
 40
3.386666666666667
 49
2.54
 74
     0
 49
-0.8466666666666667
 74
     0
  0
ENDTAB
  0
TABLE
  2
LAYER
  5
2
330
0
100
AcDbSymbolTable
 70
     6
  0
LAYER
  5
10
330
2
100
AcDbSymbolTableRecord
100
AcDbLayerTableRecord
  2
0
 70
     0
 62
     7
  6
Continuous
370
    -3
390
F
  0
LAYER
  5
3E
330
2
100
AcDbSymbolTableRecord
100
AcDbLayerTableRecord
  2
F-5ﾚｲﾔ
 70
     0
 62
     7
  6
Continuous
370
    -3
390
F
  0
LAYER
  5
3F
330
2
100
AcDbSymbolTableRecord
100
AcDbLayerTableRecord
  2
0-E
 70
     0
 62
     7
  6
Continuous
370
    -3
390
F
  0
LAYER
  5
40
330
2
100
AcDbSymbolTableRecord
100
AcDbLayerTableRecord
  2
0-F
 70
     0
 62
     7
  6
Continuous
370
    -3
390
F
  0
LAYER
  5
41
330
2
100
AcDbSymbolTableRecord
100
AcDbLayerTableRecord
  2
0-1
 70
     0
 62
     7
  6
Continuous
370
    -3
390
F
  0
LAYER
  5
42
330
2
100
AcDbSymbolTableRecord
100
AcDbLayerTableRecord
  2
0-0
 70
     0
 62
     7
  6
Continuous
370
    -3
390
F
  0
ENDTAB
  0
TABLE
  2
STYLE
  5
3
330
0
100
AcDbSymbolTable
 70
     2
  0
STYLE
  5
11
330
3
100
AcDbSymbolTableRecord
100
AcDbTextStyleTableRecord
  2
Standard
 70
     0
 40
0.0
 41
1.0
 50
0.0
 71
     0
 42
2.5
  3
txt
  4

1001
ACAD
1000

1071
        0
  0
STYLE
  5
3B
330
3
100
AcDbSymbolTableRecord
100
AcDbTextStyleTableRecord
  2
ＭＳ ゴシック
 70
     0
 40
1.0
 41
1.0
 50
0.0
 71
     0
 42
10.0
  3

  4

1001
ACAD
1000
MS Gothic
1071
    32817
  0
ENDTAB
  0
TABLE
  2
VIEW
  5
6
330
0
100
AcDbSymbolTable
 70
     0
  0
ENDTAB
  0
TABLE
  2
UCS
  5
7
330
0
100
AcDbSymbolTable
 70
     0
  0
ENDTAB
  0
TABLE
  2
APPID
  5
9
330
0
100
AcDbSymbolTable
 70
     1
  0
APPID
  5
12
330
9
100
AcDbSymbolTableRecord
100
AcDbRegAppTableRecord
  2
ACAD
 70
     0
  0
ENDTAB
  0
TABLE
  2
DIMSTYLE
  5
A
330
0
100
AcDbSymbolTable
 70
     1
100
AcDbDimStyleTable
  0
DIMSTYLE
105
27
330
A
100
AcDbSymbolTableRecord
100
AcDbDimStyleTableRecord
  2
ISO-25
 70
     0
 41
2.5
 42
0.625
 43
3.75
 44
1.25
 73
     0
 74
     0
 77
     1
 78
     8
140
2.5
141
2.5
143
0.03937007874016
147
0.625
171
     3
172
     1
271
     2
272
     2
274
     3
278
    44
283
     0
284
     8
340
11
  0
ENDTAB
  0
TABLE
  2
BLOCK_RECORD
  5
1
330
0
100
AcDbSymbolTable
 70
     1
  0
BLOCK_RECORD
  5
1F
330
1
100
AcDbSymbolTableRecord
100
AcDbBlockTableRecord
  2
*Model_Space
340
22
  0
BLOCK_RECORD
  5
1B
330
1
100
AcDbSymbolTableRecord
100
AcDbBlockTableRecord
  2
*Paper_Space
340
1E
  0
BLOCK_RECORD
  5
23
330
1
100
AcDbSymbolTableRecord
100
AcDbBlockTableRecord
  2
*Paper_Space0
340
26
  0
ENDTAB
  0
ENDSEC
  0
SECTION
  2
BLOCKS
  0
BLOCK
  5
20
330
1F
100
AcDbEntity
  8
0
100
AcDbBlockBegin
  2
*Model_Space
 70
     0
 10
0.0
 20
0.0
 30
0.0
  3
*Model_Space
  1

  0
ENDBLK
  5
21
330
1F
100
AcDbEntity
  8
0
100
AcDbBlockEnd
  0
BLOCK
  5
1C
330
1B
100
AcDbEntity
 67
     1
  8
0
100
AcDbBlockBegin
  2
*Paper_Space
 70
     0
 10
0.0
 20
0.0
 30
0.0
  3
*Paper_Space
  1

  0
ENDBLK
  5
1D
330
1B
100
AcDbEntity
 67
     1
  8
0
100
AcDbBlockEnd
  0
BLOCK
  5
24
330
23
100
AcDbEntity
  8
0
100
AcDbBlockBegin
  2
*Paper_Space0
 70
     0
 10
0.0
 20
0.0
 30
0.0
  3
*Paper_Space0
  1

  0
ENDBLK
  5
25
330
23
100
AcDbEntity
  8
0
100
AcDbBlockEnd
  0
ENDSEC
  0
SECTION
  2
ENTITIES
  0
TEXT
  5
43
330
1F
100
AcDbEntity
  8
F-5ﾚｲﾔ
  6
Continuous
 62
     3
370
     9
100
AcDbText
 10
-422.5308056646456
 20
-660.3616293644928
 30
0.0
 40
15.24
  1
タイル用　充填深さ40㎜　鋳鉄製　集水桝用
 41
0.9462499999999997
  7
ＭＳ ゴシック
100
AcDbText
  0
LINE
  5
44
330
1F
100
AcDbEntity
  8
0-E
  6
Continuous
 62
     7
370
     9
100
AcDbLine
 10
394.8669278943865
 20
561.689238677154
 30
0.0
 11
383.6930403838289
 21
571.6964474239867
 31
0.0
  0
LINE
  5
45
330
1F
100
AcDbEntity
  8
0-E
  6
Continuous
 62
     7
370
     9
100
AcDbLine
 10
394.8669278943865
 20
561.689238677154
 30
0.0
 11
386.6639266142977
 21
574.247551995355
 31
0.0
  0
LINE
  5
46
330
1F
100
AcDbEntity
  8
0-E
  6
Continuous
 62
     7
370
     9
100
AcDbLine
 10
447.8752187780435
 20
590.6891858899917
 30
0.0
 11
453.7490690076677
 21
604.4913791965797
 31
0.0
  0
LINE
  5
47
330
1F
100
AcDbEntity
  8
0-E
  6
Continuous
 62
     7
370
     9
100
AcDbLine
 10
447.8752187780435
 20
590.6891858899917
 30
0.0
 11
457.1211789105388
 21
602.50072582348
 31
0.0
  0
LINE
  5
48
330
1F
100
AcDbEntity
  8
0-E
  6
Continuous
 62
     7
370
     9
100
AcDbLine
 10
320.3223408879461
 20
648.5007786106422
 30
0.0
 11
394.8669278943865
 21
561.689238677154
 31
0.0
  0
LINE
  5
49
330
1F
100
AcDbEntity
  8
0-F
  6
Continuous
 62
     7
370
     9
100
AcDbLine
 10
-752.6623442366316
 20
622.23949535473
 30
0.0
 11
-652.6622617566908
 21
622.23949535473
 31
0.0
  0
LINE
  5
4A
330
1F
100
AcDbEntity
  8
0-F
  6
Continuous
 62
     7
370
     9
100
AcDbLine
 10
-752.6623442366316
 20
622.23949535473
 30
0.0
 11
-737.790654156659
 21
624.1973629513304
 31
0.0
  0
LINE
  5
4B
330
1F
100
AcDbEntity
  8
0-F
  6
Continuous
 62
     7
370
     9
100
AcDbLine
 10
-752.6623442366316
 20
622.23949535473
 30
0.0
 11
-737.790654156659
 21
620.2816277581294
 31
0.0
  0
LINE
  5
4C
330
1F
100
AcDbEntity
  8
0-F
  6
Continuous
 62
     7
370
     9
100
AcDbLine
 10
-652.6622617566908
 20
622.23949535473
 30
0.0
 11
-667.5338899767075
 21
624.1973629513304
 31
0.0
  0
LINE
  5
4D
330
1F
100
AcDbEntity
  8
0-F
  6
Continuous
 62
     7
370
     9
100
AcDbLine
 10
-652.6622617566908
 20
622.23949535473
 30
0.0
 11
-667.5338899767075
 21
620.2816277581294
 31
0.0
  0
LINE
  5
4E
330
1F
100
AcDbEntity
  8
0-F
  6
Continuous
 62
     7
370
     9
100
AcDbLine
 10
-152.6622823766758
 20
622.23949535473
 30
0.0
 11
-52.66238547660194
 21
622.23949535473
 31
0.0
  0
LINE
  5
4F
330
1F
100
AcDbEntity
  8
0-F
  6
Continuous
 62
     7
370
     9
100
AcDbLine
 10
-152.6622823766758
 20
622.23949535473
 30
0.0
 11
-137.7905922967034
 21
624.1973629513304
 31
0.0
  0
LINE
  5
50
330
1F
100
AcDbEntity
  8
0-F
  6
Continuous
 62
     7
370
     9
100
AcDbLine
 10
-152.6622823766758
 20
622.23949535473
 30
0.0
 11
-137.7905922967034
 21
620.2816277581294
 31
0.0
  0
LINE
  5
51
330
1F
100
AcDbEntity
  8
0-F
  6
Continuous
 62
     7
370
     9
100
AcDbLine
 10
-52.66238547660194
 20
622.23949535473
 30
0.0
 11
-67.53395183666328
 21
624.1973629513304
 31
0.0
  0
LINE
  5
52
330
1F
100
AcDbEntity
  8
0-F
  6
Continuous
 62
     7
370
     9
100
AcDbLine
 10
-52.66238547660194
 20
622.23949535473
 30
0.0
 11
-67.53395183666328
 21
620.2816277581294
 31
0.0
  0
LINE
  5
53
330
1F
100
AcDbEntity
  8
0-F
  6
Continuous
 62
     7
370
     9
100
AcDbLine
 10
-752.6623442366316
 20
566.6892551731421
 30
0.0
 11
-752.6623442366316
 21
623.7394755595443
 31
0.0
  0
LINE
  5
54
330
1F
100
AcDbEntity
  8
0-F
  6
Continuous
 62
     7
370
     9
100
AcDbLine
 10
-52.66238547660194
 20
566.6892551731421
 30
0.0
 11
-52.66238547660194
 21
623.7394755595443
 31
0.0
  0
LINE
  5
55
330
1F
100
AcDbEntity
  8
0-F
  6
Continuous
 62
     7
370
     9
100
AcDbLine
 10
-749.4623905903585
 20
-377.3639410895268
 30
0.0
 11
-749.4623905903585
 21
-289.1496648015202
 31
0.0
  0
LINE
  5
56
330
1F
100
AcDbEntity
  8
0-F
  6
Continuous
 62
     7
370
     9
100
AcDbLine
 10
-752.6623442366316
 20
-377.3639410895268
 30
0.0
 11
-752.6623442366316
 21
-246.4189106709247
 31
0.0
  0
LINE
  5
57
330
1F
100
AcDbEntity
  8
0-F
  6
Continuous
 62
     7
370
     9
100
AcDbLine
 10
-752.6623442366316
 20
-290.6496450063344
 30
0.0
 11
-767.5341580365155
 21
-288.6919011296452
 31
0.0
  0
LINE
  5
58
330
1F
100
AcDbEntity
  8
0-F
  6
Continuous
 62
     7
370
     9
100
AcDbLine
 10
-752.6623442366316
 20
-290.6496450063344
 30
0.0
 11
-767.5341580365155
 21
-292.6073888830234
 31
0.0
  0
LINE
  5
59
330
1F
100
AcDbEntity
  8
0-F
  6
Continuous
 62
     7
370
     9
100
AcDbLine
 10
-747.6623277406434
 20
-377.3639410895268
 30
0.0
 11
-747.6623277406434
 21
-289.1496648015202
 31
0.0
  0
LINE
  5
5A
330
1F
100
AcDbEntity
  8
0-F
  6
Continuous
 62
     7
370
     9
100
AcDbLine
 10
-747.6623277406434
 20
-290.6496450063344
 30
0.0
 11
-732.7906995206265
 21
-288.6919011296452
 31
0.0
  0
LINE
  5
5B
330
1F
100
AcDbEntity
  8
0-F
  6
Continuous
 62
     7
370
     9
100
AcDbLine
 10
-747.6623277406434
 20
-290.6496450063344
 30
0.0
 11
-732.7906995206265
 21
-292.6073888830234
 31
0.0
  0
LINE
  5
5C
330
1F
100
AcDbEntity
  8
0-F
  6
Continuous
 62
     7
370
     9
100
AcDbLine
 10
-57.6622782526789
 20
-377.3639410895268
 30
0.0
 11
-57.6622782526789
 21
-289.1496648015202
 31
0.0
  0
LINE
  5
5D
330
1F
100
AcDbEntity
  8
0-F
  6
Continuous
 62
     7
370
     9
100
AcDbLine
 10
-55.86240098283085
 20
-377.3639410895268
 30
0.0
 11
-55.86240098283085
 21
-289.1496648015202
 31
0.0
  0
LINE
  5
5E
330
1F
100
AcDbEntity
  8
0-F
  6
Continuous
 62
     7
370
     9
100
AcDbLine
 10
-57.6622782526789
 20
-290.6496450063344
 30
0.0
 11
-72.53390647269569
 21
-288.6919011296452
 31
0.0
  0
LINE
  5
5F
330
1F
100
AcDbEntity
  8
0-F
  6
Continuous
 62
     7
370
     9
100
AcDbLine
 10
-57.6622782526789
 20
-290.6496450063344
 30
0.0
 11
-72.53390647269569
 21
-292.6073888830234
 31
0.0
  0
LINE
  5
60
330
1F
100
AcDbEntity
  8
0-F
  6
Continuous
 62
     7
370
     9
100
AcDbLine
 10
-52.66238547660194
 20
-290.6496450063344
 30
0.0
 11
-37.79075725658515
 21
-288.6919011296452
 31
0.0
  0
LINE
  5
61
330
1F
100
AcDbEntity
  8
0-F
  6
Continuous
 62
     7
370
     9
100
AcDbLine
 10
-52.66238547660194
 20
-290.6496450063344
 30
0.0
 11
-37.79075725658515
 21
-292.6073888830234
 31
0.0
  0
LINE
  5
62
330
1F
100
AcDbEntity
  8
0-F
  6
Continuous
 62
     7
370
     9
100
AcDbLine
 10
-52.66238547660194
 20
-377.3639410895268
 30
0.0
 11
-52.66238547660194
 21
-246.4189106709247
 31
0.0
  0
LINE
  5
63
330
1F
100
AcDbEntity
  8
0-F
  6
Continuous
 62
     7
370
     9
100
AcDbLine
 10
-752.6623442366316
 20
-247.9188908757389
 30
0.0
 11
-52.66238547660194
 21
-247.9188908757389
 31
0.0
  0
LINE
  5
64
330
1F
100
AcDbEntity
  8
0-F
  6
Continuous
 62
     7
370
     9
100
AcDbLine
 10
-752.6623442366316
 20
-247.9188908757389
 30
0.0
 11
-737.790654156659
 21
-245.9611469990497
 31
0.0
  0
LINE
  5
65
330
1F
100
AcDbEntity
  8
0-F
  6
Continuous
 62
     7
370
     9
100
AcDbLine
 10
-752.6623442366316
 20
-247.9188908757389
 30
0.0
 11
-737.790654156659
 21
-249.8771296320734
 31
0.0
  0
LINE
  5
66
330
1F
100
AcDbEntity
  8
0-F
  6
Continuous
 62
     7
370
     9
100
AcDbLine
 10
-52.66238547660194
 20
-247.9188908757389
 30
0.0
 11
-67.53395183666328
 21
-245.9611469990497
 31
0.0
  0
LINE
  5
67
330
1F
100
AcDbEntity
  8
0-F
  6
Continuous
 62
     7
370
     9
100
AcDbLine
 10
-52.66238547660194
 20
-247.9188908757389
 30
0.0
 11
-67.53395183666328
 21
-249.8771296320734
 31
0.0
  0
LINE
  5
68
330
1F
100
AcDbEntity
  8
0-F
  6
Continuous
 62
     7
370
     9
100
AcDbLine
 10
355.6754292668523
 20
-135.1107664366025
 30
0.0
 11
234.175424318056
 21
-135.1107664366025
 31
0.0
  0
LINE
  5
69
330
1F
100
AcDbEntity
  8
0-F
  6
Continuous
 62
     7
370
     9
100
AcDbLine
 10
235.6754045228703
 20
-138.3107200828756
 30
0.0
 11
233.7175369262697
 21
-153.1824101628483
 31
0.0
  0
LINE
  5
6A
330
1F
100
AcDbEntity
  8
0-F
  6
Continuous
 62
     7
370
     9
100
AcDbLine
 10
235.6754045228703
 20
-186.7800367200695
 30
0.0
 11
235.6754045228703
 21
608.310984018687
 31
0.0
  0
LINE
  5
6B
330
1F
100
AcDbEntity
  8
0-F
  6
Continuous
 62
     7
370
     9
100
AcDbLine
 10
355.6754292668523
 20
-133.3109510267101
 30
0.0
 11
234.175424318056
 21
-133.3109510267101
 31
0.0
  0
LINE
  5
6C
330
1F
100
AcDbEntity
  8
0-F
  6
Continuous
 62
     7
370
     9
100
AcDbLine
 10
235.6754045228703
 20
-133.3109510267101
 30
0.0
 11
233.7175369262697
 21
-118.4392609467375
 31
0.0
  0
LINE
  5
6D
330
1F
100
AcDbEntity
  8
0-F
  6
Continuous
 62
     7
370
     9
100
AcDbLine
 10
235.6754045228703
 20
-133.3109510267101
 30
0.0
 11
237.6332721194707
 21
-118.4392609467375
 31
0.0
  0
LINE
  5
6E
330
1F
100
AcDbEntity
  8
0-F
  6
Continuous
 62
     7
370
     9
100
AcDbLine
 10
235.6754045228703
 20
556.6893459010771
 30
0.0
 11
233.7175369262697
 21
541.8177176810602
 31
0.0
  0
LINE
  5
6F
330
1F
100
AcDbEntity
  8
0-F
  6
Continuous
 62
     7
370
     9
100
AcDbLine
 10
235.6754045228703
 20
556.6893459010771
 30
0.0
 11
237.6332721194707
 21
541.8177176810602
 31
0.0
  0
LINE
  5
70
330
1F
100
AcDbEntity
  8
0-F
  6
Continuous
 62
     7
370
     9
100
AcDbLine
 10
355.6754292668523
 20
561.6889912373313
 30
0.0
 11
184.1753830780856
 21
561.6889912373313
 31
0.0
  0
LINE
  5
71
330
1F
100
AcDbEntity
  8
0-F
  6
Continuous
 62
     7
370
     9
100
AcDbLine
 10
235.6754045228703
 20
561.6889912373313
 30
0.0
 11
233.7175369262697
 21
576.5606194573481
 31
0.0
  0
LINE
  5
72
330
1F
100
AcDbEntity
  8
0-F
  6
Continuous
 62
     7
370
     9
100
AcDbLine
 10
235.6754045228703
 20
561.6889912373313
 30
0.0
 11
237.6332721194707
 21
576.5606194573481
 31
0.0
  0
LINE
  5
73
330
1F
100
AcDbEntity
  8
0-F
  6
Continuous
 62
     7
370
     9
100
AcDbLine
 10
235.6754045228703
 20
-138.3107200828756
 30
0.0
 11
237.6332721194707
 21
-153.1824101628483
 31
0.0
  0
LINE
  5
74
330
1F
100
AcDbEntity
  8
0-F
  6
Continuous
 62
     7
370
     9
100
AcDbLine
 10
185.6753632828998
 20
-138.3107200828756
 30
0.0
 11
183.7174956862992
 21
-123.4390300029031
 31
0.0
  0
LINE
  5
75
330
1F
100
AcDbEntity
  8
0-F
  6
Continuous
 62
     7
370
     9
100
AcDbLine
 10
185.6753632828998
 20
-138.3107200828756
 30
0.0
 11
187.6332308795001
 21
-123.4390300029031
 31
0.0
  0
LINE
  5
76
330
1F
100
AcDbEntity
  8
0-F
  6
Continuous
 62
     7
370
     9
100
AcDbLine
 10
185.6753632828998
 20
561.689238677154
 30
0.0
 11
183.7174956862992
 21
546.8176104571371
 31
0.0
  0
LINE
  5
77
330
1F
100
AcDbEntity
  8
0-F
  6
Continuous
 62
     7
370
     9
100
AcDbLine
 10
185.6753632828998
 20
561.689238677154
 30
0.0
 11
187.6332308795001
 21
546.8176104571371
 31
0.0
  0
LINE
  5
78
330
1F
100
AcDbEntity
  8
0-F
  6
Continuous
 62
     7
370
     9
100
AcDbLine
 10
527.8752352740315
 20
-167.3107910156247
 30
0.0
 11
525.917367677431
 21
-182.1824810955974
 31
0.0
  0
LINE
  5
79
330
1F
100
AcDbEntity
  8
0-F
  6
Continuous
 62
     7
370
     9
100
AcDbLine
 10
527.8752352740315
 20
-167.3107910156247
 30
0.0
 11
529.8331028706323
 21
-182.1824810955974
 31
0.0
  0
LINE
  5
7A
330
1F
100
AcDbEntity
  8
0-F
  6
Continuous
 62
     7
370
     9
100
AcDbLine
 10
527.8752352740315
 20
-188.2576236209351
 30
0.0
 11
527.8752352740315
 21
612.3853281381971
 31
0.0
  0
LINE
  5
7B
330
1F
100
AcDbEntity
  8
0-F
  6
Continuous
 62
     7
370
     9
100
AcDbLine
 10
527.8752352740315
 20
-138.3107200828756
 30
0.0
 11
525.917367677431
 21
-123.4390300029031
 31
0.0
  0
LINE
  5
7C
330
1F
100
AcDbEntity
  8
0-F
  6
Continuous
 62
     7
370
     9
100
AcDbLine
 10
527.8752352740315
 20
-138.3107200828756
 30
0.0
 11
529.8331028706323
 21
-123.4390300029031
 31
0.0
  0
LINE
  5
7D
330
1F
100
AcDbEntity
  8
0-F
  6
Continuous
 62
     7
370
     9
100
AcDbLine
 10
529.8331028706323
 20
-73.43911248284414
 30
0.0
 11
525.917367677431
 21
-103.182492642789
 31
0.0
  0
LINE
  5
7E
330
1F
100
AcDbEntity
  8
0-F
  6
Continuous
 62
     7
370
     9
100
AcDbLine
 10
525.917367677431
 20
-73.43911248284414
 30
0.0
 11
529.8331028706323
 21
-103.182492642789
 31
0.0
  0
LINE
  5
7F
330
1F
100
AcDbEntity
  8
0-F
  6
Continuous
 62
     7
370
     9
100
AcDbLine
 10
529.8331028706323
 20
526.5608256572004
 30
0.0
 11
525.917367677431
 21
496.8175692171667
 31
0.0
  0
LINE
  5
80
330
1F
100
AcDbEntity
  8
0-F
  6
Continuous
 62
     7
370
     9
100
AcDbLine
 10
525.917367677431
 20
526.5608256572004
 30
0.0
 11
529.8331028706323
 21
496.8175692171667
 31
0.0
  0
LINE
  5
81
330
1F
100
AcDbEntity
  8
0-F
  6
Continuous
 62
     7
370
     9
100
AcDbLine
 10
527.8752352740315
 20
561.6891149572426
 30
0.0
 11
525.917367677431
 21
546.8174867372259
 31
0.0
  0
LINE
  5
82
330
1F
100
AcDbEntity
  8
0-F
  6
Continuous
 62
     7
370
     9
100
AcDbLine
 10
527.8752352740315
 20
561.6891149572426
 30
0.0
 11
529.8331028706323
 21
546.8174867372259
 31
0.0
  0
LINE
  5
83
330
1F
100
AcDbEntity
  8
0-F
  6
Continuous
 62
     7
370
     9
100
AcDbLine
 10
527.8752352740315
 20
590.6891858899917
 30
0.0
 11
525.917367677431
 21
605.5608141100086
 31
0.0
  0
LINE
  5
84
330
1F
100
AcDbEntity
  8
0-F
  6
Continuous
 62
     7
370
     9
100
AcDbLine
 10
527.8752352740315
 20
590.6891858899917
 30
0.0
 11
529.8331028706323
 21
605.5608141100086
 31
0.0
  0
LINE
  5
85
330
1F
100
AcDbEntity
  8
0-F
  6
Continuous
 62
     7
370
     9
100
AcDbLine
 10
360.6754457628406
 20
-213.3107200828756
 30
0.0
 11
420.6753962748761
 21
-213.3107200828756
 31
0.0
  0
LINE
  5
86
330
1F
100
AcDbEntity
  8
0-F
  6
Continuous
 62
     7
370
     9
100
AcDbLine
 10
360.6754457628406
 20
-213.3107200828756
 30
0.0
 11
375.5470739828576
 21
-211.3528524862751
 31
0.0
  0
LINE
  5
87
330
1F
100
AcDbEntity
  8
0-F
  6
Continuous
 62
     7
370
     9
100
AcDbLine
 10
360.6754457628406
 20
-213.3107200828756
 30
0.0
 11
375.5470739828576
 21
-215.2685876794762
 31
0.0
  0
LINE
  5
88
330
1F
100
AcDbEntity
  8
0-F
  6
Continuous
 62
     7
370
     9
100
AcDbLine
 10
360.6754457628406
 20
-263.3107613228462
 30
0.0
 11
375.5470739828576
 21
-261.3527700063344
 31
0.0
  0
LINE
  5
89
330
1F
100
AcDbEntity
  8
0-F
  6
Continuous
 62
     7
370
     9
100
AcDbLine
 10
360.6754457628406
 20
-263.3107613228462
 30
0.0
 11
375.5470739828576
 21
-265.2686289194466
 31
0.0
  0
LINE
  5
8A
330
1F
100
AcDbEntity
  8
0-F
  6
Continuous
 62
     7
370
     9
100
AcDbLine
 10
360.6754457628406
 20
-143.3107365788639
 30
0.0
 11
360.6754457628406
 21
-264.8107415276604
 31
0.0
  0
LINE
  5
8B
330
1F
100
AcDbEntity
  8
0-F
  6
Continuous
 62
     7
370
     9
100
AcDbLine
 10
355.6754292668523
 20
-138.3107200828756
 30
0.0
 11
184.1753830780856
 21
-138.3107200828756
 31
0.0
  0
LINE
  5
8C
330
1F
100
AcDbEntity
  8
0-F
  6
Continuous
 62
     7
370
     9
100
AcDbLine
 10
355.6754292668523
 20
558.489223170925
 30
0.0
 11
234.175424318056
 21
558.489223170925
 31
0.0
  0
LINE
  5
8D
330
1F
100
AcDbEntity
  8
0-E
  6
Continuous
 62
     7
370
     9
100
AcDbLine
 10
437.6753781292888
 20
292.771825017156
 30
0.0
 11
450.7588824710331
 21
300.1081064585094
 31
0.0
  0
LINE
  5
8E
330
1F
100
AcDbEntity
  8
0-E
  6
Continuous
 62
     7
370
     9
100
AcDbLine
 10
437.6753781292888
 20
292.771825017156
 30
0.0
 11
452.2118491095469
 21
296.4718545449749
 31
0.0
  0
LINE
  5
8F
330
1F
100
AcDbEntity
  8
0-F
  6
Continuous
 62
     7
370
     9
100
AcDbLine
 10
360.6756932026636
 20
81.36456051388322
 30
0.0
 11
475.1756255691117
 21
81.36456051388322
 31
0.0
  0
LINE
  5
90
330
1F
100
AcDbEntity
  8
0-F
  6
Continuous
 62
     7
370
     9
100
AcDbLine
 10
360.6756932026636
 20
81.36456051388322
 30
0.0
 11
375.5473214226802
 21
83.32242811048374
 31
0.0
  0
LINE
  5
91
330
1F
100
AcDbEntity
  8
0-F
  6
Continuous
 62
     7
370
     9
100
AcDbLine
 10
360.6756932026636
 20
81.36456051388322
 30
0.0
 11
375.5473214226802
 21
79.4066929172827
 31
0.0
  0
LINE
  5
92
330
1F
100
AcDbEntity
  8
0-F
  6
Continuous
 62
     7
370
     9
100
AcDbLine
 10
400.6754540108346
 20
81.36456051388322
 30
0.0
 11
385.803825790818
 21
83.32242811048374
 31
0.0
  0
LINE
  5
93
330
1F
100
AcDbEntity
  8
0-F
  6
Continuous
 62
     7
370
     9
100
AcDbLine
 10
400.6754540108346
 20
81.36456051388322
 30
0.0
 11
385.803825790818
 21
79.4066929172827
 31
0.0
  0
LINE
  5
94
330
1F
100
AcDbEntity
  8
0-F
  6
Continuous
 62
     7
370
     9
100
AcDbLine
 10
412.882402780894
 20
118.5467859216641
 30
0.0
 11
404.4254045228701
 21
81.36456051388322
 31
0.0
  0
LINE
  5
95
330
1F
100
AcDbEntity
  8
0-F
  6
Continuous
 62
     7
370
     9
100
AcDbLine
 10
452.8752352740315
 20
561.6891149572426
 30
0.0
 11
529.3752154788456
 21
561.6891149572426
 31
0.0
  0
LINE
  5
96
330
1F
100
AcDbEntity
  8
0-F
  6
Continuous
 62
     7
370
     9
100
AcDbLine
 10
452.8752352740315
 20
590.6891858899917
 30
0.0
 11
529.3752154788456
 21
590.6891858899917
 31
0.0
  0
LINE
  5
97
330
1F
100
AcDbEntity
  8
0-F
  6
Continuous
 62
     7
370
     9
100
AcDbLine
 10
437.6753781292888
 20
81.36456051388322
 30
0.0
 11
452.547006349306
 21
79.4066929172827
 31
0.0
  0
LINE
  5
98
330
1F
100
AcDbEntity
  8
0-F
  6
Continuous
 62
     7
370
     9
100
AcDbLine
 10
452.8752352740315
 20
-167.3107910156247
 30
0.0
 11
529.3752154788456
 21
-167.3107910156247
 31
0.0
  0
LINE
  5
99
330
1F
100
AcDbEntity
  8
0-F
  6
Continuous
 62
     7
370
     9
100
AcDbLine
 10
452.8752352740315
 20
-138.3107200828756
 30
0.0
 11
529.3752154788456
 21
-138.3107200828756
 31
0.0
  0
LINE
  5
9A
330
1F
100
AcDbEntity
  8
0-1
  6
Continuous
 62
     2
370
     9
100
AcDbLine
 10
-746.46243018073
 20
-442.3640318174619
 30
0.0
 11
-702.6623648566168
 21
-442.3640318174619
 31
0.0
  0
LINE
  5
9B
330
1F
100
AcDbEntity
  8
0-1
  6
Continuous
 62
     2
370
     9
100
AcDbLine
 10
-749.4623905903585
 20
-382.3639575855151
 30
0.0
 11
-749.4623905903585
 21
-439.3640714078334
 31
0.0
  0
LINE
  5
9C
330
1F
100
AcDbEntity
  8
0-1
  6
Continuous
 62
     2
370
     9
100
AcDbLine
 10
-746.6623615574191
 20
-445.5639236037796
 30
0.0
 11
-702.6623648566168
 21
-445.5639236037796
 31
0.0
  0
LINE
  5
9D
330
1F
100
AcDbEntity
  8
0-1
  6
Continuous
 62
     2
370
     9
100
AcDbLine
 10
-752.6623442366316
 20
-382.3639575855151
 30
0.0
 11
-749.4623905903585
 21
-382.3639575855151
 31
0.0
  0
LINE
  5
9E
330
1F
100
AcDbEntity
  8
0-1
  6
Continuous
 62
     2
370
     9
100
AcDbLine
 10
-702.6623648566168
 20
-442.3640318174619
 30
0.0
 11
-702.6623648566168
 21
-445.5639236037796
 31
0.0
  0
LINE
  5
9F
330
1F
100
AcDbEntity
  8
0-1
  6
Continuous
 62
     2
370
     9
100
AcDbLine
 10
-102.6624267165725
 20
-442.3640318174619
 30
0.0
 11
-102.6624267165725
 21
-445.5639236037796
 31
0.0
  0
LINE
  5
A0
330
1F
100
AcDbEntity
  8
0-1
  6
Continuous
 62
     2
370
     9
100
AcDbLine
 10
-52.66238547660194
 20
-382.3639575855151
 30
0.0
 11
-55.86240098283085
 21
-382.3639575855151
 31
0.0
  0
LINE
  5
A1
330
1F
100
AcDbEntity
  8
0-1
  6
Continuous
 62
     2
370
     9
100
AcDbLine
 10
-58.66243001577004
 20
-445.5639236037796
 30
0.0
 11
-102.6624267165725
 21
-445.5639236037796
 31
0.0
  0
LINE
  5
A2
330
1F
100
AcDbEntity
  8
0-1
  6
Continuous
 62
     2
370
     9
100
AcDbLine
 10
-55.86240098283085
 20
-382.3639575855151
 30
0.0
 11
-55.86240098283085
 21
-439.3640714078334
 31
0.0
  0
LINE
  5
A3
330
1F
100
AcDbEntity
  8
0-1
  6
Continuous
 62
     2
370
     9
100
AcDbLine
 10
-58.86248511237056
 20
-442.3640318174619
 30
0.0
 11
-102.6624267165725
 21
-442.3640318174619
 31
0.0
  0
LINE
  5
A4
330
1F
100
AcDbEntity
  8
0-F
  6
Continuous
 62
     7
370
     9
100
AcDbLine
 10
-1.989926518620564
 20
-290.6496450063344
 30
0.0
 11
-798.334601118758
 21
-290.6496450063344
 31
0.0
  0
LINE
  5
A5
330
1F
100
AcDbEntity
  8
0-F
  6
Continuous
 62
     7
370
     9
100
AcDbLine
 10
-737.6623566086228
 20
-333.4964484137456
 30
0.0
 11
-67.6622493846996
 21
-333.4964484137456
 31
0.0
  0
LINE
  5
A6
330
1F
100
AcDbEntity
  8
0-F
  6
Continuous
 62
     7
370
     9
100
AcDbLine
 10
-67.6622493846996
 20
-377.3639410895268
 30
0.0
 11
-67.6622493846996
 21
-331.9964063489758
 31
0.0
  0
LINE
  5
A7
330
1F
100
AcDbEntity
  8
0-F
  6
Continuous
 62
     7
370
     9
100
AcDbLine
 10
-737.6623566086228
 20
-377.3639410895268
 30
0.0
 11
-737.6623566086228
 21
-331.9964063489758
 31
0.0
  0
LINE
  5
A8
330
1F
100
AcDbEntity
  8
0-F
  6
Continuous
 62
     7
370
     9
100
AcDbLine
 10
285.6754457628405
 20
-133.3109510267101
 30
0.0
 11
285.6754457628405
 21
556.6893459010771
 31
0.0
  0
LINE
  5
A9
330
1F
100
AcDbEntity
  8
0-F
  6
Continuous
 62
     7
370
     9
100
AcDbLine
 10
355.6754292668523
 20
-88.31080256281666
 30
0.0
 11
284.1754655580266
 21
-88.31080256281666
 31
0.0
  0
LINE
  5
AA
330
1F
100
AcDbEntity
  8
0-F
  6
Continuous
 62
     7
370
     9
100
AcDbLine
 10
284.1754655580266
 20
511.6891974371835
 30
0.0
 11
355.6754292668523
 21
511.6891974371835
 31
0.0
  0
LINE
  5
AB
330
1F
100
AcDbEntity
  8
0-F
  6
Continuous
 62
     7
370
     9
100
AcDbLine
 10
423.8754117811052
 20
-263.3107613228462
 30
0.0
 11
409.0037835610886
 21
-265.2686289194466
 31
0.0
  0
LINE
  5
AC
330
1F
100
AcDbEntity
  8
0-F
  6
Continuous
 62
     7
370
     9
100
AcDbLine
 10
423.8754117811052
 20
-263.3107613228462
 30
0.0
 11
409.0037835610886
 21
-261.3528937262456
 31
0.0
  0
LINE
  5
AD
330
1F
100
AcDbEntity
  8
0-F
  6
Continuous
 62
     7
370
     9
100
AcDbLine
 10
420.6753962748761
 20
-213.3107200828756
 30
0.0
 11
405.8037680548594
 21
-215.2685876794762
 31
0.0
  0
LINE
  5
AE
330
1F
100
AcDbEntity
  8
0-F
  6
Continuous
 62
     7
370
     9
100
AcDbLine
 10
420.6753962748761
 20
-213.3107200828756
 30
0.0
 11
405.8037680548594
 21
-211.3528524862751
 31
0.0
  0
LINE
  5
AF
330
1F
100
AcDbEntity
  8
0-F
  6
Continuous
 62
     7
370
     9
100
AcDbLine
 10
447.8752187780435
 20
-263.3107613228462
 30
0.0
 11
462.7468469980602
 21
-265.2686289194466
 31
0.0
  0
LINE
  5
B0
330
1F
100
AcDbEntity
  8
0-F
  6
Continuous
 62
     7
370
     9
100
AcDbLine
 10
447.8752187780435
 20
-263.3107613228462
 30
0.0
 11
462.7468469980602
 21
-261.3528937262456
 31
0.0
  0
LINE
  5
B1
330
1F
100
AcDbEntity
  8
0-F
  6
Continuous
 62
     7
370
     9
100
AcDbLine
 10
447.8752187780435
 20
-179.5607943148224
 30
0.0
 11
447.8752187780435
 21
-264.8107415276604
 31
0.0
  0
LINE
  5
B2
330
1F
100
AcDbEntity
  8
0-F
  6
Continuous
 62
     7
370
     9
100
AcDbLine
 10
285.6754457628405
 20
511.6891974371835
 30
0.0
 11
287.6333133594412
 21
496.8175692171667
 31
0.0
  0
LINE
  5
B3
330
1F
100
AcDbEntity
  8
0-F
  6
Continuous
 62
     7
370
     9
100
AcDbLine
 10
285.6754457628405
 20
511.6891974371835
 30
0.0
 11
283.7175781662401
 21
496.8175692171667
 31
0.0
  0
LINE
  5
B4
330
1F
100
AcDbEntity
  8
0-F
  6
Continuous
 62
     7
370
     9
100
AcDbLine
 10
287.6333133594412
 20
-103.182492642789
 30
0.0
 11
283.7175781662401
 21
-73.43911248284414
 31
0.0
  0
LINE
  5
B5
330
1F
100
AcDbEntity
  8
0-F
  6
Continuous
 62
     7
370
     9
100
AcDbLine
 10
283.7175781662401
 20
-103.182492642789
 30
0.0
 11
287.6333133594412
 21
-73.43911248284414
 31
0.0
  0
LINE
  5
B6
330
1F
100
AcDbEntity
  8
0-F
  6
Continuous
 62
     7
370
     9
100
AcDbLine
 10
-737.6623566086228
 20
-333.4964484137456
 30
0.0
 11
-722.7906665286501
 21
-331.5386426771008
 31
0.0
  0
LINE
  5
B7
330
1F
100
AcDbEntity
  8
0-F
  6
Continuous
 62
     7
370
     9
100
AcDbLine
 10
-737.6623566086228
 20
-333.4964484137456
 30
0.0
 11
-722.7906665286501
 21
-335.4546871700802
 31
0.0
  0
LINE
  5
B8
330
1F
100
AcDbEntity
  8
0-F
  6
Continuous
 62
     7
370
     9
100
AcDbLine
 10
-67.6622493846996
 20
-333.4964484137456
 30
0.0
 11
-82.53393946467213
 21
-335.4546871700802
 31
0.0
  0
LINE
  5
B9
330
1F
100
AcDbEntity
  8
0-F
  6
Continuous
 62
     7
370
     9
100
AcDbLine
 10
-67.6622493846996
 20
-333.4964484137456
 30
0.0
 11
-82.53393946467213
 21
-331.5386426771008
 31
0.0
  0
LINE
  5
BA
330
1F
100
AcDbEntity
  8
0-E
  6
Continuous
 62
     7
370
     9
100
AcDbLine
 10
573.0115993602857
 20
346.8487466348187
 30
0.0
 11
437.6753781292888
 21
292.771825017156
 31
0.0
  0
LINE
  5
BB
330
1F
100
AcDbEntity
  8
0-F
  6
Continuous
 62
     7
370
     9
100
AcDbLine
 10
437.6753781292888
 20
81.36456051388322
 30
0.0
 11
452.547006349306
 21
83.32242811048374
 31
0.0
  0
LINE
  5
BC
330
1F
100
AcDbEntity
  8
0-E
  6
Continuous
 62
     7
370
     9
100
AcDbLine
 10
486.5378147846948
 20
656.1857646220443
 30
0.0
 11
683.9163548237573
 21
656.1857646220443
 31
0.0
  0
LINE
  5
BD
330
1F
100
AcDbEntity
  8
0-E
  6
Continuous
 62
     7
370
     9
100
AcDbLine
 10
486.5378147846948
 20
656.1857646220443
 30
0.0
 11
447.8752187780435
 21
590.6891858899917
 31
0.0
  0
LINE
  5
BE
330
1F
100
AcDbEntity
  8
0-0
  6
Continuous
 62
     3
370
     9
100
AcDbLine
 10
-394.3524077131941
 20
-429.364038415857
 30
0.0
 11
-304.9721949809306
 21
-429.364038415857
 31
0.0
  0
LINE
  5
BF
330
1F
100
AcDbEntity
  8
0-0
  6
Continuous
 62
     3
370
     9
100
AcDbLine
 10
-58.66230629585857
 20
-382.3639575855151
 30
0.0
 11
-57.6622782526789
 21
-388.3640021246831
 31
0.0
  0
LINE
  5
C0
330
1F
100
AcDbEntity
  8
0-0
  6
Continuous
 62
     3
370
     9
100
AcDbLine
 10
-57.6622782526789
 20
-388.3640021246831
 30
0.0
 11
-61.16231454385286
 21
-442.3640318174619
 31
0.0
  0
LINE
  5
C1
330
1F
100
AcDbEntity
  8
0-1
  6
Continuous
 62
     2
370
     9
100
AcDbLine
 10
-52.66238547660194
 20
561.689238677154
 30
0.0
 11
-752.6623442366316
 21
561.689238677154
 31
0.0
  0
LINE
  5
C2
330
1F
100
AcDbEntity
  8
0-1
  6
Continuous
 62
     2
370
     9
100
AcDbLine
 10
-752.6623442366316
 20
-138.3107200828756
 30
0.0
 11
-52.66238547660194
 21
-138.3107200828756
 31
0.0
  0
LINE
  5
C3
330
1F
100
AcDbEntity
  8
0-1
  6
Continuous
 62
     2
370
     9
100
AcDbLine
 10
-752.6623442366316
 20
561.689238677154
 30
0.0
 11
-752.6623442366316
 21
-138.3107200828756
 31
0.0
  0
LINE
  5
C4
330
1F
100
AcDbEntity
  8
0-1
  6
Continuous
 62
     2
370
     9
100
AcDbLine
 10
-749.462266870447
 20
558.489223170925
 30
0.0
 11
-749.462266870447
 21
-135.1107664366025
 31
0.0
  0
LINE
  5
C5
330
1F
100
AcDbEntity
  8
0-1
  6
Continuous
 62
     2
370
     9
100
AcDbLine
 10
-749.462266870447
 20
-135.1107664366025
 30
0.0
 11
-55.86227726291952
 21
-135.1107664366025
 31
0.0
  0
LINE
  5
C6
330
1F
100
AcDbEntity
  8
0-1
  6
Continuous
 62
     2
370
     9
100
AcDbLine
 10
-55.86227726291952
 20
558.489223170925
 30
0.0
 11
-749.462266870447
 21
558.489223170925
 31
0.0
  0
LINE
  5
C7
330
1F
100
AcDbEntity
  8
0-1
  6
Continuous
 62
     2
370
     9
100
AcDbLine
 10
-657.1623260910445
 20
590.6891858899917
 30
0.0
 11
-648.1622592822924
 21
590.6891858899917
 31
0.0
  0
LINE
  5
C8
330
1F
100
AcDbEntity
  8
0-1
  6
Continuous
 62
     2
370
     9
100
AcDbLine
 10
360.6754457628406
 20
558.489223170925
 30
0.0
 11
360.6754457628406
 21
561.689238677154
 31
0.0
  0
LINE
  5
C9
330
1F
100
AcDbEntity
  8
0-1
  6
Continuous
 62
     2
370
     9
100
AcDbLine
 10
423.8752880611935
 20
511.6891974371835
 30
0.0
 11
420.6753962748761
 21
511.6891974371835
 31
0.0
  0
LINE
  5
CA
330
1F
100
AcDbEntity
  8
0-1
  6
Continuous
 62
     2
370
     9
100
AcDbLine
 10
433.8753210531701
 20
-147.3107250316723
 30
0.0
 11
408.8753622931407
 21
-147.3107250316723
 31
0.0
  0
LINE
  5
CB
330
1F
100
AcDbEntity
  8
0-1
  6
Continuous
 62
     2
370
     9
100
AcDbLine
 10
408.8753622931407
 20
-138.3107200828756
 30
0.0
 11
408.8753622931407
 21
-147.3107250316723
 31
0.0
  0
LINE
  5
CC
330
1F
100
AcDbEntity
  8
0-1
  6
Continuous
 62
     2
370
     9
100
AcDbLine
 10
447.8752187780435
 20
-167.3107910156247
 30
0.0
 11
438.8753375491581
 21
-167.3107910156247
 31
0.0
  0
LINE
  5
CD
330
1F
100
AcDbEntity
  8
0-1
  6
Continuous
 62
     2
370
     9
100
AcDbLine
 10
-648.1622592822924
 20
566.1838593354099
 30
0.0
 11
-648.1622592822924
 21
590.6891858899917
 31
0.0
  0
LINE
  5
CE
330
1F
100
AcDbEntity
  8
0-1
  6
Continuous
 62
     2
370
     9
100
AcDbLine
 10
-657.1623260910445
 20
566.1893030115078
 30
0.0
 11
-657.1623260910445
 21
590.6891858899917
 31
0.0
  0
LINE
  5
CF
330
1F
100
AcDbEntity
  8
0-1
  6
Continuous
 62
     2
370
     9
100
AcDbLine
 10
423.8752880611935
 20
-88.31080256281666
 30
0.0
 11
423.8752880611935
 21
-132.3107992636189
 31
0.0
  0
LINE
  5
D0
330
1F
100
AcDbEntity
  8
0-1
  6
Continuous
 62
     2
370
     9
100
AcDbLine
 10
420.6753962748761
 20
-87.81072668127081
 30
0.0
 11
420.6753962748761
 21
-132.1107441670183
 31
0.0
  0
LINE
  5
D1
330
1F
100
AcDbEntity
  8
0-1
  6
Continuous
 62
     2
370
     9
100
AcDbLine
 10
417.6754358652477
 20
-135.1107664366025
 30
0.0
 11
360.6754457628406
 21
-135.1107664366025
 31
0.0
  0
LINE
  5
D2
330
1F
100
AcDbEntity
  8
0-1
  6
Continuous
 62
     2
370
     9
100
AcDbLine
 10
423.8752880611935
 20
-88.31080256281666
 30
0.0
 11
420.6753962748761
 21
-88.31080256281666
 31
0.0
  0
LINE
  5
D3
330
1F
100
AcDbEntity
  8
0-1
  6
Continuous
 62
     2
370
     9
100
AcDbLine
 10
360.6754457628406
 20
-135.1107664366025
 30
0.0
 11
360.6754457628406
 21
-138.3107200828756
 31
0.0
  0
LINE
  5
D4
330
1F
100
AcDbEntity
  8
0-0
  6
Continuous
 62
     3
370
     9
100
AcDbLine
 10
-409.6622518590977
 20
521.6892304291599
 30
0.0
 11
-409.6622518590977
 21
528.1892271299623
 31
0.0
  0
LINE
  5
D5
330
1F
100
AcDbEntity
  8
0-0
  6
Continuous
 62
     3
370
     9
100
AcDbLine
 10
-747.6623277406434
 20
556.6893459010771
 30
0.0
 11
-57.6622782526789
 21
556.6893459010771
 31
0.0
  0
LINE
  5
D6
330
1F
100
AcDbEntity
  8
0-0
  6
Continuous
 62
     3
370
     9
100
AcDbLine
 10
-746.6622996974636
 20
555.6891941379859
 30
0.0
 11
-58.66230629585857
 21
555.6891941379859
 31
0.0
  0
LINE
  5
D7
330
1F
100
AcDbEntity
  8
0-0
  6
Continuous
 62
     3
370
     9
100
AcDbLine
 10
-746.6622996974636
 20
546.6893129091009
 30
0.0
 11
-58.66230629585857
 21
546.6893129091009
 31
0.0
  0
LINE
  5
D8
330
1F
100
AcDbEntity
  8
0-0
  6
Continuous
 62
     3
370
     9
100
AcDbLine
 10
-747.6623277406434
 20
545.6891611460095
 30
0.0
 11
-57.6622782526789
 21
545.6891611460095
 31
0.0
  0
LINE
  5
D9
330
1F
100
AcDbEntity
  8
0-0
  6
Continuous
 62
     3
370
     9
100
AcDbLine
 10
-747.6623277406434
 20
539.1892881651186
 30
0.0
 11
-57.6622782526789
 21
539.1892881651186
 31
0.0
  0
LINE
  5
DA
330
1F
100
AcDbEntity
  8
0-0
  6
Continuous
 62
     3
370
     9
100
AcDbLine
 10
-746.6622996974636
 20
538.1891364020272
 30
0.0
 11
-58.66230629585857
 21
538.1891364020272
 31
0.0
  0
LINE
  5
DB
330
1F
100
AcDbEntity
  8
0-0
  6
Continuous
 62
     3
370
     9
100
AcDbLine
 10
-746.6622996974636
 20
529.1892551731421
 30
0.0
 11
-58.66230629585857
 21
529.1892551731421
 31
0.0
  0
LINE
  5
DC
330
1F
100
AcDbEntity
  8
0-0
  6
Continuous
 62
     3
370
     9
100
AcDbLine
 10
-515.6622551582955
 20
521.6892304291599
 30
0.0
 11
-515.6622551582955
 21
528.1892271299623
 31
0.0
  0
LINE
  5
DD
330
1F
100
AcDbEntity
  8
0-0
  6
Continuous
 62
     3
370
     9
100
AcDbLine
 10
-501.6622955734664
 20
521.6892304291599
 30
0.0
 11
-501.6622955734664
 21
528.1892271299623
 31
0.0
  0
LINE
  5
DE
330
1F
100
AcDbEntity
  8
0-0
  6
Continuous
 62
     3
370
     9
100
AcDbLine
 10
-607.6622988726641
 20
521.6892304291599
 30
0.0
 11
-607.6622988726641
 21
528.1892271299623
 31
0.0
  0
LINE
  5
DF
330
1F
100
AcDbEntity
  8
0-0
  6
Continuous
 62
     3
370
     9
100
AcDbLine
 10
-621.6622584574931
 20
521.6892304291599
 30
0.0
 11
-621.6622584574931
 21
528.1892271299623
 31
0.0
  0
LINE
  5
E0
330
1F
100
AcDbEntity
  8
0-0
  6
Continuous
 62
     3
370
     9
100
AcDbLine
 10
-409.6622518590977
 20
539.1892881651186
 30
0.0
 11
-409.6622518590977
 21
545.6891611460095
 31
0.0
  0
LINE
  5
E1
330
1F
100
AcDbEntity
  8
0-0
  6
Continuous
 62
     3
370
     9
100
AcDbLine
 10
-747.6623277406434
 20
528.1892271299623
 30
0.0
 11
-57.6622782526789
 21
528.1892271299623
 31
0.0
  0
LINE
  5
E2
330
1F
100
AcDbEntity
  8
0-0
  6
Continuous
 62
     3
370
     9
100
AcDbLine
 10
-747.6623277406434
 20
521.6892304291599
 30
0.0
 11
-57.6622782526789
 21
521.6892304291599
 31
0.0
  0
LINE
  5
E3
330
1F
100
AcDbEntity
  8
0-0
  6
Continuous
 62
     3
370
     9
100
AcDbLine
 10
-501.6622955734664
 20
539.1892881651186
 30
0.0
 11
-501.6622955734664
 21
545.6891611460095
 31
0.0
  0
LINE
  5
E4
330
1F
100
AcDbEntity
  8
0-0
  6
Continuous
 62
     3
370
     9
100
AcDbLine
 10
-515.6622551582955
 20
539.1892881651186
 30
0.0
 11
-515.6622551582955
 21
545.6891611460095
 31
0.0
  0
LINE
  5
E5
330
1F
100
AcDbEntity
  8
0-0
  6
Continuous
 62
     3
370
     9
100
AcDbLine
 10
-746.6622996974636
 20
520.6890786660687
 30
0.0
 11
-58.66230629585857
 21
520.6890786660687
 31
0.0
  0
LINE
  5
E6
330
1F
100
AcDbEntity
  8
0-0
  6
Continuous
 62
     3
370
     9
100
AcDbLine
 10
-734.6622724790831
 20
511.6891974371835
 30
0.0
 11
-70.66233351423932
 21
511.6891974371835
 31
0.0
  0
LINE
  5
E7
330
1F
100
AcDbEntity
  8
0-0
  6
Continuous
 62
     3
370
     9
100
AcDbLine
 10
-607.6622988726641
 20
539.1892881651186
 30
0.0
 11
-607.6622988726641
 21
545.6891611460095
 31
0.0
  0
LINE
  5
E8
330
1F
100
AcDbEntity
  8
0-0
  6
Continuous
 62
     3
370
     9
100
AcDbLine
 10
-731.1622980478647
 20
508.1891611460095
 30
0.0
 11
-74.16230794545754
 21
508.1891611460095
 31
0.0
  0
LINE
  5
E9
330
1F
100
AcDbEntity
  8
0-0
  6
Continuous
 62
     3
370
     9
100
AcDbLine
 10
-747.6623277406434
 20
-133.3107654468432
 30
0.0
 11
-747.6623277406434
 21
556.6893459010771
 31
0.0
  0
LINE
  5
EA
330
1F
100
AcDbEntity
  8
0-0
  6
Continuous
 62
     3
370
     9
100
AcDbLine
 10
-746.6622996974636
 20
-97.31074565165727
 30
0.0
 11
-746.6622996974636
 21
520.6890786660687
 31
0.0
  0
LINE
  5
EB
330
1F
100
AcDbEntity
  8
0-0
  6
Continuous
 62
     3
370
     9
100
AcDbLine
 10
-737.662294748667
 20
-85.31078029323268
 30
0.0
 11
-737.662294748667
 21
508.6892370275551
 31
0.0
  0
LINE
  5
EC
330
1F
100
AcDbEntity
  8
0-0
  6
Continuous
 62
     3
370
     9
100
AcDbLine
 10
-621.6622584574931
 20
539.1892881651186
 30
0.0
 11
-621.6622584574931
 21
545.6891611460095
 31
0.0
  0
LINE
  5
ED
330
1F
100
AcDbEntity
  8
0-0
  6
Continuous
 62
     3
370
     9
100
AcDbLine
 10
-734.1622584574931
 20
-81.81074400205873
 30
0.0
 11
-734.1622584574931
 21
505.1890770164698
 31
0.0
  0
LINE
  5
EE
330
1F
100
AcDbEntity
  8
0-0
  6
Continuous
 62
     3
370
     9
100
AcDbLine
 10
-746.6622996974636
 20
546.6893129091009
 30
0.0
 11
-747.6623277406434
 21
545.6891611460095
 31
0.0
  0
LINE
  5
EF
330
1F
100
AcDbEntity
  8
0-0
  6
Continuous
 62
     3
370
     9
100
AcDbLine
 10
-733.1622304143132
 20
521.6892304291599
 30
0.0
 11
-733.1622304143132
 21
528.1892271299623
 31
0.0
  0
LINE
  5
F0
330
1F
100
AcDbEntity
  8
0-0
  6
Continuous
 62
     3
370
     9
100
AcDbLine
 10
-733.1622304143132
 20
539.1892881651186
 30
0.0
 11
-733.1622304143132
 21
545.6891611460095
 31
0.0
  0
LINE
  5
F1
330
1F
100
AcDbEntity
  8
0-0
  6
Continuous
 62
     3
370
     9
100
AcDbLine
 10
-746.6622996974636
 20
529.1892551731421
 30
0.0
 11
-746.6622996974636
 21
538.1891364020272
 31
0.0
  0
LINE
  5
F2
330
1F
100
AcDbEntity
  8
0-0
  6
Continuous
 62
     3
370
     9
100
AcDbLine
 10
-746.6622996974636
 20
546.6893129091009
 30
0.0
 11
-746.6622996974636
 21
555.6891941379859
 31
0.0
  0
LINE
  5
F3
330
1F
100
AcDbEntity
  8
0-0
  6
Continuous
 62
     3
370
     9
100
AcDbLine
 10
-746.6622996974636
 20
555.6891941379859
 30
0.0
 11
-747.6623277406434
 21
556.6893459010771
 31
0.0
  0
LINE
  5
F4
330
1F
100
AcDbEntity
  8
0-1
  6
Continuous
 62
     2
370
     9
100
AcDbLine
 10
-657.1623260910445
 20
-142.8107844172297
 30
0.0
 11
-657.1623260910445
 21
-167.3107910156247
 31
0.0
  0
LINE
  5
F5
330
1F
100
AcDbEntity
  8
0-0
  6
Continuous
 62
     3
370
     9
100
AcDbLine
 10
-746.6622996974636
 20
538.1891364020272
 30
0.0
 11
-747.6623277406434
 21
539.1892881651186
 31
0.0
  0
LINE
  5
F6
330
1F
100
AcDbEntity
  8
0-0
  6
Continuous
 62
     3
370
     9
100
AcDbLine
 10
-746.6622996974636
 20
529.1892551731421
 30
0.0
 11
-747.6623277406434
 21
528.1892271299623
 31
0.0
  0
LINE
  5
F7
330
1F
100
AcDbEntity
  8
0-0
  6
Continuous
 62
     3
370
     9
100
AcDbLine
 10
-747.6623277406434
 20
521.6892304291599
 30
0.0
 11
-746.6622996974636
 21
520.6890786660687
 31
0.0
  0
LINE
  5
F8
330
1F
100
AcDbEntity
  8
0-1
  6
Continuous
 62
     2
370
     9
100
AcDbLine
 10
-648.1622592822924
 20
-142.8054644610431
 30
0.0
 11
-648.1622592822924
 21
-167.3107910156247
 31
0.0
  0
LINE
  5
F9
330
1F
100
AcDbEntity
  8
0-1
  6
Continuous
 62
     2
370
     9
100
AcDbLine
 10
-148.1622799022777
 20
566.1893030115078
 30
0.0
 11
-148.1622799022777
 21
590.6891858899917
 31
0.0
  0
LINE
  5
FA
330
1F
100
AcDbEntity
  8
0-1
  6
Continuous
 62
     2
370
     9
100
AcDbLine
 10
-157.1622848510742
 20
566.1838593354099
 30
0.0
 11
-157.1622848510742
 21
590.6891858899917
 31
0.0
  0
LINE
  5
FB
330
1F
100
AcDbEntity
  8
0-1
  6
Continuous
 62
     2
370
     9
100
AcDbLine
 10
-657.1623260910445
 20
-167.3107910156247
 30
0.0
 11
-648.1622592822924
 21
-167.3107910156247
 31
0.0
  0
LINE
  5
FC
330
1F
100
AcDbEntity
  8
0-1
  6
Continuous
 62
     2
370
     9
100
AcDbLine
 10
-148.1622799022777
 20
-167.3107910156247
 30
0.0
 11
-157.1622848510742
 21
-167.3107910156247
 31
0.0
  0
LINE
  5
FD
330
1F
100
AcDbEntity
  8
0-0
  6
Continuous
 62
     3
370
     9
100
AcDbLine
 10
-747.6623277406434
 20
-98.31071183488163
 30
0.0
 11
-746.6622996974636
 21
-97.31074565165727
 31
0.0
  0
LINE
  5
FE
330
1F
100
AcDbEntity
  8
0-0
  6
Continuous
 62
     3
370
     9
100
AcDbLine
 10
-746.6622996974636
 20
-105.8107984388195
 30
0.0
 11
-747.6623277406434
 21
-104.8107703956396
 31
0.0
  0
LINE
  5
FF
330
1F
100
AcDbEntity
  8
0-0
  6
Continuous
 62
     3
370
     9
100
AcDbLine
 10
-746.6622996974636
 20
-114.8107415276604
 30
0.0
 11
-747.6623277406434
 21
-115.8107695708401
 31
0.0
  0
LINE
  5
100
330
1F
100
AcDbEntity
  8
0-0
  6
Continuous
 62
     3
370
     9
100
AcDbLine
 10
-746.6622996974636
 20
-132.3107992636189
 30
0.0
 11
-747.6623277406434
 21
-133.3107654468432
 31
0.0
  0
LINE
  5
101
330
1F
100
AcDbEntity
  8
0-0
  6
Continuous
 62
     3
370
     9
100
AcDbLine
 10
-746.6622996974636
 20
-123.3107943148224
 30
0.0
 11
-746.6622996974636
 21
-132.3107992636189
 31
0.0
  0
LINE
  5
102
330
1F
100
AcDbEntity
  8
0-0
  6
Continuous
 62
     3
370
     9
100
AcDbLine
 10
-746.6622996974636
 20
-105.8107984388195
 30
0.0
 11
-746.6622996974636
 21
-114.8107415276604
 31
0.0
  0
LINE
  5
103
330
1F
100
AcDbEntity
  8
0-0
  6
Continuous
 62
     3
370
     9
100
AcDbLine
 10
-733.1622304143132
 20
-115.8107695708401
 30
0.0
 11
-733.1622304143132
 21
-122.3107662716424
 31
0.0
  0
LINE
  5
104
330
1F
100
AcDbEntity
  8
0-0
  6
Continuous
 62
     3
370
     9
100
AcDbLine
 10
-733.1622304143132
 20
-98.31071183488163
 30
0.0
 11
-733.1622304143132
 21
-104.8107703956396
 31
0.0
  0
LINE
  5
105
330
1F
100
AcDbEntity
  8
0-0
  6
Continuous
 62
     3
370
     9
100
AcDbLine
 10
-746.6622996974636
 20
-123.3107943148224
 30
0.0
 11
-747.6623277406434
 21
-122.3107662716424
 31
0.0
  0
LINE
  5
106
330
1F
100
AcDbEntity
  8
0-0
  6
Continuous
 62
     3
370
     9
100
AcDbLine
 10
-621.6622584574931
 20
-115.8107695708401
 30
0.0
 11
-621.6622584574931
 21
-122.3107662716424
 31
0.0
  0
LINE
  5
107
330
1F
100
AcDbEntity
  8
0-1
  6
Continuous
 62
     2
370
     9
100
AcDbLine
 10
417.6754358652477
 20
558.489223170925
 30
0.0
 11
360.6754457628406
 21
558.489223170925
 31
0.0
  0
LINE
  5
108
330
1F
100
AcDbEntity
  8
0-1
  6
Continuous
 62
     2
370
     9
100
AcDbLine
 10
420.6753962748761
 20
511.1891215556379
 30
0.0
 11
420.6753962748761
 21
555.4892627612967
 31
0.0
  0
LINE
  5
109
330
1F
100
AcDbEntity
  8
0-1
  6
Continuous
 62
     2
370
     9
100
AcDbLine
 10
423.8752880611935
 20
511.6891974371835
 30
0.0
 11
423.8752880611935
 21
555.6891941379859
 31
0.0
  0
LINE
  5
10A
330
1F
100
AcDbEntity
  8
0-0
  6
Continuous
 62
     3
370
     9
100
AcDbLine
 10
360.6754457628406
 20
520.6890786660687
 30
0.0
 11
366.6753665820971
 21
521.6892304291599
 31
0.0
  0
LINE
  5
10B
330
1F
100
AcDbEntity
  8
0-0
  6
Continuous
 62
     3
370
     9
100
AcDbLine
 10
366.6753665820971
 20
528.1892271299623
 30
0.0
 11
360.6754457628406
 21
529.1892551731421
 31
0.0
  0
LINE
  5
10C
330
1F
100
AcDbEntity
  8
0-0
  6
Continuous
 62
     3
370
     9
100
AcDbLine
 10
360.6754457628406
 20
529.1892551731421
 30
0.0
 11
360.6754457628406
 21
538.1891364020272
 31
0.0
  0
LINE
  5
10D
330
1F
100
AcDbEntity
  8
0-0
  6
Continuous
 62
     3
370
     9
100
AcDbLine
 10
360.6754457628406
 20
538.1891364020272
 30
0.0
 11
366.6753665820971
 21
539.1892881651186
 31
0.0
  0
LINE
  5
10E
330
1F
100
AcDbEntity
  8
0-0
  6
Continuous
 62
     3
370
     9
100
AcDbLine
 10
366.6753665820971
 20
545.6891611460095
 30
0.0
 11
360.6754457628406
 21
546.6893129091009
 31
0.0
  0
LINE
  5
10F
330
1F
100
AcDbEntity
  8
0-0
  6
Continuous
 62
     3
370
     9
100
AcDbLine
 10
360.6754457628406
 20
546.6893129091009
 30
0.0
 11
360.6754457628406
 21
555.6891941379859
 31
0.0
  0
LINE
  5
110
330
1F
100
AcDbEntity
  8
0-0
  6
Continuous
 62
     3
370
     9
100
AcDbLine
 10
360.6754457628406
 20
555.6891941379859
 30
0.0
 11
366.6753665820971
 21
556.6893459010771
 31
0.0
  0
LINE
  5
111
330
1F
100
AcDbEntity
  8
0-0
  6
Continuous
 62
     3
370
     9
100
AcDbLine
 10
366.6753665820971
 20
537.6893079603043
 30
0.0
 11
373.3614380295211
 21
536.8534562394428
 31
0.0
  0
LINE
  5
112
330
1F
100
AcDbEntity
  8
0-0
  6
Continuous
 62
     3
370
     9
100
AcDbLine
 10
366.6753665820971
 20
555.1892419763516
 30
0.0
 11
420.6753962748761
 21
548.1891693940037
 31
0.0
  0
LINE
  5
113
330
1F
100
AcDbEntity
  8
0-0
  6
Continuous
 62
     3
370
     9
100
AcDbLine
 10
374.6753434877138
 20
532.013285868877
 30
0.0
 11
374.6753434877138
 21
535.3649819863812
 31
0.0
  0
LINE
  5
114
330
1F
100
AcDbEntity
  8
0-0
  6
Continuous
 62
     3
370
     9
100
AcDbLine
 10
374.6753434877138
 20
549.5133436048355
 30
0.0
 11
374.6753434877138
 21
552.8339860245991
 31
0.0
  0
LINE
  5
115
330
1F
100
AcDbEntity
  8
0-0
  6
Continuous
 62
     3
370
     9
100
AcDbLine
 10
366.6753665820971
 20
547.189265070735
 30
0.0
 11
373.3614380295211
 21
548.0249930716852
 31
0.0
  0
LINE
  5
116
330
1F
100
AcDbEntity
  8
0-0
  6
Continuous
 62
     3
370
     9
100
AcDbLine
 10
373.3614380295211
 20
530.5250590556379
 30
0.0
 11
366.6753665820971
 21
529.6892073347765
 31
0.0
  0
LINE
  5
117
330
1F
100
AcDbEntity
  8
0-0
  6
Continuous
 62
     3
370
     9
100
AcDbLine
 10
366.6753665820971
 20
537.6893079603043
 30
0.0
 11
366.6753665820971
 21
547.189265070735
 31
0.0
  0
LINE
  5
118
330
1F
100
AcDbEntity
  8
0-0
  6
Continuous
 62
     3
370
     9
100
AcDbLine
 10
366.6753665820971
 20
555.1892419763516
 30
0.0
 11
366.6753665820971
 21
556.6893459010771
 31
0.0
  0
LINE
  5
119
330
1F
100
AcDbEntity
  8
0-0
  6
Continuous
 62
     3
370
     9
100
AcDbLine
 10
-731.1622980478647
 20
-84.81076627164242
 30
0.0
 11
-74.16230794545754
 21
-84.81076627164242
 31
0.0
  0
LINE
  5
11A
330
1F
100
AcDbEntity
  8
0-0
  6
Continuous
 62
     3
370
     9
100
AcDbLine
 10
-607.6622988726641
 20
-115.8107695708401
 30
0.0
 11
-607.6622988726641
 21
-122.3107662716424
 31
0.0
  0
LINE
  5
11B
330
1F
100
AcDbEntity
  8
0-0
  6
Continuous
 62
     3
370
     9
100
AcDbLine
 10
-734.6622724790831
 20
-88.31080256281666
 30
0.0
 11
-70.66233351423932
 21
-88.31080256281666
 31
0.0
  0
LINE
  5
11C
330
1F
100
AcDbEntity
  8
0-0
  6
Continuous
 62
     3
370
     9
100
AcDbLine
 10
-746.6622996974636
 20
-97.31074565165727
 30
0.0
 11
-58.66230629585857
 21
-97.31074565165727
 31
0.0
  0
LINE
  5
11D
330
1F
100
AcDbEntity
  8
0-0
  6
Continuous
 62
     3
370
     9
100
AcDbLine
 10
-515.6622551582955
 20
-115.8107695708401
 30
0.0
 11
-515.6622551582955
 21
-122.3107662716424
 31
0.0
  0
LINE
  5
11E
330
1F
100
AcDbEntity
  8
0-0
  6
Continuous
 62
     3
370
     9
100
AcDbLine
 10
-501.6622955734664
 20
-115.8107695708401
 30
0.0
 11
-501.6622955734664
 21
-122.3107662716424
 31
0.0
  0
LINE
  5
11F
330
1F
100
AcDbEntity
  8
0-0
  6
Continuous
 62
     3
370
     9
100
AcDbLine
 10
-747.6623277406434
 20
-98.31071183488163
 30
0.0
 11
-57.6622782526789
 21
-98.31071183488163
 31
0.0
  0
LINE
  5
120
330
1F
100
AcDbEntity
  8
0-0
  6
Continuous
 62
     3
370
     9
100
AcDbLine
 10
-747.6623277406434
 20
-104.8107703956396
 30
0.0
 11
-57.6622782526789
 21
-104.8107703956396
 31
0.0
  0
LINE
  5
121
330
1F
100
AcDbEntity
  8
0-0
  6
Continuous
 62
     3
370
     9
100
AcDbLine
 10
-409.6622518590977
 20
-115.8107695708401
 30
0.0
 11
-409.6622518590977
 21
-122.3107662716424
 31
0.0
  0
LINE
  5
122
330
1F
100
AcDbEntity
  8
0-0
  6
Continuous
 62
     3
370
     9
100
AcDbLine
 10
-621.6622584574931
 20
-98.31071183488163
 30
0.0
 11
-621.6622584574931
 21
-104.8107703956396
 31
0.0
  0
LINE
  5
123
330
1F
100
AcDbEntity
  8
0-0
  6
Continuous
 62
     3
370
     9
100
AcDbLine
 10
-607.6622988726641
 20
-98.31071183488163
 30
0.0
 11
-607.6622988726641
 21
-104.8107703956396
 31
0.0
  0
LINE
  5
124
330
1F
100
AcDbEntity
  8
0-0
  6
Continuous
 62
     3
370
     9
100
AcDbLine
 10
-501.6622955734664
 20
-98.31071183488163
 30
0.0
 11
-501.6622955734664
 21
-104.8107703956396
 31
0.0
  0
LINE
  5
125
330
1F
100
AcDbEntity
  8
0-0
  6
Continuous
 62
     3
370
     9
100
AcDbLine
 10
-515.6622551582955
 20
-98.31071183488163
 30
0.0
 11
-515.6622551582955
 21
-104.8107703956396
 31
0.0
  0
LINE
  5
126
330
1F
100
AcDbEntity
  8
0-0
  6
Continuous
 62
     3
370
     9
100
AcDbLine
 10
-746.6622996974636
 20
-105.8107984388195
 30
0.0
 11
-58.66230629585857
 21
-105.8107984388195
 31
0.0
  0
LINE
  5
127
330
1F
100
AcDbEntity
  8
0-0
  6
Continuous
 62
     3
370
     9
100
AcDbLine
 10
-746.6622996974636
 20
-114.8107415276604
 30
0.0
 11
-58.66230629585857
 21
-114.8107415276604
 31
0.0
  0
LINE
  5
128
330
1F
100
AcDbEntity
  8
0-0
  6
Continuous
 62
     3
370
     9
100
AcDbLine
 10
-747.6623277406434
 20
-115.8107695708401
 30
0.0
 11
-57.6622782526789
 21
-115.8107695708401
 31
0.0
  0
LINE
  5
129
330
1F
100
AcDbEntity
  8
0-0
  6
Continuous
 62
     3
370
     9
100
AcDbLine
 10
-747.6623277406434
 20
-122.3107662716424
 30
0.0
 11
-57.6622782526789
 21
-122.3107662716424
 31
0.0
  0
LINE
  5
12A
330
1F
100
AcDbEntity
  8
0-0
  6
Continuous
 62
     3
370
     9
100
AcDbLine
 10
-746.6622996974636
 20
-123.3107943148224
 30
0.0
 11
-58.66230629585857
 21
-123.3107943148224
 31
0.0
  0
LINE
  5
12B
330
1F
100
AcDbEntity
  8
0-0
  6
Continuous
 62
     3
370
     9
100
AcDbLine
 10
-746.6622996974636
 20
-132.3107992636189
 30
0.0
 11
-58.66230629585857
 21
-132.3107992636189
 31
0.0
  0
LINE
  5
12C
330
1F
100
AcDbEntity
  8
0-0
  6
Continuous
 62
     3
370
     9
100
AcDbLine
 10
-747.6623277406434
 20
-133.3107654468432
 30
0.0
 11
-57.6622782526789
 21
-133.3107654468432
 31
0.0
  0
LINE
  5
12D
330
1F
100
AcDbEntity
  8
0-0
  6
Continuous
 62
     3
370
     9
100
AcDbLine
 10
-409.6622518590977
 20
-98.31071183488163
 30
0.0
 11
-409.6622518590977
 21
-104.8107703956396
 31
0.0
  0
LINE
  5
12E
330
1F
100
AcDbEntity
  8
0-0
  6
Continuous
 62
     3
370
     9
100
AcDbLine
 10
-395.6622922742689
 20
-98.31071183488163
 30
0.0
 11
-395.6622922742689
 21
-104.8107703956396
 31
0.0
  0
LINE
  5
12F
330
1F
100
AcDbEntity
  8
0-0
  6
Continuous
 62
     3
370
     9
100
AcDbLine
 10
-289.6622889750712
 20
-98.31071183488163
 30
0.0
 11
-289.6622889750712
 21
-104.8107703956396
 31
0.0
  0
LINE
  5
130
330
1F
100
AcDbEntity
  8
0-0
  6
Continuous
 62
     3
370
     9
100
AcDbLine
 10
-303.6622485599001
 20
-98.31071183488163
 30
0.0
 11
-303.6622485599001
 21
-104.8107703956396
 31
0.0
  0
LINE
  5
131
330
1F
100
AcDbEntity
  8
0-0
  6
Continuous
 62
     3
370
     9
100
AcDbLine
 10
-197.6622452607026
 20
-98.31071183488163
 30
0.0
 11
-197.6622452607026
 21
-104.8107703956396
 31
0.0
  0
LINE
  5
132
330
1F
100
AcDbEntity
  8
0-0
  6
Continuous
 62
     3
370
     9
100
AcDbLine
 10
-183.6622856758736
 20
-98.31071183488163
 30
0.0
 11
-183.6622856758736
 21
-104.8107703956396
 31
0.0
  0
LINE
  5
133
330
1F
100
AcDbEntity
  8
0-0
  6
Continuous
 62
     3
370
     9
100
AcDbLine
 10
-395.6622922742689
 20
-115.8107695708401
 30
0.0
 11
-395.6622922742689
 21
-122.3107662716424
 31
0.0
  0
LINE
  5
134
330
1F
100
AcDbEntity
  8
0-0
  6
Continuous
 62
     3
370
     9
100
AcDbLine
 10
-303.6622485599001
 20
-115.8107695708401
 30
0.0
 11
-303.6622485599001
 21
-122.3107662716424
 31
0.0
  0
LINE
  5
135
330
1F
100
AcDbEntity
  8
0-0
  6
Continuous
 62
     3
370
     9
100
AcDbLine
 10
-289.6622889750712
 20
-115.8107695708401
 30
0.0
 11
-289.6622889750712
 21
-122.3107662716424
 31
0.0
  0
LINE
  5
136
330
1F
100
AcDbEntity
  8
0-0
  6
Continuous
 62
     3
370
     9
100
AcDbLine
 10
-197.6622452607026
 20
-115.8107695708401
 30
0.0
 11
-197.6622452607026
 21
-122.3107662716424
 31
0.0
  0
LINE
  5
137
330
1F
100
AcDbEntity
  8
0-0
  6
Continuous
 62
     3
370
     9
100
AcDbLine
 10
-183.6622856758736
 20
-115.8107695708401
 30
0.0
 11
-183.6622856758736
 21
-122.3107662716424
 31
0.0
  0
LINE
  5
138
330
1F
100
AcDbEntity
  8
0-0
  6
Continuous
 62
     3
370
     9
100
AcDbLine
 10
-58.66230629585857
 20
-123.3107943148224
 30
0.0
 11
-57.6622782526789
 21
-122.3107662716424
 31
0.0
  0
LINE
  5
139
330
1F
100
AcDbEntity
  8
0-0
  6
Continuous
 62
     3
370
     9
100
AcDbLine
 10
-72.16225185909764
 20
-98.31071183488163
 30
0.0
 11
-72.16225185909764
 21
-104.8107703956396
 31
0.0
  0
LINE
  5
13A
330
1F
100
AcDbEntity
  8
0-0
  6
Continuous
 62
     3
370
     9
100
AcDbLine
 10
-72.16225185909764
 20
-115.8107695708401
 30
0.0
 11
-72.16225185909764
 21
-122.3107662716424
 31
0.0
  0
LINE
  5
13B
330
1F
100
AcDbEntity
  8
0-0
  6
Continuous
 62
     3
370
     9
100
AcDbLine
 10
-58.66230629585857
 20
-105.8107984388195
 30
0.0
 11
-58.66230629585857
 21
-114.8107415276604
 31
0.0
  0
LINE
  5
13C
330
1F
100
AcDbEntity
  8
0-0
  6
Continuous
 62
     3
370
     9
100
AcDbLine
 10
-58.66230629585857
 20
-123.3107943148224
 30
0.0
 11
-58.66230629585857
 21
-132.3107992636189
 31
0.0
  0
LINE
  5
13D
330
1F
100
AcDbEntity
  8
0-0
  6
Continuous
 62
     3
370
     9
100
AcDbLine
 10
-58.66230629585857
 20
-132.3107992636189
 30
0.0
 11
-57.6622782526789
 21
-133.3107654468432
 31
0.0
  0
LINE
  5
13E
330
1F
100
AcDbEntity
  8
0-0
  6
Continuous
 62
     3
370
     9
100
AcDbLine
 10
-58.66230629585857
 20
-114.8107415276604
 30
0.0
 11
-57.6622782526789
 21
-115.8107695708401
 31
0.0
  0
LINE
  5
13F
330
1F
100
AcDbEntity
  8
0-0
  6
Continuous
 62
     3
370
     9
100
AcDbLine
 10
-58.66230629585857
 20
-105.8107984388195
 30
0.0
 11
-57.6622782526789
 21
-104.8107703956396
 31
0.0
  0
LINE
  5
140
330
1F
100
AcDbEntity
  8
0-0
  6
Continuous
 62
     3
370
     9
100
AcDbLine
 10
-57.6622782526789
 20
-98.31071183488163
 30
0.0
 11
-58.66230629585857
 21
-97.31074565165727
 31
0.0
  0
LINE
  5
141
330
1F
100
AcDbEntity
  8
0-1
  6
Continuous
 62
     2
370
     9
100
AcDbLine
 10
447.8752187780435
 20
590.6891858899917
 30
0.0
 11
438.8753375491581
 21
590.6891858899917
 31
0.0
  0
LINE
  5
142
330
1F
100
AcDbEntity
  8
0-1
  6
Continuous
 62
     2
370
     9
100
AcDbLine
 10
447.8752187780435
 20
575.6891364020273
 30
0.0
 11
447.8752187780435
 21
590.6891858899917
 31
0.0
  0
LINE
  5
143
330
1F
100
AcDbEntity
  8
0-1
  6
Continuous
 62
     2
370
     9
100
AcDbLine
 10
438.8753375491581
 20
575.6891364020273
 30
0.0
 11
438.8753375491581
 21
590.6891858899917
 31
0.0
  0
LINE
  5
144
330
1F
100
AcDbEntity
  8
0-1
  6
Continuous
 62
     2
370
     9
100
AcDbLine
 10
-157.1622848510742
 20
-142.8054644610431
 30
0.0
 11
-157.1622848510742
 21
-167.3107910156247
 31
0.0
  0
LINE
  5
145
330
1F
100
AcDbEntity
  8
0-1
  6
Continuous
 62
     2
370
     9
100
AcDbLine
 10
-148.1622799022777
 20
-142.8107844172297
 30
0.0
 11
-148.1622799022777
 21
-167.3107910156247
 31
0.0
  0
LINE
  5
146
330
1F
100
AcDbEntity
  8
0-1
  6
Continuous
 62
     2
370
     9
100
AcDbLine
 10
408.8753622931407
 20
561.689238677154
 30
0.0
 11
408.8753622931407
 21
570.6892436259506
 31
0.0
  0
LINE
  5
147
330
1F
100
AcDbEntity
  8
0-1
  6
Continuous
 62
     2
370
     9
100
AcDbLine
 10
433.8753210531701
 20
570.6892436259506
 30
0.0
 11
408.8753622931407
 21
570.6892436259506
 31
0.0
  0
LINE
  5
148
330
1F
100
AcDbEntity
  8
0-0
  6
Continuous
 62
     3
370
     9
100
AcDbLine
 10
-57.6622782526789
 20
521.6892304291599
 30
0.0
 11
-58.66230629585857
 21
520.6890786660687
 31
0.0
  0
LINE
  5
149
330
1F
100
AcDbEntity
  8
0-0
  6
Continuous
 62
     3
370
     9
100
AcDbLine
 10
-58.66230629585857
 20
529.1892551731421
 30
0.0
 11
-57.6622782526789
 21
528.1892271299623
 31
0.0
  0
LINE
  5
14A
330
1F
100
AcDbEntity
  8
0-0
  6
Continuous
 62
     3
370
     9
100
AcDbLine
 10
-58.66230629585857
 20
538.1891364020272
 30
0.0
 11
-57.6622782526789
 21
539.1892881651186
 31
0.0
  0
LINE
  5
14B
330
1F
100
AcDbEntity
  8
0-0
  6
Continuous
 62
     3
370
     9
100
AcDbLine
 10
-58.66230629585857
 20
555.6891941379859
 30
0.0
 11
-57.6622782526789
 21
556.6893459010771
 31
0.0
  0
LINE
  5
14C
330
1F
100
AcDbEntity
  8
0-0
  6
Continuous
 62
     3
370
     9
100
AcDbLine
 10
-58.66230629585857
 20
546.6893129091009
 30
0.0
 11
-58.66230629585857
 21
555.6891941379859
 31
0.0
  0
LINE
  5
14D
330
1F
100
AcDbEntity
  8
0-0
  6
Continuous
 62
     3
370
     9
100
AcDbLine
 10
-58.66230629585857
 20
529.1892551731421
 30
0.0
 11
-58.66230629585857
 21
538.1891364020272
 31
0.0
  0
LINE
  5
14E
330
1F
100
AcDbEntity
  8
0-0
  6
Continuous
 62
     3
370
     9
100
AcDbLine
 10
-72.16225185909764
 20
539.1892881651186
 30
0.0
 11
-72.16225185909764
 21
545.6891611460095
 31
0.0
  0
LINE
  5
14F
330
1F
100
AcDbEntity
  8
0-0
  6
Continuous
 62
     3
370
     9
100
AcDbLine
 10
-72.16225185909764
 20
521.6892304291599
 30
0.0
 11
-72.16225185909764
 21
528.1892271299623
 31
0.0
  0
LINE
  5
150
330
1F
100
AcDbEntity
  8
0-0
  6
Continuous
 62
     3
370
     9
100
AcDbLine
 10
-58.66230629585857
 20
546.6893129091009
 30
0.0
 11
-57.6622782526789
 21
545.6891611460095
 31
0.0
  0
LINE
  5
151
330
1F
100
AcDbEntity
  8
0-0
  6
Continuous
 62
     3
370
     9
100
AcDbLine
 10
-183.6622856758736
 20
539.1892881651186
 30
0.0
 11
-183.6622856758736
 21
545.6891611460095
 31
0.0
  0
LINE
  5
152
330
1F
100
AcDbEntity
  8
0-0
  6
Continuous
 62
     3
370
     9
100
AcDbLine
 10
-197.6622452607026
 20
539.1892881651186
 30
0.0
 11
-197.6622452607026
 21
545.6891611460095
 31
0.0
  0
LINE
  5
153
330
1F
100
AcDbEntity
  8
0-0
  6
Continuous
 62
     3
370
     9
100
AcDbLine
 10
-289.6622889750712
 20
539.1892881651186
 30
0.0
 11
-289.6622889750712
 21
545.6891611460095
 31
0.0
  0
LINE
  5
154
330
1F
100
AcDbEntity
  8
0-0
  6
Continuous
 62
     3
370
     9
100
AcDbLine
 10
-303.6622485599001
 20
539.1892881651186
 30
0.0
 11
-303.6622485599001
 21
545.6891611460095
 31
0.0
  0
LINE
  5
155
330
1F
100
AcDbEntity
  8
0-0
  6
Continuous
 62
     3
370
     9
100
AcDbLine
 10
-395.6622922742689
 20
539.1892881651186
 30
0.0
 11
-395.6622922742689
 21
545.6891611460095
 31
0.0
  0
LINE
  5
156
330
1F
100
AcDbEntity
  8
0-0
  6
Continuous
 62
     3
370
     9
100
AcDbLine
 10
-183.6622856758736
 20
521.6892304291599
 30
0.0
 11
-183.6622856758736
 21
528.1892271299623
 31
0.0
  0
LINE
  5
157
330
1F
100
AcDbEntity
  8
0-0
  6
Continuous
 62
     3
370
     9
100
AcDbLine
 10
-197.6622452607026
 20
521.6892304291599
 30
0.0
 11
-197.6622452607026
 21
528.1892271299623
 31
0.0
  0
LINE
  5
158
330
1F
100
AcDbEntity
  8
0-0
  6
Continuous
 62
     3
370
     9
100
AcDbLine
 10
-303.6622485599001
 20
521.6892304291599
 30
0.0
 11
-303.6622485599001
 21
528.1892271299623
 31
0.0
  0
LINE
  5
159
330
1F
100
AcDbEntity
  8
0-0
  6
Continuous
 62
     3
370
     9
100
AcDbLine
 10
-289.6622889750712
 20
521.6892304291599
 30
0.0
 11
-289.6622889750712
 21
528.1892271299623
 31
0.0
  0
LINE
  5
15A
330
1F
100
AcDbEntity
  8
0-1
  6
Continuous
 62
     2
370
     9
100
AcDbLine
 10
-148.1622799022777
 20
590.6891858899917
 30
0.0
 11
-157.1622848510742
 21
590.6891858899917
 31
0.0
  0
LINE
  5
15B
330
1F
100
AcDbEntity
  8
0-0
  6
Continuous
 62
     3
370
     9
100
AcDbLine
 10
-395.6622922742689
 20
521.6892304291599
 30
0.0
 11
-395.6622922742689
 21
528.1892271299623
 31
0.0
  0
LINE
  5
15C
330
1F
100
AcDbEntity
  8
0-0
  6
JWW_CENTER1
 62
     3
370
     9
100
AcDbLine
 10
-402.6623029966612
 20
-163.3107407028609
 30
0.0
 11
-402.6623029966612
 21
586.6891974371836
 31
0.0
  0
LINE
  5
15D
330
1F
100
AcDbEntity
  8
0-0
  6
JWW_CENTER1
 62
     3
370
     9
100
AcDbLine
 10
462.6753368893185
 20
211.6891974371834
 30
0.0
 11
335.6754870028115
 21
211.6891974371834
 31
0.0
  0
LINE
  5
15E
330
1F
100
AcDbEntity
  8
0-0
  6
JWW_CENTER1
 62
     3
370
     9
100
AcDbLine
 10
-27.6623029966612
 20
211.6891974371834
 30
0.0
 11
-777.6623029966612
 21
211.6891974371834
 31
0.0
  0
LINE
  5
15F
330
1F
100
AcDbEntity
  8
0-1
  6
JWW_CENTER1
 62
     2
370
     9
100
AcDbLine
 10
-662.1622188671215
 20
566.1893030115078
 30
0.0
 11
-643.16230464626
 21
566.1893030115078
 31
0.0
  0
LINE
  5
160
330
1F
100
AcDbEntity
  8
0-1
  6
JWW_CENTER1
 62
     2
370
     9
100
AcDbLine
 10
-652.6622617566908
 20
553.4892066749369
 30
0.0
 11
-652.6622617566908
 21
595.68920238598
 31
0.0
  0
LINE
  5
161
330
1F
100
AcDbEntity
  8
0-1
  6
JWW_CENTER1
 62
     2
370
     9
100
AcDbLine
 10
-162.1623013470622
 20
566.1893030115078
 30
0.0
 11
-143.1622634062894
 21
566.1893030115078
 31
0.0
  0
LINE
  5
162
330
1F
100
AcDbEntity
  8
0-1
  6
JWW_CENTER1
 62
     2
370
     9
100
AcDbLine
 10
-152.6622205167203
 20
553.4892066749369
 30
0.0
 11
-152.6622205167203
 21
595.68920238598
 31
0.0
  0
LINE
  5
163
330
1F
100
AcDbEntity
  8
0-1
  6
JWW_CENTER1
 62
     2
370
     9
100
AcDbLine
 10
-662.1622188671215
 20
-142.810908137141
 30
0.0
 11
-643.16230464626
 21
-142.810908137141
 31
0.0
  0
LINE
  5
164
330
1F
100
AcDbEntity
  8
0-1
  6
JWW_CENTER1
 62
     2
370
     9
100
AcDbLine
 10
-652.6622617566908
 20
-130.1108118005699
 30
0.0
 11
-652.6622617566908
 21
-172.3108693715687
 31
0.0
  0
LINE
  5
165
330
1F
100
AcDbEntity
  8
0-1
  6
JWW_CENTER1
 62
     2
370
     9
100
AcDbLine
 10
-162.1623013470622
 20
-142.810908137141
 30
0.0
 11
-143.1622634062894
 21
-142.810908137141
 31
0.0
  0
LINE
  5
166
330
1F
100
AcDbEntity
  8
0-1
  6
JWW_CENTER1
 62
     2
370
     9
100
AcDbLine
 10
-152.6622205167203
 20
-130.1108118005699
 30
0.0
 11
-152.6622205167203
 21
-172.3108693715687
 31
0.0
  0
LINE
  5
167
330
1F
100
AcDbEntity
  8
0-0
  6
Continuous
 62
     3
370
     9
100
AcDbLine
 10
-61.16231454385286
 20
-442.3640318174619
 30
0.0
 11
-68.16226340628944
 21
-442.3640318174619
 31
0.0
  0
LINE
  5
168
330
1F
100
AcDbEntity
  8
0-0
  6
Continuous
 62
     3
370
     9
100
AcDbLine
 10
-300.1992663821658
 20
-458.4024625211147
 30
0.0
 11
-301.9743996697503
 21
-432.2486918681376
 31
0.0
  0
LINE
  5
169
330
1F
100
AcDbEntity
  8
0-0
  6
Continuous
 62
     3
370
     9
100
AcDbLine
 10
-293.1252711528056
 20
-458.4024625211147
 30
0.0
 11
-291.3501378652211
 21
-432.2486918681376
 31
0.0
  0
LINE
  5
16A
330
1F
100
AcDbEntity
  8
0-0
  6
Continuous
 62
     3
370
     9
100
AcDbLine
 10
-399.1252744520033
 20
-458.4024625211147
 30
0.0
 11
-397.3501411644187
 21
-432.2486918681376
 31
0.0
  0
LINE
  5
16B
330
1F
100
AcDbEntity
  8
0-0
  6
Continuous
 62
     3
370
     9
100
AcDbLine
 10
-61.32024301064973
 20
-390.1897368559963
 30
0.0
 11
-64.42845834268098
 21
-425.7126926731418
 31
0.0
  0
LINE
  5
16C
330
1F
100
AcDbEntity
  8
0-0
  6
Continuous
 62
     3
370
     9
100
AcDbLine
 10
-59.32779569883593
 20
-388.3640021246831
 30
0.0
 11
-57.6622782526789
 21
-388.3640021246831
 31
0.0
  0
LINE
  5
16D
330
1F
100
AcDbEntity
  8
0-0
  6
Continuous
 62
     3
370
     9
100
AcDbLine
 10
420.6697051589555
 20
511.1876369167021
 30
0.0
 11
420.6753962748761
 21
511.1891215556379
 31
0.0
  0
LINE
  5
16E
330
1F
100
AcDbEntity
  8
0-1
  6
Continuous
 62
     2
370
     9
100
AcDbLine
 10
-719.16233268944
 20
528.1892271299623
 30
0.0
 11
-712.6623359886377
 21
521.6892304291599
 31
0.0
  0
LINE
  5
16F
330
1F
100
AcDbEntity
  8
0-1
  6
Continuous
 62
     2
370
     9
100
AcDbLine
 10
-752.6623442366316
 20
561.689238677154
 30
0.0
 11
-747.6623277406434
 21
556.6893459010771
 31
0.0
  0
LINE
  5
170
330
1F
100
AcDbEntity
  8
0-1
  6
Continuous
 62
     2
370
     9
100
AcDbLine
 10
-733.1622922742689
 20
542.1892485747469
 30
0.0
 11
-730.1623937245962
 21
539.1892881651186
 31
0.0
  0
LINE
  5
171
330
1F
100
AcDbEntity
  8
0-1
  6
Continuous
 62
     2
370
     9
100
AcDbLine
 10
-86.16233516383815
 20
528.1892271299623
 30
0.0
 11
-92.66233186464035
 21
521.6892304291599
 31
0.0
  0
LINE
  5
172
330
1F
100
AcDbEntity
  8
0-1
  6
Continuous
 62
     2
370
     9
100
AcDbLine
 10
-52.66238547660194
 20
561.689238677154
 30
0.0
 11
-57.6622782526789
 21
556.6893459010771
 31
0.0
  0
LINE
  5
173
330
1F
100
AcDbEntity
  8
0-1
  6
Continuous
 62
     2
370
     9
100
AcDbLine
 10
-72.16225185909764
 20
542.1893722946583
 30
0.0
 11
-75.16233598863735
 21
539.1892881651186
 31
0.0
  0
LINE
  5
174
330
1F
100
AcDbEntity
  8
0-1
  6
Continuous
 62
     2
370
     9
100
AcDbLine
 10
-719.16233268944
 20
-104.8108322555953
 30
0.0
 11
-712.6623359886377
 21
-98.3108355547931
 31
0.0
  0
LINE
  5
175
330
1F
100
AcDbEntity
  8
0-1
  6
Continuous
 62
     2
370
     9
100
AcDbLine
 10
-752.6623442366316
 20
-138.310843802787
 30
0.0
 11
-747.6623277406434
 21
-133.3109510267101
 31
0.0
  0
LINE
  5
176
330
1F
100
AcDbEntity
  8
0-1
  6
Continuous
 62
     2
370
     9
100
AcDbLine
 10
-733.1622922742689
 20
-118.8108537003799
 30
0.0
 11
-730.1623937245962
 21
-115.8108932907516
 31
0.0
  0
LINE
  5
177
330
1F
100
AcDbEntity
  8
0-1
  6
Continuous
 62
     2
370
     9
100
AcDbLine
 10
-86.16233516383815
 20
-104.8108322555953
 30
0.0
 11
-92.66233186464035
 21
-98.3108355547931
 31
0.0
  0
LINE
  5
178
330
1F
100
AcDbEntity
  8
0-1
  6
Continuous
 62
     2
370
     9
100
AcDbLine
 10
-52.66238547660194
 20
-138.310843802787
 30
0.0
 11
-57.6622782526789
 21
-133.3109510267101
 31
0.0
  0
LINE
  5
179
330
1F
100
AcDbEntity
  8
0-1
  6
Continuous
 62
     2
370
     9
100
AcDbLine
 10
-72.16225185909764
 20
-118.8109774202911
 30
0.0
 11
-75.16233598863735
 21
-115.8108932907516
 31
0.0
  0
LINE
  5
17A
330
1F
100
AcDbEntity
  8
0-1
  6
JWW_CENTER1
 62
     2
370
     9
100
AcDbLine
 10
443.3752781636011
 20
575.6891364020273
 30
0.0
 11
443.3752781636011
 21
595.68920238598
 31
0.0
  0
LINE
  5
17B
330
1F
100
AcDbEntity
  8
0-1
  6
JWW_CENTER1
 62
     2
370
     9
100
AcDbLine
 10
433.8753210531701
 20
566.1893030115078
 30
0.0
 11
403.8753457971524
 21
566.1893030115078
 31
0.0
  0
LINE
  5
17C
330
1F
100
AcDbEntity
  8
0-1
  6
JWW_CENTER1
 62
     2
370
     9
100
AcDbLine
 10
433.8753210531701
 20
-142.8107844172297
 30
0.0
 11
403.8753457971524
 21
-142.8107844172297
 31
0.0
  0
LINE
  5
17D
330
1F
100
AcDbEntity
  8
0-1
  6
Continuous
 62
     2
370
     9
100
AcDbLine
 10
438.8753375491581
 20
-152.3107415276604
 30
0.0
 11
438.8753375491581
 21
-167.3107910156247
 31
0.0
  0
LINE
  5
17E
330
1F
100
AcDbEntity
  8
0-1
  6
Continuous
 62
     2
370
     9
100
AcDbLine
 10
447.8752187780435
 20
-152.3107415276604
 30
0.0
 11
447.8752187780435
 21
-167.3107910156247
 31
0.0
  0
LINE
  5
17F
330
1F
100
AcDbEntity
  8
0-1
  6
JWW_CENTER1
 62
     2
370
     9
100
AcDbLine
 10
443.3752781636011
 20
-152.3107415276604
 30
0.0
 11
443.3752781636011
 21
-172.310807511613
 31
0.0
  0
LINE
  5
180
330
1F
100
AcDbEntity
  8
0-0
  6
Continuous
 62
     3
370
     9
100
AcDbLine
 10
-746.6622996974636
 20
-382.3639575855151
 30
0.0
 11
-58.66230629585857
 21
-382.3639575855151
 31
0.0
  0
LINE
  5
181
330
1F
100
AcDbEntity
  8
0-0
  6
Continuous
 62
     3
370
     9
100
AcDbLine
 10
-73.91115652548294
 20
-422.3639658335091
 30
0.0
 11
-731.4134494678394
 21
-422.3639658335091
 31
0.0
  0
LINE
  5
182
330
1F
100
AcDbEntity
  8
0-0
  6
Continuous
 62
     3
370
     9
100
AcDbLine
 10
-187.1252678536079
 20
-458.4024625211147
 30
0.0
 11
-185.3502582859346
 21
-432.2503002269848
 31
0.0
  0
LINE
  5
183
330
1F
100
AcDbEntity
  8
0-0
  6
Continuous
 62
     3
370
     9
100
AcDbLine
 10
-68.41322924639712
 20
-429.364038415857
 30
0.0
 11
-182.3524011147987
 21
-429.364038415857
 31
0.0
  0
LINE
  5
184
330
1F
100
AcDbEntity
  8
0-0
  6
Continuous
 62
     3
370
     9
100
AcDbLine
 10
-288.3524044139965
 20
-429.364038415857
 30
0.0
 11
-198.9722535416884
 21
-429.364038415857
 31
0.0
  0
LINE
  5
185
330
1F
100
AcDbEntity
  8
0-0
  6
Continuous
 62
     3
370
     9
100
AcDbLine
 10
-194.1993249429237
 20
-458.4024625211147
 30
0.0
 11
-195.9745200904638
 21
-432.2481969884922
 31
0.0
  0
LINE
  5
186
330
1F
100
AcDbEntity
  8
0-0
  6
Continuous
 62
     3
370
     9
100
AcDbLine
 10
-68.98759893468906
 20
-429.6305311048351
 30
0.0
 11
-68.16226340628944
 21
-442.3640318174619
 31
0.0
  0
LINE
  5
187
330
1F
100
AcDbEntity
  8
0-0
  6
Continuous
 62
     3
370
     9
100
AcDbLine
 10
-188.0015141255144
 20
-459.364013671875
 30
0.0
 11
-67.44369816135702
 21
-429.2448961412584
 31
0.0
  0
LINE
  5
188
330
1F
100
AcDbEntity
  8
0-0
  6
Continuous
 62
     3
370
     9
100
AcDbLine
 10
-188.0015141255144
 20
-459.364013671875
 30
0.0
 11
-617.3230918678076
 21
-459.364013671875
 31
0.0
  0
LINE
  5
189
330
1F
100
AcDbEntity
  8
0-0
  6
Continuous
 62
     3
370
     9
100
AcDbLine
 10
-410.9721982801283
 20
-429.364038415857
 30
0.0
 11
-500.3524110123917
 21
-429.364038415857
 31
0.0
  0
LINE
  5
18A
330
1F
100
AcDbEntity
  8
0-0
  6
Continuous
 62
     3
370
     9
100
AcDbLine
 10
-746.6622996974636
 20
-382.3639575855151
 30
0.0
 11
-747.6623277406434
 21
-388.3640021246831
 31
0.0
  0
LINE
  5
18B
330
1F
100
AcDbEntity
  8
0-0
  6
Continuous
 62
     3
370
     9
100
AcDbLine
 10
-747.6623277406434
 20
-388.3640021246831
 30
0.0
 11
-744.1622914494694
 21
-442.3640318174619
 31
0.0
  0
LINE
  5
18C
330
1F
100
AcDbEntity
  8
0-0
  6
Continuous
 62
     3
370
     9
100
AcDbLine
 10
-744.1622914494694
 20
-442.3640318174619
 30
0.0
 11
-737.1623425870328
 21
-442.3640318174619
 31
0.0
  0
LINE
  5
18D
330
1F
100
AcDbEntity
  8
0-0
  6
Continuous
 62
     3
370
     9
100
AcDbLine
 10
-505.1253396111565
 20
-458.4024625211147
 30
0.0
 11
-503.3502681835278
 21
-432.2486918681376
 31
0.0
  0
LINE
  5
18E
330
1F
100
AcDbEntity
  8
0-0
  6
Continuous
 62
     3
370
     9
100
AcDbLine
 10
-512.1993348405167
 20
-458.4024625211147
 30
0.0
 11
-513.9744681281012
 21
-432.2486918681376
 31
0.0
  0
LINE
  5
18F
330
1F
100
AcDbEntity
  8
0-0
  6
Continuous
 62
     3
370
     9
100
AcDbLine
 10
-406.1993315413191
 20
-458.4024625211147
 30
0.0
 11
-407.9744648289034
 21
-432.2486918681376
 31
0.0
  0
LINE
  5
190
330
1F
100
AcDbEntity
  8
0-0
  6
Continuous
 62
     3
370
     9
100
AcDbLine
 10
-744.0043629826725
 20
-390.1897368559963
 30
0.0
 11
-740.8961476506413
 21
-425.7126926731418
 31
0.0
  0
LINE
  5
191
330
1F
100
AcDbEntity
  8
0-0
  6
Continuous
 62
     3
370
     9
100
AcDbLine
 10
-745.9968102944863
 20
-388.3640021246831
 30
0.0
 11
-747.6623277406434
 21
-388.3640021246831
 31
0.0
  0
LINE
  5
192
330
1F
100
AcDbEntity
  8
0-0
  6
Continuous
 62
     3
370
     9
100
AcDbLine
 10
-618.1993381397144
 20
-458.4024625211147
 30
0.0
 11
-619.9743477073876
 21
-432.2503002269848
 31
0.0
  0
LINE
  5
193
330
1F
100
AcDbEntity
  8
0-0
  6
Continuous
 62
     3
370
     9
100
AcDbLine
 10
-736.9113767469252
 20
-429.364038415857
 30
0.0
 11
-622.9722048785235
 21
-429.364038415857
 31
0.0
  0
LINE
  5
194
330
1F
100
AcDbEntity
  8
0-0
  6
Continuous
 62
     3
370
     9
100
AcDbLine
 10
-516.9722015793258
 20
-429.364038415857
 30
0.0
 11
-606.3524143115894
 21
-429.364038415857
 31
0.0
  0
LINE
  5
195
330
1F
100
AcDbEntity
  8
0-0
  6
Continuous
 62
     3
370
     9
100
AcDbLine
 10
-611.1252810503985
 20
-458.4024625211147
 30
0.0
 11
-609.3500859028584
 21
-432.2481969884922
 31
0.0
  0
LINE
  5
196
330
1F
100
AcDbEntity
  8
0-0
  6
Continuous
 62
     3
370
     9
100
AcDbLine
 10
-736.3370070586334
 20
-429.6305311048351
 30
0.0
 11
-737.1623425870328
 21
-442.3640318174619
 31
0.0
  0
LINE
  5
197
330
1F
100
AcDbEntity
  8
0-0
  6
Continuous
 62
     3
370
     9
100
AcDbLine
 10
-617.3230918678076
 20
-459.364013671875
 30
0.0
 11
-737.8809078319653
 21
-429.2448961412584
 31
0.0
  0
LINE
  5
198
330
1F
100
AcDbEntity
  8
0-F
  6
Continuous
 62
     7
370
     9
100
AcDbLine
 10
-652.6622617566908
 20
600.6892188819683
 30
0.0
 11
-652.6622617566908
 21
623.7394755595443
 31
0.0
  0
LINE
  5
199
330
1F
100
AcDbEntity
  8
0-F
  6
Continuous
 62
     7
370
     9
100
AcDbLine
 10
-152.6622823766758
 20
600.6892188819683
 30
0.0
 11
-152.6622823766758
 21
623.7394755595443
 31
0.0
  0
LINE
  5
19A
330
1F
100
AcDbEntity
  8
0-0
  6
Continuous
 62
     3
370
     9
100
AcDbLine
 10
-67.74211058745493
 20
-383.276763091216
 30
0.0
 11
-70.92257834769569
 21
-419.6254255964948
 31
0.0
  0
LINE
  5
19B
330
1F
100
AcDbEntity
  8
0-0
  6
Continuous
 62
     3
370
     9
100
AcDbLine
 10
-737.5824954058673
 20
-383.276763091216
 30
0.0
 11
-734.4020276456265
 21
-419.6254255964948
 31
0.0
  0
LINE
  5
19C
330
1F
100
AcDbEntity
  8
0-0
  6
JWW_CENTER1
 62
     3
370
     9
100
AcDbLine
 10
-402.6623029966612
 20
-357.3639988254855
 30
0.0
 11
-402.6623029966612
 21
-484.3640961518156
 31
0.0
  0
LINE
  5
19D
330
1F
100
AcDbEntity
  8
0-F
  6
Continuous
 62
     7
370
     9
100
AcDbLine
 10
428.8753045571823
 20
511.6891974371835
 30
0.0
 11
529.3752154788456
 21
511.6891974371835
 31
0.0
  0
LINE
  5
19E
330
1F
100
AcDbEntity
  8
0-F
  6
Continuous
 62
     7
370
     9
100
AcDbLine
 10
428.8753045571823
 20
-88.31080256281666
 30
0.0
 11
529.3752154788456
 21
-88.31080256281666
 31
0.0
  0
LINE
  5
19F
330
1F
100
AcDbEntity
  8
0-F
  6
Continuous
 62
     7
370
     9
100
AcDbLine
 10
420.6753962748761
 20
-143.3107365788639
 30
0.0
 11
420.6753962748761
 21
-214.81070028769
 31
0.0
  0
LINE
  5
1A0
330
1F
100
AcDbEntity
  8
0-F
  6
Continuous
 62
     7
370
     9
100
AcDbLine
 10
423.8754117811052
 20
-143.3107365788639
 30
0.0
 11
423.8754117811052
 21
-264.8107415276604
 31
0.0
  0
LINE
  5
1A1
330
1F
100
AcDbEntity
  8
0-F
  6
Continuous
 62
     7
370
     9
100
AcDbLine
 10
185.6753632828998
 20
-138.3107200828756
 30
0.0
 11
185.6753632828998
 21
561.689238677154
 31
0.0
  0
LINE
  5
1A2
330
1F
100
AcDbEntity
  8
0-0
  6
Continuous
 62
     3
370
     9
100
AcDbLine
 10
360.6754457628406
 20
520.6890786660687
 30
0.0
 11
360.6754457628406
 21
-97.31068379170168
 31
0.0
  0
LINE
  5
1A3
330
1F
100
AcDbEntity
  8
0-0
  6
Continuous
 62
     3
370
     9
100
AcDbLine
 10
410.4758030659448
 20
426.8758577913854
 30
0.0
 11
436.7419113983982
 21
428.6269894161742
 31
0.0
  0
LINE
  5
1A4
330
1F
100
AcDbEntity
  8
0-0
  6
Continuous
 62
     3
370
     9
100
AcDbLine
 10
410.4758030659448
 20
436.5025040910053
 30
0.0
 11
436.7419113983982
 21
434.7513724662164
 31
0.0
  0
LINE
  5
1A5
330
1F
100
AcDbEntity
  8
0-0
  6
Continuous
 62
     3
370
     9
100
AcDbLine
 10
410.4758030659448
 20
216.5025205869935
 30
0.0
 11
436.7419113983982
 21
214.7513889622046
 31
0.0
  0
LINE
  5
1A6
330
1F
100
AcDbEntity
  8
0-0
  6
Continuous
 62
     3
370
     9
100
AcDbLine
 10
407.6754028732711
 20
423.8824545370568
 30
0.0
 11
407.6754028732711
 21
219.4959238413219
 31
0.0
  0
LINE
  5
1A7
330
1F
100
AcDbEntity
  8
0-0
  6
Continuous
 62
     3
370
     9
100
AcDbLine
 10
420.6753962748761
 20
548.1891693940037
 30
0.0
 11
420.6753962748761
 21
511.1891215556379
 31
0.0
  0
LINE
  5
1A8
330
1F
100
AcDbEntity
  8
0-0
  6
Continuous
 62
     3
370
     9
100
AcDbLine
 10
420.6032675665782
 20
511.1698212494724
 30
0.0
 11
420.6753962748761
 21
511.1891215556379
 31
0.0
  0
LINE
  5
1A9
330
1F
100
AcDbEntity
  8
0-0
  6
Continuous
 62
     3
370
     9
100
AcDbLine
 10
417.0946946015232
 20
504.9490603885138
 30
0.0
 11
437.6361589174013
 21
434.0309514226142
 31
0.0
  0
LINE
  5
1AA
330
1F
100
AcDbEntity
  8
0-0
  6
Continuous
 62
     3
370
     9
100
AcDbLine
 10
407.6754028732711
 20
510.9380938555746
 30
0.0
 11
407.6754028732711
 21
439.4959073453339
 31
0.0
  0
LINE
  5
1AB
330
1F
100
AcDbEntity
  8
0-0
  6
Continuous
 62
     3
370
     9
100
AcDbLine
 10
360.6754457628406
 20
511.6891974371835
 30
0.0
 11
397.93691377382
 21
508.4288066142317
 31
0.0
  0
LINE
  5
1AC
330
1F
100
AcDbEntity
  8
0-0
  6
Continuous
 62
     3
370
     9
100
AcDbLine
 10
400.6754540108346
 20
505.4402284364446
 30
0.0
 11
400.6754540108346
 21
-82.0618335620776
 31
0.0
  0
LINE
  5
1AD
330
1F
100
AcDbEntity
  8
0-0
  6
Continuous
 62
     3
370
     9
100
AcDbLine
 10
368.5009775934992
 20
518.0312038112334
 30
0.0
 11
404.024057130556
 21
514.9228647592907
 31
0.0
  0
LINE
  5
1AE
330
1F
100
AcDbEntity
  8
0-0
  6
Continuous
 62
     3
370
     9
100
AcDbLine
 10
366.6753665820971
 20
520.0235892630915
 30
0.0
 11
366.6753665820971
 21
529.6892073347765
 31
0.0
  0
LINE
  5
1AF
330
1F
100
AcDbEntity
  8
0-0
  6
Continuous
 62
     3
370
     9
100
AcDbLine
 10
437.6753781292888
 20
-10.37517650707329
 30
0.0
 11
437.6753781292888
 21
433.7535713814402
 31
0.0
  0
LINE
  5
1B0
330
1F
100
AcDbEntity
  8
0-0
  6
Continuous
 62
     3
370
     9
100
AcDbLine
 10
360.6754457628406
 20
-97.31068379170168
 30
0.0
 11
366.6753665820971
 21
-98.3108355547931
 31
0.0
  0
LINE
  5
1B1
330
1F
100
AcDbEntity
  8
0-0
  6
Continuous
 62
     3
370
     9
100
AcDbLine
 10
366.6753665820971
 20
-104.8108322555953
 30
0.0
 11
360.6754457628406
 21
-105.8108602987751
 31
0.0
  0
LINE
  5
1B2
330
1F
100
AcDbEntity
  8
0-0
  6
Continuous
 62
     3
370
     9
100
AcDbLine
 10
360.6754457628406
 20
-105.8108602987751
 30
0.0
 11
360.6754457628406
 21
-114.8107415276604
 31
0.0
  0
LINE
  5
1B3
330
1F
100
AcDbEntity
  8
0-0
  6
Continuous
 62
     3
370
     9
100
AcDbLine
 10
360.6754457628406
 20
-114.8107415276604
 30
0.0
 11
366.6753665820971
 21
-115.8108932907516
 31
0.0
  0
LINE
  5
1B4
330
1F
100
AcDbEntity
  8
0-0
  6
Continuous
 62
     3
370
     9
100
AcDbLine
 10
366.6753665820971
 20
-122.3107662716424
 30
0.0
 11
360.6754457628406
 21
-123.3109180347338
 31
0.0
  0
LINE
  5
1B5
330
1F
100
AcDbEntity
  8
0-0
  6
Continuous
 62
     3
370
     9
100
AcDbLine
 10
360.6754457628406
 20
-123.3109180347338
 30
0.0
 11
360.6754457628406
 21
-132.3107992636189
 31
0.0
  0
LINE
  5
1B6
330
1F
100
AcDbEntity
  8
0-0
  6
Continuous
 62
     3
370
     9
100
AcDbLine
 10
360.6754457628406
 20
-132.3107992636189
 30
0.0
 11
366.6753665820971
 21
-133.3109510267101
 31
0.0
  0
LINE
  5
1B7
330
1F
100
AcDbEntity
  8
0-0
  6
Continuous
 62
     3
370
     9
100
AcDbLine
 10
366.6753665820971
 20
-114.3109130859372
 30
0.0
 11
373.3614380295211
 21
-113.4750613650758
 31
0.0
  0
LINE
  5
1B8
330
1F
100
AcDbEntity
  8
0-0
  6
Continuous
 62
     3
370
     9
100
AcDbLine
 10
366.6753665820971
 20
-131.8108471019848
 30
0.0
 11
420.6753962748761
 21
-124.8107745196369
 31
0.0
  0
LINE
  5
1B9
330
1F
100
AcDbEntity
  8
0-0
  6
Continuous
 62
     3
370
     9
100
AcDbLine
 10
374.6753434877138
 20
-108.6348909945099
 30
0.0
 11
374.6753434877138
 21
-111.9865871120142
 31
0.0
  0
LINE
  5
1BA
330
1F
100
AcDbEntity
  8
0-0
  6
Continuous
 62
     3
370
     9
100
AcDbLine
 10
374.6753434877138
 20
-126.1349487304685
 30
0.0
 11
374.6753434877138
 21
-129.455591150232
 31
0.0
  0
LINE
  5
1BB
330
1F
100
AcDbEntity
  8
0-0
  6
Continuous
 62
     3
370
     9
100
AcDbLine
 10
366.6753665820971
 20
-123.8108701963681
 30
0.0
 11
373.3614380295211
 21
-124.6465981973182
 31
0.0
  0
LINE
  5
1BC
330
1F
100
AcDbEntity
  8
0-0
  6
Continuous
 62
     3
370
     9
100
AcDbLine
 10
373.3614380295211
 20
-107.1466641812708
 30
0.0
 11
366.6753665820971
 21
-106.3108124604094
 31
0.0
  0
LINE
  5
1BD
330
1F
100
AcDbEntity
  8
0-0
  6
Continuous
 62
     3
370
     9
100
AcDbLine
 10
366.6753665820971
 20
-114.3109130859372
 30
0.0
 11
366.6753665820971
 21
-123.8108701963681
 31
0.0
  0
LINE
  5
1BE
330
1F
100
AcDbEntity
  8
0-0
  6
Continuous
 62
     3
370
     9
100
AcDbLine
 10
366.6753665820971
 20
-131.8108471019848
 30
0.0
 11
366.6753665820971
 21
-133.3109510267101
 31
0.0
  0
LINE
  5
1BF
330
1F
100
AcDbEntity
  8
0-0
  6
Continuous
 62
     3
370
     9
100
AcDbLine
 10
420.6697051589555
 20
-87.80924204233514
 30
0.0
 11
420.6753962748761
 21
-87.81072668127081
 31
0.0
  0
LINE
  5
1C0
330
1F
100
AcDbEntity
  8
0-0
  6
Continuous
 62
     3
370
     9
100
AcDbLine
 10
410.4758030659448
 20
-3.497462917018339
 30
0.0
 11
436.7419113983982
 21
-5.248594541807279
 31
0.0
  0
LINE
  5
1C1
330
1F
100
AcDbEntity
  8
0-0
  6
Continuous
 62
     3
370
     9
100
AcDbLine
 10
410.4758030659448
 20
-13.12410921663826
 30
0.0
 11
436.7419113983982
 21
-11.37297759184946
 31
0.0
  0
LINE
  5
1C2
330
1F
100
AcDbEntity
  8
0-0
  6
Continuous
 62
     3
370
     9
100
AcDbLine
 10
410.4758030659448
 20
206.8758742873735
 30
0.0
 11
436.7419113983982
 21
208.6270059121624
 31
0.0
  0
LINE
  5
1C3
330
1F
100
AcDbEntity
  8
0-0
  6
Continuous
 62
     3
370
     9
100
AcDbLine
 10
407.6754028732711
 20
-0.5040596626899685
 30
0.0
 11
407.6754028732711
 21
203.8824710330449
 31
0.0
  0
LINE
  5
1C4
330
1F
100
AcDbEntity
  8
0-0
  6
Continuous
 62
     3
370
     9
100
AcDbLine
 10
420.6753962748761
 20
-124.8107745196369
 30
0.0
 11
420.6753962748761
 21
-87.81072668127081
 31
0.0
  0
LINE
  5
1C5
330
1F
100
AcDbEntity
  8
0-0
  6
Continuous
 62
     3
370
     9
100
AcDbLine
 10
420.6032675665782
 20
-87.7914263751056
 30
0.0
 11
420.6753962748761
 21
-87.81072668127081
 31
0.0
  0
LINE
  5
1C6
330
1F
100
AcDbEntity
  8
0-0
  6
Continuous
 62
     3
370
     9
100
AcDbLine
 10
417.0946946015232
 20
-81.57066551414687
 30
0.0
 11
437.6361589174013
 21
-10.65255654824725
 31
0.0
  0
LINE
  5
1C7
330
1F
100
AcDbEntity
  8
0-0
  6
Continuous
 62
     3
370
     9
100
AcDbLine
 10
407.6754028732711
 20
-87.55969898120767
 30
0.0
 11
407.6754028732711
 21
-16.11751247096706
 31
0.0
  0
LINE
  5
1C8
330
1F
100
AcDbEntity
  8
0-0
  6
Continuous
 62
     3
370
     9
100
AcDbLine
 10
360.6754457628406
 20
-88.31080256281666
 30
0.0
 11
397.93691377382
 21
-85.05041173986456
 31
0.0
  0
LINE
  5
1C9
330
1F
100
AcDbEntity
  8
0-0
  6
Continuous
 62
     3
370
     9
100
AcDbLine
 10
366.6753665820971
 20
-96.64519438872446
 30
0.0
 11
366.6753665820971
 21
-106.3108124604094
 31
0.0
  0
LINE
  5
1CA
330
1F
100
AcDbEntity
  8
0-E
  6
Continuous
 62
     7
370
     9
100
AcDbLine
 10
83.69563850196641
 20
648.5007786106422
 30
0.0
 11
320.3223408879461
 21
648.5007786106422
 31
0.0
  0
LINE
  5
1CB
330
1F
100
AcDbEntity
  8
0-1
  6
Continuous
 62
     2
370
     9
100
AcDbLine
 10
-781.6622914494694
 20
-42.81082565719998
 30
0.0
 11
-781.6622914494694
 21
-33.8107588484479
 31
0.0
  0
LINE
  5
1CC
330
1F
100
AcDbEntity
  8
0-1
  6
Continuous
 62
     2
370
     9
100
AcDbLine
 10
-757.1569648948877
 20
-33.8107588484479
 30
0.0
 11
-781.6622914494694
 21
-33.8107588484479
 31
0.0
  0
LINE
  5
1CD
330
1F
100
AcDbEntity
  8
0-1
  6
Continuous
 62
     2
370
     9
100
AcDbLine
 10
-757.1624085709856
 20
-42.81082565719998
 30
0.0
 11
-781.6622914494694
 21
-42.81082565719998
 31
0.0
  0
LINE
  5
1CE
330
1F
100
AcDbEntity
  8
0-1
  6
Continuous
 62
     2
370
     9
100
AcDbLine
 10
-48.16232114224817
 20
-42.81082565719998
 30
0.0
 11
-23.66243826376419
 21
-42.81082565719998
 31
0.0
  0
LINE
  5
1CF
330
1F
100
AcDbEntity
  8
0-1
  6
Continuous
 62
     2
370
     9
100
AcDbLine
 10
-48.16764109843461
 20
-33.8107588484479
 30
0.0
 11
-23.66243826376419
 21
-33.8107588484479
 31
0.0
  0
LINE
  5
1D0
330
1F
100
AcDbEntity
  8
0-1
  6
Continuous
 62
     2
370
     9
100
AcDbLine
 10
-757.1624085709856
 20
466.1892205315669
 30
0.0
 11
-781.6622914494694
 21
466.1892205315669
 31
0.0
  0
LINE
  5
1D1
330
1F
100
AcDbEntity
  8
0-1
  6
Continuous
 62
     2
370
     9
100
AcDbLine
 10
-757.1569648948877
 20
457.1892155827704
 30
0.0
 11
-781.6622914494694
 21
457.1892155827704
 31
0.0
  0
LINE
  5
1D2
330
1F
100
AcDbEntity
  8
0-1
  6
Continuous
 62
     2
370
     9
100
AcDbLine
 10
-23.66243826376419
 20
-42.81082565719998
 30
0.0
 11
-23.66243826376419
 21
-33.8107588484479
 31
0.0
  0
LINE
  5
1D3
330
1F
100
AcDbEntity
  8
0-1
  6
Continuous
 62
     2
370
     9
100
AcDbLine
 10
-23.66243826376419
 20
466.1892205315669
 30
0.0
 11
-23.66243826376419
 21
457.1892155827704
 31
0.0
  0
LINE
  5
1D4
330
1F
100
AcDbEntity
  8
0-1
  6
Continuous
 62
     2
370
     9
100
AcDbLine
 10
-48.16764109843461
 20
457.1892155827704
 30
0.0
 11
-23.66243826376419
 21
457.1892155827704
 31
0.0
  0
LINE
  5
1D5
330
1F
100
AcDbEntity
  8
0-1
  6
Continuous
 62
     2
370
     9
100
AcDbLine
 10
-48.16232114224817
 20
466.1892205315669
 30
0.0
 11
-23.66243826376419
 21
466.1892205315669
 31
0.0
  0
LINE
  5
1D6
330
1F
100
AcDbEntity
  8
0-1
  6
Continuous
 62
     2
370
     9
100
AcDbLine
 10
-781.6622914494694
 20
466.1892205315669
 30
0.0
 11
-781.6622914494694
 21
457.1892155827704
 31
0.0
  0
LINE
  5
1D7
330
1F
100
AcDbEntity
  8
0-1
  6
JWW_CENTER1
 62
     2
370
     9
100
AcDbLine
 10
-757.1624085709856
 20
-47.8107184332768
 30
0.0
 11
-757.1624085709856
 21
-28.81080421241535
 31
0.0
  0
LINE
  5
1D8
330
1F
100
AcDbEntity
  8
0-1
  6
JWW_CENTER1
 62
     2
370
     9
100
AcDbLine
 10
-744.4623122344146
 20
-38.31076132284622
 30
0.0
 11
-786.6623079454577
 21
-38.31076132284622
 31
0.0
  0
LINE
  5
1D9
330
1F
100
AcDbEntity
  8
0-1
  6
JWW_CENTER1
 62
     2
370
     9
100
AcDbLine
 10
-757.1624085709856
 20
452.1891990867823
 30
0.0
 11
-757.1624085709856
 21
471.1892370275551
 31
0.0
  0
LINE
  5
1DA
330
1F
100
AcDbEntity
  8
0-1
  6
JWW_CENTER1
 62
     2
370
     9
100
AcDbLine
 10
-744.4623122344146
 20
461.6892799171244
 30
0.0
 11
-786.6623079454577
 21
461.6892799171244
 31
0.0
  0
LINE
  5
1DB
330
1F
100
AcDbEntity
  8
0-1
  6
JWW_CENTER1
 62
     2
370
     9
100
AcDbLine
 10
-48.1621974223367
 20
-47.8107184332768
 30
0.0
 11
-48.1621974223367
 21
-28.81080421241535
 31
0.0
  0
LINE
  5
1DC
330
1F
100
AcDbEntity
  8
0-1
  6
JWW_CENTER1
 62
     2
370
     9
100
AcDbLine
 10
-60.86229375890781
 20
-38.31076132284622
 30
0.0
 11
-18.66229804786471
 21
-38.31076132284622
 31
0.0
  0
LINE
  5
1DD
330
1F
100
AcDbEntity
  8
0-1
  6
JWW_CENTER1
 62
     2
370
     9
100
AcDbLine
 10
-48.1621974223367
 20
452.1891990867823
 30
0.0
 11
-48.1621974223367
 21
471.1892370275551
 31
0.0
  0
LINE
  5
1DE
330
1F
100
AcDbEntity
  8
0-1
  6
JWW_CENTER1
 62
     2
370
     9
100
AcDbLine
 10
-60.86229375890781
 20
461.6892799171244
 30
0.0
 11
-18.66229804786471
 21
461.6892799171244
 31
0.0
  0
LINE
  5
1DF
330
1F
100
AcDbEntity
  8
0-1
  6
Continuous
 62
     2
370
     9
100
AcDbLine
 10
-761.6622254655168
 20
-455.5638328758445
 30
0.0
 11
-761.6622254655168
 21
-430.563874115815
 31
0.0
  0
LINE
  5
1E0
330
1F
100
AcDbEntity
  8
0-1
  6
Continuous
 62
     2
370
     9
100
AcDbLine
 10
-752.6622823766759
 20
-430.563874115815
 30
0.0
 11
-761.6622254655168
 21
-430.563874115815
 31
0.0
  0
LINE
  5
1E1
330
1F
100
AcDbEntity
  8
0-1
  6
Continuous
 62
     2
370
     9
100
AcDbLine
 10
-781.6622914494694
 20
-469.5637306007177
 30
0.0
 11
-781.6622914494694
 21
-460.5638493718327
 31
0.0
  0
LINE
  5
1E2
330
1F
100
AcDbEntity
  8
0-1
  6
Continuous
 62
     2
370
     9
100
AcDbLine
 10
-23.66231454385286
 20
-469.5637306007177
 30
0.0
 11
-23.66231454385286
 21
-460.5638493718327
 31
0.0
  0
LINE
  5
1E3
330
1F
100
AcDbEntity
  8
0-1
  6
Continuous
 62
     2
370
     9
100
AcDbLine
 10
-38.66236403181745
 20
-469.5637306007177
 30
0.0
 11
-23.66231454385286
 21
-469.5637306007177
 31
0.0
  0
LINE
  5
1E4
330
1F
100
AcDbEntity
  8
0-1
  6
Continuous
 62
     2
370
     9
100
AcDbLine
 10
-38.66236403181745
 20
-460.5638493718327
 30
0.0
 11
-23.66231454385286
 21
-460.5638493718327
 31
0.0
  0
LINE
  5
1E5
330
1F
100
AcDbEntity
  8
0-1
  6
Continuous
 62
     2
370
     9
100
AcDbLine
 10
-52.66226175669075
 20
-430.563874115815
 30
0.0
 11
-43.66225680789427
 21
-430.563874115815
 31
0.0
  0
LINE
  5
1E6
330
1F
100
AcDbEntity
  8
0-1
  6
Continuous
 62
     2
370
     9
100
AcDbLine
 10
-43.66225680789427
 20
-455.5638328758445
 30
0.0
 11
-43.66225680789427
 21
-430.563874115815
 31
0.0
  0
LINE
  5
1E7
330
1F
100
AcDbEntity
  8
0-1
  6
JWW_CENTER1
 62
     2
370
     9
100
AcDbLine
 10
-38.66236403181745
 20
-465.0637899862751
 30
0.0
 11
-18.66229804786471
 21
-465.0637899862751
 31
0.0
  0
LINE
  5
1E8
330
1F
100
AcDbEntity
  8
0-1
  6
JWW_CENTER1
 62
     2
370
     9
100
AcDbLine
 10
-48.1621974223367
 20
-455.5638328758445
 30
0.0
 11
-48.1621974223367
 21
-425.5638576198268
 31
0.0
  0
LINE
  5
1E9
330
1F
100
AcDbEntity
  8
0-1
  6
JWW_CENTER1
 62
     2
370
     9
100
AcDbLine
 10
-757.1622848510742
 20
-455.5638328758445
 30
0.0
 11
-757.1622848510742
 21
-425.5638576198268
 31
0.0
  0
LINE
  5
1EA
330
1F
100
AcDbEntity
  8
0-1
  6
Continuous
 62
     2
370
     9
100
AcDbLine
 10
-766.662241961505
 20
-460.5638493718327
 30
0.0
 11
-781.6622914494694
 21
-460.5638493718327
 31
0.0
  0
LINE
  5
1EB
330
1F
100
AcDbEntity
  8
0-1
  6
Continuous
 62
     2
370
     9
100
AcDbLine
 10
-766.662241961505
 20
-469.5637306007177
 30
0.0
 11
-781.6622914494694
 21
-469.5637306007177
 31
0.0
  0
LINE
  5
1EC
330
1F
100
AcDbEntity
  8
0-1
  6
JWW_CENTER1
 62
     2
370
     9
100
AcDbLine
 10
-766.662241961505
 20
-465.0637899862751
 30
0.0
 11
-786.6623079454577
 21
-465.0637899862751
 31
0.0
  0
LINE
  5
1ED
330
1F
100
AcDbEntity
  8
0-F
  6
Continuous
 62
     7
370
     9
100
AcDbLine
 10
285.6754457628405
 20
-133.3109510267101
 30
0.0
 11
283.7175781662401
 21
-118.4392609467375
 31
0.0
  0
LINE
  5
1EE
330
1F
100
AcDbEntity
  8
0-F
  6
Continuous
 62
     7
370
     9
100
AcDbLine
 10
285.6754457628405
 20
-133.3109510267101
 30
0.0
 11
287.6333133594412
 21
-118.4392609467375
 31
0.0
  0
LINE
  5
1EF
330
1F
100
AcDbEntity
  8
0-F
  6
Continuous
 62
     7
370
     9
100
AcDbLine
 10
355.6754292668523
 20
539.1892881651186
 30
0.0
 11
285.6754457628405
 21
539.1892881651186
 31
0.0
  0
LINE
  5
1F0
330
1F
100
AcDbEntity
  8
0-F
  6
Continuous
 62
     7
370
     9
100
AcDbLine
 10
355.6754292668523
 20
545.6891611460095
 30
0.0
 11
285.6754457628405
 21
545.6891611460095
 31
0.0
  0
LINE
  5
1F1
330
1F
100
AcDbEntity
  8
0-F
  6
Continuous
 62
     7
370
     9
100
AcDbLine
 10
355.6754292668523
 20
528.1892271299623
 30
0.0
 11
285.6754457628405
 21
528.1892271299623
 31
0.0
  0
LINE
  5
1F2
330
1F
100
AcDbEntity
  8
0-F
  6
Continuous
 62
     7
370
     9
100
AcDbLine
 10
355.6754292668523
 20
521.6892304291599
 30
0.0
 11
285.6754457628405
 21
521.6892304291599
 31
0.0
  0
LINE
  5
1F3
330
1F
100
AcDbEntity
  8
0-F
  6
Continuous
 62
     7
370
     9
100
AcDbLine
 10
355.6754292668523
 20
556.6893459010771
 30
0.0
 11
234.175424318056
 21
556.6893459010771
 31
0.0
  0
LINE
  5
1F4
330
1F
100
AcDbEntity
  8
0-0
  6
Continuous
 62
     3
370
     9
100
AcDbLine
 10
-131.9920874930716
 20
-433.3640268686653
 30
0.0
 11
-123.8324500418997
 21
-433.3640268686653
 31
0.0
  0
LINE
  5
1F5
330
1F
100
AcDbEntity
  8
0-0
  6
Continuous
 62
     3
370
     9
100
AcDbLine
 10
-122.835824296281
 20
-432.447138605891
 30
0.0
 11
-122.5789817603857
 21
-429.364038415857
 31
0.0
  0
LINE
  5
1F6
330
1F
100
AcDbEntity
  8
0-0
  6
Continuous
 62
     3
370
     9
100
AcDbLine
 10
-132.9887132386902
 20
-432.447138605891
 30
0.0
 11
-133.2456176345413
 21
-429.364038415857
 31
0.0
  0
LINE
  5
1F7
330
1F
100
AcDbEntity
  8
0-0
  6
Continuous
 62
     3
370
     9
100
AcDbLine
 10
378.6753319405221
 20
-95.59524536132784
 30
0.0
 11
378.6753319405221
 21
-130.2850094357049
 31
0.0
  0
LINE
  5
1F8
330
1F
100
AcDbEntity
  8
0-0
  6
Continuous
 62
     3
370
     9
100
AcDbLine
 10
368.5009775934992
 20
-94.65280893686639
 30
0.0
 11
404.024057130556
 21
-91.54446988492367
 31
0.0
  0
LINE
  5
1F9
330
1F
100
AcDbEntity
  8
0-0
  6
Continuous
 62
     3
370
     9
100
AcDbLine
 10
378.6753319405221
 20
518.9735783757392
 30
0.0
 11
378.6753319405221
 21
553.663404310072
 31
0.0
  0
LINE
  5
1FA
330
1F
100
AcDbEntity
  8
0-0
  6
Continuous
 62
     3
370
     9
100
AcDbLine
 10
-133.9122823766758
 20
528.189103410051
 30
0.0
 11
-133.9122823766758
 21
521.6891067092486
 31
0.0
  0
LINE
  5
1FB
330
1F
100
AcDbEntity
  8
0-0
  6
Continuous
 62
     3
370
     9
100
AcDbLine
 10
-121.9122551582954
 20
528.189103410051
 30
0.0
 11
-121.9122551582954
 21
521.6891067092486
 31
0.0
  0
LINE
  5
1FC
330
1F
100
AcDbEntity
  8
0-0
  6
Continuous
 62
     3
370
     9
100
AcDbLine
 10
-133.9122823766758
 20
545.6891611460095
 30
0.0
 11
-133.9122823766758
 21
539.1892881651186
 31
0.0
  0
LINE
  5
1FD
330
1F
100
AcDbEntity
  8
0-0
  6
Continuous
 62
     3
370
     9
100
AcDbLine
 10
-121.9122551582954
 20
545.6891611460095
 30
0.0
 11
-121.9122551582954
 21
539.1892881651186
 31
0.0
  0
LINE
  5
1FE
330
1F
100
AcDbEntity
  8
0-0
  6
Continuous
 62
     3
370
     9
100
AcDbLine
 10
-671.4123236166463
 20
528.189103410051
 30
0.0
 11
-671.4123236166463
 21
521.6891067092486
 31
0.0
  0
LINE
  5
1FF
330
1F
100
AcDbEntity
  8
0-0
  6
Continuous
 62
     3
370
     9
100
AcDbLine
 10
-683.4123508350269
 20
528.189103410051
 30
0.0
 11
-683.4123508350269
 21
521.6891067092486
 31
0.0
  0
LINE
  5
200
330
1F
100
AcDbEntity
  8
0-0
  6
Continuous
 62
     3
370
     9
100
AcDbLine
 10
-671.4123236166463
 20
545.6891611460095
 30
0.0
 11
-671.4123236166463
 21
539.1892881651186
 31
0.0
  0
LINE
  5
201
330
1F
100
AcDbEntity
  8
0-0
  6
Continuous
 62
     3
370
     9
100
AcDbLine
 10
-683.4123508350269
 20
545.6891611460095
 30
0.0
 11
-683.4123508350269
 21
539.1892881651186
 31
0.0
  0
LINE
  5
202
330
1F
100
AcDbEntity
  8
0-0
  6
Continuous
 62
     3
370
     9
100
AcDbLine
 10
-133.9122823766758
 20
-104.8107085356838
 30
0.0
 11
-133.9122823766758
 21
-98.31071183488163
 31
0.0
  0
LINE
  5
203
330
1F
100
AcDbEntity
  8
0-0
  6
Continuous
 62
     3
370
     9
100
AcDbLine
 10
-121.9122551582954
 20
-104.8107085356838
 30
0.0
 11
-121.9122551582954
 21
-98.31071183488163
 31
0.0
  0
LINE
  5
204
330
1F
100
AcDbEntity
  8
0-0
  6
Continuous
 62
     3
370
     9
100
AcDbLine
 10
-133.9122823766758
 20
-122.3107662716424
 30
0.0
 11
-133.9122823766758
 21
-115.8108932907516
 31
0.0
  0
LINE
  5
205
330
1F
100
AcDbEntity
  8
0-0
  6
Continuous
 62
     3
370
     9
100
AcDbLine
 10
-121.9122551582954
 20
-122.3107662716424
 30
0.0
 11
-121.9122551582954
 21
-115.8108932907516
 31
0.0
  0
LINE
  5
206
330
1F
100
AcDbEntity
  8
0-0
  6
Continuous
 62
     3
370
     9
100
AcDbLine
 10
-671.4123236166463
 20
-104.8107085356838
 30
0.0
 11
-671.4123236166463
 21
-98.31071183488163
 31
0.0
  0
LINE
  5
207
330
1F
100
AcDbEntity
  8
0-0
  6
Continuous
 62
     3
370
     9
100
AcDbLine
 10
-683.4123508350269
 20
-104.8107085356838
 30
0.0
 11
-683.4123508350269
 21
-98.31071183488163
 31
0.0
  0
LINE
  5
208
330
1F
100
AcDbEntity
  8
0-0
  6
Continuous
 62
     3
370
     9
100
AcDbLine
 10
-671.4123236166463
 20
-122.3107662716424
 30
0.0
 11
-671.4123236166463
 21
-115.8108932907516
 31
0.0
  0
LINE
  5
209
330
1F
100
AcDbEntity
  8
0-0
  6
Continuous
 62
     3
370
     9
100
AcDbLine
 10
-683.4123508350269
 20
-122.3107662716424
 30
0.0
 11
-683.4123508350269
 21
-115.8108932907516
 31
0.0
  0
LINE
  5
20A
330
1F
100
AcDbEntity
  8
0-1
  6
Continuous
 62
     2
370
     9
100
AcDbLine
 10
-52.66238547660194
 20
-138.3107200828756
 30
0.0
 11
-52.66238547660194
 21
561.689238677154
 31
0.0
  0
LINE
  5
20B
330
1F
100
AcDbEntity
  8
0-1
  6
Continuous
 62
     2
370
     9
100
AcDbLine
 10
-55.86227726291952
 20
-135.1107664366025
 30
0.0
 11
-55.86227726291952
 21
558.489223170925
 31
0.0
  0
LINE
  5
20C
330
1F
100
AcDbEntity
  8
0-0
  6
Continuous
 62
     3
370
     9
100
AcDbLine
 10
-57.6622782526789
 20
556.6893459010771
 30
0.0
 11
-57.6622782526789
 21
-133.3107654468432
 31
0.0
  0
LINE
  5
20D
330
1F
100
AcDbEntity
  8
0-0
  6
Continuous
 62
     3
370
     9
100
AcDbLine
 10
-58.66230629585857
 20
520.6890786660687
 30
0.0
 11
-58.66230629585857
 21
-97.31074565165727
 31
0.0
  0
LINE
  5
20E
330
1F
100
AcDbEntity
  8
0-0
  6
Continuous
 62
     3
370
     9
100
AcDbLine
 10
-67.66231124465506
 20
508.6892370275551
 30
0.0
 11
-67.66231124465506
 21
-85.31078029323268
 31
0.0
  0
LINE
  5
20F
330
1F
100
AcDbEntity
  8
0-0
  6
Continuous
 62
     3
370
     9
100
AcDbLine
 10
-71.16228567587356
 20
505.1890770164698
 30
0.0
 11
-71.16228567587356
 21
-81.81074400205873
 31
0.0
  0
LINE
  5
210
330
1F
100
AcDbEntity
  8
0-1
  6
JWW_DASHED3
 62
     2
370
     9
100
AcDbLine
 10
-702.6623029966612
 20
511.6891974371835
 30
0.0
 11
-702.6623029966612
 21
-88.31074070286093
 31
0.0
  0
LINE
  5
211
330
1F
100
AcDbEntity
  8
0-1
  6
JWW_DASHED3
 62
     2
370
     9
100
AcDbLine
 10
-702.6623029966612
 20
-88.31074070286093
 30
0.0
 11
-102.6623029966612
 21
-88.31074070286093
 31
0.0
  0
LINE
  5
212
330
1F
100
AcDbEntity
  8
0-1
  6
JWW_DASHED3
 62
     2
370
     9
100
AcDbLine
 10
-102.6623029966612
 20
-88.31074070286093
 30
0.0
 11
-102.6623029966612
 21
511.6891974371835
 31
0.0
  0
LINE
  5
213
330
1F
100
AcDbEntity
  8
0-1
  6
JWW_DASHED3
 62
     2
370
     9
100
AcDbLine
 10
-102.6623029966612
 20
511.6891974371835
 30
0.0
 11
-702.6623029966612
 21
511.6891974371835
 31
0.0
  0
LINE
  5
214
330
1F
100
AcDbEntity
  8
0-0
  6
Continuous
 62
     3
370
     9
100
AcDbLine
 10
-673.3325185002508
 20
-433.3640268686653
 30
0.0
 11
-681.4921559514227
 21
-433.3640268686653
 31
0.0
  0
LINE
  5
215
330
1F
100
AcDbEntity
  8
0-0
  6
Continuous
 62
     3
370
     9
100
AcDbLine
 10
-682.4887816970413
 20
-432.447138605891
 30
0.0
 11
-682.7456242329366
 21
-429.364038415857
 31
0.0
  0
LINE
  5
216
330
1F
100
AcDbEntity
  8
0-0
  6
Continuous
 62
     3
370
     9
100
AcDbLine
 10
-672.335892754632
 20
-432.447138605891
 30
0.0
 11
-672.0789883587811
 21
-429.364038415857
 31
0.0
  0
LINE
  5
217
330
1F
100
AcDbEntity
  8
0-E
  6
Continuous
 62
     7
370
     9
100
AcDbLine
 10
573.0115993602857
 20
346.8487466348187
 30
0.0
 11
766.5487598728492
 21
346.8487466348187
 31
0.0
  0
LINE
  5
218
330
1F
100
AcDbEntity
  8
0-F
  6
Continuous
 62
     7
370
     9
100
AcDbLine
 10
412.882402780894
 20
118.5467859216641
 30
0.0
 11
431.8696975708011
 21
118.5467859216641
 31
0.0
  0
LINE
  5
219
330
1F
100
AcDbEntity
  8
0-F
  6
Continuous
 62
     7
370
     9
100
AcDbLine
 10
-813.2125390542519
 20
561.68886751742
 30
0.0
 11
-813.2119204546955
 21
461.6887850374792
 31
0.0
  0
LINE
  5
21A
330
1F
100
AcDbEntity
  8
0-F
  6
Continuous
 62
     7
370
     9
100
AcDbLine
 10
-813.2125390542519
 20
561.68886751742
 30
0.0
 11
-815.1703447908969
 21
546.8172392974031
 31
0.0
  0
LINE
  5
21B
330
1F
100
AcDbEntity
  8
0-F
  6
Continuous
 62
     7
370
     9
100
AcDbLine
 10
-813.2125390542519
 20
561.68886751742
 30
0.0
 11
-811.2546095976959
 21
546.8172392974031
 31
0.0
  0
LINE
  5
21C
330
1F
100
AcDbEntity
  8
0-F
  6
Continuous
 62
     7
370
     9
100
AcDbLine
 10
-813.2119204546955
 20
461.6887850374792
 30
0.0
 11
-815.1698499112515
 21
476.560413257496
 31
0.0
  0
LINE
  5
21D
330
1F
100
AcDbEntity
  8
0-F
  6
Continuous
 62
     7
370
     9
100
AcDbLine
 10
-813.2119204546955
 20
461.6887850374792
 30
0.0
 11
-811.2541147180505
 21
476.5605369774073
 31
0.0
  0
LINE
  5
21E
330
1F
100
AcDbEntity
  8
0-F
  6
Continuous
 62
     7
370
     9
100
AcDbLine
 10
-813.2088274569126
 20
-38.31113248258006
 30
0.0
 11
-813.2082707173116
 21
-138.3110912426098
 31
0.0
  0
LINE
  5
21F
330
1F
100
AcDbEntity
  8
0-F
  6
Continuous
 62
     7
370
     9
100
AcDbLine
 10
-813.2088274569126
 20
-38.31113248258006
 30
0.0
 11
-815.1666331935573
 21
-53.18288442250818
 31
0.0
  0
LINE
  5
220
330
1F
100
AcDbEntity
  8
0-F
  6
Continuous
 62
     7
370
     9
100
AcDbLine
 10
-813.2088274569126
 20
-38.31113248258006
 30
0.0
 11
-811.2508980003563
 21
-53.18282256255259
 31
0.0
  0
LINE
  5
221
330
1F
100
AcDbEntity
  8
0-F
  6
Continuous
 62
     7
370
     9
100
AcDbLine
 10
-813.2082707173116
 20
-138.3110912426098
 30
0.0
 11
-815.1662001738678
 21
-123.4395248825484
 31
0.0
  0
LINE
  5
222
330
1F
100
AcDbEntity
  8
0-F
  6
Continuous
 62
     7
370
     9
100
AcDbLine
 10
-813.2082707173116
 20
-138.3110912426098
 30
0.0
 11
-811.2504649806667
 21
-123.4394630225927
 31
0.0
  0
LINE
  5
223
330
1F
100
AcDbEntity
  8
0-F
  6
Continuous
 62
     7
370
     9
100
AcDbLine
 10
-757.6622988726642
 20
561.689238677154
 30
0.0
 11
-814.7125192590661
 21
561.68886751742
 31
0.0
  0
LINE
  5
224
330
1F
100
AcDbEntity
  8
0-F
  6
Continuous
 62
     7
370
     9
100
AcDbLine
 10
-757.6580305357237
 20
-138.3107200828756
 30
0.0
 11
-814.7082509221257
 21
-138.3110912426098
 31
0.0
  0
LINE
  5
225
330
1F
100
AcDbEntity
  8
0-F
  6
Continuous
 62
     7
370
     9
100
AcDbLine
 10
-791.6616439819336
 20
461.6890324773017
 30
0.0
 11
-814.7119625194653
 21
461.6887850374792
 31
0.0
  0
LINE
  5
226
330
1F
100
AcDbEntity
  8
0-F
  6
Continuous
 62
     7
370
     9
100
AcDbLine
 10
-791.6586128441063
 20
-38.31107062262433
 30
0.0
 11
-814.7088695216823
 21
-38.31113248258006
 31
0.0
  0
LINE
  5
227
330
1F
100
AcDbEntity
  8
0-F
  6
Continuous
 62
     7
370
     9
100
AcDbLine
 10
360.6754457628406
 20
-263.3107613228462
 30
0.0
 11
468.2777456335123
 21
-263.3107613228462
 31
0.0
  0
LINE
  5
228
330
1F
100
AcDbEntity
  8
0-1
  6
Continuous
 62
     2
370
     9
100
AcDbLine
 10
433.8751973332586
 20
-138.3107200828756
 30
0.0
 11
360.6754457628406
 21
-138.3107200828756
 31
0.0
  0
LINE
  5
229
330
1F
100
AcDbEntity
  8
0-1
  6
Continuous
 62
     2
370
     9
100
AcDbLine
 10
433.8753210531701
 20
561.689238677154
 30
0.0
 11
360.6754457628406
 21
561.689238677154
 31
0.0
  0
LINE
  5
22A
330
1F
100
AcDbEntity
  8
0-1
  6
Continuous
 62
     2
370
     9
100
AcDbLine
 10
-752.6623442366316
 20
-382.3639575855151
 30
0.0
 11
-752.6623442366316
 21
-455.5637091559331
 31
0.0
  0
LINE
  5
22B
330
1F
100
AcDbEntity
  8
0-1
  6
Continuous
 62
     2
370
     9
100
AcDbLine
 10
-52.66238547660194
 20
-382.3639575855151
 30
0.0
 11
-52.66238547660194
 21
-455.5638328758445
 31
0.0
  0
ARC
  5
22C
330
1F
100
AcDbEntity
  8
0-1
  6
Continuous
 62
     2
370
     9
100
AcDbCircle
 10
-746.46243018073
 20
-439.3640714078334
 30
0.0
 40
3.000000038662472
100
AcDbArc
 50
180.0
 51
270.0
  0
ARC
  5
22D
330
1F
100
AcDbEntity
  8
0-1
  6
Continuous
 62
     2
370
     9
100
AcDbCircle
 10
-746.6623615574191
 20
-439.5640027845226
 30
0.0
 40
6.000000077324945
100
AcDbArc
 50
180.0
 51
270.0
  0
ARC
  5
22E
330
1F
100
AcDbEntity
  8
0-1
  6
Continuous
 62
     2
370
     9
100
AcDbCircle
 10
-58.66243001577004
 20
-439.5640027845226
 30
0.0
 40
6.000000077324945
100
AcDbArc
 50
271.0856170654297
 51
0.0
  0
ARC
  5
22F
330
1F
100
AcDbEntity
  8
0-1
  6
Continuous
 62
     2
370
     9
100
AcDbCircle
 10
-58.86248511237056
 20
-439.3640714078334
 30
0.0
 40
3.000000038662472
100
AcDbArc
 50
272.1712493896484
 51
0.0
  0
CIRCLE
  5
230
330
1F
100
AcDbEntity
  8
0-1
  6
Continuous
 62
     2
370
     9
100
AcDbCircle
 10
-652.6622617566908
 20
566.1893030115078
 30
0.0
 40
4.499999574712805
  0
ARC
  5
231
330
1F
100
AcDbEntity
  8
0-1
  6
Continuous
 62
     2
370
     9
100
AcDbCircle
 10
417.8753672419367
 20
-132.3107992636189
 30
0.0
 40
5.999999594044042
100
AcDbArc
 50
270.0
 51
0.0
  0
ARC
  5
232
330
1F
100
AcDbEntity
  8
0-1
  6
Continuous
 62
     2
370
     9
100
AcDbCircle
 10
417.6754358652477
 20
-132.1107441670183
 30
0.0
 40
2.999999797022021
100
AcDbArc
 50
270.0
 51
0.0
  0
ARC
  5
233
330
1F
100
AcDbEntity
  8
0-0
  6
Continuous
 62
     3
370
     9
100
AcDbCircle
 10
-731.1622980478647
 20
505.1890770164698
 30
0.0
 40
2.999999797022021
100
AcDbArc
 50
90.0
 51
180.0
  0
ARC
  5
234
330
1F
100
AcDbEntity
  8
0-0
  6
Continuous
 62
     3
370
     9
100
AcDbCircle
 10
-734.6622724790831
 20
508.6892370275551
 30
0.0
 40
2.999999797022021
100
AcDbArc
 50
90.0
 51
180.0
  0
CIRCLE
  5
235
330
1F
100
AcDbEntity
  8
0-1
  6
Continuous
 62
     2
370
     9
100
AcDbCircle
 10
-652.6622617566908
 20
-142.8107844172297
 30
0.0
 40
4.499999574712805
  0
ARC
  5
236
330
1F
100
AcDbEntity
  8
0-0
  6
Continuous
 62
     3
370
     9
100
AcDbCircle
 10
-734.6622724790831
 20
-85.31078029323268
 30
0.0
 40
2.999999797022021
100
AcDbArc
 50
180.0
 51
270.0
  0
ARC
  5
237
330
1F
100
AcDbEntity
  8
0-0
  6
Continuous
 62
     3
370
     9
100
AcDbCircle
 10
-731.1622980478647
 20
-81.81074400205873
 30
0.0
 40
2.999999797022021
100
AcDbArc
 50
180.0
 51
270.0
  0
ARC
  5
238
330
1F
100
AcDbEntity
  8
0-1
  6
Continuous
 62
     2
370
     9
100
AcDbCircle
 10
417.6754358652477
 20
555.4892627612967
 30
0.0
 40
2.999999797022021
100
AcDbArc
 50
0.0
 51
90.0
  0
ARC
  5
239
330
1F
100
AcDbEntity
  8
0-1
  6
Continuous
 62
     2
370
     9
100
AcDbCircle
 10
417.8753672419367
 20
555.6891941379859
 30
0.0
 40
5.999999594044042
100
AcDbArc
 50
0.0
 51
90.0
  0
ARC
  5
23A
330
1F
100
AcDbEntity
  8
0-0
  6
Continuous
 62
     3
370
     9
100
AcDbCircle
 10
373.1753632828998
 20
532.013285868877
 30
0.0
 40
1.499999898511011
100
AcDbArc
 50
277.1250152587891
 51
359.9999847412109
  0
ARC
  5
23B
330
1F
100
AcDbEntity
  8
0-0
  6
Continuous
 62
     3
370
     9
100
AcDbCircle
 10
373.1753632828998
 20
535.3649819863812
 30
0.0
 40
1.499999898511011
100
AcDbArc
 50
0.0
 51
82.87496948242186
  0
ARC
  5
23C
330
1F
100
AcDbEntity
  8
0-0
  6
Continuous
 62
     3
370
     9
100
AcDbCircle
 10
373.1753632828998
 20
549.5133436048355
 30
0.0
 40
1.499999898511011
100
AcDbArc
 50
277.1250152587891
 51
0.0000000000000254
  0
ARC
  5
23D
330
1F
100
AcDbEntity
  8
0-0
  6
Continuous
 62
     3
370
     9
100
AcDbCircle
 10
373.1753632828998
 20
552.8339860245991
 30
0.0
 40
1.499999898511011
100
AcDbArc
 50
0.0
 51
82.61395263671875
  0
ARC
  5
23E
330
1F
100
AcDbEntity
  8
0-0
  6
Continuous
 62
     3
370
     9
100
AcDbCircle
 10
397.6753698812951
 20
505.4402284364446
 30
0.0
 40
2.999999797022021
100
AcDbArc
 50
0.0
 51
84.99934387207031
  0
ARC
  5
23F
330
1F
100
AcDbEntity
  8
0-0
  6
Continuous
 62
     3
370
     9
100
AcDbCircle
 10
-74.16230794545754
 20
-81.81074400205873
 30
0.0
 40
2.999999797022021
100
AcDbArc
 50
270.0
 51
0.0
  0
ARC
  5
240
330
1F
100
AcDbEntity
  8
0-0
  6
Continuous
 62
     3
370
     9
100
AcDbCircle
 10
-70.66233351423932
 20
-85.31078029323268
 30
0.0
 40
2.999999797022021
100
AcDbArc
 50
270.0
 51
0.0
  0
ARC
  5
241
330
1F
100
AcDbEntity
  8
0-1
  6
Continuous
 62
     2
370
     9
100
AcDbCircle
 10
-152.6622205167203
 20
-142.8107844172297
 30
0.0
 40
4.499999574712805
100
AcDbArc
 50
8.64996337890625
 51
0.0
  0
ARC
  5
242
330
1F
100
AcDbEntity
  8
0-1
  6
JWW_CENTER1
 62
     2
370
     9
100
AcDbCircle
 10
433.8753210531701
 20
575.6891364020273
 30
0.0
 40
9.499999639150259
100
AcDbArc
 50
270.0
 51
359.9999847412109
  0
ARC
  5
243
330
1F
100
AcDbEntity
  8
0-1
  6
Continuous
 62
     2
370
     9
100
AcDbCircle
 10
433.8753210531701
 20
575.6891364020273
 30
0.0
 40
4.99999958115655
100
AcDbArc
 50
270.0
 51
0.0
  0
CIRCLE
  5
244
330
1F
100
AcDbEntity
  8
0-1
  6
Continuous
 62
     2
370
     9
100
AcDbCircle
 10
-152.6622205167203
 20
566.1893030115078
 30
0.0
 40
4.499999574712805
  0
ARC
  5
245
330
1F
100
AcDbEntity
  8
0-0
  6
Continuous
 62
     3
370
     9
100
AcDbCircle
 10
-198.9722535416884
 20
-432.3639988254855
 30
0.0
 40
2.999999797022021
100
AcDbArc
 50
2.202590942382812
 51
89.99999999999999
  0
ARC
  5
246
330
1F
100
AcDbEntity
  8
0-0
  6
Continuous
 62
     3
370
     9
100
AcDbCircle
 10
-304.9721949809306
 20
-432.3639988254855
 30
0.0
 40
2.999999797022021
100
AcDbArc
 50
2.202590942382812
 51
89.99999999999999
  0
ARC
  5
247
330
1F
100
AcDbEntity
  8
0-0
  6
Continuous
 62
     3
370
     9
100
AcDbCircle
 10
-182.3524011147987
 20
-432.3639988254855
 30
0.0
 40
2.999999797022021
100
AcDbArc
 50
90.0
 51
177.7973937988281
  0
ARC
  5
248
330
1F
100
AcDbEntity
  8
0-0
  6
Continuous
 62
     3
370
     9
100
AcDbCircle
 10
-70.66233351423932
 20
508.6892370275551
 30
0.0
 40
2.999999797022021
100
AcDbArc
 50
0.0
 51
90.0
  0
ARC
  5
249
330
1F
100
AcDbEntity
  8
0-0
  6
Continuous
 62
     3
370
     9
100
AcDbCircle
 10
-74.16230794545754
 20
505.1890770164698
 30
0.0
 40
2.999999797022021
100
AcDbArc
 50
0.0
 51
90.0
  0
ARC
  5
24A
330
1F
100
AcDbEntity
  8
0-0
  6
Continuous
 62
     3
370
     9
100
AcDbCircle
 10
-288.3524044139965
 20
-432.3639988254855
 30
0.0
 40
2.999999797022021
100
AcDbArc
 50
90.0
 51
177.7973937988281
  0
ARC
  5
24B
330
1F
100
AcDbEntity
  8
0-0
  6
Continuous
 62
     3
370
     9
100
AcDbCircle
 10
-394.3524077131941
 20
-432.3639988254855
 30
0.0
 40
2.999999797022021
100
AcDbArc
 50
90.0
 51
177.7973937988281
  0
ARC
  5
24C
330
1F
100
AcDbEntity
  8
0-0
  6
Continuous
 62
     3
370
     9
100
AcDbCircle
 10
-73.91121838543839
 20
-419.3640054238807
 30
0.0
 40
2.999999797022021
100
AcDbArc
 50
270.0011749267578
 51
354.9998168945312
  0
ARC
  5
24D
330
1F
100
AcDbEntity
  8
0-0
  6
Continuous
 62
     3
370
     9
100
AcDbCircle
 10
-66.7459178615259
 20
-383.3639856286949
 30
0.0
 40
0.9999999524773778
100
AcDbArc
 50
90.0
 51
174.9997100830078
  0
ARC
  5
24E
330
1F
100
AcDbEntity
  8
0-0
  6
Continuous
 62
     3
370
     9
100
AcDbCircle
 10
-68.41322924639712
 20
-425.364049963049
 30
0.0
 40
3.999999809909511
100
AcDbArc
 50
270.0
 51
354.9997100830078
  0
ARC
  5
24F
330
1F
100
AcDbEntity
  8
0-0
  6
Continuous
 62
     3
370
     9
100
AcDbCircle
 10
-299.1999806584538
 20
-458.3641093486063
 30
0.0
 40
0.9999999524773778
100
AcDbArc
 50
182.2015075683594
 51
270.0
  0
ARC
  5
250
330
1F
100
AcDbEntity
  8
0-0
  6
Continuous
 62
     3
370
     9
100
AcDbCircle
 10
-294.1245568765175
 20
-458.3641093486063
 30
0.0
 40
0.9999999524773778
100
AcDbArc
 50
270.0
 51
357.7984924316406
  0
ARC
  5
251
330
1F
100
AcDbEntity
  8
0-0
  6
Continuous
 62
     3
370
     9
100
AcDbCircle
 10
-188.1245535773199
 20
-458.3641093486063
 30
0.0
 40
0.9999999524773778
100
AcDbArc
 50
270.0
 51
357.7984924316406
  0
ARC
  5
252
330
1F
100
AcDbEntity
  8
0-0
  6
Continuous
 62
     3
370
     9
100
AcDbCircle
 10
-193.2000392192117
 20
-458.3641093486063
 30
0.0
 40
0.9999999524773778
100
AcDbArc
 50
182.2015075683594
 51
270.0
  0
ARC
  5
253
330
1F
100
AcDbEntity
  8
0-0
  6
Continuous
 62
     3
370
     9
100
AcDbCircle
 10
-400.1245601757153
 20
-458.3641093486063
 30
0.0
 40
0.9999999524773778
100
AcDbArc
 50
270.0
 51
357.7984924316406
  0
ARC
  5
254
330
1F
100
AcDbEntity
  8
0-0
  6
Continuous
 62
     3
370
     9
100
AcDbCircle
 10
-59.32779569883593
 20
-390.3639344911317
 30
0.0
 40
1.999999904954756
100
AcDbArc
 50
90.0
 51
174.9998626708984
  0
ARC
  5
255
330
1F
100
AcDbEntity
  8
0-1
  6
Continuous
 62
     2
370
     9
100
AcDbCircle
 10
433.8753210531701
 20
-152.3107415276604
 30
0.0
 40
4.99999958115655
100
AcDbArc
 50
0.0
 51
90.0
  0
ARC
  5
256
330
1F
100
AcDbEntity
  8
0-1
  6
JWW_CENTER1
 62
     2
370
     9
100
AcDbCircle
 10
433.8753210531701
 20
-152.3107415276604
 30
0.0
 40
9.499999639150259
100
AcDbArc
 50
0.0
 51
89.99998474121094
  0
ARC
  5
257
330
1F
100
AcDbEntity
  8
0-0
  6
Continuous
 62
     3
370
     9
100
AcDbCircle
 10
-606.3524143115894
 20
-432.3639988254855
 30
0.0
 40
2.999999797022021
100
AcDbArc
 50
90.0
 51
177.7974090576172
  0
ARC
  5
258
330
1F
100
AcDbEntity
  8
0-0
  6
Continuous
 62
     3
370
     9
100
AcDbCircle
 10
-500.3524110123917
 20
-432.3639988254855
 30
0.0
 40
2.999999797022021
100
AcDbArc
 50
90.0
 51
177.7974090576172
  0
ARC
  5
259
330
1F
100
AcDbEntity
  8
0-0
  6
Continuous
 62
     3
370
     9
100
AcDbCircle
 10
-622.9722048785235
 20
-432.3639988254855
 30
0.0
 40
2.999999797022021
100
AcDbArc
 50
2.202606201171875
 51
90.0
  0
ARC
  5
25A
330
1F
100
AcDbEntity
  8
0-0
  6
Continuous
 62
     3
370
     9
100
AcDbCircle
 10
-516.9722015793258
 20
-432.3639988254855
 30
0.0
 40
2.999999797022021
100
AcDbArc
 50
2.202606201171875
 51
90.0
  0
ARC
  5
25B
330
1F
100
AcDbEntity
  8
0-0
  6
Continuous
 62
     3
370
     9
100
AcDbCircle
 10
-410.9721982801283
 20
-432.3639988254855
 30
0.0
 40
2.999999797022021
100
AcDbArc
 50
2.202606201171875
 51
90.0
  0
ARC
  5
25C
330
1F
100
AcDbEntity
  8
0-0
  6
Continuous
 62
     3
370
     9
100
AcDbCircle
 10
-731.4133876078837
 20
-419.3640054238807
 30
0.0
 40
2.999999797022021
100
AcDbArc
 50
185.0001831054688
 51
269.9988250732422
  0
ARC
  5
25D
330
1F
100
AcDbEntity
  8
0-0
  6
Continuous
 62
     3
370
     9
100
AcDbCircle
 10
-738.5786881317962
 20
-383.3639856286949
 30
0.0
 40
0.9999999524773778
100
AcDbArc
 50
5.000289916992188
 51
90.0
  0
ARC
  5
25E
330
1F
100
AcDbEntity
  8
0-0
  6
Continuous
 62
     3
370
     9
100
AcDbCircle
 10
-736.9113767469252
 20
-425.364049963049
 30
0.0
 40
3.999999809909511
100
AcDbArc
 50
185.0002899169922
 51
270.0
  0
ARC
  5
25F
330
1F
100
AcDbEntity
  8
0-0
  6
Continuous
 62
     3
370
     9
100
AcDbCircle
 10
-506.1246253348685
 20
-458.3641093486063
 30
0.0
 40
0.9999999524773778
100
AcDbArc
 50
270.0
 51
357.7984924316406
  0
ARC
  5
260
330
1F
100
AcDbEntity
  8
0-0
  6
Continuous
 62
     3
370
     9
100
AcDbCircle
 10
-511.2000491168047
 20
-458.3641093486063
 30
0.0
 40
0.9999999524773778
100
AcDbArc
 50
182.2015075683594
 51
270.0
  0
ARC
  5
261
330
1F
100
AcDbEntity
  8
0-0
  6
Continuous
 62
     3
370
     9
100
AcDbCircle
 10
-617.2000524160024
 20
-458.3641093486063
 30
0.0
 40
0.9999999524773778
100
AcDbArc
 50
182.2015075683594
 51
270.0
  0
ARC
  5
262
330
1F
100
AcDbEntity
  8
0-0
  6
Continuous
 62
     3
370
     9
100
AcDbCircle
 10
-612.1245667741105
 20
-458.3641093486063
 30
0.0
 40
0.9999999524773778
100
AcDbArc
 50
270.0
 51
357.7984924316406
  0
ARC
  5
263
330
1F
100
AcDbEntity
  8
0-0
  6
Continuous
 62
     3
370
     9
100
AcDbCircle
 10
-405.2000458176071
 20
-458.3641093486063
 30
0.0
 40
0.9999999524773778
100
AcDbArc
 50
182.2015075683594
 51
270.0
  0
ARC
  5
264
330
1F
100
AcDbEntity
  8
0-0
  6
Continuous
 62
     3
370
     9
100
AcDbCircle
 10
-745.9968102944863
 20
-390.3639344911317
 30
0.0
 40
1.999999904954756
100
AcDbArc
 50
5.000137329101562
 51
90.0
  0
ARC
  5
265
330
1F
100
AcDbEntity
  8
0-0
  6
Continuous
 62
     3
370
     9
100
AcDbCircle
 10
436.6753500861094
 20
433.7535713814402
 30
0.0
 40
0.9999999524773778
100
AcDbArc
 50
0.0
 51
86.18356323242188
  0
ARC
  5
266
330
1F
100
AcDbEntity
  8
0-0
  6
Continuous
 62
     3
370
     9
100
AcDbCircle
 10
436.6753500861094
 20
429.6247905009504
 30
0.0
 40
0.9999999524773778
100
AcDbArc
 50
273.8164367675781
 51
0.0000000000000127
  0
ARC
  5
267
330
1F
100
AcDbEntity
  8
0-0
  6
Continuous
 62
     3
370
     9
100
AcDbCircle
 10
410.6753632828998
 20
423.8824545370568
 30
0.0
 40
2.999999797022021
100
AcDbArc
 50
93.81407165527344
 51
180.0
  0
ARC
  5
268
330
1F
100
AcDbEntity
  8
0-0
  6
Continuous
 62
     3
370
     9
100
AcDbCircle
 10
410.6753632828998
 20
439.4959073453339
 30
0.0
 40
2.999999797022021
100
AcDbArc
 50
180.0
 51
266.1859283447266
  0
ARC
  5
269
330
1F
100
AcDbEntity
  8
0-0
  6
Continuous
 62
     3
370
     9
100
AcDbCircle
 10
436.6753500861094
 20
213.7535878774284
 30
0.0
 40
0.9999999524773778
100
AcDbArc
 50
0.0
 51
86.18356323242188
  0
ARC
  5
26A
330
1F
100
AcDbEntity
  8
0-0
  6
Continuous
 62
     3
370
     9
100
AcDbCircle
 10
410.6753632828998
 20
219.4959238413219
 30
0.0
 40
2.999999797022021
100
AcDbArc
 50
180.0
 51
266.1859283447266
  0
ARC
  5
26B
330
1F
100
AcDbEntity
  8
0-0
  6
Continuous
 62
     3
370
     9
100
AcDbCircle
 10
421.8973778389596
 20
506.3401670713685
 30
0.0
 40
4.99999958115655
100
AcDbArc
 50
105.0000915527344
 51
196.1537628173828
  0
ARC
  5
26C
330
1F
100
AcDbEntity
  8
0-0
  6
Continuous
 62
     3
370
     9
100
AcDbCircle
 10
403.6754144204636
 20
510.9380938555746
 30
0.0
 40
3.999999809909511
100
AcDbArc
 50
0.0
 51
84.99971008300781
  0
ARC
  5
26D
330
1F
100
AcDbEntity
  8
0-0
  6
Continuous
 62
     3
370
     9
100
AcDbCircle
 10
368.6754226684573
 20
520.0235892630915
 30
0.0
 40
1.999999904954756
100
AcDbArc
 50
180.0
 51
264.9961853027344
  0
ARC
  5
26E
330
1F
100
AcDbEntity
  8
0-0
  6
Continuous
 62
     3
370
     9
100
AcDbCircle
 10
373.1753632828998
 20
-108.6348909945099
 30
0.0
 40
1.499999898511011
100
AcDbArc
 50
0.0000152587890625
 51
82.87498474121092
  0
ARC
  5
26F
330
1F
100
AcDbEntity
  8
0-0
  6
Continuous
 62
     3
370
     9
100
AcDbCircle
 10
373.1753632828998
 20
-111.9865871120142
 30
0.0
 40
1.499999898511011
100
AcDbArc
 50
277.1250305175781
 51
0.0
  0
ARC
  5
270
330
1F
100
AcDbEntity
  8
0-0
  6
Continuous
 62
     3
370
     9
100
AcDbCircle
 10
373.1753632828998
 20
-126.1349487304685
 30
0.0
 40
1.499999898511011
100
AcDbArc
 50
0.0
 51
82.87498474121094
  0
ARC
  5
271
330
1F
100
AcDbEntity
  8
0-0
  6
Continuous
 62
     3
370
     9
100
AcDbCircle
 10
373.1753632828998
 20
-129.455591150232
 30
0.0
 40
1.499999898511011
100
AcDbArc
 50
277.3860473632812
 51
0.0
  0
ARC
  5
272
330
1F
100
AcDbEntity
  8
0-0
  6
Continuous
 62
     3
370
     9
100
AcDbCircle
 10
397.6753698812951
 20
-82.0618335620776
 30
0.0
 40
2.999999797022021
100
AcDbArc
 50
275.0006561279297
 51
0.0
  0
ARC
  5
273
330
1F
100
AcDbEntity
  8
0-0
  6
Continuous
 62
     3
370
     9
100
AcDbCircle
 10
436.6753500861094
 20
-10.37517650707329
 30
0.0
 40
0.9999999524773778
100
AcDbArc
 50
273.8164367675781
 51
0.0000000000000127
  0
ARC
  5
274
330
1F
100
AcDbEntity
  8
0-0
  6
Continuous
 62
     3
370
     9
100
AcDbCircle
 10
436.6753500861094
 20
-6.24639562658345
 30
0.0
 40
0.9999999524773778
100
AcDbArc
 50
0.0
 51
86.18356323242188
  0
ARC
  5
275
330
1F
100
AcDbEntity
  8
0-0
  6
Continuous
 62
     3
370
     9
100
AcDbCircle
 10
410.6753632828998
 20
-0.5040596626899685
 30
0.0
 40
2.999999797022021
100
AcDbArc
 50
180.0
 51
266.1859283447266
  0
ARC
  5
276
330
1F
100
AcDbEntity
  8
0-0
  6
Continuous
 62
     3
370
     9
100
AcDbCircle
 10
410.6753632828998
 20
-16.11751247096706
 30
0.0
 40
2.999999797022021
100
AcDbArc
 50
93.81407165527344
 51
180.0
  0
ARC
  5
277
330
1F
100
AcDbEntity
  8
0-0
  6
Continuous
 62
     3
370
     9
100
AcDbCircle
 10
436.6753500861094
 20
209.6248069969386
 30
0.0
 40
0.9999999524773778
100
AcDbArc
 50
273.8164367675781
 51
0.0000000000000127
  0
ARC
  5
278
330
1F
100
AcDbEntity
  8
0-0
  6
Continuous
 62
     3
370
     9
100
AcDbCircle
 10
410.6753632828998
 20
203.8824710330449
 30
0.0
 40
2.999999797022021
100
AcDbArc
 50
93.81407165527344
 51
180.0
  0
ARC
  5
279
330
1F
100
AcDbEntity
  8
0-0
  6
Continuous
 62
     3
370
     9
100
AcDbCircle
 10
421.8973778389596
 20
-82.96177219700155
 30
0.0
 40
4.99999958115655
100
AcDbArc
 50
163.8462371826172
 51
254.9999084472656
  0
ARC
  5
27A
330
1F
100
AcDbEntity
  8
0-0
  6
Continuous
 62
     3
370
     9
100
AcDbCircle
 10
403.6754144204636
 20
-87.55969898120767
 30
0.0
 40
3.999999809909511
100
AcDbArc
 50
275.0002899169922
 51
0.0
  0
ARC
  5
27B
330
1F
100
AcDbEntity
  8
0-0
  6
Continuous
 62
     3
370
     9
100
AcDbCircle
 10
368.6754226684573
 20
-96.64519438872446
 30
0.0
 40
1.999999904954756
100
AcDbArc
 50
95.00381469726564
 51
180.0
  0
CIRCLE
  5
27C
330
1F
100
AcDbEntity
  8
0-1
  6
Continuous
 62
     2
370
     9
100
AcDbCircle
 10
-757.1624085709856
 20
-38.31076132284622
 30
0.0
 40
4.499999574712805
  0
CIRCLE
  5
27D
330
1F
100
AcDbEntity
  8
0-1
  6
Continuous
 62
     2
370
     9
100
AcDbCircle
 10
-48.16232114224817
 20
-38.31076132284622
 30
0.0
 40
4.499999574712805
  0
ARC
  5
27E
330
1F
100
AcDbEntity
  8
0-1
  6
Continuous
 62
     2
370
     9
100
AcDbCircle
 10
-48.16232114224817
 20
461.6892799171244
 30
0.0
 40
4.499999574712805
100
AcDbArc
 50
98.64996337890625
 51
90.0
  0
CIRCLE
  5
27F
330
1F
100
AcDbEntity
  8
0-1
  6
Continuous
 62
     2
370
     9
100
AcDbCircle
 10
-757.1624085709856
 20
461.6892799171244
 30
0.0
 40
4.499999574712805
  0
ARC
  5
280
330
1F
100
AcDbEntity
  8
0-1
  6
JWW_CENTER1
 62
     2
370
     9
100
AcDbCircle
 10
-38.66236403181745
 20
-455.5638328758445
 30
0.0
 40
9.499999639150259
100
AcDbArc
 50
180.0
 51
269.9999847412109
  0
ARC
  5
281
330
1F
100
AcDbEntity
  8
0-1
  6
Continuous
 62
     2
370
     9
100
AcDbCircle
 10
-38.66236403181745
 20
-455.5638328758445
 30
0.0
 40
4.99999958115655
100
AcDbArc
 50
180.0
 51
270.0
  0
ARC
  5
282
330
1F
100
AcDbEntity
  8
0-1
  6
Continuous
 62
     2
370
     9
100
AcDbCircle
 10
-766.662241961505
 20
-455.5638328758445
 30
0.0
 40
4.99999958115655
100
AcDbArc
 50
270.0
 51
0.0
  0
ARC
  5
283
330
1F
100
AcDbEntity
  8
0-1
  6
JWW_CENTER1
 62
     2
370
     9
100
AcDbCircle
 10
-766.662241961505
 20
-455.5638328758445
 30
0.0
 40
9.499999639150259
100
AcDbArc
 50
270.0
 51
359.9999847412109
  0
ARC
  5
284
330
1F
100
AcDbEntity
  8
0-0
  6
Continuous
 62
     3
370
     9
100
AcDbCircle
 10
-123.8324500418997
 20
-432.3641225453969
 30
0.0
 40
0.9999999524773778
100
AcDbArc
 50
270.0
 51
355.2365875244141
  0
ARC
  5
285
330
1F
100
AcDbEntity
  8
0-0
  6
Continuous
 62
     3
370
     9
100
AcDbCircle
 10
-131.9920874930716
 20
-432.3641225453969
 30
0.0
 40
0.9999999524773778
100
AcDbArc
 50
184.763412475586
 51
270.0
  0
ARC
  5
286
330
1F
100
AcDbEntity
  8
0-0
  6
Continuous
 62
     3
370
     9
100
AcDbCircle
 10
380.6753880268823
 20
-95.59524536132784
 30
0.0
 40
1.999999904954756
100
AcDbArc
 50
95.00366210937501
 51
180.0
  0
ARC
  5
287
330
1F
100
AcDbEntity
  8
0-0
  6
Continuous
 62
     3
370
     9
100
AcDbCircle
 10
380.6753880268823
 20
518.9735783757392
 30
0.0
 40
1.999999904954756
100
AcDbArc
 50
180.0
 51
264.996337890625
  0
ARC
  5
288
330
1F
100
AcDbEntity
  8
0-0
  6
Continuous
 62
     3
370
     9
100
AcDbCircle
 10
-681.4921559514227
 20
-432.3641225453969
 30
0.0
 40
0.9999999524773778
100
AcDbArc
 50
184.763412475586
 51
270.0
  0
ARC
  5
289
330
1F
100
AcDbEntity
  8
0-0
  6
Continuous
 62
     3
370
     9
100
AcDbCircle
 10
-673.3325185002508
 20
-432.3641225453969
 30
0.0
 40
0.9999999524773778
100
AcDbArc
 50
270.0
 51
355.2365875244141
  0
ARC
  5
28A
330
1F
100
AcDbEntity
  8
0-1
  6
Continuous
 62
     2
370
     9
100
AcDbCircle
 10
433.8751973332586
 20
-152.3107415276604
 30
0.0
 40
13.99999921386306
100
AcDbArc
 50
0.0
 51
90.0
  0
ARC
  5
28B
330
1F
100
AcDbEntity
  8
0-1
  6
Continuous
 62
     2
370
     9
100
AcDbCircle
 10
433.8753210531701
 20
575.6891364020273
 30
0.0
 40
13.99999921386306
100
AcDbArc
 50
270.0
 51
0.0
  0
ARC
  5
28C
330
1F
100
AcDbEntity
  8
0-1
  6
Continuous
 62
     2
370
     9
100
AcDbCircle
 10
-766.662241961505
 20
-455.5637091559331
 30
0.0
 40
13.99999921386306
100
AcDbArc
 50
270.0
 51
0.0
  0
ARC
  5
28D
330
1F
100
AcDbEntity
  8
0-1
  6
Continuous
 62
     2
370
     9
100
AcDbCircle
 10
-38.66236403181745
 20
-455.5638328758445
 30
0.0
 40
13.99999921386306
100
AcDbArc
 50
180.0
 51
270.0
  0
TEXT
  5
28E
330
1F
100
AcDbEntity
  8
0-F
  6
Continuous
 62
     2
370
     9
100
AcDbText
 10
227.8553887371917
 20
-185.0763600525312
 30
0.0
 40
15.24
  1
3.2
 50
90.00000250447673
 41
1.083333333333315
  7
ＭＳ ゴシック
100
AcDbText
  0
TEXT
  5
28F
330
1F
100
AcDbEntity
  8
0-F
  6
Continuous
 62
     2
370
     9
100
AcDbText
 10
227.8553887371917
 20
-125.5157389455845
 30
0.0
 40
15.24
  1
1.8
 50
90.00000250447673
 41
1.083333333333334
  7
ＭＳ ゴシック
100
AcDbText
  0
TEXT
  5
290
330
1F
100
AcDbEntity
  8
0-F
  6
Continuous
 62
     2
370
     9
100
AcDbText
 10
227.8553887371917
 20
574.257812376734
 30
0.0
 40
15.24
  1
3.2
 50
90.00000250447673
 41
1.083333333333334
  7
ＭＳ ゴシック
100
AcDbText
  0
TEXT
  5
291
330
1F
100
AcDbEntity
  8
0-F
  6
Continuous
 62
     2
370
     9
100
AcDbText
 10
227.8553887371917
 20
512.3805359303657
 30
0.0
 40
15.24
  1
1.8
 50
90.00000250447673
 41
1.083333333333334
  7
ＭＳ ゴシック
100
AcDbText
  0
TEXT
  5
292
330
1F
100
AcDbEntity
  8
0-F
  6
Continuous
 62
     2
370
     9
100
AcDbText
 10
-733.737149625211
 20
-282.8295047904349
 30
0.0
 40
15.24
  1
1.8
 41
1.083333333333333
  7
ＭＳ ゴシック
100
AcDbText
  0
TEXT
  5
293
330
1F
100
AcDbEntity
  8
0-F
  6
Continuous
 62
     2
370
     9
100
AcDbText
 10
-797.3588149612015
 20
-282.8295047904349
 30
0.0
 40
15.24
  1
3.2
 41
1.083333333333333
  7
ＭＳ ゴシック
100
AcDbText
  0
TEXT
  5
294
330
1F
100
AcDbEntity
  8
0-F
  6
Continuous
 62
     2
370
     9
100
AcDbText
 10
-36.49739755166536
 20
-282.8295047904349
 30
0.0
 40
15.24
  1
3.2
 41
1.083333333333333
  7
ＭＳ ゴシック
100
AcDbText
  0
TEXT
  5
295
330
1F
100
AcDbEntity
  8
0-F
  6
Continuous
 62
     2
370
     9
100
AcDbText
 10
-95.85555102374087
 20
-282.8295047904349
 30
0.0
 40
15.24
  1
1.8
 41
1.083333333333333
  7
ＭＳ ゴシック
100
AcDbText
  0
TEXT
  5
296
330
1F
100
AcDbEntity
  8
0-E
  6
Continuous
 62
     7
370
     9
100
AcDbText
 10
493.5698194761534
 20
663.4783191907729
 30
0.0
 40
11.43
  1
アンカー：φ９
 41
1.142857142857143
  7
ＭＳ ゴシック
100
AcDbText
  0
TEXT
  5
297
330
1F
100
AcDbEntity
  8
0-E
  6
Continuous
 62
     7
370
     9
100
AcDbText
 10
488.4583230920742
 20
639.9068305268162
 30
0.0
 40
11.43
  1
ＳＳ４００，樹脂系塗装
 41
1.151515151515152
  7
ＭＳ ゴシック
100
AcDbText
  0
TEXT
  5
298
330
1F
100
AcDbEntity
  8
0-E
  6
Continuous
 62
     7
370
     9
100
AcDbText
 10
584.0056970957164
 20
355.749288890942
 30
0.0
 40
11.43
  1
蓋本体：ＦＣＤ５００
 41
1.15
  7
ＭＳ ゴシック
100
AcDbText
  0
TEXT
  5
299
330
1F
100
AcDbEntity
  8
0-F
  6
Continuous
 62
     2
370
     9
100
AcDbText
 10
327.9282781240101
 20
-385.1824925438133
 30
0.0
 40
15.24
  1
仕様
 41
1.0625
  7
ＭＳ ゴシック
100
AcDbText
  0
TEXT
  5
29A
330
1F
100
AcDbEntity
  8
0-F
  6
Continuous
 62
     2
370
     9
100
AcDbText
 10
327.9282533800284
 20
-415.182467799831
 30
0.0
 40
15.24
  1
適用荷重：Ｔ－２
 41
1.109375
  7
ＭＳ ゴシック
100
AcDbText
  0
TEXT
  5
29B
330
1F
100
AcDbEntity
  8
0-F
  6
Continuous
 62
     2
370
     9
100
AcDbText
 10
327.9282904960013
 20
-475.1824183118664
 30
0.0
 40
15.24
  1
接触圧子：２００×１６０ｍｍ
 41
1.116071428571428
  7
ＭＳ ゴシック
100
AcDbText
  0
TEXT
  5
29C
330
1F
100
AcDbEntity
  8
0-F
  6
Continuous
 62
     2
370
     9
100
AcDbText
 10
-718.9122875316723
 20
630.0595118507183
 30
0.0
 40
15.24
  1
100
 41
1.083333333333333
  7
ＭＳ ゴシック
100
AcDbText
  0
TEXT
  5
29D
330
1F
100
AcDbEntity
  8
0-F
  6
Continuous
 62
     2
370
     9
100
AcDbText
 10
-118.9123029966612
 20
630.0595118507183
 30
0.0
 40
15.24
  1
100
 41
1.083333333333333
  7
ＭＳ ゴシック
100
AcDbText
  0
TEXT
  5
29E
330
1F
100
AcDbEntity
  8
0-F
  6
Continuous
 62
     2
370
     9
100
AcDbText
 10
-418.9123029966611
 20
-240.0988743797506
 30
0.0
 40
15.24
  1
700
 41
1.083333333333333
  7
ＭＳ ゴシック
100
AcDbText
  0
TEXT
  5
29F
330
1F
100
AcDbEntity
  8
0-F
  6
Continuous
 62
     2
370
     9
100
AcDbText
 10
-418.9123029966611
 20
-282.8296285103463
 30
0.0
 40
15.24
  1
690
 41
1.083333333333333
  7
ＭＳ ゴシック
100
AcDbText
  0
TEXT
  5
2A0
330
1F
100
AcDbEntity
  8
0-F
  6
Continuous
 62
     2
370
     9
100
AcDbText
 10
-418.9123029966611
 20
-325.6764319177574
 30
0.0
 40
15.24
  1
670
 41
1.083333333333333
  7
ＭＳ ゴシック
100
AcDbText
  0
TEXT
  5
2A1
330
1F
100
AcDbEntity
  8
0-F
  6
Continuous
 62
     2
370
     9
100
AcDbText
 10
520.0552192424769
 20
565.5641503003512
 30
0.0
 40
15.24
  1
29
 50
90.00000250447789
 41
1.062500000000001
  7
ＭＳ ゴシック
100
AcDbText
  0
TEXT
  5
2A2
330
1F
100
AcDbEntity
  8
0-F
  6
Continuous
 62
     2
370
     9
100
AcDbText
 10
520.0552192424769
 20
526.0642179339026
 30
0.0
 40
15.24
  1
50
 50
90.00000250447789
 41
1.062500000000001
  7
ＭＳ ゴシック
100
AcDbText
  0
TEXT
  5
2A3
330
1F
100
AcDbEntity
  8
0-F
  6
Continuous
 62
     2
370
     9
100
AcDbText
 10
520.0552192424769
 20
-163.4357556725164
 30
0.0
 40
15.24
  1
29
 50
90.00000250447789
 41
1.062500000000001
  7
ＭＳ ゴシック
100
AcDbText
  0
TEXT
  5
2A4
330
1F
100
AcDbEntity
  8
0-F
  6
Continuous
 62
     2
370
     9
100
AcDbText
 10
520.0552192424769
 20
-123.9357614461122
 30
0.0
 40
15.24
  1
50
 50
90.00000250447789
 41
1.062500000000001
  7
ＭＳ ゴシック
100
AcDbText
  0
TEXT
  5
2A5
330
1F
100
AcDbEntity
  8
0-F
  6
Continuous
 62
     2
370
     9
100
AcDbText
 10
380.0504828788138
 20
-205.4907035868875
 30
0.0
 40
15.24
  1
60
 41
1.0625
  7
ＭＳ ゴシック
100
AcDbText
  0
TEXT
  5
2A6
330
1F
100
AcDbEntity
  8
0-F
  6
Continuous
 62
     2
370
     9
100
AcDbText
 10
370.4004287719729
 20
-255.4907448268579
 30
0.0
 40
15.24
  1
63.2
 41
1.09375
  7
ＭＳ ゴシック
100
AcDbText
  0
TEXT
  5
2A7
330
1F
100
AcDbEntity
  8
0-F
  6
Continuous
 62
     2
370
     9
100
AcDbText
 10
177.8553474972213
 20
195.4392591738728
 30
0.0
 40
15.24
  1
700
 50
90.00000250447673
 41
1.083333333333334
  7
ＭＳ ゴシック
100
AcDbText
  0
TEXT
  5
2A8
330
1F
100
AcDbEntity
  8
0-F
  6
Continuous
 62
     2
370
     9
100
AcDbText
 10
227.8553887371917
 20
195.4391973139172
 30
0.0
 40
15.24
  1
690
 50
90.00000250447673
 41
1.083333333333334
  7
ＭＳ ゴシック
100
AcDbText
  0
TEXT
  5
2A9
330
1F
100
AcDbEntity
  8
0-F
  6
Continuous
 62
     2
370
     9
100
AcDbText
 10
277.8554299771629
 20
195.4391973139174
 30
0.0
 40
15.24
  1
600
 50
90.00000250447926
 41
1.083333333333334
  7
ＭＳ ゴシック
100
AcDbText
  0
TEXT
  5
2AA
330
1F
100
AcDbEntity
  8
0-F
  6
Continuous
 62
     2
370
     9
100
AcDbText
 10
520.0552199801069
 20
183.1892002007154
 30
0.0
 40
15.24
  1
□600
 50
90.00000250447877
 41
1.100000000000001
  7
ＭＳ ゴシック
100
AcDbText
  0
TEXT
  5
2AB
330
1F
100
AcDbEntity
  8
0-F
  6
Continuous
 62
     2
370
     9
100
AcDbText
 10
370.0505736067493
 20
89.18457700987136
 30
0.0
 40
15.24
  1
40
 41
1.0625
  7
ＭＳ ゴシック
100
AcDbText
  0
TEXT
  5
2AC
330
1F
100
AcDbEntity
  8
0-F
  6
Continuous
 62
     2
370
     9
100
AcDbText
 10
417.6822569563586
 20
125.704220432591
 30
0.0
 40
15.24
  1
7
 41
0.9999999999999998
  7
ＭＳ ゴシック
100
AcDbText
  0
TEXT
  5
2AD
330
1F
100
AcDbEntity
  8
0-F
  6
Continuous
 62
     2
370
     9
100
AcDbText
 10
453.7729510745487
 20
89.18457700987136
 30
0.0
 40
15.24
  1
30
 41
1.0625
  7
ＭＳ ゴシック
100
AcDbText
  0
TEXT
  5
2AE
330
1F
100
AcDbEntity
  8
0-E
  6
Continuous
 62
     7
370
     9
100
AcDbText
 10
89.85834998053491
 20
632.6290067435602
 30
0.0
 40
11.43
  1
ＳＰＨＣ，樹脂系塗装
 41
1.15
  7
ＭＳ ゴシック
100
AcDbText
  0
TEXT
  5
2AF
330
1F
100
AcDbEntity
  8
0-F
  6
Continuous
 62
     2
370
     9
100
AcDbText
 10
277.8554297312861
 20
-121.4358769180295
 30
0.0
 40
15.24
  1
45
 50
90.00000250447789
 41
1.062500000000001
  7
ＭＳ ゴシック
100
AcDbText
  0
TEXT
  5
2B0
330
1F
100
AcDbEntity
  8
0-F
  6
Continuous
 62
     6
370
     9
100
AcDbText
 10
277.8554295455131
 20
500.4675316480078
 30
0.0
 40
15.24
  1
10
 50
90.00000250448302
 41
0.6375000000000034
  7
ＭＳ ゴシック
100
AcDbText
  0
TEXT
  5
2B1
330
1F
100
AcDbEntity
  8
0-F
  6
Continuous
 62
     6
370
     9
100
AcDbText
 10
255.609228713652
 20
508.7060388930457
 30
0.0
 40
15.24
  1
6.5
 50
90.00000250448132
 41
0.6416666666666663
  7
ＭＳ ゴシック
100
AcDbText
  0
TEXT
  5
2B2
330
1F
100
AcDbEntity
  8
0-F
  6
Continuous
 62
     6
370
     9
100
AcDbText
 10
277.8554295455131
 20
525.3977123780542
 30
0.0
 40
15.24
  1
11
 50
90.00000250448302
 41
0.6375000000000034
  7
ＭＳ ゴシック
100
AcDbText
  0
TEXT
  5
2B3
330
1F
100
AcDbEntity
  8
0-F
  6
Continuous
 62
     6
370
     9
100
AcDbText
 10
255.609228713652
 20
534.9839006170744
 30
0.0
 40
15.24
  1
6.5
 50
90.00000250448132
 41
0.6416666666666663
  7
ＭＳ ゴシック
100
AcDbText
  0
TEXT
  5
2B4
330
1F
100
AcDbEntity
  8
0-F
  6
Continuous
 62
     6
370
     9
100
AcDbText
 10
277.8554295455131
 20
544.1891585483456
 30
0.0
 40
15.24
  1
11
 50
90.00000250448302
 41
0.6374999999999963
  7
ＭＳ ゴシック
100
AcDbText
  0
TEXT
  5
2B5
330
1F
100
AcDbEntity
  8
0-E
  6
Continuous
 62
     7
370
     9
100
AcDbText
 10
90.77402578817839
 20
655.3171352407096
 30
0.0
 40
11.43
  1
受枠：Ｌ６０Ｇ，ｔ＝３．２
 41
1.153846153846154
  7
ＭＳ ゴシック
100
AcDbText
  0
TEXT
  5
2B6
330
1F
100
AcDbEntity
  8
0-F
  6
Continuous
 62
     2
370
     9
100
AcDbText
 10
327.9283028679924
 20
-445.1825667757599
 30
0.0
 40
15.24
  1
破壊荷重：３５ｋＮ（３，６００ｋｇｆ）以上
 41
1.119047619047619
  7
ＭＳ ゴシック
100
AcDbText
  0
TEXT
  5
2B7
330
1F
100
AcDbEntity
  8
0-E
  6
Continuous
 62
     7
370
     9
100
AcDbText
 10
583.3473009676547
 20
329.1240216559334
 30
0.0
 40
11.43
  1
樹脂系塗装
 41
1.133333333333333
  7
ＭＳ ゴシック
100
AcDbText
  0
TEXT
  5
2B8
330
1F
100
AcDbEntity
  8
0-F
  6
Continuous
 62
     2
370
     9
100
AcDbText
 10
-821.0321215624076
 20
495.4388046397691
 30
0.0
 40
15.24
  1
100
 50
90.0004396365851
 41
1.083333333333335
  7
ＭＳ ゴシック
100
AcDbText
  0
TEXT
  5
2B9
330
1F
100
AcDbEntity
  8
0-F
  6
Continuous
 62
     2
370
     9
100
AcDbText
 10
-821.0284718894973
 20
-104.5611899817158
 30
0.0
 40
15.24
  1
100
 50
90.00033035355833
 41
1.083333333333321
  7
ＭＳ ゴシック
100
AcDbText
  0
TEXT
  5
2BA
330
1F
100
AcDbEntity
  8
0-F
  6
Continuous
 62
     2
370
     9
100
AcDbText
 10
425.2503152795742
 20
-255.4907448268579
 30
0.0
 40
15.24
  1
24
 41
1.0625
  7
ＭＳ ゴシック
100
AcDbText
  0
LWPOLYLINE
  5
2BB
330
1F
100
AcDbEntity
  8
0-F
  6
Continuous
 62
     7
370
     9
100
AcDbPolyline
 90
        4
 70
     1
 43
0.5
 10
-55.61240098283085
 20
-290.6496450063344
 42
0.4142135623731
 10
-55.86240098283085
 20
-290.3996450063344
 42
0.4142135623731
 10
-56.11240098283085
 20
-290.6496450063344
 42
0.4142135623731
 10
-55.86240098283085
 20
-290.8996450063344
 42
0.4142135623731
  0
LWPOLYLINE
  5
2BC
330
1F
100
AcDbEntity
  8
0-F
  6
Continuous
 62
     7
370
     9
100
AcDbPolyline
 90
        4
 70
     1
 43
0.5
 10
-749.2123905903584
 20
-290.6496450063344
 42
0.4142135623731
 10
-749.4623905903585
 20
-290.3996450063344
 42
0.4142135623731
 10
-749.7123905903585
 20
-290.6496450063344
 42
0.4142135623731
 10
-749.4623905903585
 20
-290.8996450063344
 42
0.4142135623731
  0
LWPOLYLINE
  5
2BD
330
1F
100
AcDbEntity
  8
0-F
  6
Continuous
 62
     7
370
     9
100
AcDbPolyline
 90
        4
 70
     1
 43
0.5
 10
235.9254045228703
 20
558.489223170925
 42
0.4142135623731
 10
235.6754045228703
 20
558.739223170925
 42
0.4142135623731
 10
235.4254045228703
 20
558.489223170925
 42
0.4142135623731
 10
235.6754045228703
 20
558.239223170925
 42
0.4142135623731
  0
LWPOLYLINE
  5
2BE
330
1F
100
AcDbEntity
  8
0-F
  6
Continuous
 62
     7
370
     9
100
AcDbPolyline
 90
        4
 70
     1
 43
0.5
 10
235.9254045228703
 20
-135.1107664366025
 42
0.4142135623731
 10
235.6754045228703
 20
-134.8607664366025
 42
0.4142135623731
 10
235.4254045228703
 20
-135.1107664366025
 42
0.4142135623731
 10
235.6754045228703
 20
-135.3607664366025
 42
0.4142135623731
  0
LWPOLYLINE
  5
2BF
330
1F
100
AcDbEntity
  8
0-F
  6
Continuous
 62
     7
370
     9
100
AcDbPolyline
 90
        4
 70
     1
 43
0.5
 10
407.9254028732711
 20
81.36456051388322
 42
0.4142135623731
 10
407.6754028732711
 20
81.61456051388322
 42
0.4142135623731
 10
407.4254028732711
 20
81.36456051388322
 42
0.4142135623731
 10
407.6754028732711
 20
81.11456051388322
 42
0.4142135623731
  0
LWPOLYLINE
  5
2C0
330
1F
100
AcDbEntity
  8
0-F
  6
Continuous
 62
     7
370
     9
100
AcDbPolyline
 90
        4
 70
     1
 43
0.5
 10
285.9254457628405
 20
521.6892304291599
 42
0.4142135623731
 10
285.6754457628405
 20
521.9392304291599
 42
0.4142135623731
 10
285.4254457628405
 20
521.6892304291599
 42
0.4142135623731
 10
285.6754457628405
 20
521.4392304291599
 42
0.4142135623731
  0
LWPOLYLINE
  5
2C1
330
1F
100
AcDbEntity
  8
0-F
  6
Continuous
 62
     7
370
     9
100
AcDbPolyline
 90
        4
 70
     1
 43
0.5
 10
285.9254457628405
 20
528.1892271299623
 42
0.4142135623731
 10
285.6754457628405
 20
528.4392271299622
 42
0.4142135623731
 10
285.4254457628405
 20
528.1892271299623
 42
0.4142135623731
 10
285.6754457628405
 20
527.9392271299623
 42
0.4142135623731
  0
LWPOLYLINE
  5
2C2
330
1F
100
AcDbEntity
  8
0-F
  6
Continuous
 62
     7
370
     9
100
AcDbPolyline
 90
        4
 70
     1
 43
0.5
 10
285.9254457628405
 20
539.1892881651186
 42
0.4142135623731
 10
285.6754457628405
 20
539.4392881651185
 42
0.4142135623731
 10
285.4254457628405
 20
539.1892881651186
 42
0.4142135623731
 10
285.6754457628405
 20
538.9392881651186
 42
0.4142135623731
  0
LWPOLYLINE
  5
2C3
330
1F
100
AcDbEntity
  8
0-F
  6
Continuous
 62
     7
370
     9
100
AcDbPolyline
 90
        4
 70
     1
 43
0.5
 10
285.9254457628405
 20
545.6891611460095
 42
0.4142135623731
 10
285.6754457628405
 20
545.9391611460095
 42
0.4142135623731
 10
285.4254457628405
 20
545.6891611460095
 42
0.4142135623731
 10
285.6754457628405
 20
545.4391611460095
 42
0.4142135623731
  0
LWPOLYLINE
  5
2C4
330
1F
100
AcDbEntity
  8
0-F
  6
Continuous
 62
     7
370
     9
100
AcDbPolyline
 90
        4
 70
     1
 43
0.5
 10
285.9254457628405
 20
556.6893459010771
 42
0.4142135623731
 10
285.6754457628405
 20
556.9393459010771
 42
0.4142135623731
 10
285.4254457628405
 20
556.6893459010771
 42
0.4142135623731
 10
285.6754457628405
 20
556.4393459010771
 42
0.4142135623731
  0
TEXT
  5
2C5
330
1F
100
AcDbEntity
  8
0-F
  6
Continuous
 62
     2
370
     9
100
AcDbText
 10
327.9285503078154
 20
-505.1825172877956
 30
0.0
 40
15.24
  1
蓋 質 量：４０．０ｋｇ
 41
1.113636363636364
  7
ＭＳ ゴシック
100
AcDbText
  0
TEXT
  5
2C6
330
1F
100
AcDbEntity
  8
F-5ﾚｲﾔ
  6
Continuous
 62
     3
370
     9
100
AcDbText
 10
-261.0568381453166
 20
-687.2569957715933
 30
0.0
 40
15.24
  1
カラー舗装用みぞ蓋　ＧＨＷ－２－６００＋Ｌ６０Ｇ
 41
0.9468749999999998
  7
ＭＳ ゴシック
100
AcDbText
  0
ENDSEC
  0
SECTION
  2
OBJECTS
  0
DICTIONARY
  5
C
330
0
100
AcDbDictionary
281
     1
  3
ACAD_GROUP
350
D
  3
ACAD_LAYOUT
350
1A
  3
ACAD_MLEADERSTYLE
350
2C8
  3
ACAD_MLINESTYLE
350
17
  3
ACAD_PLOTSETTINGS
350
19
  3
ACAD_PLOTSTYLENAME
350
E
  3
ACAD_TABLESTYLE
350
2C7
  3
ACAD_VISUALSTYLE
350
2A
  0
DICTIONARY
  5
D
102
{ACAD_REACTORS
330
C
102
}
330
C
100
AcDbDictionary
281
     1
  0
DICTIONARY
  5
1A
102
{ACAD_REACTORS
330
C
102
}
330
C
100
AcDbDictionary
281
     1
  3
Layout1
350
1E
  3
Layout2
350
26
  3
Model
350
22
  0
DICTIONARY
  5
2C8
102
{ACAD_REACTORS
330
C
102
}
330
C
100
AcDbDictionary
281
     1
  0
DICTIONARY
  5
17
102
{ACAD_REACTORS
330
C
102
}
330
C
100
AcDbDictionary
281
     1
  3
Standard
350
18
  0
DICTIONARY
  5
19
102
{ACAD_REACTORS
330
C
102
}
330
C
100
AcDbDictionary
281
     1
  0
ACDBDICTIONARYWDFLT
  5
E
102
{ACAD_REACTORS
330
C
102
}
330
C
100
AcDbDictionary
281
     1
  3
Normal
350
F
100
AcDbDictionaryWithDefault
340
F
  0
DICTIONARY
  5
2C7
102
{ACAD_REACTORS
330
C
102
}
330
C
100
AcDbDictionary
281
     1
  0
DICTIONARY
  5
2A
102
{ACAD_REACTORS
330
C
102
}
330
C
100
AcDbDictionary
281
     1
  3
2dWireframe
350
2F
  3
3D Hidden
350
31
  3
3dWireframe
350
30
  3
Basic
350
32
  3
Brighten
350
36
  3
ColorChange
350
3A
  3
Conceptual
350
34
  3
Dim
350
35
  3
Facepattern
350
39
  3
Flat
350
2B
  3
FlatWithEdges
350
2C
  3
Gouraud
350
2D
  3
GouraudWithEdges
350
2E
  3
Linepattern
350
38
  3
Realistic
350
33
  3
Thicken
350
37
  0
LAYOUT
  5
1E
102
{ACAD_REACTORS
330
1A
102
}
330
1A
100
AcDbPlotSettings
  1

  2
none_device
  4

  6

 40
0.0
 41
0.0
 42
0.0
 43
0.0
 44
0.0
 45
0.0
 46
0.0
 47
0.0
 48
0.0
 49
0.0
140
0.0
141
0.0
142
1.0
143
1.0
 70
   688
 72
     0
 73
     0
 74
     5
  7

 75
    16
 76
     0
 77
     5
 78
   300
147
1.0
148
0.0
149
0.0
100
AcDbLayout
  1
Layout1
 70
     1
 71
     1
 10
0.0
 20
0.0
 11
420.0
 21
297.0
 12
0.0
 22
0.0
 32
0.0
 14
1.000000000000000E+20
 24
1.000000000000000E+20
 34
1.000000000000000E+20
 15
-1.000000000000000E+20
 25
-1.000000000000000E+20
 35
-1.000000000000000E+20
146
0.0
 13
0.0
 23
0.0
 33
0.0
 16
1.0
 26
0.0
 36
0.0
 17
0.0
 27
1.0
 37
0.0
 76
     0
330
1B
  0
LAYOUT
  5
26
102
{ACAD_REACTORS
330
1A
102
}
330
1A
100
AcDbPlotSettings
  1

  2
none_device
  4

  6

 40
0.0
 41
0.0
 42
0.0
 43
0.0
 44
0.0
 45
0.0
 46
0.0
 47
0.0
 48
0.0
 49
0.0
140
0.0
141
0.0
142
1.0
143
1.0
 70
   688
 72
     0
 73
     0
 74
     5
  7

 75
    16
 76
     0
 77
     5
 78
   300
147
1.0
148
0.0
149
0.0
100
AcDbLayout
  1
Layout2
 70
     1
 71
     2
 10
0.0
 20
0.0
 11
0.0
 21
0.0
 12
0.0
 22
0.0
 32
0.0
 14
0.0
 24
0.0
 34
0.0
 15
0.0
 25
0.0
 35
0.0
146
0.0
 13
0.0
 23
0.0
 33
0.0
 16
1.0
 26
0.0
 36
0.0
 17
0.0
 27
1.0
 37
0.0
 76
     0
330
23
  0
LAYOUT
  5
22
102
{ACAD_REACTORS
330
1A
102
}
330
1A
100
AcDbPlotSettings
  1

  2
none_device
  4

  6

 40
0.0
 41
0.0
 42
0.0
 43
0.0
 44
0.0
 45
0.0
 46
0.0
 47
0.0
 48
0.0
 49
0.0
140
0.0
141
0.0
142
1.0
143
1.0
 70
  1712
 72
     0
 73
     0
 74
     0
  7

 75
     0
 76
     0
 77
     5
 78
   300
147
1.0
148
0.0
149
0.0
100
AcDbLayout
  1
Model
 70
     1
 71
     0
 10
-1050.0
 20
-742.5
 11
1050.0
 21
742.5
 12
0.0
 22
0.0
 32
0.0
 14
-1050.0
 24
-742.5
 34
0.0
 15
1050.0
 25
742.5
 35
0.0
146
0.0
 13
0.0
 23
0.0
 33
0.0
 16
1.0
 26
0.0
 36
0.0
 17
0.0
 27
1.0
 37
0.0
 76
     0
330
1F
331
29
  0
MLINESTYLE
  5
18
102
{ACAD_REACTORS
330
17
102
}
330
17
100
AcDbMlineStyle
  2
Standard
 70
     0
  3

 62
   256
 51
90.0
 52
90.0
 71
     2
 49
0.5
 62
   256
  6
BYLAYER
 49
-0.5
 62
   256
  6
BYLAYER
  0
ACDBPLACEHOLDER
  5
F
102
{ACAD_REACTORS
330
E
102
}
330
E
  0
VISUALSTYLE
  5
2F
102
{ACAD_REACTORS
330
2A
102
}
330
2A
100
AcDbVisualStyle
  2
2dWireframe
 70
     4
 71
     0
 72
     2
 73
     0
 90
        0
 40
-0.6
 41
-30.0
 62
     5
 63
     7
421
 16777215
 74
     1
 91
        4
 64
     7
 65
   257
 75
     1
175
     1
 42
1.0
 92
        0
 66
   257
 43
1.0
 76
     1
 77
     6
 78
     2
 67
     7
 79
     5
170
     0
171
     0
290
     0
174
     0
 93
        1
 44
0.0
173
     0
291
     0
 45
0.0
1001
ACAD
1000
AcDbSavedByObjectVersion
1070
     0
  0
VISUALSTYLE
  5
31
102
{ACAD_REACTORS
330
2A
102
}
330
2A
100
AcDbVisualStyle
  2
3D Hidden
 70
     6
 71
     1
 72
     2
 73
     2
 90
        0
 40
-0.6
 41
-30.0
 62
     5
 63
     7
421
 16777215
 74
     2
 91
        2
 64
     7
 65
   257
 75
     2
175
     1
 42
40.0
 92
        0
 66
   257
 43
1.0
 76
     1
 77
     6
 78
     2
 67
     7
 79
     3
170
     0
171
     0
290
     0
174
     0
 93
        1
 44
0.0
173
     0
291
     0
 45
0.0
1001
ACAD
1000
AcDbSavedByObjectVersion
1070
     0
  0
VISUALSTYLE
  5
30
102
{ACAD_REACTORS
330
2A
102
}
330
2A
100
AcDbVisualStyle
  2
3dWireframe
 70
     5
 71
     0
 72
     2
 73
     0
 90
        0
 40
-0.6
 41
-30.0
 62
     5
 63
     7
421
 16777215
 74
     1
 91
        4
 64
     7
 65
   257
 75
     1
175
     1
 42
1.0
 92
        0
 66
   257
 43
1.0
 76
     1
 77
     6
 78
     2
 67
     7
 79
     5
170
     0
171
     0
290
     0
174
     0
 93
        1
 44
0.0
173
     0
291
     0
 45
0.0
1001
ACAD
1000
AcDbSavedByObjectVersion
1070
     0
  0
VISUALSTYLE
  5
32
102
{ACAD_REACTORS
330
2A
102
}
330
2A
100
AcDbVisualStyle
  2
Basic
 70
     7
 71
     1
 72
     0
 73
     1
 90
        0
 40
-0.6
 41
-30.0
 62
     5
 63
     7
421
 16777215
 74
     0
 91
        4
 64
     7
 65
   257
 75
     1
175
     1
 42
1.0
 92
        8
 66
     7
 43
1.0
 76
     1
 77
     6
 78
     2
 67
     7
 79
     5
170
     0
171
     0
290
     0
174
     0
 93
        1
 44
0.0
173
     0
291
     1
 45
0.0
1001
ACAD
1000
AcDbSavedByObjectVersion
1070
     0
  0
VISUALSTYLE
  5
36
102
{ACAD_REACTORS
330
2A
102
}
330
2A
100
AcDbVisualStyle
  2
Brighten
 70
    12
 71
     2
 72
     2
 73
     0
 90
        0
 40
-0.6
 41
-30.0
 62
     5
 63
     7
421
 16777215
 74
     1
 91
        4
 64
     7
 65
   257
 75
     1
175
     1
 42
1.0
 92
        8
 66
     7
 43
1.0
 76
     1
 77
     6
 78
     2
 67
     7
 79
     5
170
     0
171
     0
290
     0
174
     0
 93
        1
 44
50.0
173
     0
291
     1
 45
0.0
1001
ACAD
1000
AcDbSavedByObjectVersion
1070
     0
  0
VISUALSTYLE
  5
3A
102
{ACAD_REACTORS
330
2A
102
}
330
2A
100
AcDbVisualStyle
  2
ColorChange
 70
    16
 71
     2
 72
     2
 73
     3
 90
        0
 40
-0.6
 41
-30.0
 62
     5
 63
     8
421
  8421504
 74
     1
 91
        4
 64
     7
 65
   257
 75
     1
175
     1
 42
1.0
 92
        8
 66
     8
424
  8421504
 43
1.0
 76
     1
 77
     6
 78
     2
 67
     7
 79
     5
170
     0
171
     0
290
     0
174
     0
 93
        1
 44
0.0
173
     0
291
     1
 45
0.0
1001
ACAD
1000
AcDbSavedByObjectVersion
1070
     0
  0
VISUALSTYLE
  5
34
102
{ACAD_REACTORS
330
2A
102
}
330
2A
100
AcDbVisualStyle
  2
Conceptual
 70
     9
 71
     3
 72
     2
 73
     0
 90
        0
 40
-0.6
 41
-30.0
 62
     5
 63
     7
421
 16777215
 74
     2
 91
        2
 64
     7
 65
   257
 75
     1
175
     1
 42
40.0
 92
        8
 66
     7
 43
1.0
 76
     1
 77
     6
 78
     2
 67
     7
 79
     3
170
     0
171
     0
290
     0
174
     0
 93
        1
 44
0.0
173
     0
291
     0
 45
0.0
1001
ACAD
1000
AcDbSavedByObjectVersion
1070
     0
  0
VISUALSTYLE
  5
35
102
{ACAD_REACTORS
330
2A
102
}
330
2A
100
AcDbVisualStyle
  2
Dim
 70
    11
 71
     2
 72
     2
 73
     0
 90
        0
 40
-0.6
 41
-30.0
 62
     5
 63
     7
421
 16777215
 74
     1
 91
        4
 64
     7
 65
   257
 75
     1
175
     1
 42
1.0
 92
        8
 66
     7
 43
1.0
 76
     1
 77
     6
 78
     2
 67
     7
 79
     5
170
     0
171
     0
290
     0
174
     0
 93
        1
 44
-50.0
173
     0
291
     1
 45
0.0
1001
ACAD
1000
AcDbSavedByObjectVersion
1070
     0
  0
VISUALSTYLE
  5
39
102
{ACAD_REACTORS
330
2A
102
}
330
2A
100
AcDbVisualStyle
  2
Facepattern
 70
    15
 71
     2
 72
     2
 73
     0
 90
        0
 40
-0.6
 41
-30.0
 62
     5
 63
     7
421
 16777215
 74
     1
 91
        4
 64
     7
 65
   257
 75
     1
175
     1
 42
1.0
 92
        8
 66
     7
 43
1.0
 76
     1
 77
     6
 78
     2
 67
     7
 79
     5
170
     0
171
     0
290
     0
174
     0
 93
        1
 44
0.0
173
     0
291
     1
 45
0.0
1001
ACAD
1000
AcDbSavedByObjectVersion
1070
     0
  0
VISUALSTYLE
  5
2B
102
{ACAD_REACTORS
330
2A
102
}
330
2A
100
AcDbVisualStyle
  2
Flat
 70
     0
 71
     2
 72
     1
 73
     1
 90
        2
 40
-0.6
 41
30.0
 62
     5
 63
     7
421
 16777215
 74
     0
 91
        4
 64
     7
 65
   257
 75
     1
175
     1
 42
1.0
 92
        8
 66
     7
 43
1.0
 76
     1
 77
     6
 78
     2
 67
     7
 79
     5
170
     0
171
     0
290
     0
174
     0
 93
       13
 44
0.0
173
     0
291
     1
 45
0.0
1001
ACAD
1000
AcDbSavedByObjectVersion
1070
     0
  0
VISUALSTYLE
  5
2C
102
{ACAD_REACTORS
330
2A
102
}
330
2A
100
AcDbVisualStyle
  2
FlatWithEdges
 70
     1
 71
     2
 72
     1
 73
     1
 90
        2
 40
-0.6
 41
30.0
 62
     5
 63
     7
421
 16777215
 74
     1
 91
        4
 64
     7
 65
   257
 75
     1
175
     1
 42
1.0
 92
        0
 66
   257
 43
1.0
 76
     1
 77
     6
 78
     2
 67
     7
 79
     5
170
     0
171
     0
290
     0
174
     0
 93
       13
 44
0.0
173
     0
291
     1
 45
0.0
1001
ACAD
1000
AcDbSavedByObjectVersion
1070
     0
  0
VISUALSTYLE
  5
2D
102
{ACAD_REACTORS
330
2A
102
}
330
2A
100
AcDbVisualStyle
  2
Gouraud
 70
     2
 71
     2
 72
     2
 73
     1
 90
        2
 40
-0.6
 41
30.0
 62
     5
 63
     7
421
 16777215
 74
     0
 91
        4
 64
     7
 65
   257
 75
     1
175
     1
 42
1.0
 92
        0
 66
     7
 43
1.0
 76
     1
 77
     6
 78
     2
 67
     7
 79
     5
170
     0
171
     0
290
     0
174
     0
 93
       13
 44
0.0
173
     0
291
     1
 45
0.0
1001
ACAD
1000
AcDbSavedByObjectVersion
1070
     0
  0
VISUALSTYLE
  5
2E
102
{ACAD_REACTORS
330
2A
102
}
330
2A
100
AcDbVisualStyle
  2
GouraudWithEdges
 70
     3
 71
     2
 72
     2
 73
     1
 90
        2
 40
-0.6
 41
30.0
 62
     5
 63
     7
421
 16777215
 74
     1
 91
        4
 64
     7
 65
   257
 75
     1
175
     1
 42
1.0
 92
        0
 66
   257
 43
1.0
 76
     1
 77
     6
 78
     2
 67
     7
 79
     5
170
     0
171
     0
290
     0
174
     0
 93
       13
 44
0.0
173
     0
291
     1
 45
0.0
1001
ACAD
1000
AcDbSavedByObjectVersion
1070
     0
  0
VISUALSTYLE
  5
38
102
{ACAD_REACTORS
330
2A
102
}
330
2A
100
AcDbVisualStyle
  2
Linepattern
 70
    14
 71
     2
 72
     2
 73
     0
 90
        0
 40
-0.6
 41
-30.0
 62
     5
 63
     7
421
 16777215
 74
     1
 91
        4
 64
     7
 65
   257
 75
     7
175
     7
 42
1.0
 92
        8
 66
     7
 43
1.0
 76
     1
 77
     6
 78
     2
 67
     7
 79
     5
170
     0
171
     0
290
     0
174
     0
 93
        1
 44
0.0
173
     0
291
     1
 45
0.0
1001
ACAD
1000
AcDbSavedByObjectVersion
1070
     0
  0
VISUALSTYLE
  5
33
102
{ACAD_REACTORS
330
2A
102
}
330
2A
100
AcDbVisualStyle
  2
Realistic
 70
     8
 71
     2
 72
     2
 73
     0
 90
        0
 40
-0.6
 41
-30.0
 62
     5
 63
     7
421
 16777215
 74
     1
 91
        0
 64
     7
 65
   257
 75
     1
175
     1
 42
1.0
 92
        8
 66
     8
424
  7895160
 43
1.0
 76
     1
 77
     6
 78
     2
 67
     7
 79
     5
170
     0
171
     0
290
     0
174
     0
 93
       13
 44
0.0
173
     0
291
     0
 45
0.0
1001
ACAD
1000
AcDbSavedByObjectVersion
1070
     0
  0
VISUALSTYLE
  5
37
102
{ACAD_REACTORS
330
2A
102
}
330
2A
100
AcDbVisualStyle
  2
Thicken
 70
    13
 71
     2
 72
     2
 73
     0
 90
        0
 40
-0.6
 41
-30.0
 62
     5
 63
     7
421
 16777215
 74
     1
 91
        4
 64
     7
 65
   257
 75
     1
175
     1
 42
1.0
 92
       12
 66
     7
 43
1.0
 76
     1
 77
     6
 78
     2
 67
     7
 79
     5
170
     0
171
     0
290
     0
174
     0
 93
        1
 44
0.0
173
     0
291
     1
 45
0.0
1001
ACAD
1000
AcDbSavedByObjectVersion
1070
     0
  0
ENDSEC
  0
EOF
