  0
SECTION
  2
HEADER
  9
$ACADVER
  1
AC1027
  9
$ACADMAINTVER
 70
   105
  9
$DWGCODEPAGE
  3
ANSI_932
  9
$REQUIREDVERSIONS
160
                 0
  9
$INSBASE
 10
0.0
 20
0.0
 30
0.0
  9
$EXTMIN
 10
-840.0
 20
-594.0
 30
0.0
  9
$EXTMAX
 10
840.0
 20
594.0
 30
0.0
  9
$LIMMIN
 10
-840.0
 20
-594.0
  9
$LIMMAX
 10
840.0
 20
594.0
  9
$ORTHOMODE
 70
     0
  9
$REGENMODE
 70
     1
  9
$FILLMODE
 70
     1
  9
$QTEXTMODE
 70
     0
  9
$MIRRTEXT
 70
     1
  9
$LTSCALE
 40
4.0
  9
$ATTMODE
 70
     1
  9
$TEXTSIZE
 40
2.5
  9
$TRACEWID
 40
1.0
  9
$TEXTSTYLE
  7
Standard
  9
$CLAYER
  8
0
  9
$CELTYPE
  6
ByLayer
  9
$CECOLOR
 62
   256
  9
$CELTSCALE
 40
1.0
  9
$DISPSILH
 70
     0
  9
$DIMSCALE
 40
1.0
  9
$DIMASZ
 40
2.5
  9
$DIMEXO
 40
0.625
  9
$DIMDLI
 40
3.75
  9
$DIMRND
 40
0.0
  9
$DIMDLE
 40
0.0
  9
$DIMEXE
 40
1.25
  9
$DIMTP
 40
0.0
  9
$DIMTM
 40
0.0
  9
$DIMTXT
 40
2.5
  9
$DIMCEN
 40
2.5
  9
$DIMTSZ
 40
0.0
  9
$DIMTOL
 70
     0
  9
$DIMLIM
 70
     0
  9
$DIMTIH
 70
     0
  9
$DIMTOH
 70
     0
  9
$DIMSE1
 70
     0
  9
$DIMSE2
 70
     0
  9
$DIMTAD
 70
     1
  9
$DIMZIN
 70
     8
  9
$DIMBLK
  1

  9
$DIMASO
 70
     1
  9
$DIMSHO
 70
     1
  9
$DIMPOST
  1

  9
$DIMAPOST
  1

  9
$DIMALT
 70
     0
  9
$DIMALTD
 70
     3
  9
$DIMALTF
 40
0.03937007874016
  9
$DIMLFAC
 40
1.0
  9
$DIMTOFL
 70
     1
  9
$DIMTVP
 40
0.0
  9
$DIMTIX
 70
     0
  9
$DIMSOXD
 70
     0
  9
$DIMSAH
 70
     0
  9
$DIMBLK1
  1

  9
$DIMBLK2
  1

  9
$DIMSTYLE
  2
ISO-25
  9
$DIMCLRD
 70
     0
  9
$DIMCLRE
 70
     0
  9
$DIMCLRT
 70
     0
  9
$DIMTFAC
 40
1.0
  9
$DIMGAP
 40
0.625
  9
$DIMJUST
 70
     0
  9
$DIMSD1
 70
     0
  9
$DIMSD2
 70
     0
  9
$DIMTOLJ
 70
     0
  9
$DIMTZIN
 70
     8
  9
$DIMALTZ
 70
     0
  9
$DIMALTTZ
 70
     0
  9
$DIMUPT
 70
     0
  9
$DIMDEC
 70
     2
  9
$DIMTDEC
 70
     2
  9
$DIMALTU
 70
     2
  9
$DIMALTTD
 70
     3
  9
$DIMTXSTY
  7
Standard
  9
$DIMAUNIT
 70
     0
  9
$DIMADEC
 70
     0
  9
$DIMALTRND
 40
0.0
  9
$DIMAZIN
 70
     0
  9
$DIMDSEP
 70
    44
  9
$DIMATFIT
 70
     3
  9
$DIMFRAC
 70
     0
  9
$DIMLDRBLK
  1

  9
$DIMLUNIT
 70
     2
  9
$DIMLWD
 70
    -2
  9
$DIMLWE
 70
    -2
  9
$DIMTMOVE
 70
     0
  9
$DIMFXL
 40
1.0
  9
$DIMFXLON
 70
     0
  9
$DIMJOGANG
 40
0.7853981633974483
  9
$DIMTFILL
 70
     0
  9
$DIMTFILLCLR
 70
     0
  9
$DIMARCSYM
 70
     0
  9
$DIMLTYPE
  6

  9
$DIMLTEX1
  6

  9
$DIMLTEX2
  6

  9
$DIMTXTDIRECTION
 70
     0
  9
$LUNITS
 70
     2
  9
$LUPREC
 70
     4
  9
$SKETCHINC
 40
1.0
  9
$FILLETRAD
 40
10.0
  9
$AUNITS
 70
     0
  9
$AUPREC
 70
     0
  9
$MENU
  1
.
  9
$ELEVATION
 40
0.0
  9
$PELEVATION
 40
0.0
  9
$THICKNESS
 40
0.0
  9
$LIMCHECK
 70
     0
  9
$CHAMFERA
 40
0.0
  9
$CHAMFERB
 40
0.0
  9
$CHAMFERC
 40
0.0
  9
$CHAMFERD
 40
0.0
  9
$SKPOLY
 70
     0
  9
$TDCREATE
 40
2458821.361875949
  9
$TDUCREATE
 40
2458820.986875949
  9
$TDUPDATE
 40
2458821.361876134
  9
$TDUUPDATE
 40
2458820.986876134
  9
$TDINDWG
 40
0.0000000116
  9
$TDUSRTIMER
 40
0.0000000116
  9
$USRTIMER
 70
     1
  9
$ANGBASE
 50
0.0
  9
$ANGDIR
 70
     0
  9
$PDMODE
 70
     0
  9
$PDSIZE
 40
0.0
  9
$PLINEWID
 40
0.0
  9
$SPLFRAME
 70
     0
  9
$SPLINETYPE
 70
     6
  9
$SPLINESEGS
 70
     8
  9
$HANDSEED
  5
52D
  9
$SURFTAB1
 70
     6
  9
$SURFTAB2
 70
     6
  9
$SURFTYPE
 70
     6
  9
$SURFU
 70
     6
  9
$SURFV
 70
     6
  9
$UCSBASE
  2

  9
$UCSNAME
  2

  9
$UCSORG
 10
0.0
 20
0.0
 30
0.0
  9
$UCSXDIR
 10
1.0
 20
0.0
 30
0.0
  9
$UCSYDIR
 10
0.0
 20
1.0
 30
0.0
  9
$UCSORTHOREF
  2

  9
$UCSORTHOVIEW
 70
     0
  9
$UCSORGTOP
 10
0.0
 20
0.0
 30
0.0
  9
$UCSORGBOTTOM
 10
0.0
 20
0.0
 30
0.0
  9
$UCSORGLEFT
 10
0.0
 20
0.0
 30
0.0
  9
$UCSORGRIGHT
 10
0.0
 20
0.0
 30
0.0
  9
$UCSORGFRONT
 10
0.0
 20
0.0
 30
0.0
  9
$UCSORGBACK
 10
0.0
 20
0.0
 30
0.0
  9
$PUCSBASE
  2

  9
$PUCSNAME
  2

  9
$PUCSORG
 10
0.0
 20
0.0
 30
0.0
  9
$PUCSXDIR
 10
1.0
 20
0.0
 30
0.0
  9
$PUCSYDIR
 10
0.0
 20
1.0
 30
0.0
  9
$PUCSORTHOREF
  2

  9
$PUCSORTHOVIEW
 70
     0
  9
$PUCSORGTOP
 10
0.0
 20
0.0
 30
0.0
  9
$PUCSORGBOTTOM
 10
0.0
 20
0.0
 30
0.0
  9
$PUCSORGLEFT
 10
0.0
 20
0.0
 30
0.0
  9
$PUCSORGRIGHT
 10
0.0
 20
0.0
 30
0.0
  9
$PUCSORGFRONT
 10
0.0
 20
0.0
 30
0.0
  9
$PUCSORGBACK
 10
0.0
 20
0.0
 30
0.0
  9
$USERI1
 70
     0
  9
$USERI2
 70
     0
  9
$USERI3
 70
     0
  9
$USERI4
 70
     0
  9
$USERI5
 70
     0
  9
$USERR1
 40
0.0
  9
$USERR2
 40
0.0
  9
$USERR3
 40
0.0
  9
$USERR4
 40
0.0
  9
$USERR5
 40
0.0
  9
$WORLDVIEW
 70
     1
  9
$SHADEDGE
 70
     3
  9
$SHADEDIF
 70
    70
  9
$TILEMODE
 70
     1
  9
$MAXACTVP
 70
    64
  9
$PINSBASE
 10
0.0
 20
0.0
 30
0.0
  9
$PLIMCHECK
 70
     0
  9
$PEXTMIN
 10
1.000000000000000E+20
 20
1.000000000000000E+20
 30
1.000000000000000E+20
  9
$PEXTMAX
 10
-1.000000000000000E+20
 20
-1.000000000000000E+20
 30
-1.000000000000000E+20
  9
$PLIMMIN
 10
0.0
 20
0.0
  9
$PLIMMAX
 10
420.0
 20
297.0
  9
$UNITMODE
 70
     0
  9
$VISRETAIN
 70
     1
  9
$PLINEGEN
 70
     0
  9
$PSLTSCALE
 70
     1
  9
$TREEDEPTH
 70
  3020
  9
$CMLSTYLE
  2
Standard
  9
$CMLJUST
 70
     0
  9
$CMLSCALE
 40
20.0
  9
$PROXYGRAPHICS
 70
     1
  9
$MEASUREMENT
 70
     1
  9
$CELWEIGHT
370
    -1
  9
$ENDCAPS
280
     0
  9
$JOINSTYLE
280
     0
  9
$LWDISPLAY
290
     0
  9
$INSUNITS
 70
     4
  9
$HYPERLINKBASE
  1

  9
$STYLESHEET
  1

  9
$XEDIT
290
     1
  9
$CEPSNTYPE
380
     0
  9
$PSTYLEMODE
290
     1
  9
$FINGERPRINTGUID
  2
{0B7CFD7C-75B6-4CB7-B5A4-9342E1481651}
  9
$VERSIONGUID
  2
{FAEB1C32-E019-11D5-929B-00C0DF256EC4}
  9
$EXTNAMES
290
     1
  9
$PSVPSCALE
 40
0.0
  9
$OLESTARTUP
290
     0
  9
$SORTENTS
280
   127
  9
$INDEXCTL
280
     0
  9
$HIDETEXT
280
     1
  9
$XCLIPFRAME
280
     2
  9
$HALOGAP
280
     0
  9
$OBSCOLOR
 70
   257
  9
$OBSLTYPE
280
     0
  9
$INTERSECTIONDISPLAY
280
     0
  9
$INTERSECTIONCOLOR
 70
   257
  9
$DIMASSOC
280
     2
  9
$PROJECTNAME
  1

  9
$CAMERADISPLAY
290
     0
  9
$LENSLENGTH
 40
50.0
  9
$CAMERAHEIGHT
 40
0.0
  9
$STEPSPERSEC
 40
2.0
  9
$STEPSIZE
 40
6.0
  9
$3DDWFPREC
 40
2.0
  9
$PSOLWIDTH
 40
5.0
  9
$PSOLHEIGHT
 40
80.0
  9
$LOFTANG1
 40
1.570796326794897
  9
$LOFTANG2
 40
1.570796326794897
  9
$LOFTMAG1
 40
0.0
  9
$LOFTMAG2
 40
0.0
  9
$LOFTPARAM
 70
     7
  9
$LOFTNORMALS
280
     1
  9
$LATITUDE
 40
37.795
  9
$LONGITUDE
 40
-122.394
  9
$NORTHDIRECTION
 40
0.0
  9
$TIMEZONE
 70
 -8000
  9
$LIGHTGLYPHDISPLAY
280
     1
  9
$TILEMODELIGHTSYNCH
280
     1
  9
$CMATERIAL
347
44
  9
$SOLIDHIST
280
     0
  9
$SHOWHIST
280
     1
  9
$DWFFRAME
280
     2
  9
$DGNFRAME
280
     2
  9
$REALWORLDSCALE
290
     1
  9
$INTERFERECOLOR
 62
   256
  9
$CSHADOW
280
     0
  9
$SHADOWPLANELOCATION
 40
0.0
  0
ENDSEC
  0
SECTION
  2
CLASSES
  0
CLASS
  1
ACDBDICTIONARYWDFLT
  2
AcDbDictionaryWithDefault
  3
ObjectDBX Classes
 90
        0
 91
        4
280
     0
281
     0
  0
CLASS
  1
VISUALSTYLE
  2
AcDbVisualStyle
  3
ObjectDBX Classes
 90
     4095
 91
        4
280
     0
281
     0
  0
CLASS
  1
MATERIAL
  2
AcDbMaterial
  3
ObjectDBX Classes
 90
     1153
 91
        4
280
     0
281
     0
  0
CLASS
  1
SCALE
  2
AcDbScale
  3
ObjectDBX Classes
 90
     1153
 91
        4
280
     0
281
     0
  0
CLASS
  1
TABLESTYLE
  2
AcDbTableStyle
  3
ObjectDBX Classes
 90
     4095
 91
        4
280
     0
281
     0
  0
CLASS
  1
MLEADERSTYLE
  2
AcDbMLeaderStyle
  3
ACDB_MLEADERSTYLE_CLASS
 90
     4095
 91
        4
280
     0
281
     0
  0
CLASS
  1
SUN
  2
AcDbSun
  3
SCENEOE
 90
     1153
 91
        4
280
     0
281
     0
  0
CLASS
  1
DICTIONARYVAR
  2
AcDbDictionaryVar
  3
ObjectDBX Classes
 90
        0
 91
        4
280
     0
281
     0
  0
CLASS
  1
CELLSTYLEMAP
  2
AcDbCellStyleMap
  3
ObjectDBX Classes
 90
     1152
 91
        4
280
     0
281
     0
  0
ENDSEC
  0
SECTION
  2
TABLES
  0
TABLE
  2
VPORT
  5
8
330
0
100
AcDbSymbolTable
 70
     1
  0
VPORT
  5
29
330
8
100
AcDbSymbolTableRecord
100
AcDbViewportTableRecord
  2
*Active
 70
     0
 10
0.0
 20
0.0
 11
1.0
 21
1.0
 12
0.0
 22
0.0
 13
0.0
 23
0.0
 14
10.0
 24
10.0
 15
10.0
 25
10.0
 16
0.0
 26
0.0
 36
1.0
 17
0.0
 27
0.0
 37
0.0
 40
1306.8
 41
1.414141414141414
 42
50.0
 43
0.0
 44
0.0
 50
0.0
 51
0.0
 71
     0
 72
 10000
 73
     1
 74
     3
 75
     0
 76
     0
 77
     0
 78
     0
281
     0
 65
     1
110
0.0
120
0.0
130
0.0
111
1.0
121
0.0
131
0.0
112
0.0
122
1.0
132
0.0
 79
     0
146
0.0
348
2F
 60
     3
 61
     5
292
     1
282
     1
141
0.0
142
0.0
 63
   250
361
6D
  0
ENDTAB
  0
TABLE
  2
LTYPE
  5
5
330
0
100
AcDbSymbolTable
 70
     3
  0
LTYPE
  5
14
330
5
100
AcDbSymbolTableRecord
100
AcDbLinetypeTableRecord
  2
ByBlock
 70
     0
  3

 72
    65
 73
     0
 40
0.0
  0
LTYPE
  5
15
330
5
100
AcDbSymbolTableRecord
100
AcDbLinetypeTableRecord
  2
ByLayer
 70
     0
  3

 72
    65
 73
     0
 40
0.0
  0
LTYPE
  5
16
330
5
100
AcDbSymbolTableRecord
100
AcDbLinetypeTableRecord
  2
Continuous
 70
     0
  3
Solid line
 72
    65
 73
     0
 40
0.0
  0
LTYPE
  5
6F
330
5
100
AcDbSymbolTableRecord
100
AcDbLinetypeTableRecord
  2
JWW_DASHED2
 70
     0
  3
--    ----    ----    ----    --
 72
    65
 73
     2
 40
3.386666666666667
 49
1.693333333333333
 74
     0
 49
-1.693333333333333
 74
     0
  0
LTYPE
  5
70
330
5
100
AcDbSymbolTableRecord
100
AcDbLinetypeTableRecord
  2
JWW_CENTER1
 70
     0
  3
-----  --  ----------  --  -----
 72
    65
 73
     4
 40
6.773333333333333
 49
4.233333333333333
 74
     0
 49
-0.8466666666666667
 74
     0
 49
0.8466666666666667
 74
     0
 49
-0.8466666666666667
 74
     0
  0
ENDTAB
  0
TABLE
  2
LAYER
  5
2
330
0
100
AcDbSymbolTable
 70
     7
  0
LAYER
  5
10
330
2
100
AcDbSymbolTableRecord
100
AcDbLayerTableRecord
  2
0
 70
     0
 62
     7
  6
Continuous
370
    -3
390
F
347
46
348
0
  0
LAYER
  5
71
330
2
100
AcDbSymbolTableRecord
100
AcDbLayerTableRecord
  2
A-1_ピット
 70
     0
 62
     7
  6
Continuous
370
    -3
390
F
347
46
348
0
  0
LAYER
  5
72
330
2
100
AcDbSymbolTableRecord
100
AcDbLayerTableRecord
  2
A-0_通り芯
 70
     0
 62
     7
  6
Continuous
370
    -3
390
F
347
46
348
0
  0
LAYER
  5
73
330
2
100
AcDbSymbolTableRecord
100
AcDbLayerTableRecord
  2
A-F
 70
     0
 62
     7
  6
Continuous
370
    -3
390
F
347
46
348
0
  0
LAYER
  5
74
330
2
100
AcDbSymbolTableRecord
100
AcDbLayerTableRecord
  2
F-Fﾚｲﾔ
 70
     0
 62
     7
  6
Continuous
370
    -3
390
F
347
46
348
0
  0
LAYER
  5
75
330
2
100
AcDbSymbolTableRecord
100
AcDbLayerTableRecord
  2
A-5_仕様文
 70
     0
 62
     7
  6
Continuous
370
    -3
390
F
347
46
348
0
  0
LAYER
  5
76
330
2
100
AcDbSymbolTableRecord
100
AcDbLayerTableRecord
  2
A-4_寸法
 70
     0
 62
     7
  6
Continuous
370
    -3
390
F
347
46
348
0
  0
ENDTAB
  0
TABLE
  2
STYLE
  5
3
330
0
100
AcDbSymbolTable
 70
     2
  0
STYLE
  5
11
330
3
100
AcDbSymbolTableRecord
100
AcDbTextStyleTableRecord
  2
Standard
 70
     0
 40
0.0
 41
1.0
 50
0.0
 71
     0
 42
2.5
  3
txt
  4

  0
STYLE
  5
6E
330
3
100
AcDbSymbolTableRecord
100
AcDbTextStyleTableRecord
  2
ＭＳ ゴシック
 70
     0
 40
1.0
 41
1.0
 50
0.0
 71
     0
 42
2.5
  3

  4

1001
ACAD
1000
MS Gothic
1071
    32817
  0
ENDTAB
  0
TABLE
  2
VIEW
  5
6
330
0
100
AcDbSymbolTable
 70
     0
  0
ENDTAB
  0
TABLE
  2
UCS
  5
7
330
0
100
AcDbSymbolTable
 70
     0
  0
ENDTAB
  0
TABLE
  2
APPID
  5
9
330
0
100
AcDbSymbolTable
 70
     1
  0
APPID
  5
12
330
9
100
AcDbSymbolTableRecord
100
AcDbRegAppTableRecord
  2
ACAD
 70
     0
  0
ENDTAB
  0
TABLE
  2
DIMSTYLE
  5
A
330
0
100
AcDbSymbolTable
 70
     1
100
AcDbDimStyleTable
  0
DIMSTYLE
105
27
330
A
100
AcDbSymbolTableRecord
100
AcDbDimStyleTableRecord
  2
ISO-25
 70
     0
 41
2.5
 42
0.625
 43
3.75
 44
1.25
 73
     0
 74
     0
 77
     1
 78
     8
140
2.5
141
2.5
143
0.03937007874016
147
0.625
171
     3
172
     1
178
     0
271
     2
272
     2
274
     3
278
    44
283
     0
284
     8
340
11
  0
ENDTAB
  0
TABLE
  2
BLOCK_RECORD
  5
1
330
0
100
AcDbSymbolTable
 70
     1
  0
BLOCK_RECORD
  5
1F
330
1
100
AcDbSymbolTableRecord
100
AcDbBlockTableRecord
  2
*Model_Space
340
22
 70
     0
280
     1
281
     0
  0
BLOCK_RECORD
  5
1B
330
1
100
AcDbSymbolTableRecord
100
AcDbBlockTableRecord
  2
*Paper_Space
340
1E
 70
     0
280
     1
281
     0
  0
BLOCK_RECORD
  5
23
330
1
100
AcDbSymbolTableRecord
100
AcDbBlockTableRecord
  2
*Paper_Space0
340
26
 70
     0
280
     1
281
     0
  0
ENDTAB
  0
ENDSEC
  0
SECTION
  2
BLOCKS
  0
BLOCK
  5
20
330
1F
100
AcDbEntity
  8
0
100
AcDbBlockBegin
  2
*Model_Space
 70
     0
 10
0.0
 20
0.0
 30
0.0
  3
*Model_Space
  1

  0
ENDBLK
  5
21
330
1F
100
AcDbEntity
  8
0
100
AcDbBlockEnd
  0
BLOCK
  5
1C
330
1B
100
AcDbEntity
 67
     1
  8
0
100
AcDbBlockBegin
  2
*Paper_Space
 70
     0
 10
0.0
 20
0.0
 30
0.0
  3
*Paper_Space
  1

  0
ENDBLK
  5
1D
330
1B
100
AcDbEntity
 67
     1
  8
0
100
AcDbBlockEnd
  0
BLOCK
  5
24
330
23
100
AcDbEntity
  8
0
100
AcDbBlockBegin
  2
*Paper_Space0
 70
     0
 10
0.0
 20
0.0
 30
0.0
  3
*Paper_Space0
  1

  0
ENDBLK
  5
25
330
23
100
AcDbEntity
  8
0
100
AcDbBlockEnd
  0
ENDSEC
  0
SECTION
  2
ENTITIES
  0
LINE
  5
77
330
1F
100
AcDbEntity
  8
A-1_ピット
  6
Continuous
 62
     2
370
     9
100
AcDbLine
 10
216.3207488980566
 20
308.0106901710458
 30
0.0
 11
216.3207488980566
 21
311.2106809332925
 31
0.0
  0
LINE
  5
78
330
1F
100
AcDbEntity
  8
A-1_ピット
  6
Continuous
 62
     2
370
     9
100
AcDbLine
 10
264.5206406843743
 20
325.2106281461303
 30
0.0
 11
264.5206406843743
 21
340.2107271220594
 31
0.0
  0
LINE
  5
79
330
1F
100
AcDbEntity
  8
A-1_ピット
  6
Continuous
 62
     2
370
     9
100
AcDbLine
 10
273.5206208891885
 20
325.2106281461303
 30
0.0
 11
273.5206208891885
 21
340.2107271220594
 31
0.0
  0
LINE
  5
7A
330
1F
100
AcDbEntity
  8
A-1_ピット
  6
Continuous
 62
     2
370
     9
100
AcDbLine
 10
273.5206208891885
 20
340.2107271220594
 30
0.0
 11
264.5206406843743
 21
340.2107271220594
 31
0.0
  0
LINE
  5
7B
330
1F
100
AcDbEntity
  8
A-1_ピット
  6
Continuous
 62
     2
370
     9
100
AcDbLine
 10
259.5207726522797
 20
320.2106611381067
 30
0.0
 11
234.5206406843743
 21
320.2106611381067
 31
0.0
  0
LINE
  5
7C
330
1F
100
AcDbEntity
  8
A-1_ピット
  6
Continuous
 62
     2
370
     9
100
AcDbLine
 10
259.5207726522797
 20
311.2106809332925
 30
0.0
 11
216.3207488980566
 21
311.2106809332925
 31
0.0
  0
LINE
  5
7D
330
1F
100
AcDbEntity
  8
A-1_ピット
  6
Continuous
 62
     2
370
     9
100
AcDbLine
 10
234.5206406843743
 20
311.2106809332925
 30
0.0
 11
234.5206406843743
 21
320.2106611381067
 31
0.0
  0
LINE
  5
7E
330
1F
100
AcDbEntity
  8
A-1_ピット
  6
Continuous
 62
     2
370
     9
100
AcDbLine
 10
244.5206736763506
 20
305.0106307854884
 30
0.0
 11
244.5206736763506
 21
281.0107495566033
 31
0.0
  0
LINE
  5
7F
330
1F
100
AcDbEntity
  8
A-0_通り芯
  6
Continuous
 62
     3
370
     9
100
AcDbLine
 10
-478.8792979505498
 20
-203.189244504841
 30
0.0
 11
-477.8792946513521
 21
-208.189063048971
 31
0.0
  0
LINE
  5
80
330
1F
100
AcDbEntity
  8
A-0_通り芯
  6
Continuous
 62
     3
370
     9
100
AcDbLine
 10
-478.8792979505498
 20
-203.189244504841
 30
0.0
 11
-372.1715177826867
 21
-203.189244504841
 31
0.0
  0
LINE
  5
81
330
1F
100
AcDbEntity
  8
A-0_通り芯
  6
Continuous
 62
     3
370
     9
100
AcDbLine
 10
-477.7502795278302
 20
-208.189063048971
 30
0.0
 11
-477.8792946513521
 21
-208.189063048971
 31
0.0
  0
LINE
  5
82
330
1F
100
AcDbEntity
  8
A-0_通り芯
  6
Continuous
 62
     3
370
     9
100
AcDbLine
 10
-478.1900790685819
 20
-200.7771021378646
 30
0.0
 11
-478.8792979505498
 21
-203.189244504841
 31
0.0
  0
LINE
  5
83
330
1F
100
AcDbEntity
  8
A-0_通り芯
  6
Continuous
 62
     3
370
     9
100
AcDbLine
 10
-474.9725200789281
 20
-221.7888505806434
 30
0.0
 11
-475.7547763342069
 21
-210.0561944626112
 31
0.0
  0
LINE
  5
84
330
1F
100
AcDbEntity
  8
A-0_通り芯
  6
Continuous
 62
     3
370
     9
100
AcDbLine
 10
-429.0613971640211
 20
-208.1600631017582
 30
0.0
 11
-425.3770676929483
 21
-222.0381709459305
 31
0.0
  0
LINE
  5
85
330
1F
100
AcDbEntity
  8
A-0_通り芯
  6
Continuous
 62
     3
370
     9
100
AcDbLine
 10
-392.6969974860227
 20
-208.1600631017582
 30
0.0
 11
-396.3815249089535
 21
-222.0381709459305
 31
0.0
  0
LINE
  5
86
330
1F
100
AcDbEntity
  8
A-0_通り芯
  6
Continuous
 62
     3
370
     9
100
AcDbLine
 10
-477.8792946513521
 20
-26.73926364018729
 30
0.0
 11
-477.8792946513521
 21
-41.48920095543218
 31
0.0
  0
LINE
  5
87
330
1F
100
AcDbEntity
  8
A-0_通り芯
  6
Continuous
 62
     3
370
     9
100
AcDbLine
 10
-478.8790999986917
 20
-42.4893032305589
 30
0.0
 11
-478.8790999986917
 21
304.5108023437654
 31
0.0
  0
LINE
  5
88
330
1F
100
AcDbEntity
  8
A-0_通り芯
  6
Continuous
 62
     3
370
     9
100
AcDbLine
 10
-477.8792946513521
 20
-13.73927023858249
 30
0.0
 11
-477.8792946513521
 21
0.7607033678363564
 31
0.0
  0
LINE
  5
89
330
1F
100
AcDbEntity
  8
A-0_通り芯
  6
Continuous
 62
     3
370
     9
100
AcDbLine
 10
-477.8792946513521
 20
13.76084523333469
 30
0.0
 11
-477.8792946513521
 21
28.26067037586
 31
0.0
  0
LINE
  5
8A
330
1F
100
AcDbEntity
  8
A-0_通り芯
  6
Continuous
 62
     3
370
     9
100
AcDbLine
 10
-477.8792946513521
 20
41.26081224135834
 30
0.0
 11
-477.8792946513521
 21
55.7607858477773
 31
0.0
  0
LINE
  5
8B
330
1F
100
AcDbEntity
  8
A-0_通り芯
  6
Continuous
 62
     3
370
     9
100
AcDbLine
 10
-477.8792946513521
 20
68.76077924938198
 30
0.0
 11
-477.8792946513521
 21
83.26075285580094
 31
0.0
  0
LINE
  5
8C
330
1F
100
AcDbEntity
  8
A-0_通り芯
  6
Continuous
 62
     3
370
     9
100
AcDbLine
 10
-477.8792946513521
 20
96.26074625740563
 30
0.0
 11
-477.8792946513521
 21
110.7607198638246
 31
0.0
  0
LINE
  5
8D
330
1F
100
AcDbEntity
  8
A-0_通り芯
  6
Continuous
 62
     3
370
     9
100
AcDbLine
 10
-458.8792319665971
 20
-24.23918116024635
 30
0.0
 11
-458.8792319665971
 21
-16.23920425462978
 31
0.0
  0
LINE
  5
8E
330
1F
100
AcDbEntity
  8
A-0_通り芯
  6
Continuous
 62
     3
370
     9
100
AcDbLine
 10
-343.2792563806596
 20
-24.23918116024635
 30
0.0
 11
-343.2792563806596
 21
-16.23920425462978
 31
0.0
  0
LINE
  5
8F
330
1F
100
AcDbEntity
  8
A-0_通り芯
  6
Continuous
 62
     3
370
     9
100
AcDbLine
 10
-363.2791739007188
 20
-24.23918116024635
 30
0.0
 11
-363.2791739007188
 21
-16.23920425462978
 31
0.0
  0
LINE
  5
90
330
1F
100
AcDbEntity
  8
A-0_通り芯
  6
Continuous
 62
     3
370
     9
100
AcDbLine
 10
-458.8792319665971
 20
3.260785847777299
 30
0.0
 11
-458.8792319665971
 21
11.26076275339386
 31
0.0
  0
LINE
  5
91
330
1F
100
AcDbEntity
  8
A-0_通り芯
  6
Continuous
 62
     3
370
     9
100
AcDbLine
 10
-343.2792563806596
 20
3.260785847777299
 30
0.0
 11
-343.2792563806596
 21
11.26076275339386
 31
0.0
  0
LINE
  5
92
330
1F
100
AcDbEntity
  8
A-0_通り芯
  6
Continuous
 62
     3
370
     9
100
AcDbLine
 10
-363.2791739007188
 20
3.260785847777299
 30
0.0
 11
-363.2791739007188
 21
11.26076275339386
 31
0.0
  0
LINE
  5
93
330
1F
100
AcDbEntity
  8
A-0_通り芯
  6
Continuous
 62
     3
370
     9
100
AcDbLine
 10
-458.8792319665971
 20
30.76075285580094
 30
0.0
 11
-458.8792319665971
 21
38.76072976141751
 31
0.0
  0
LINE
  5
94
330
1F
100
AcDbEntity
  8
A-0_通り芯
  6
Continuous
 62
     3
370
     9
100
AcDbLine
 10
-343.2792563806596
 20
30.76075285580094
 30
0.0
 11
-343.2792563806596
 21
38.76072976141751
 31
0.0
  0
LINE
  5
95
330
1F
100
AcDbEntity
  8
A-0_通り芯
  6
Continuous
 62
     3
370
     9
100
AcDbLine
 10
-363.2791739007188
 20
30.76075285580094
 30
0.0
 11
-363.2791739007188
 21
38.76072976141751
 31
0.0
  0
LINE
  5
96
330
1F
100
AcDbEntity
  8
A-0_通り芯
  6
Continuous
 62
     3
370
     9
100
AcDbLine
 10
-458.8792319665971
 20
58.26076935178907
 30
0.0
 11
-458.8792319665971
 21
66.26074625740563
 31
0.0
  0
LINE
  5
97
330
1F
100
AcDbEntity
  8
A-0_通り芯
  6
Continuous
 62
     3
370
     9
100
AcDbLine
 10
-343.2792563806596
 20
58.26076935178907
 30
0.0
 11
-343.2792563806596
 21
66.26074625740563
 31
0.0
  0
LINE
  5
98
330
1F
100
AcDbEntity
  8
A-0_通り芯
  6
Continuous
 62
     3
370
     9
100
AcDbLine
 10
-363.2791739007188
 20
58.26076935178907
 30
0.0
 11
-363.2791739007188
 21
66.26074625740563
 31
0.0
  0
LINE
  5
99
330
1F
100
AcDbEntity
  8
A-0_通り芯
  6
Continuous
 62
     3
370
     9
100
AcDbLine
 10
-458.8792319665971
 20
85.76073635981271
 30
0.0
 11
-458.8792319665971
 21
93.76071326542927
 31
0.0
  0
LINE
  5
9A
330
1F
100
AcDbEntity
  8
A-0_通り芯
  6
Continuous
 62
     3
370
     9
100
AcDbLine
 10
-343.2792563806596
 20
85.76073635981271
 30
0.0
 11
-343.2792563806596
 21
93.76071326542927
 31
0.0
  0
LINE
  5
9B
330
1F
100
AcDbEntity
  8
A-0_通り芯
  6
Continuous
 62
     3
370
     9
100
AcDbLine
 10
-363.2791739007188
 20
85.76073635981271
 30
0.0
 11
-363.2791739007188
 21
93.76071326542927
 31
0.0
  0
LINE
  5
9C
330
1F
100
AcDbEntity
  8
A-0_通り芯
  6
Continuous
 62
     3
370
     9
100
AcDbLine
 10
-458.8792319665971
 20
113.26085183173
 30
0.0
 11
-458.8792319665971
 21
121.2607297614175
 31
0.0
  0
LINE
  5
9D
330
1F
100
AcDbEntity
  8
A-0_通り芯
  6
Continuous
 62
     3
370
     9
100
AcDbLine
 10
-343.2792563806596
 20
113.26085183173
 30
0.0
 11
-343.2792563806596
 21
121.2607297614175
 31
0.0
  0
LINE
  5
9E
330
1F
100
AcDbEntity
  8
A-0_通り芯
  6
Continuous
 62
     3
370
     9
100
AcDbLine
 10
-363.2791739007188
 20
113.26085183173
 30
0.0
 11
-363.2791739007188
 21
121.2607297614175
 31
0.0
  0
LINE
  5
9F
330
1F
100
AcDbEntity
  8
A-0_通り芯
  6
Continuous
 62
     3
370
     9
100
AcDbLine
 10
217.8208280787999
 20
-14.10780711041531
 30
0.0
 11
217.8208280787999
 21
1.129289727633648
 31
0.0
  0
LINE
  5
A0
330
1F
100
AcDbEntity
  8
A-0_通り芯
  6
Continuous
 62
     3
370
     9
100
AcDbLine
 10
218.9086725150331
 20
-15.55023281248458
 30
0.0
 11
221.3207159060804
 21
-16.23925374259437
 31
0.0
  0
LINE
  5
A1
330
1F
100
AcDbEntity
  8
A-0_通り芯
  6
Continuous
 62
     3
370
     9
100
AcDbLine
 10
216.9888364191716
 20
-0.0439709353731246
 30
0.0
 11
217.8208280787999
 21
0.5106901710458374
 31
0.0
  0
LINE
  5
A2
330
1F
100
AcDbEntity
  8
A-0_通り芯
  6
Continuous
 62
     3
370
     9
100
AcDbLine
 10
216.3207488980566
 20
-11.68655895796593
 30
0.0
 11
216.3207488980566
 21
-1.292057400744682
 31
0.0
  0
LINE
  5
A3
330
1F
100
AcDbEntity
  8
A-0_通り芯
  6
Continuous
 62
     3
370
     9
100
AcDbLine
 10
216.9888364191716
 20
-12.9346454233376
 30
0.0
 11
217.8208280787999
 21
-13.4892075538275
 31
0.0
  0
LINE
  5
A4
330
1F
100
AcDbEntity
  8
A-0_通り芯
  6
Continuous
 62
     3
370
     9
100
AcDbLine
 10
218.9086725150331
 20
30.0715834617975
 30
0.0
 11
221.3207159060804
 21
30.76070336783636
 31
0.0
  0
LINE
  5
A5
330
1F
100
AcDbEntity
  8
A-0_通り芯
  6
Continuous
 62
     3
370
     9
100
AcDbLine
 10
217.8208280787999
 20
13.39215989760834
 30
0.0
 11
217.8208280787999
 21
28.62925673565729
 31
0.0
  0
LINE
  5
A6
330
1F
100
AcDbEntity
  8
A-0_通り芯
  6
Continuous
 62
     3
370
     9
100
AcDbLine
 10
218.9086725150331
 20
11.94983317146813
 30
0.0
 11
221.3207159060804
 21
11.26071326542927
 31
0.0
  0
LINE
  5
A7
330
1F
100
AcDbEntity
  8
A-0_通り芯
  6
Continuous
 62
     3
370
     9
100
AcDbLine
 10
216.9888364191716
 20
27.45599607265052
 30
0.0
 11
217.8208280787999
 21
28.01075615499855
 31
0.0
  0
LINE
  5
A8
330
1F
100
AcDbEntity
  8
A-0_通り芯
  6
Continuous
 62
     3
370
     9
100
AcDbLine
 10
216.3207488980566
 20
15.81340805005772
 30
0.0
 11
216.3207488980566
 21
26.20790960727896
 31
0.0
  0
LINE
  5
A9
330
1F
100
AcDbEntity
  8
A-0_通り芯
  6
Continuous
 62
     3
370
     9
100
AcDbLine
 10
216.9888364191716
 20
14.56532158468605
 30
0.0
 11
217.8208280787999
 21
14.01075945419615
 31
0.0
  0
LINE
  5
AA
330
1F
100
AcDbEntity
  8
A-0_通り芯
  6
Continuous
 62
     3
370
     9
100
AcDbLine
 10
218.9086725150331
 20
57.57155046982115
 30
0.0
 11
221.3207159060804
 21
58.26071986382459
 31
0.0
  0
LINE
  5
AB
330
1F
100
AcDbEntity
  8
A-0_通り芯
  6
Continuous
 62
     3
370
     9
100
AcDbLine
 10
217.8208280787999
 20
40.89222588156105
 30
0.0
 11
217.8208280787999
 21
56.12927323164553
 31
0.0
  0
LINE
  5
AC
330
1F
100
AcDbEntity
  8
A-0_通り芯
  6
Continuous
 62
     3
370
     9
100
AcDbLine
 10
218.9086725150331
 20
39.44989915542084
 30
0.0
 11
221.3207159060804
 21
38.76068027345292
 31
0.0
  0
LINE
  5
AD
330
1F
100
AcDbEntity
  8
A-0_通り芯
  6
Continuous
 62
     3
370
     9
100
AcDbLine
 10
216.9888364191716
 20
54.95596308067417
 30
0.0
 11
217.8208280787999
 21
55.51072316302219
 31
0.0
  0
LINE
  5
AE
330
1F
100
AcDbEntity
  8
A-0_通り芯
  6
Continuous
 62
     3
370
     9
100
AcDbLine
 10
216.3207488980566
 20
43.31342454604584
 30
0.0
 11
216.3207488980566
 21
53.70787661530261
 31
0.0
  0
LINE
  5
AF
330
1F
100
AcDbEntity
  8
A-0_通り芯
  6
Continuous
 62
     3
370
     9
100
AcDbLine
 10
216.9888364191716
 20
42.06533808067417
 30
0.0
 11
217.8208280787999
 21
41.51072646221979
 31
0.0
  0
LINE
  5
B0
330
1F
100
AcDbEntity
  8
A-0_通り芯
  6
Continuous
 62
     3
370
     9
100
AcDbLine
 10
218.9086725150331
 20
85.0715174778448
 30
0.0
 11
221.3207159060804
 21
85.76068687184824
 31
0.0
  0
LINE
  5
B1
330
1F
100
AcDbEntity
  8
A-0_通り芯
  6
Continuous
 62
     3
370
     9
100
AcDbLine
 10
217.8208280787999
 20
68.39209391365563
 30
0.0
 11
217.8208280787999
 21
83.62924023966917
 31
0.0
  0
LINE
  5
B2
330
1F
100
AcDbEntity
  8
A-0_通り芯
  6
Continuous
 62
     3
370
     9
100
AcDbLine
 10
218.9086725150331
 20
66.94986616344448
 30
0.0
 11
221.3207159060804
 21
66.26069676944115
 31
0.0
  0
LINE
  5
B3
330
1F
100
AcDbEntity
  8
A-0_通り芯
  6
Continuous
 62
     3
370
     9
100
AcDbLine
 10
216.9888364191716
 20
82.45607855259146
 30
0.0
 11
217.8208280787999
 21
83.01069017104584
 31
0.0
  0
LINE
  5
B4
330
1F
100
AcDbEntity
  8
A-0_通り芯
  6
Continuous
 62
     3
370
     9
100
AcDbLine
 10
216.3207488980566
 20
70.81354001796302
 30
0.0
 11
216.3207488980566
 21
81.20784362332626
 31
0.0
  0
LINE
  5
B5
330
1F
100
AcDbEntity
  8
A-0_通り芯
  6
Continuous
 62
     3
370
     9
100
AcDbLine
 10
216.9888364191716
 20
69.56545355259146
 30
0.0
 11
217.8208280787999
 21
69.01069347024344
 31
0.0
  0
LINE
  5
B6
330
1F
100
AcDbEntity
  8
A-0_通り芯
  6
Continuous
 62
     3
370
     9
100
AcDbLine
 10
218.9086725150331
 20
112.571533973833
 30
0.0
 11
221.3207159060804
 21
113.2607033678364
 31
0.0
  0
LINE
  5
B7
330
1F
100
AcDbEntity
  8
A-0_通り芯
  6
Continuous
 62
     3
370
     9
100
AcDbLine
 10
217.8208280787999
 20
95.89215989760834
 30
0.0
 11
217.8208280787999
 21
111.1292567356573
 31
0.0
  0
LINE
  5
B8
330
1F
100
AcDbEntity
  8
A-0_通り芯
  6
Continuous
 62
     3
370
     9
100
AcDbLine
 10
218.9086725150331
 20
94.44998163536178
 30
0.0
 11
221.3207159060804
 21
93.7606637774648
 31
0.0
  0
LINE
  5
B9
330
1F
100
AcDbEntity
  8
A-0_通り芯
  6
Continuous
 62
     3
370
     9
100
AcDbLine
 10
216.9888364191716
 20
109.9560455606151
 30
0.0
 11
217.8208280787999
 21
110.510805642963
 31
0.0
  0
LINE
  5
BA
330
1F
100
AcDbEntity
  8
A-0_通り芯
  6
Continuous
 62
     3
370
     9
100
AcDbLine
 10
216.3207488980566
 20
98.31350702598678
 30
0.0
 11
216.3207488980566
 21
108.7079590952434
 31
0.0
  0
LINE
  5
BB
330
1F
100
AcDbEntity
  8
A-0_通り芯
  6
Continuous
 62
     3
370
     9
100
AcDbLine
 10
216.9888364191716
 20
97.06542056061511
 30
0.0
 11
217.8208280787999
 21
96.51066047826708
 31
0.0
  0
LINE
  5
BC
330
1F
100
AcDbEntity
  8
A-0_通り芯
  6
Continuous
 62
     3
370
     9
100
AcDbLine
 10
218.9086725150331
 20
121.9498991554208
 30
0.0
 11
221.3207159060804
 21
121.2606307854884
 31
0.0
  0
LINE
  5
BD
330
1F
100
AcDbEntity
  8
A-0_通り芯
  6
Continuous
 62
     3
370
     9
100
AcDbLine
 10
216.9888364191716
 20
124.5654370566032
 30
0.0
 11
217.8208280787999
 21
124.0106769742553
 31
0.0
  0
LINE
  5
BE
330
1F
100
AcDbEntity
  8
A-0_通り芯
  6
Continuous
 62
     3
370
     9
100
AcDbLine
 10
221.3207159060804
 20
12.55135938029417
 30
0.0
 11
221.3207159060804
 21
1.970090244947812
 31
0.0
  0
LINE
  5
BF
330
1F
100
AcDbEntity
  8
A-0_通り芯
  6
Continuous
 62
     3
370
     9
100
AcDbLine
 10
251.3208148820093
 20
128.4140170819412
 30
0.0
 11
251.3208148820093
 21
133.6072840794073
 31
0.0
  0
LINE
  5
C0
330
1F
100
AcDbEntity
  8
A-0_通り芯
  6
Continuous
 62
     3
370
     9
100
AcDbLine
 10
251.3208148820093
 20
73.4139840899648
 30
0.0
 11
251.3208148820093
 21
78.60744903928907
 31
0.0
  0
LINE
  5
C1
330
1F
100
AcDbEntity
  8
A-0_通り芯
  6
Continuous
 62
     3
370
     9
100
AcDbLine
 10
221.3207159060804
 20
67.52862790858802
 30
0.0
 11
221.3207159060804
 21
56.97012323692417
 31
0.0
  0
LINE
  5
C2
330
1F
100
AcDbEntity
  8
A-0_通り芯
  6
Continuous
 62
     3
370
     9
100
AcDbLine
 10
221.3207159060804
 20
84.81739677999855
 30
0.0
 11
221.3207159060804
 21
95.05126040436511
 31
0.0
  0
LINE
  5
C3
330
1F
100
AcDbEntity
  8
A-0_通り芯
  6
Continuous
 62
     3
370
     9
100
AcDbLine
 10
221.3207159060804
 20
122.5512769003532
 30
0.0
 11
221.3207159060804
 21
111.9702057168651
 31
0.0
  0
LINE
  5
C4
330
1F
100
AcDbEntity
  8
A-0_通り芯
  6
Continuous
 62
     3
370
     9
100
AcDbLine
 10
221.3207159060804
 20
-14.94860762772947
 30
0.0
 11
221.3207159060804
 21
-24.11427353778021
 31
0.0
  0
LINE
  5
C5
330
1F
100
AcDbEntity
  8
A-0_通り芯
  6
Continuous
 62
     3
370
     9
100
AcDbLine
 10
241.3207818900331
 20
126.3440345017046
 30
0.0
 11
249.9206024136816
 21
126.9173030827857
 31
0.0
  0
LINE
  5
C6
330
1F
100
AcDbEntity
  8
A-0_通り芯
  6
JWW_DASHED2
 62
     3
370
     9
100
AcDbLine
 10
241.3207818900331
 20
126.3449252850662
 30
0.0
 11
241.3207818900331
 21
135.5816559121776
 31
0.0
  0
LINE
  5
C7
330
1F
100
AcDbEntity
  8
A-0_通り芯
  6
Continuous
 62
     3
370
     9
100
AcDbLine
 10
224.1211408427358
 20
70.19771178738876
 30
0.0
 11
249.9206024136816
 21
71.91727009080938
 31
0.0
  0
LINE
  5
C8
330
1F
100
AcDbEntity
  8
A-0_通り芯
  6
Continuous
 62
     3
370
     9
100
AcDbLine
 10
245.988090800506
 20
80.36620181061511
 30
0.0
 11
249.9206024136816
 21
80.10416303844448
 31
0.0
  0
LINE
  5
C9
330
1F
100
AcDbEntity
  8
A-0_通り芯
  6
Continuous
 62
     3
370
     9
100
AcDbLine
 10
224.1211408427358
 20
81.82411724558136
 30
0.0
 11
245.988090800506
 21
80.36620181061511
 31
0.0
  0
LINE
  5
CA
330
1F
100
AcDbEntity
  8
A-0_通り芯
  6
Continuous
 62
     3
370
     9
100
AcDbLine
 10
226.3207818900331
 20
-10.25962298879364
 30
0.0
 11
226.3207818900331
 21
-2.718993369916973
 31
0.0
  0
LINE
  5
CB
330
1F
100
AcDbEntity
  8
A-0_通り芯
  6
Continuous
 62
     3
370
     9
100
AcDbLine
 10
223.7323633934114
 20
-12.00694404031395
 30
0.0
 11
225.1149581463674
 21
-11.73055375843052
 31
0.0
  0
LINE
  5
CC
330
1F
100
AcDbEntity
  8
A-0_通り芯
  6
Continuous
 62
     3
370
     9
100
AcDbLine
 10
223.7323633934114
 20
-0.9716228304321817
 30
0.0
 11
225.1149581463674
 21
-1.248112088244682
 31
0.0
  0
LINE
  5
CD
330
1F
100
AcDbEntity
  8
A-0_通り芯
  6
Continuous
 62
     3
370
     9
100
AcDbLine
 10
218.9086725150331
 20
2.571616453773856
 30
0.0
 11
221.3207159060804
 21
3.260736359812711
 31
0.0
  0
LINE
  5
CE
330
1F
100
AcDbEntity
  8
A-0_通り芯
  6
Continuous
 62
     3
370
     9
100
AcDbLine
 10
226.3207818900331
 20
24.78097363810667
 30
0.0
 11
226.3207818900331
 21
17.24034401923001
 31
0.0
  0
LINE
  5
CF
330
1F
100
AcDbEntity
  8
A-0_通り芯
  6
Continuous
 62
     3
370
     9
100
AcDbLine
 10
223.7323633934114
 20
26.52834417759146
 30
0.0
 11
225.1149581463674
 21
26.25190440774344
 31
0.0
  0
LINE
  5
D0
330
1F
100
AcDbEntity
  8
A-0_通り芯
  6
Continuous
 62
     3
370
     9
100
AcDbLine
 10
226.3207818900331
 20
52.28094064613032
 30
0.0
 11
226.3207818900331
 21
44.74041000318272
 31
0.0
  0
LINE
  5
D1
330
1F
100
AcDbEntity
  8
A-0_通り芯
  6
Continuous
 62
     3
370
     9
100
AcDbLine
 10
223.7323633934114
 20
42.99303946369793
 30
0.0
 11
225.1149581463674
 21
43.26952872151043
 31
0.0
  0
LINE
  5
D2
330
1F
100
AcDbEntity
  8
A-0_通り芯
  6
Continuous
 62
     3
370
     9
100
AcDbLine
 10
223.7323633934114
 20
54.02836067357958
 30
0.0
 11
225.1149581463674
 21
53.75192090373167
 31
0.0
  0
LINE
  5
D3
330
1F
100
AcDbEntity
  8
A-0_通り芯
  6
Continuous
 62
     3
370
     9
100
AcDbLine
 10
221.3207159060804
 20
29.36865641365563
 30
0.0
 11
221.3207159060804
 21
40.05132638831782
 31
0.0
  0
LINE
  5
D4
330
1F
100
AcDbEntity
  8
A-0_通り芯
  6
Continuous
 62
     3
370
     9
100
AcDbLine
 10
226.3207818900331
 20
107.2809736381067
 30
0.0
 11
226.3207818900331
 21
99.74039350719448
 31
0.0
  0
LINE
  5
D5
330
1F
100
AcDbEntity
  8
A-0_通り芯
  6
Continuous
 62
     3
370
     9
100
AcDbLine
 10
223.7323633934114
 20
97.99307245567428
 30
0.0
 11
225.1149581463674
 21
98.26951222552219
 31
0.0
  0
LINE
  5
D6
330
1F
100
AcDbEntity
  8
A-0_通り芯
  6
Continuous
 62
     3
370
     9
100
AcDbLine
 10
223.7323633934114
 20
109.0283936655559
 30
0.0
 11
225.1149581463674
 21
108.751854919779
 31
0.0
  0
LINE
  5
D7
330
1F
100
AcDbEntity
  8
A-0_通り芯
  6
Continuous
 62
     3
370
     9
100
AcDbLine
 10
223.7323633934114
 20
125.4930394636979
 30
0.0
 11
225.1149581463674
 21
125.7695782094749
 31
0.0
  0
LINE
  5
D8
330
1F
100
AcDbEntity
  8
A-0_通り芯
  6
Continuous
 62
     3
370
     9
100
AcDbLine
 10
-476.3793144465379
 20
122.2606835726505
 30
0.0
 11
-131.3791164946798
 21
122.2606835726505
 31
0.0
  0
LINE
  5
D9
330
1F
100
AcDbEntity
  8
A-0_通り芯
  6
Continuous
 62
     3
370
     9
100
AcDbLine
 10
-477.3792682577711
 20
121.2607297614175
 30
0.0
 11
-130.3791626834467
 21
121.2607297614175
 31
0.0
  0
LINE
  5
DA
330
1F
100
AcDbEntity
  8
A-0_通り芯
  6
Continuous
 62
     3
370
     9
100
AcDbLine
 10
-476.3793144465379
 20
94.76076605259146
 30
0.0
 11
-131.3791164946798
 21
94.76076605259146
 31
0.0
  0
LINE
  5
DB
330
1F
100
AcDbEntity
  8
A-0_通り芯
  6
Continuous
 62
     3
370
     9
100
AcDbLine
 10
-477.3792682577711
 20
93.76071326542927
 30
0.0
 11
-130.3791626834467
 21
93.76071326542927
 31
0.0
  0
LINE
  5
DC
330
1F
100
AcDbEntity
  8
A-0_通り芯
  6
Continuous
 62
     3
370
     9
100
AcDbLine
 10
-476.3793144465379
 20
112.2607495566032
 30
0.0
 11
-131.3791164946798
 21
112.2607495566032
 31
0.0
  0
LINE
  5
DD
330
1F
100
AcDbEntity
  8
A-0_通り芯
  6
Continuous
 62
     3
370
     9
100
AcDbLine
 10
-477.3792682577711
 20
113.26085183173
 30
0.0
 11
-130.3791626834467
 21
113.26085183173
 31
0.0
  0
LINE
  5
DE
330
1F
100
AcDbEntity
  8
A-0_通り芯
  6
Continuous
 62
     3
370
     9
100
AcDbLine
 10
-476.3793144465379
 20
67.26079904456782
 30
0.0
 11
-131.3791164946798
 21
67.26079904456782
 31
0.0
  0
LINE
  5
DF
330
1F
100
AcDbEntity
  8
A-0_通り芯
  6
Continuous
 62
     3
370
     9
100
AcDbLine
 10
-477.3792682577711
 20
66.26074625740563
 30
0.0
 11
-130.3791626834467
 21
66.26074625740563
 31
0.0
  0
LINE
  5
E0
330
1F
100
AcDbEntity
  8
A-0_通り芯
  6
Continuous
 62
     3
370
     9
100
AcDbLine
 10
-476.3793144465379
 20
84.76073306061511
 30
0.0
 11
-131.3791164946798
 21
84.76073306061511
 31
0.0
  0
LINE
  5
E1
330
1F
100
AcDbEntity
  8
A-0_通り芯
  6
Continuous
 62
     3
370
     9
100
AcDbLine
 10
-477.3792682577711
 20
85.76073635981271
 30
0.0
 11
-130.3791626834467
 21
85.76073635981271
 31
0.0
  0
LINE
  5
E2
330
1F
100
AcDbEntity
  8
A-0_通り芯
  6
Continuous
 62
     3
370
     9
100
AcDbLine
 10
-477.3792682577711
 20
38.76072976141751
 30
0.0
 11
-130.3791626834467
 21
38.76072976141751
 31
0.0
  0
LINE
  5
E3
330
1F
100
AcDbEntity
  8
A-0_通り芯
  6
Continuous
 62
     3
370
     9
100
AcDbLine
 10
-476.3793144465379
 20
57.26076605259146
 30
0.0
 11
-131.3791164946798
 21
57.26076605259146
 31
0.0
  0
LINE
  5
E4
330
1F
100
AcDbEntity
  8
A-0_通り芯
  6
Continuous
 62
     3
370
     9
100
AcDbLine
 10
-477.3792682577711
 20
58.26076935178907
 30
0.0
 11
-130.3791626834467
 21
58.26076935178907
 31
0.0
  0
LINE
  5
E5
330
1F
100
AcDbEntity
  8
A-0_通り芯
  6
Continuous
 62
     3
370
     9
100
AcDbLine
 10
-476.3793144465379
 20
12.26071656462688
 30
0.0
 11
-131.3791164946798
 21
12.26071656462688
 31
0.0
  0
LINE
  5
E6
330
1F
100
AcDbEntity
  8
A-0_通り芯
  6
Continuous
 62
     3
370
     9
100
AcDbLine
 10
-477.3792682577711
 20
11.26076275339386
 30
0.0
 11
-130.3791626834467
 21
11.26076275339386
 31
0.0
  0
LINE
  5
E7
330
1F
100
AcDbEntity
  8
A-0_通り芯
  6
Continuous
 62
     3
370
     9
100
AcDbLine
 10
-476.3793144465379
 20
29.76079904456782
 30
0.0
 11
-131.3791164946798
 21
29.76079904456782
 31
0.0
  0
LINE
  5
E8
330
1F
100
AcDbEntity
  8
A-0_通り芯
  6
Continuous
 62
     3
370
     9
100
AcDbLine
 10
-477.3792682577711
 20
30.76075285580094
 30
0.0
 11
-130.3791626834467
 21
30.76075285580094
 31
0.0
  0
LINE
  5
E9
330
1F
100
AcDbEntity
  8
A-0_通り芯
  6
Continuous
 62
     3
370
     9
100
AcDbLine
 10
-476.3793144465379
 20
-15.23925044339677
 30
0.0
 11
-131.3791164946798
 21
-15.23925044339677
 31
0.0
  0
LINE
  5
EA
330
1F
100
AcDbEntity
  8
A-0_通り芯
  6
Continuous
 62
     3
370
     9
100
AcDbLine
 10
-477.3792682577711
 20
-16.23920425462978
 30
0.0
 11
-130.3791626834467
 21
-16.23920425462978
 31
0.0
  0
LINE
  5
EB
330
1F
100
AcDbEntity
  8
A-0_通り芯
  6
Continuous
 62
     3
370
     9
100
AcDbLine
 10
-476.3793144465379
 20
2.260683572650521
 30
0.0
 11
-131.3791164946798
 21
2.260683572650521
 31
0.0
  0
LINE
  5
EC
330
1F
100
AcDbEntity
  8
A-0_通り芯
  6
Continuous
 62
     3
370
     9
100
AcDbLine
 10
-477.3792682577711
 20
3.260785847777299
 30
0.0
 11
-130.3791626834467
 21
3.260785847777299
 31
0.0
  0
LINE
  5
ED
330
1F
100
AcDbEntity
  8
A-0_通り芯
  6
Continuous
 62
     3
370
     9
100
AcDbLine
 10
-477.3792682577711
 20
-24.23918116024635
 30
0.0
 11
-130.3791626834467
 21
-24.23918116024635
 31
0.0
  0
LINE
  5
EE
330
1F
100
AcDbEntity
  8
A-0_通り芯
  6
Continuous
 62
     3
370
     9
100
AcDbLine
 10
-476.3793144465379
 20
-25.23928343537312
 30
0.0
 11
-131.3791164946798
 21
-25.23928343537312
 31
0.0
  0
LINE
  5
EF
330
1F
100
AcDbEntity
  8
A-0_通り芯
  6
Continuous
 62
     3
370
     9
100
AcDbLine
 10
-477.3792682577711
 20
-43.98928343537307
 30
0.0
 11
-130.3791626834467
 21
-43.98928343537307
 31
0.0
  0
LINE
  5
F0
330
1F
100
AcDbEntity
  8
A-0_通り芯
  6
Continuous
 62
     3
370
     9
100
AcDbLine
 10
-476.3793144465379
 20
-42.98932962414
 30
0.0
 11
-131.3791164946798
 21
-42.98932962414
 31
0.0
  0
LINE
  5
F1
330
1F
100
AcDbEntity
  8
A-0_通り芯
  6
Continuous
 62
     3
370
     9
100
AcDbLine
 10
-368.2461324364027
 20
-206.420066268988
 30
0.0
 11
-365.1978222854315
 21
-221.977647165314
 31
0.0
  0
LINE
  5
F2
330
1F
100
AcDbEntity
  8
A-0_通り芯
  6
Continuous
 62
     3
370
     9
100
AcDbLine
 10
-369.5457358728471
 20
-208.189063048971
 30
0.0
 11
-458.3208097748741
 21
-208.189063048971
 31
0.0
  0
LINE
  5
F3
330
1F
100
AcDbEntity
  8
A-0_通り芯
  6
Continuous
 62
     3
370
     9
100
AcDbLine
 10
-354.1950641562086
 20
-223.1892610008292
 30
0.0
 11
-363.7259017565042
 21
-223.1892610008292
 31
0.0
  0
LINE
  5
F4
330
1F
100
AcDbEntity
  8
A-0_通り芯
  6
Continuous
 62
     3
370
     9
100
AcDbLine
 10
-349.6746355244517
 20
-206.420066268988
 30
0.0
 11
-352.7230941393167
 21
-221.977647165314
 31
0.0
  0
LINE
  5
F5
330
1F
100
AcDbEntity
  8
A-0_通り芯
  6
Continuous
 62
     3
370
     9
100
AcDbLine
 10
-348.3752300398656
 20
-208.189063048971
 30
0.0
 11
-259.5456204009298
 21
-208.189063048971
 31
0.0
  0
LINE
  5
F6
330
1F
100
AcDbEntity
  8
A-0_通り芯
  6
Continuous
 62
     3
370
     9
100
AcDbLine
 10
-345.7492996661325
 20
-203.189244504841
 30
0.0
 11
-262.1715012866983
 21
-203.189244504841
 31
0.0
  0
LINE
  5
F7
330
1F
100
AcDbEntity
  8
A-0_通り芯
  6
Continuous
 62
     3
370
     9
100
AcDbLine
 10
-476.7478018304062
 20
-199.6892577016316
 30
0.0
 11
-131.1730486103892
 21
-199.6892577016316
 31
0.0
  0
LINE
  5
F8
330
1F
100
AcDbEntity
  8
A-0_通り芯
  6
Continuous
 62
     3
370
     9
100
AcDbLine
 10
-349.8792682577711
 20
-27.11423394740854
 30
0.0
 11
-257.8791626834467
 21
-27.11423394740854
 31
0.0
  0
LINE
  5
F9
330
1F
100
AcDbEntity
  8
A-0_通り芯
  6
Continuous
 62
     3
370
     9
100
AcDbLine
 10
-349.8792682577711
 20
-41.11428013617547
 30
0.0
 11
-257.8791626834467
 21
-41.11428013617547
 31
0.0
  0
LINE
  5
FA
330
1F
100
AcDbEntity
  8
A-0_通り芯
  6
Continuous
 62
     3
370
     9
100
AcDbLine
 10
-349.8792682577711
 20
-41.11428013617547
 30
0.0
 11
-349.8792682577711
 21
-27.11423394740854
 31
0.0
  0
LINE
  5
FB
330
1F
100
AcDbEntity
  8
A-0_通り芯
  6
Continuous
 62
     3
370
     9
100
AcDbLine
 10
-348.8791659826444
 20
-40.11422734901328
 30
0.0
 11
-258.879215470609
 21
-40.11422734901328
 31
0.0
  0
LINE
  5
FC
330
1F
100
AcDbEntity
  8
A-0_通り芯
  6
Continuous
 62
     3
370
     9
100
AcDbLine
 10
-348.8791659826444
 20
-40.11422734901328
 30
0.0
 11
-348.8791659826444
 21
-28.11428673457073
 31
0.0
  0
LINE
  5
FD
330
1F
100
AcDbEntity
  8
A-0_通り芯
  6
Continuous
 62
     3
370
     9
100
AcDbLine
 10
-348.8791659826444
 20
-28.11428673457073
 30
0.0
 11
-258.879215470609
 21
-28.11428673457073
 31
0.0
  0
LINE
  5
FE
330
1F
100
AcDbEntity
  8
A-0_通り芯
  6
Continuous
 62
     3
370
     9
100
AcDbLine
 10
-476.3793144465379
 20
39.76083203654417
 30
0.0
 11
-474.8861635808285
 21
39.76083203654417
 31
0.0
  0
LINE
  5
FF
330
1F
100
AcDbEntity
  8
A-0_通り芯
  6
Continuous
 62
     3
370
     9
100
AcDbLine
 10
-477.8792946513521
 20
123.7607627533939
 30
0.0
 11
-477.8792946513521
 21
138.2608353357418
 31
0.0
  0
LINE
  5
100
330
1F
100
AcDbEntity
  8
A-0_通り芯
  6
Continuous
 62
     3
370
     9
100
AcDbLine
 10
-458.4339887497474
 20
-198.8571175781096
 30
0.0
 11
-457.8792286673994
 21
-199.6892577016316
 31
0.0
  0
LINE
  5
101
330
1F
100
AcDbEntity
  8
A-0_通り芯
  6
Continuous
 62
     3
370
     9
100
AcDbLine
 10
-472.0764843948065
 20
-198.1892280088528
 30
0.0
 11
-459.682075215119
 21
-198.1892280088528
 31
0.0
  0
LINE
  5
102
330
1F
100
AcDbEntity
  8
A-0_通り芯
  6
Continuous
 62
     3
370
     9
100
AcDbLine
 10
-473.3245213722136
 20
-198.8571175781096
 30
0.0
 11
-473.8792319665971
 21
-199.6892577016316
 31
0.0
  0
LINE
  5
103
330
1F
100
AcDbEntity
  8
A-0_通り芯
  6
Continuous
 62
     3
370
     9
100
AcDbLine
 10
-436.8339768726358
 20
-198.8571175781096
 30
0.0
 11
-436.2792662782525
 21
-199.6892577016316
 31
0.0
  0
LINE
  5
104
330
1F
100
AcDbEntity
  8
A-0_通り芯
  6
Continuous
 62
     3
370
     9
100
AcDbLine
 10
-450.4764230297304
 20
-198.1892280088528
 30
0.0
 11
-438.0820633380075
 21
-198.1892280088528
 31
0.0
  0
LINE
  5
105
330
1F
100
AcDbEntity
  8
A-0_通り芯
  6
Continuous
 62
     3
370
     9
100
AcDbLine
 10
-451.7245094951021
 20
-198.8571175781096
 30
0.0
 11
-452.2792695774501
 21
-199.6892577016316
 31
0.0
  0
LINE
  5
106
330
1F
100
AcDbEntity
  8
A-0_通り芯
  6
Continuous
 62
     3
370
     9
100
AcDbLine
 10
-415.234014483489
 20
-198.8571175781096
 30
0.0
 11
-414.6793038891054
 21
-199.6892577016316
 31
0.0
  0
LINE
  5
107
330
1F
100
AcDbEntity
  8
A-0_通り芯
  6
Continuous
 62
     3
370
     9
100
AcDbLine
 10
-428.8764606405836
 20
-198.1892280088528
 30
0.0
 11
-416.4820514608961
 21
-198.1892280088528
 31
0.0
  0
LINE
  5
108
330
1F
100
AcDbEntity
  8
A-0_通り芯
  6
Continuous
 62
     3
370
     9
100
AcDbLine
 10
-430.1245471059552
 20
-198.8571175781096
 30
0.0
 11
-430.6792577003386
 21
-199.6892577016316
 31
0.0
  0
LINE
  5
109
330
1F
100
AcDbEntity
  8
A-0_通り芯
  6
Continuous
 62
     3
370
     9
100
AcDbLine
 10
-393.6339531184129
 20
-198.8571175781096
 30
0.0
 11
-393.079292011994
 21
-199.6892577016316
 31
0.0
  0
LINE
  5
10A
330
1F
100
AcDbEntity
  8
A-0_通り芯
  6
Continuous
 62
     3
370
     9
100
AcDbLine
 10
-407.2764487634721
 20
-198.1892280088528
 30
0.0
 11
-394.8820395837846
 21
-198.1892280088528
 31
0.0
  0
LINE
  5
10B
330
1F
100
AcDbEntity
  8
A-0_通り芯
  6
Continuous
 62
     3
370
     9
100
AcDbLine
 10
-408.5244857408792
 20
-198.8571175781096
 30
0.0
 11
-409.0792458232271
 21
-199.6892577016316
 31
0.0
  0
LINE
  5
10C
330
1F
100
AcDbEntity
  8
A-0_通り芯
  6
Continuous
 62
     3
370
     9
100
AcDbLine
 10
-372.0339907292661
 20
-198.8571175781096
 30
0.0
 11
-371.4792306469179
 21
-199.6892577016316
 31
0.0
  0
LINE
  5
10D
330
1F
100
AcDbEntity
  8
A-0_通り芯
  6
Continuous
 62
     3
370
     9
100
AcDbLine
 10
-385.6764368863606
 20
-198.1892280088528
 30
0.0
 11
-373.2820277066731
 21
-198.1892280088528
 31
0.0
  0
LINE
  5
10E
330
1F
100
AcDbEntity
  8
A-0_通り芯
  6
Continuous
 62
     3
370
     9
100
AcDbLine
 10
-386.9245233517322
 20
-198.8571175781096
 30
0.0
 11
-387.4792339461156
 21
-199.6892577016316
 31
0.0
  0
LINE
  5
10F
330
1F
100
AcDbEntity
  8
A-0_通り芯
  6
Continuous
 62
     3
370
     9
100
AcDbLine
 10
-350.43392936419
 20
-198.8571175781096
 30
0.0
 11
-349.8792682577711
 21
-199.6892577016316
 31
0.0
  0
LINE
  5
110
330
1F
100
AcDbEntity
  8
A-0_通り芯
  6
Continuous
 62
     3
370
     9
100
AcDbLine
 10
-364.0764250092492
 20
-198.1892280088528
 30
0.0
 11
-351.6820653175261
 21
-198.1892280088528
 31
0.0
  0
LINE
  5
111
330
1F
100
AcDbEntity
  8
A-0_通り芯
  6
Continuous
 62
     3
370
     9
100
AcDbLine
 10
-365.3245114746206
 20
-198.8571175781096
 30
0.0
 11
-365.8791725810396
 21
-199.6892577016316
 31
0.0
  0
LINE
  5
112
330
1F
100
AcDbEntity
  8
A-0_通り芯
  6
Continuous
 62
     3
370
     9
100
AcDbLine
 10
-328.8339174870786
 20
-198.8571175781096
 30
0.0
 11
-328.279305868624
 21
-199.6892577016316
 31
0.0
  0
LINE
  5
113
330
1F
100
AcDbEntity
  8
A-0_通り芯
  6
Continuous
 62
     3
370
     9
100
AcDbLine
 10
-342.4764131321375
 20
-198.1892280088528
 30
0.0
 11
-330.08200395245
 21
-198.1892280088528
 31
0.0
  0
LINE
  5
114
330
1F
100
AcDbEntity
  8
A-0_通り芯
  6
Continuous
 62
     3
370
     9
100
AcDbLine
 10
-343.7244995975092
 20
-198.8571175781096
 30
0.0
 11
-344.2792596798571
 21
-199.6892577016316
 31
0.0
  0
LINE
  5
115
330
1F
100
AcDbEntity
  8
A-0_通り芯
  6
Continuous
 62
     3
370
     9
100
AcDbLine
 10
-307.2339550979315
 20
-198.8571175781096
 30
0.0
 11
-306.6791950155836
 21
-199.6892577016316
 31
0.0
  0
LINE
  5
116
330
1F
100
AcDbEntity
  8
A-0_通り芯
  6
Continuous
 62
     3
370
     9
100
AcDbLine
 10
-320.8764012550261
 20
-198.1892280088528
 30
0.0
 11
-308.4820415633031
 21
-198.1892280088528
 31
0.0
  0
LINE
  5
117
330
1F
100
AcDbEntity
  8
A-0_通り芯
  6
Continuous
 62
     3
370
     9
100
AcDbLine
 10
-322.1244877203977
 20
-198.8571175781096
 30
0.0
 11
-322.6792478027456
 21
-199.6892577016316
 31
0.0
  0
LINE
  5
118
330
1F
100
AcDbEntity
  8
A-0_通り芯
  6
Continuous
 62
     3
370
     9
100
AcDbLine
 10
-459.6035378154146
 20
-206.4047249999846
 30
0.0
 11
-462.7192505740717
 21
-221.9833382812346
 31
0.0
  0
LINE
  5
119
330
1F
100
AcDbEntity
  8
A-0_通り芯
  6
Continuous
 62
     3
370
     9
100
AcDbLine
 10
-453.1270478977626
 20
-208.189063048971
 30
0.0
 11
-428.1734346165126
 21
-229.5781077333039
 31
0.0
  0
LINE
  5
11A
330
1F
100
AcDbEntity
  8
A-0_通り芯
  6
Continuous
 62
     3
370
     9
100
AcDbLine
 10
-129.8791362898656
 20
-26.73926364018729
 30
0.0
 11
-129.8791362898656
 21
-41.48920095543218
 31
0.0
  0
LINE
  5
11B
330
1F
100
AcDbEntity
  8
A-0_通り芯
  6
Continuous
 62
     3
370
     9
100
AcDbLine
 10
-128.8791824786325
 20
-42.4893032305589
 30
0.0
 11
-128.8791824786325
 21
304.5108023437654
 31
0.0
  0
LINE
  5
11C
330
1F
100
AcDbEntity
  8
A-0_通り芯
  6
Continuous
 62
     3
370
     9
100
AcDbLine
 10
-129.8791362898656
 20
-13.73927023858249
 30
0.0
 11
-129.8791362898656
 21
0.7607033678363564
 31
0.0
  0
LINE
  5
11D
330
1F
100
AcDbEntity
  8
A-0_通り芯
  6
Continuous
 62
     3
370
     9
100
AcDbLine
 10
-129.8791362898656
 20
13.76084523333469
 30
0.0
 11
-129.8791362898656
 21
28.26067037586
 31
0.0
  0
LINE
  5
11E
330
1F
100
AcDbEntity
  8
A-0_通り芯
  6
Continuous
 62
     3
370
     9
100
AcDbLine
 10
-129.8791362898656
 20
41.26081224135834
 30
0.0
 11
-129.8791362898656
 21
55.7607858477773
 31
0.0
  0
LINE
  5
11F
330
1F
100
AcDbEntity
  8
A-0_通り芯
  6
Continuous
 62
     3
370
     9
100
AcDbLine
 10
-129.8791362898656
 20
68.76077924938198
 30
0.0
 11
-129.8791362898656
 21
83.26075285580094
 31
0.0
  0
LINE
  5
120
330
1F
100
AcDbEntity
  8
A-0_通り芯
  6
Continuous
 62
     3
370
     9
100
AcDbLine
 10
-129.8791362898656
 20
96.26074625740563
 30
0.0
 11
-129.8791362898656
 21
110.7607198638246
 31
0.0
  0
LINE
  5
121
330
1F
100
AcDbEntity
  8
A-0_通り芯
  6
Continuous
 62
     3
370
     9
100
AcDbLine
 10
-148.8791494866563
 20
-24.23918116024635
 30
0.0
 11
-148.8791494866563
 21
-16.23920425462978
 31
0.0
  0
LINE
  5
122
330
1F
100
AcDbEntity
  8
A-0_通り芯
  6
Continuous
 62
     3
370
     9
100
AcDbLine
 10
-264.4791250725938
 20
-24.23918116024635
 30
0.0
 11
-264.4791250725938
 21
-16.23920425462978
 31
0.0
  0
LINE
  5
123
330
1F
100
AcDbEntity
  8
A-0_通り芯
  6
Continuous
 62
     3
370
     9
100
AcDbLine
 10
-244.4792075525346
 20
-24.23918116024635
 30
0.0
 11
-244.4792075525346
 21
-16.23920425462978
 31
0.0
  0
LINE
  5
124
330
1F
100
AcDbEntity
  8
A-0_通り芯
  6
Continuous
 62
     3
370
     9
100
AcDbLine
 10
-148.8791494866563
 20
3.260785847777299
 30
0.0
 11
-148.8791494866563
 21
11.26076275339386
 31
0.0
  0
LINE
  5
125
330
1F
100
AcDbEntity
  8
A-0_通り芯
  6
Continuous
 62
     3
370
     9
100
AcDbLine
 10
-264.4791250725938
 20
3.260785847777299
 30
0.0
 11
-264.4791250725938
 21
11.26076275339386
 31
0.0
  0
LINE
  5
126
330
1F
100
AcDbEntity
  8
A-0_通り芯
  6
Continuous
 62
     3
370
     9
100
AcDbLine
 10
-244.4792075525346
 20
3.260785847777299
 30
0.0
 11
-244.4792075525346
 21
11.26076275339386
 31
0.0
  0
LINE
  5
127
330
1F
100
AcDbEntity
  8
A-0_通り芯
  6
Continuous
 62
     3
370
     9
100
AcDbLine
 10
-148.8791494866563
 20
30.76075285580094
 30
0.0
 11
-148.8791494866563
 21
38.76072976141751
 31
0.0
  0
LINE
  5
128
330
1F
100
AcDbEntity
  8
A-0_通り芯
  6
Continuous
 62
     3
370
     9
100
AcDbLine
 10
-264.4791250725938
 20
30.76075285580094
 30
0.0
 11
-264.4791250725938
 21
38.76072976141751
 31
0.0
  0
LINE
  5
129
330
1F
100
AcDbEntity
  8
A-0_通り芯
  6
Continuous
 62
     3
370
     9
100
AcDbLine
 10
-244.4792075525346
 20
30.76075285580094
 30
0.0
 11
-244.4792075525346
 21
38.76072976141751
 31
0.0
  0
LINE
  5
12A
330
1F
100
AcDbEntity
  8
A-0_通り芯
  6
Continuous
 62
     3
370
     9
100
AcDbLine
 10
-148.8791494866563
 20
58.26076935178907
 30
0.0
 11
-148.8791494866563
 21
66.26074625740563
 31
0.0
  0
LINE
  5
12B
330
1F
100
AcDbEntity
  8
A-0_通り芯
  6
Continuous
 62
     3
370
     9
100
AcDbLine
 10
-264.4791250725938
 20
58.26076935178907
 30
0.0
 11
-264.4791250725938
 21
66.26074625740563
 31
0.0
  0
LINE
  5
12C
330
1F
100
AcDbEntity
  8
A-0_通り芯
  6
Continuous
 62
     3
370
     9
100
AcDbLine
 10
-244.4792075525346
 20
58.26076935178907
 30
0.0
 11
-244.4792075525346
 21
66.26074625740563
 31
0.0
  0
LINE
  5
12D
330
1F
100
AcDbEntity
  8
A-0_通り芯
  6
Continuous
 62
     3
370
     9
100
AcDbLine
 10
-148.8791494866563
 20
85.76073635981271
 30
0.0
 11
-148.8791494866563
 21
93.76071326542927
 31
0.0
  0
LINE
  5
12E
330
1F
100
AcDbEntity
  8
A-0_通り芯
  6
Continuous
 62
     3
370
     9
100
AcDbLine
 10
-264.4791250725938
 20
85.76073635981271
 30
0.0
 11
-264.4791250725938
 21
93.76071326542927
 31
0.0
  0
LINE
  5
12F
330
1F
100
AcDbEntity
  8
A-0_通り芯
  6
Continuous
 62
     3
370
     9
100
AcDbLine
 10
-244.4792075525346
 20
85.76073635981271
 30
0.0
 11
-244.4792075525346
 21
93.76071326542927
 31
0.0
  0
LINE
  5
130
330
1F
100
AcDbEntity
  8
A-0_通り芯
  6
Continuous
 62
     3
370
     9
100
AcDbLine
 10
-148.8791494866563
 20
113.26085183173
 30
0.0
 11
-148.8791494866563
 21
121.2607297614175
 31
0.0
  0
LINE
  5
131
330
1F
100
AcDbEntity
  8
A-0_通り芯
  6
Continuous
 62
     3
370
     9
100
AcDbLine
 10
-264.4791250725938
 20
113.26085183173
 30
0.0
 11
-264.4791250725938
 21
121.2607297614175
 31
0.0
  0
LINE
  5
132
330
1F
100
AcDbEntity
  8
A-0_通り芯
  6
Continuous
 62
     3
370
     9
100
AcDbLine
 10
-244.4792075525346
 20
113.26085183173
 30
0.0
 11
-244.4792075525346
 21
121.2607297614175
 31
0.0
  0
LINE
  5
133
330
1F
100
AcDbEntity
  8
A-0_通り芯
  6
Continuous
 62
     3
370
     9
100
AcDbLine
 10
-257.8791626834467
 20
-41.11428013617547
 30
0.0
 11
-257.8791626834467
 21
-27.11423394740854
 31
0.0
  0
LINE
  5
134
330
1F
100
AcDbEntity
  8
A-0_通り芯
  6
Continuous
 62
     3
370
     9
100
AcDbLine
 10
-258.879215470609
 20
-40.11422734901328
 30
0.0
 11
-258.879215470609
 21
-28.11428673457073
 31
0.0
  0
LINE
  5
135
330
1F
100
AcDbEntity
  8
A-0_通り芯
  6
Continuous
 62
     3
370
     9
100
AcDbLine
 10
-131.3791164946798
 20
39.76083203654417
 30
0.0
 11
-132.8722673603892
 21
39.76083203654417
 31
0.0
  0
LINE
  5
136
330
1F
100
AcDbEntity
  8
A-0_通り芯
  6
Continuous
 62
     3
370
     9
100
AcDbLine
 10
-129.8791362898656
 20
123.7607627533939
 30
0.0
 11
-129.8791362898656
 21
138.2608353357418
 31
0.0
  0
LINE
  5
137
330
1F
100
AcDbEntity
  8
A-0_通り芯
  6
Continuous
 62
     3
370
     9
100
AcDbLine
 10
-477.8792946513521
 20
288.7607627533939
 30
0.0
 11
-477.8792946513521
 21
303.5107495566033
 31
0.0
  0
LINE
  5
138
330
1F
100
AcDbEntity
  8
A-0_通り芯
  6
Continuous
 62
     3
370
     9
100
AcDbLine
 10
-477.8792946513521
 20
275.7607693517891
 30
0.0
 11
-477.8792946513521
 21
261.2606967694412
 31
0.0
  0
LINE
  5
139
330
1F
100
AcDbEntity
  8
A-0_通り芯
  6
Continuous
 62
     3
370
     9
100
AcDbLine
 10
-477.8792946513521
 20
248.2607033678364
 30
0.0
 11
-477.8792946513521
 21
233.7608287373466
 31
0.0
  0
LINE
  5
13A
330
1F
100
AcDbEntity
  8
A-0_通り芯
  6
Continuous
 62
     3
370
     9
100
AcDbLine
 10
-477.8792946513521
 20
220.7608353357418
 30
0.0
 11
-477.8792946513521
 21
206.2607627533939
 31
0.0
  0
LINE
  5
13B
330
1F
100
AcDbEntity
  8
A-0_通り芯
  6
Continuous
 62
     3
370
     9
100
AcDbLine
 10
-477.8792946513521
 20
193.2607693517891
 30
0.0
 11
-477.8792946513521
 21
178.7607957453702
 31
0.0
  0
LINE
  5
13C
330
1F
100
AcDbEntity
  8
A-0_通り芯
  6
Continuous
 62
     3
370
     9
100
AcDbLine
 10
-477.8792946513521
 20
165.7608023437654
 30
0.0
 11
-477.8792946513521
 21
151.2608287373466
 31
0.0
  0
LINE
  5
13D
330
1F
100
AcDbEntity
  8
A-0_通り芯
  6
Continuous
 62
     3
370
     9
100
AcDbLine
 10
-458.8792319665971
 20
286.2608287373466
 30
0.0
 11
-458.8792319665971
 21
278.2608023437654
 31
0.0
  0
LINE
  5
13E
330
1F
100
AcDbEntity
  8
A-0_通り芯
  6
Continuous
 62
     3
370
     9
100
AcDbLine
 10
-343.2792563806596
 20
286.2608287373466
 30
0.0
 11
-343.2792563806596
 21
278.2608023437654
 31
0.0
  0
LINE
  5
13F
330
1F
100
AcDbEntity
  8
A-0_通り芯
  6
Continuous
 62
     3
370
     9
100
AcDbLine
 10
-363.2791739007188
 20
286.2608287373466
 30
0.0
 11
-363.2791739007188
 21
278.2608023437654
 31
0.0
  0
LINE
  5
140
330
1F
100
AcDbEntity
  8
A-0_通り芯
  6
Continuous
 62
     3
370
     9
100
AcDbLine
 10
-458.8792319665971
 20
258.7608617293229
 30
0.0
 11
-458.8792319665971
 21
250.7608353357418
 31
0.0
  0
LINE
  5
141
330
1F
100
AcDbEntity
  8
A-0_通り芯
  6
Continuous
 62
     3
370
     9
100
AcDbLine
 10
-343.2792563806596
 20
258.7608617293229
 30
0.0
 11
-343.2792563806596
 21
250.7608353357418
 31
0.0
  0
LINE
  5
142
330
1F
100
AcDbEntity
  8
A-0_通り芯
  6
Continuous
 62
     3
370
     9
100
AcDbLine
 10
-363.2791739007188
 20
258.7608617293229
 30
0.0
 11
-363.2791739007188
 21
250.7608353357418
 31
0.0
  0
LINE
  5
143
330
1F
100
AcDbEntity
  8
A-0_通り芯
  6
Continuous
 62
     3
370
     9
100
AcDbLine
 10
-458.8792319665971
 20
231.2607957453702
 30
0.0
 11
-458.8792319665971
 21
223.26067037586
 31
0.0
  0
LINE
  5
144
330
1F
100
AcDbEntity
  8
A-0_通り芯
  6
Continuous
 62
     3
370
     9
100
AcDbLine
 10
-343.2792563806596
 20
231.2607957453702
 30
0.0
 11
-343.2792563806596
 21
223.26067037586
 31
0.0
  0
LINE
  5
145
330
1F
100
AcDbEntity
  8
A-0_通り芯
  6
Continuous
 62
     3
370
     9
100
AcDbLine
 10
-363.2791739007188
 20
231.2607957453702
 30
0.0
 11
-363.2791739007188
 21
223.26067037586
 31
0.0
  0
LINE
  5
146
330
1F
100
AcDbEntity
  8
A-0_通り芯
  6
Continuous
 62
     3
370
     9
100
AcDbLine
 10
-458.8792319665971
 20
203.7607297614175
 30
0.0
 11
-458.8792319665971
 21
195.7607033678364
 31
0.0
  0
LINE
  5
147
330
1F
100
AcDbEntity
  8
A-0_通り芯
  6
Continuous
 62
     3
370
     9
100
AcDbLine
 10
-343.2792563806596
 20
203.7607297614175
 30
0.0
 11
-343.2792563806596
 21
195.7607033678364
 31
0.0
  0
LINE
  5
148
330
1F
100
AcDbEntity
  8
A-0_通り芯
  6
Continuous
 62
     3
370
     9
100
AcDbLine
 10
-363.2791739007188
 20
203.7607297614175
 30
0.0
 11
-363.2791739007188
 21
195.7607033678364
 31
0.0
  0
LINE
  5
149
330
1F
100
AcDbEntity
  8
A-0_通り芯
  6
Continuous
 62
     3
370
     9
100
AcDbLine
 10
-458.8792319665971
 20
176.2607627533939
 30
0.0
 11
-458.8792319665971
 21
168.2607363598127
 31
0.0
  0
LINE
  5
14A
330
1F
100
AcDbEntity
  8
A-0_通り芯
  6
Continuous
 62
     3
370
     9
100
AcDbLine
 10
-343.2792563806596
 20
176.2607627533939
 30
0.0
 11
-343.2792563806596
 21
168.2607363598127
 31
0.0
  0
LINE
  5
14B
330
1F
100
AcDbEntity
  8
A-0_通り芯
  6
Continuous
 62
     3
370
     9
100
AcDbLine
 10
-363.2791739007188
 20
176.2607627533939
 30
0.0
 11
-363.2791739007188
 21
168.2607363598127
 31
0.0
  0
LINE
  5
14C
330
1F
100
AcDbEntity
  8
A-0_通り芯
  6
Continuous
 62
     3
370
     9
100
AcDbLine
 10
-458.8792319665971
 20
148.7606967694412
 30
0.0
 11
-458.8792319665971
 21
140.7607693517891
 31
0.0
  0
LINE
  5
14D
330
1F
100
AcDbEntity
  8
A-0_通り芯
  6
Continuous
 62
     3
370
     9
100
AcDbLine
 10
-343.2792563806596
 20
148.7606967694412
 30
0.0
 11
-343.2792563806596
 21
140.7607693517891
 31
0.0
  0
LINE
  5
14E
330
1F
100
AcDbEntity
  8
A-0_通り芯
  6
Continuous
 62
     3
370
     9
100
AcDbLine
 10
-363.2791739007188
 20
148.7606967694412
 30
0.0
 11
-363.2791739007188
 21
140.7607693517891
 31
0.0
  0
LINE
  5
14F
330
1F
100
AcDbEntity
  8
A-0_通り芯
  6
Continuous
 62
     3
370
     9
100
AcDbLine
 10
-476.3793144465379
 20
139.7608155405559
 30
0.0
 11
-131.3791164946798
 21
139.7608155405559
 31
0.0
  0
LINE
  5
150
330
1F
100
AcDbEntity
  8
A-0_通り芯
  6
Continuous
 62
     3
370
     9
100
AcDbLine
 10
-477.3792682577711
 20
140.7607693517891
 30
0.0
 11
-130.3791626834467
 21
140.7607693517891
 31
0.0
  0
LINE
  5
151
330
1F
100
AcDbEntity
  8
A-0_通り芯
  6
Continuous
 62
     3
370
     9
100
AcDbLine
 10
-476.3793144465379
 20
167.2607825485796
 30
0.0
 11
-131.3791164946798
 21
167.2607825485796
 31
0.0
  0
LINE
  5
152
330
1F
100
AcDbEntity
  8
A-0_通り芯
  6
Continuous
 62
     3
370
     9
100
AcDbLine
 10
-477.3792682577711
 20
168.2607363598127
 30
0.0
 11
-130.3791626834467
 21
168.2607363598127
 31
0.0
  0
LINE
  5
153
330
1F
100
AcDbEntity
  8
A-0_通り芯
  6
Continuous
 62
     3
370
     9
100
AcDbLine
 10
-476.3793144465379
 20
149.7608485325323
 30
0.0
 11
-131.3791164946798
 21
149.7608485325323
 31
0.0
  0
LINE
  5
154
330
1F
100
AcDbEntity
  8
A-0_通り芯
  6
Continuous
 62
     3
370
     9
100
AcDbLine
 10
-477.3792682577711
 20
148.7606967694412
 30
0.0
 11
-130.3791626834467
 21
148.7606967694412
 31
0.0
  0
LINE
  5
155
330
1F
100
AcDbEntity
  8
A-0_通り芯
  6
Continuous
 62
     3
370
     9
100
AcDbLine
 10
-476.3793144465379
 20
194.7607495566032
 30
0.0
 11
-131.3791164946798
 21
194.7607495566032
 31
0.0
  0
LINE
  5
156
330
1F
100
AcDbEntity
  8
A-0_通り芯
  6
Continuous
 62
     3
370
     9
100
AcDbLine
 10
-477.3792682577711
 20
195.7607033678364
 30
0.0
 11
-130.3791626834467
 21
195.7607033678364
 31
0.0
  0
LINE
  5
157
330
1F
100
AcDbEntity
  8
A-0_通り芯
  6
Continuous
 62
     3
370
     9
100
AcDbLine
 10
-476.3793144465379
 20
177.2608155405559
 30
0.0
 11
-131.3791164946798
 21
177.2608155405559
 31
0.0
  0
LINE
  5
158
330
1F
100
AcDbEntity
  8
A-0_通り芯
  6
Continuous
 62
     3
370
     9
100
AcDbLine
 10
-477.3792682577711
 20
176.2607627533939
 30
0.0
 11
-130.3791626834467
 21
176.2607627533939
 31
0.0
  0
LINE
  5
159
330
1F
100
AcDbEntity
  8
A-0_通り芯
  6
Continuous
 62
     3
370
     9
100
AcDbLine
 10
-477.3792682577711
 20
223.26067037586
 30
0.0
 11
-130.3791626834467
 21
223.26067037586
 31
0.0
  0
LINE
  5
15A
330
1F
100
AcDbEntity
  8
A-0_通り芯
  6
Continuous
 62
     3
370
     9
100
AcDbLine
 10
-476.3793144465379
 20
204.7607825485796
 30
0.0
 11
-131.3791164946798
 21
204.7607825485796
 31
0.0
  0
LINE
  5
15B
330
1F
100
AcDbEntity
  8
A-0_通り芯
  6
Continuous
 62
     3
370
     9
100
AcDbLine
 10
-477.3792682577711
 20
203.7607297614175
 30
0.0
 11
-130.3791626834467
 21
203.7607297614175
 31
0.0
  0
LINE
  5
15C
330
1F
100
AcDbEntity
  8
A-0_通り芯
  6
Continuous
 62
     3
370
     9
100
AcDbLine
 10
-476.3793144465379
 20
249.7607825485796
 30
0.0
 11
-131.3791164946798
 21
249.7607825485796
 31
0.0
  0
LINE
  5
15D
330
1F
100
AcDbEntity
  8
A-0_通り芯
  6
Continuous
 62
     3
370
     9
100
AcDbLine
 10
-477.3792682577711
 20
250.7608353357418
 30
0.0
 11
-130.3791626834467
 21
250.7608353357418
 31
0.0
  0
LINE
  5
15E
330
1F
100
AcDbEntity
  8
A-0_通り芯
  6
Continuous
 62
     3
370
     9
100
AcDbLine
 10
-476.3793144465379
 20
232.2607495566032
 30
0.0
 11
-131.3791164946798
 21
232.2607495566032
 31
0.0
  0
LINE
  5
15F
330
1F
100
AcDbEntity
  8
A-0_通り芯
  6
Continuous
 62
     3
370
     9
100
AcDbLine
 10
-477.3792682577711
 20
231.2607957453702
 30
0.0
 11
-130.3791626834467
 21
231.2607957453702
 31
0.0
  0
LINE
  5
160
330
1F
100
AcDbEntity
  8
A-0_通り芯
  6
Continuous
 62
     3
370
     9
100
AcDbLine
 10
-476.3793144465379
 20
277.2608485325323
 30
0.0
 11
-131.3791164946798
 21
277.2608485325323
 31
0.0
  0
LINE
  5
161
330
1F
100
AcDbEntity
  8
A-0_通り芯
  6
Continuous
 62
     3
370
     9
100
AcDbLine
 10
-476.3793144465379
 20
259.7608155405559
 30
0.0
 11
-131.3791164946798
 21
259.7608155405559
 31
0.0
  0
LINE
  5
162
330
1F
100
AcDbEntity
  8
A-0_通り芯
  6
Continuous
 62
     3
370
     9
100
AcDbLine
 10
-477.3792682577711
 20
258.7608617293229
 30
0.0
 11
-130.3791626834467
 21
258.7608617293229
 31
0.0
  0
LINE
  5
163
330
1F
100
AcDbEntity
  8
A-0_通り芯
  6
Continuous
 62
     3
370
     9
100
AcDbLine
 10
-476.3793144465379
 20
287.2607825485796
 30
0.0
 11
-131.3791164946798
 21
287.2607825485796
 31
0.0
  0
LINE
  5
164
330
1F
100
AcDbEntity
  8
A-0_通り芯
  6
Continuous
 62
     3
370
     9
100
AcDbLine
 10
-477.3792682577711
 20
306.0107825485796
 30
0.0
 11
-130.3791626834467
 21
306.0107825485796
 31
0.0
  0
LINE
  5
165
330
1F
100
AcDbEntity
  8
A-0_通り芯
  6
Continuous
 62
     3
370
     9
100
AcDbLine
 10
-476.3793144465379
 20
305.0108287373466
 30
0.0
 11
-131.3791164946798
 21
305.0108287373466
 31
0.0
  0
LINE
  5
166
330
1F
100
AcDbEntity
  8
A-0_通り芯
  6
Continuous
 62
     3
370
     9
100
AcDbLine
 10
-476.3793144465379
 20
222.260716564627
 30
0.0
 11
-474.8861635808285
 21
222.260716564627
 31
0.0
  0
LINE
  5
167
330
1F
100
AcDbEntity
  8
A-0_通り芯
  6
Continuous
 62
     3
370
     9
100
AcDbLine
 10
-129.8791362898656
 20
288.7607627533939
 30
0.0
 11
-129.8791362898656
 21
303.5107495566033
 31
0.0
  0
LINE
  5
168
330
1F
100
AcDbEntity
  8
A-0_通り芯
  6
Continuous
 62
     3
370
     9
100
AcDbLine
 10
-129.8791362898656
 20
275.7607693517891
 30
0.0
 11
-129.8791362898656
 21
261.2606967694412
 31
0.0
  0
LINE
  5
169
330
1F
100
AcDbEntity
  8
A-0_通り芯
  6
Continuous
 62
     3
370
     9
100
AcDbLine
 10
-129.8791362898656
 20
248.2607033678364
 30
0.0
 11
-129.8791362898656
 21
233.7608287373466
 31
0.0
  0
LINE
  5
16A
330
1F
100
AcDbEntity
  8
A-0_通り芯
  6
Continuous
 62
     3
370
     9
100
AcDbLine
 10
-129.8791362898656
 20
220.7608353357418
 30
0.0
 11
-129.8791362898656
 21
206.2607627533939
 31
0.0
  0
LINE
  5
16B
330
1F
100
AcDbEntity
  8
A-0_通り芯
  6
Continuous
 62
     3
370
     9
100
AcDbLine
 10
-129.8791362898656
 20
193.2607693517891
 30
0.0
 11
-129.8791362898656
 21
178.7607957453702
 31
0.0
  0
LINE
  5
16C
330
1F
100
AcDbEntity
  8
A-0_通り芯
  6
Continuous
 62
     3
370
     9
100
AcDbLine
 10
-129.8791362898656
 20
165.7608023437654
 30
0.0
 11
-129.8791362898656
 21
151.2608287373466
 31
0.0
  0
LINE
  5
16D
330
1F
100
AcDbEntity
  8
A-0_通り芯
  6
Continuous
 62
     3
370
     9
100
AcDbLine
 10
-148.8791494866563
 20
286.2608287373466
 30
0.0
 11
-148.8791494866563
 21
278.2608023437654
 31
0.0
  0
LINE
  5
16E
330
1F
100
AcDbEntity
  8
A-0_通り芯
  6
Continuous
 62
     3
370
     9
100
AcDbLine
 10
-264.4791250725938
 20
286.2608287373466
 30
0.0
 11
-264.4791250725938
 21
278.2608023437654
 31
0.0
  0
LINE
  5
16F
330
1F
100
AcDbEntity
  8
A-0_通り芯
  6
Continuous
 62
     3
370
     9
100
AcDbLine
 10
-244.4792075525346
 20
286.2608287373466
 30
0.0
 11
-244.4792075525346
 21
278.2608023437654
 31
0.0
  0
LINE
  5
170
330
1F
100
AcDbEntity
  8
A-0_通り芯
  6
Continuous
 62
     3
370
     9
100
AcDbLine
 10
-148.8791494866563
 20
258.7608617293229
 30
0.0
 11
-148.8791494866563
 21
250.7608353357418
 31
0.0
  0
LINE
  5
171
330
1F
100
AcDbEntity
  8
A-0_通り芯
  6
Continuous
 62
     3
370
     9
100
AcDbLine
 10
-264.4791250725938
 20
258.7608617293229
 30
0.0
 11
-264.4791250725938
 21
250.7608353357418
 31
0.0
  0
LINE
  5
172
330
1F
100
AcDbEntity
  8
A-0_通り芯
  6
Continuous
 62
     3
370
     9
100
AcDbLine
 10
-244.4792075525346
 20
258.7608617293229
 30
0.0
 11
-244.4792075525346
 21
250.7608353357418
 31
0.0
  0
LINE
  5
173
330
1F
100
AcDbEntity
  8
A-0_通り芯
  6
Continuous
 62
     3
370
     9
100
AcDbLine
 10
-148.8791494866563
 20
231.2607957453702
 30
0.0
 11
-148.8791494866563
 21
223.26067037586
 31
0.0
  0
LINE
  5
174
330
1F
100
AcDbEntity
  8
A-0_通り芯
  6
Continuous
 62
     3
370
     9
100
AcDbLine
 10
-264.4791250725938
 20
231.2607957453702
 30
0.0
 11
-264.4791250725938
 21
223.26067037586
 31
0.0
  0
LINE
  5
175
330
1F
100
AcDbEntity
  8
A-0_通り芯
  6
Continuous
 62
     3
370
     9
100
AcDbLine
 10
-244.4792075525346
 20
231.2607957453702
 30
0.0
 11
-244.4792075525346
 21
223.26067037586
 31
0.0
  0
LINE
  5
176
330
1F
100
AcDbEntity
  8
A-0_通り芯
  6
Continuous
 62
     3
370
     9
100
AcDbLine
 10
-148.8791494866563
 20
203.7607297614175
 30
0.0
 11
-148.8791494866563
 21
195.7607033678364
 31
0.0
  0
LINE
  5
177
330
1F
100
AcDbEntity
  8
A-0_通り芯
  6
Continuous
 62
     3
370
     9
100
AcDbLine
 10
-264.4791250725938
 20
203.7607297614175
 30
0.0
 11
-264.4791250725938
 21
195.7607033678364
 31
0.0
  0
LINE
  5
178
330
1F
100
AcDbEntity
  8
A-0_通り芯
  6
Continuous
 62
     3
370
     9
100
AcDbLine
 10
-244.4792075525346
 20
203.7607297614175
 30
0.0
 11
-244.4792075525346
 21
195.7607033678364
 31
0.0
  0
LINE
  5
179
330
1F
100
AcDbEntity
  8
A-0_通り芯
  6
Continuous
 62
     3
370
     9
100
AcDbLine
 10
-148.8791494866563
 20
176.2607627533939
 30
0.0
 11
-148.8791494866563
 21
168.2607363598127
 31
0.0
  0
LINE
  5
17A
330
1F
100
AcDbEntity
  8
A-0_通り芯
  6
Continuous
 62
     3
370
     9
100
AcDbLine
 10
-264.4791250725938
 20
176.2607627533939
 30
0.0
 11
-264.4791250725938
 21
168.2607363598127
 31
0.0
  0
LINE
  5
17B
330
1F
100
AcDbEntity
  8
A-0_通り芯
  6
Continuous
 62
     3
370
     9
100
AcDbLine
 10
-244.4792075525346
 20
176.2607627533939
 30
0.0
 11
-244.4792075525346
 21
168.2607363598127
 31
0.0
  0
LINE
  5
17C
330
1F
100
AcDbEntity
  8
A-0_通り芯
  6
Continuous
 62
     3
370
     9
100
AcDbLine
 10
-148.8791494866563
 20
148.7606967694412
 30
0.0
 11
-148.8791494866563
 21
140.7607693517891
 31
0.0
  0
LINE
  5
17D
330
1F
100
AcDbEntity
  8
A-0_通り芯
  6
Continuous
 62
     3
370
     9
100
AcDbLine
 10
-264.4791250725938
 20
148.7606967694412
 30
0.0
 11
-264.4791250725938
 21
140.7607693517891
 31
0.0
  0
LINE
  5
17E
330
1F
100
AcDbEntity
  8
A-0_通り芯
  6
Continuous
 62
     3
370
     9
100
AcDbLine
 10
-244.4792075525346
 20
148.7606967694412
 30
0.0
 11
-244.4792075525346
 21
140.7607693517891
 31
0.0
  0
LINE
  5
17F
330
1F
100
AcDbEntity
  8
A-0_通り芯
  6
Continuous
 62
     3
370
     9
100
AcDbLine
 10
-131.3791164946798
 20
222.260716564627
 30
0.0
 11
-132.8722673603892
 21
222.260716564627
 31
0.0
  0
LINE
  5
180
330
1F
100
AcDbEntity
  8
A-0_通り芯
  6
Continuous
 62
     3
370
     9
100
AcDbLine
 10
-129.041503002281
 20
-203.189244504841
 30
0.0
 11
-130.0414568135142
 21
-208.189063048971
 31
0.0
  0
LINE
  5
181
330
1F
100
AcDbEntity
  8
A-0_通り芯
  6
Continuous
 62
     3
370
     9
100
AcDbLine
 10
-129.041503002281
 20
-203.189244504841
 30
0.0
 11
-235.7493821460733
 21
-203.189244504841
 31
0.0
  0
LINE
  5
182
330
1F
100
AcDbEntity
  8
A-0_通り芯
  6
Continuous
 62
     3
370
     9
100
AcDbLine
 10
-130.1704224490717
 20
-208.189063048971
 30
0.0
 11
-130.0414568135142
 21
-208.189063048971
 31
0.0
  0
LINE
  5
183
330
1F
100
AcDbEntity
  8
A-0_通り芯
  6
Continuous
 62
     3
370
     9
100
AcDbLine
 10
-129.7307713722136
 20
-200.7771021378646
 30
0.0
 11
-129.041503002281
 21
-203.189244504841
 31
0.0
  0
LINE
  5
184
330
1F
100
AcDbEntity
  8
A-0_通り芯
  6
Continuous
 62
     3
370
     9
100
AcDbLine
 10
-132.9482808739027
 20
-221.7888505806434
 30
0.0
 11
-132.1659751306596
 21
-210.0561944626112
 31
0.0
  0
LINE
  5
185
330
1F
100
AcDbEntity
  8
A-0_通り芯
  6
Continuous
 62
     3
370
     9
100
AcDbLine
 10
-239.674569540499
 20
-206.420066268988
 30
0.0
 11
-242.7229786673994
 21
-221.977647165314
 31
0.0
  0
LINE
  5
186
330
1F
100
AcDbEntity
  8
A-0_通り芯
  6
Continuous
 62
     3
370
     9
100
AcDbLine
 10
-238.3750155920194
 20
-208.189063048971
 30
0.0
 11
-149.5999911779569
 21
-208.189063048971
 31
0.0
  0
LINE
  5
187
330
1F
100
AcDbEntity
  8
A-0_通り芯
  6
Continuous
 62
     3
370
     9
100
AcDbLine
 10
-253.7256873086579
 20
-223.1892610008292
 30
0.0
 11
-244.1949486842913
 21
-223.1892610008292
 31
0.0
  0
LINE
  5
188
330
1F
100
AcDbEntity
  8
A-0_通り芯
  6
Continuous
 62
     3
370
     9
100
AcDbLine
 10
-258.2461654283792
 20
-206.420066268988
 30
0.0
 11
-255.1978057894434
 21
-221.977647165314
 31
0.0
  0
LINE
  5
189
330
1F
100
AcDbEntity
  8
A-0_通り芯
  6
Continuous
 62
     3
370
     9
100
AcDbLine
 10
-149.4868616910481
 20
-198.8571175781096
 30
0.0
 11
-150.0416217733961
 21
-199.6892577016316
 31
0.0
  0
LINE
  5
18A
330
1F
100
AcDbEntity
  8
A-0_通り芯
  6
Continuous
 62
     3
370
     9
100
AcDbLine
 10
-135.8444155339536
 20
-198.1892280088528
 30
0.0
 11
-148.2387752256765
 21
-198.1892280088528
 31
0.0
  0
LINE
  5
18B
330
1F
100
AcDbEntity
  8
A-0_通り芯
  6
Continuous
 62
     3
370
     9
100
AcDbLine
 10
-134.5963290685819
 20
-198.8571175781096
 30
0.0
 11
-134.0415689862338
 21
-199.6892577016316
 31
0.0
  0
LINE
  5
18C
330
1F
100
AcDbEntity
  8
A-0_通り芯
  6
Continuous
 62
     3
370
     9
100
AcDbLine
 10
-171.0868735681596
 20
-198.8571175781096
 30
0.0
 11
-171.6416336505075
 21
-199.6892577016316
 31
0.0
  0
LINE
  5
18D
330
1F
100
AcDbEntity
  8
A-0_通り芯
  6
Continuous
 62
     3
370
     9
100
AcDbLine
 10
-157.444427411065
 20
-198.1892280088528
 30
0.0
 11
-169.8388860787169
 21
-198.1892280088528
 31
0.0
  0
LINE
  5
18E
330
1F
100
AcDbEntity
  8
A-0_通り芯
  6
Continuous
 62
     3
370
     9
100
AcDbLine
 10
-156.1963409456934
 20
-198.8571175781096
 30
0.0
 11
-155.6414818874163
 21
-199.6892577016316
 31
0.0
  0
LINE
  5
18F
330
1F
100
AcDbEntity
  8
A-0_通り芯
  6
Continuous
 62
     3
370
     9
100
AcDbLine
 10
-192.6867864693419
 20
-198.8571175781096
 30
0.0
 11
-193.24154655169
 21
-199.6892577016316
 31
0.0
  0
LINE
  5
190
330
1F
100
AcDbEntity
  8
A-0_通り芯
  6
Continuous
 62
     3
370
     9
100
AcDbLine
 10
-179.0443403122473
 20
-198.1892280088528
 30
0.0
 11
-191.4387000039704
 21
-198.1892280088528
 31
0.0
  0
LINE
  5
191
330
1F
100
AcDbEntity
  8
A-0_通り芯
  6
Continuous
 62
     3
370
     9
100
AcDbLine
 10
-177.7962538468759
 20
-198.8571175781096
 30
0.0
 11
-177.2415927404569
 21
-199.6892577016316
 31
0.0
  0
LINE
  5
192
330
1F
100
AcDbEntity
  8
A-0_通り芯
  6
Continuous
 62
     3
370
     9
100
AcDbLine
 10
-214.2868973223825
 20
-198.8571175781096
 30
0.0
 11
-214.8415089408369
 21
-199.6892577016316
 31
0.0
  0
LINE
  5
193
330
1F
100
AcDbEntity
  8
A-0_通り芯
  6
Continuous
 62
     3
370
     9
100
AcDbLine
 10
-200.6444511652879
 20
-198.1892280088528
 30
0.0
 11
-213.0388603449754
 21
-198.1892280088528
 31
0.0
  0
LINE
  5
194
330
1F
100
AcDbEntity
  8
A-0_通り芯
  6
Continuous
 62
     3
370
     9
100
AcDbLine
 10
-199.3963646999163
 20
-198.8571175781096
 30
0.0
 11
-198.8416046175684
 21
-199.6892577016316
 31
0.0
  0
LINE
  5
195
330
1F
100
AcDbEntity
  8
A-0_通り芯
  6
Continuous
 62
     3
370
     9
100
AcDbLine
 10
-235.8867607356004
 20
-198.8571175781096
 30
0.0
 11
-236.4415208179483
 21
-199.6892577016316
 31
0.0
  0
LINE
  5
196
330
1F
100
AcDbEntity
  8
A-0_通り芯
  6
Continuous
 62
     3
370
     9
100
AcDbLine
 10
-222.2443640664704
 20
-198.1892280088528
 30
0.0
 11
-234.6386742702288
 21
-198.1892280088528
 31
0.0
  0
LINE
  5
197
330
1F
100
AcDbEntity
  8
A-0_通り芯
  6
Continuous
 62
     3
370
     9
100
AcDbLine
 10
-220.9962776010988
 20
-198.8571175781096
 30
0.0
 11
-220.4415175187509
 21
-199.6892577016316
 31
0.0
  0
LINE
  5
198
330
1F
100
AcDbEntity
  8
A-0_通り芯
  6
Continuous
 62
     3
370
     9
100
AcDbLine
 10
-257.4869210766054
 20
-198.8571175781096
 30
0.0
 11
-258.0415326950598
 21
-199.6892577016316
 31
0.0
  0
LINE
  5
199
330
1F
100
AcDbEntity
  8
A-0_通り芯
  6
Continuous
 62
     3
370
     9
100
AcDbLine
 10
-243.8443759435819
 20
-198.1892280088528
 30
0.0
 11
-256.2386861473402
 21
-198.1892280088528
 31
0.0
  0
LINE
  5
19A
330
1F
100
AcDbEntity
  8
A-0_通り芯
  6
Continuous
 62
     3
370
     9
100
AcDbLine
 10
-242.5962894782102
 20
-198.8571175781096
 30
0.0
 11
-242.0415788838267
 21
-199.6892577016316
 31
0.0
  0
LINE
  5
19B
330
1F
100
AcDbEntity
  8
A-0_通り芯
  6
Continuous
 62
     3
370
     9
100
AcDbLine
 10
-279.0869329537169
 20
-198.8571175781096
 30
0.0
 11
-279.6414950842069
 21
-199.6892577016316
 31
0.0
  0
LINE
  5
19C
330
1F
100
AcDbEntity
  8
A-0_通り芯
  6
Continuous
 62
     3
370
     9
100
AcDbLine
 10
-265.4443878206934
 20
-198.1892280088528
 30
0.0
 11
-277.8388464883454
 21
-198.1892280088528
 31
0.0
  0
LINE
  5
19D
330
1F
100
AcDbEntity
  8
A-0_通り芯
  6
Continuous
 62
     3
370
     9
100
AcDbLine
 10
-264.1963013553217
 20
-198.8571175781096
 30
0.0
 11
-263.6415412729738
 21
-199.6892577016316
 31
0.0
  0
LINE
  5
19E
330
1F
100
AcDbEntity
  8
A-0_通り芯
  6
Continuous
 62
     3
370
     9
100
AcDbLine
 10
-300.6867963669348
 20
-198.8571175781096
 30
0.0
 11
-301.2415564492829
 21
-199.6892577016316
 31
0.0
  0
LINE
  5
19F
330
1F
100
AcDbEntity
  8
A-0_通り芯
  6
Continuous
 62
     3
370
     9
100
AcDbLine
 10
-287.0443996978048
 20
-198.1892280088528
 30
0.0
 11
-299.4387099015634
 21
-198.1892280088528
 31
0.0
  0
LINE
  5
1A0
330
1F
100
AcDbEntity
  8
A-0_通り芯
  6
Continuous
 62
     3
370
     9
100
AcDbLine
 10
-285.7962637444688
 20
-198.8571175781096
 30
0.0
 11
-285.2415531500852
 21
-199.6892577016316
 31
0.0
  0
LINE
  5
1A1
330
1F
100
AcDbEntity
  8
A-0_通り芯
  6
Continuous
 62
     3
370
     9
100
AcDbLine
 10
-148.3172631374163
 20
-206.4047249999846
 30
0.0
 11
-145.2015008907946
 21
-221.9833382812346
 31
0.0
  0
LINE
  5
1A2
330
1F
100
AcDbEntity
  8
A-0_通り芯
  6
Continuous
 62
     3
370
     9
100
AcDbLine
 10
-154.7936540791392
 20
-208.189063048971
 30
0.0
 11
-179.7473663363184
 21
-229.5781077333039
 31
0.0
  0
LINE
  5
1A3
330
1F
100
AcDbEntity
  8
A-0_通り芯
  6
Continuous
 62
     3
370
     9
100
AcDbLine
 10
216.3207488980566
 20
125.8134245460458
 30
0.0
 11
216.3207488980566
 21
136.2080745671607
 31
0.0
  0
LINE
  5
1A4
330
1F
100
AcDbEntity
  8
A-0_通り芯
  6
Continuous
 62
     3
370
     9
100
AcDbLine
 10
217.8208280787999
 20
123.3921763935966
 30
0.0
 11
217.8208280787999
 21
138.62932271961
 31
0.0
  0
LINE
  5
1A5
330
1F
100
AcDbEntity
  8
A-0_通り芯
  6
Continuous
 62
     3
370
     9
100
AcDbLine
 10
226.3207818900331
 20
127.2403605152181
 30
0.0
 11
226.3207818900331
 21
134.7811385979884
 31
0.0
  0
LINE
  5
1A6
330
1F
100
AcDbEntity
  8
A-0_通り芯
  6
Continuous
 62
     3
370
     9
100
AcDbLine
 10
241.3207818900331
 20
85.35513300254917
 30
0.0
 11
241.3207818900331
 21
176.6662671347282
 31
0.0
  0
LINE
  5
1A7
330
1F
100
AcDbEntity
  8
A-0_通り芯
  6
Continuous
 62
     3
370
     9
100
AcDbLine
 10
241.3207818900331
 20
293.4375733530559
 30
0.0
 11
241.3207818900331
 21
300.6074886296607
 31
0.0
  0
LINE
  5
1A8
330
1F
100
AcDbEntity
  8
A-0_通り芯
  6
Continuous
 62
     3
370
     9
100
AcDbLine
 10
228.1876658638506
 20
302.8862114442722
 30
0.0
 11
239.9205694217054
 21
302.1041036528871
 31
0.0
  0
LINE
  5
1A9
330
1F
100
AcDbEntity
  8
A-0_通り芯
  6
Continuous
 62
     3
370
     9
100
AcDbLine
 10
224.170826759121
 20
291.1534068623466
 30
0.0
 11
239.8955285116547
 21
291.9394736908939
 31
0.0
  0
LINE
  5
1AA
330
1F
100
AcDbEntity
  8
A-0_通り芯
  6
Continuous
 62
     3
370
     9
100
AcDbLine
 10
216.9888364191716
 20
289.6905426309276
 30
0.0
 11
217.8208280787999
 21
289.1357825485796
 31
0.0
  0
LINE
  5
1AB
330
1F
100
AcDbEntity
  8
A-0_通り芯
  6
Continuous
 62
     3
370
     9
100
AcDbLine
 10
216.9888364191716
 20
302.5810686549985
 30
0.0
 11
217.8208280787999
 21
303.1357297614175
 31
0.0
  0
LINE
  5
1AC
330
1F
100
AcDbEntity
  8
A-0_通り芯
  6
Continuous
 62
     3
370
     9
100
AcDbLine
 10
216.3207488980566
 20
301.3330811655559
 30
0.0
 11
216.3207488980566
 21
290.9385301203702
 31
0.0
  0
LINE
  5
1AD
330
1F
100
AcDbEntity
  8
A-0_通り芯
  6
Continuous
 62
     3
370
     9
100
AcDbLine
 10
218.9086725150331
 20
305.3216131545763
 30
0.0
 11
221.3207159060804
 21
306.0107825485796
 31
0.0
  0
LINE
  5
1AE
330
1F
100
AcDbEntity
  8
A-0_通り芯
  6
Continuous
 62
     3
370
     9
100
AcDbLine
 10
221.3207159060804
 20
306.0107825485796
 30
0.0
 11
226.3207818900331
 21
305.0107297614175
 31
0.0
  0
LINE
  5
1AF
330
1F
100
AcDbEntity
  8
A-0_通り芯
  6
Continuous
 62
     3
370
     9
100
AcDbLine
 10
226.3207818900331
 20
304.8818631017891
 30
0.0
 11
226.3207818900331
 21
305.0107297614175
 31
0.0
  0
LINE
  5
1B0
330
1F
100
AcDbEntity
  8
A-0_通り芯
  6
Continuous
 62
     3
370
     9
100
AcDbLine
 10
221.3207159060804
 20
288.1570095861641
 30
0.0
 11
221.3207159060804
 21
286.2608287373466
 31
0.0
  0
LINE
  5
1B1
330
1F
100
AcDbEntity
  8
A-0_通り芯
  6
Continuous
 62
     3
370
     9
100
AcDbLine
 10
218.9086725150331
 20
286.9499981313499
 30
0.0
 11
221.3207159060804
 21
286.2608287373466
 31
0.0
  0
LINE
  5
1B2
330
1F
100
AcDbEntity
  8
A-0_通り芯
  6
Continuous
 62
     3
370
     9
100
AcDbLine
 10
217.8208280787999
 20
276.1293557115864
 30
0.0
 11
217.8208280787999
 21
260.892308361502
 31
0.0
  0
LINE
  5
1B3
330
1F
100
AcDbEntity
  8
A-0_通り芯
  6
Continuous
 62
     3
370
     9
100
AcDbLine
 10
218.9086725150331
 20
277.5716329497621
 30
0.0
 11
221.3207159060804
 21
278.2608023437654
 31
0.0
  0
LINE
  5
1B4
330
1F
100
AcDbEntity
  8
A-0_通り芯
  6
Continuous
 62
     3
370
     9
100
AcDbLine
 10
216.9888364191716
 20
262.0653710726506
 30
0.0
 11
217.8208280787999
 21
261.5108089421607
 31
0.0
  0
LINE
  5
1B5
330
1F
100
AcDbEntity
  8
A-0_通り芯
  6
Continuous
 62
     3
370
     9
100
AcDbLine
 10
216.3207488980566
 20
273.7081075591371
 30
0.0
 11
216.3207488980566
 21
263.3134575380222
 31
0.0
  0
LINE
  5
1B6
330
1F
100
AcDbEntity
  8
A-0_通り芯
  6
Continuous
 62
     3
370
     9
100
AcDbLine
 10
216.9888364191716
 20
274.9561940245086
 30
0.0
 11
217.8208280787999
 21
275.5107561549985
 31
0.0
  0
LINE
  5
1B7
330
1F
100
AcDbEntity
  8
A-0_通り芯
  6
Continuous
 62
     3
370
     9
100
AcDbLine
 10
217.8208280787999
 20
288.3922753695256
 30
0.0
 11
217.8208280787999
 21
303.8793359164006
 31
0.0
  0
LINE
  5
1B8
330
1F
100
AcDbEntity
  8
A-0_通り芯
  6
Continuous
 62
     3
370
     9
100
AcDbLine
 10
218.9086725150331
 20
231.9498661634445
 30
0.0
 11
221.3207159060804
 21
231.2607957453702
 31
0.0
  0
LINE
  5
1B9
330
1F
100
AcDbEntity
  8
A-0_通り芯
  6
Continuous
 62
     3
370
     9
100
AcDbLine
 10
217.8208280787999
 20
248.6292897276336
 30
0.0
 11
217.8208280787999
 21
233.3923413534782
 31
0.0
  0
LINE
  5
1BA
330
1F
100
AcDbEntity
  8
A-0_通り芯
  6
Continuous
 62
     3
370
     9
100
AcDbLine
 10
218.9086725150331
 20
250.0716659417384
 30
0.0
 11
221.3207159060804
 21
250.7608353357418
 31
0.0
  0
LINE
  5
1BB
330
1F
100
AcDbEntity
  8
A-0_通り芯
  6
Continuous
 62
     3
370
     9
100
AcDbLine
 10
216.9888364191716
 20
234.565404064627
 30
0.0
 11
217.8208280787999
 21
234.0108419341371
 31
0.0
  0
LINE
  5
1BC
330
1F
100
AcDbEntity
  8
A-0_通り芯
  6
Continuous
 62
     3
370
     9
100
AcDbLine
 10
216.3207488980566
 20
246.2080415751844
 30
0.0
 11
216.3207488980566
 21
235.8134905299985
 31
0.0
  0
LINE
  5
1BD
330
1F
100
AcDbEntity
  8
A-0_通り芯
  6
Continuous
 62
     3
370
     9
100
AcDbLine
 10
216.9888364191716
 20
247.4561280405559
 30
0.0
 11
217.8208280787999
 21
248.0107891469749
 31
0.0
  0
LINE
  5
1BE
330
1F
100
AcDbEntity
  8
A-0_通り芯
  6
Continuous
 62
     3
370
     9
100
AcDbLine
 10
218.9086725150331
 20
204.4498991554208
 30
0.0
 11
221.3207159060804
 21
203.7608287373466
 31
0.0
  0
LINE
  5
1BF
330
1F
100
AcDbEntity
  8
A-0_通り芯
  6
Continuous
 62
     3
370
     9
100
AcDbLine
 10
217.8208280787999
 20
221.12932271961
 30
0.0
 11
217.8208280787999
 21
205.8921763935966
 31
0.0
  0
LINE
  5
1C0
330
1F
100
AcDbEntity
  8
A-0_通り芯
  6
Continuous
 62
     3
370
     9
100
AcDbLine
 10
218.9086725150331
 20
222.5715999577857
 30
0.0
 11
221.3207159060804
 21
223.2608683277181
 31
0.0
  0
LINE
  5
1C1
330
1F
100
AcDbEntity
  8
A-0_通り芯
  6
Continuous
 62
     3
370
     9
100
AcDbLine
 10
216.9888364191716
 20
207.0654370566032
 30
0.0
 11
217.8208280787999
 21
206.5107759501844
 31
0.0
  0
LINE
  5
1C2
330
1F
100
AcDbEntity
  8
A-0_通り芯
  6
Continuous
 62
     3
370
     9
100
AcDbLine
 10
216.3207488980566
 20
218.7079755912317
 30
0.0
 11
216.3207488980566
 21
208.3135235219749
 31
0.0
  0
LINE
  5
1C3
330
1F
100
AcDbEntity
  8
A-0_通り芯
  6
Continuous
 62
     3
370
     9
100
AcDbLine
 10
216.9888364191716
 20
219.9560620566032
 30
0.0
 11
217.8208280787999
 21
220.5108221389513
 31
0.0
  0
LINE
  5
1C4
330
1F
100
AcDbEntity
  8
A-0_通り芯
  6
Continuous
 62
     3
370
     9
100
AcDbLine
 10
218.9086725150331
 20
176.9499321473972
 30
0.0
 11
221.3207159060804
 21
176.2607627533939
 31
0.0
  0
LINE
  5
1C5
330
1F
100
AcDbEntity
  8
A-0_通り芯
  6
Continuous
 62
     3
370
     9
100
AcDbLine
 10
217.8208280787999
 20
193.6293557115864
 30
0.0
 11
217.8208280787999
 21
178.3922093855729
 31
0.0
  0
LINE
  5
1C6
330
1F
100
AcDbEntity
  8
A-0_通り芯
  6
Continuous
 62
     3
370
     9
100
AcDbLine
 10
218.9086725150331
 20
195.0716329497621
 30
0.0
 11
221.3207159060804
 21
195.7608023437654
 31
0.0
  0
LINE
  5
1C7
330
1F
100
AcDbEntity
  8
A-0_通り芯
  6
Continuous
 62
     3
370
     9
100
AcDbLine
 10
216.9888364191716
 20
179.5654700485796
 30
0.0
 11
217.8208280787999
 21
179.0108089421607
 31
0.0
  0
LINE
  5
1C8
330
1F
100
AcDbEntity
  8
A-0_通り芯
  6
Continuous
 62
     3
370
     9
100
AcDbLine
 10
216.3207488980566
 20
191.208008583208
 30
0.0
 11
216.3207488980566
 21
180.8135565139513
 31
0.0
  0
LINE
  5
1C9
330
1F
100
AcDbEntity
  8
A-0_通り芯
  6
Continuous
 62
     3
370
     9
100
AcDbLine
 10
216.9888364191716
 20
192.4560950485796
 30
0.0
 11
217.8208280787999
 21
193.0107561549985
 31
0.0
  0
LINE
  5
1CA
330
1F
100
AcDbEntity
  8
A-0_通り芯
  6
Continuous
 62
     3
370
     9
100
AcDbLine
 10
218.9086725150331
 20
149.4498661634445
 30
0.0
 11
221.3207159060804
 21
148.7608947212993
 31
0.0
  0
LINE
  5
1CB
330
1F
100
AcDbEntity
  8
A-0_通り芯
  6
Continuous
 62
     3
370
     9
100
AcDbLine
 10
217.8208280787999
 20
166.1292897276336
 30
0.0
 11
217.8208280787999
 21
150.8922423775493
 31
0.0
  0
LINE
  5
1CC
330
1F
100
AcDbEntity
  8
A-0_通り芯
  6
Continuous
 62
     3
370
     9
100
AcDbLine
 10
218.9086725150331
 20
167.5715669658094
 30
0.0
 11
221.3207159060804
 21
168.2608353357418
 31
0.0
  0
LINE
  5
1CD
330
1F
100
AcDbEntity
  8
A-0_通り芯
  6
Continuous
 62
     3
370
     9
100
AcDbLine
 10
216.9888364191716
 20
152.0654040646269
 30
0.0
 11
217.8208280787999
 21
151.5108419341371
 31
0.0
  0
LINE
  5
1CE
330
1F
100
AcDbEntity
  8
A-0_通り芯
  6
Continuous
 62
     3
370
     9
100
AcDbLine
 10
216.3207488980566
 20
163.7080415751844
 30
0.0
 11
216.3207488980566
 21
153.3135895059276
 31
0.0
  0
LINE
  5
1CF
330
1F
100
AcDbEntity
  8
A-0_通り芯
  6
Continuous
 62
     3
370
     9
100
AcDbLine
 10
216.9888364191716
 20
164.9561280405559
 30
0.0
 11
217.8208280787999
 21
165.5107891469749
 31
0.0
  0
LINE
  5
1D0
330
1F
100
AcDbEntity
  8
A-0_通り芯
  6
Continuous
 62
     3
370
     9
100
AcDbLine
 10
218.9086725150331
 20
140.0715999577857
 30
0.0
 11
221.3207159060804
 21
140.7608683277181
 31
0.0
  0
LINE
  5
1D1
330
1F
100
AcDbEntity
  8
A-0_通り芯
  6
Continuous
 62
     3
370
     9
100
AcDbLine
 10
216.9888364191716
 20
137.4560620566032
 30
0.0
 11
217.8208280787999
 21
138.0107231630222
 31
0.0
  0
LINE
  5
1D2
330
1F
100
AcDbEntity
  8
A-0_通り芯
  6
Continuous
 62
     3
370
     9
100
AcDbLine
 10
221.3207159060804
 20
249.470189220877
 30
0.0
 11
221.3207159060804
 21
260.0514088682586
 31
0.0
  0
LINE
  5
1D3
330
1F
100
AcDbEntity
  8
A-0_通り芯
  6
Continuous
 62
     3
370
     9
100
AcDbLine
 10
251.3208148820093
 20
188.6075150232418
 30
0.0
 11
251.3208148820093
 21
183.4140500739175
 31
0.0
  0
LINE
  5
1D4
330
1F
100
AcDbEntity
  8
A-0_通り芯
  6
Continuous
 62
     3
370
     9
100
AcDbLine
 10
221.3207159060804
 20
194.492821716654
 30
0.0
 11
221.3207159060804
 21
205.0513758762823
 31
0.0
  0
LINE
  5
1D5
330
1F
100
AcDbEntity
  8
A-0_通り芯
  6
Continuous
 62
     3
370
     9
100
AcDbLine
 10
221.3207159060804
 20
177.204003357279
 30
0.0
 11
221.3207159060804
 21
166.9701892208769
 31
0.0
  0
LINE
  5
1D6
330
1F
100
AcDbEntity
  8
A-0_通り芯
  6
Continuous
 62
     3
370
     9
100
AcDbLine
 10
221.3207159060804
 20
139.4701232369243
 30
0.0
 11
221.3207159060804
 21
150.051441860235
 31
0.0
  0
LINE
  5
1D7
330
1F
100
AcDbEntity
  8
A-0_通り芯
  6
Continuous
 62
     3
370
     9
100
AcDbLine
 10
221.3207159060804
 20
276.9701562289006
 30
0.0
 11
221.3207159060804
 21
286.1358221389513
 31
0.0
  0
LINE
  5
1D8
330
1F
100
AcDbEntity
  8
A-0_通り芯
  6
Continuous
 62
     3
370
     9
100
AcDbLine
 10
224.1211408427358
 20
191.8237378378532
 30
0.0
 11
249.9206024136816
 21
190.1041300464681
 31
0.0
  0
LINE
  5
1D9
330
1F
100
AcDbEntity
  8
A-0_通り芯
  6
Continuous
 62
     3
370
     9
100
AcDbLine
 10
245.988090800506
 20
181.6553467905559
 30
0.0
 11
249.9206024136816
 21
181.9174350506912
 31
0.0
  0
LINE
  5
1DA
330
1F
100
AcDbEntity
  8
A-0_通り芯
  6
Continuous
 62
     3
370
     9
100
AcDbLine
 10
224.1211408427358
 20
180.1974313555898
 30
0.0
 11
245.988090800506
 21
181.6553467905559
 31
0.0
  0
LINE
  5
1DB
330
1F
100
AcDbEntity
  8
A-0_通り芯
  6
Continuous
 62
     3
370
     9
100
AcDbLine
 10
226.3207818900331
 20
264.7404924831235
 30
0.0
 11
226.3207818900331
 21
272.2811715899648
 31
0.0
  0
LINE
  5
1DC
330
1F
100
AcDbEntity
  8
A-0_通り芯
  6
Continuous
 62
     3
370
     9
100
AcDbLine
 10
223.7323633934114
 20
274.028492641485
 30
0.0
 11
225.1149581463674
 21
273.751953895708
 31
0.0
  0
LINE
  5
1DD
330
1F
100
AcDbEntity
  8
A-0_通り芯
  6
Continuous
 62
     3
370
     9
100
AcDbLine
 10
223.7323633934114
 20
262.9930724556743
 30
0.0
 11
225.1149581463674
 21
263.2696112014513
 31
0.0
  0
LINE
  5
1DE
330
1F
100
AcDbEntity
  8
A-0_通り芯
  6
Continuous
 62
     3
370
     9
100
AcDbLine
 10
218.9086725150331
 20
259.4499321473972
 30
0.0
 11
221.3207159060804
 21
258.7607627533939
 31
0.0
  0
LINE
  5
1DF
330
1F
100
AcDbEntity
  8
A-0_通り芯
  6
Continuous
 62
     3
370
     9
100
AcDbLine
 10
226.3207818900331
 20
237.2404264991708
 30
0.0
 11
226.3207818900331
 21
244.7811056060121
 31
0.0
  0
LINE
  5
1E0
330
1F
100
AcDbEntity
  8
A-0_通り芯
  6
Continuous
 62
     3
370
     9
100
AcDbLine
 10
223.7323633934114
 20
246.5284266575323
 30
0.0
 11
225.1149581463674
 21
246.2519868876844
 31
0.0
  0
LINE
  5
1E1
330
1F
100
AcDbEntity
  8
A-0_通り芯
  6
Continuous
 62
     3
370
     9
100
AcDbLine
 10
223.7323633934114
 20
235.4931054476506
 30
0.0
 11
225.1149581463674
 21
235.7696441934276
 31
0.0
  0
LINE
  5
1E2
330
1F
100
AcDbEntity
  8
A-0_通り芯
  6
Continuous
 62
     3
370
     9
100
AcDbLine
 10
226.3207818900331
 20
209.7405584670763
 30
0.0
 11
226.3207818900331
 21
217.2810396220594
 31
0.0
  0
LINE
  5
1E3
330
1F
100
AcDbEntity
  8
A-0_通り芯
  6
Continuous
 62
     3
370
     9
100
AcDbLine
 10
223.7323633934114
 20
219.0284596495086
 30
0.0
 11
225.1149581463674
 21
218.7519209037317
 31
0.0
  0
LINE
  5
1E4
330
1F
100
AcDbEntity
  8
A-0_通り芯
  6
Continuous
 62
     3
370
     9
100
AcDbLine
 10
223.7323633934114
 20
207.993138439627
 30
0.0
 11
225.1149581463674
 21
208.2694792335458
 31
0.0
  0
LINE
  5
1E5
330
1F
100
AcDbEntity
  8
A-0_通り芯
  6
Continuous
 62
     3
370
     9
100
AcDbLine
 10
221.3207159060804
 20
232.2040363492553
 30
0.0
 11
221.3207159060804
 21
221.9701232369243
 31
0.0
  0
LINE
  5
1E6
330
1F
100
AcDbEntity
  8
A-0_通り芯
  6
Continuous
 62
     3
370
     9
100
AcDbLine
 10
226.3207818900331
 20
154.7404264991708
 30
0.0
 11
226.3207818900331
 21
162.2811056060121
 31
0.0
  0
LINE
  5
1E7
330
1F
100
AcDbEntity
  8
A-0_通り芯
  6
Continuous
 62
     3
370
     9
100
AcDbLine
 10
223.7323633934114
 20
164.0283276816032
 30
0.0
 11
225.1149581463674
 21
163.7519868876844
 31
0.0
  0
LINE
  5
1E8
330
1F
100
AcDbEntity
  8
A-0_通り芯
  6
Continuous
 62
     3
370
     9
100
AcDbLine
 10
223.7323633934114
 20
152.9932044235796
 30
0.0
 11
225.1149581463674
 21
153.2695452174985
 31
0.0
  0
LINE
  5
1E9
330
1F
100
AcDbEntity
  8
A-0_通り芯
  6
Continuous
 62
     3
370
     9
100
AcDbLine
 10
223.7323633934114
 20
136.5284596495086
 30
0.0
 11
225.1149581463674
 21
136.2519209037317
 31
0.0
  0
LINE
  5
1EA
330
1F
100
AcDbEntity
  8
A-0_通り芯
  6
Continuous
 62
     3
370
     9
100
AcDbLine
 10
241.3207818900331
 20
143.0106901710458
 30
0.0
 11
255.3209270547289
 21
143.0106901710458
 31
0.0
  0
LINE
  5
1EB
330
1F
100
AcDbEntity
  8
A-0_通り芯
  6
Continuous
 62
     3
370
     9
100
AcDbLine
 10
241.3207818900331
 20
137.01067037586
 30
0.0
 11
255.3209270547289
 21
137.01067037586
 31
0.0
  0
LINE
  5
1EC
330
1F
100
AcDbEntity
  8
A-0_通り芯
  6
Continuous
 62
     3
370
     9
100
AcDbLine
 10
241.3207818900331
 20
125.0106307854884
 30
0.0
 11
255.3209270547289
 21
125.0106307854884
 31
0.0
  0
LINE
  5
1ED
330
1F
100
AcDbEntity
  8
A-0_通り芯
  6
Continuous
 62
     3
370
     9
100
AcDbLine
 10
241.3207818900331
 20
119.0107099662317
 30
0.0
 11
255.3209270547289
 21
119.0107099662317
 31
0.0
  0
LINE
  5
1EE
330
1F
100
AcDbEntity
  8
A-0_通り芯
  6
Continuous
 62
     3
370
     9
100
AcDbLine
 10
259.0433127705228
 20
133.5106835726505
 30
0.0
 11
296.0434843287999
 21
133.5106835726505
 31
0.0
  0
LINE
  5
1EF
330
1F
100
AcDbEntity
  8
A-0_通り芯
  6
Continuous
 62
     3
370
     9
100
AcDbLine
 10
259.0433127705228
 20
128.5107165646269
 30
0.0
 11
296.0434843287999
 21
128.5107165646269
 31
0.0
  0
LINE
  5
1F0
330
1F
100
AcDbEntity
  8
A-0_通り芯
  6
Continuous
 62
     3
370
     9
100
AcDbLine
 10
325.5725568583608
 20
147.6168319573634
 30
0.0
 11
308.2782948228879
 21
109.5695445576591
 31
0.0
  0
LINE
  5
1F1
330
1F
100
AcDbEntity
  8
A-0_通り芯
  6
Continuous
 62
     3
370
     9
100
AcDbLine
 10
297.5430686298978
 20
140.0107297614175
 30
0.0
 11
322.1152286805737
 21
140.0107297614175
 31
0.0
  0
LINE
  5
1F2
330
1F
100
AcDbEntity
  8
A-0_通り芯
  6
Continuous
 62
     3
370
     9
100
AcDbLine
 10
297.5430686298978
 20
135.0106637774648
 30
0.0
 11
319.8422464698472
 21
135.0106637774648
 31
0.0
  0
LINE
  5
1F3
330
1F
100
AcDbEntity
  8
A-0_通り芯
  6
Continuous
 62
     3
370
     9
100
AcDbLine
 10
297.5430686298978
 20
127.0107363598127
 30
0.0
 11
316.2062667401174
 21
127.0107363598127
 31
0.0
  0
LINE
  5
1F4
330
1F
100
AcDbEntity
  8
A-0_通り芯
  6
Continuous
 62
     3
370
     9
100
AcDbLine
 10
297.5430686298978
 20
122.01067037586
 30
0.0
 11
313.9334824812493
 21
122.01067037586
 31
0.0
  0
LINE
  5
1F5
330
1F
100
AcDbEntity
  8
A-0_通り芯
  6
Continuous
 62
     3
370
     9
100
AcDbLine
 10
-401.8790439123319
 20
-257.0825286581349
 30
0.0
 11
-401.8790439123319
 21
-281.0826078388781
 31
0.0
  0
LINE
  5
1F6
330
1F
100
AcDbEntity
  8
A-0_通り芯
  6
Continuous
 62
     3
370
     9
100
AcDbLine
 10
-406.87906040832
 20
-257.0825286581349
 30
0.0
 11
-406.87906040832
 21
-281.0826078388781
 31
0.0
  0
LINE
  5
1F7
330
1F
100
AcDbEntity
  8
A-0_通り芯
  6
Continuous
 62
     3
370
     9
100
AcDbLine
 10
-414.8791362898656
 20
-257.0825286581349
 30
0.0
 11
-414.8791362898656
 21
-281.0826078388781
 31
0.0
  0
LINE
  5
1F8
330
1F
100
AcDbEntity
  8
A-0_通り芯
  6
Continuous
 62
     3
370
     9
100
AcDbLine
 10
-419.8790538099248
 20
-257.0825286581349
 30
0.0
 11
-419.8790538099248
 21
-281.0825088629492
 31
0.0
  0
LINE
  5
1F9
330
1F
100
AcDbEntity
  8
A-0_通り芯
  6
Continuous
 62
     3
370
     9
100
AcDbLine
 10
-408.3788921492406
 20
-282.5825880436923
 30
0.0
 11
-408.3788921492406
 21
-302.582555051716
 31
0.0
  0
LINE
  5
1FA
330
1F
100
AcDbEntity
  8
A-0_通り芯
  6
Continuous
 62
     3
370
     9
100
AcDbLine
 10
-413.3790076211579
 20
-282.5825880436923
 30
0.0
 11
-413.3790076211579
 21
-297.2263241870623
 31
0.0
  0
LINE
  5
1FB
330
1F
100
AcDbEntity
  8
A-0_通り芯
  6
Continuous
 62
     3
370
     9
100
AcDbLine
 10
-404.3595786462846
 20
-306.8884038692835
 30
0.0
 11
-417.1697857039281
 21
-293.165391305939
 31
0.0
  0
LINE
  5
1FC
330
1F
100
AcDbEntity
  8
A-0_通り芯
  6
Continuous
 62
     3
370
     9
100
AcDbLine
 10
-415.3791131954822
 20
-223.6891884184812
 30
0.0
 11
-415.3791131954822
 21
-214.689208213667
 31
0.0
  0
LINE
  5
1FD
330
1F
100
AcDbEntity
  8
A-0_通り芯
  6
Continuous
 62
     3
370
     9
100
AcDbLine
 10
-415.3791131954822
 20
-214.689208213667
 30
0.0
 11
-406.3792319665971
 21
-214.689208213667
 31
0.0
  0
LINE
  5
1FE
330
1F
100
AcDbEntity
  8
A-0_通り芯
  6
Continuous
 62
     3
370
     9
100
AcDbLine
 10
-406.3792319665971
 20
-214.689208213667
 30
0.0
 11
-406.3792319665971
 21
-223.6891884184812
 31
0.0
  0
LINE
  5
1FF
330
1F
100
AcDbEntity
  8
A-0_通り芯
  6
Continuous
 62
     3
370
     9
100
AcDbLine
 10
-406.3792319665971
 20
-223.6891884184812
 30
0.0
 11
-415.3791131954822
 21
-223.6891884184812
 31
0.0
  0
LINE
  5
200
330
1F
100
AcDbEntity
  8
A-0_通り芯
  6
Continuous
 62
     3
370
     9
100
AcDbLine
 10
-416.8790934002964
 20
-208.189063048971
 30
0.0
 11
-415.3791131954822
 21
-215.9757468274761
 31
0.0
  0
LINE
  5
201
330
1F
100
AcDbEntity
  8
A-0_通り芯
  6
Continuous
 62
     3
370
     9
100
AcDbLine
 10
-404.8792022738184
 20
-208.189063048971
 30
0.0
 11
-406.3792319665971
 21
-215.9757468274761
 31
0.0
  0
LINE
  5
202
330
1F
100
AcDbEntity
  8
A-0_通り芯
  6
Continuous
 62
     3
370
     9
100
AcDbLine
 10
-413.8790835027035
 20
-223.6891884184812
 30
0.0
 11
-413.8790835027035
 21
-253.082564949309
 31
0.0
  0
LINE
  5
203
330
1F
100
AcDbEntity
  8
A-0_通り芯
  6
Continuous
 62
     3
370
     9
100
AcDbLine
 10
-407.8791626834467
 20
-223.6891884184812
 30
0.0
 11
-407.8791626834467
 21
-253.082564949309
 31
0.0
  0
LINE
  5
204
330
1F
100
AcDbEntity
  8
A-0_通り芯
  6
Continuous
 62
     3
370
     9
100
AcDbLine
 10
249.9206024136816
 20
135.1039980785627
 30
0.0
 11
241.3207818900331
 21
135.6773656355729
 31
0.0
  0
LINE
  5
205
330
1F
100
AcDbEntity
  8
A-0_通り芯
  6
Continuous
 62
     3
370
     9
100
AcDbLine
 10
-473.8792814545616
 20
-27.11423394740854
 30
0.0
 11
-473.8792814545616
 21
-33.1143032305589
 31
0.0
  0
LINE
  5
206
330
1F
100
AcDbEntity
  8
A-0_通り芯
  6
Continuous
 62
     3
370
     9
100
AcDbLine
 10
-467.8792616593759
 20
-27.11423394740854
 30
0.0
 11
-473.8792814545616
 21
-33.1143032305589
 31
0.0
  0
LINE
  5
207
330
1F
100
AcDbEntity
  8
A-0_通り芯
  6
Continuous
 62
     3
370
     9
100
AcDbLine
 10
-463.6365594845447
 20
-27.11423394740854
 30
0.0
 11
-459.3939067976781
 21
-27.11423394740854
 31
0.0
  0
LINE
  5
208
330
1F
100
AcDbEntity
  8
A-0_通り芯
  6
Continuous
 62
     3
370
     9
100
AcDbLine
 10
-473.8792814545616
 20
-27.11423394740854
 30
0.0
 11
-467.8792616593759
 21
-27.11423394740854
 31
0.0
  0
LINE
  5
209
330
1F
100
AcDbEntity
  8
A-0_通り芯
  6
Continuous
 62
     3
370
     9
100
AcDbLine
 10
-463.6365594845447
 20
-27.11423394740854
 30
0.0
 11
-470.6365825789281
 21
-34.11425704179197
 31
0.0
  0
LINE
  5
20A
330
1F
100
AcDbEntity
  8
A-0_通り芯
  6
Continuous
 62
     3
370
     9
100
AcDbLine
 10
-459.3939067976781
 20
-27.11423394740854
 30
0.0
 11
-466.3939298920616
 21
-34.11425704179197
 31
0.0
  0
LINE
  5
20B
330
1F
100
AcDbEntity
  8
A-0_通り芯
  6
Continuous
 62
     3
370
     9
100
AcDbLine
 10
-457.879278155364
 20
-29.84220850399635
 30
0.0
 11
-462.151178229266
 21
-34.11425704179197
 31
0.0
  0
LINE
  5
20C
330
1F
100
AcDbEntity
  8
A-0_通り芯
  6
Continuous
 62
     3
370
     9
100
AcDbLine
 10
-457.879278155364
 20
-29.84220850399635
 30
0.0
 11
-457.879278155364
 21
-38.38625609162307
 31
0.0
  0
LINE
  5
20D
330
1F
100
AcDbEntity
  8
A-0_通り芯
  6
Continuous
 62
     3
370
     9
100
AcDbLine
 10
-473.8792814545616
 20
-41.11428013617547
 30
0.0
 11
-473.8792814545616
 21
-35.11430982895416
 31
0.0
  0
LINE
  5
20E
330
1F
100
AcDbEntity
  8
A-0_通り芯
  6
Continuous
 62
     3
370
     9
100
AcDbLine
 10
-467.8792616593759
 20
-41.11428013617547
 30
0.0
 11
-473.8792814545616
 21
-35.11430982895416
 31
0.0
  0
LINE
  5
20F
330
1F
100
AcDbEntity
  8
A-0_通り芯
  6
Continuous
 62
     3
370
     9
100
AcDbLine
 10
-463.6365594845447
 20
-41.11428013617547
 30
0.0
 11
-459.3939067976781
 21
-41.11428013617547
 31
0.0
  0
LINE
  5
210
330
1F
100
AcDbEntity
  8
A-0_通り芯
  6
Continuous
 62
     3
370
     9
100
AcDbLine
 10
-473.8792814545616
 20
-41.11428013617547
 30
0.0
 11
-467.8792616593759
 21
-41.11428013617547
 31
0.0
  0
LINE
  5
211
330
1F
100
AcDbEntity
  8
A-0_通り芯
  6
Continuous
 62
     3
370
     9
100
AcDbLine
 10
-463.6365594845447
 20
-41.11428013617547
 30
0.0
 11
-470.6365825789281
 21
-34.11425704179197
 31
0.0
  0
LINE
  5
212
330
1F
100
AcDbEntity
  8
A-0_通り芯
  6
Continuous
 62
     3
370
     9
100
AcDbLine
 10
-459.3939067976781
 20
-41.11428013617547
 30
0.0
 11
-466.3939298920616
 21
-34.11425704179197
 31
0.0
  0
LINE
  5
213
330
1F
100
AcDbEntity
  8
A-0_通り芯
  6
Continuous
 62
     3
370
     9
100
AcDbLine
 10
-457.879278155364
 20
-38.38625609162307
 30
0.0
 11
-462.151178229266
 21
-34.11425704179197
 31
0.0
  0
LINE
  5
214
330
1F
100
AcDbEntity
  8
A-0_通り芯
  6
Continuous
 62
     3
370
     9
100
AcDbLine
 10
-451.8793078481427
 20
-27.11423394740854
 30
0.0
 11
-451.8793078481427
 21
-33.1143032305589
 31
0.0
  0
LINE
  5
215
330
1F
100
AcDbEntity
  8
A-0_通り芯
  6
Continuous
 62
     3
370
     9
100
AcDbLine
 10
-445.8792385649923
 20
-27.11423394740854
 30
0.0
 11
-451.8793078481427
 21
-33.1143032305589
 31
0.0
  0
LINE
  5
216
330
1F
100
AcDbEntity
  8
A-0_通り芯
  6
Continuous
 62
     3
370
     9
100
AcDbLine
 10
-441.6365858781259
 20
-27.11423394740854
 30
0.0
 11
-437.3938342153302
 21
-27.11423394740854
 31
0.0
  0
LINE
  5
217
330
1F
100
AcDbEntity
  8
A-0_通り芯
  6
Continuous
 62
     3
370
     9
100
AcDbLine
 10
-451.8793078481427
 20
-27.11423394740854
 30
0.0
 11
-445.8792385649923
 21
-27.11423394740854
 31
0.0
  0
LINE
  5
218
330
1F
100
AcDbEntity
  8
A-0_通り芯
  6
Continuous
 62
     3
370
     9
100
AcDbLine
 10
-441.6365858781259
 20
-27.11423394740854
 30
0.0
 11
-448.6365099965802
 21
-34.11425704179197
 31
0.0
  0
LINE
  5
219
330
1F
100
AcDbEntity
  8
A-0_通り芯
  6
Continuous
 62
     3
370
     9
100
AcDbLine
 10
-437.3938342153302
 20
-27.11423394740854
 30
0.0
 11
-444.3939067976781
 21
-34.11425704179197
 31
0.0
  0
LINE
  5
21A
330
1F
100
AcDbEntity
  8
A-0_通り芯
  6
Continuous
 62
     3
370
     9
100
AcDbLine
 10
-435.879205573016
 20
-29.84220850399635
 30
0.0
 11
-440.1512541108116
 21
-34.11425704179197
 31
0.0
  0
LINE
  5
21B
330
1F
100
AcDbEntity
  8
A-0_通り芯
  6
Continuous
 62
     3
370
     9
100
AcDbLine
 10
-435.879205573016
 20
-29.84220850399635
 30
0.0
 11
-435.879205573016
 21
-38.38625609162307
 31
0.0
  0
LINE
  5
21C
330
1F
100
AcDbEntity
  8
A-0_通り芯
  6
Continuous
 62
     3
370
     9
100
AcDbLine
 10
-451.8793078481427
 20
-41.11428013617547
 30
0.0
 11
-451.8793078481427
 21
-35.11430982895416
 31
0.0
  0
LINE
  5
21D
330
1F
100
AcDbEntity
  8
A-0_通り芯
  6
Continuous
 62
     3
370
     9
100
AcDbLine
 10
-445.8792385649923
 20
-41.11428013617547
 30
0.0
 11
-451.8793078481427
 21
-35.11430982895416
 31
0.0
  0
LINE
  5
21E
330
1F
100
AcDbEntity
  8
A-0_通り芯
  6
Continuous
 62
     3
370
     9
100
AcDbLine
 10
-441.6365858781259
 20
-41.11428013617547
 30
0.0
 11
-437.3938342153302
 21
-41.11428013617547
 31
0.0
  0
LINE
  5
21F
330
1F
100
AcDbEntity
  8
A-0_通り芯
  6
Continuous
 62
     3
370
     9
100
AcDbLine
 10
-451.8793078481427
 20
-41.11428013617547
 30
0.0
 11
-445.8792385649923
 21
-41.11428013617547
 31
0.0
  0
LINE
  5
220
330
1F
100
AcDbEntity
  8
A-0_通り芯
  6
Continuous
 62
     3
370
     9
100
AcDbLine
 10
-441.6365858781259
 20
-41.11428013617547
 30
0.0
 11
-448.6365099965802
 21
-34.11425704179197
 31
0.0
  0
LINE
  5
221
330
1F
100
AcDbEntity
  8
A-0_通り芯
  6
Continuous
 62
     3
370
     9
100
AcDbLine
 10
-437.3938342153302
 20
-41.11428013617547
 30
0.0
 11
-444.3939067976781
 21
-34.11425704179197
 31
0.0
  0
LINE
  5
222
330
1F
100
AcDbEntity
  8
A-0_通り芯
  6
Continuous
 62
     3
370
     9
100
AcDbLine
 10
-435.879205573016
 20
-38.38625609162307
 30
0.0
 11
-440.1512541108116
 21
-34.11425704179197
 31
0.0
  0
LINE
  5
223
330
1F
100
AcDbEntity
  8
A-0_通り芯
  6
Continuous
 62
     3
370
     9
100
AcDbLine
 10
-429.8792352657947
 20
-27.11423394740854
 30
0.0
 11
-429.8792352657947
 21
-33.1143032305589
 31
0.0
  0
LINE
  5
224
330
1F
100
AcDbEntity
  8
A-0_通り芯
  6
Continuous
 62
     3
370
     9
100
AcDbLine
 10
-423.8791659826444
 20
-27.11423394740854
 30
0.0
 11
-429.8792352657947
 21
-33.1143032305589
 31
0.0
  0
LINE
  5
225
330
1F
100
AcDbEntity
  8
A-0_通り芯
  6
Continuous
 62
     3
370
     9
100
AcDbLine
 10
-419.6365132957777
 20
-27.11423394740854
 30
0.0
 11
-415.3939100968757
 21
-27.11423394740854
 31
0.0
  0
LINE
  5
226
330
1F
100
AcDbEntity
  8
A-0_通り芯
  6
Continuous
 62
     3
370
     9
100
AcDbLine
 10
-429.8792352657947
 20
-27.11423394740854
 30
0.0
 11
-423.8791659826444
 21
-27.11423394740854
 31
0.0
  0
LINE
  5
227
330
1F
100
AcDbEntity
  8
A-0_通り芯
  6
Continuous
 62
     3
370
     9
100
AcDbLine
 10
-419.6365132957777
 20
-27.11423394740854
 30
0.0
 11
-426.6365858781257
 21
-34.11425704179197
 31
0.0
  0
LINE
  5
228
330
1F
100
AcDbEntity
  8
A-0_通り芯
  6
Continuous
 62
     3
370
     9
100
AcDbLine
 10
-415.3939100968757
 20
-27.11423394740854
 30
0.0
 11
-422.3938837032947
 21
-34.11425704179197
 31
0.0
  0
LINE
  5
229
330
1F
100
AcDbEntity
  8
A-0_通り芯
  6
Continuous
 62
     3
370
     9
100
AcDbLine
 10
-413.8792814545616
 20
-29.84220850399635
 30
0.0
 11
-418.1512805043927
 21
-34.11425704179197
 31
0.0
  0
LINE
  5
22A
330
1F
100
AcDbEntity
  8
A-0_通り芯
  6
Continuous
 62
     3
370
     9
100
AcDbLine
 10
-413.8792814545616
 20
-29.84220850399635
 30
0.0
 11
-413.8792814545616
 21
-38.38625609162307
 31
0.0
  0
LINE
  5
22B
330
1F
100
AcDbEntity
  8
A-0_通り芯
  6
Continuous
 62
     3
370
     9
100
AcDbLine
 10
-429.8792352657947
 20
-41.11428013617547
 30
0.0
 11
-429.8792352657947
 21
-35.11430982895416
 31
0.0
  0
LINE
  5
22C
330
1F
100
AcDbEntity
  8
A-0_通り芯
  6
Continuous
 62
     3
370
     9
100
AcDbLine
 10
-423.8791659826444
 20
-41.11428013617547
 30
0.0
 11
-429.8792352657947
 21
-35.11430982895416
 31
0.0
  0
LINE
  5
22D
330
1F
100
AcDbEntity
  8
A-0_通り芯
  6
Continuous
 62
     3
370
     9
100
AcDbLine
 10
-419.6365132957777
 20
-41.11428013617547
 30
0.0
 11
-415.3939100968757
 21
-41.11428013617547
 31
0.0
  0
LINE
  5
22E
330
1F
100
AcDbEntity
  8
A-0_通り芯
  6
Continuous
 62
     3
370
     9
100
AcDbLine
 10
-429.8792352657947
 20
-41.11428013617547
 30
0.0
 11
-423.8791659826444
 21
-41.11428013617547
 31
0.0
  0
LINE
  5
22F
330
1F
100
AcDbEntity
  8
A-0_通り芯
  6
Continuous
 62
     3
370
     9
100
AcDbLine
 10
-419.6365132957777
 20
-41.11428013617547
 30
0.0
 11
-426.6365858781257
 21
-34.11425704179197
 31
0.0
  0
LINE
  5
230
330
1F
100
AcDbEntity
  8
A-0_通り芯
  6
Continuous
 62
     3
370
     9
100
AcDbLine
 10
-415.3939100968757
 20
-41.11428013617547
 30
0.0
 11
-422.3938837032947
 21
-34.11425704179197
 31
0.0
  0
LINE
  5
231
330
1F
100
AcDbEntity
  8
A-0_通り芯
  6
Continuous
 62
     3
370
     9
100
AcDbLine
 10
-413.8792814545616
 20
-38.38625609162307
 30
0.0
 11
-418.1512805043927
 21
-34.11425704179197
 31
0.0
  0
LINE
  5
232
330
1F
100
AcDbEntity
  8
A-0_通り芯
  6
Continuous
 62
     3
370
     9
100
AcDbLine
 10
-407.8792121714113
 20
-27.11423394740854
 30
0.0
 11
-407.8792121714113
 21
-33.1143032305589
 31
0.0
  0
LINE
  5
233
330
1F
100
AcDbEntity
  8
A-0_通り芯
  6
Continuous
 62
     3
370
     9
100
AcDbLine
 10
-401.87924186419
 20
-27.11423394740854
 30
0.0
 11
-407.8792121714113
 21
-33.1143032305589
 31
0.0
  0
LINE
  5
234
330
1F
100
AcDbEntity
  8
A-0_通り芯
  6
Continuous
 62
     3
370
     9
100
AcDbLine
 10
-397.6365891773233
 20
-27.11423394740854
 30
0.0
 11
-393.3939364904569
 21
-27.11423394740854
 31
0.0
  0
LINE
  5
235
330
1F
100
AcDbEntity
  8
A-0_通り芯
  6
Continuous
 62
     3
370
     9
100
AcDbLine
 10
-407.8792121714113
 20
-27.11423394740854
 30
0.0
 11
-401.87924186419
 21
-27.11423394740854
 31
0.0
  0
LINE
  5
236
330
1F
100
AcDbEntity
  8
A-0_通り芯
  6
Continuous
 62
     3
370
     9
100
AcDbLine
 10
-397.6365891773233
 20
-27.11423394740854
 30
0.0
 11
-404.6366122717069
 21
-34.11425704179197
 31
0.0
  0
LINE
  5
237
330
1F
100
AcDbEntity
  8
A-0_通り芯
  6
Continuous
 62
     3
370
     9
100
AcDbLine
 10
-393.3939364904569
 20
-27.11423394740854
 30
0.0
 11
-400.3939100968757
 21
-34.11425704179197
 31
0.0
  0
LINE
  5
238
330
1F
100
AcDbEntity
  8
A-0_通り芯
  6
Continuous
 62
     3
370
     9
100
AcDbLine
 10
-391.8792583601781
 20
-29.84220850399635
 30
0.0
 11
-396.1512574100092
 21
-34.11425704179197
 31
0.0
  0
LINE
  5
239
330
1F
100
AcDbEntity
  8
A-0_通り芯
  6
Continuous
 62
     3
370
     9
100
AcDbLine
 10
-391.8792583601781
 20
-29.84220850399635
 30
0.0
 11
-391.8792583601781
 21
-38.38625609162307
 31
0.0
  0
LINE
  5
23A
330
1F
100
AcDbEntity
  8
A-0_通り芯
  6
Continuous
 62
     3
370
     9
100
AcDbLine
 10
-407.8792121714113
 20
-41.11428013617547
 30
0.0
 11
-407.8792121714113
 21
-35.11430982895416
 31
0.0
  0
LINE
  5
23B
330
1F
100
AcDbEntity
  8
A-0_通り芯
  6
Continuous
 62
     3
370
     9
100
AcDbLine
 10
-401.87924186419
 20
-41.11428013617547
 30
0.0
 11
-407.8792121714113
 21
-35.11430982895416
 31
0.0
  0
LINE
  5
23C
330
1F
100
AcDbEntity
  8
A-0_通り芯
  6
Continuous
 62
     3
370
     9
100
AcDbLine
 10
-397.6365891773233
 20
-41.11428013617547
 30
0.0
 11
-393.3939364904569
 21
-41.11428013617547
 31
0.0
  0
LINE
  5
23D
330
1F
100
AcDbEntity
  8
A-0_通り芯
  6
Continuous
 62
     3
370
     9
100
AcDbLine
 10
-407.8792121714113
 20
-41.11428013617547
 30
0.0
 11
-401.87924186419
 21
-41.11428013617547
 31
0.0
  0
LINE
  5
23E
330
1F
100
AcDbEntity
  8
A-0_通り芯
  6
Continuous
 62
     3
370
     9
100
AcDbLine
 10
-397.6365891773233
 20
-41.11428013617547
 30
0.0
 11
-404.6366122717069
 21
-34.11425704179197
 31
0.0
  0
LINE
  5
23F
330
1F
100
AcDbEntity
  8
A-0_通り芯
  6
Continuous
 62
     3
370
     9
100
AcDbLine
 10
-393.3939364904569
 20
-41.11428013617547
 30
0.0
 11
-400.3939100968757
 21
-34.11425704179197
 31
0.0
  0
LINE
  5
240
330
1F
100
AcDbEntity
  8
A-0_通り芯
  6
Continuous
 62
     3
370
     9
100
AcDbLine
 10
-391.8792583601781
 20
-38.38625609162307
 30
0.0
 11
-396.1512574100092
 21
-34.11425704179197
 31
0.0
  0
LINE
  5
241
330
1F
100
AcDbEntity
  8
A-0_通り芯
  6
Continuous
 62
     3
370
     9
100
AcDbLine
 10
-385.8792880529569
 20
-27.11423394740854
 30
0.0
 11
-385.8792880529569
 21
-33.1143032305589
 31
0.0
  0
LINE
  5
242
330
1F
100
AcDbEntity
  8
A-0_通り芯
  6
Continuous
 62
     3
370
     9
100
AcDbLine
 10
-379.8792682577711
 20
-27.11423394740854
 30
0.0
 11
-385.8792880529569
 21
-33.1143032305589
 31
0.0
  0
LINE
  5
243
330
1F
100
AcDbEntity
  8
A-0_通り芯
  6
Continuous
 62
     3
370
     9
100
AcDbLine
 10
-375.63656608294
 20
-27.11423394740854
 30
0.0
 11
-371.3939133960733
 21
-27.11423394740854
 31
0.0
  0
LINE
  5
244
330
1F
100
AcDbEntity
  8
A-0_通り芯
  6
Continuous
 62
     3
370
     9
100
AcDbLine
 10
-385.8792880529569
 20
-27.11423394740854
 30
0.0
 11
-379.8792682577711
 21
-27.11423394740854
 31
0.0
  0
LINE
  5
245
330
1F
100
AcDbEntity
  8
A-0_通り芯
  6
Continuous
 62
     3
370
     9
100
AcDbLine
 10
-375.63656608294
 20
-27.11423394740854
 30
0.0
 11
-382.6365891773233
 21
-34.11425704179197
 31
0.0
  0
LINE
  5
246
330
1F
100
AcDbEntity
  8
A-0_通り芯
  6
Continuous
 62
     3
370
     9
100
AcDbLine
 10
-371.3939133960733
 20
-27.11423394740854
 30
0.0
 11
-378.3939364904569
 21
-34.11425704179197
 31
0.0
  0
LINE
  5
247
330
1F
100
AcDbEntity
  8
A-0_通り芯
  6
Continuous
 62
     3
370
     9
100
AcDbLine
 10
-369.8792352657946
 20
-29.84220850399635
 30
0.0
 11
-374.1511848276613
 21
-34.11425704179197
 31
0.0
  0
LINE
  5
248
330
1F
100
AcDbEntity
  8
A-0_通り芯
  6
Continuous
 62
     3
370
     9
100
AcDbLine
 10
-369.8792352657946
 20
-29.84220850399635
 30
0.0
 11
-369.8792352657946
 21
-38.38625609162307
 31
0.0
  0
LINE
  5
249
330
1F
100
AcDbEntity
  8
A-0_通り芯
  6
Continuous
 62
     3
370
     9
100
AcDbLine
 10
-385.8792880529569
 20
-41.11428013617547
 30
0.0
 11
-385.8792880529569
 21
-35.11430982895416
 31
0.0
  0
LINE
  5
24A
330
1F
100
AcDbEntity
  8
A-0_通り芯
  6
Continuous
 62
     3
370
     9
100
AcDbLine
 10
-379.8792682577711
 20
-41.11428013617547
 30
0.0
 11
-385.8792880529569
 21
-35.11430982895416
 31
0.0
  0
LINE
  5
24B
330
1F
100
AcDbEntity
  8
A-0_通り芯
  6
Continuous
 62
     3
370
     9
100
AcDbLine
 10
-375.63656608294
 20
-41.11428013617547
 30
0.0
 11
-371.3939133960733
 21
-41.11428013617547
 31
0.0
  0
LINE
  5
24C
330
1F
100
AcDbEntity
  8
A-0_通り芯
  6
Continuous
 62
     3
370
     9
100
AcDbLine
 10
-385.8792880529569
 20
-41.11428013617547
 30
0.0
 11
-379.8792682577711
 21
-41.11428013617547
 31
0.0
  0
LINE
  5
24D
330
1F
100
AcDbEntity
  8
A-0_通り芯
  6
Continuous
 62
     3
370
     9
100
AcDbLine
 10
-375.63656608294
 20
-41.11428013617547
 30
0.0
 11
-382.6365891773233
 21
-34.11425704179197
 31
0.0
  0
LINE
  5
24E
330
1F
100
AcDbEntity
  8
A-0_通り芯
  6
Continuous
 62
     3
370
     9
100
AcDbLine
 10
-371.3939133960733
 20
-41.11428013617547
 30
0.0
 11
-378.3939364904569
 21
-34.11425704179197
 31
0.0
  0
LINE
  5
24F
330
1F
100
AcDbEntity
  8
A-0_通り芯
  6
Continuous
 62
     3
370
     9
100
AcDbLine
 10
-369.8792352657946
 20
-38.38625609162307
 30
0.0
 11
-374.1511848276613
 21
-34.11425704179197
 31
0.0
  0
LINE
  5
250
330
1F
100
AcDbEntity
  8
A-0_通り芯
  6
Continuous
 62
     3
370
     9
100
AcDbLine
 10
-472.3645043483538
 20
0.5106901710458374
 30
0.0
 11
-468.1219011494518
 21
0.5106901710458374
 31
0.0
  0
LINE
  5
251
330
1F
100
AcDbEntity
  8
A-0_通り芯
  6
Continuous
 62
     3
370
     9
100
AcDbLine
 10
-473.8792814545616
 20
-10.76128248520416
 30
0.0
 11
-473.8792814545616
 21
-2.217284385541973
 31
0.0
  0
LINE
  5
252
330
1F
100
AcDbEntity
  8
A-0_通り芯
  6
Continuous
 62
     3
370
     9
100
AcDbLine
 10
-463.8792484625852
 20
0.5106901710458374
 30
0.0
 11
-457.879278155364
 21
0.5106901710458374
 31
0.0
  0
LINE
  5
253
330
1F
100
AcDbEntity
  8
A-0_通り芯
  6
Continuous
 62
     3
370
     9
100
AcDbLine
 10
-463.8792484625852
 20
0.5106901710458374
 30
0.0
 11
-457.879278155364
 21
-5.489329624139998
 31
0.0
  0
LINE
  5
254
330
1F
100
AcDbEntity
  8
A-0_通り芯
  6
Continuous
 62
     3
370
     9
100
AcDbLine
 10
-457.879278155364
 20
-5.489329624139998
 30
0.0
 11
-457.879278155364
 21
0.5106901710458374
 31
0.0
  0
LINE
  5
255
330
1F
100
AcDbEntity
  8
A-0_通り芯
  6
Continuous
 62
     3
370
     9
100
AcDbLine
 10
-468.1219011494518
 20
0.5106901710458374
 30
0.0
 11
-461.1218285671038
 21
-6.489332923337599
 31
0.0
  0
LINE
  5
256
330
1F
100
AcDbEntity
  8
A-0_通り芯
  6
Continuous
 62
     3
370
     9
100
AcDbLine
 10
-472.3645043483538
 20
0.5106901710458374
 30
0.0
 11
-465.364629717864
 21
-6.489332923337599
 31
0.0
  0
LINE
  5
257
330
1F
100
AcDbEntity
  8
A-0_通り芯
  6
Continuous
 62
     3
370
     9
100
AcDbLine
 10
-473.8792814545616
 20
-2.217284385541973
 30
0.0
 11
-469.607232916766
 21
-6.489332923337599
 31
0.0
  0
LINE
  5
258
330
1F
100
AcDbEntity
  8
A-0_通り芯
  6
Continuous
 62
     3
370
     9
100
AcDbLine
 10
-472.3645043483538
 20
-13.4892075538275
 30
0.0
 11
-468.1219011494518
 21
-13.4892075538275
 31
0.0
  0
LINE
  5
259
330
1F
100
AcDbEntity
  8
A-0_通り芯
  6
Continuous
 62
     3
370
     9
100
AcDbLine
 10
-463.8792484625852
 20
-13.4892075538275
 30
0.0
 11
-457.879278155364
 21
-13.4892075538275
 31
0.0
  0
LINE
  5
25A
330
1F
100
AcDbEntity
  8
A-0_通り芯
  6
Continuous
 62
     3
370
     9
100
AcDbLine
 10
-463.8792484625852
 20
-13.4892075538275
 30
0.0
 11
-457.879278155364
 21
-7.489286734570726
 31
0.0
  0
LINE
  5
25B
330
1F
100
AcDbEntity
  8
A-0_通り芯
  6
Continuous
 62
     3
370
     9
100
AcDbLine
 10
-457.879278155364
 20
-7.489286734570726
 30
0.0
 11
-457.879278155364
 21
-13.4892075538275
 31
0.0
  0
LINE
  5
25C
330
1F
100
AcDbEntity
  8
A-0_通り芯
  6
Continuous
 62
     3
370
     9
100
AcDbLine
 10
-468.1219011494518
 20
-13.4892075538275
 30
0.0
 11
-461.1218285671038
 21
-6.489332923337599
 31
0.0
  0
LINE
  5
25D
330
1F
100
AcDbEntity
  8
A-0_通り芯
  6
Continuous
 62
     3
370
     9
100
AcDbLine
 10
-472.3645043483538
 20
-13.4892075538275
 30
0.0
 11
-465.364629717864
 21
-6.489332923337599
 31
0.0
  0
LINE
  5
25E
330
1F
100
AcDbEntity
  8
A-0_通り芯
  6
Continuous
 62
     3
370
     9
100
AcDbLine
 10
-473.8792814545616
 20
-10.76128248520416
 30
0.0
 11
-469.607232916766
 21
-6.489332923337599
 31
0.0
  0
LINE
  5
25F
330
1F
100
AcDbEntity
  8
A-0_通り芯
  6
Continuous
 62
     3
370
     9
100
AcDbLine
 10
-450.3645802298994
 20
0.5106901710458374
 30
0.0
 11
-446.1219275430329
 21
0.5106901710458374
 31
0.0
  0
LINE
  5
260
330
1F
100
AcDbEntity
  8
A-0_通り芯
  6
Continuous
 62
     3
370
     9
100
AcDbLine
 10
-451.8793078481427
 20
-10.76128248520416
 30
0.0
 11
-451.8793078481427
 21
-2.217284385541973
 31
0.0
  0
LINE
  5
261
330
1F
100
AcDbEntity
  8
A-0_通り芯
  6
Continuous
 62
     3
370
     9
100
AcDbLine
 10
-441.8792748561663
 20
0.5106901710458374
 30
0.0
 11
-435.879205573016
 21
0.5106901710458374
 31
0.0
  0
LINE
  5
262
330
1F
100
AcDbEntity
  8
A-0_通り芯
  6
Continuous
 62
     3
370
     9
100
AcDbLine
 10
-441.8792748561663
 20
0.5106901710458374
 30
0.0
 11
-435.879205573016
 21
-5.489329624139998
 31
0.0
  0
LINE
  5
263
330
1F
100
AcDbEntity
  8
A-0_通り芯
  6
Continuous
 62
     3
370
     9
100
AcDbLine
 10
-435.879205573016
 20
-5.489329624139998
 30
0.0
 11
-435.879205573016
 21
0.5106901710458374
 31
0.0
  0
LINE
  5
264
330
1F
100
AcDbEntity
  8
A-0_通り芯
  6
Continuous
 62
     3
370
     9
100
AcDbLine
 10
-446.1219275430329
 20
0.5106901710458374
 30
0.0
 11
-439.1219044486494
 21
-6.489332923337599
 31
0.0
  0
LINE
  5
265
330
1F
100
AcDbEntity
  8
A-0_通り芯
  6
Continuous
 62
     3
370
     9
100
AcDbLine
 10
-450.3645802298994
 20
0.5106901710458374
 30
0.0
 11
-443.364557135516
 21
-6.489332923337599
 31
0.0
  0
LINE
  5
266
330
1F
100
AcDbEntity
  8
A-0_通り芯
  6
Continuous
 62
     3
370
     9
100
AcDbLine
 10
-451.8793078481427
 20
-2.217284385541973
 30
0.0
 11
-447.6071603344179
 21
-6.489332923337599
 31
0.0
  0
LINE
  5
267
330
1F
100
AcDbEntity
  8
A-0_通り芯
  6
Continuous
 62
     3
370
     9
100
AcDbLine
 10
-450.3645802298994
 20
-13.4892075538275
 30
0.0
 11
-446.1219275430329
 21
-13.4892075538275
 31
0.0
  0
LINE
  5
268
330
1F
100
AcDbEntity
  8
A-0_通り芯
  6
Continuous
 62
     3
370
     9
100
AcDbLine
 10
-441.8792748561663
 20
-13.4892075538275
 30
0.0
 11
-435.879205573016
 21
-13.4892075538275
 31
0.0
  0
LINE
  5
269
330
1F
100
AcDbEntity
  8
A-0_通り芯
  6
Continuous
 62
     3
370
     9
100
AcDbLine
 10
-441.8792748561663
 20
-13.4892075538275
 30
0.0
 11
-435.879205573016
 21
-7.489286734570726
 31
0.0
  0
LINE
  5
26A
330
1F
100
AcDbEntity
  8
A-0_通り芯
  6
Continuous
 62
     3
370
     9
100
AcDbLine
 10
-435.879205573016
 20
-7.489286734570726
 30
0.0
 11
-435.879205573016
 21
-13.4892075538275
 31
0.0
  0
LINE
  5
26B
330
1F
100
AcDbEntity
  8
A-0_通り芯
  6
Continuous
 62
     3
370
     9
100
AcDbLine
 10
-446.1219275430329
 20
-13.4892075538275
 30
0.0
 11
-439.1219044486494
 21
-6.489332923337599
 31
0.0
  0
LINE
  5
26C
330
1F
100
AcDbEntity
  8
A-0_通り芯
  6
Continuous
 62
     3
370
     9
100
AcDbLine
 10
-450.3645802298994
 20
-13.4892075538275
 30
0.0
 11
-443.364557135516
 21
-6.489332923337599
 31
0.0
  0
LINE
  5
26D
330
1F
100
AcDbEntity
  8
A-0_通り芯
  6
Continuous
 62
     3
370
     9
100
AcDbLine
 10
-451.8793078481427
 20
-10.76128248520416
 30
0.0
 11
-447.6071603344179
 21
-6.489332923337599
 31
0.0
  0
LINE
  5
26E
330
1F
100
AcDbEntity
  8
A-0_通り芯
  6
Continuous
 62
     3
370
     9
100
AcDbLine
 10
-428.3646066234804
 20
0.5106901710458374
 30
0.0
 11
-424.1220034245785
 21
0.5106901710458374
 31
0.0
  0
LINE
  5
26F
330
1F
100
AcDbEntity
  8
A-0_通り芯
  6
Continuous
 62
     3
370
     9
100
AcDbLine
 10
-429.8792352657947
 20
-10.76128248520416
 30
0.0
 11
-429.8792352657947
 21
-2.217284385541973
 31
0.0
  0
LINE
  5
270
330
1F
100
AcDbEntity
  8
A-0_通り芯
  6
Continuous
 62
     3
370
     9
100
AcDbLine
 10
-419.8792517617829
 20
0.5106901710458374
 30
0.0
 11
-413.8792814545616
 21
0.5106901710458374
 31
0.0
  0
LINE
  5
271
330
1F
100
AcDbEntity
  8
A-0_通り芯
  6
Continuous
 62
     3
370
     9
100
AcDbLine
 10
-419.8792517617829
 20
0.5106901710458374
 30
0.0
 11
-413.8792814545616
 21
-5.489329624139998
 31
0.0
  0
LINE
  5
272
330
1F
100
AcDbEntity
  8
A-0_通り芯
  6
Continuous
 62
     3
370
     9
100
AcDbLine
 10
-413.8792814545616
 20
-5.489329624139998
 30
0.0
 11
-413.8792814545616
 21
0.5106901710458374
 31
0.0
  0
LINE
  5
273
330
1F
100
AcDbEntity
  8
A-0_通り芯
  6
Continuous
 62
     3
370
     9
100
AcDbLine
 10
-424.1220034245785
 20
0.5106901710458374
 30
0.0
 11
-417.1219308422304
 21
-6.489332923337599
 31
0.0
  0
LINE
  5
274
330
1F
100
AcDbEntity
  8
A-0_通り芯
  6
Continuous
 62
     3
370
     9
100
AcDbLine
 10
-428.3646066234804
 20
0.5106901710458374
 30
0.0
 11
-421.3646330170616
 21
-6.489332923337599
 31
0.0
  0
LINE
  5
275
330
1F
100
AcDbEntity
  8
A-0_通り芯
  6
Continuous
 62
     3
370
     9
100
AcDbLine
 10
-429.8792352657947
 20
-2.217284385541973
 30
0.0
 11
-425.6072857039281
 21
-6.489332923337599
 31
0.0
  0
LINE
  5
276
330
1F
100
AcDbEntity
  8
A-0_通り芯
  6
Continuous
 62
     3
370
     9
100
AcDbLine
 10
-428.3646066234804
 20
-13.4892075538275
 30
0.0
 11
-424.1220034245785
 21
-13.4892075538275
 31
0.0
  0
LINE
  5
277
330
1F
100
AcDbEntity
  8
A-0_通り芯
  6
Continuous
 62
     3
370
     9
100
AcDbLine
 10
-419.8792517617829
 20
-13.4892075538275
 30
0.0
 11
-413.8792814545616
 21
-13.4892075538275
 31
0.0
  0
LINE
  5
278
330
1F
100
AcDbEntity
  8
A-0_通り芯
  6
Continuous
 62
     3
370
     9
100
AcDbLine
 10
-419.8792517617829
 20
-13.4892075538275
 30
0.0
 11
-413.8792814545616
 21
-7.489286734570726
 31
0.0
  0
LINE
  5
279
330
1F
100
AcDbEntity
  8
A-0_通り芯
  6
Continuous
 62
     3
370
     9
100
AcDbLine
 10
-413.8792814545616
 20
-7.489286734570726
 30
0.0
 11
-413.8792814545616
 21
-13.4892075538275
 31
0.0
  0
LINE
  5
27A
330
1F
100
AcDbEntity
  8
A-0_通り芯
  6
Continuous
 62
     3
370
     9
100
AcDbLine
 10
-424.1220034245785
 20
-13.4892075538275
 30
0.0
 11
-417.1219308422304
 21
-6.489332923337599
 31
0.0
  0
LINE
  5
27B
330
1F
100
AcDbEntity
  8
A-0_通り芯
  6
Continuous
 62
     3
370
     9
100
AcDbLine
 10
-428.3646066234804
 20
-13.4892075538275
 30
0.0
 11
-421.3646330170616
 21
-6.489332923337599
 31
0.0
  0
LINE
  5
27C
330
1F
100
AcDbEntity
  8
A-0_通り芯
  6
Continuous
 62
     3
370
     9
100
AcDbLine
 10
-429.8792352657947
 20
-10.76128248520416
 30
0.0
 11
-425.6072857039281
 21
-6.489332923337599
 31
0.0
  0
LINE
  5
27D
330
1F
100
AcDbEntity
  8
A-0_通り芯
  6
Continuous
 62
     3
370
     9
100
AcDbLine
 10
-406.3645835290971
 20
0.5106901710458374
 30
0.0
 11
-402.121980330195
 21
0.5106901710458374
 31
0.0
  0
LINE
  5
27E
330
1F
100
AcDbEntity
  8
A-0_通り芯
  6
Continuous
 62
     3
370
     9
100
AcDbLine
 10
-407.8792121714113
 20
-10.76128248520416
 30
0.0
 11
-407.8792121714113
 21
-2.217284385541973
 31
0.0
  0
LINE
  5
27F
330
1F
100
AcDbEntity
  8
A-0_通り芯
  6
Continuous
 62
     3
370
     9
100
AcDbLine
 10
-397.8791791794349
 20
0.5106901710458374
 30
0.0
 11
-391.8792583601781
 21
0.5106901710458374
 31
0.0
  0
LINE
  5
280
330
1F
100
AcDbEntity
  8
A-0_通り芯
  6
Continuous
 62
     3
370
     9
100
AcDbLine
 10
-397.8791791794349
 20
0.5106901710458374
 30
0.0
 11
-391.8792583601781
 21
-5.489329624139998
 31
0.0
  0
LINE
  5
281
330
1F
100
AcDbEntity
  8
A-0_通り芯
  6
Continuous
 62
     3
370
     9
100
AcDbLine
 10
-391.8792583601781
 20
-5.489329624139998
 30
0.0
 11
-391.8792583601781
 21
0.5106901710458374
 31
0.0
  0
LINE
  5
282
330
1F
100
AcDbEntity
  8
A-0_通り芯
  6
Continuous
 62
     3
370
     9
100
AcDbLine
 10
-402.121980330195
 20
0.5106901710458374
 30
0.0
 11
-395.1219077478471
 21
-6.489332923337599
 31
0.0
  0
LINE
  5
283
330
1F
100
AcDbEntity
  8
A-0_通り芯
  6
Continuous
 62
     3
370
     9
100
AcDbLine
 10
-406.3645835290971
 20
0.5106901710458374
 30
0.0
 11
-399.3646594106427
 21
-6.489332923337599
 31
0.0
  0
LINE
  5
284
330
1F
100
AcDbEntity
  8
A-0_通り芯
  6
Continuous
 62
     3
370
     9
100
AcDbLine
 10
-407.8792121714113
 20
-2.217284385541973
 30
0.0
 11
-403.6072626095447
 21
-6.489332923337599
 31
0.0
  0
LINE
  5
285
330
1F
100
AcDbEntity
  8
A-0_通り芯
  6
Continuous
 62
     3
370
     9
100
AcDbLine
 10
-406.3645835290971
 20
-13.4892075538275
 30
0.0
 11
-402.121980330195
 21
-13.4892075538275
 31
0.0
  0
LINE
  5
286
330
1F
100
AcDbEntity
  8
A-0_通り芯
  6
Continuous
 62
     3
370
     9
100
AcDbLine
 10
-397.8791791794349
 20
-13.4892075538275
 30
0.0
 11
-391.8792583601781
 21
-13.4892075538275
 31
0.0
  0
LINE
  5
287
330
1F
100
AcDbEntity
  8
A-0_通り芯
  6
Continuous
 62
     3
370
     9
100
AcDbLine
 10
-397.8791791794349
 20
-13.4892075538275
 30
0.0
 11
-391.8792583601781
 21
-7.489286734570726
 31
0.0
  0
LINE
  5
288
330
1F
100
AcDbEntity
  8
A-0_通り芯
  6
Continuous
 62
     3
370
     9
100
AcDbLine
 10
-391.8792583601781
 20
-7.489286734570726
 30
0.0
 11
-391.8792583601781
 21
-13.4892075538275
 31
0.0
  0
LINE
  5
289
330
1F
100
AcDbEntity
  8
A-0_通り芯
  6
Continuous
 62
     3
370
     9
100
AcDbLine
 10
-402.121980330195
 20
-13.4892075538275
 30
0.0
 11
-395.1219077478471
 21
-6.489332923337599
 31
0.0
  0
LINE
  5
28A
330
1F
100
AcDbEntity
  8
A-0_通り芯
  6
Continuous
 62
     3
370
     9
100
AcDbLine
 10
-406.3645835290971
 20
-13.4892075538275
 30
0.0
 11
-399.3646594106427
 21
-6.489332923337599
 31
0.0
  0
LINE
  5
28B
330
1F
100
AcDbEntity
  8
A-0_通り芯
  6
Continuous
 62
     3
370
     9
100
AcDbLine
 10
-407.8792121714113
 20
-10.76128248520416
 30
0.0
 11
-403.6072626095447
 21
-6.489332923337599
 31
0.0
  0
LINE
  5
28C
330
1F
100
AcDbEntity
  8
A-0_通り芯
  6
Continuous
 62
     3
370
     9
100
AcDbLine
 10
-473.8792814545616
 20
22.01073635981271
 30
0.0
 11
-473.8792814545616
 21
28.01070666703407
 31
0.0
  0
LINE
  5
28D
330
1F
100
AcDbEntity
  8
A-0_通り芯
  6
Continuous
 62
     3
370
     9
100
AcDbLine
 10
-473.8792814545616
 20
22.01073635981271
 30
0.0
 11
-467.8792616593759
 21
28.01070666703407
 31
0.0
  0
LINE
  5
28E
330
1F
100
AcDbEntity
  8
A-0_通り芯
  6
Continuous
 62
     3
370
     9
100
AcDbLine
 10
-463.6365594845447
 20
28.01070666703407
 30
0.0
 11
-459.3939067976781
 21
28.01070666703407
 31
0.0
  0
LINE
  5
28F
330
1F
100
AcDbEntity
  8
A-0_通り芯
  6
Continuous
 62
     3
370
     9
100
AcDbLine
 10
-473.8792814545616
 20
28.01070666703407
 30
0.0
 11
-467.8792616593759
 21
28.01070666703407
 31
0.0
  0
LINE
  5
290
330
1F
100
AcDbEntity
  8
A-0_通り芯
  6
Continuous
 62
     3
370
     9
100
AcDbLine
 10
-470.6365825789281
 20
21.01083203654417
 30
0.0
 11
-463.6365594845447
 21
28.01070666703407
 31
0.0
  0
LINE
  5
291
330
1F
100
AcDbEntity
  8
A-0_通り芯
  6
Continuous
 62
     3
370
     9
100
AcDbLine
 10
-466.3939298920616
 20
21.01083203654417
 30
0.0
 11
-459.3939067976781
 21
28.01070666703407
 31
0.0
  0
LINE
  5
292
330
1F
100
AcDbEntity
  8
A-0_通り芯
  6
Continuous
 62
     3
370
     9
100
AcDbLine
 10
-462.151178229266
 20
21.01083203654417
 30
0.0
 11
-457.879278155364
 21
25.28268262248167
 31
0.0
  0
LINE
  5
293
330
1F
100
AcDbEntity
  8
A-0_通り芯
  6
Continuous
 62
     3
370
     9
100
AcDbLine
 10
-457.879278155364
 20
16.73878349874855
 30
0.0
 11
-457.879278155364
 21
25.28268262248167
 31
0.0
  0
LINE
  5
294
330
1F
100
AcDbEntity
  8
A-0_通り芯
  6
Continuous
 62
     3
370
     9
100
AcDbLine
 10
-473.8792814545616
 20
20.01072976141751
 30
0.0
 11
-473.8792814545616
 21
14.01075945419615
 31
0.0
  0
LINE
  5
295
330
1F
100
AcDbEntity
  8
A-0_通り芯
  6
Continuous
 62
     3
370
     9
100
AcDbLine
 10
-473.8792814545616
 20
20.01072976141751
 30
0.0
 11
-467.8792616593759
 21
14.01075945419615
 31
0.0
  0
LINE
  5
296
330
1F
100
AcDbEntity
  8
A-0_通り芯
  6
Continuous
 62
     3
370
     9
100
AcDbLine
 10
-463.6365594845447
 20
14.01075945419615
 30
0.0
 11
-459.3939067976781
 21
14.01075945419615
 31
0.0
  0
LINE
  5
297
330
1F
100
AcDbEntity
  8
A-0_通り芯
  6
Continuous
 62
     3
370
     9
100
AcDbLine
 10
-473.8792814545616
 20
14.01075945419615
 30
0.0
 11
-467.8792616593759
 21
14.01075945419615
 31
0.0
  0
LINE
  5
298
330
1F
100
AcDbEntity
  8
A-0_通り芯
  6
Continuous
 62
     3
370
     9
100
AcDbLine
 10
-470.6365825789281
 20
21.01083203654417
 30
0.0
 11
-463.6365594845447
 21
14.01075945419615
 31
0.0
  0
LINE
  5
299
330
1F
100
AcDbEntity
  8
A-0_通り芯
  6
Continuous
 62
     3
370
     9
100
AcDbLine
 10
-466.3939298920616
 20
21.01083203654417
 30
0.0
 11
-459.3939067976781
 21
14.01075945419615
 31
0.0
  0
LINE
  5
29A
330
1F
100
AcDbEntity
  8
A-0_通り芯
  6
Continuous
 62
     3
370
     9
100
AcDbLine
 10
-462.151178229266
 20
21.01083203654417
 30
0.0
 11
-457.879278155364
 21
16.73878349874855
 31
0.0
  0
LINE
  5
29B
330
1F
100
AcDbEntity
  8
A-0_通り芯
  6
Continuous
 62
     3
370
     9
100
AcDbLine
 10
-451.8793078481427
 20
22.01073635981271
 30
0.0
 11
-451.8793078481427
 21
28.01070666703407
 31
0.0
  0
LINE
  5
29C
330
1F
100
AcDbEntity
  8
A-0_通り芯
  6
Continuous
 62
     3
370
     9
100
AcDbLine
 10
-451.8793078481427
 20
22.01073635981271
 30
0.0
 11
-445.8792385649923
 21
28.01070666703407
 31
0.0
  0
LINE
  5
29D
330
1F
100
AcDbEntity
  8
A-0_通り芯
  6
Continuous
 62
     3
370
     9
100
AcDbLine
 10
-441.6365858781259
 20
28.01070666703407
 30
0.0
 11
-437.3938342153302
 21
28.01070666703407
 31
0.0
  0
LINE
  5
29E
330
1F
100
AcDbEntity
  8
A-0_通り芯
  6
Continuous
 62
     3
370
     9
100
AcDbLine
 10
-451.8793078481427
 20
28.01070666703407
 30
0.0
 11
-445.8792385649923
 21
28.01070666703407
 31
0.0
  0
LINE
  5
29F
330
1F
100
AcDbEntity
  8
A-0_通り芯
  6
Continuous
 62
     3
370
     9
100
AcDbLine
 10
-448.6365099965802
 20
21.01083203654417
 30
0.0
 11
-441.6365858781259
 21
28.01070666703407
 31
0.0
  0
LINE
  5
2A0
330
1F
100
AcDbEntity
  8
A-0_通り芯
  6
Continuous
 62
     3
370
     9
100
AcDbLine
 10
-444.3939067976781
 20
21.01083203654417
 30
0.0
 11
-437.3938342153302
 21
28.01070666703407
 31
0.0
  0
LINE
  5
2A1
330
1F
100
AcDbEntity
  8
A-0_通り芯
  6
Continuous
 62
     3
370
     9
100
AcDbLine
 10
-440.1512541108116
 20
21.01083203654417
 30
0.0
 11
-435.879205573016
 21
25.28268262248167
 31
0.0
  0
LINE
  5
2A2
330
1F
100
AcDbEntity
  8
A-0_通り芯
  6
Continuous
 62
     3
370
     9
100
AcDbLine
 10
-435.879205573016
 20
16.73878349874855
 30
0.0
 11
-435.879205573016
 21
25.28268262248167
 31
0.0
  0
LINE
  5
2A3
330
1F
100
AcDbEntity
  8
A-0_通り芯
  6
Continuous
 62
     3
370
     9
100
AcDbLine
 10
-451.8793078481427
 20
20.01072976141751
 30
0.0
 11
-451.8793078481427
 21
14.01075945419615
 31
0.0
  0
LINE
  5
2A4
330
1F
100
AcDbEntity
  8
A-0_通り芯
  6
Continuous
 62
     3
370
     9
100
AcDbLine
 10
-451.8793078481427
 20
20.01072976141751
 30
0.0
 11
-445.8792385649923
 21
14.01075945419615
 31
0.0
  0
LINE
  5
2A5
330
1F
100
AcDbEntity
  8
A-0_通り芯
  6
Continuous
 62
     3
370
     9
100
AcDbLine
 10
-441.6365858781259
 20
14.01075945419615
 30
0.0
 11
-437.3938342153302
 21
14.01075945419615
 31
0.0
  0
LINE
  5
2A6
330
1F
100
AcDbEntity
  8
A-0_通り芯
  6
Continuous
 62
     3
370
     9
100
AcDbLine
 10
-451.8793078481427
 20
14.01075945419615
 30
0.0
 11
-445.8792385649923
 21
14.01075945419615
 31
0.0
  0
LINE
  5
2A7
330
1F
100
AcDbEntity
  8
A-0_通り芯
  6
Continuous
 62
     3
370
     9
100
AcDbLine
 10
-448.6365099965802
 20
21.01083203654417
 30
0.0
 11
-441.6365858781259
 21
14.01075945419615
 31
0.0
  0
LINE
  5
2A8
330
1F
100
AcDbEntity
  8
A-0_通り芯
  6
Continuous
 62
     3
370
     9
100
AcDbLine
 10
-444.3939067976781
 20
21.01083203654417
 30
0.0
 11
-437.3938342153302
 21
14.01075945419615
 31
0.0
  0
LINE
  5
2A9
330
1F
100
AcDbEntity
  8
A-0_通り芯
  6
Continuous
 62
     3
370
     9
100
AcDbLine
 10
-440.1512541108116
 20
21.01083203654417
 30
0.0
 11
-435.879205573016
 21
16.73878349874855
 31
0.0
  0
LINE
  5
2AA
330
1F
100
AcDbEntity
  8
A-0_通り芯
  6
Continuous
 62
     3
370
     9
100
AcDbLine
 10
-429.8792352657947
 20
22.01073635981271
 30
0.0
 11
-429.8792352657947
 21
28.01070666703407
 31
0.0
  0
LINE
  5
2AB
330
1F
100
AcDbEntity
  8
A-0_通り芯
  6
Continuous
 62
     3
370
     9
100
AcDbLine
 10
-429.8792352657947
 20
22.01073635981271
 30
0.0
 11
-423.8791659826444
 21
28.01070666703407
 31
0.0
  0
LINE
  5
2AC
330
1F
100
AcDbEntity
  8
A-0_通り芯
  6
Continuous
 62
     3
370
     9
100
AcDbLine
 10
-419.6365132957777
 20
28.01070666703407
 30
0.0
 11
-415.3939100968757
 21
28.01070666703407
 31
0.0
  0
LINE
  5
2AD
330
1F
100
AcDbEntity
  8
A-0_通り芯
  6
Continuous
 62
     3
370
     9
100
AcDbLine
 10
-429.8792352657947
 20
28.01070666703407
 30
0.0
 11
-423.8791659826444
 21
28.01070666703407
 31
0.0
  0
LINE
  5
2AE
330
1F
100
AcDbEntity
  8
A-0_通り芯
  6
Continuous
 62
     3
370
     9
100
AcDbLine
 10
-426.6365858781257
 20
21.01083203654417
 30
0.0
 11
-419.6365132957777
 21
28.01070666703407
 31
0.0
  0
LINE
  5
2AF
330
1F
100
AcDbEntity
  8
A-0_通り芯
  6
Continuous
 62
     3
370
     9
100
AcDbLine
 10
-422.3938837032947
 20
21.01083203654417
 30
0.0
 11
-415.3939100968757
 21
28.01070666703407
 31
0.0
  0
LINE
  5
2B0
330
1F
100
AcDbEntity
  8
A-0_通り芯
  6
Continuous
 62
     3
370
     9
100
AcDbLine
 10
-418.1512805043927
 20
21.01083203654417
 30
0.0
 11
-413.8792814545616
 21
25.28268262248167
 31
0.0
  0
LINE
  5
2B1
330
1F
100
AcDbEntity
  8
A-0_通り芯
  6
Continuous
 62
     3
370
     9
100
AcDbLine
 10
-413.8792814545616
 20
16.73878349874855
 30
0.0
 11
-413.8792814545616
 21
25.28268262248167
 31
0.0
  0
LINE
  5
2B2
330
1F
100
AcDbEntity
  8
A-0_通り芯
  6
Continuous
 62
     3
370
     9
100
AcDbLine
 10
-429.8792352657947
 20
20.01072976141751
 30
0.0
 11
-429.8792352657947
 21
14.01075945419615
 31
0.0
  0
LINE
  5
2B3
330
1F
100
AcDbEntity
  8
A-0_通り芯
  6
Continuous
 62
     3
370
     9
100
AcDbLine
 10
-429.8792352657947
 20
20.01072976141751
 30
0.0
 11
-423.8791659826444
 21
14.01075945419615
 31
0.0
  0
LINE
  5
2B4
330
1F
100
AcDbEntity
  8
A-0_通り芯
  6
Continuous
 62
     3
370
     9
100
AcDbLine
 10
-419.6365132957777
 20
14.01075945419615
 30
0.0
 11
-415.3939100968757
 21
14.01075945419615
 31
0.0
  0
LINE
  5
2B5
330
1F
100
AcDbEntity
  8
A-0_通り芯
  6
Continuous
 62
     3
370
     9
100
AcDbLine
 10
-429.8792352657947
 20
14.01075945419615
 30
0.0
 11
-423.8791659826444
 21
14.01075945419615
 31
0.0
  0
LINE
  5
2B6
330
1F
100
AcDbEntity
  8
A-0_通り芯
  6
Continuous
 62
     3
370
     9
100
AcDbLine
 10
-426.6365858781257
 20
21.01083203654417
 30
0.0
 11
-419.6365132957777
 21
14.01075945419615
 31
0.0
  0
LINE
  5
2B7
330
1F
100
AcDbEntity
  8
A-0_通り芯
  6
Continuous
 62
     3
370
     9
100
AcDbLine
 10
-422.3938837032947
 20
21.01083203654417
 30
0.0
 11
-415.3939100968757
 21
14.01075945419615
 31
0.0
  0
LINE
  5
2B8
330
1F
100
AcDbEntity
  8
A-0_通り芯
  6
Continuous
 62
     3
370
     9
100
AcDbLine
 10
-418.1512805043927
 20
21.01083203654417
 30
0.0
 11
-413.8792814545616
 21
16.73878349874855
 31
0.0
  0
LINE
  5
2B9
330
1F
100
AcDbEntity
  8
A-0_通り芯
  6
Continuous
 62
     3
370
     9
100
AcDbLine
 10
-473.8792814545616
 20
77.01071986382459
 30
0.0
 11
-473.8792814545616
 21
83.01083863493938
 31
0.0
  0
LINE
  5
2BA
330
1F
100
AcDbEntity
  8
A-0_通り芯
  6
Continuous
 62
     3
370
     9
100
AcDbLine
 10
-473.8792814545616
 20
77.01071986382459
 30
0.0
 11
-467.8792616593759
 21
83.01083863493938
 31
0.0
  0
LINE
  5
2BB
330
1F
100
AcDbEntity
  8
A-0_通り芯
  6
Continuous
 62
     3
370
     9
100
AcDbLine
 10
-463.6365594845447
 20
83.01083863493938
 30
0.0
 11
-459.3939067976781
 21
83.01083863493938
 31
0.0
  0
LINE
  5
2BC
330
1F
100
AcDbEntity
  8
A-0_通り芯
  6
Continuous
 62
     3
370
     9
100
AcDbLine
 10
-473.8792814545616
 20
83.01083863493938
 30
0.0
 11
-467.8792616593759
 21
83.01083863493938
 31
0.0
  0
LINE
  5
2BD
330
1F
100
AcDbEntity
  8
A-0_通り芯
  6
Continuous
 62
     3
370
     9
100
AcDbLine
 10
-470.6365825789281
 20
76.01076605259146
 30
0.0
 11
-463.6365594845447
 21
83.01083863493938
 31
0.0
  0
LINE
  5
2BE
330
1F
100
AcDbEntity
  8
A-0_通り芯
  6
Continuous
 62
     3
370
     9
100
AcDbLine
 10
-466.3939298920616
 20
76.01076605259146
 30
0.0
 11
-459.3939067976781
 21
83.01083863493938
 31
0.0
  0
LINE
  5
2BF
330
1F
100
AcDbEntity
  8
A-0_通り芯
  6
Continuous
 62
     3
370
     9
100
AcDbLine
 10
-462.151178229266
 20
76.01076605259146
 30
0.0
 11
-457.879278155364
 21
80.28271561445803
 31
0.0
  0
LINE
  5
2C0
330
1F
100
AcDbEntity
  8
A-0_通り芯
  6
Continuous
 62
     3
370
     9
100
AcDbLine
 10
-457.879278155364
 20
71.73876700276043
 30
0.0
 11
-457.879278155364
 21
80.28271561445803
 31
0.0
  0
LINE
  5
2C1
330
1F
100
AcDbEntity
  8
A-0_通り芯
  6
Continuous
 62
     3
370
     9
100
AcDbLine
 10
-473.8792814545616
 20
75.01076275339386
 30
0.0
 11
-473.8792814545616
 21
69.01074295820803
 31
0.0
  0
LINE
  5
2C2
330
1F
100
AcDbEntity
  8
A-0_通り芯
  6
Continuous
 62
     3
370
     9
100
AcDbLine
 10
-473.8792814545616
 20
75.01076275339386
 30
0.0
 11
-467.8792616593759
 21
69.01074295820803
 31
0.0
  0
LINE
  5
2C3
330
1F
100
AcDbEntity
  8
A-0_通り芯
  6
Continuous
 62
     3
370
     9
100
AcDbLine
 10
-463.6365594845447
 20
69.01074295820803
 30
0.0
 11
-459.3939067976781
 21
69.01074295820803
 31
0.0
  0
LINE
  5
2C4
330
1F
100
AcDbEntity
  8
A-0_通り芯
  6
Continuous
 62
     3
370
     9
100
AcDbLine
 10
-473.8792814545616
 20
69.01074295820803
 30
0.0
 11
-467.8792616593759
 21
69.01074295820803
 31
0.0
  0
LINE
  5
2C5
330
1F
100
AcDbEntity
  8
A-0_通り芯
  6
Continuous
 62
     3
370
     9
100
AcDbLine
 10
-470.6365825789281
 20
76.01076605259146
 30
0.0
 11
-463.6365594845447
 21
69.01074295820803
 31
0.0
  0
LINE
  5
2C6
330
1F
100
AcDbEntity
  8
A-0_通り芯
  6
Continuous
 62
     3
370
     9
100
AcDbLine
 10
-466.3939298920616
 20
76.01076605259146
 30
0.0
 11
-459.3939067976781
 21
69.01074295820803
 31
0.0
  0
LINE
  5
2C7
330
1F
100
AcDbEntity
  8
A-0_通り芯
  6
Continuous
 62
     3
370
     9
100
AcDbLine
 10
-462.151178229266
 20
76.01076605259146
 30
0.0
 11
-457.879278155364
 21
71.73876700276043
 31
0.0
  0
LINE
  5
2C8
330
1F
100
AcDbEntity
  8
A-0_通り芯
  6
Continuous
 62
     3
370
     9
100
AcDbLine
 10
-472.3645043483538
 20
55.51067367505772
 30
0.0
 11
-468.1219011494518
 21
55.51067367505772
 31
0.0
  0
LINE
  5
2C9
330
1F
100
AcDbEntity
  8
A-0_通り芯
  6
Continuous
 62
     3
370
     9
100
AcDbLine
 10
-473.8792814545616
 20
44.23875050677219
 30
0.0
 11
-473.8792814545616
 21
52.78274860643438
 31
0.0
  0
LINE
  5
2CA
330
1F
100
AcDbEntity
  8
A-0_通り芯
  6
Continuous
 62
     3
370
     9
100
AcDbLine
 10
-463.8792484625852
 20
55.51067367505772
 30
0.0
 11
-457.879278155364
 21
55.51067367505772
 31
0.0
  0
LINE
  5
2CB
330
1F
100
AcDbEntity
  8
A-0_通り芯
  6
Continuous
 62
     3
370
     9
100
AcDbLine
 10
-463.8792484625852
 20
55.51067367505772
 30
0.0
 11
-457.879278155364
 21
49.51070336783636
 31
0.0
  0
LINE
  5
2CC
330
1F
100
AcDbEntity
  8
A-0_通り芯
  6
Continuous
 62
     3
370
     9
100
AcDbLine
 10
-457.879278155364
 20
49.51070336783636
 30
0.0
 11
-457.879278155364
 21
55.51067367505772
 31
0.0
  0
LINE
  5
2CD
330
1F
100
AcDbEntity
  8
A-0_通り芯
  6
Continuous
 62
     3
370
     9
100
AcDbLine
 10
-468.1219011494518
 20
55.51067367505772
 30
0.0
 11
-461.1218285671038
 21
48.51079904456782
 31
0.0
  0
LINE
  5
2CE
330
1F
100
AcDbEntity
  8
A-0_通り芯
  6
Continuous
 62
     3
370
     9
100
AcDbLine
 10
-472.3645043483538
 20
55.51067367505772
 30
0.0
 11
-465.364629717864
 21
48.51079904456782
 31
0.0
  0
LINE
  5
2CF
330
1F
100
AcDbEntity
  8
A-0_通り芯
  6
Continuous
 62
     3
370
     9
100
AcDbLine
 10
-473.8792814545616
 20
52.78274860643438
 30
0.0
 11
-469.607232916766
 21
48.51079904456782
 31
0.0
  0
LINE
  5
2D0
330
1F
100
AcDbEntity
  8
A-0_通り芯
  6
Continuous
 62
     3
370
     9
100
AcDbLine
 10
-472.3645043483538
 20
41.51072646221979
 30
0.0
 11
-468.1219011494518
 21
41.51072646221979
 31
0.0
  0
LINE
  5
2D1
330
1F
100
AcDbEntity
  8
A-0_通り芯
  6
Continuous
 62
     3
370
     9
100
AcDbLine
 10
-463.8792484625852
 20
41.51072646221979
 30
0.0
 11
-457.879278155364
 21
41.51072646221979
 31
0.0
  0
LINE
  5
2D2
330
1F
100
AcDbEntity
  8
A-0_通り芯
  6
Continuous
 62
     3
370
     9
100
AcDbLine
 10
-463.8792484625852
 20
41.51072646221979
 30
0.0
 11
-457.879278155364
 21
47.51069676944115
 31
0.0
  0
LINE
  5
2D3
330
1F
100
AcDbEntity
  8
A-0_通り芯
  6
Continuous
 62
     3
370
     9
100
AcDbLine
 10
-457.879278155364
 20
47.51069676944115
 30
0.0
 11
-457.879278155364
 21
41.51072646221979
 31
0.0
  0
LINE
  5
2D4
330
1F
100
AcDbEntity
  8
A-0_通り芯
  6
Continuous
 62
     3
370
     9
100
AcDbLine
 10
-468.1219011494518
 20
41.51072646221979
 30
0.0
 11
-461.1218285671038
 21
48.51079904456782
 31
0.0
  0
LINE
  5
2D5
330
1F
100
AcDbEntity
  8
A-0_通り芯
  6
Continuous
 62
     3
370
     9
100
AcDbLine
 10
-472.3645043483538
 20
41.51072646221979
 30
0.0
 11
-465.364629717864
 21
48.51079904456782
 31
0.0
  0
LINE
  5
2D6
330
1F
100
AcDbEntity
  8
A-0_通り芯
  6
Continuous
 62
     3
370
     9
100
AcDbLine
 10
-473.8792814545616
 20
44.23875050677219
 30
0.0
 11
-469.607232916766
 21
48.51079904456782
 31
0.0
  0
LINE
  5
2D7
330
1F
100
AcDbEntity
  8
A-0_通り芯
  6
Continuous
 62
     3
370
     9
100
AcDbLine
 10
-450.3645802298994
 20
55.51067367505772
 30
0.0
 11
-446.1219275430329
 21
55.51067367505772
 31
0.0
  0
LINE
  5
2D8
330
1F
100
AcDbEntity
  8
A-0_通り芯
  6
Continuous
 62
     3
370
     9
100
AcDbLine
 10
-451.8793078481427
 20
44.23875050677219
 30
0.0
 11
-451.8793078481427
 21
52.78274860643438
 31
0.0
  0
LINE
  5
2D9
330
1F
100
AcDbEntity
  8
A-0_通り芯
  6
Continuous
 62
     3
370
     9
100
AcDbLine
 10
-441.8792748561663
 20
55.51067367505772
 30
0.0
 11
-435.879205573016
 21
55.51067367505772
 31
0.0
  0
LINE
  5
2DA
330
1F
100
AcDbEntity
  8
A-0_通り芯
  6
Continuous
 62
     3
370
     9
100
AcDbLine
 10
-441.8792748561663
 20
55.51067367505772
 30
0.0
 11
-435.879205573016
 21
49.51070336783636
 31
0.0
  0
LINE
  5
2DB
330
1F
100
AcDbEntity
  8
A-0_通り芯
  6
Continuous
 62
     3
370
     9
100
AcDbLine
 10
-435.879205573016
 20
49.51070336783636
 30
0.0
 11
-435.879205573016
 21
55.51067367505772
 31
0.0
  0
LINE
  5
2DC
330
1F
100
AcDbEntity
  8
A-0_通り芯
  6
Continuous
 62
     3
370
     9
100
AcDbLine
 10
-446.1219275430329
 20
55.51067367505772
 30
0.0
 11
-439.1219044486494
 21
48.51079904456782
 31
0.0
  0
LINE
  5
2DD
330
1F
100
AcDbEntity
  8
A-0_通り芯
  6
Continuous
 62
     3
370
     9
100
AcDbLine
 10
-450.3645802298994
 20
55.51067367505772
 30
0.0
 11
-443.364557135516
 21
48.51079904456782
 31
0.0
  0
LINE
  5
2DE
330
1F
100
AcDbEntity
  8
A-0_通り芯
  6
Continuous
 62
     3
370
     9
100
AcDbLine
 10
-451.8793078481427
 20
52.78274860643438
 30
0.0
 11
-447.6071603344179
 21
48.51079904456782
 31
0.0
  0
LINE
  5
2DF
330
1F
100
AcDbEntity
  8
A-0_通り芯
  6
Continuous
 62
     3
370
     9
100
AcDbLine
 10
-450.3645802298994
 20
41.51072646221979
 30
0.0
 11
-446.1219275430329
 21
41.51072646221979
 31
0.0
  0
LINE
  5
2E0
330
1F
100
AcDbEntity
  8
A-0_通り芯
  6
Continuous
 62
     3
370
     9
100
AcDbLine
 10
-441.8792748561663
 20
41.51072646221979
 30
0.0
 11
-435.879205573016
 21
41.51072646221979
 31
0.0
  0
LINE
  5
2E1
330
1F
100
AcDbEntity
  8
A-0_通り芯
  6
Continuous
 62
     3
370
     9
100
AcDbLine
 10
-441.8792748561663
 20
41.51072646221979
 30
0.0
 11
-435.879205573016
 21
47.51069676944115
 31
0.0
  0
LINE
  5
2E2
330
1F
100
AcDbEntity
  8
A-0_通り芯
  6
Continuous
 62
     3
370
     9
100
AcDbLine
 10
-435.879205573016
 20
47.51069676944115
 30
0.0
 11
-435.879205573016
 21
41.51072646221979
 31
0.0
  0
LINE
  5
2E3
330
1F
100
AcDbEntity
  8
A-0_通り芯
  6
Continuous
 62
     3
370
     9
100
AcDbLine
 10
-446.1219275430329
 20
41.51072646221979
 30
0.0
 11
-439.1219044486494
 21
48.51079904456782
 31
0.0
  0
LINE
  5
2E4
330
1F
100
AcDbEntity
  8
A-0_通り芯
  6
Continuous
 62
     3
370
     9
100
AcDbLine
 10
-450.3645802298994
 20
41.51072646221979
 30
0.0
 11
-443.364557135516
 21
48.51079904456782
 31
0.0
  0
LINE
  5
2E5
330
1F
100
AcDbEntity
  8
A-0_通り芯
  6
Continuous
 62
     3
370
     9
100
AcDbLine
 10
-451.8793078481427
 20
44.23875050677219
 30
0.0
 11
-447.6071603344179
 21
48.51079904456782
 31
0.0
  0
LINE
  5
2E6
330
1F
100
AcDbEntity
  8
A-0_通り芯
  6
Continuous
 62
     3
370
     9
100
AcDbLine
 10
-366.3792484625852
 20
302.1358749261134
 30
0.0
 11
-241.3791824786325
 21
302.1358749261134
 31
0.0
  0
LINE
  5
2E7
330
1F
100
AcDbEntity
  8
A-0_通り芯
  6
Continuous
 62
     3
370
     9
100
AcDbLine
 10
-366.3792484625852
 20
302.1358749261134
 30
0.0
 11
-366.3792484625852
 21
290.1358353357418
 31
0.0
  0
LINE
  5
2E8
330
1F
100
AcDbEntity
  8
A-0_通り芯
  6
Continuous
 62
     3
370
     9
100
AcDbLine
 10
-367.3792022738184
 20
303.1357297614175
 30
0.0
 11
-240.3792286673994
 21
303.1357297614175
 31
0.0
  0
LINE
  5
2E9
330
1F
100
AcDbEntity
  8
A-0_通り芯
  6
Continuous
 62
     3
370
     9
100
AcDbLine
 10
-366.3792484625852
 20
290.1358353357418
 30
0.0
 11
-241.3791824786325
 21
290.1358353357418
 31
0.0
  0
LINE
  5
2EA
330
1F
100
AcDbEntity
  8
A-0_通り芯
  6
Continuous
 62
     3
370
     9
100
AcDbLine
 10
-367.3792022738184
 20
303.1357297614175
 30
0.0
 11
-367.3792022738184
 21
289.1357825485796
 31
0.0
  0
LINE
  5
2EB
330
1F
100
AcDbEntity
  8
A-0_通り芯
  6
Continuous
 62
     3
370
     9
100
AcDbLine
 10
-367.3792022738184
 20
289.1357825485796
 30
0.0
 11
-240.3792286673994
 21
289.1357825485796
 31
0.0
  0
LINE
  5
2EC
330
1F
100
AcDbEntity
  8
A-0_通り芯
  6
Continuous
 62
     3
370
     9
100
AcDbLine
 10
-241.3791824786325
 20
302.1358749261134
 30
0.0
 11
-241.3791824786325
 21
290.1358353357418
 31
0.0
  0
LINE
  5
2ED
330
1F
100
AcDbEntity
  8
A-0_通り芯
  6
Continuous
 62
     3
370
     9
100
AcDbLine
 10
-240.3792286673994
 20
303.1357297614175
 30
0.0
 11
-240.3792286673994
 21
289.1357825485796
 31
0.0
  0
LINE
  5
2EE
330
1F
100
AcDbEntity
  8
A-1_ピット
  6
Continuous
 62
     2
370
     9
100
AcDbLine
 10
-480.879304548945
 20
-220.1892511032362
 30
0.0
 11
-480.879304548945
 21
-198.1892280088528
 31
0.0
  0
LINE
  5
2EF
330
1F
100
AcDbEntity
  8
A-1_ピット
  6
Continuous
 62
     2
370
     9
100
AcDbLine
 10
-484.0792953111917
 20
-220.1892511032362
 30
0.0
 11
-484.0792953111917
 21
-198.1892280088528
 31
0.0
  0
LINE
  5
2F0
330
1F
100
AcDbEntity
  8
A-1_ピット
  6
Continuous
 62
     2
370
     9
100
AcDbLine
 10
-480.879304548945
 20
-198.1892280088528
 30
0.0
 11
-484.0792953111917
 21
-198.1892280088528
 31
0.0
  0
LINE
  5
2F1
330
1F
100
AcDbEntity
  8
A-1_ピット
  6
Continuous
 62
     2
370
     9
100
AcDbLine
 10
-477.8792946513521
 20
-226.3892022751112
 30
0.0
 11
-453.8792649585733
 21
-226.3892022751112
 31
0.0
  0
LINE
  5
2F2
330
1F
100
AcDbEntity
  8
A-1_ピット
  6
Continuous
 62
     2
370
     9
100
AcDbLine
 10
-127.0414964038858
 20
-220.1892511032362
 30
0.0
 11
-127.0414964038858
 21
-198.1892280088528
 31
0.0
  0
LINE
  5
2F3
330
1F
100
AcDbEntity
  8
A-1_ピット
  6
Continuous
 62
     2
370
     9
100
AcDbLine
 10
-123.8415056416392
 20
-220.1892511032362
 30
0.0
 11
-123.8415056416392
 21
-198.1892280088528
 31
0.0
  0
LINE
  5
2F4
330
1F
100
AcDbEntity
  8
A-1_ピット
  6
Continuous
 62
     2
370
     9
100
AcDbLine
 10
-127.0414964038858
 20
-198.1892280088528
 30
0.0
 11
-123.8415056416392
 21
-198.1892280088528
 31
0.0
  0
LINE
  5
2F5
330
1F
100
AcDbEntity
  8
A-1_ピット
  6
Continuous
 62
     2
370
     9
100
AcDbLine
 10
-130.0414568135142
 20
-226.3892022751112
 30
0.0
 11
-154.0415359942575
 21
-226.3892022751112
 31
0.0
  0
LINE
  5
2F6
330
1F
100
AcDbEntity
  8
A-1_ピット
  6
Continuous
 62
     2
370
     9
100
AcDbLine
 10
-480.8792550609804
 20
-45.98929003376833
 30
0.0
 11
-480.8792550609804
 21
308.0107891469749
 31
0.0
  0
LINE
  5
2F7
330
1F
100
AcDbEntity
  8
A-1_ピット
  6
Continuous
 62
     2
370
     9
100
AcDbLine
 10
-480.8792550609804
 20
308.0107891469749
 30
0.0
 11
-126.8791758802373
 21
308.0107891469749
 31
0.0
  0
LINE
  5
2F8
330
1F
100
AcDbEntity
  8
A-1_ピット
  6
Continuous
 62
     2
370
     9
100
AcDbLine
 10
-126.8791758802373
 20
308.0107891469749
 30
0.0
 11
-126.8791758802373
 21
-45.98929003376833
 31
0.0
  0
LINE
  5
2F9
330
1F
100
AcDbEntity
  8
A-1_ピット
  6
Continuous
 62
     2
370
     9
100
AcDbLine
 10
-126.8791758802373
 20
-45.98929003376833
 30
0.0
 11
-480.8792550609804
 21
-45.98929003376833
 31
0.0
  0
LINE
  5
2FA
330
1F
100
AcDbEntity
  8
A-1_ピット
  6
Continuous
 62
     2
370
     9
100
AcDbLine
 10
-484.0792458232271
 20
-49.18923130805047
 30
0.0
 11
-484.0792458232271
 21
311.2108788851506
 31
0.0
  0
LINE
  5
2FB
330
1F
100
AcDbEntity
  8
A-1_ピット
  6
Continuous
 62
     2
370
     9
100
AcDbLine
 10
-484.0792458232271
 20
311.2108788851506
 30
0.0
 11
-123.6792840939196
 21
311.2108788851506
 31
0.0
  0
LINE
  5
2FC
330
1F
100
AcDbEntity
  8
A-1_ピット
  6
Continuous
 62
     2
370
     9
100
AcDbLine
 10
-123.6792840939196
 20
311.2108788851506
 30
0.0
 11
-123.6792840939196
 21
-49.18923130805047
 31
0.0
  0
LINE
  5
2FD
330
1F
100
AcDbEntity
  8
A-1_ピット
  6
Continuous
 62
     2
370
     9
100
AcDbLine
 10
-123.6792840939196
 20
-49.18923130805047
 30
0.0
 11
-484.0792458232271
 21
-49.18923130805047
 31
0.0
  0
LINE
  5
2FE
330
1F
100
AcDbEntity
  8
A-1_ピット
  6
Continuous
 62
     2
370
     9
100
AcDbLine
 10
-388.5791534456934
 20
-53.68922141045755
 30
0.0
 11
-388.5791534456934
 21
-78.18922800885281
 31
0.0
  0
LINE
  5
2FF
330
1F
100
AcDbEntity
  8
A-1_ピット
  6
Continuous
 62
     2
370
     9
100
AcDbLine
 10
-379.5792227288437
 20
-53.68922141045755
 30
0.0
 11
-379.5792227288437
 21
-78.18922800885281
 31
0.0
  0
LINE
  5
300
330
1F
100
AcDbEntity
  8
A-1_ピット
  6
Continuous
 62
     2
370
     9
100
AcDbLine
 10
-379.5792227288437
 20
-78.18922800885281
 30
0.0
 11
-388.5791534456934
 21
-78.18922800885281
 31
0.0
  0
LINE
  5
301
330
1F
100
AcDbEntity
  8
A-1_ピット
  6
Continuous
 62
     2
370
     9
100
AcDbLine
 10
-219.1791290316309
 20
-53.68922141045755
 30
0.0
 11
-219.1791290316309
 21
-78.18922800885281
 31
0.0
  0
LINE
  5
302
330
1F
100
AcDbEntity
  8
A-1_ピット
  6
Continuous
 62
     2
370
     9
100
AcDbLine
 10
-228.179208212374
 20
-53.68922141045755
 30
0.0
 11
-228.179208212374
 21
-78.18922800885281
 31
0.0
  0
LINE
  5
303
330
1F
100
AcDbEntity
  8
A-1_ピット
  6
Continuous
 62
     2
370
     9
100
AcDbLine
 10
-228.179208212374
 20
-78.18922800885281
 30
0.0
 11
-219.1791290316309
 21
-78.18922800885281
 31
0.0
  0
LINE
  5
304
330
1F
100
AcDbEntity
  8
A-1_ピット
  6
Continuous
 62
     2
370
     9
100
AcDbLine
 10
-388.5791534456934
 20
315.710621547735
 30
0.0
 11
-388.5791534456934
 21
340.2107271220594
 31
0.0
  0
LINE
  5
305
330
1F
100
AcDbEntity
  8
A-1_ピット
  6
Continuous
 62
     2
370
     9
100
AcDbLine
 10
-379.5792227288437
 20
315.710621547735
 30
0.0
 11
-379.5792227288437
 21
340.2107271220594
 31
0.0
  0
LINE
  5
306
330
1F
100
AcDbEntity
  8
A-1_ピット
  6
Continuous
 62
     2
370
     9
100
AcDbLine
 10
-379.5792227288437
 20
340.2107271220594
 30
0.0
 11
-388.5791534456934
 21
340.2107271220594
 31
0.0
  0
LINE
  5
307
330
1F
100
AcDbEntity
  8
A-1_ピット
  6
Continuous
 62
     2
370
     9
100
AcDbLine
 10
-219.1791290316309
 20
315.710621547735
 30
0.0
 11
-219.1791290316309
 21
340.2107271220594
 31
0.0
  0
LINE
  5
308
330
1F
100
AcDbEntity
  8
A-1_ピット
  6
Continuous
 62
     2
370
     9
100
AcDbLine
 10
-228.179208212374
 20
315.710621547735
 30
0.0
 11
-228.179208212374
 21
340.2107271220594
 31
0.0
  0
LINE
  5
309
330
1F
100
AcDbEntity
  8
A-1_ピット
  6
Continuous
 62
     2
370
     9
100
AcDbLine
 10
-228.179208212374
 20
340.2107271220594
 30
0.0
 11
-219.1791290316309
 21
340.2107271220594
 31
0.0
  0
LINE
  5
30A
330
1F
100
AcDbEntity
  8
A-1_ピット
  6
Continuous
 62
     2
370
     9
100
AcDbLine
 10
238.3208214804047
 20
-45.98919105783932
 30
0.0
 11
216.3207488980566
 21
-45.98919105783932
 31
0.0
  0
LINE
  5
30B
330
1F
100
AcDbEntity
  8
A-1_ピット
  6
Continuous
 62
     2
370
     9
100
AcDbLine
 10
259.5207726522797
 20
-49.18923130805047
 30
0.0
 11
216.3207488980566
 21
-49.18923130805047
 31
0.0
  0
LINE
  5
30C
330
1F
100
AcDbEntity
  8
A-1_ピット
  6
Continuous
 62
     2
370
     9
100
AcDbLine
 10
264.5206406843743
 20
-63.18912903292374
 30
0.0
 11
264.5206406843743
 21
-78.18922800885281
 31
0.0
  0
LINE
  5
30D
330
1F
100
AcDbEntity
  8
A-1_ピット
  6
Continuous
 62
     2
370
     9
100
AcDbLine
 10
273.5206208891885
 20
-63.18912903292374
 30
0.0
 11
273.5206208891885
 21
-78.18922800885281
 31
0.0
  0
LINE
  5
30E
330
1F
100
AcDbEntity
  8
A-1_ピット
  6
Continuous
 62
     2
370
     9
100
AcDbLine
 10
259.5207726522797
 20
-58.1891620249001
 30
0.0
 11
234.5206406843743
 21
-58.1891620249001
 31
0.0
  0
LINE
  5
30F
330
1F
100
AcDbEntity
  8
A-1_ピット
  6
Continuous
 62
     2
370
     9
100
AcDbLine
 10
234.5206406843743
 20
-49.18923130805047
 30
0.0
 11
234.5206406843743
 21
-58.1891620249001
 31
0.0
  0
LINE
  5
310
330
1F
100
AcDbEntity
  8
A-1_ピット
  6
Continuous
 62
     2
370
     9
100
AcDbLine
 10
244.5206736763506
 20
-42.9891811602464
 30
0.0
 11
244.5206736763506
 21
-18.98925044339677
 31
0.0
  0
LINE
  5
311
330
1F
100
AcDbEntity
  8
A-0_通り芯
  6
Continuous
 62
     3
370
     9
100
AcDbLine
 10
241.3207818900331
 20
-31.41612372781395
 30
0.0
 11
241.3207818900331
 21
-38.58598951645416
 31
0.0
  0
LINE
  5
312
330
1F
100
AcDbEntity
  8
A-0_通り芯
  6
Continuous
 62
     3
370
     9
100
AcDbLine
 10
228.1876658638506
 20
-40.86471233106568
 30
0.0
 11
239.9205694217054
 21
-40.08255505171599
 31
0.0
  0
LINE
  5
313
330
1F
100
AcDbEntity
  8
A-0_通り芯
  6
Continuous
 62
     3
370
     9
100
AcDbLine
 10
224.170826759121
 20
-29.13185826117541
 30
0.0
 11
239.8955285116547
 21
-29.91797457768729
 31
0.0
  0
LINE
  5
314
330
1F
100
AcDbEntity
  8
A-0_通り芯
  6
Continuous
 62
     3
370
     9
100
AcDbLine
 10
216.9888364191716
 20
-27.66899402975656
 30
0.0
 11
217.8208280787999
 21
-27.11423394740854
 31
0.0
  0
LINE
  5
315
330
1F
100
AcDbEntity
  8
A-0_通り芯
  6
Continuous
 62
     3
370
     9
100
AcDbLine
 10
216.9888364191716
 20
-40.55956954179197
 30
0.0
 11
217.8208280787999
 21
-41.11428013617547
 31
0.0
  0
LINE
  5
316
330
1F
100
AcDbEntity
  8
A-0_通り芯
  6
Continuous
 62
     3
370
     9
100
AcDbLine
 10
216.3207488980566
 20
-39.31153256438489
 30
0.0
 11
216.3207488980566
 21
-28.91703100716364
 31
0.0
  0
LINE
  5
317
330
1F
100
AcDbEntity
  8
A-0_通り芯
  6
Continuous
 62
     3
370
     9
100
AcDbLine
 10
218.9086725150331
 20
-43.30016352933421
 30
0.0
 11
221.3207159060804
 21
-43.98928343537307
 31
0.0
  0
LINE
  5
318
330
1F
100
AcDbEntity
  8
A-0_通り芯
  6
Continuous
 62
     3
370
     9
100
AcDbLine
 10
221.3207159060804
 20
-43.98928343537307
 30
0.0
 11
226.3207818900331
 21
-42.98923064821093
 31
0.0
  0
LINE
  5
319
330
1F
100
AcDbEntity
  8
A-0_通り芯
  6
Continuous
 62
     3
370
     9
100
AcDbLine
 10
226.3207818900331
 20
-42.86031450061802
 30
0.0
 11
226.3207818900331
 21
-42.98923064821093
 31
0.0
  0
LINE
  5
31A
330
1F
100
AcDbEntity
  8
A-0_通り芯
  6
Continuous
 62
     3
370
     9
100
AcDbLine
 10
221.3207159060804
 20
-26.13555996092208
 30
0.0
 11
221.3207159060804
 21
-24.23932962414
 31
0.0
  0
LINE
  5
31B
330
1F
100
AcDbEntity
  8
A-0_通り芯
  6
Continuous
 62
     3
370
     9
100
AcDbLine
 10
218.9086725150331
 20
-24.92849901814333
 30
0.0
 11
221.3207159060804
 21
-24.23932962414
 31
0.0
  0
LINE
  5
31C
330
1F
100
AcDbEntity
  8
A-0_通り芯
  6
Continuous
 62
     3
370
     9
100
AcDbLine
 10
217.8208280787999
 20
-26.37077625631906
 30
0.0
 11
217.8208280787999
 21
-41.857836803194
 31
0.0
  0
LINE
  5
31D
330
1F
100
AcDbEntity
  8
A-0_通り芯
  6
Continuous
 62
     3
370
     9
100
AcDbLine
 10
-172.2937860470446
 20
-223.1892610008292
 30
0.0
 11
-134.4448958971292
 21
-223.1892610008292
 31
0.0
  0
LINE
  5
31E
330
1F
100
AcDbEntity
  8
A-0_通り芯
  6
Continuous
 62
     3
370
     9
100
AcDbLine
 10
-435.6270149057863
 20
-223.1892610008292
 30
0.0
 11
-473.4759545436663
 21
-223.1892610008292
 31
0.0
  0
LINE
  5
31F
330
1F
100
AcDbEntity
  8
A-0_通り芯
  6
Continuous
 62
     3
370
     9
100
AcDbLine
 10
241.3207818900331
 20
66.66630012670458
 30
0.0
 11
241.3207818900331
 21
-31.29101815348969
 31
0.0
  0
LINE
  5
320
330
1F
100
AcDbEntity
  8
A-1_ピット
  6
Continuous
 62
     2
370
     9
100
AcDbLine
 10
216.3207488980566
 20
-45.98919105783932
 30
0.0
 11
216.3207488980566
 21
-49.18923130805047
 31
0.0
  0
LINE
  5
321
330
1F
100
AcDbEntity
  8
A-1_ピット
  6
Continuous
 62
     2
370
     9
100
AcDbLine
 10
238.3208214804047
 20
308.0106901710458
 30
0.0
 11
216.3207488980566
 21
308.0106901710458
 31
0.0
  0
LINE
  5
322
330
1F
100
AcDbEntity
  8
A-0_通り芯
  6
Continuous
 62
     3
370
     9
100
AcDbLine
 10
-418.8792484625852
 20
140.7607693517891
 30
0.0
 11
-418.8792484625852
 21
148.7606967694412
 31
0.0
  0
LINE
  5
323
330
1F
100
AcDbEntity
  8
A-0_通り芯
  6
Continuous
 62
     3
370
     9
100
AcDbLine
 10
-402.8792946513521
 20
140.7607693517891
 30
0.0
 11
-402.8792946513521
 21
148.7606967694412
 31
0.0
  0
LINE
  5
324
330
1F
100
AcDbEntity
  8
A-0_通り芯
  6
Continuous
 62
     3
370
     9
100
AcDbLine
 10
-418.8792484625852
 20
113.26085183173
 30
0.0
 11
-418.8792484625852
 21
121.2607297614175
 31
0.0
  0
LINE
  5
325
330
1F
100
AcDbEntity
  8
A-0_通り芯
  6
Continuous
 62
     3
370
     9
100
AcDbLine
 10
-402.8792946513521
 20
113.26085183173
 30
0.0
 11
-402.8792946513521
 21
121.2607297614175
 31
0.0
  0
LINE
  5
326
330
1F
100
AcDbEntity
  8
A-0_通り芯
  6
Continuous
 62
     3
370
     9
100
AcDbLine
 10
241.3207818900331
 20
195.3551989865019
 30
0.0
 11
241.3207818900331
 21
293.3125667546607
 31
0.0
  0
LINE
  5
327
330
1F
100
AcDbEntity
  8
A-0_通り芯
  6
Continuous
 62
     3
370
     9
100
AcDbLine
 10
223.7323633934114
 20
15.49307245567417
 30
0.0
 11
225.1149581463674
 21
15.76956171348667
 31
0.0
  0
LINE
  5
328
330
1F
100
AcDbEntity
  8
A-0_通り芯
  6
Continuous
 62
     3
370
     9
100
AcDbLine
 10
-418.4115871978048
 20
-233.1891455289119
 30
0.0
 11
-413.8790835027035
 21
-233.1891455289119
 31
0.0
  0
LINE
  5
329
330
1F
100
AcDbEntity
  8
A-0_通り芯
  6
Continuous
 62
     3
370
     9
100
AcDbLine
 10
-407.8791626834467
 20
-233.1891455289119
 30
0.0
 11
-189.5092632429906
 21
-233.1891455289119
 31
0.0
  0
LINE
  5
32A
330
1F
100
AcDbEntity
  8
A-0_通り芯
  6
JWW_CENTER1
 62
     3
370
     9
100
AcDbLine
 10
-410.8791725810396
 20
-203.1891455289119
 30
0.0
 11
-410.8791725810396
 21
-304.9041344436079
 31
0.0
  0
LINE
  5
32B
330
1F
100
AcDbEntity
  8
A-1_ピット
  6
Continuous
 62
     2
370
     9
100
AcDbLine
 10
-453.8792649585733
 20
-226.3892022751112
 30
0.0
 11
-453.8792649585733
 21
-223.1892610008292
 31
0.0
  0
LINE
  5
32C
330
1F
100
AcDbEntity
  8
A-1_ピット
  6
Continuous
 62
     2
370
     9
100
AcDbLine
 10
-477.8792946513521
 20
-223.1892610008292
 30
0.0
 11
-453.8792649585733
 21
-223.1892610008292
 31
0.0
  0
LINE
  5
32D
330
1F
100
AcDbEntity
  8
A-1_ピット
  6
Continuous
 62
     2
370
     9
100
AcDbLine
 10
-154.0415359942575
 20
-226.3892022751112
 30
0.0
 11
-154.0415359942575
 21
-223.1892610008292
 31
0.0
  0
LINE
  5
32E
330
1F
100
AcDbEntity
  8
A-1_ピット
  6
Continuous
 62
     2
370
     9
100
AcDbLine
 10
-130.0414568135142
 20
-223.1892610008292
 30
0.0
 11
-154.0415359942575
 21
-223.1892610008292
 31
0.0
  0
LINE
  5
32F
330
1F
100
AcDbEntity
  8
A-1_ピット
  6
Continuous
 62
     2
370
     9
100
AcDbLine
 10
241.3207818900331
 20
-43.11418775864166
 30
0.0
 11
241.3207818900331
 21
-18.98925044339677
 31
0.0
  0
LINE
  5
330
330
1F
100
AcDbEntity
  8
A-1_ピット
  6
Continuous
 62
     2
370
     9
100
AcDbLine
 10
244.5206736763506
 20
-18.98925044339677
 30
0.0
 11
241.3207818900331
 21
-18.98925044339677
 31
0.0
  0
LINE
  5
331
330
1F
100
AcDbEntity
  8
A-1_ピット
  6
Continuous
 62
     2
370
     9
100
AcDbLine
 10
241.3207818900331
 20
305.1357363598127
 30
0.0
 11
241.3207818900331
 21
281.0107495566033
 31
0.0
  0
LINE
  5
332
330
1F
100
AcDbEntity
  8
A-1_ピット
  6
Continuous
 62
     2
370
     9
100
AcDbLine
 10
244.5206736763506
 20
281.0107495566033
 30
0.0
 11
241.3207818900331
 21
281.0107495566033
 31
0.0
  0
LINE
  5
333
330
1F
100
AcDbEntity
  8
A-0_通り芯
  6
Continuous
 62
     3
370
     9
100
AcDbLine
 10
-477.3792682577711
 20
278.2608023437654
 30
0.0
 11
-130.3791626834467
 21
278.2608023437654
 31
0.0
  0
LINE
  5
334
330
1F
100
AcDbEntity
  8
A-0_通り芯
  6
Continuous
 62
     3
370
     9
100
AcDbLine
 10
-477.3792682577711
 20
286.2608287373466
 30
0.0
 11
-130.3791626834467
 21
286.2608287373466
 31
0.0
  0
LINE
  5
335
330
1F
100
AcDbEntity
  8
A-1_ピット
  6
Continuous
 62
     2
370
     9
100
AcDbLine
 10
-484.0792458232271
 20
311.2108788851506
 30
0.0
 11
-480.8791560850515
 21
308.0107891469749
 31
0.0
  0
LINE
  5
336
330
1F
100
AcDbEntity
  8
A-1_ピット
  6
Continuous
 62
     2
370
     9
100
AcDbLine
 10
-123.6792840939196
 20
311.2108788851506
 30
0.0
 11
-126.8791758802373
 21
308.010888122904
 31
0.0
  0
LINE
  5
337
330
1F
100
AcDbEntity
  8
A-1_ピット
  6
Continuous
 62
     2
370
     9
100
AcDbLine
 10
-126.8791758802373
 20
-45.98929003376833
 30
0.0
 11
-123.6792840939196
 21
-49.18923130805047
 31
0.0
  0
LINE
  5
338
330
1F
100
AcDbEntity
  8
A-1_ピット
  6
Continuous
 62
     2
370
     9
100
AcDbLine
 10
-484.0792458232271
 20
-49.18923130805047
 30
0.0
 11
-480.8792550609804
 21
-45.98919105783932
 31
0.0
  0
LINE
  5
339
330
1F
100
AcDbEntity
  8
A-0_通り芯
  6
JWW_CENTER1
 62
     3
370
     9
100
AcDbLine
 10
-504.0792623192152
 20
131.0107495566032
 30
0.0
 11
-103.679317085896
 21
131.0107495566032
 31
0.0
  0
LINE
  5
33A
330
1F
100
AcDbEntity
  8
A-0_通り芯
  6
JWW_CENTER1
 62
     3
370
     9
100
AcDbLine
 10
338.0243225889351
 20
131.0107495566032
 30
0.0
 11
196.3207818900331
 21
131.0107495566032
 31
0.0
  0
LINE
  5
33B
330
1F
100
AcDbEntity
  8
A-0_通り芯
  6
JWW_CENTER1
 62
     3
370
     9
100
AcDbLine
 10
-303.9604252203977
 20
-179.6892412056434
 30
0.0
 11
-303.9604252203977
 21
-253.1891620249001
 31
0.0
  0
LINE
  5
33C
330
1F
100
AcDbEntity
  8
A-0_通り芯
  6
JWW_CENTER1
 62
     3
370
     9
100
AcDbLine
 10
-303.879215470609
 20
331.2108458931743
 30
0.0
 11
-303.879215470609
 21
-69.18924780403864
 31
0.0
  0
LINE
  5
33D
330
1F
100
AcDbEntity
  8
A-1_ピット
  6
JWW_CENTER1
 62
     2
370
     9
100
AcDbLine
 10
-384.0791633432863
 20
307.21086568836
 30
0.0
 11
-384.0791633432863
 21
344.2107403188499
 31
0.0
  0
LINE
  5
33E
330
1F
100
AcDbEntity
  8
A-1_ピット
  6
JWW_CENTER1
 62
     2
370
     9
100
AcDbLine
 10
-375.5792095320531
 20
315.710621547735
 30
0.0
 11
-392.5791666424839
 21
315.710621547735
 31
0.0
  0
LINE
  5
33F
330
1F
100
AcDbEntity
  8
A-1_ピット
  6
JWW_CENTER1
 62
     2
370
     9
100
AcDbLine
 10
-223.6792675979315
 20
307.21086568836
 30
0.0
 11
-223.6792675979315
 21
344.2107403188499
 31
0.0
  0
LINE
  5
340
330
1F
100
AcDbEntity
  8
A-1_ピット
  6
JWW_CENTER1
 62
     2
370
     9
100
AcDbLine
 10
-215.1793137866983
 20
315.710621547735
 30
0.0
 11
-232.1792708971292
 21
315.710621547735
 31
0.0
  0
LINE
  5
341
330
1F
100
AcDbEntity
  8
A-1_ピット
  6
JWW_CENTER1
 62
     2
370
     9
100
AcDbLine
 10
-223.6792675979315
 20
-45.18946555108255
 30
0.0
 11
-223.6792675979315
 21
-82.18934018157239
 31
0.0
  0
LINE
  5
342
330
1F
100
AcDbEntity
  8
A-1_ピット
  6
JWW_CENTER1
 62
     2
370
     9
100
AcDbLine
 10
-232.1792214091646
 20
-53.68922141045755
 30
0.0
 11
-215.1792642987338
 21
-53.68922141045755
 31
0.0
  0
LINE
  5
343
330
1F
100
AcDbEntity
  8
A-1_ピット
  6
JWW_CENTER1
 62
     2
370
     9
100
AcDbLine
 10
-384.0791633432863
 20
-45.18946555108255
 30
0.0
 11
-384.0791633432863
 21
-82.18934018157239
 31
0.0
  0
LINE
  5
344
330
1F
100
AcDbEntity
  8
A-1_ピット
  6
JWW_CENTER1
 62
     2
370
     9
100
AcDbLine
 10
-392.5791171545194
 20
-53.68922141045755
 30
0.0
 11
-375.5791600440886
 21
-53.68922141045755
 31
0.0
  0
LINE
  5
345
330
1F
100
AcDbEntity
  8
A-1_ピット
  6
JWW_CENTER1
 62
     2
370
     9
100
AcDbLine
 10
269.020680274746
 20
325.2106281461303
 30
0.0
 11
269.020680274746
 21
344.2107403188499
 31
0.0
  0
LINE
  5
346
330
1F
100
AcDbEntity
  8
A-1_ピット
  6
JWW_CENTER1
 62
     2
370
     9
100
AcDbLine
 10
259.5207726522797
 20
315.710621547735
 30
0.0
 11
230.5206274875837
 21
315.710621547735
 31
0.0
  0
LINE
  5
347
330
1F
100
AcDbEntity
  8
A-1_ピット
  6
JWW_CENTER1
 62
     2
370
     9
100
AcDbLine
 10
259.5207726522797
 20
-53.68917192249302
 30
0.0
 11
230.5206274875837
 21
-53.68917192249302
 31
0.0
  0
LINE
  5
348
330
1F
100
AcDbEntity
  8
A-1_ピット
  6
JWW_CENTER1
 62
     2
370
     9
100
AcDbLine
 10
269.020680274746
 20
-63.18912903292374
 30
0.0
 11
269.020680274746
 21
-82.18924120564333
 31
0.0
  0
LINE
  5
349
330
1F
100
AcDbEntity
  8
A-1_ピット
  6
Continuous
 62
     2
370
     9
100
AcDbLine
 10
273.5206208891885
 20
-78.18922800885281
 30
0.0
 11
264.5206406843743
 21
-78.18922800885281
 31
0.0
  0
ARC
  5
34A
330
1F
100
AcDbEntity
  8
A-1_ピット
  6
Continuous
 62
     2
370
     9
100
AcDbCircle
 10
238.3208214804047
 20
305.0106307854884
 30
0.0
 40
3.000000038662472
100
AcDbArc
 50
0.0
 51
90.0
  0
ARC
  5
34B
330
1F
100
AcDbEntity
  8
A-1_ピット
  6
Continuous
 62
     2
370
     9
100
AcDbCircle
 10
238.3207225044756
 20
305.0106307854884
 30
0.0
 40
6.200000659839527
100
AcDbArc
 50
0.0
 51
90.0
  0
ARC
  5
34C
330
1F
100
AcDbEntity
  8
A-1_ピット
  6
Continuous
 62
     2
370
     9
100
AcDbCircle
 10
259.5207726522797
 20
325.2106281461303
 30
0.0
 40
5.000000644374539
100
AcDbArc
 50
270.0
 51
0.0
  0
ARC
  5
34D
330
1F
100
AcDbEntity
  8
A-1_ピット
  6
Continuous
 62
     2
370
     9
100
AcDbCircle
 10
259.5207726522797
 20
325.2106281461303
 30
0.0
 40
13.99999979380015
100
AcDbArc
 50
270.0
 51
0.0
  0
ARC
  5
34E
330
1F
100
AcDbEntity
  8
A-1_ピット
  6
JWW_CENTER1
 62
     2
370
     9
100
AcDbCircle
 10
259.5207726522797
 20
325.2106281461303
 30
0.0
 40
9.500000412399705
100
AcDbArc
 50
270.0
 51
0.0
  0
ARC
  5
34F
330
1F
100
AcDbEntity
  8
A-0_通り芯
  6
Continuous
 62
     3
370
     9
100
AcDbCircle
 10
-477.7502795278302
 20
-210.1892181112599
 30
0.0
 40
2.000000219087343
100
AcDbArc
 50
3.813949584960937
 51
89.99999999999999
  0
ARC
  5
350
330
1F
100
AcDbEntity
  8
A-0_通り芯
  6
Continuous
 62
     3
370
     9
100
AcDbCircle
 10
-476.7478018304062
 20
-201.1891884184812
 30
0.0
 40
1.500000019331236
100
AcDbArc
 50
90.0
 51
164.0546112060547
  0
ARC
  5
351
330
1F
100
AcDbEntity
  8
A-0_通り芯
  6
Continuous
 62
     3
370
     9
100
AcDbCircle
 10
-473.4759545436663
 20
-221.6892313080505
 30
0.0
 40
1.500000019331236
100
AcDbArc
 50
183.8139495849609
 51
270.0
  0
ARC
  5
352
330
1F
100
AcDbEntity
  8
A-0_通り芯
  6
Continuous
 62
     3
370
     9
100
AcDbCircle
 10
-455.6812702108961
 20
-207.1891587257025
 30
0.0
 40
4.000000438174686
100
AcDbArc
 50
90.0
 51
168.6898956298828
  0
ARC
  5
353
330
1F
100
AcDbEntity
  8
A-0_通り芯
  6
Continuous
 62
     3
370
     9
100
AcDbCircle
 10
-458.3208097748741
 20
-210.1892181112599
 30
0.0
 40
2.000000219087343
100
AcDbArc
 50
90.0
 51
168.6902008056641
  0
ARC
  5
354
330
1F
100
AcDbEntity
  8
A-0_通り芯
  6
Continuous
 62
     3
370
     9
100
AcDbCircle
 10
-464.1900823677795
 20
-221.6892313080505
 30
0.0
 40
1.500000019331236
100
AcDbArc
 50
270.0
 51
348.6901550292969
  0
ARC
  5
355
330
1F
100
AcDbEntity
  8
A-0_通り芯
  6
Continuous
 62
     3
370
     9
100
AcDbCircle
 10
-476.3793144465379
 20
-41.48920095543218
 30
0.0
 40
1.500000019331236
100
AcDbArc
 50
180.0
 51
270.0
  0
ARC
  5
356
330
1F
100
AcDbEntity
  8
A-0_通り芯
  6
Continuous
 62
     3
370
     9
100
AcDbCircle
 10
-476.3793144465379
 20
-26.73926364018729
 30
0.0
 40
1.500000019331236
100
AcDbArc
 50
90.0
 51
180.0
  0
ARC
  5
357
330
1F
100
AcDbEntity
  8
A-0_通り芯
  6
Continuous
 62
     3
370
     9
100
AcDbCircle
 10
-477.3792682577711
 20
-25.73930982895416
 30
0.0
 40
1.500000019331236
100
AcDbArc
 50
90.0
 51
180.0
  0
ARC
  5
358
330
1F
100
AcDbEntity
  8
A-0_通り芯
  6
Continuous
 62
     3
370
     9
100
AcDbCircle
 10
-477.3792682577711
 20
-42.4893032305589
 30
0.0
 40
1.500000019331236
100
AcDbArc
 50
180.0
 51
270.0
  0
ARC
  5
359
330
1F
100
AcDbEntity
  8
A-0_通り芯
  6
Continuous
 62
     3
370
     9
100
AcDbCircle
 10
-477.3792682577711
 20
1.760756154998546
 30
0.0
 40
1.500000019331236
100
AcDbArc
 50
90.0
 51
180.0
  0
ARC
  5
35A
330
1F
100
AcDbEntity
  8
A-0_通り芯
  6
Continuous
 62
     3
370
     9
100
AcDbCircle
 10
-476.3793144465379
 20
0.7607033678363564
 30
0.0
 40
1.500000019331236
100
AcDbArc
 50
90.0
 51
180.0
  0
ARC
  5
35B
330
1F
100
AcDbEntity
  8
A-0_通り芯
  6
Continuous
 62
     3
370
     9
100
AcDbCircle
 10
-477.3792682577711
 20
-14.73922404981562
 30
0.0
 40
1.500000019331236
100
AcDbArc
 50
180.0
 51
270.0
  0
ARC
  5
35C
330
1F
100
AcDbEntity
  8
A-0_通り芯
  6
Continuous
 62
     3
370
     9
100
AcDbCircle
 10
-476.3793144465379
 20
-13.73927023858249
 30
0.0
 40
1.500000019331236
100
AcDbArc
 50
180.0
 51
270.0
  0
ARC
  5
35D
330
1F
100
AcDbEntity
  8
A-0_通り芯
  6
Continuous
 62
     3
370
     9
100
AcDbCircle
 10
-477.3792682577711
 20
29.26072316302219
 30
0.0
 40
1.500000019331236
100
AcDbArc
 50
90.0
 51
180.0
  0
ARC
  5
35E
330
1F
100
AcDbEntity
  8
A-0_通り芯
  6
Continuous
 62
     3
370
     9
100
AcDbCircle
 10
-476.3793144465379
 20
28.26067037586
 30
0.0
 40
1.500000019331236
100
AcDbArc
 50
90.0
 51
180.0
  0
ARC
  5
35F
330
1F
100
AcDbEntity
  8
A-0_通り芯
  6
Continuous
 62
     3
370
     9
100
AcDbCircle
 10
-477.3792682577711
 20
12.76074295820803
 30
0.0
 40
1.500000019331236
100
AcDbArc
 50
180.0
 51
270.0
  0
ARC
  5
360
330
1F
100
AcDbEntity
  8
A-0_通り芯
  6
Continuous
 62
     3
370
     9
100
AcDbCircle
 10
-476.3793144465379
 20
13.76084523333469
 30
0.0
 40
1.500000019331236
100
AcDbArc
 50
180.0
 51
270.0
  0
ARC
  5
361
330
1F
100
AcDbEntity
  8
A-0_通り芯
  6
Continuous
 62
     3
370
     9
100
AcDbCircle
 10
-477.3792682577711
 20
56.76069017104584
 30
0.0
 40
1.500000019331236
100
AcDbArc
 50
90.0
 51
180.0
  0
ARC
  5
362
330
1F
100
AcDbEntity
  8
A-0_通り芯
  6
Continuous
 62
     3
370
     9
100
AcDbCircle
 10
-476.3793144465379
 20
55.7607858477773
 30
0.0
 40
1.500000019331236
100
AcDbArc
 50
90.0
 51
180.0
  0
ARC
  5
363
330
1F
100
AcDbEntity
  8
A-0_通り芯
  6
Continuous
 62
     3
370
     9
100
AcDbCircle
 10
-477.3792682577711
 20
40.26070996623167
 30
0.0
 40
1.500000019331236
100
AcDbArc
 50
180.0
 51
270.0
  0
ARC
  5
364
330
1F
100
AcDbEntity
  8
A-0_通り芯
  6
Continuous
 62
     3
370
     9
100
AcDbCircle
 10
-476.3793144465379
 20
41.26081224135834
 30
0.0
 40
1.500000019331236
100
AcDbArc
 50
180.0
 51
270.0
  0
ARC
  5
365
330
1F
100
AcDbEntity
  8
A-0_通り芯
  6
Continuous
 62
     3
370
     9
100
AcDbCircle
 10
-477.3792682577711
 20
84.26070666703407
 30
0.0
 40
1.500000019331236
100
AcDbArc
 50
90.0
 51
180.0
  0
ARC
  5
366
330
1F
100
AcDbEntity
  8
A-0_通り芯
  6
Continuous
 62
     3
370
     9
100
AcDbCircle
 10
-476.3793144465379
 20
83.26075285580094
 30
0.0
 40
1.500000019331236
100
AcDbArc
 50
90.0
 51
180.0
  0
ARC
  5
367
330
1F
100
AcDbEntity
  8
A-0_通り芯
  6
Continuous
 62
     3
370
     9
100
AcDbCircle
 10
-477.3792682577711
 20
67.7607264622198
 30
0.0
 40
1.500000019331236
100
AcDbArc
 50
180.0
 51
270.0
  0
ARC
  5
368
330
1F
100
AcDbEntity
  8
A-0_通り芯
  6
Continuous
 62
     3
370
     9
100
AcDbCircle
 10
-476.3793144465379
 20
68.76077924938198
 30
0.0
 40
1.500000019331236
100
AcDbArc
 50
180.0
 51
270.0
  0
ARC
  5
369
330
1F
100
AcDbEntity
  8
A-0_通り芯
  6
Continuous
 62
     3
370
     9
100
AcDbCircle
 10
-477.3792682577711
 20
111.7608716269157
 30
0.0
 40
1.500000019331236
100
AcDbArc
 50
90.0
 51
180.0
  0
ARC
  5
36A
330
1F
100
AcDbEntity
  8
A-0_通り芯
  6
Continuous
 62
     3
370
     9
100
AcDbCircle
 10
-476.3793144465379
 20
110.7607198638246
 30
0.0
 40
1.500000019331236
100
AcDbArc
 50
90.0
 51
180.0
  0
ARC
  5
36B
330
1F
100
AcDbEntity
  8
A-0_通り芯
  6
Continuous
 62
     3
370
     9
100
AcDbCircle
 10
-477.3792682577711
 20
95.26074295820803
 30
0.0
 40
1.500000019331236
100
AcDbArc
 50
180.0
 51
270.0
  0
ARC
  5
36C
330
1F
100
AcDbEntity
  8
A-0_通り芯
  6
Continuous
 62
     3
370
     9
100
AcDbCircle
 10
-476.3793144465379
 20
96.26074625740563
 30
0.0
 40
1.500000019331236
100
AcDbArc
 50
180.0
 51
270.0
  0
ARC
  5
36D
330
1F
100
AcDbEntity
  8
A-0_通り芯
  6
Continuous
 62
     3
370
     9
100
AcDbCircle
 10
-477.3792682577711
 20
122.7608089421607
 30
0.0
 40
1.500000019331236
100
AcDbArc
 50
180.0
 51
270.0
  0
ARC
  5
36E
330
1F
100
AcDbEntity
  8
A-0_通り芯
  6
Continuous
 62
     3
370
     9
100
AcDbCircle
 10
-476.3793144465379
 20
123.7607627533939
 30
0.0
 40
1.500000019331236
100
AcDbArc
 50
180.0
 51
270.0
  0
ARC
  5
36F
330
1F
100
AcDbEntity
  8
A-0_通り芯
  6
Continuous
 62
     3
370
     9
100
AcDbCircle
 10
219.3208082836141
 20
1.129289727633648
 30
0.0
 40
1.500000019331236
100
AcDbArc
 50
105.9453887939453
 51
180.0
  0
ARC
  5
370
330
1F
100
AcDbEntity
  8
A-0_通り芯
  6
Continuous
 62
     3
370
     9
100
AcDbCircle
 10
219.3208082836141
 20
-14.10780711041531
 30
0.0
 40
1.500000019331236
100
AcDbArc
 50
180.0
 51
254.0546112060547
  0
ARC
  5
371
330
1F
100
AcDbEntity
  8
A-0_通り芯
  6
Continuous
 62
     3
370
     9
100
AcDbCircle
 10
217.8208280787999
 20
-1.292057400744682
 30
0.0
 40
1.500000019331236
100
AcDbArc
 50
123.6900634765625
 51
180.0
  0
ARC
  5
372
330
1F
100
AcDbEntity
  8
A-0_通り芯
  6
Continuous
 62
     3
370
     9
100
AcDbCircle
 10
217.8208280787999
 20
-11.68655895796593
 30
0.0
 40
1.500000019331236
100
AcDbArc
 50
180.0
 51
236.3099365234375
  0
ARC
  5
373
330
1F
100
AcDbEntity
  8
A-0_通り芯
  6
Continuous
 62
     3
370
     9
100
AcDbCircle
 10
219.3208082836141
 20
28.62925673565729
 30
0.0
 40
1.500000019331236
100
AcDbArc
 50
105.9453887939453
 51
180.0
  0
ARC
  5
374
330
1F
100
AcDbEntity
  8
A-0_通り芯
  6
Continuous
 62
     3
370
     9
100
AcDbCircle
 10
219.3208082836141
 20
13.39215989760834
 30
0.0
 40
1.500000019331236
100
AcDbArc
 50
180.0
 51
254.0546112060547
  0
ARC
  5
375
330
1F
100
AcDbEntity
  8
A-0_通り芯
  6
Continuous
 62
     3
370
     9
100
AcDbCircle
 10
217.8208280787999
 20
26.20790960727896
 30
0.0
 40
1.500000019331236
100
AcDbArc
 50
123.6900634765625
 51
180.0
  0
ARC
  5
376
330
1F
100
AcDbEntity
  8
A-0_通り芯
  6
Continuous
 62
     3
370
     9
100
AcDbCircle
 10
217.8208280787999
 20
15.81340805005772
 30
0.0
 40
1.500000019331236
100
AcDbArc
 50
180.0
 51
236.3099365234375
  0
ARC
  5
377
330
1F
100
AcDbEntity
  8
A-0_通り芯
  6
Continuous
 62
     3
370
     9
100
AcDbCircle
 10
219.3208082836141
 20
56.12927323164553
 30
0.0
 40
1.500000019331236
100
AcDbArc
 50
105.9453887939453
 51
180.0
  0
ARC
  5
378
330
1F
100
AcDbEntity
  8
A-0_通り芯
  6
Continuous
 62
     3
370
     9
100
AcDbCircle
 10
219.3208082836141
 20
40.89222588156105
 30
0.0
 40
1.500000019331236
100
AcDbArc
 50
180.0
 51
254.0546112060547
  0
ARC
  5
379
330
1F
100
AcDbEntity
  8
A-0_通り芯
  6
Continuous
 62
     3
370
     9
100
AcDbCircle
 10
217.8208280787999
 20
53.70787661530261
 30
0.0
 40
1.500000019331236
100
AcDbArc
 50
123.6900634765625
 51
180.0
  0
ARC
  5
37A
330
1F
100
AcDbEntity
  8
A-0_通り芯
  6
Continuous
 62
     3
370
     9
100
AcDbCircle
 10
217.8208280787999
 20
43.31342454604584
 30
0.0
 40
1.500000019331236
100
AcDbArc
 50
180.0
 51
236.3099365234375
  0
ARC
  5
37B
330
1F
100
AcDbEntity
  8
A-0_通り芯
  6
Continuous
 62
     3
370
     9
100
AcDbCircle
 10
219.3208082836141
 20
83.62924023966917
 30
0.0
 40
1.500000019331236
100
AcDbArc
 50
105.9453887939453
 51
180.0
  0
ARC
  5
37C
330
1F
100
AcDbEntity
  8
A-0_通り芯
  6
Continuous
 62
     3
370
     9
100
AcDbCircle
 10
219.3208082836141
 20
68.39209391365563
 30
0.0
 40
1.500000019331236
100
AcDbArc
 50
180.0
 51
254.0546112060547
  0
ARC
  5
37D
330
1F
100
AcDbEntity
  8
A-0_通り芯
  6
Continuous
 62
     3
370
     9
100
AcDbCircle
 10
217.8208280787999
 20
81.20784362332626
 30
0.0
 40
1.500000019331236
100
AcDbArc
 50
123.6900634765625
 51
180.0
  0
ARC
  5
37E
330
1F
100
AcDbEntity
  8
A-0_通り芯
  6
Continuous
 62
     3
370
     9
100
AcDbCircle
 10
217.8208280787999
 20
70.81354001796302
 30
0.0
 40
1.500000019331236
100
AcDbArc
 50
180.0
 51
236.3099365234375
  0
ARC
  5
37F
330
1F
100
AcDbEntity
  8
A-0_通り芯
  6
Continuous
 62
     3
370
     9
100
AcDbCircle
 10
219.3208082836141
 20
111.1292567356573
 30
0.0
 40
1.500000019331236
100
AcDbArc
 50
105.9453887939453
 51
180.0
  0
ARC
  5
380
330
1F
100
AcDbEntity
  8
A-0_通り芯
  6
Continuous
 62
     3
370
     9
100
AcDbCircle
 10
219.3208082836141
 20
95.89215989760834
 30
0.0
 40
1.500000019331236
100
AcDbArc
 50
180.0
 51
254.0546112060547
  0
ARC
  5
381
330
1F
100
AcDbEntity
  8
A-0_通り芯
  6
Continuous
 62
     3
370
     9
100
AcDbCircle
 10
217.8208280787999
 20
108.7079590952434
 30
0.0
 40
1.500000019331236
100
AcDbArc
 50
123.6900634765625
 51
180.0
  0
ARC
  5
382
330
1F
100
AcDbEntity
  8
A-0_通り芯
  6
Continuous
 62
     3
370
     9
100
AcDbCircle
 10
217.8208280787999
 20
98.31350702598678
 30
0.0
 40
1.500000019331236
100
AcDbArc
 50
180.0
 51
236.3099365234375
  0
ARC
  5
383
330
1F
100
AcDbEntity
  8
A-0_通り芯
  6
Continuous
 62
     3
370
     9
100
AcDbCircle
 10
219.3208082836141
 20
123.3921763935966
 30
0.0
 40
1.500000019331236
100
AcDbArc
 50
180.0
 51
254.0546112060547
  0
ARC
  5
384
330
1F
100
AcDbEntity
  8
A-0_通り芯
  6
Continuous
 62
     3
370
     9
100
AcDbCircle
 10
217.8208280787999
 20
125.8134245460458
 30
0.0
 40
1.500000019331236
100
AcDbArc
 50
180.0
 51
236.3099365234375
  0
ARC
  5
385
330
1F
100
AcDbEntity
  8
A-0_通り芯
  6
Continuous
 62
     3
370
     9
100
AcDbCircle
 10
249.8207357012662
 20
133.6072840794073
 30
0.0
 40
1.500000019331236
100
AcDbArc
 50
0.0
 51
86.1875
  0
ARC
  5
386
330
1F
100
AcDbEntity
  8
A-0_通り芯
  6
Continuous
 62
     3
370
     9
100
AcDbCircle
 10
249.8207357012662
 20
128.4140170819412
 30
0.0
 40
1.500000019331236
100
AcDbArc
 50
273.8125
 51
0.0
  0
ARC
  5
387
330
1F
100
AcDbEntity
  8
A-0_通り芯
  6
Continuous
 62
     3
370
     9
100
AcDbCircle
 10
249.8207357012662
 20
78.60744903928907
 30
0.0
 40
1.500000019331236
100
AcDbArc
 50
0.0
 51
86.18743896484376
  0
ARC
  5
388
330
1F
100
AcDbEntity
  8
A-0_通り芯
  6
Continuous
 62
     3
370
     9
100
AcDbCircle
 10
249.8207357012662
 20
73.4139840899648
 30
0.0
 40
1.500000019331236
100
AcDbArc
 50
273.8125610351562
 51
0.0000000000000254
  0
ARC
  5
389
330
1F
100
AcDbEntity
  8
A-0_通り芯
  6
Continuous
 62
     3
370
     9
100
AcDbCircle
 10
224.3206763157087
 20
84.81739677999855
 30
0.0
 40
3.000000038662472
100
AcDbArc
 50
180.0
 51
266.1856079101563
  0
ARC
  5
38A
330
1F
100
AcDbEntity
  8
A-0_通り芯
  6
Continuous
 62
     3
370
     9
100
AcDbCircle
 10
224.3206763157087
 20
67.20398686129073
 30
0.0
 40
3.000000038662472
100
AcDbArc
 50
93.81439208984376
 51
180.0
  0
ARC
  5
38B
330
1F
100
AcDbEntity
  8
A-0_通り芯
  6
Continuous
 62
     3
370
     9
100
AcDbCircle
 10
246.3208478739858
 20
66.66630012670458
 30
0.0
 40
5.000001030999261
100
AcDbArc
 50
93.81422424316406
 51
180.0
  0
ARC
  5
38C
330
1F
100
AcDbEntity
  8
A-0_通り芯
  6
Continuous
 62
     3
370
     9
100
AcDbCircle
 10
246.3208478739858
 20
85.35513300254917
 30
0.0
 40
5.000001030999261
100
AcDbArc
 50
180.0
 51
266.1857757568359
  0
ARC
  5
38D
330
1F
100
AcDbEntity
  8
A-0_通り芯
  6
Continuous
 62
     3
370
     9
100
AcDbCircle
 10
224.8208016852189
 20
-2.718993369916973
 30
0.0
 40
1.500000019331236
100
AcDbArc
 50
0.0
 51
78.69062805175781
  0
ARC
  5
38E
330
1F
100
AcDbEntity
  8
A-0_通り芯
  6
Continuous
 62
     3
370
     9
100
AcDbCircle
 10
224.8208016852189
 20
-10.25962298879364
 30
0.0
 40
1.500000019331236
100
AcDbArc
 50
281.3093719482422
 51
0.0000000000000382
  0
ARC
  5
38F
330
1F
100
AcDbEntity
  8
A-0_通り芯
  6
Continuous
 62
     3
370
     9
100
AcDbCircle
 10
224.3206763157087
 20
-14.94860762772947
 30
0.0
 40
3.000000038662472
100
AcDbArc
 50
101.310302734375
 51
180.0
  0
ARC
  5
390
330
1F
100
AcDbEntity
  8
A-0_通り芯
  6
Continuous
 62
     3
370
     9
100
AcDbCircle
 10
224.3206763157087
 20
1.970090244947812
 30
0.0
 40
3.000000038662472
100
AcDbArc
 50
180.0
 51
258.689697265625
  0
ARC
  5
391
330
1F
100
AcDbEntity
  8
A-0_通り芯
  6
Continuous
 62
     3
370
     9
100
AcDbCircle
 10
224.8208016852189
 20
24.78097363810667
 30
0.0
 40
1.500000019331236
100
AcDbArc
 50
0.0
 51
78.69062805175781
  0
ARC
  5
392
330
1F
100
AcDbEntity
  8
A-0_通り芯
  6
Continuous
 62
     3
370
     9
100
AcDbCircle
 10
224.8208016852189
 20
17.24034401923001
 30
0.0
 40
1.500000019331236
100
AcDbArc
 50
281.3093719482422
 51
0.0000000000000382
  0
ARC
  5
393
330
1F
100
AcDbEntity
  8
A-0_通り芯
  6
Continuous
 62
     3
370
     9
100
AcDbCircle
 10
224.3206763157087
 20
12.55135938029417
 30
0.0
 40
3.000000038662472
100
AcDbArc
 50
101.310302734375
 51
180.0
  0
ARC
  5
394
330
1F
100
AcDbEntity
  8
A-0_通り芯
  6
Continuous
 62
     3
370
     9
100
AcDbCircle
 10
224.3206763157087
 20
29.47015622890052
 30
0.0
 40
3.000000038662472
100
AcDbArc
 50
180.0
 51
258.689697265625
  0
ARC
  5
395
330
1F
100
AcDbEntity
  8
A-0_通り芯
  6
Continuous
 62
     3
370
     9
100
AcDbCircle
 10
224.8208016852189
 20
52.28094064613032
 30
0.0
 40
1.500000019331236
100
AcDbArc
 50
0.0
 51
78.69062805175781
  0
ARC
  5
396
330
1F
100
AcDbEntity
  8
A-0_通り芯
  6
Continuous
 62
     3
370
     9
100
AcDbCircle
 10
224.8208016852189
 20
44.74041000318272
 30
0.0
 40
1.500000019331236
100
AcDbArc
 50
281.3093719482422
 51
0.0000000000000382
  0
ARC
  5
397
330
1F
100
AcDbEntity
  8
A-0_通り芯
  6
Continuous
 62
     3
370
     9
100
AcDbCircle
 10
224.3206763157087
 20
40.05132638831782
 30
0.0
 40
3.000000038662472
100
AcDbArc
 50
101.310302734375
 51
180.0
  0
ARC
  5
398
330
1F
100
AcDbEntity
  8
A-0_通り芯
  6
Continuous
 62
     3
370
     9
100
AcDbCircle
 10
224.3206763157087
 20
56.97012323692417
 30
0.0
 40
3.000000038662472
100
AcDbArc
 50
180.0
 51
258.689697265625
  0
ARC
  5
399
330
1F
100
AcDbEntity
  8
A-0_通り芯
  6
Continuous
 62
     3
370
     9
100
AcDbCircle
 10
224.8208016852189
 20
107.2809736381067
 30
0.0
 40
1.500000019331236
100
AcDbArc
 50
0.0
 51
78.69062805175781
  0
ARC
  5
39A
330
1F
100
AcDbEntity
  8
A-0_通り芯
  6
Continuous
 62
     3
370
     9
100
AcDbCircle
 10
224.8208016852189
 20
99.74039350719448
 30
0.0
 40
1.500000019331236
100
AcDbArc
 50
281.3093719482422
 51
0.0000000000000382
  0
ARC
  5
39B
330
1F
100
AcDbEntity
  8
A-0_通り芯
  6
Continuous
 62
     3
370
     9
100
AcDbCircle
 10
224.3206763157087
 20
95.05126040436511
 30
0.0
 40
3.000000038662472
100
AcDbArc
 50
101.310302734375
 51
180.0
  0
ARC
  5
39C
330
1F
100
AcDbEntity
  8
A-0_通り芯
  6
Continuous
 62
     3
370
     9
100
AcDbCircle
 10
224.3206763157087
 20
111.9702057168651
 30
0.0
 40
3.000000038662472
100
AcDbArc
 50
180.0
 51
258.689697265625
  0
ARC
  5
39D
330
1F
100
AcDbEntity
  8
A-0_通り芯
  6
Continuous
 62
     3
370
     9
100
AcDbCircle
 10
224.8208016852189
 20
127.2403605152181
 30
0.0
 40
1.500000019331236
100
AcDbArc
 50
281.3093719482422
 51
0.0000000000000382
  0
ARC
  5
39E
330
1F
100
AcDbEntity
  8
A-0_通り芯
  6
Continuous
 62
     3
370
     9
100
AcDbCircle
 10
224.3206763157087
 20
122.5512769003532
 30
0.0
 40
3.000000038662472
100
AcDbArc
 50
101.310302734375
 51
180.0
  0
ARC
  5
39F
330
1F
100
AcDbEntity
  8
A-0_通り芯
  6
Continuous
 62
     3
370
     9
100
AcDbCircle
 10
-363.7259017565042
 20
-221.6892313080505
 30
0.0
 40
1.500000019331236
100
AcDbArc
 50
191.0860290527343
 51
270.0
  0
ARC
  5
3A0
330
1F
100
AcDbEntity
  8
A-0_通り芯
  6
Continuous
 62
     3
370
     9
100
AcDbCircle
 10
-372.1716167586156
 20
-207.1891587257025
 30
0.0
 40
4.000000438174686
100
AcDbArc
 50
11.08595275878906
 51
89.99964904785156
  0
ARC
  5
3A1
330
1F
100
AcDbEntity
  8
A-0_通り芯
  6
Continuous
 62
     3
370
     9
100
AcDbCircle
 10
-369.5457358728471
 20
-210.1892181112599
 30
0.0
 40
2.000000219087343
100
AcDbArc
 50
11.08584594726562
 51
90.00000000000001
  0
ARC
  5
3A2
330
1F
100
AcDbEntity
  8
A-0_通り芯
  6
Continuous
 62
     3
370
     9
100
AcDbCircle
 10
-354.1950641562086
 20
-221.6892313080505
 30
0.0
 40
1.500000019331236
100
AcDbArc
 50
270.0
 51
348.9139709472656
  0
ARC
  5
3A3
330
1F
100
AcDbEntity
  8
A-0_通り芯
  6
Continuous
 62
     3
370
     9
100
AcDbCircle
 10
-345.7492996661325
 20
-207.1891587257025
 30
0.0
 40
4.000000438174686
100
AcDbArc
 50
90.00035095214844
 51
168.914047241211
  0
ARC
  5
3A4
330
1F
100
AcDbEntity
  8
A-0_通り芯
  6
Continuous
 62
     3
370
     9
100
AcDbCircle
 10
-348.3752300398656
 20
-210.1892181112599
 30
0.0
 40
2.000000219087343
100
AcDbArc
 50
90.0
 51
168.9141540527344
  0
ARC
  5
3A5
330
1F
100
AcDbEntity
  8
A-0_通り芯
  6
Continuous
 62
     3
370
     9
100
AcDbCircle
 10
-459.682075215119
 20
-199.6892577016316
 30
0.0
 40
1.500000019331236
100
AcDbArc
 50
33.69020080566407
 51
90.0
  0
ARC
  5
3A6
330
1F
100
AcDbEntity
  8
A-0_通り芯
  6
Continuous
 62
     3
370
     9
100
AcDbCircle
 10
-472.0764843948065
 20
-199.6892577016316
 30
0.0
 40
1.500000019331236
100
AcDbArc
 50
90.0
 51
146.3097991943359
  0
ARC
  5
3A7
330
1F
100
AcDbEntity
  8
A-0_通り芯
  6
Continuous
 62
     3
370
     9
100
AcDbCircle
 10
-438.0820633380075
 20
-199.6892577016316
 30
0.0
 40
1.500000019331236
100
AcDbArc
 50
33.69020080566407
 51
90.0
  0
ARC
  5
3A8
330
1F
100
AcDbEntity
  8
A-0_通り芯
  6
Continuous
 62
     3
370
     9
100
AcDbCircle
 10
-450.4764230297304
 20
-199.6892577016316
 30
0.0
 40
1.500000019331236
100
AcDbArc
 50
90.0
 51
146.3097991943359
  0
ARC
  5
3A9
330
1F
100
AcDbEntity
  8
A-0_通り芯
  6
Continuous
 62
     3
370
     9
100
AcDbCircle
 10
-416.4820514608961
 20
-199.6892577016316
 30
0.0
 40
1.500000019331236
100
AcDbArc
 50
33.69020080566407
 51
90.0
  0
ARC
  5
3AA
330
1F
100
AcDbEntity
  8
A-0_通り芯
  6
Continuous
 62
     3
370
     9
100
AcDbCircle
 10
-428.8764606405836
 20
-199.6892577016316
 30
0.0
 40
1.500000019331236
100
AcDbArc
 50
90.0
 51
146.3097991943359
  0
ARC
  5
3AB
330
1F
100
AcDbEntity
  8
A-0_通り芯
  6
Continuous
 62
     3
370
     9
100
AcDbCircle
 10
-394.8820395837846
 20
-199.6892577016316
 30
0.0
 40
1.500000019331236
100
AcDbArc
 50
33.69020080566407
 51
90.0
  0
ARC
  5
3AC
330
1F
100
AcDbEntity
  8
A-0_通り芯
  6
Continuous
 62
     3
370
     9
100
AcDbCircle
 10
-407.2764487634721
 20
-199.6892577016316
 30
0.0
 40
1.500000019331236
100
AcDbArc
 50
90.0
 51
146.3097991943359
  0
ARC
  5
3AD
330
1F
100
AcDbEntity
  8
A-0_通り芯
  6
Continuous
 62
     3
370
     9
100
AcDbCircle
 10
-373.2820277066731
 20
-199.6892577016316
 30
0.0
 40
1.500000019331236
100
AcDbArc
 50
33.69020080566407
 51
90.0
  0
ARC
  5
3AE
330
1F
100
AcDbEntity
  8
A-0_通り芯
  6
Continuous
 62
     3
370
     9
100
AcDbCircle
 10
-385.6764368863606
 20
-199.6892577016316
 30
0.0
 40
1.500000019331236
100
AcDbArc
 50
90.0
 51
146.3097991943359
  0
ARC
  5
3AF
330
1F
100
AcDbEntity
  8
A-0_通り芯
  6
Continuous
 62
     3
370
     9
100
AcDbCircle
 10
-351.6820653175261
 20
-199.6892577016316
 30
0.0
 40
1.500000019331236
100
AcDbArc
 50
33.69020080566407
 51
90.0
  0
ARC
  5
3B0
330
1F
100
AcDbEntity
  8
A-0_通り芯
  6
Continuous
 62
     3
370
     9
100
AcDbCircle
 10
-364.0764250092492
 20
-199.6892577016316
 30
0.0
 40
1.500000019331236
100
AcDbArc
 50
90.0
 51
146.3097991943359
  0
ARC
  5
3B1
330
1F
100
AcDbEntity
  8
A-0_通り芯
  6
Continuous
 62
     3
370
     9
100
AcDbCircle
 10
-330.08200395245
 20
-199.6892577016316
 30
0.0
 40
1.500000019331236
100
AcDbArc
 50
33.69020080566407
 51
90.0
  0
ARC
  5
3B2
330
1F
100
AcDbEntity
  8
A-0_通り芯
  6
Continuous
 62
     3
370
     9
100
AcDbCircle
 10
-342.4764131321375
 20
-199.6892577016316
 30
0.0
 40
1.500000019331236
100
AcDbArc
 50
90.0
 51
146.3097991943359
  0
ARC
  5
3B3
330
1F
100
AcDbEntity
  8
A-0_通り芯
  6
Continuous
 62
     3
370
     9
100
AcDbCircle
 10
-308.4820415633031
 20
-199.6892577016316
 30
0.0
 40
1.500000019331236
100
AcDbArc
 50
33.69020080566407
 51
90.0
  0
ARC
  5
3B4
330
1F
100
AcDbEntity
  8
A-0_通り芯
  6
Continuous
 62
     3
370
     9
100
AcDbCircle
 10
-320.8764012550261
 20
-199.6892577016316
 30
0.0
 40
1.500000019331236
100
AcDbArc
 50
90.0
 51
146.3097991943359
  0
ARC
  5
3B5
330
1F
100
AcDbEntity
  8
A-0_通り芯
  6
Continuous
 62
     3
370
     9
100
AcDbCircle
 10
-418.4115871978048
 20
-218.1890960409474
 30
0.0
 40
15.00000154649889
100
AcDbArc
 50
229.398681640625
 51
270.0
  0
ARC
  5
3B6
330
1F
100
AcDbEntity
  8
A-0_通り芯
  6
Continuous
 62
     3
370
     9
100
AcDbCircle
 10
-131.3791164946798
 20
-41.48920095543218
 30
0.0
 40
1.500000019331236
100
AcDbArc
 50
270.0
 51
0.0
  0
ARC
  5
3B7
330
1F
100
AcDbEntity
  8
A-0_通り芯
  6
Continuous
 62
     3
370
     9
100
AcDbCircle
 10
-131.3791164946798
 20
-26.73926364018729
 30
0.0
 40
1.500000019331236
100
AcDbArc
 50
0.0
 51
90.0
  0
ARC
  5
3B8
330
1F
100
AcDbEntity
  8
A-0_通り芯
  6
Continuous
 62
     3
370
     9
100
AcDbCircle
 10
-130.3791626834467
 20
-25.73930982895416
 30
0.0
 40
1.500000019331236
100
AcDbArc
 50
0.0
 51
90.0
  0
ARC
  5
3B9
330
1F
100
AcDbEntity
  8
A-0_通り芯
  6
Continuous
 62
     3
370
     9
100
AcDbCircle
 10
-130.3791626834467
 20
-42.4893032305589
 30
0.0
 40
1.500000019331236
100
AcDbArc
 50
270.0
 51
0.0
  0
ARC
  5
3BA
330
1F
100
AcDbEntity
  8
A-0_通り芯
  6
Continuous
 62
     3
370
     9
100
AcDbCircle
 10
-130.3791626834467
 20
1.760756154998546
 30
0.0
 40
1.500000019331236
100
AcDbArc
 50
0.0
 51
90.0
  0
ARC
  5
3BB
330
1F
100
AcDbEntity
  8
A-0_通り芯
  6
Continuous
 62
     3
370
     9
100
AcDbCircle
 10
-131.3791164946798
 20
0.7607033678363564
 30
0.0
 40
1.500000019331236
100
AcDbArc
 50
0.0
 51
90.0
  0
ARC
  5
3BC
330
1F
100
AcDbEntity
  8
A-0_通り芯
  6
Continuous
 62
     3
370
     9
100
AcDbCircle
 10
-130.3791626834467
 20
-14.73922404981562
 30
0.0
 40
1.500000019331236
100
AcDbArc
 50
270.0
 51
0.0
  0
ARC
  5
3BD
330
1F
100
AcDbEntity
  8
A-0_通り芯
  6
Continuous
 62
     3
370
     9
100
AcDbCircle
 10
-131.3791164946798
 20
-13.73927023858249
 30
0.0
 40
1.500000019331236
100
AcDbArc
 50
270.0
 51
0.0
  0
ARC
  5
3BE
330
1F
100
AcDbEntity
  8
A-0_通り芯
  6
Continuous
 62
     3
370
     9
100
AcDbCircle
 10
-130.3791626834467
 20
29.26072316302219
 30
0.0
 40
1.500000019331236
100
AcDbArc
 50
0.0
 51
90.0
  0
ARC
  5
3BF
330
1F
100
AcDbEntity
  8
A-0_通り芯
  6
Continuous
 62
     3
370
     9
100
AcDbCircle
 10
-131.3791164946798
 20
28.26067037586
 30
0.0
 40
1.500000019331236
100
AcDbArc
 50
0.0
 51
90.0
  0
ARC
  5
3C0
330
1F
100
AcDbEntity
  8
A-0_通り芯
  6
Continuous
 62
     3
370
     9
100
AcDbCircle
 10
-130.3791626834467
 20
12.76074295820803
 30
0.0
 40
1.500000019331236
100
AcDbArc
 50
270.0
 51
0.0
  0
ARC
  5
3C1
330
1F
100
AcDbEntity
  8
A-0_通り芯
  6
Continuous
 62
     3
370
     9
100
AcDbCircle
 10
-131.3791164946798
 20
13.76084523333469
 30
0.0
 40
1.500000019331236
100
AcDbArc
 50
270.0
 51
0.0
  0
ARC
  5
3C2
330
1F
100
AcDbEntity
  8
A-0_通り芯
  6
Continuous
 62
     3
370
     9
100
AcDbCircle
 10
-130.3791626834467
 20
56.76069017104584
 30
0.0
 40
1.500000019331236
100
AcDbArc
 50
0.0
 51
90.0
  0
ARC
  5
3C3
330
1F
100
AcDbEntity
  8
A-0_通り芯
  6
Continuous
 62
     3
370
     9
100
AcDbCircle
 10
-131.3791164946798
 20
55.7607858477773
 30
0.0
 40
1.500000019331236
100
AcDbArc
 50
0.0
 51
90.0
  0
ARC
  5
3C4
330
1F
100
AcDbEntity
  8
A-0_通り芯
  6
Continuous
 62
     3
370
     9
100
AcDbCircle
 10
-130.3791626834467
 20
40.26070996623167
 30
0.0
 40
1.500000019331236
100
AcDbArc
 50
270.0
 51
0.0
  0
ARC
  5
3C5
330
1F
100
AcDbEntity
  8
A-0_通り芯
  6
Continuous
 62
     3
370
     9
100
AcDbCircle
 10
-131.3791164946798
 20
41.26081224135834
 30
0.0
 40
1.500000019331236
100
AcDbArc
 50
270.0
 51
0.0
  0
ARC
  5
3C6
330
1F
100
AcDbEntity
  8
A-0_通り芯
  6
Continuous
 62
     3
370
     9
100
AcDbCircle
 10
-130.3791626834467
 20
84.26070666703407
 30
0.0
 40
1.500000019331236
100
AcDbArc
 50
0.0
 51
90.0
  0
ARC
  5
3C7
330
1F
100
AcDbEntity
  8
A-0_通り芯
  6
Continuous
 62
     3
370
     9
100
AcDbCircle
 10
-131.3791164946798
 20
83.26075285580094
 30
0.0
 40
1.500000019331236
100
AcDbArc
 50
0.0
 51
90.0
  0
ARC
  5
3C8
330
1F
100
AcDbEntity
  8
A-0_通り芯
  6
Continuous
 62
     3
370
     9
100
AcDbCircle
 10
-130.3791626834467
 20
67.7607264622198
 30
0.0
 40
1.500000019331236
100
AcDbArc
 50
270.0
 51
0.0
  0
ARC
  5
3C9
330
1F
100
AcDbEntity
  8
A-0_通り芯
  6
Continuous
 62
     3
370
     9
100
AcDbCircle
 10
-131.3791164946798
 20
68.76077924938198
 30
0.0
 40
1.500000019331236
100
AcDbArc
 50
270.0
 51
0.0
  0
ARC
  5
3CA
330
1F
100
AcDbEntity
  8
A-0_通り芯
  6
Continuous
 62
     3
370
     9
100
AcDbCircle
 10
-130.3791626834467
 20
111.7608716269157
 30
0.0
 40
1.500000019331236
100
AcDbArc
 50
0.0
 51
90.0
  0
ARC
  5
3CB
330
1F
100
AcDbEntity
  8
A-0_通り芯
  6
Continuous
 62
     3
370
     9
100
AcDbCircle
 10
-131.3791164946798
 20
110.7607198638246
 30
0.0
 40
1.500000019331236
100
AcDbArc
 50
0.0
 51
90.0
  0
ARC
  5
3CC
330
1F
100
AcDbEntity
  8
A-0_通り芯
  6
Continuous
 62
     3
370
     9
100
AcDbCircle
 10
-130.3791626834467
 20
95.26074295820803
 30
0.0
 40
1.500000019331236
100
AcDbArc
 50
270.0
 51
0.0
  0
ARC
  5
3CD
330
1F
100
AcDbEntity
  8
A-0_通り芯
  6
Continuous
 62
     3
370
     9
100
AcDbCircle
 10
-131.3791164946798
 20
96.26074625740563
 30
0.0
 40
1.500000019331236
100
AcDbArc
 50
270.0
 51
0.0
  0
ARC
  5
3CE
330
1F
100
AcDbEntity
  8
A-0_通り芯
  6
Continuous
 62
     3
370
     9
100
AcDbCircle
 10
-130.3791626834467
 20
122.7608089421607
 30
0.0
 40
1.500000019331236
100
AcDbArc
 50
270.0
 51
0.0
  0
ARC
  5
3CF
330
1F
100
AcDbEntity
  8
A-0_通り芯
  6
Continuous
 62
     3
370
     9
100
AcDbCircle
 10
-131.3791164946798
 20
123.7607627533939
 30
0.0
 40
1.500000019331236
100
AcDbArc
 50
270.0
 51
0.0
  0
ARC
  5
3D0
330
1F
100
AcDbEntity
  8
A-0_通り芯
  6
Continuous
 62
     3
370
     9
100
AcDbCircle
 10
-476.3793144465379
 20
303.5107495566033
 30
0.0
 40
1.500000019331236
100
AcDbArc
 50
90.0
 51
180.0
  0
ARC
  5
3D1
330
1F
100
AcDbEntity
  8
A-0_通り芯
  6
Continuous
 62
     3
370
     9
100
AcDbCircle
 10
-476.3793144465379
 20
288.7607627533939
 30
0.0
 40
1.500000019331236
100
AcDbArc
 50
180.0
 51
270.0
  0
ARC
  5
3D2
330
1F
100
AcDbEntity
  8
A-0_通り芯
  6
Continuous
 62
     3
370
     9
100
AcDbCircle
 10
-477.3792682577711
 20
287.7608089421607
 30
0.0
 40
1.500000019331236
100
AcDbArc
 50
180.0
 51
270.0
  0
ARC
  5
3D3
330
1F
100
AcDbEntity
  8
A-0_通り芯
  6
Continuous
 62
     3
370
     9
100
AcDbCircle
 10
-477.3792682577711
 20
304.5108023437654
 30
0.0
 40
1.500000019331236
100
AcDbArc
 50
90.0
 51
180.0
  0
ARC
  5
3D4
330
1F
100
AcDbEntity
  8
A-0_通り芯
  6
Continuous
 62
     3
370
     9
100
AcDbCircle
 10
-477.3792682577711
 20
260.260742958208
 30
0.0
 40
1.500000019331236
100
AcDbArc
 50
180.0
 51
270.0
  0
ARC
  5
3D5
330
1F
100
AcDbEntity
  8
A-0_通り芯
  6
Continuous
 62
     3
370
     9
100
AcDbCircle
 10
-476.3793144465379
 20
261.2606967694412
 30
0.0
 40
1.500000019331236
100
AcDbArc
 50
180.0
 51
270.0
  0
ARC
  5
3D6
330
1F
100
AcDbEntity
  8
A-0_通り芯
  6
Continuous
 62
     3
370
     9
100
AcDbCircle
 10
-477.3792682577711
 20
276.7607231630222
 30
0.0
 40
1.500000019331236
100
AcDbArc
 50
90.0
 51
180.0
  0
ARC
  5
3D7
330
1F
100
AcDbEntity
  8
A-0_通り芯
  6
Continuous
 62
     3
370
     9
100
AcDbCircle
 10
-476.3793144465379
 20
275.7607693517891
 30
0.0
 40
1.500000019331236
100
AcDbArc
 50
90.0
 51
180.0
  0
ARC
  5
3D8
330
1F
100
AcDbEntity
  8
A-0_通り芯
  6
Continuous
 62
     3
370
     9
100
AcDbCircle
 10
-477.3792682577711
 20
232.7608749261134
 30
0.0
 40
1.500000019331236
100
AcDbArc
 50
180.0
 51
270.0
  0
ARC
  5
3D9
330
1F
100
AcDbEntity
  8
A-0_通り芯
  6
Continuous
 62
     3
370
     9
100
AcDbCircle
 10
-476.3793144465379
 20
233.7608287373466
 30
0.0
 40
1.500000019331236
100
AcDbArc
 50
180.0
 51
270.0
  0
ARC
  5
3DA
330
1F
100
AcDbEntity
  8
A-0_通り芯
  6
Continuous
 62
     3
370
     9
100
AcDbCircle
 10
-477.3792682577711
 20
249.2606571790695
 30
0.0
 40
1.500000019331236
100
AcDbArc
 50
90.0
 51
180.0
  0
ARC
  5
3DB
330
1F
100
AcDbEntity
  8
A-0_通り芯
  6
Continuous
 62
     3
370
     9
100
AcDbCircle
 10
-476.3793144465379
 20
248.2607033678364
 30
0.0
 40
1.500000019331236
100
AcDbArc
 50
90.0
 51
180.0
  0
ARC
  5
3DC
330
1F
100
AcDbEntity
  8
A-0_通り芯
  6
Continuous
 62
     3
370
     9
100
AcDbCircle
 10
-477.3792682577711
 20
205.2608089421607
 30
0.0
 40
1.500000019331236
100
AcDbArc
 50
180.0
 51
270.0
  0
ARC
  5
3DD
330
1F
100
AcDbEntity
  8
A-0_通り芯
  6
Continuous
 62
     3
370
     9
100
AcDbCircle
 10
-476.3793144465379
 20
206.2607627533939
 30
0.0
 40
1.500000019331236
100
AcDbArc
 50
180.0
 51
270.0
  0
ARC
  5
3DE
330
1F
100
AcDbEntity
  8
A-0_通り芯
  6
Continuous
 62
     3
370
     9
100
AcDbCircle
 10
-477.3792682577711
 20
221.7607891469749
 30
0.0
 40
1.500000019331236
100
AcDbArc
 50
90.0
 51
180.0
  0
ARC
  5
3DF
330
1F
100
AcDbEntity
  8
A-0_通り芯
  6
Continuous
 62
     3
370
     9
100
AcDbCircle
 10
-476.3793144465379
 20
220.7608353357418
 30
0.0
 40
1.500000019331236
100
AcDbArc
 50
90.0
 51
180.0
  0
ARC
  5
3E0
330
1F
100
AcDbEntity
  8
A-0_通り芯
  6
Continuous
 62
     3
370
     9
100
AcDbCircle
 10
-477.3792682577711
 20
177.7608419341371
 30
0.0
 40
1.500000019331236
100
AcDbArc
 50
180.0
 51
270.0
  0
ARC
  5
3E1
330
1F
100
AcDbEntity
  8
A-0_通り芯
  6
Continuous
 62
     3
370
     9
100
AcDbCircle
 10
-476.3793144465379
 20
178.7607957453702
 30
0.0
 40
1.500000019331236
100
AcDbArc
 50
180.0
 51
270.0
  0
ARC
  5
3E2
330
1F
100
AcDbEntity
  8
A-0_通り芯
  6
Continuous
 62
     3
370
     9
100
AcDbCircle
 10
-477.3792682577711
 20
194.2607231630222
 30
0.0
 40
1.500000019331236
100
AcDbArc
 50
90.0
 51
180.0
  0
ARC
  5
3E3
330
1F
100
AcDbEntity
  8
A-0_通り芯
  6
Continuous
 62
     3
370
     9
100
AcDbCircle
 10
-476.3793144465379
 20
193.2607693517891
 30
0.0
 40
1.500000019331236
100
AcDbArc
 50
90.0
 51
180.0
  0
ARC
  5
3E4
330
1F
100
AcDbEntity
  8
A-0_通り芯
  6
Continuous
 62
     3
370
     9
100
AcDbCircle
 10
-477.3792682577711
 20
150.2607759501844
 30
0.0
 40
1.500000019331236
100
AcDbArc
 50
180.0
 51
270.0
  0
ARC
  5
3E5
330
1F
100
AcDbEntity
  8
A-0_通り芯
  6
Continuous
 62
     3
370
     9
100
AcDbCircle
 10
-476.3793144465379
 20
151.2608287373466
 30
0.0
 40
1.500000019331236
100
AcDbArc
 50
180.0
 51
270.0
  0
ARC
  5
3E6
330
1F
100
AcDbEntity
  8
A-0_通り芯
  6
Continuous
 62
     3
370
     9
100
AcDbCircle
 10
-477.3792682577711
 20
166.7607561549985
 30
0.0
 40
1.500000019331236
100
AcDbArc
 50
90.0
 51
180.0
  0
ARC
  5
3E7
330
1F
100
AcDbEntity
  8
A-0_通り芯
  6
Continuous
 62
     3
370
     9
100
AcDbCircle
 10
-476.3793144465379
 20
165.7608023437654
 30
0.0
 40
1.500000019331236
100
AcDbArc
 50
90.0
 51
180.0
  0
ARC
  5
3E8
330
1F
100
AcDbEntity
  8
A-0_通り芯
  6
Continuous
 62
     3
370
     9
100
AcDbCircle
 10
-477.3792682577711
 20
139.2607891469749
 30
0.0
 40
1.500000019331236
100
AcDbArc
 50
90.0
 51
180.0
  0
ARC
  5
3E9
330
1F
100
AcDbEntity
  8
A-0_通り芯
  6
Continuous
 62
     3
370
     9
100
AcDbCircle
 10
-476.3793144465379
 20
138.2608353357418
 30
0.0
 40
1.500000019331236
100
AcDbArc
 50
90.0
 51
180.0
  0
ARC
  5
3EA
330
1F
100
AcDbEntity
  8
A-0_通り芯
  6
Continuous
 62
     3
370
     9
100
AcDbCircle
 10
-131.3791164946798
 20
303.5107495566033
 30
0.0
 40
1.500000019331236
100
AcDbArc
 50
0.0
 51
90.0
  0
ARC
  5
3EB
330
1F
100
AcDbEntity
  8
A-0_通り芯
  6
Continuous
 62
     3
370
     9
100
AcDbCircle
 10
-131.3791164946798
 20
288.7607627533939
 30
0.0
 40
1.500000019331236
100
AcDbArc
 50
270.0
 51
0.0
  0
ARC
  5
3EC
330
1F
100
AcDbEntity
  8
A-0_通り芯
  6
Continuous
 62
     3
370
     9
100
AcDbCircle
 10
-130.3791626834467
 20
287.7608089421607
 30
0.0
 40
1.500000019331236
100
AcDbArc
 50
270.0
 51
0.0
  0
ARC
  5
3ED
330
1F
100
AcDbEntity
  8
A-0_通り芯
  6
Continuous
 62
     3
370
     9
100
AcDbCircle
 10
-130.3791626834467
 20
304.5108023437654
 30
0.0
 40
1.500000019331236
100
AcDbArc
 50
0.0
 51
90.0
  0
ARC
  5
3EE
330
1F
100
AcDbEntity
  8
A-0_通り芯
  6
Continuous
 62
     3
370
     9
100
AcDbCircle
 10
-130.3791626834467
 20
260.260742958208
 30
0.0
 40
1.500000019331236
100
AcDbArc
 50
270.0
 51
0.0
  0
ARC
  5
3EF
330
1F
100
AcDbEntity
  8
A-0_通り芯
  6
Continuous
 62
     3
370
     9
100
AcDbCircle
 10
-131.3791164946798
 20
261.2606967694412
 30
0.0
 40
1.500000019331236
100
AcDbArc
 50
270.0
 51
0.0
  0
ARC
  5
3F0
330
1F
100
AcDbEntity
  8
A-0_通り芯
  6
Continuous
 62
     3
370
     9
100
AcDbCircle
 10
-130.3791626834467
 20
276.7607231630222
 30
0.0
 40
1.500000019331236
100
AcDbArc
 50
0.0
 51
90.0
  0
ARC
  5
3F1
330
1F
100
AcDbEntity
  8
A-0_通り芯
  6
Continuous
 62
     3
370
     9
100
AcDbCircle
 10
-131.3791164946798
 20
275.7607693517891
 30
0.0
 40
1.500000019331236
100
AcDbArc
 50
0.0
 51
90.0
  0
ARC
  5
3F2
330
1F
100
AcDbEntity
  8
A-0_通り芯
  6
Continuous
 62
     3
370
     9
100
AcDbCircle
 10
-130.3791626834467
 20
232.7608749261134
 30
0.0
 40
1.500000019331236
100
AcDbArc
 50
270.0
 51
0.0
  0
ARC
  5
3F3
330
1F
100
AcDbEntity
  8
A-0_通り芯
  6
Continuous
 62
     3
370
     9
100
AcDbCircle
 10
-131.3791164946798
 20
233.7608287373466
 30
0.0
 40
1.500000019331236
100
AcDbArc
 50
270.0
 51
0.0
  0
ARC
  5
3F4
330
1F
100
AcDbEntity
  8
A-0_通り芯
  6
Continuous
 62
     3
370
     9
100
AcDbCircle
 10
-130.3791626834467
 20
249.2606571790695
 30
0.0
 40
1.500000019331236
100
AcDbArc
 50
0.0
 51
90.0
  0
ARC
  5
3F5
330
1F
100
AcDbEntity
  8
A-0_通り芯
  6
Continuous
 62
     3
370
     9
100
AcDbCircle
 10
-131.3791164946798
 20
248.2607033678364
 30
0.0
 40
1.500000019331236
100
AcDbArc
 50
0.0
 51
90.0
  0
ARC
  5
3F6
330
1F
100
AcDbEntity
  8
A-0_通り芯
  6
Continuous
 62
     3
370
     9
100
AcDbCircle
 10
-130.3791626834467
 20
205.2608089421607
 30
0.0
 40
1.500000019331236
100
AcDbArc
 50
270.0
 51
0.0
  0
ARC
  5
3F7
330
1F
100
AcDbEntity
  8
A-0_通り芯
  6
Continuous
 62
     3
370
     9
100
AcDbCircle
 10
-131.3791164946798
 20
206.2607627533939
 30
0.0
 40
1.500000019331236
100
AcDbArc
 50
270.0
 51
0.0
  0
ARC
  5
3F8
330
1F
100
AcDbEntity
  8
A-0_通り芯
  6
Continuous
 62
     3
370
     9
100
AcDbCircle
 10
-130.3791626834467
 20
221.7607891469749
 30
0.0
 40
1.500000019331236
100
AcDbArc
 50
0.0
 51
90.0
  0
ARC
  5
3F9
330
1F
100
AcDbEntity
  8
A-0_通り芯
  6
Continuous
 62
     3
370
     9
100
AcDbCircle
 10
-131.3791164946798
 20
220.7608353357418
 30
0.0
 40
1.500000019331236
100
AcDbArc
 50
0.0
 51
90.0
  0
ARC
  5
3FA
330
1F
100
AcDbEntity
  8
A-0_通り芯
  6
Continuous
 62
     3
370
     9
100
AcDbCircle
 10
-130.3791626834467
 20
177.7608419341371
 30
0.0
 40
1.500000019331236
100
AcDbArc
 50
270.0
 51
0.0
  0
ARC
  5
3FB
330
1F
100
AcDbEntity
  8
A-0_通り芯
  6
Continuous
 62
     3
370
     9
100
AcDbCircle
 10
-131.3791164946798
 20
178.7607957453702
 30
0.0
 40
1.500000019331236
100
AcDbArc
 50
270.0
 51
0.0
  0
ARC
  5
3FC
330
1F
100
AcDbEntity
  8
A-0_通り芯
  6
Continuous
 62
     3
370
     9
100
AcDbCircle
 10
-130.3791626834467
 20
194.2607231630222
 30
0.0
 40
1.500000019331236
100
AcDbArc
 50
0.0
 51
90.0
  0
ARC
  5
3FD
330
1F
100
AcDbEntity
  8
A-0_通り芯
  6
Continuous
 62
     3
370
     9
100
AcDbCircle
 10
-131.3791164946798
 20
193.2607693517891
 30
0.0
 40
1.500000019331236
100
AcDbArc
 50
0.0
 51
90.0
  0
ARC
  5
3FE
330
1F
100
AcDbEntity
  8
A-0_通り芯
  6
Continuous
 62
     3
370
     9
100
AcDbCircle
 10
-130.3791626834467
 20
150.2607759501844
 30
0.0
 40
1.500000019331236
100
AcDbArc
 50
270.0
 51
0.0
  0
ARC
  5
3FF
330
1F
100
AcDbEntity
  8
A-0_通り芯
  6
Continuous
 62
     3
370
     9
100
AcDbCircle
 10
-131.3791164946798
 20
151.2608287373466
 30
0.0
 40
1.500000019331236
100
AcDbArc
 50
270.0
 51
0.0
  0
ARC
  5
400
330
1F
100
AcDbEntity
  8
A-0_通り芯
  6
Continuous
 62
     3
370
     9
100
AcDbCircle
 10
-130.3791626834467
 20
166.7607561549985
 30
0.0
 40
1.500000019331236
100
AcDbArc
 50
0.0
 51
90.0
  0
ARC
  5
401
330
1F
100
AcDbEntity
  8
A-0_通り芯
  6
Continuous
 62
     3
370
     9
100
AcDbCircle
 10
-131.3791164946798
 20
165.7608023437654
 30
0.0
 40
1.500000019331236
100
AcDbArc
 50
0.0
 51
90.0
  0
ARC
  5
402
330
1F
100
AcDbEntity
  8
A-0_通り芯
  6
Continuous
 62
     3
370
     9
100
AcDbCircle
 10
-130.3791626834467
 20
139.2607891469749
 30
0.0
 40
1.500000019331236
100
AcDbArc
 50
0.0
 51
90.0
  0
ARC
  5
403
330
1F
100
AcDbEntity
  8
A-0_通り芯
  6
Continuous
 62
     3
370
     9
100
AcDbCircle
 10
-131.3791164946798
 20
138.2608353357418
 30
0.0
 40
1.500000019331236
100
AcDbArc
 50
0.0
 51
90.0
  0
ARC
  5
404
330
1F
100
AcDbEntity
  8
A-0_通り芯
  6
Continuous
 62
     3
370
     9
100
AcDbCircle
 10
-130.1704224490717
 20
-210.1892181112599
 30
0.0
 40
2.000000219087343
100
AcDbArc
 50
90.0
 51
176.1860504150391
  0
ARC
  5
405
330
1F
100
AcDbEntity
  8
A-0_通り芯
  6
Continuous
 62
     3
370
     9
100
AcDbCircle
 10
-131.1730486103892
 20
-201.1891884184812
 30
0.0
 40
1.500000019331236
100
AcDbArc
 50
15.94538879394531
 51
90.0
  0
ARC
  5
406
330
1F
100
AcDbEntity
  8
A-0_通り芯
  6
Continuous
 62
     3
370
     9
100
AcDbCircle
 10
-134.4448958971292
 20
-221.6892313080505
 30
0.0
 40
1.500000019331236
100
AcDbArc
 50
270.0
 51
356.1860504150391
  0
ARC
  5
407
330
1F
100
AcDbEntity
  8
A-0_通り芯
  6
Continuous
 62
     3
370
     9
100
AcDbCircle
 10
-152.2395802298994
 20
-207.1891587257025
 30
0.0
 40
4.000000438174686
100
AcDbArc
 50
11.31010437011719
 51
90.00000000000001
  0
ARC
  5
408
330
1F
100
AcDbEntity
  8
A-0_通り芯
  6
Continuous
 62
     3
370
     9
100
AcDbCircle
 10
-149.5999911779569
 20
-210.1892181112599
 30
0.0
 40
2.000000219087343
100
AcDbArc
 50
11.30979919433594
 51
90.00000000000001
  0
ARC
  5
409
330
1F
100
AcDbEntity
  8
A-0_通り芯
  6
Continuous
 62
     3
370
     9
100
AcDbCircle
 10
-143.7306196091223
 20
-221.6892313080505
 30
0.0
 40
1.500000019331236
100
AcDbArc
 50
191.3098449707031
 51
270.0
  0
ARC
  5
40A
330
1F
100
AcDbEntity
  8
A-0_通り芯
  6
Continuous
 62
     3
370
     9
100
AcDbCircle
 10
-244.1949486842913
 20
-221.6892313080505
 30
0.0
 40
1.500000019331236
100
AcDbArc
 50
270.0
 51
348.9139709472656
  0
ARC
  5
40B
330
1F
100
AcDbEntity
  8
A-0_通り芯
  6
Continuous
 62
     3
370
     9
100
AcDbCircle
 10
-235.7491841942152
 20
-207.1891587257025
 30
0.0
 40
4.000000438174686
100
AcDbArc
 50
90.00035095214844
 51
168.914047241211
  0
ARC
  5
40C
330
1F
100
AcDbEntity
  8
A-0_通り芯
  6
Continuous
 62
     3
370
     9
100
AcDbCircle
 10
-238.3750155920194
 20
-210.1892181112599
 30
0.0
 40
2.000000219087343
100
AcDbArc
 50
90.0
 51
168.9141540527344
  0
ARC
  5
40D
330
1F
100
AcDbEntity
  8
A-0_通り芯
  6
Continuous
 62
     3
370
     9
100
AcDbCircle
 10
-253.7256873086579
 20
-221.6892313080505
 30
0.0
 40
1.500000019331236
100
AcDbArc
 50
191.0860290527343
 51
270.0
  0
ARC
  5
40E
330
1F
100
AcDbEntity
  8
A-0_通り芯
  6
Continuous
 62
     3
370
     9
100
AcDbCircle
 10
-262.1715012866983
 20
-207.1891587257025
 30
0.0
 40
4.000000438174686
100
AcDbArc
 50
11.08595275878906
 51
89.99964904785156
  0
ARC
  5
40F
330
1F
100
AcDbEntity
  8
A-0_通り芯
  6
Continuous
 62
     3
370
     9
100
AcDbCircle
 10
-259.5456204009298
 20
-210.1892181112599
 30
0.0
 40
2.000000219087343
100
AcDbArc
 50
11.08584594726562
 51
90.00000000000001
  0
ARC
  5
410
330
1F
100
AcDbEntity
  8
A-0_通り芯
  6
Continuous
 62
     3
370
     9
100
AcDbCircle
 10
-148.2387752256765
 20
-199.6892577016316
 30
0.0
 40
1.500000019331236
100
AcDbArc
 50
90.0
 51
146.3097991943359
  0
ARC
  5
411
330
1F
100
AcDbEntity
  8
A-0_通り芯
  6
Continuous
 62
     3
370
     9
100
AcDbCircle
 10
-135.8444155339536
 20
-199.6892577016316
 30
0.0
 40
1.500000019331236
100
AcDbArc
 50
33.69020080566407
 51
90.0
  0
ARC
  5
412
330
1F
100
AcDbEntity
  8
A-0_通り芯
  6
Continuous
 62
     3
370
     9
100
AcDbCircle
 10
-169.8388860787169
 20
-199.6892577016316
 30
0.0
 40
1.500000019331236
100
AcDbArc
 50
90.0
 51
146.3097991943359
  0
ARC
  5
413
330
1F
100
AcDbEntity
  8
A-0_通り芯
  6
Continuous
 62
     3
370
     9
100
AcDbCircle
 10
-157.444427411065
 20
-199.6892577016316
 30
0.0
 40
1.500000019331236
100
AcDbArc
 50
33.69020080566407
 51
90.0
  0
ARC
  5
414
330
1F
100
AcDbEntity
  8
A-0_通り芯
  6
Continuous
 62
     3
370
     9
100
AcDbCircle
 10
-191.4387000039704
 20
-199.6892577016316
 30
0.0
 40
1.500000019331236
100
AcDbArc
 50
90.0
 51
146.3097991943359
  0
ARC
  5
415
330
1F
100
AcDbEntity
  8
A-0_通り芯
  6
Continuous
 62
     3
370
     9
100
AcDbCircle
 10
-179.0443403122473
 20
-199.6892577016316
 30
0.0
 40
1.500000019331236
100
AcDbArc
 50
33.69020080566407
 51
90.0
  0
ARC
  5
416
330
1F
100
AcDbEntity
  8
A-0_通り芯
  6
Continuous
 62
     3
370
     9
100
AcDbCircle
 10
-213.0388603449754
 20
-199.6892577016316
 30
0.0
 40
1.500000019331236
100
AcDbArc
 50
90.0
 51
146.3097991943359
  0
ARC
  5
417
330
1F
100
AcDbEntity
  8
A-0_通り芯
  6
Continuous
 62
     3
370
     9
100
AcDbCircle
 10
-200.6444511652879
 20
-199.6892577016316
 30
0.0
 40
1.500000019331236
100
AcDbArc
 50
33.69020080566407
 51
90.0
  0
ARC
  5
418
330
1F
100
AcDbEntity
  8
A-0_通り芯
  6
Continuous
 62
     3
370
     9
100
AcDbCircle
 10
-234.6386742702288
 20
-199.6892577016316
 30
0.0
 40
1.500000019331236
100
AcDbArc
 50
90.0
 51
146.3097991943359
  0
ARC
  5
419
330
1F
100
AcDbEntity
  8
A-0_通り芯
  6
Continuous
 62
     3
370
     9
100
AcDbCircle
 10
-222.2443640664704
 20
-199.6892577016316
 30
0.0
 40
1.500000019331236
100
AcDbArc
 50
33.69020080566407
 51
90.0
  0
ARC
  5
41A
330
1F
100
AcDbEntity
  8
A-0_通り芯
  6
Continuous
 62
     3
370
     9
100
AcDbCircle
 10
-256.2386861473402
 20
-199.6892577016316
 30
0.0
 40
1.500000019331236
100
AcDbArc
 50
90.0
 51
146.3097991943359
  0
ARC
  5
41B
330
1F
100
AcDbEntity
  8
A-0_通り芯
  6
Continuous
 62
     3
370
     9
100
AcDbCircle
 10
-243.8443759435819
 20
-199.6892577016316
 30
0.0
 40
1.500000019331236
100
AcDbArc
 50
33.69020080566407
 51
90.0
  0
ARC
  5
41C
330
1F
100
AcDbEntity
  8
A-0_通り芯
  6
Continuous
 62
     3
370
     9
100
AcDbCircle
 10
-277.8388464883454
 20
-199.6892577016316
 30
0.0
 40
1.500000019331236
100
AcDbArc
 50
90.0
 51
146.3097991943359
  0
ARC
  5
41D
330
1F
100
AcDbEntity
  8
A-0_通り芯
  6
Continuous
 62
     3
370
     9
100
AcDbCircle
 10
-265.4443878206934
 20
-199.6892577016316
 30
0.0
 40
1.500000019331236
100
AcDbArc
 50
33.69020080566407
 51
90.0
  0
ARC
  5
41E
330
1F
100
AcDbEntity
  8
A-0_通り芯
  6
Continuous
 62
     3
370
     9
100
AcDbCircle
 10
-299.4387099015634
 20
-199.6892577016316
 30
0.0
 40
1.500000019331236
100
AcDbArc
 50
90.0
 51
146.3097991943359
  0
ARC
  5
41F
330
1F
100
AcDbEntity
  8
A-0_通り芯
  6
Continuous
 62
     3
370
     9
100
AcDbCircle
 10
-287.0443996978048
 20
-199.6892577016316
 30
0.0
 40
1.500000019331236
100
AcDbArc
 50
33.69020080566407
 51
90.0
  0
ARC
  5
420
330
1F
100
AcDbEntity
  8
A-0_通り芯
  6
Continuous
 62
     3
370
     9
100
AcDbCircle
 10
-189.5092632429906
 20
-218.1890960409474
 30
0.0
 40
15.00000154649889
100
AcDbArc
 50
270.0
 51
310.601318359375
  0
ARC
  5
421
330
1F
100
AcDbEntity
  8
A-0_通り芯
  6
Continuous
 62
     3
370
     9
100
AcDbCircle
 10
239.8208016852189
 20
300.6074886296607
 30
0.0
 40
1.500000019331236
100
AcDbArc
 50
0.0
 51
86.1875
  0
ARC
  5
422
330
1F
100
AcDbEntity
  8
A-0_通り芯
  6
Continuous
 62
     3
370
     9
100
AcDbCircle
 10
239.8208016852189
 20
293.4375733530559
 30
0.0
 40
1.500000019331236
100
AcDbArc
 50
272.86083984375
 51
0.0000000000000254
  0
ARC
  5
423
330
1F
100
AcDbEntity
  8
A-0_通り芯
  6
Continuous
 62
     3
370
     9
100
AcDbCircle
 10
224.3206763157087
 20
288.1570095861641
 30
0.0
 40
3.000000038662472
100
AcDbArc
 50
92.86271667480469
 51
180.0
  0
ARC
  5
424
330
1F
100
AcDbEntity
  8
A-0_通り芯
  6
Continuous
 62
     3
370
     9
100
AcDbCircle
 10
217.8208280787999
 20
290.9385301203702
 30
0.0
 40
1.500000019331236
100
AcDbArc
 50
179.9990539550781
 51
236.3099365234375
  0
ARC
  5
425
330
1F
100
AcDbEntity
  8
A-0_通り芯
  6
Continuous
 62
     3
370
     9
100
AcDbCircle
 10
217.8208280787999
 20
301.3330811655559
 30
0.0
 40
1.500000019331236
100
AcDbArc
 50
123.6900634765625
 51
180.0
  0
ARC
  5
426
330
1F
100
AcDbEntity
  8
A-0_通り芯
  6
Continuous
 62
     3
370
     9
100
AcDbCircle
 10
219.3208082836141
 20
303.8793359164006
 30
0.0
 40
1.500000019331236
100
AcDbArc
 50
105.9453887939453
 51
180.0
  0
ARC
  5
427
330
1F
100
AcDbEntity
  8
A-0_通り芯
  6
Continuous
 62
     3
370
     9
100
AcDbCircle
 10
219.3208082836141
 20
288.3922753695256
 30
0.0
 40
1.500000019331236
100
AcDbArc
 50
180.0
 51
254.0546112060547
  0
ARC
  5
428
330
1F
100
AcDbEntity
  8
A-0_通り芯
  6
Continuous
 62
     3
370
     9
100
AcDbCircle
 10
228.3206895124993
 20
304.8818631017891
 30
0.0
 40
2.000000219087343
100
AcDbArc
 50
176.3283081054688
 51
266.1860656738281
  0
ARC
  5
429
330
1F
100
AcDbEntity
  8
A-0_通り芯
  6
Continuous
 62
     3
370
     9
100
AcDbCircle
 10
219.3208082836141
 20
260.892308361502
 30
0.0
 40
1.500000019331236
100
AcDbArc
 50
180.0
 51
254.0546112060547
  0
ARC
  5
42A
330
1F
100
AcDbEntity
  8
A-0_通り芯
  6
Continuous
 62
     3
370
     9
100
AcDbCircle
 10
219.3208082836141
 20
276.1293557115864
 30
0.0
 40
1.500000019331236
100
AcDbArc
 50
105.9453887939453
 51
180.0
  0
ARC
  5
42B
330
1F
100
AcDbEntity
  8
A-0_通り芯
  6
Continuous
 62
     3
370
     9
100
AcDbCircle
 10
217.8208280787999
 20
263.3134575380222
 30
0.0
 40
1.500000019331236
100
AcDbArc
 50
180.0
 51
236.3099365234375
  0
ARC
  5
42C
330
1F
100
AcDbEntity
  8
A-0_通り芯
  6
Continuous
 62
     3
370
     9
100
AcDbCircle
 10
217.8208280787999
 20
273.7081075591371
 30
0.0
 40
1.500000019331236
100
AcDbArc
 50
123.6900634765625
 51
180.0
  0
ARC
  5
42D
330
1F
100
AcDbEntity
  8
A-0_通り芯
  6
Continuous
 62
     3
370
     9
100
AcDbCircle
 10
219.3208082836141
 20
233.3923413534782
 30
0.0
 40
1.500000019331236
100
AcDbArc
 50
180.0
 51
254.0546112060547
  0
ARC
  5
42E
330
1F
100
AcDbEntity
  8
A-0_通り芯
  6
Continuous
 62
     3
370
     9
100
AcDbCircle
 10
219.3208082836141
 20
248.6292897276336
 30
0.0
 40
1.500000019331236
100
AcDbArc
 50
105.9453887939453
 51
180.0
  0
ARC
  5
42F
330
1F
100
AcDbEntity
  8
A-0_通り芯
  6
Continuous
 62
     3
370
     9
100
AcDbCircle
 10
217.8208280787999
 20
235.8134905299985
 30
0.0
 40
1.500000019331236
100
AcDbArc
 50
180.0
 51
236.3099365234375
  0
ARC
  5
430
330
1F
100
AcDbEntity
  8
A-0_通り芯
  6
Continuous
 62
     3
370
     9
100
AcDbCircle
 10
217.8208280787999
 20
246.2080415751844
 30
0.0
 40
1.500000019331236
100
AcDbArc
 50
123.6900634765625
 51
180.0
  0
ARC
  5
431
330
1F
100
AcDbEntity
  8
A-0_通り芯
  6
Continuous
 62
     3
370
     9
100
AcDbCircle
 10
219.3208082836141
 20
205.8921763935966
 30
0.0
 40
1.500000019331236
100
AcDbArc
 50
180.0
 51
254.0546112060547
  0
ARC
  5
432
330
1F
100
AcDbEntity
  8
A-0_通り芯
  6
Continuous
 62
     3
370
     9
100
AcDbCircle
 10
219.3208082836141
 20
221.12932271961
 30
0.0
 40
1.500000019331236
100
AcDbArc
 50
105.9453887939453
 51
180.0
  0
ARC
  5
433
330
1F
100
AcDbEntity
  8
A-0_通り芯
  6
Continuous
 62
     3
370
     9
100
AcDbCircle
 10
217.8208280787999
 20
208.3135235219749
 30
0.0
 40
1.500000019331236
100
AcDbArc
 50
180.0
 51
236.3099365234375
  0
ARC
  5
434
330
1F
100
AcDbEntity
  8
A-0_通り芯
  6
Continuous
 62
     3
370
     9
100
AcDbCircle
 10
217.8208280787999
 20
218.7079755912317
 30
0.0
 40
1.500000019331236
100
AcDbArc
 50
123.6900634765625
 51
180.0
  0
ARC
  5
435
330
1F
100
AcDbEntity
  8
A-0_通り芯
  6
Continuous
 62
     3
370
     9
100
AcDbCircle
 10
219.3208082836141
 20
178.3922093855729
 30
0.0
 40
1.500000019331236
100
AcDbArc
 50
180.0
 51
254.0546112060547
  0
ARC
  5
436
330
1F
100
AcDbEntity
  8
A-0_通り芯
  6
Continuous
 62
     3
370
     9
100
AcDbCircle
 10
219.3208082836141
 20
193.6293557115864
 30
0.0
 40
1.500000019331236
100
AcDbArc
 50
105.9453887939453
 51
180.0
  0
ARC
  5
437
330
1F
100
AcDbEntity
  8
A-0_通り芯
  6
Continuous
 62
     3
370
     9
100
AcDbCircle
 10
217.8208280787999
 20
180.8135565139513
 30
0.0
 40
1.500000019331236
100
AcDbArc
 50
180.0
 51
236.3099365234375
  0
ARC
  5
438
330
1F
100
AcDbEntity
  8
A-0_通り芯
  6
Continuous
 62
     3
370
     9
100
AcDbCircle
 10
217.8208280787999
 20
191.208008583208
 30
0.0
 40
1.500000019331236
100
AcDbArc
 50
123.6900634765625
 51
180.0
  0
ARC
  5
439
330
1F
100
AcDbEntity
  8
A-0_通り芯
  6
Continuous
 62
     3
370
     9
100
AcDbCircle
 10
219.3208082836141
 20
150.8922423775493
 30
0.0
 40
1.500000019331236
100
AcDbArc
 50
180.0
 51
254.0546112060547
  0
ARC
  5
43A
330
1F
100
AcDbEntity
  8
A-0_通り芯
  6
Continuous
 62
     3
370
     9
100
AcDbCircle
 10
219.3208082836141
 20
166.1292897276336
 30
0.0
 40
1.500000019331236
100
AcDbArc
 50
105.9453887939453
 51
180.0
  0
ARC
  5
43B
330
1F
100
AcDbEntity
  8
A-0_通り芯
  6
Continuous
 62
     3
370
     9
100
AcDbCircle
 10
217.8208280787999
 20
153.3135895059276
 30
0.0
 40
1.500000019331236
100
AcDbArc
 50
180.0
 51
236.3099365234375
  0
ARC
  5
43C
330
1F
100
AcDbEntity
  8
A-0_通り芯
  6
Continuous
 62
     3
370
     9
100
AcDbCircle
 10
217.8208280787999
 20
163.7080415751844
 30
0.0
 40
1.500000019331236
100
AcDbArc
 50
123.6900634765625
 51
180.0
  0
ARC
  5
43D
330
1F
100
AcDbEntity
  8
A-0_通り芯
  6
Continuous
 62
     3
370
     9
100
AcDbCircle
 10
219.3208082836141
 20
138.62932271961
 30
0.0
 40
1.500000019331236
100
AcDbArc
 50
105.9453887939453
 51
180.0
  0
ARC
  5
43E
330
1F
100
AcDbEntity
  8
A-0_通り芯
  6
Continuous
 62
     3
370
     9
100
AcDbCircle
 10
217.8208280787999
 20
136.2080745671607
 30
0.0
 40
1.500000019331236
100
AcDbArc
 50
123.6900634765625
 51
180.0
  0
ARC
  5
43F
330
1F
100
AcDbEntity
  8
A-0_通り芯
  6
Continuous
 62
     3
370
     9
100
AcDbCircle
 10
249.8207357012662
 20
183.4140500739175
 30
0.0
 40
1.500000019331236
100
AcDbArc
 50
273.8125610351562
 51
0.0000000000000254
  0
ARC
  5
440
330
1F
100
AcDbEntity
  8
A-0_通り芯
  6
Continuous
 62
     3
370
     9
100
AcDbCircle
 10
249.8207357012662
 20
188.6075150232418
 30
0.0
 40
1.500000019331236
100
AcDbArc
 50
0.0
 51
86.18743896484376
  0
ARC
  5
441
330
1F
100
AcDbEntity
  8
A-0_通り芯
  6
Continuous
 62
     3
370
     9
100
AcDbCircle
 10
224.3206763157087
 20
177.204003357279
 30
0.0
 40
3.000000038662472
100
AcDbArc
 50
93.81439208984376
 51
180.0
  0
ARC
  5
442
330
1F
100
AcDbEntity
  8
A-0_通り芯
  6
Continuous
 62
     3
370
     9
100
AcDbCircle
 10
224.3206763157087
 20
194.8174627639513
 30
0.0
 40
3.000000038662472
100
AcDbArc
 50
180.0
 51
266.1856079101563
  0
ARC
  5
443
330
1F
100
AcDbEntity
  8
A-0_通り芯
  6
Continuous
 62
     3
370
     9
100
AcDbCircle
 10
246.3208478739858
 20
195.3551989865019
 30
0.0
 40
5.000001030999261
100
AcDbArc
 50
180.0
 51
266.1857757568359
  0
ARC
  5
444
330
1F
100
AcDbEntity
  8
A-0_通り芯
  6
Continuous
 62
     3
370
     9
100
AcDbCircle
 10
246.3208478739858
 20
176.6662671347282
 30
0.0
 40
5.000001030999261
100
AcDbArc
 50
93.81422424316406
 51
180.0
  0
ARC
  5
445
330
1F
100
AcDbEntity
  8
A-0_通り芯
  6
Continuous
 62
     3
370
     9
100
AcDbCircle
 10
224.8208016852189
 20
264.7404924831235
 30
0.0
 40
1.500000019331236
100
AcDbArc
 50
281.3093719482422
 51
0.0000000000000382
  0
ARC
  5
446
330
1F
100
AcDbEntity
  8
A-0_通り芯
  6
Continuous
 62
     3
370
     9
100
AcDbCircle
 10
224.8208016852189
 20
272.2811715899648
 30
0.0
 40
1.500000019331236
100
AcDbArc
 50
0.0
 51
78.69062805175781
  0
ARC
  5
447
330
1F
100
AcDbEntity
  8
A-0_通り芯
  6
Continuous
 62
     3
370
     9
100
AcDbCircle
 10
224.3206763157087
 20
276.9701562289006
 30
0.0
 40
3.000000038662472
100
AcDbArc
 50
180.0
 51
258.689697265625
  0
ARC
  5
448
330
1F
100
AcDbEntity
  8
A-0_通り芯
  6
Continuous
 62
     3
370
     9
100
AcDbCircle
 10
224.3206763157087
 20
260.0514088682586
 30
0.0
 40
3.000000038662472
100
AcDbArc
 50
101.310302734375
 51
180.0
  0
ARC
  5
449
330
1F
100
AcDbEntity
  8
A-0_通り芯
  6
Continuous
 62
     3
370
     9
100
AcDbCircle
 10
224.8208016852189
 20
237.2404264991708
 30
0.0
 40
1.500000019331236
100
AcDbArc
 50
281.3093719482422
 51
0.0000000000000382
  0
ARC
  5
44A
330
1F
100
AcDbEntity
  8
A-0_通り芯
  6
Continuous
 62
     3
370
     9
100
AcDbCircle
 10
224.8208016852189
 20
244.7811056060121
 30
0.0
 40
1.500000019331236
100
AcDbArc
 50
0.0
 51
78.69062805175781
  0
ARC
  5
44B
330
1F
100
AcDbEntity
  8
A-0_通り芯
  6
Continuous
 62
     3
370
     9
100
AcDbCircle
 10
224.3206763157087
 20
249.470189220877
 30
0.0
 40
3.000000038662472
100
AcDbArc
 50
180.0
 51
258.689697265625
  0
ARC
  5
44C
330
1F
100
AcDbEntity
  8
A-0_通り芯
  6
Continuous
 62
     3
370
     9
100
AcDbCircle
 10
224.3206763157087
 20
232.5513428843059
 30
0.0
 40
3.000000038662472
100
AcDbArc
 50
101.310302734375
 51
180.0
  0
ARC
  5
44D
330
1F
100
AcDbEntity
  8
A-0_通り芯
  6
Continuous
 62
     3
370
     9
100
AcDbCircle
 10
224.8208016852189
 20
209.7405584670763
 30
0.0
 40
1.500000019331236
100
AcDbArc
 50
281.3093719482422
 51
0.0000000000000382
  0
ARC
  5
44E
330
1F
100
AcDbEntity
  8
A-0_通り芯
  6
Continuous
 62
     3
370
     9
100
AcDbCircle
 10
224.8208016852189
 20
217.2810396220594
 30
0.0
 40
1.500000019331236
100
AcDbArc
 50
0.0
 51
78.69062805175781
  0
ARC
  5
44F
330
1F
100
AcDbEntity
  8
A-0_通り芯
  6
Continuous
 62
     3
370
     9
100
AcDbCircle
 10
224.3206763157087
 20
221.9701232369243
 30
0.0
 40
3.000000038662472
100
AcDbArc
 50
180.0
 51
258.689697265625
  0
ARC
  5
450
330
1F
100
AcDbEntity
  8
A-0_通り芯
  6
Continuous
 62
     3
370
     9
100
AcDbCircle
 10
224.3206763157087
 20
205.0513758762823
 30
0.0
 40
3.000000038662472
100
AcDbArc
 50
101.310302734375
 51
180.0
  0
ARC
  5
451
330
1F
100
AcDbEntity
  8
A-0_通り芯
  6
Continuous
 62
     3
370
     9
100
AcDbCircle
 10
224.8208016852189
 20
154.7404264991708
 30
0.0
 40
1.500000019331236
100
AcDbArc
 50
281.3093719482422
 51
0.0000000000000382
  0
ARC
  5
452
330
1F
100
AcDbEntity
  8
A-0_通り芯
  6
Continuous
 62
     3
370
     9
100
AcDbCircle
 10
224.8208016852189
 20
162.2811056060121
 30
0.0
 40
1.500000019331236
100
AcDbArc
 50
0.0
 51
78.69062805175781
  0
ARC
  5
453
330
1F
100
AcDbEntity
  8
A-0_通り芯
  6
Continuous
 62
     3
370
     9
100
AcDbCircle
 10
224.3206763157087
 20
166.9701892208769
 30
0.0
 40
3.000000038662472
100
AcDbArc
 50
180.0
 51
258.689697265625
  0
ARC
  5
454
330
1F
100
AcDbEntity
  8
A-0_通り芯
  6
Continuous
 62
     3
370
     9
100
AcDbCircle
 10
224.3206763157087
 20
150.051441860235
 30
0.0
 40
3.000000038662472
100
AcDbArc
 50
101.310302734375
 51
180.0
  0
ARC
  5
455
330
1F
100
AcDbEntity
  8
A-0_通り芯
  6
Continuous
 62
     3
370
     9
100
AcDbCircle
 10
224.8208016852189
 20
134.7811385979884
 30
0.0
 40
1.500000019331236
100
AcDbArc
 50
0.0
 51
78.69062805175781
  0
ARC
  5
456
330
1F
100
AcDbEntity
  8
A-0_通り芯
  6
Continuous
 62
     3
370
     9
100
AcDbCircle
 10
224.3206763157087
 20
139.4701232369243
 30
0.0
 40
3.000000038662472
100
AcDbArc
 50
180.0
 51
258.689697265625
  0
ARC
  5
457
330
1F
100
AcDbEntity
  8
A-0_通り芯
  6
Continuous
 62
     3
370
     9
100
AcDbCircle
 10
259.0433127705228
 20
131.0107495566032
 30
0.0
 40
2.500000515499631
100
AcDbArc
 50
90.0
 51
270.0
  0
ARC
  5
458
330
1F
100
AcDbEntity
  8
A-0_通り芯
  6
Continuous
 62
     3
370
     9
100
AcDbCircle
 10
296.0434843287999
 20
131.0107495566032
 30
0.0
 40
2.500000515499631
100
AcDbArc
 50
270.0
 51
90.0
  0
ARC
  5
459
330
1F
100
AcDbEntity
  8
A-0_通り芯
  6
Continuous
 62
     3
370
     9
100
AcDbCircle
 10
297.5430686298978
 20
131.0107495566032
 30
0.0
 40
9.00000185579867
100
AcDbArc
 50
196.1276245117188
 51
270.0
  0
ARC
  5
45A
330
1F
100
AcDbEntity
  8
A-0_通り芯
  6
Continuous
 62
     3
370
     9
100
AcDbCircle
 10
297.5433655576851
 20
131.0107495566032
 30
0.0
 40
4.000000438174686
100
AcDbArc
 50
218.6825866699219
 51
269.9984893798828
  0
ARC
  5
45B
330
1F
100
AcDbEntity
  8
A-0_通り芯
  6
Continuous
 62
     3
370
     9
100
AcDbCircle
 10
297.5430686298978
 20
131.0107495566032
 30
0.0
 40
9.00000185579867
100
AcDbArc
 50
90.0
 51
163.8723754882812
  0
ARC
  5
45C
330
1F
100
AcDbEntity
  8
A-0_通り芯
  6
Continuous
 62
     3
370
     9
100
AcDbCircle
 10
297.5433655576851
 20
131.0107495566032
 30
0.0
 40
4.000000438174686
100
AcDbArc
 50
90.0015106201172
 51
141.3174133300782
  0
ARC
  5
45D
330
1F
100
AcDbEntity
  8
A-0_通り芯
  6
Continuous
 62
     3
370
     9
100
AcDbCircle
 10
255.5198686721276
 20
130.9128623627689
 30
0.0
 40
11.96424046078244
100
AcDbArc
 50
269.6048278808594
 51
348.4177856445312
  0
ARC
  5
45E
330
1F
100
AcDbEntity
  8
A-0_通り芯
  6
Continuous
 62
     3
370
     9
100
AcDbCircle
 10
255.5198686721276
 20
131.0778552365019
 30
0.0
 40
6.023802628388276
100
AcDbArc
 50
270.7848968505859
 51
334.7761230468751
  0
ARC
  5
45F
330
1F
100
AcDbEntity
  8
A-0_通り芯
  6
Continuous
 62
     3
370
     9
100
AcDbCircle
 10
255.5198686721276
 20
130.9128623627689
 30
0.0
 40
11.96424046078244
100
AcDbArc
 50
12.54110717773438
 51
89.60482788085938
  0
ARC
  5
460
330
1F
100
AcDbEntity
  8
A-0_通り芯
  6
Continuous
 62
     3
370
     9
100
AcDbCircle
 10
255.5198686721276
 20
131.0778552365019
 30
0.0
 40
6.023802628388276
100
AcDbArc
 50
23.82115173339844
 51
90.78489685058594
  0
ARC
  5
461
330
1F
100
AcDbEntity
  8
A-0_通り芯
  6
Continuous
 62
     3
370
     9
100
AcDbCircle
 10
-410.8791725810396
 20
-253.082564949309
 30
0.0
 40
3.000004098222063
100
AcDbArc
 50
180.0
 51
0.0
  0
ARC
  5
462
330
1F
100
AcDbEntity
  8
A-0_通り芯
  6
Continuous
 62
     3
370
     9
100
AcDbCircle
 10
-410.8791725810396
 20
-257.0825286581349
 30
0.0
 40
9.00000185579867
100
AcDbArc
 50
109.4712677001953
 51
180.0
  0
ARC
  5
463
330
1F
100
AcDbEntity
  8
A-0_通り芯
  6
Continuous
 62
     3
370
     9
100
AcDbCircle
 10
-410.8791725810396
 20
-257.0825286581349
 30
0.0
 40
9.00000185579867
100
AcDbArc
 50
0.0
 51
70.52873229980467
  0
ARC
  5
464
330
1F
100
AcDbEntity
  8
A-0_通り芯
  6
Continuous
 62
     3
370
     9
100
AcDbCircle
 10
-410.8791725810396
 20
-257.0825286581349
 30
0.0
 40
4.000000438174686
100
AcDbArc
 50
359.9996185302735
 51
45.95120239257818
  0
ARC
  5
465
330
1F
100
AcDbEntity
  8
A-0_通り芯
  6
Continuous
 62
     3
370
     9
100
AcDbCircle
 10
-410.8791725810396
 20
-257.0825286581349
 30
0.0
 40
4.000000438174686
100
AcDbArc
 50
134.0487976074219
 51
180.0003814697266
  0
ARC
  5
466
330
1F
100
AcDbEntity
  8
A-0_通り芯
  6
Continuous
 62
     3
370
     9
100
AcDbCircle
 10
-410.8791725810396
 20
-282.5825880436923
 30
0.0
 40
2.500000515499631
100
AcDbArc
 50
0.0
 51
180.0
  0
ARC
  5
467
330
1F
100
AcDbEntity
  8
A-0_通り芯
  6
Continuous
 62
     3
370
     9
100
AcDbCircle
 10
-410.8791725810396
 20
-281.0826078388781
 30
0.0
 40
9.000000309299779
100
AcDbArc
 50
179.9998321533203
 51
253.8724060058594
  0
ARC
  5
468
330
1F
100
AcDbEntity
  8
A-0_通り芯
  6
Continuous
 62
     3
370
     9
100
AcDbCircle
 10
-410.8791725810396
 20
-281.0826078388781
 30
0.0
 40
4.000001211424132
100
AcDbArc
 50
180.0
 51
231.3177947998047
  0
ARC
  5
469
330
1F
100
AcDbEntity
  8
A-0_通り芯
  6
Continuous
 62
     3
370
     9
100
AcDbCircle
 10
-410.8791725810396
 20
-281.0826078388781
 30
0.0
 40
4.000001211424132
100
AcDbArc
 50
308.6822052001953
 51
0.0
  0
ARC
  5
46A
330
1F
100
AcDbEntity
  8
A-0_通り芯
  6
Continuous
 62
     3
370
     9
100
AcDbCircle
 10
-410.8791725810396
 20
-281.0826078388781
 30
0.0
 40
9.000000309299779
100
AcDbArc
 50
286.1275939941406
 51
0.0
  0
ARC
  5
46B
330
1F
100
AcDbEntity
  8
A-1_ピット
  6
Continuous
 62
     2
370
     9
100
AcDbCircle
 10
-477.8792946513521
 20
-220.1892511032362
 30
0.0
 40
3.000000038662472
100
AcDbArc
 50
180.0
 51
270.0
  0
ARC
  5
46C
330
1F
100
AcDbEntity
  8
A-1_ピット
  6
Continuous
 62
     2
370
     9
100
AcDbCircle
 10
-477.8792946513521
 20
-220.1892511032362
 30
0.0
 40
6.200000659839527
100
AcDbArc
 50
180.0
 51
270.0
  0
ARC
  5
46D
330
1F
100
AcDbEntity
  8
A-1_ピット
  6
Continuous
 62
     2
370
     9
100
AcDbCircle
 10
-130.0414568135142
 20
-220.1892511032362
 30
0.0
 40
3.000000038662472
100
AcDbArc
 50
270.0
 51
0.0
  0
ARC
  5
46E
330
1F
100
AcDbEntity
  8
A-1_ピット
  6
Continuous
 62
     2
370
     9
100
AcDbCircle
 10
-130.0414568135142
 20
-220.1892511032362
 30
0.0
 40
6.200000659839527
100
AcDbArc
 50
270.0
 51
0.0
  0
CIRCLE
  5
46F
330
1F
100
AcDbEntity
  8
A-1_ピット
  6
Continuous
 62
     2
370
     9
100
AcDbCircle
 10
-384.0791633432863
 20
-53.68922141045755
 30
0.0
 40
4.500000154649889
  0
CIRCLE
  5
470
330
1F
100
AcDbEntity
  8
A-1_ピット
  6
Continuous
 62
     2
370
     9
100
AcDbCircle
 10
-223.6792675979315
 20
-53.68922141045755
 30
0.0
 40
4.500000154649889
  0
CIRCLE
  5
471
330
1F
100
AcDbEntity
  8
A-1_ピット
  6
Continuous
 62
     2
370
     9
100
AcDbCircle
 10
-384.0791633432863
 20
315.710621547735
 30
0.0
 40
4.500000154649889
  0
CIRCLE
  5
472
330
1F
100
AcDbEntity
  8
A-1_ピット
  6
Continuous
 62
     2
370
     9
100
AcDbCircle
 10
-223.6792675979315
 20
315.710621547735
 30
0.0
 40
4.500000154649889
  0
ARC
  5
473
330
1F
100
AcDbEntity
  8
A-1_ピット
  6
Continuous
 62
     2
370
     9
100
AcDbCircle
 10
238.3208214804047
 20
-42.9891811602464
 30
0.0
 40
3.000000038662472
100
AcDbArc
 50
270.0
 51
0.0
  0
ARC
  5
474
330
1F
100
AcDbEntity
  8
A-1_ピット
  6
Continuous
 62
     2
370
     9
100
AcDbCircle
 10
238.3207225044756
 20
-42.9891811602464
 30
0.0
 40
6.200000659839527
100
AcDbArc
 50
270.0
 51
0.0
  0
ARC
  5
475
330
1F
100
AcDbEntity
  8
A-1_ピット
  6
Continuous
 62
     2
370
     9
100
AcDbCircle
 10
259.5207726522797
 20
-63.18912903292374
 30
0.0
 40
5.000000644374539
100
AcDbArc
 50
0.0
 51
90.0
  0
ARC
  5
476
330
1F
100
AcDbEntity
  8
A-1_ピット
  6
Continuous
 62
     2
370
     9
100
AcDbCircle
 10
259.5207726522797
 20
-63.18912903292374
 30
0.0
 40
13.99999979380015
100
AcDbArc
 50
0.0
 51
90.0
  0
ARC
  5
477
330
1F
100
AcDbEntity
  8
A-1_ピット
  6
JWW_CENTER1
 62
     2
370
     9
100
AcDbCircle
 10
259.5207726522797
 20
-63.18912903292374
 30
0.0
 40
9.500000412399705
100
AcDbArc
 50
0.0
 51
90.0
  0
ARC
  5
478
330
1F
100
AcDbEntity
  8
A-0_通り芯
  6
Continuous
 62
     3
370
     9
100
AcDbCircle
 10
239.8208016852189
 20
-38.58598951645416
 30
0.0
 40
1.500000019331236
100
AcDbArc
 50
273.8125
 51
0.0
  0
ARC
  5
479
330
1F
100
AcDbEntity
  8
A-0_通り芯
  6
Continuous
 62
     3
370
     9
100
AcDbCircle
 10
239.8208016852189
 20
-31.41612372781395
 30
0.0
 40
1.500000019331236
100
AcDbArc
 50
0.0
 51
87.13916015625
  0
ARC
  5
47A
330
1F
100
AcDbEntity
  8
A-0_通り芯
  6
Continuous
 62
     3
370
     9
100
AcDbCircle
 10
224.3206763157087
 20
-26.13555996092208
 30
0.0
 40
3.000000038662472
100
AcDbArc
 50
180.0
 51
267.1372833251953
  0
ARC
  5
47B
330
1F
100
AcDbEntity
  8
A-0_通り芯
  6
Continuous
 62
     3
370
     9
100
AcDbCircle
 10
217.8208280787999
 20
-28.91703100716364
 30
0.0
 40
1.500000019331236
100
AcDbArc
 50
123.6900634765625
 51
180.0009460449219
  0
ARC
  5
47C
330
1F
100
AcDbEntity
  8
A-0_通り芯
  6
Continuous
 62
     3
370
     9
100
AcDbCircle
 10
217.8208280787999
 20
-39.31153256438489
 30
0.0
 40
1.500000019331236
100
AcDbArc
 50
180.0
 51
236.3099365234375
  0
ARC
  5
47D
330
1F
100
AcDbEntity
  8
A-0_通り芯
  6
Continuous
 62
     3
370
     9
100
AcDbCircle
 10
219.3208082836141
 20
-41.857836803194
 30
0.0
 40
1.500000019331236
100
AcDbArc
 50
180.0
 51
254.0546112060547
  0
ARC
  5
47E
330
1F
100
AcDbEntity
  8
A-0_通り芯
  6
Continuous
 62
     3
370
     9
100
AcDbCircle
 10
219.3208082836141
 20
-26.37077625631906
 30
0.0
 40
1.500000019331236
100
AcDbArc
 50
105.9453887939453
 51
180.0
  0
ARC
  5
47F
330
1F
100
AcDbEntity
  8
A-0_通り芯
  6
Continuous
 62
     3
370
     9
100
AcDbCircle
 10
228.3206895124993
 20
-42.86031450061802
 30
0.0
 40
2.000000219087343
100
AcDbArc
 50
93.81393432617189
 51
183.6716918945313
  0
ARC
  5
480
330
1F
100
AcDbEntity
  8
A-0_通り芯
  6
Continuous
 62
     3
370
     9
100
AcDbCircle
 10
-410.8791725810396
 20
-218.1890960409474
 30
0.0
 40
15.00000154649889
100
AcDbArc
 50
194.8680725097656
 51
258.6906280517579
  0
ARC
  5
481
330
1F
100
AcDbEntity
  8
A-0_通り芯
  6
Continuous
 62
     3
370
     9
100
AcDbCircle
 10
-410.8791725810396
 20
-218.1890960409474
 30
0.0
 40
15.00000154649889
100
AcDbArc
 50
281.3102722167969
 51
345.1319274902344
  0
TEXT
  5
482
330
1F
100
AcDbEntity
  8
A-0_通り芯
  6
Continuous
 62
     7
370
     9
100
AcDbText
 10
-336.8792154706089
 20
-37.70427353778015
 30
0.0
 40
7.620000000000001
  1
ＫＡＮＥＳＯ
 41
1.1
  7
ＭＳ ゴシック
100
AcDbText
  0
TEXT
  5
483
330
1F
100
AcDbEntity
  8
A-0_通り芯
  6
Continuous
 62
     7
370
     9
100
AcDbText
 10
-254.0792402145909
 20
299.7258221389512
 30
0.0
 40
7.620000000000001
  1
ＧＸＣ－２－３００
 50
180.0
 41
1.10666666666667
  7
ＭＳ ゴシック
100
AcDbText
  0
TEXT
  5
484
330
1F
100
AcDbEntity
  8
A-F
  6
Continuous
 62
     2
370
     9
100
AcDbText
 10
228.0126830196784
 20
-291.5981153082616
 30
0.0
 40
12.192
  1
仕様
 41
1.0625
  7
ＭＳ ゴシック
100
AcDbText
  0
TEXT
  5
485
330
1F
100
AcDbEntity
  8
A-F
  6
Continuous
 62
     2
370
     9
100
AcDbText
 10
228.0126632244925
 20
-315.5981202570581
 30
0.0
 40
12.192
  1
適応荷重：Ｔ－２
 41
1.109375
  7
ＭＳ ゴシック
100
AcDbText
  0
TEXT
  5
486
330
1F
100
AcDbEntity
  8
A-F
  6
Continuous
 62
     2
370
     9
100
AcDbText
 10
228.0127028148641
 20
-363.5981301546509
 30
0.0
 40
12.192
  1
接触圧子：φ１５０ｍｍ
 41
1.113636363636364
  7
ＭＳ ゴシック
100
AcDbText
  0
TEXT
  5
487
330
1F
100
AcDbEntity
  8
A-F
  6
Continuous
 62
     2
370
     9
100
AcDbText
 10
228.0126632244925
 20
-387.5981351034474
 30
0.0
 40
12.192
  1
蓋質量：１１ｋｇ
 41
1.109375
  7
ＭＳ ゴシック
100
AcDbText
  0
TEXT
  5
488
330
1F
100
AcDbEntity
  8
A-F
  6
Continuous
 62
     2
370
     9
100
AcDbText
 10
228.0127028148641
 20
-339.5981128338633
 30
0.0
 40
12.192
  1
破壊荷重：２０ｋＮ（２，０４１ｋｇｆ）以上
 41
1.119047619047619
  7
ＭＳ ゴシック
100
AcDbText
  0
TEXT
  5
489
330
1F
100
AcDbEntity
  8
F-Fﾚｲﾔ
  6
Continuous
 62
     2
370
     9
100
AcDbText
 10
-334.0094747577643
 20
-529.2842218929337
 30
0.0
 40
12.192
  1
　細目ノンスリップタイプ（すきま８ｍｍ）　集水桝用　受枠付
 41
0.7741379310344828
  7
ＭＳ ゴシック
100
AcDbText
  0
TEXT
  5
48A
330
1F
100
AcDbEntity
  8
F-Fﾚｲﾔ
  6
Continuous
 62
     2
370
     9
100
AcDbText
 10
-111.3711361710766
 20
-548.7298907018668
 30
0.0
 40
12.192
  1
鋳鉄製みぞ蓋　ＧＸＣ－２－３００＋Ｌ－２５Ｇ
 41
0.7738636363636364
  7
ＭＳ ゴシック
100
AcDbText
  0
LINE
  5
48B
330
1F
100
AcDbEntity
  8
A-5_仕様文
  6
Continuous
 62
     7
370
     9
100
AcDbLine
 10
241.3207818900331
 20
163.6404410156404
 30
0.0
 11
250.6827170673978
 21
167.1554721600662
 31
0.0
  0
LINE
  5
48C
330
1F
100
AcDbEntity
  8
A-5_仕様文
  6
Continuous
 62
     7
370
     9
100
AcDbLine
 10
241.3207818900331
 20
163.6404410156404
 30
0.0
 11
251.2734054119924
 21
164.6127310547029
 31
0.0
  0
LINE
  5
48D
330
1F
100
AcDbEntity
  8
A-5_仕様文
  6
Continuous
 62
     7
370
     9
100
AcDbLine
 10
273.5206208891885
 20
340.2107271220594
 30
0.0
 11
360.258473243496
 21
461.4681173247621
 31
0.0
  0
LINE
  5
48E
330
1F
100
AcDbEntity
  8
A-5_仕様文
  6
Continuous
 62
     7
370
     9
100
AcDbLine
 10
273.5206208891885
 20
340.2107271220594
 30
0.0
 11
278.227223243496
 21
349.033837341654
 31
0.0
  0
LINE
  5
48F
330
1F
100
AcDbEntity
  8
A-5_仕様文
  6
Continuous
 62
     7
370
     9
100
AcDbLine
 10
273.5206208891885
 20
340.2107271220594
 30
0.0
 11
280.3503558976343
 21
347.5151506862485
 31
0.0
  0
LINE
  5
490
330
1F
100
AcDbEntity
  8
A-5_仕様文
  6
Continuous
 62
     7
370
     9
100
AcDbLine
 10
306.7832634145264
 20
122.01067037586
 30
0.0
 11
435.392288699577
 21
19.18467665753229
 31
0.0
  0
LINE
  5
491
330
1F
100
AcDbEntity
  8
A-5_仕様文
  6
Continuous
 62
     7
370
     9
100
AcDbLine
 10
306.7832634145264
 20
122.01067037586
 30
0.0
 11
315.3420089276174
 21
116.8388316670341
 31
0.0
  0
LINE
  5
492
330
1F
100
AcDbEntity
  8
A-5_仕様文
  6
Continuous
 62
     7
370
     9
100
AcDbLine
 10
306.7832634145264
 20
122.01067037586
 30
0.0
 11
313.7119743520264
 21
114.799977016485
 31
0.0
  0
LINE
  5
493
330
1F
100
AcDbEntity
  8
A-5_仕様文
  6
Continuous
 62
     7
370
     9
100
AcDbLine
 10
360.258473243496
 20
461.4681173247621
 30
0.0
 11
515.8277497954384
 21
461.4681173247621
 31
0.0
  0
LINE
  5
494
330
1F
100
AcDbEntity
  8
A-5_仕様文
  6
Continuous
 62
     7
370
     9
100
AcDbLine
 10
391.8995931231412
 20
198.6228892842216
 30
0.0
 11
494.6980715331918
 21
198.6228892842216
 31
0.0
  0
LINE
  5
495
330
1F
100
AcDbEntity
  8
A-5_仕様文
  6
Continuous
 62
     7
370
     9
100
AcDbLine
 10
391.8995931231412
 20
198.6228892842216
 30
0.0
 11
241.3207818900331
 21
163.6404410156404
 31
0.0
  0
LINE
  5
496
330
1F
100
AcDbEntity
  8
A-5_仕様文
  6
Continuous
 62
     7
370
     9
100
AcDbLine
 10
222.4708162016885
 20
311.2106809332925
 30
0.0
 11
212.9506185137662
 21
318.515797328985
 31
0.0
  0
LINE
  5
497
330
1F
100
AcDbEntity
  8
A-5_仕様文
  6
Continuous
 62
     7
370
     9
100
AcDbLine
 10
222.4708162016885
 20
311.2106809332925
 30
0.0
 11
215.165699805996
 21
320.7308786212148
 31
0.0
  0
LINE
  5
498
330
1F
100
AcDbEntity
  8
A-5_仕様文
  6
Continuous
 62
     7
370
     9
100
AcDbLine
 10
222.4708162016885
 20
311.2106809332925
 30
0.0
 11
138.9217703296445
 21
394.7597268053364
 31
0.0
  0
LINE
  5
499
330
1F
100
AcDbEntity
  8
A-5_仕様文
  6
Continuous
 62
     7
370
     9
100
AcDbLine
 10
-5.463523166977154
 20
394.7597268053364
 30
0.0
 11
138.9217703296445
 21
394.7597268053364
 31
0.0
  0
LINE
  5
49A
330
1F
100
AcDbEntity
  8
A-5_仕様文
  6
Continuous
 62
     7
370
     9
100
AcDbLine
 10
409.4965235496614
 20
-33.88750318832916
 30
0.0
 11
241.3207818900331
 21
119.0107099662317
 31
0.0
  0
LINE
  5
49B
330
1F
100
AcDbEntity
  8
A-5_仕様文
  6
Continuous
 62
     7
370
     9
100
AcDbLine
 10
241.3207818900331
 20
119.0107099662317
 30
0.0
 11
251.1774977367391
 21
112.1663265202857
 31
0.0
  0
LINE
  5
49C
330
1F
100
AcDbEntity
  8
A-5_仕様文
  6
Continuous
 62
     7
370
     9
100
AcDbLine
 10
241.3207818900331
 20
119.0107099662317
 30
0.0
 11
249.0701022553201
 21
109.8484092377689
 31
0.0
  0
TEXT
  5
49D
330
1F
100
AcDbEntity
  8
A-5_仕様文
  6
Continuous
 62
     7
370
     9
100
AcDbText
 10
0.3239755133438393
 20
382.2544215899648
 30
0.0
 40
9.144
  1
ＳＰＨＣ，樹脂系塗装
 41
1.15
  7
ＭＳ ゴシック
100
AcDbText
  0
TEXT
  5
49E
330
1F
100
AcDbEntity
  8
A-5_仕様文
  6
Continuous
 62
     7
370
     9
100
AcDbText
 10
396.4847619100922
 20
203.3918034786894
 30
0.0
 40
9.144
  1
蓋：ＦＣ２００
 41
1.142857142857143
  7
ＭＳ ゴシック
100
AcDbText
  0
TEXT
  5
49F
330
1F
100
AcDbEntity
  8
A-5_仕様文
  6
Continuous
 62
     7
370
     9
100
AcDbText
 10
361.480532338724
 20
446.3228271537317
 30
0.0
 40
9.144
  1
ＳＳ４００，樹脂系塗装
 41
1.151515151515152
  7
ＭＳ ゴシック
100
AcDbText
  0
TEXT
  5
4A0
330
1F
100
AcDbEntity
  8
A-5_仕様文
  6
Continuous
 62
     7
370
     9
100
AcDbText
 10
8.027901328513124
 20
400.8182689190651
 30
0.0
 40
9.144
  1
受枠：Ｌ－２５Ｇ
 41
1.145833333333333
  7
ＭＳ ゴシック
100
AcDbText
  0
TEXT
  5
4A1
330
1F
100
AcDbEntity
  8
A-5_仕様文
  6
Continuous
 62
     7
370
     9
100
AcDbText
 10
385.00819669142
 20
466.5030506424976
 30
0.0
 40
9.144
  1
アンカー：φ９
 41
1.142857142857143
  7
ＭＳ ゴシック
100
AcDbText
  0
TEXT
  5
4A2
330
1F
100
AcDbEntity
  8
A-5_仕様文
  6
Continuous
 62
     7
370
     9
100
AcDbText
 10
406.2078670706404
 20
185.0221617341934
 30
0.0
 40
9.144
  1
樹脂系塗装
 41
1.133333333333333
  7
ＭＳ ゴシック
100
AcDbText
  0
TEXT
  5
4A3
330
1F
100
AcDbEntity
  8
A-5_仕様文
  6
Continuous
 62
     7
370
     9
100
AcDbText
 10
427.841545206807
 20
-29.06814677493313
 30
0.0
 40
9.144
  1
シャックル：呼び６
 41
1.148148148148148
  7
ＭＳ ゴシック
100
AcDbText
  0
LINE
  5
4A4
330
1F
100
AcDbEntity
  8
A-5_仕様文
  6
Continuous
 62
     7
370
     9
100
AcDbLine
 10
435.392288699577
 20
19.18467665753229
 30
0.0
 11
602.7436970731665
 21
19.18467665753229
 31
0.0
  0
LINE
  5
4A5
330
1F
100
AcDbEntity
  8
A-5_仕様文
  6
Continuous
 62
     7
370
     9
100
AcDbLine
 10
409.4965235496614
 20
-33.88750318832916
 30
0.0
 11
576.9686077403319
 21
-33.88750318832916
 31
0.0
  0
LINE
  5
4A6
330
1F
100
AcDbEntity
  8
A-4_寸法
  6
Continuous
 62
     7
370
     9
100
AcDbLine
 10
216.3207488980566
 20
-109.1892313080505
 30
0.0
 11
241.3207818900331
 21
-109.1892313080505
 31
0.0
  0
LINE
  5
4A7
330
1F
100
AcDbEntity
  8
A-4_寸法
  6
Continuous
 62
     7
370
     9
100
AcDbLine
 10
-524.0792540712213
 20
93.76071326542927
 30
0.0
 11
-524.0792540712213
 21
113.26085183173
 31
0.0
  0
LINE
  5
4A8
330
1F
100
AcDbEntity
  8
A-4_寸法
  6
Continuous
 62
     7
370
     9
100
AcDbLine
 10
244.5206736763506
 20
-149.1892148120623
 30
0.0
 11
273.5206208891885
 21
-149.1892148120623
 31
0.0
  0
LINE
  5
4A9
330
1F
100
AcDbEntity
  8
A-4_寸法
  6
Continuous
 62
     7
370
     9
100
AcDbLine
 10
-484.0792458232271
 20
380.2107601140357
 30
0.0
 11
-384.0791633432863
 21
380.2107601140357
 31
0.0
  0
LINE
  5
4AA
330
1F
100
AcDbEntity
  8
A-4_寸法
  6
Continuous
 62
     7
370
     9
100
AcDbLine
 10
-223.6792675979315
 20
380.2107601140357
 30
0.0
 11
-123.6792840939196
 21
380.2107601140357
 31
0.0
  0
LINE
  5
4AB
330
1F
100
AcDbEntity
  8
A-4_寸法
  6
Continuous
 62
     7
370
     9
100
AcDbLine
 10
-484.0792458232271
 20
315.2108920819412
 30
0.0
 11
-484.0792458232271
 21
381.4107442778871
 31
0.0
  0
LINE
  5
4AC
330
1F
100
AcDbEntity
  8
A-4_寸法
  6
Continuous
 62
     7
370
     9
100
AcDbLine
 10
-123.6792840939196
 20
315.2108920819412
 30
0.0
 11
-123.6792840939196
 21
381.4107442778871
 31
0.0
  0
LINE
  5
4AD
330
1F
100
AcDbEntity
  8
A-4_寸法
  6
Continuous
 62
     7
370
     9
100
AcDbLine
 10
-488.0792342760354
 20
121.2607297614175
 30
0.0
 11
-525.2792877230371
 21
121.2607297614175
 31
0.0
  0
LINE
  5
4AE
330
1F
100
AcDbEntity
  8
A-4_寸法
  6
Continuous
 62
     7
370
     9
100
AcDbLine
 10
-488.0792342760354
 20
113.26085183173
 30
0.0
 11
-525.2792877230371
 21
113.26085183173
 31
0.0
  0
LINE
  5
4AF
330
1F
100
AcDbEntity
  8
A-4_寸法
  6
Continuous
 62
     7
370
     9
100
AcDbLine
 10
-488.0792342760354
 20
93.76071326542927
 30
0.0
 11
-525.2792877230371
 21
93.76071326542927
 31
0.0
  0
LINE
  5
4B0
330
1F
100
AcDbEntity
  8
A-4_寸法
  6
Continuous
 62
     7
370
     9
100
AcDbLine
 10
-524.0792540712213
 20
113.26085183173
 30
0.0
 11
-524.0792540712213
 21
121.2607297614175
 31
0.0
  0
LINE
  5
4B1
330
1F
100
AcDbEntity
  8
A-4_寸法
  6
Continuous
 62
     7
370
     9
100
AcDbLine
 10
-524.0792540712213
 20
93.76071326542927
 30
0.0
 11
-522.5129352499586
 21
81.86336120145126
 31
0.0
  0
LINE
  5
4B2
330
1F
100
AcDbEntity
  8
A-4_寸法
  6
Continuous
 62
     7
370
     9
100
AcDbLine
 10
-524.0792540712213
 20
93.76071326542927
 30
0.0
 11
-525.6455728924839
 21
81.86336120145126
 31
0.0
  0
LINE
  5
4B3
330
1F
100
AcDbEntity
  8
A-4_寸法
  6
Continuous
 62
     7
370
     9
100
AcDbLine
 10
-524.0792540712213
 20
121.2607297614175
 30
0.0
 11
-525.6455728924839
 21
133.1580818253955
 31
0.0
  0
LINE
  5
4B4
330
1F
100
AcDbEntity
  8
A-4_寸法
  6
Continuous
 62
     7
370
     9
100
AcDbLine
 10
-524.0792540712213
 20
121.2607297614175
 30
0.0
 11
-522.5129352499586
 21
133.1580818253955
 31
0.0
  0
LINE
  5
4B5
330
1F
100
AcDbEntity
  8
A-4_寸法
  6
Continuous
 62
     7
370
     9
100
AcDbLine
 10
-524.0792540712213
 20
93.76071326542927
 30
0.0
 11
-524.0792540712213
 21
74.82176821686511
 31
0.0
  0
LINE
  5
4B6
330
1F
100
AcDbEntity
  8
A-4_寸法
  6
Continuous
 62
     7
370
     9
100
AcDbLine
 10
-524.0792540712213
 20
121.2607297614175
 30
0.0
 11
-524.0792540712213
 21
147.6760690509023
 31
0.0
  0
LINE
  5
4B7
330
1F
100
AcDbEntity
  8
A-4_寸法
  6
Continuous
 62
     7
370
     9
100
AcDbLine
 10
358.0243885728879
 20
281.0107495566033
 30
0.0
 11
358.0243885728879
 21
311.2106809332925
 31
0.0
  0
LINE
  5
4B8
330
1F
100
AcDbEntity
  8
A-4_寸法
  6
Continuous
 62
     7
370
     9
100
AcDbLine
 10
358.0243885728879
 20
311.2106809332925
 30
0.0
 11
358.0243885728879
 21
340.2107271220594
 31
0.0
  0
LINE
  5
4B9
330
1F
100
AcDbEntity
  8
A-4_寸法
  6
Continuous
 62
     7
370
     9
100
AcDbLine
 10
358.0243885728879
 20
340.2107271220594
 30
0.0
 11
356.4580944956074
 21
352.1080296980729
 31
0.0
  0
LINE
  5
4BA
330
1F
100
AcDbEntity
  8
A-4_寸法
  6
Continuous
 62
     7
370
     9
100
AcDbLine
 10
358.0243885728879
 20
340.2107271220594
 30
0.0
 11
359.5906826501683
 21
352.1080296980729
 31
0.0
  0
LINE
  5
4BB
330
1F
100
AcDbEntity
  8
A-4_寸法
  6
Continuous
 62
     7
370
     9
100
AcDbLine
 10
358.0243885728879
 20
281.0107495566033
 30
0.0
 11
359.5906826501683
 21
269.1134469805898
 31
0.0
  0
LINE
  5
4BC
330
1F
100
AcDbEntity
  8
A-4_寸法
  6
Continuous
 62
     7
370
     9
100
AcDbLine
 10
358.0243885728879
 20
281.0107495566033
 30
0.0
 11
356.4580944956074
 21
269.1134469805898
 31
0.0
  0
LINE
  5
4BD
330
1F
100
AcDbEntity
  8
A-4_寸法
  6
Continuous
 62
     7
370
     9
100
AcDbLine
 10
216.3207488980566
 20
-109.1892313080505
 30
0.0
 11
204.4234463220433
 21
-110.7555253853308
 31
0.0
  0
LINE
  5
4BE
330
1F
100
AcDbEntity
  8
A-4_寸法
  6
Continuous
 62
     7
370
     9
100
AcDbLine
 10
216.3207488980566
 20
-109.1892313080505
 30
0.0
 11
204.4234463220433
 21
-107.62293723077
 31
0.0
  0
LINE
  5
4BF
330
1F
100
AcDbEntity
  8
A-4_寸法
  6
Continuous
 62
     7
370
     9
100
AcDbLine
 10
241.3207818900331
 20
-109.1892313080505
 30
0.0
 11
253.2180844660466
 21
-107.62293723077
 31
0.0
  0
LINE
  5
4C0
330
1F
100
AcDbEntity
  8
A-4_寸法
  6
Continuous
 62
     7
370
     9
100
AcDbLine
 10
241.3207818900331
 20
-109.1892313080505
 30
0.0
 11
253.2180844660466
 21
-110.7555253853308
 31
0.0
  0
LINE
  5
4C1
330
1F
100
AcDbEntity
  8
A-4_寸法
  6
Continuous
 62
     7
370
     9
100
AcDbLine
 10
216.3207488980566
 20
-109.1892313080505
 30
0.0
 11
197.8011648608945
 21
-109.1892313080505
 31
0.0
  0
LINE
  5
4C2
330
1F
100
AcDbEntity
  8
A-4_寸法
  6
Continuous
 62
     7
370
     9
100
AcDbLine
 10
241.3207818900331
 20
-109.1892313080505
 30
0.0
 11
260.0010038600499
 21
-109.1892313080505
 31
0.0
  0
LINE
  5
4C3
330
1F
100
AcDbEntity
  8
A-4_寸法
  6
Continuous
 62
     7
370
     9
100
AcDbLine
 10
179.8431702451851
 20
-149.1892148120623
 30
0.0
 11
216.3207488980566
 21
-149.1892148120623
 31
0.0
  0
LINE
  5
4C4
330
1F
100
AcDbEntity
  8
A-4_寸法
  6
Continuous
 62
     7
370
     9
100
AcDbLine
 10
216.3207488980566
 20
-149.1892148120623
 30
0.0
 11
244.5206736763506
 21
-149.1892148120623
 31
0.0
  0
LINE
  5
4C5
330
1F
100
AcDbEntity
  8
A-4_寸法
  6
Continuous
 62
     7
370
     9
100
AcDbLine
 10
216.3207488980566
 20
-149.1892148120623
 30
0.0
 11
204.4234463220433
 21
-150.7555088893427
 31
0.0
  0
LINE
  5
4C6
330
1F
100
AcDbEntity
  8
A-4_寸法
  6
Continuous
 62
     7
370
     9
100
AcDbLine
 10
216.3207488980566
 20
-149.1892148120623
 30
0.0
 11
204.4234463220433
 21
-147.6228712468173
 31
0.0
  0
LINE
  5
4C7
330
1F
100
AcDbEntity
  8
A-4_寸法
  6
Continuous
 62
     7
370
     9
100
AcDbLine
 10
273.5206208891885
 20
-149.1892148120623
 30
0.0
 11
285.417923465202
 21
-147.6228712468173
 31
0.0
  0
LINE
  5
4C8
330
1F
100
AcDbEntity
  8
A-4_寸法
  6
Continuous
 62
     7
370
     9
100
AcDbLine
 10
273.5206208891885
 20
-149.1892148120623
 30
0.0
 11
285.417923465202
 21
-150.7555088893427
 31
0.0
  0
LINE
  5
4C9
330
1F
100
AcDbEntity
  8
A-4_寸法
  6
Continuous
 62
     7
370
     9
100
AcDbLine
 10
273.5206208891885
 20
-149.1892148120623
 30
0.0
 11
293.1911960053201
 21
-149.1892148120623
 31
0.0
  0
LINE
  5
4CA
330
1F
100
AcDbEntity
  8
A-4_寸法
  6
Continuous
 62
     7
370
     9
100
AcDbLine
 10
358.0243885728879
 20
340.2107271220594
 30
0.0
 11
358.0243885728879
 21
359.2049997149648
 31
0.0
  0
LINE
  5
4CB
330
1F
100
AcDbEntity
  8
A-4_寸法
  6
Continuous
 62
     7
370
     9
100
AcDbLine
 10
-384.0791633432863
 20
348.2107535156404
 30
0.0
 11
-384.0791633432863
 21
381.4107442778871
 31
0.0
  0
LINE
  5
4CC
330
1F
100
AcDbEntity
  8
A-4_寸法
  6
Continuous
 62
     7
370
     9
100
AcDbLine
 10
-223.6792675979315
 20
348.2107535156404
 30
0.0
 11
-223.6792675979315
 21
381.4107442778871
 31
0.0
  0
LINE
  5
4CD
330
1F
100
AcDbEntity
  8
A-4_寸法
  6
Continuous
 62
     7
370
     9
100
AcDbLine
 10
-484.0792458232271
 20
380.2107601140357
 30
0.0
 11
-472.1819185032314
 21
381.7770541913162
 31
0.0
  0
LINE
  5
4CE
330
1F
100
AcDbEntity
  8
A-4_寸法
  6
Continuous
 62
     7
370
     9
100
AcDbLine
 10
-484.0792458232271
 20
380.2107601140357
 30
0.0
 11
-472.1819185032314
 21
378.6444660367553
 31
0.0
  0
LINE
  5
4CF
330
1F
100
AcDbEntity
  8
A-4_寸法
  6
Continuous
 62
     7
370
     9
100
AcDbLine
 10
-384.0791633432863
 20
380.2107601140357
 30
0.0
 11
-395.9765154072643
 21
378.6444660367553
 31
0.0
  0
LINE
  5
4D0
330
1F
100
AcDbEntity
  8
A-4_寸法
  6
Continuous
 62
     7
370
     9
100
AcDbLine
 10
-384.0791633432863
 20
380.2107601140357
 30
0.0
 11
-395.9765154072643
 21
381.7770541913162
 31
0.0
  0
LINE
  5
4D1
330
1F
100
AcDbEntity
  8
A-4_寸法
  6
Continuous
 62
     7
370
     9
100
AcDbLine
 10
-223.6792675979315
 20
380.2107601140357
 30
0.0
 11
-211.7819155339536
 21
381.7770541913162
 31
0.0
  0
LINE
  5
4D2
330
1F
100
AcDbEntity
  8
A-4_寸法
  6
Continuous
 62
     7
370
     9
100
AcDbLine
 10
-223.6792675979315
 20
380.2107601140357
 30
0.0
 11
-211.7819155339536
 21
378.6444660367553
 31
0.0
  0
LINE
  5
4D3
330
1F
100
AcDbEntity
  8
A-4_寸法
  6
Continuous
 62
     7
370
     9
100
AcDbLine
 10
-123.6792840939196
 20
380.2107601140357
 30
0.0
 11
-135.5766361578977
 21
378.6444660367553
 31
0.0
  0
LINE
  5
4D4
330
1F
100
AcDbEntity
  8
A-4_寸法
  6
Continuous
 62
     7
370
     9
100
AcDbLine
 10
-123.6792840939196
 20
380.2107601140357
 30
0.0
 11
-135.5766361578977
 21
381.7770541913162
 31
0.0
  0
LINE
  5
4D5
330
1F
100
AcDbEntity
  8
A-4_寸法
  6
Continuous
 62
     7
370
     9
100
AcDbLine
 10
278.520587897212
 20
340.2107271220594
 30
0.0
 11
359.2243727367391
 21
340.2107271220594
 31
0.0
  0
LINE
  5
4D6
330
1F
100
AcDbEntity
  8
A-4_寸法
  6
Continuous
 62
     7
370
     9
100
AcDbLine
 10
278.520587897212
 20
311.2106809332925
 30
0.0
 11
359.2243727367391
 21
311.2106809332925
 31
0.0
  0
LINE
  5
4D7
330
1F
100
AcDbEntity
  8
A-4_寸法
  6
Continuous
 62
     7
370
     9
100
AcDbLine
 10
249.5206406843743
 20
281.0107495566033
 30
0.0
 11
359.2243727367391
 21
281.0107495566033
 31
0.0
  0
LINE
  5
4D8
330
1F
100
AcDbEntity
  8
A-4_寸法
  6
Continuous
 62
     7
370
     9
100
AcDbLine
 10
358.0243885728879
 20
-18.98925044339677
 30
0.0
 11
358.0243885728879
 21
281.0107495566033
 31
0.0
  0
LINE
  5
4D9
330
1F
100
AcDbEntity
  8
A-4_寸法
  6
Continuous
 62
     7
370
     9
100
AcDbLine
 10
358.0243885728879
 20
-18.98925044339677
 30
0.0
 11
358.0243885728879
 21
-49.1891323321214
 31
0.0
  0
LINE
  5
4DA
330
1F
100
AcDbEntity
  8
A-4_寸法
  6
Continuous
 62
     7
370
     9
100
AcDbLine
 10
358.0243885728879
 20
-49.1891323321214
 30
0.0
 11
358.0243885728879
 21
-78.18922800885281
 31
0.0
  0
LINE
  5
4DB
330
1F
100
AcDbEntity
  8
A-4_寸法
  6
Continuous
 62
     7
370
     9
100
AcDbLine
 10
358.0243885728879
 20
-78.18922800885281
 30
0.0
 11
359.5906826501683
 21
-90.08658007283083
 31
0.0
  0
LINE
  5
4DC
330
1F
100
AcDbEntity
  8
A-4_寸法
  6
Continuous
 62
     7
370
     9
100
AcDbLine
 10
358.0243885728879
 20
-78.18922800885281
 30
0.0
 11
356.4580944956074
 21
-90.08658007283083
 31
0.0
  0
LINE
  5
4DD
330
1F
100
AcDbEntity
  8
A-4_寸法
  6
Continuous
 62
     7
370
     9
100
AcDbLine
 10
358.0243885728879
 20
-18.98925044339677
 30
0.0
 11
356.4580944956074
 21
-7.091898379418637
 31
0.0
  0
LINE
  5
4DE
330
1F
100
AcDbEntity
  8
A-4_寸法
  6
Continuous
 62
     7
370
     9
100
AcDbLine
 10
358.0243885728879
 20
-18.98925044339677
 30
0.0
 11
359.5906826501683
 21
-7.091898379418637
 31
0.0
  0
LINE
  5
4DF
330
1F
100
AcDbEntity
  8
A-4_寸法
  6
Continuous
 62
     7
370
     9
100
AcDbLine
 10
358.0243885728879
 20
-78.18922800885281
 30
0.0
 11
358.0243885728879
 21
-94.74730708402171
 31
0.0
  0
LINE
  5
4E0
330
1F
100
AcDbEntity
  8
A-4_寸法
  6
Continuous
 62
     7
370
     9
100
AcDbLine
 10
278.520587897212
 20
-78.18922800885281
 30
0.0
 11
359.2243727367391
 21
-78.18922800885281
 31
0.0
  0
LINE
  5
4E1
330
1F
100
AcDbEntity
  8
A-4_寸法
  6
Continuous
 62
     7
370
     9
100
AcDbLine
 10
278.520587897212
 20
-49.1891323321214
 30
0.0
 11
359.2243727367391
 21
-49.1891323321214
 31
0.0
  0
LINE
  5
4E2
330
1F
100
AcDbEntity
  8
A-4_寸法
  6
Continuous
 62
     7
370
     9
100
AcDbLine
 10
249.5206406843743
 20
-18.98925044339677
 30
0.0
 11
359.2243727367391
 21
-18.98925044339677
 31
0.0
  0
LINE
  5
4E3
330
1F
100
AcDbEntity
  8
A-4_寸法
  6
Continuous
 62
     7
370
     9
100
AcDbLine
 10
216.3207488980566
 20
-53.18924450484099
 30
0.0
 11
216.3207488980566
 21
-150.3891989759136
 31
0.0
  0
LINE
  5
4E4
330
1F
100
AcDbEntity
  8
A-4_寸法
  6
Continuous
 62
     7
370
     9
100
AcDbLine
 10
241.3207818900331
 20
-53.18924450484099
 30
0.0
 11
241.3207818900331
 21
-110.3892154719018
 31
0.0
  0
LINE
  5
4E5
330
1F
100
AcDbEntity
  8
A-4_寸法
  6
Continuous
 62
     7
370
     9
100
AcDbLine
 10
244.5206736763506
 20
-53.18924450484099
 30
0.0
 11
244.5206736763506
 21
-149.1892148120623
 31
0.0
  0
LINE
  5
4E6
330
1F
100
AcDbEntity
  8
A-4_寸法
  6
Continuous
 62
     7
370
     9
100
AcDbLine
 10
273.5206208891885
 20
-82.18924120564333
 30
0.0
 11
273.5206208891885
 21
-150.3891989759136
 31
0.0
  0
LINE
  5
4E7
330
1F
100
AcDbEntity
  8
A-4_寸法
  6
Continuous
 62
     7
370
     9
100
AcDbLine
 10
-336.2791837983115
 20
-198.1892280088528
 30
0.0
 11
-337.8454778755919
 21
-186.2918759448748
 31
0.0
  0
LINE
  5
4E8
330
1F
100
AcDbEntity
  8
A-4_寸法
  6
Continuous
 62
     7
370
     9
100
AcDbLine
 10
-336.2791837983115
 20
-198.1892280088528
 30
0.0
 11
-334.7128897210313
 21
-186.2918759448748
 31
0.0
  0
LINE
  5
4E9
330
1F
100
AcDbEntity
  8
A-4_寸法
  6
Continuous
 62
     7
370
     9
100
AcDbLine
 10
-336.2791837983115
 20
-208.189063048971
 30
0.0
 11
-337.8454778755919
 21
-220.0864151129491
 31
0.0
  0
LINE
  5
4EA
330
1F
100
AcDbEntity
  8
A-4_寸法
  6
Continuous
 62
     7
370
     9
100
AcDbLine
 10
-336.2791837983115
 20
-208.189063048971
 30
0.0
 11
-334.7128897210313
 21
-220.0864151129491
 31
0.0
  0
LINE
  5
4EB
330
1F
100
AcDbEntity
  8
A-4_寸法
  6
Continuous
 62
     7
370
     9
100
AcDbLine
 10
-336.2791837983115
 20
-176.3090647645539
 30
0.0
 11
-336.2791837983115
 21
-223.6126800253224
 31
0.0
  0
LINE
  5
4EC
330
1F
100
AcDbEntity
  8
A-4_寸法
  6
Continuous
 62
     7
370
     9
100
AcDbLine
 10
156.3207488980566
 20
-45.98919105783932
 30
0.0
 11
156.3207488980566
 21
-43.98928343537307
 31
0.0
  0
LINE
  5
4ED
330
1F
100
AcDbEntity
  8
A-4_寸法
  6
Continuous
 62
     7
370
     9
100
AcDbLine
 10
156.3207488980566
 20
-43.98928343537307
 30
0.0
 11
156.3207488980566
 21
306.0107825485796
 31
0.0
  0
LINE
  5
4EE
330
1F
100
AcDbEntity
  8
A-4_寸法
  6
Continuous
 62
     7
370
     9
100
AcDbLine
 10
156.3207488980566
 20
306.0107825485796
 30
0.0
 11
156.3207488980566
 21
308.0106901710458
 31
0.0
  0
LINE
  5
4EF
330
1F
100
AcDbEntity
  8
A-4_寸法
  6
Continuous
 62
     7
370
     9
100
AcDbLine
 10
116.3207159060804
 20
311.2106809332925
 30
0.0
 11
116.3207159060804
 21
-49.18923130805047
 31
0.0
  0
LINE
  5
4F0
330
1F
100
AcDbEntity
  8
A-4_寸法
  6
Continuous
 62
     7
370
     9
100
AcDbLine
 10
212.3207357012662
 20
306.0107825485796
 30
0.0
 11
155.1207647342054
 21
306.0107825485796
 31
0.0
  0
LINE
  5
4F1
330
1F
100
AcDbEntity
  8
A-4_寸法
  6
Continuous
 62
     7
370
     9
100
AcDbLine
 10
212.3207357012662
 20
308.0106901710458
 30
0.0
 11
155.1207647342054
 21
308.0106901710458
 31
0.0
  0
LINE
  5
4F2
330
1F
100
AcDbEntity
  8
A-4_寸法
  6
Continuous
 62
     7
370
     9
100
AcDbLine
 10
212.3207357012662
 20
-45.98919105783932
 30
0.0
 11
155.1207647342054
 21
-45.98919105783932
 31
0.0
  0
LINE
  5
4F3
330
1F
100
AcDbEntity
  8
A-4_寸法
  6
Continuous
 62
     7
370
     9
100
AcDbLine
 10
212.3207357012662
 20
-43.98928343537307
 30
0.0
 11
155.1207647342054
 21
-43.98928343537307
 31
0.0
  0
LINE
  5
4F4
330
1F
100
AcDbEntity
  8
A-4_寸法
  6
Continuous
 62
     7
370
     9
100
AcDbLine
 10
156.3207488980566
 20
306.0107825485796
 30
0.0
 11
157.887042975337
 21
294.1134799725662
 31
0.0
  0
LINE
  5
4F5
330
1F
100
AcDbEntity
  8
A-4_寸法
  6
Continuous
 62
     7
370
     9
100
AcDbLine
 10
156.3207488980566
 20
306.0107825485796
 30
0.0
 11
154.7545537967054
 21
294.1134799725662
 31
0.0
  0
LINE
  5
4F6
330
1F
100
AcDbEntity
  8
A-4_寸法
  6
Continuous
 62
     7
370
     9
100
AcDbLine
 10
156.3207488980566
 20
-43.98928343537307
 30
0.0
 11
154.7545537967054
 21
-32.09188188343052
 31
0.0
  0
LINE
  5
4F7
330
1F
100
AcDbEntity
  8
A-4_寸法
  6
Continuous
 62
     7
370
     9
100
AcDbLine
 10
156.3207488980566
 20
-43.98928343537307
 30
0.0
 11
157.887042975337
 21
-32.09188188343052
 31
0.0
  0
LINE
  5
4F8
330
1F
100
AcDbEntity
  8
A-4_寸法
  6
Continuous
 62
     7
370
     9
100
AcDbLine
 10
116.3207159060804
 20
311.2106809332925
 30
0.0
 11
117.8870099833608
 21
299.313378357279
 31
0.0
  0
LINE
  5
4F9
330
1F
100
AcDbEntity
  8
A-4_寸法
  6
Continuous
 62
     7
370
     9
100
AcDbLine
 10
116.3207159060804
 20
311.2106809332925
 30
0.0
 11
114.7544218287999
 21
299.313378357279
 31
0.0
  0
LINE
  5
4FA
330
1F
100
AcDbEntity
  8
A-4_寸法
  6
Continuous
 62
     7
370
     9
100
AcDbLine
 10
116.3207159060804
 20
-49.18923130805047
 30
0.0
 11
114.7544218287999
 21
-37.29187924407239
 31
0.0
  0
LINE
  5
4FB
330
1F
100
AcDbEntity
  8
A-4_寸法
  6
Continuous
 62
     7
370
     9
100
AcDbLine
 10
116.3207159060804
 20
-49.18923130805047
 30
0.0
 11
117.8870099833608
 21
-37.29187924407239
 31
0.0
  0
LINE
  5
4FC
330
1F
100
AcDbEntity
  8
A-4_寸法
  6
Continuous
 62
     7
370
     9
100
AcDbLine
 10
156.3207488980566
 20
308.0106901710458
 30
0.0
 11
156.3207488980566
 21
311.2106809332925
 31
0.0
  0
LINE
  5
4FD
330
1F
100
AcDbEntity
  8
A-4_寸法
  6
Continuous
 62
     7
370
     9
100
AcDbLine
 10
212.3207357012662
 20
311.2106809332925
 30
0.0
 11
115.120731742229
 21
311.2106809332925
 31
0.0
  0
LINE
  5
4FE
330
1F
100
AcDbEntity
  8
A-4_寸法
  6
Continuous
 62
     7
370
     9
100
AcDbLine
 10
156.3207488980566
 20
311.2106809332925
 30
0.0
 11
154.7545537967054
 21
323.1079835093059
 31
0.0
  0
LINE
  5
4FF
330
1F
100
AcDbEntity
  8
A-4_寸法
  6
Continuous
 62
     7
370
     9
100
AcDbLine
 10
156.3207488980566
 20
311.2106809332925
 30
0.0
 11
157.887042975337
 21
323.1079835093059
 31
0.0
  0
LINE
  5
500
330
1F
100
AcDbEntity
  8
A-4_寸法
  6
Continuous
 62
     7
370
     9
100
AcDbLine
 10
156.3207488980566
 20
311.2106809332925
 30
0.0
 11
156.3207488980566
 21
346.9273326435966
 31
0.0
  0
LINE
  5
501
330
1F
100
AcDbEntity
  8
A-4_寸法
  6
Continuous
 62
     7
370
     9
100
AcDbLine
 10
156.3207488980566
 20
-49.18923130805047
 30
0.0
 11
156.3207488980566
 21
-45.98919105783932
 31
0.0
  0
LINE
  5
502
330
1F
100
AcDbEntity
  8
A-4_寸法
  6
Continuous
 62
     7
370
     9
100
AcDbLine
 10
212.3207357012662
 20
-49.18923130805047
 30
0.0
 11
115.120731742229
 21
-49.18923130805047
 31
0.0
  0
LINE
  5
503
330
1F
100
AcDbEntity
  8
A-4_寸法
  6
Continuous
 62
     7
370
     9
100
AcDbLine
 10
156.3207488980566
 20
-49.18923130805047
 30
0.0
 11
157.887042975337
 21
-61.08658337202849
 31
0.0
  0
LINE
  5
504
330
1F
100
AcDbEntity
  8
A-4_寸法
  6
Continuous
 62
     7
370
     9
100
AcDbLine
 10
156.3207488980566
 20
-49.18923130805047
 30
0.0
 11
154.7545537967054
 21
-61.08658337202849
 31
0.0
  0
LINE
  5
505
330
1F
100
AcDbEntity
  8
A-4_寸法
  6
Continuous
 62
     7
370
     9
100
AcDbLine
 10
156.3207488980566
 20
-84.88826530298286
 30
0.0
 11
156.3207488980566
 21
-49.18923130805047
 31
0.0
  0
LWPOLYLINE
  5
506
330
1F
100
AcDbEntity
  8
A-4_寸法
  6
Continuous
 62
     7
370
     9
100
AcDbPolyline
 90
        4
 70
     1
 43
0.8
 10
156.7207488980566
 20
-45.98919105783932
 42
0.4142135623731
 10
156.3207488980566
 20
-45.58919105783932
 42
0.4142135623731
 10
155.9207488980566
 20
-45.98919105783932
 42
0.4142135623731
 10
156.3207488980566
 20
-46.38919105783932
 42
0.4142135623731
  0
LWPOLYLINE
  5
507
330
1F
100
AcDbEntity
  8
A-4_寸法
  6
Continuous
 62
     7
370
     9
100
AcDbPolyline
 90
        4
 70
     1
 43
0.8
 10
156.7207488980566
 20
308.0106901710458
 42
0.4142135623731
 10
156.3207488980566
 20
308.4106901710458
 42
0.4142135623731
 10
155.9207488980566
 20
308.0106901710458
 42
0.4142135623731
 10
156.3207488980566
 20
307.6106901710459
 42
0.4142135623731
  0
LWPOLYLINE
  5
508
330
1F
100
AcDbEntity
  8
A-4_寸法
  6
Continuous
 62
     7
370
     9
100
AcDbPolyline
 90
        4
 70
     1
 43
0.8
 10
244.9206736763506
 20
-149.1892148120623
 42
0.4142135623731
 10
244.5206736763506
 20
-148.7892148120623
 42
0.4142135623731
 10
244.1206736763505
 20
-149.1892148120623
 42
0.4142135623731
 10
244.5206736763506
 20
-149.5892148120623
 42
0.4142135623731
  0
LWPOLYLINE
  5
509
330
1F
100
AcDbEntity
  8
A-4_寸法
  6
Continuous
 62
     7
370
     9
100
AcDbPolyline
 90
        4
 70
     1
 43
0.8
 10
-523.6792540712213
 20
113.26085183173
 42
0.4142135623731
 10
-524.0792540712213
 20
113.66085183173
 42
0.4142135623731
 10
-524.4792540712212
 20
113.26085183173
 42
0.4142135623731
 10
-524.0792540712213
 20
112.86085183173
 42
0.4142135623731
  0
LWPOLYLINE
  5
50A
330
1F
100
AcDbEntity
  8
A-4_寸法
  6
Continuous
 62
     7
370
     9
100
AcDbPolyline
 90
        4
 70
     1
 43
0.8
 10
358.4243885728878
 20
-49.1891323321214
 42
0.4142135623731
 10
358.0243885728879
 20
-48.7891323321214
 42
0.4142135623731
 10
357.6243885728879
 20
-49.1891323321214
 42
0.4142135623731
 10
358.0243885728879
 20
-49.5891323321214
 42
0.4142135623731
  0
LWPOLYLINE
  5
50B
330
1F
100
AcDbEntity
  8
A-4_寸法
  6
Continuous
 62
     7
370
     9
100
AcDbPolyline
 90
        4
 70
     1
 43
0.8
 10
358.4243885728878
 20
311.2106809332925
 42
0.4142135623731
 10
358.0243885728879
 20
311.6106809332925
 42
0.4142135623731
 10
357.6243885728879
 20
311.2106809332925
 42
0.4142135623731
 10
358.0243885728879
 20
310.8106809332925
 42
0.4142135623731
  0
TEXT
  5
50C
330
1F
100
AcDbEntity
  8
A-4_寸法
  6
Continuous
 62
     2
370
     9
100
AcDbText
 10
-340.5351903967069
 20
-193.5443338471129
 30
0.0
 40
12.192
  1
10
 50
90.0
 41
1.0625
  7
ＭＳ ゴシック
100
AcDbText
  0
TEXT
  5
50D
330
1F
100
AcDbEntity
  8
A-4_寸法
  6
Continuous
 62
     2
370
     9
100
AcDbText
 10
-528.3352606696164
 20
95.01078254857964
 30
0.0
 40
12.192
  1
20
 50
90.0
 41
1.0625
  7
ＭＳ ゴシック
100
AcDbText
  0
TEXT
  5
50E
330
1F
100
AcDbEntity
  8
A-4_寸法
  6
Continuous
 62
     2
370
     9
100
AcDbText
 10
-528.3352359256342
 20
135.4620814426886
 30
0.0
 40
12.192
  1
8
 50
90.0
  7
ＭＳ ゴシック
100
AcDbText
  0
TEXT
  5
50F
330
1F
100
AcDbEntity
  8
A-4_寸法
  6
Continuous
 62
     2
370
     9
100
AcDbText
 10
-447.079229327239
 20
384.4667667124311
 30
0.0
 40
12.192
  1
100
 41
1.083333333333333
  7
ＭＳ ゴシック
100
AcDbText
  0
TEXT
  5
510
330
1F
100
AcDbEntity
  8
A-4_寸法
  6
Continuous
 62
     2
370
     9
100
AcDbText
 10
-186.6793005899078
 20
384.4667667124311
 30
0.0
 40
12.192
  1
100
 41
1.083333333333333
  7
ＭＳ ゴシック
100
AcDbText
  0
TEXT
  5
511
330
1F
100
AcDbEntity
  8
A-4_寸法
  6
Continuous
 62
     2
370
     9
100
AcDbText
 10
151.6323164656243
 20
297.2149039062654
 30
0.0
 40
12.192
  1
2
 50
90.0
  7
ＭＳ ゴシック
100
AcDbText
  0
TEXT
  5
512
330
1F
100
AcDbEntity
  8
A-4_寸法
  6
Continuous
 62
     2
370
     9
100
AcDbText
 10
152.0647422996614
 20
321.0722400021269
 30
0.0
 40
12.192
  1
3.2
 50
90.0
 41
1.083333333333333
  7
ＭＳ ゴシック
100
AcDbText
  0
TEXT
  5
513
330
1F
100
AcDbEntity
  8
A-4_寸法
  6
Continuous
 62
     2
370
     9
100
AcDbText
 10
152.0647422996614
 20
109.0107743005856
 30
0.0
 40
12.192
  1
□350
 50
90.0
 41
1.1
  7
ＭＳ ゴシック
100
AcDbText
  0
TEXT
  5
514
330
1F
100
AcDbEntity
  8
A-4_寸法
  6
Continuous
 62
     2
370
     9
100
AcDbText
 10
112.064709307685
 20
100.0107495566033
 30
0.0
 40
12.192
  1
□360.4
 50
90.0
 41
1.107142857142857
  7
ＭＳ ゴシック
100
AcDbText
  0
TEXT
  5
515
330
1F
100
AcDbEntity
  8
A-4_寸法
  6
Continuous
 62
     2
370
     9
100
AcDbText
 10
152.0647422996614
 20
-83.70570750104031
 30
0.0
 40
12.192
  1
3.2
 50
90.0
 41
1.083333333333333
  7
ＭＳ ゴシック
100
AcDbText
  0
TEXT
  5
516
330
1F
100
AcDbEntity
  8
A-4_寸法
  6
Continuous
 62
     2
370
     9
100
AcDbText
 10
152.0647422996614
 20
-41.71002780034354
 30
0.0
 40
12.192
  1
2
 50
90.0
  7
ＭＳ ゴシック
100
AcDbText
  0
TEXT
  5
517
330
1F
100
AcDbEntity
  8
A-4_寸法
  6
Continuous
 62
     2
370
     9
100
AcDbText
 10
179.8431537491969
 20
-144.933208213667
 30
0.0
 40
12.192
  1
28.2
 41
1.09375
  7
ＭＳ ゴシック
100
AcDbText
  0
TEXT
  5
518
330
1F
100
AcDbEntity
  8
A-4_寸法
  6
Continuous
 62
     2
370
     9
100
AcDbText
 10
220.3206664181159
 20
-104.9332247096552
 30
0.0
 40
12.192
  1
25
 41
1.0625
  7
ＭＳ ゴシック
100
AcDbText
  0
TEXT
  5
519
330
1F
100
AcDbEntity
  8
A-4_寸法
  6
Continuous
 62
     2
370
     9
100
AcDbText
 10
250.520597794805
 20
-144.933208213667
 30
0.0
 40
12.192
  1
29
 41
1.0625
  7
ＭＳ ゴシック
100
AcDbText
  0
TEXT
  5
51A
330
1F
100
AcDbEntity
  8
A-4_寸法
  6
Continuous
 62
     2
370
     9
100
AcDbText
 10
353.7683819744924
 20
-72.18915542650484
 30
0.0
 40
12.192
  1
29
 50
90.0
 41
1.0625
  7
ＭＳ ゴシック
100
AcDbText
  0
TEXT
  5
51B
330
1F
100
AcDbEntity
  8
A-4_寸法
  6
Continuous
 62
     2
370
     9
100
AcDbText
 10
374.6869445800668
 20
-51.58924087572353
 30
0.0
 40
12.192
  1
30.2
 50
90.0
 41
1.09375
  7
ＭＳ ゴシック
100
AcDbText
  0
TEXT
  5
51C
330
1F
100
AcDbEntity
  8
A-4_寸法
  6
Continuous
 62
     2
370
     9
100
AcDbText
 10
373.9995567527864
 20
278.6107647329125
 30
0.0
 40
12.192
  1
30.2
 50
90.0
 41
1.09375
  7
ＭＳ ゴシック
100
AcDbText
  0
TEXT
  5
51D
330
1F
100
AcDbEntity
  8
A-4_寸法
  6
Continuous
 62
     2
370
     9
100
AcDbText
 10
353.7683819744924
 20
317.2106050517469
 30
0.0
 40
12.192
  1
29
 50
90.0
 41
1.0625
  7
ＭＳ ゴシック
100
AcDbText
  0
TEXT
  5
51E
330
1F
100
AcDbEntity
  8
A-4_寸法
  6
Continuous
 62
     2
370
     9
100
AcDbText
 10
353.7683819744924
 20
109.0107743005856
 30
0.0
 40
12.192
  1
□300
 50
90.0
 41
1.1
  7
ＭＳ ゴシック
100
AcDbText
  0
TEXT
  5
51F
330
1F
100
AcDbEntity
  8
A-5_仕様文
  6
Continuous
 62
     7
370
     9
100
AcDbText
 10
436.6099582390947
 20
6.508737092922878
 30
0.0
 40
9.144
  1
ＳＷＲＭ，溶融亜鉛めっき
 41
1.152777777777778
  7
ＭＳ ゴシック
100
AcDbText
  0
TEXT
  5
520
330
1F
100
AcDbEntity
  8
A-5_仕様文
  6
Continuous
 62
     7
370
     9
100
AcDbText
 10
459.8905756851955
 20
24.29717902685089
 30
0.0
 40
9.144
  1
鎖：φ６×３００
 41
1.145833333333333
  7
ＭＳ ゴシック
100
AcDbText
  0
TEXT
  5
521
330
1F
100
AcDbEntity
  8
A-5_仕様文
  6
Continuous
 62
     7
370
     9
100
AcDbText
 10
412.2869866151524
 20
-47.58264756330716
 30
0.0
 40
9.144
  1
Ｓ２０Ｃ，溶融亜鉛めっき
 41
1.152777777777779
  7
ＭＳ ゴシック
100
AcDbText
  0
ENDSEC
  0
SECTION
  2
OBJECTS
  0
DICTIONARY
  5
C
330
0
100
AcDbDictionary
281
     1
  3
ACAD_DETAILVIEWSTYLE
350
529
  3
ACAD_GROUP
350
D
  3
ACAD_LAYOUT
350
1A
  3
ACAD_MATERIAL
350
43
  3
ACAD_MLEADERSTYLE
350
6B
  3
ACAD_MLINESTYLE
350
17
  3
ACAD_PLOTSETTINGS
350
19
  3
ACAD_PLOTSTYLENAME
350
E
  3
ACAD_SCALELIST
350
47
  3
ACAD_SECTIONVIEWSTYLE
350
52A
  3
ACAD_TABLESTYLE
350
69
  3
ACAD_VISUALSTYLE
350
2A
  3
ACDB_RECOMPOSE_DATA
350
526
  3
AcDbVariableDictionary
350
522
  0
SUN
  5
6D
330
29
100
AcDbSun
 90
        1
290
     0
 63
     7
421
 16777215
 40
1.0
291
     1
 91
  2455826
 92
 54000000
292
     0
 70
     2
 71
   256
280
     1
  0
DICTIONARY
  5
529
102
{ACAD_REACTORS
330
C
102
}
330
C
100
AcDbDictionary
281
     1
  0
DICTIONARY
  5
D
102
{ACAD_REACTORS
330
C
102
}
330
C
100
AcDbDictionary
281
     1
  0
DICTIONARY
  5
1A
102
{ACAD_REACTORS
330
C
102
}
330
C
100
AcDbDictionary
281
     1
  3
Layout1
350
1E
  3
Layout2
350
26
  3
Model
350
22
  0
DICTIONARY
  5
43
102
{ACAD_REACTORS
330
C
102
}
330
C
100
AcDbDictionary
281
     1
  3
ByBlock
350
45
  3
ByLayer
350
44
  3
Global
350
46
  0
DICTIONARY
  5
6B
102
{ACAD_REACTORS
330
C
102
}
330
C
100
AcDbDictionary
281
     1
  3
Standard
350
6C
  0
DICTIONARY
  5
17
102
{ACAD_REACTORS
330
C
102
}
330
C
100
AcDbDictionary
281
     1
  3
Standard
350
18
  0
DICTIONARY
  5
19
102
{ACAD_REACTORS
330
C
102
}
330
C
100
AcDbDictionary
281
     1
  0
ACDBDICTIONARYWDFLT
  5
E
102
{ACAD_REACTORS
330
C
102
}
330
C
100
AcDbDictionary
281
     1
  3
Normal
350
F
100
AcDbDictionaryWithDefault
340
F
  0
DICTIONARY
  5
47
102
{ACAD_REACTORS
330
C
102
}
330
C
100
AcDbDictionary
281
     1
  3
A0
350
48
  3
A1
350
49
  3
A2
350
4A
  3
A3
350
4B
  3
A4
350
4C
  3
A5
350
4D
  3
A6
350
4E
  3
A7
350
4F
  3
A8
350
50
  3
A9
350
51
  3
B0
350
52
  3
B1
350
53
  3
B2
350
54
  3
B3
350
55
  3
B4
350
56
  3
B5
350
57
  3
B6
350
58
  3
B7
350
59
  3
B8
350
5A
  3
B9
350
5B
  3
C0
350
5C
  3
C1
350
5D
  3
C2
350
5E
  3
C3
350
5F
  3
C4
350
60
  3
C5
350
61
  3
C6
350
62
  3
C7
350
63
  3
C8
350
64
  3
C9
350
65
  3
D0
350
66
  3
D1
350
67
  3
D2
350
68
  0
DICTIONARY
  5
52A
102
{ACAD_REACTORS
330
C
102
}
330
C
100
AcDbDictionary
281
     1
  0
DICTIONARY
  5
69
102
{ACAD_REACTORS
330
C
102
}
330
C
100
AcDbDictionary
281
     1
  3
Standard
350
6A
  0
DICTIONARY
  5
2A
102
{ACAD_REACTORS
330
C
102
}
330
C
100
AcDbDictionary
281
     1
  3
2dWireframe
350
2F
  3
Basic
350
32
  3
Brighten
350
36
  3
ColorChange
350
3A
  3
Conceptual
350
34
  3
Dim
350
35
  3
EdgeColorOff
350
3D
  3
Facepattern
350
39
  3
Flat
350
2B
  3
FlatWithEdges
350
2C
  3
Gouraud
350
2D
  3
GouraudWithEdges
350
2E
  3
Hidden
350
31
  3
JitterOff
350
3B
  3
Linepattern
350
38
  3
OverhangOff
350
3C
  3
Realistic
350
33
  3
Shaded
350
42
  3
Shaded with edges
350
41
  3
Shades of Gray
350
3E
  3
Sketchy
350
3F
  3
Thicken
350
37
  3
Wireframe
350
30
  3
X-Ray
350
40
  0
XRECORD
  5
526
102
{ACAD_REACTORS
330
C
102
}
330
C
100
AcDbXrecord
280
     1
 90
        1
330
6A
  0
DICTIONARY
  5
522
102
{ACAD_REACTORS
330
C
102
}
330
C
100
AcDbDictionary
281
     1
  3
CANNOSCALE
350
523
  3
CENTEREXE
350
52B
  3
CENTERLTYPEFILE
350
52C
  3
CMLEADERSTYLE
350
528
  3
CTABLESTYLE
350
527
  0
LAYOUT
  5
1E
102
{ACAD_REACTORS
330
1A
102
}
330
1A
100
AcDbPlotSettings
  1

  2
none_device
  4

  6

 40
0.0
 41
0.0
 42
0.0
 43
0.0
 44
0.0
 45
0.0
 46
0.0
 47
0.0
 48
0.0
 49
0.0
140
0.0
141
0.0
142
1.0
143
1.0
 70
   688
 72
     1
 73
     0
 74
     5
  7

 75
    16
 76
     0
 77
     5
 78
   300
147
1.0
148
0.0
149
0.0
100
AcDbLayout
  1
Layout1
 70
     1
 71
     1
 10
0.0
 20
0.0
 11
420.0
 21
297.0
 12
0.0
 22
0.0
 32
0.0
 14
1.000000000000000E+20
 24
1.000000000000000E+20
 34
1.000000000000000E+20
 15
-1.000000000000000E+20
 25
-1.000000000000000E+20
 35
-1.000000000000000E+20
146
0.0
 13
0.0
 23
0.0
 33
0.0
 16
1.0
 26
0.0
 36
0.0
 17
0.0
 27
1.0
 37
0.0
 76
     0
330
1B
  0
LAYOUT
  5
26
102
{ACAD_REACTORS
330
1A
102
}
330
1A
100
AcDbPlotSettings
  1

  2
none_device
  4

  6

 40
0.0
 41
0.0
 42
0.0
 43
0.0
 44
0.0
 45
0.0
 46
0.0
 47
0.0
 48
0.0
 49
0.0
140
0.0
141
0.0
142
1.0
143
1.0
 70
   688
 72
     1
 73
     0
 74
     5
  7

 75
    16
 76
     0
 77
     5
 78
   300
147
1.0
148
0.0
149
0.0
100
AcDbLayout
  1
Layout2
 70
     1
 71
     2
 10
0.0
 20
0.0
 11
0.0
 21
0.0
 12
0.0
 22
0.0
 32
0.0
 14
0.0
 24
0.0
 34
0.0
 15
0.0
 25
0.0
 35
0.0
146
0.0
 13
0.0
 23
0.0
 33
0.0
 16
1.0
 26
0.0
 36
0.0
 17
0.0
 27
1.0
 37
0.0
 76
     0
330
23
  0
LAYOUT
  5
22
102
{ACAD_REACTORS
330
1A
102
}
330
1A
100
AcDbPlotSettings
  1

  2
none_device
  4
Letter_(8.50_x_11.00_Inches)
  6

 40
6.35
 41
6.35
 42
6.35000508
 43
6.35000508
 44
215.9
 45
279.4
 46
0.0
 47
0.0
 48
0.0
 49
0.0
140
0.0
141
0.0
142
1.0
143
1.0
 70
  1712
 72
     1
 73
     0
 74
     0
  7

 75
     0
 76
     0
 77
     5
 78
   300
147
1.0
148
0.0
149
0.0
100
AcDbLayout
  1
Model
 70
     1
 71
     0
 10
-840.0
 20
-594.0
 11
840.0
 21
594.0
 12
0.0
 22
0.0
 32
0.0
 14
-840.0
 24
-594.0
 34
0.0
 15
840.0
 25
594.0
 35
0.0
146
0.0
 13
0.0
 23
0.0
 33
0.0
 16
1.0
 26
0.0
 36
0.0
 17
0.0
 27
1.0
 37
0.0
 76
     0
330
1F
331
29
  0
MATERIAL
  5
45
102
{ACAD_REACTORS
330
43
102
}
330
43
100
AcDbMaterial
  1
ByBlock
 72
     1
 94
      127
  0
MATERIAL
  5
44
102
{ACAD_REACTORS
330
43
102
}
330
43
100
AcDbMaterial
  1
ByLayer
 72
     1
 94
      127
  0
MATERIAL
  5
46
102
{ACAD_REACTORS
330
43
102
}
330
43
100
AcDbMaterial
  1
Global
 72
     1
 94
      127
  0
MLEADERSTYLE
  5
6C
102
{ACAD_REACTORS
330
6B
102
}
330
6B
100
AcDbMLeaderStyle
179
     2
170
     2
171
     1
172
     0
 90
        2
 40
0.0
 41
0.0
173
     1
 91
-1056964608
340
14
 92
       -2
290
     1
 42
2.0
291
     1
 43
8.0
  3
Standard
341
0
 44
4.0
300

342
11
174
     1
178
     6
175
     1
176
     0
 93
-1056964608
 45
4.0
292
     0
297
     0
 46
4.0
343
0
 94
-1056964608
 47
1.0
 49
1.0
140
1.0
293
     1
141
0.0
294
     1
177
     0
142
1.0
295
     0
296
     0
143
3.75
271
     0
272
     9
273
     9
298
     0
  0
MLINESTYLE
  5
18
102
{ACAD_REACTORS
330
17
102
}
330
17
100
AcDbMlineStyle
  2
Standard
 70
     0
  3

 62
   256
 51
90.0
 52
90.0
 71
     2
 49
0.5
 62
   256
  6
BYLAYER
 49
-0.5
 62
   256
  6
BYLAYER
  0
ACDBPLACEHOLDER
  5
F
102
{ACAD_REACTORS
330
E
102
}
330
E
  0
SCALE
  5
48
102
{ACAD_REACTORS
330
47
102
}
330
47
100
AcDbScale
 70
     0
300
1:1
140
1.0
141
1.0
290
     1
  0
SCALE
  5
49
102
{ACAD_REACTORS
330
47
102
}
330
47
100
AcDbScale
 70
     0
300
1:2
140
1.0
141
2.0
290
     0
  0
SCALE
  5
4A
102
{ACAD_REACTORS
330
47
102
}
330
47
100
AcDbScale
 70
     0
300
1:4
140
1.0
141
4.0
290
     0
  0
SCALE
  5
4B
102
{ACAD_REACTORS
330
47
102
}
330
47
100
AcDbScale
 70
     0
300
1:5
140
1.0
141
5.0
290
     0
  0
SCALE
  5
4C
102
{ACAD_REACTORS
330
47
102
}
330
47
100
AcDbScale
 70
     0
300
1:8
140
1.0
141
8.0
290
     0
  0
SCALE
  5
4D
102
{ACAD_REACTORS
330
47
102
}
330
47
100
AcDbScale
 70
     0
300
1:10
140
1.0
141
10.0
290
     0
  0
SCALE
  5
4E
102
{ACAD_REACTORS
330
47
102
}
330
47
100
AcDbScale
 70
     0
300
1:16
140
1.0
141
16.0
290
     0
  0
SCALE
  5
4F
102
{ACAD_REACTORS
330
47
102
}
330
47
100
AcDbScale
 70
     0
300
1:20
140
1.0
141
20.0
290
     0
  0
SCALE
  5
50
102
{ACAD_REACTORS
330
47
102
}
330
47
100
AcDbScale
 70
     0
300
1:30
140
1.0
141
30.0
290
     0
  0
SCALE
  5
51
102
{ACAD_REACTORS
330
47
102
}
330
47
100
AcDbScale
 70
     0
300
1:40
140
1.0
141
40.0
290
     0
  0
SCALE
  5
52
102
{ACAD_REACTORS
330
47
102
}
330
47
100
AcDbScale
 70
     0
300
1:50
140
1.0
141
50.0
290
     0
  0
SCALE
  5
53
102
{ACAD_REACTORS
330
47
102
}
330
47
100
AcDbScale
 70
     0
300
1:100
140
1.0
141
100.0
290
     0
  0
SCALE
  5
54
102
{ACAD_REACTORS
330
47
102
}
330
47
100
AcDbScale
 70
     0
300
2:1
140
2.0
141
1.0
290
     0
  0
SCALE
  5
55
102
{ACAD_REACTORS
330
47
102
}
330
47
100
AcDbScale
 70
     0
300
4:1
140
4.0
141
1.0
290
     0
  0
SCALE
  5
56
102
{ACAD_REACTORS
330
47
102
}
330
47
100
AcDbScale
 70
     0
300
8:1
140
8.0
141
1.0
290
     0
  0
SCALE
  5
57
102
{ACAD_REACTORS
330
47
102
}
330
47
100
AcDbScale
 70
     0
300
10:1
140
10.0
141
1.0
290
     0
  0
SCALE
  5
58
102
{ACAD_REACTORS
330
47
102
}
330
47
100
AcDbScale
 70
     0
300
100:1
140
100.0
141
1.0
290
     0
  0
SCALE
  5
59
102
{ACAD_REACTORS
330
47
102
}
330
47
100
AcDbScale
 70
     0
300
1/128" = 1'-0"
140
0.0078125
141
12.0
290
     0
  0
SCALE
  5
5A
102
{ACAD_REACTORS
330
47
102
}
330
47
100
AcDbScale
 70
     0
300
1/64" = 1'-0"
140
0.015625
141
12.0
290
     0
  0
SCALE
  5
5B
102
{ACAD_REACTORS
330
47
102
}
330
47
100
AcDbScale
 70
     0
300
1/32" = 1'-0"
140
0.03125
141
12.0
290
     0
  0
SCALE
  5
5C
102
{ACAD_REACTORS
330
47
102
}
330
47
100
AcDbScale
 70
     0
300
1/16" = 1'-0"
140
0.0625
141
12.0
290
     0
  0
SCALE
  5
5D
102
{ACAD_REACTORS
330
47
102
}
330
47
100
AcDbScale
 70
     0
300
3/32" = 1'-0"
140
0.09375
141
12.0
290
     0
  0
SCALE
  5
5E
102
{ACAD_REACTORS
330
47
102
}
330
47
100
AcDbScale
 70
     0
300
1/8" = 1'-0"
140
0.125
141
12.0
290
     0
  0
SCALE
  5
5F
102
{ACAD_REACTORS
330
47
102
}
330
47
100
AcDbScale
 70
     0
300
3/16" = 1'-0"
140
0.1875
141
12.0
290
     0
  0
SCALE
  5
60
102
{ACAD_REACTORS
330
47
102
}
330
47
100
AcDbScale
 70
     0
300
1/4" = 1'-0"
140
0.25
141
12.0
290
     0
  0
SCALE
  5
61
102
{ACAD_REACTORS
330
47
102
}
330
47
100
AcDbScale
 70
     0
300
3/8" = 1'-0"
140
0.375
141
12.0
290
     0
  0
SCALE
  5
62
102
{ACAD_REACTORS
330
47
102
}
330
47
100
AcDbScale
 70
     0
300
1/2" = 1'-0"
140
0.5
141
12.0
290
     0
  0
SCALE
  5
63
102
{ACAD_REACTORS
330
47
102
}
330
47
100
AcDbScale
 70
     0
300
3/4" = 1'-0"
140
0.75
141
12.0
290
     0
  0
SCALE
  5
64
102
{ACAD_REACTORS
330
47
102
}
330
47
100
AcDbScale
 70
     0
300
1" = 1'-0"
140
1.0
141
12.0
290
     0
  0
SCALE
  5
65
102
{ACAD_REACTORS
330
47
102
}
330
47
100
AcDbScale
 70
     0
300
1-1/2" = 1'-0"
140
1.5
141
12.0
290
     0
  0
SCALE
  5
66
102
{ACAD_REACTORS
330
47
102
}
330
47
100
AcDbScale
 70
     0
300
3" = 1'-0"
140
3.0
141
12.0
290
     0
  0
SCALE
  5
67
102
{ACAD_REACTORS
330
47
102
}
330
47
100
AcDbScale
 70
     0
300
6" = 1'-0"
140
6.0
141
12.0
290
     0
  0
SCALE
  5
68
102
{ACAD_REACTORS
330
47
102
}
330
47
100
AcDbScale
 70
     0
300
1'-0" = 1'-0"
140
12.0
141
12.0
290
     0
  0
TABLESTYLE
  5
6A
102
{ACAD_REACTORS
330
69
102
}
102
{ACAD_XDICTIONARY
360
524
102
}
330
69
100
AcDbTableStyle
  3
Standard
 70
     0
 71
     0
 40
0.06
 41
0.06
280
     0
281
     0
  7
Standard
140
4.5
170
     2
 62
     0
 63
   257
283
     0
 90
        4
 91
        0
  1

274
    -2
284
     1
 64
     0
275
    -2
285
     1
 65
     0
276
    -2
286
     1
 66
     0
277
    -2
287
     1
 67
     0
278
    -2
288
     1
 68
     0
279
    -2
289
     1
 69
     0
  7
Standard
140
6.0
170
     5
 62
     0
 63
   257
283
     0
 90
        4
 91
        0
  1

274
    -2
284
     1
 64
     0
275
    -2
285
     1
 65
     0
276
    -2
286
     1
 66
     0
277
    -2
287
     1
 67
     0
278
    -2
288
     1
 68
     0
279
    -2
289
     1
 69
     0
  7
Standard
140
4.5
170
     5
 62
     0
 63
   257
283
     0
 90
        4
 91
        0
  1

274
    -2
284
     1
 64
     0
275
    -2
285
     1
 65
     0
276
    -2
286
     1
 66
     0
277
    -2
287
     1
 67
     0
278
    -2
288
     1
 68
     0
279
    -2
289
     1
 69
     0
  0
VISUALSTYLE
  5
2F
102
{ACAD_REACTORS
330
2A
102
}
330
2A
100
AcDbVisualStyle
  2
2dWireframe
 70
     4
177
     3
291
     0
 70
    58
 90
        0
176
     1
 90
        2
176
     1
 90
        0
176
     1
 90
        0
176
     1
 40
0.6
176
     1
 40
30.0
176
     1
 62
     7
420
 16777215
176
     1
 90
        1
176
     1
 90
        4
176
     1
 62
     7
176
     1
 62
   257
176
     1
 90
        1
176
     1
 90
        1
176
     1
 40
1.0
176
     1
 90
        0
176
     1
 62
   257
176
     1
 40
1.0
176
     1
 90
        1
176
     1
 90
        6
176
     1
 90
        2
176
     1
 62
     7
176
     1
 90
        5
176
     1
 90
        0
176
     1
 90
        0
176
     1
290
     0
176
     1
 90
        1
176
     1
 40
0.0
176
     1
 90
        0
176
     1
290
     1
176
     1
290
     1
176
     1
290
     0
176
     1
290
     0
176
     1
290
     0
176
     1
290
     0
176
     1
290
     0
176
     1
290
     0
176
     1
290
     0
176
     1
 90
       50
176
     1
 40
0.0
176
     1
 40
1.0
176
     1
 90
        0
176
     1
 62
    18
420
        0
176
     1
 90
       50
176
     1
 90
        3
176
     1
 62
     5
420
      255
176
     1
290
     0
176
     1
 90
       50
176
     1
 90
       50
176
     1
 90
       50
176
     1
290
     0
176
     1
 90
       50
176
     1
 62
   256
176
     0
 40
1.0
176
     0
 90
        2
176
     1
  1
strokes_ogs.tif
176
     1
290
     0
176
     1
 40
1.0
176
     1
 40
1.0
176
     1
  0
VISUALSTYLE
  5
32
102
{ACAD_REACTORS
330
2A
102
}
330
2A
100
AcDbVisualStyle
  2
Basic
 70
     7
177
     3
291
     1
 70
    58
 90
        1
176
     1
 90
        0
176
     1
 90
        1
176
     1
 90
        0
176
     1
 40
0.6
176
     1
 40
30.0
176
     1
 62
     7
420
 16777215
176
     1
 90
        0
176
     1
 90
        4
176
     1
 62
     7
176
     1
 62
   257
176
     1
 90
        1
176
     1
 90
        1
176
     1
 40
1.0
176
     1
 90
        8
176
     1
 62
     7
176
     1
 40
1.0
176
     1
 90
        1
176
     1
 90
        6
176
     1
 90
        2
176
     1
 62
     7
176
     1
 90
        5
176
     1
 90
        0
176
     1
 90
        0
176
     1
290
     0
176
     1
 90
        1
176
     1
 40
0.0
176
     1
 90
        0
176
     1
290
     0
176
     1
290
     1
176
     1
290
     1
176
     1
290
     0
176
     1
290
     0
176
     1
290
     0
176
     1
290
     0
176
     1
290
     0
176
     1
290
     0
176
     1
 90
       50
176
     1
 40
0.0
176
     1
 40
1.0
176
     1
 90
        0
176
     1
 62
    18
420
        0
176
     1
 90
       50
176
     1
 90
        3
176
     1
 62
     5
420
      255
176
     1
290
     0
176
     1
 90
       50
176
     1
 90
       50
176
     1
 90
       50
176
     1
290
     0
176
     1
 90
       50
176
     1
 62
   256
176
     0
 40
1.0
176
     0
 90
        2
176
     1
  1
strokes_ogs.tif
176
     1
290
     0
176
     1
 40
1.0
176
     1
 40
1.0
176
     1
  0
VISUALSTYLE
  5
36
102
{ACAD_REACTORS
330
2A
102
}
330
2A
100
AcDbVisualStyle
  2
Brighten
 70
    12
177
     3
291
     1
 70
    58
 90
        2
176
     1
 90
        2
176
     1
 90
        0
176
     1
 90
        0
176
     1
 40
0.6
176
     1
 40
30.0
176
     1
 62
     7
420
 16777215
176
     1
 90
        1
176
     1
 90
        4
176
     1
 62
     7
176
     1
 62
   257
176
     1
 90
        1
176
     1
 90
        1
176
     1
 40
1.0
176
     1
 90
        8
176
     1
 62
     7
176
     1
 40
1.0
176
     1
 90
        1
176
     1
 90
        6
176
     1
 90
        2
176
     1
 62
     7
176
     1
 90
        5
176
     1
 90
        0
176
     1
 90
        0
176
     1
290
     0
176
     1
 90
        1
176
     1
 40
50.0
176
     1
 90
        0
176
     1
290
     0
176
     1
290
     1
176
     1
290
     1
176
     1
290
     0
176
     1
290
     0
176
     1
290
     0
176
     1
290
     0
176
     1
290
     0
176
     1
290
     0
176
     1
 90
       50
176
     1
 40
0.0
176
     1
 40
1.0
176
     1
 90
        0
176
     1
 62
    18
420
        0
176
     1
 90
       50
176
     1
 90
        3
176
     1
 62
     5
420
      255
176
     1
290
     0
176
     1
 90
       50
176
     1
 90
       50
176
     1
 90
       50
176
     1
290
     0
176
     1
 90
       50
176
     1
 62
   256
176
     0
 40
1.0
176
     0
 90
        2
176
     1
  1
strokes_ogs.tif
176
     1
290
     0
176
     1
 40
1.0
176
     1
 40
1.0
176
     1
  0
VISUALSTYLE
  5
3A
102
{ACAD_REACTORS
330
2A
102
}
330
2A
100
AcDbVisualStyle
  2
ColorChange
 70
    16
177
     3
291
     1
 70
    58
 90
        2
176
     1
 90
        2
176
     1
 90
        3
176
     1
 90
        0
176
     1
 40
0.6
176
     1
 40
30.0
176
     1
 62
     8
420
  8421504
176
     1
 90
        1
176
     1
 90
        4
176
     1
 62
     7
176
     1
 62
   257
176
     1
 90
        1
176
     1
 90
        1
176
     1
 40
1.0
176
     1
 90
        8
176
     1
 62
     8
420
  8421504
176
     1
 40
1.0
176
     1
 90
        1
176
     1
 90
        6
176
     1
 90
        2
176
     1
 62
     7
176
     1
 90
        5
176
     1
 90
        0
176
     1
 90
        0
176
     1
290
     0
176
     1
 90
        1
176
     1
 40
0.0
176
     1
 90
        0
176
     1
290
     0
176
     1
290
     1
176
     1
290
     1
176
     1
290
     0
176
     1
290
     0
176
     1
290
     0
176
     1
290
     0
176
     1
290
     0
176
     1
290
     0
176
     1
 90
       50
176
     1
 40
0.0
176
     1
 40
1.0
176
     1
 90
        0
176
     1
 62
    18
420
        0
176
     1
 90
       50
176
     1
 90
        3
176
     1
 62
     5
420
      255
176
     1
290
     0
176
     1
 90
       50
176
     1
 90
       50
176
     1
 90
       50
176
     1
290
     0
176
     1
 90
       50
176
     1
 62
   256
176
     0
 40
1.0
176
     0
 90
        2
176
     1
  1
strokes_ogs.tif
176
     1
290
     0
176
     1
 40
1.0
176
     1
 40
1.0
176
     1
  0
VISUALSTYLE
  5
34
102
{ACAD_REACTORS
330
2A
102
}
330
2A
100
AcDbVisualStyle
  2
Conceptual
 70
     9
177
     3
291
     0
 70
    58
 90
        3
176
     1
 90
        2
176
     1
 90
        0
176
     1
 90
        0
176
     1
 40
0.6
176
     1
 40
30.0
176
     1
 62
     7
420
 16777215
176
     1
 90
        2
176
     1
 90
        2
176
     1
 62
     7
176
     1
 62
   257
176
     1
 90
        1
176
     1
 90
        1
176
     1
 40
179.0
176
     1
 90
        8
176
     1
 62
     7
176
     1
 40
1.0
176
     1
 90
        1
176
     1
 90
        6
176
     1
 90
        2
176
     1
 62
     7
176
     1
 90
        3
176
     1
 90
        0
176
     1
 90
        0
176
     1
290
     0
176
     1
 90
        1
176
     1
 40
0.0
176
     1
 90
        0
176
     1
290
     0
176
     1
290
     1
176
     1
290
     1
176
     1
290
     0
176
     1
290
     0
176
     1
290
     0
176
     1
290
     0
176
     1
290
     0
176
     1
290
     0
176
     1
 90
       50
176
     1
 40
0.0
176
     1
 40
1.0
176
     1
 90
        0
176
     1
 62
    18
420
        0
176
     1
 90
       50
176
     1
 90
        3
176
     1
 62
     5
420
      255
176
     1
290
     0
176
     1
 90
       50
176
     1
 90
       50
176
     1
 90
       50
176
     1
290
     0
176
     1
 90
       50
176
     1
 62
   256
176
     0
 40
1.0
176
     0
 90
        2
176
     1
  1
strokes_ogs.tif
176
     1
290
     0
176
     1
 40
1.0
176
     1
 40
1.0
176
     1
  0
VISUALSTYLE
  5
35
102
{ACAD_REACTORS
330
2A
102
}
330
2A
100
AcDbVisualStyle
  2
Dim
 70
    11
177
     3
291
     1
 70
    58
 90
        2
176
     1
 90
        2
176
     1
 90
        0
176
     1
 90
        0
176
     1
 40
0.6
176
     1
 40
30.0
176
     1
 62
     7
420
 16777215
176
     1
 90
        1
176
     1
 90
        4
176
     1
 62
     7
176
     1
 62
   257
176
     1
 90
        1
176
     1
 90
        1
176
     1
 40
1.0
176
     1
 90
        8
176
     1
 62
     7
176
     1
 40
1.0
176
     1
 90
        1
176
     1
 90
        6
176
     1
 90
        2
176
     1
 62
     7
176
     1
 90
        5
176
     1
 90
        0
176
     1
 90
        0
176
     1
290
     0
176
     1
 90
        1
176
     1
 40
-50.0
176
     1
 90
        0
176
     1
290
     0
176
     1
290
     1
176
     1
290
     1
176
     1
290
     0
176
     1
290
     0
176
     1
290
     0
176
     1
290
     0
176
     1
290
     0
176
     1
290
     0
176
     1
 90
       50
176
     1
 40
0.0
176
     1
 40
1.0
176
     1
 90
        0
176
     1
 62
    18
420
        0
176
     1
 90
       50
176
     1
 90
        3
176
     1
 62
     5
420
      255
176
     1
290
     0
176
     1
 90
       50
176
     1
 90
       50
176
     1
 90
       50
176
     1
290
     0
176
     1
 90
       50
176
     1
 62
   256
176
     0
 40
1.0
176
     0
 90
        2
176
     1
  1
strokes_ogs.tif
176
     1
290
     0
176
     1
 40
1.0
176
     1
 40
1.0
176
     1
  0
VISUALSTYLE
  5
3D
102
{ACAD_REACTORS
330
2A
102
}
330
2A
100
AcDbVisualStyle
  2
EdgeColorOff
 70
    22
177
     3
291
     1
 70
    58
 90
        2
176
     0
 90
        2
176
     0
 90
        0
176
     0
 90
        0
176
     0
 40
0.6
176
     0
 40
30.0
176
     0
 62
     7
420
 16777215
176
     0
 90
        1
176
     0
 90
        4
176
     0
 62
     7
176
     0
 62
   257
176
     0
 90
        1
176
     0
 90
        1
176
     0
 40
1.0
176
     0
 90
        8
176
     2
 62
     7
176
     0
 40
1.0
176
     0
 90
        1
176
     0
 90
        6
176
     0
 90
        2
176
     0
 62
     7
176
     0
 90
        5
176
     0
 90
        0
176
     0
 90
        0
176
     0
290
     0
176
     0
 90
        1
176
     0
 40
0.0
176
     0
 90
        0
176
     0
290
     0
176
     0
290
     1
176
     0
290
     1
176
     0
290
     0
176
     0
290
     0
176
     0
290
     0
176
     0
290
     0
176
     0
290
     0
176
     0
290
     0
176
     0
 90
       50
176
     0
 40
0.0
176
     0
 40
1.0
176
     0
 90
        0
176
     0
 62
    18
420
        0
176
     0
 90
       50
176
     0
 90
        3
176
     0
 62
     5
420
      255
176
     0
290
     0
176
     0
 90
       50
176
     0
 90
       50
176
     0
 90
       50
176
     0
290
     0
176
     0
 90
       50
176
     0
 62
   256
176
     0
 40
1.0
176
     0
 90
        2
176
     0
  1
strokes_ogs.tif
176
     0
290
     0
176
     0
 40
1.0
176
     0
 40
1.0
176
     0
  0
VISUALSTYLE
  5
39
102
{ACAD_REACTORS
330
2A
102
}
330
2A
100
AcDbVisualStyle
  2
Facepattern
 70
    15
177
     3
291
     1
 70
    58
 90
        2
176
     1
 90
        2
176
     1
 90
        0
176
     1
 90
        0
176
     1
 40
0.6
176
     1
 40
30.0
176
     1
 62
     7
420
 16777215
176
     1
 90
        1
176
     1
 90
        4
176
     1
 62
     7
176
     1
 62
   257
176
     1
 90
        1
176
     1
 90
        1
176
     1
 40
1.0
176
     1
 90
        8
176
     1
 62
     7
176
     1
 40
1.0
176
     1
 90
        1
176
     1
 90
        6
176
     1
 90
        2
176
     1
 62
     7
176
     1
 90
        5
176
     1
 90
        0
176
     1
 90
        0
176
     1
290
     0
176
     1
 90
        1
176
     1
 40
0.0
176
     1
 90
        0
176
     1
290
     0
176
     1
290
     1
176
     1
290
     1
176
     1
290
     0
176
     1
290
     0
176
     1
290
     0
176
     1
290
     0
176
     1
290
     0
176
     1
290
     0
176
     1
 90
       50
176
     1
 40
0.0
176
     1
 40
1.0
176
     1
 90
        0
176
     1
 62
    18
420
        0
176
     1
 90
       50
176
     1
 90
        3
176
     1
 62
     5
420
      255
176
     1
290
     0
176
     1
 90
       50
176
     1
 90
       50
176
     1
 90
       50
176
     1
290
     0
176
     1
 90
       50
176
     1
 62
   256
176
     0
 40
1.0
176
     0
 90
        2
176
     1
  1
strokes_ogs.tif
176
     1
290
     0
176
     1
 40
1.0
176
     1
 40
1.0
176
     1
  0
VISUALSTYLE
  5
2B
102
{ACAD_REACTORS
330
2A
102
}
330
2A
100
AcDbVisualStyle
  2
Flat
 70
     0
177
     3
291
     1
 70
    58
 90
        2
176
     1
 90
        1
176
     1
 90
        1
176
     1
 90
        2
176
     1
 40
0.6
176
     1
 40
30.0
176
     1
 62
     7
420
 16777215
176
     1
 90
        0
176
     1
 90
        0
176
     1
 62
     7
176
     1
 62
   257
176
     1
 90
        1
176
     1
 90
        1
176
     1
 40
1.0
176
     1
 90
        8
176
     1
 62
     7
176
     1
 40
1.0
176
     1
 90
        1
176
     1
 90
        6
176
     1
 90
        2
176
     1
 62
     7
176
     1
 90
        5
176
     1
 90
        0
176
     1
 90
        0
176
     1
290
     0
176
     1
 90
       13
176
     1
 40
0.0
176
     1
 90
        0
176
     1
290
     0
176
     1
290
     1
176
     1
290
     1
176
     1
290
     0
176
     1
290
     0
176
     1
290
     0
176
     1
290
     0
176
     1
290
     0
176
     1
290
     0
176
     1
 90
       50
176
     1
 40
0.0
176
     1
 40
1.0
176
     1
 90
        0
176
     1
 62
    18
420
        0
176
     1
 90
       50
176
     1
 90
        3
176
     1
 62
     5
420
      255
176
     1
290
     0
176
     1
 90
       50
176
     1
 90
       50
176
     1
 90
       50
176
     1
290
     0
176
     1
 90
       50
176
     1
 62
   256
176
     0
 40
1.0
176
     0
 90
        2
176
     1
  1
strokes_ogs.tif
176
     1
290
     0
176
     1
 40
1.0
176
     1
 40
1.0
176
     1
  0
VISUALSTYLE
  5
2C
102
{ACAD_REACTORS
330
2A
102
}
330
2A
100
AcDbVisualStyle
  2
FlatWithEdges
 70
     1
177
     3
291
     1
 70
    58
 90
        2
176
     1
 90
        1
176
     1
 90
        1
176
     1
 90
        2
176
     1
 40
0.6
176
     1
 40
30.0
176
     1
 62
     7
420
 16777215
176
     1
 90
        1
176
     1
 90
        0
176
     1
 62
     7
176
     1
 62
   257
176
     1
 90
        1
176
     1
 90
        1
176
     1
 40
1.0
176
     1
 90
        0
176
     1
 62
   257
176
     1
 40
1.0
176
     1
 90
        1
176
     1
 90
        6
176
     1
 90
        2
176
     1
 62
     7
176
     1
 90
        5
176
     1
 90
        0
176
     1
 90
        0
176
     1
290
     0
176
     1
 90
       13
176
     1
 40
0.0
176
     1
 90
        0
176
     1
290
     0
176
     1
290
     1
176
     1
290
     1
176
     1
290
     0
176
     1
290
     0
176
     1
290
     0
176
     1
290
     0
176
     1
290
     0
176
     1
290
     0
176
     1
 90
       50
176
     1
 40
0.0
176
     1
 40
1.0
176
     1
 90
        0
176
     1
 62
    18
420
        0
176
     1
 90
       50
176
     1
 90
        3
176
     1
 62
     5
420
      255
176
     1
290
     0
176
     1
 90
       50
176
     1
 90
       50
176
     1
 90
       50
176
     1
290
     0
176
     1
 90
       50
176
     1
 62
   256
176
     0
 40
1.0
176
     0
 90
        2
176
     1
  1
strokes_ogs.tif
176
     1
290
     0
176
     1
 40
1.0
176
     1
 40
1.0
176
     1
  0
VISUALSTYLE
  5
2D
102
{ACAD_REACTORS
330
2A
102
}
330
2A
100
AcDbVisualStyle
  2
Gouraud
 70
     2
177
     3
291
     1
 70
    58
 90
        2
176
     1
 90
        2
176
     1
 90
        1
176
     1
 90
        2
176
     1
 40
0.6
176
     1
 40
30.0
176
     1
 62
     7
420
 16777215
176
     1
 90
        0
176
     1
 90
        0
176
     1
 62
     7
176
     1
 62
   257
176
     1
 90
        1
176
     1
 90
        1
176
     1
 40
1.0
176
     1
 90
        0
176
     1
 62
     7
176
     1
 40
1.0
176
     1
 90
        1
176
     1
 90
        6
176
     1
 90
        2
176
     1
 62
     7
176
     1
 90
        5
176
     1
 90
        0
176
     1
 90
        0
176
     1
290
     0
176
     1
 90
       13
176
     1
 40
0.0
176
     1
 90
        0
176
     1
290
     0
176
     1
290
     1
176
     1
290
     1
176
     1
290
     0
176
     1
290
     0
176
     1
290
     0
176
     1
290
     0
176
     1
290
     0
176
     1
290
     0
176
     1
 90
       50
176
     1
 40
0.0
176
     1
 40
1.0
176
     1
 90
        0
176
     1
 62
    18
420
        0
176
     1
 90
       50
176
     1
 90
        3
176
     1
 62
     5
420
      255
176
     1
290
     0
176
     1
 90
       50
176
     1
 90
       50
176
     1
 90
       50
176
     1
290
     0
176
     1
 90
       50
176
     1
 62
   256
176
     0
 40
1.0
176
     0
 90
        2
176
     1
  1
strokes_ogs.tif
176
     1
290
     0
176
     1
 40
1.0
176
     1
 40
1.0
176
     1
  0
VISUALSTYLE
  5
2E
102
{ACAD_REACTORS
330
2A
102
}
330
2A
100
AcDbVisualStyle
  2
GouraudWithEdges
 70
     3
177
     3
291
     1
 70
    58
 90
        2
176
     1
 90
        2
176
     1
 90
        1
176
     1
 90
        2
176
     1
 40
0.6
176
     1
 40
30.0
176
     1
 62
     7
420
 16777215
176
     1
 90
        1
176
     1
 90
        0
176
     1
 62
     7
176
     1
 62
   257
176
     1
 90
        1
176
     1
 90
        1
176
     1
 40
1.0
176
     1
 90
        0
176
     1
 62
   257
176
     1
 40
1.0
176
     1
 90
        1
176
     1
 90
        6
176
     1
 90
        2
176
     1
 62
     7
176
     1
 90
        5
176
     1
 90
        0
176
     1
 90
        0
176
     1
290
     0
176
     1
 90
       13
176
     1
 40
0.0
176
     1
 90
        0
176
     1
290
     0
176
     1
290
     1
176
     1
290
     1
176
     1
290
     0
176
     1
290
     0
176
     1
290
     0
176
     1
290
     0
176
     1
290
     0
176
     1
290
     0
176
     1
 90
       50
176
     1
 40
0.0
176
     1
 40
1.0
176
     1
 90
        0
176
     1
 62
    18
420
        0
176
     1
 90
       50
176
     1
 90
        3
176
     1
 62
     5
420
      255
176
     1
290
     0
176
     1
 90
       50
176
     1
 90
       50
176
     1
 90
       50
176
     1
290
     0
176
     1
 90
       50
176
     1
 62
   256
176
     0
 40
1.0
176
     0
 90
        2
176
     1
  1
strokes_ogs.tif
176
     1
290
     0
176
     1
 40
1.0
176
     1
 40
1.0
176
     1
  0
VISUALSTYLE
  5
31
102
{ACAD_REACTORS
330
2A
102
}
330
2A
100
AcDbVisualStyle
  2
Hidden
 70
     6
177
     3
291
     0
 70
    58
 90
        1
176
     1
 90
        2
176
     1
 90
        2
176
     1
 90
        0
176
     1
 40
0.6
176
     1
 40
30.0
176
     1
 62
     7
420
 16777215
176
     1
 90
        2
176
     1
 90
        2
176
     1
 62
     7
176
     1
 62
   257
176
     1
 90
        2
176
     1
 90
        1
176
     1
 40
40.0
176
     1
 90
        0
176
     1
 62
   257
176
     1
 40
1.0
176
     1
 90
        1
176
     1
 90
        6
176
     1
 90
        2
176
     1
 62
     7
176
     1
 90
        3
176
     1
 90
        0
176
     1
 90
        0
176
     1
290
     0
176
     1
 90
        1
176
     1
 40
0.0
176
     1
 90
        0
176
     1
290
     0
176
     1
290
     1
176
     1
290
     1
176
     1
290
     0
176
     1
290
     0
176
     1
290
     0
176
     1
290
     0
176
     1
290
     0
176
     1
290
     0
176
     1
 90
       50
176
     1
 40
0.0
176
     1
 40
1.0
176
     1
 90
        0
176
     1
 62
    18
420
        0
176
     1
 90
       50
176
     1
 90
        3
176
     1
 62
     5
420
      255
176
     1
290
     0
176
     1
 90
       50
176
     1
 90
       50
176
     1
 90
       50
176
     1
290
     0
176
     1
 90
       50
176
     1
 62
   256
176
     0
 40
1.0
176
     0
 90
        2
176
     1
  1
strokes_ogs.tif
176
     1
290
     0
176
     1
 40
1.0
176
     1
 40
1.0
176
     1
  0
VISUALSTYLE
  5
3B
102
{ACAD_REACTORS
330
2A
102
}
330
2A
100
AcDbVisualStyle
  2
JitterOff
 70
    20
177
     3
291
     1
 70
    58
 90
        2
176
     0
 90
        2
176
     0
 90
        0
176
     0
 90
        0
176
     0
 40
0.6
176
     0
 40
30.0
176
     0
 62
     7
420
 16777215
176
     0
 90
        1
176
     0
 90
        4
176
     0
 62
     7
176
     0
 62
   257
176
     0
 90
        1
176
     0
 90
        1
176
     0
 40
1.0
176
     0
 90
       10
176
     2
 62
     7
176
     0
 40
1.0
176
     0
 90
        1
176
     0
 90
        6
176
     0
 90
        2
176
     0
 62
     7
176
     0
 90
        5
176
     0
 90
        0
176
     0
 90
        0
176
     0
290
     0
176
     0
 90
        1
176
     0
 40
0.0
176
     0
 90
        0
176
     0
290
     0
176
     0
290
     1
176
     0
290
     1
176
     0
290
     0
176
     0
290
     0
176
     0
290
     0
176
     0
290
     0
176
     0
290
     0
176
     0
290
     0
176
     0
 90
       50
176
     0
 40
0.0
176
     0
 40
1.0
176
     0
 90
        0
176
     0
 62
    18
420
        0
176
     0
 90
       50
176
     0
 90
        3
176
     0
 62
     5
420
      255
176
     0
290
     0
176
     0
 90
       50
176
     0
 90
       50
176
     0
 90
       50
176
     0
290
     0
176
     0
 90
       50
176
     0
 62
   256
176
     0
 40
1.0
176
     0
 90
        2
176
     0
  1
strokes_ogs.tif
176
     0
290
     0
176
     0
 40
1.0
176
     0
 40
1.0
176
     0
  0
VISUALSTYLE
  5
38
102
{ACAD_REACTORS
330
2A
102
}
330
2A
100
AcDbVisualStyle
  2
Linepattern
 70
    14
177
     3
291
     1
 70
    58
 90
        2
176
     1
 90
        2
176
     1
 90
        0
176
     1
 90
        0
176
     1
 40
0.6
176
     1
 40
30.0
176
     1
 62
     7
420
 16777215
176
     1
 90
        1
176
     1
 90
        4
176
     1
 62
     7
176
     1
 62
   257
176
     1
 90
        7
176
     1
 90
        7
176
     1
 40
1.0
176
     1
 90
        8
176
     1
 62
     7
176
     1
 40
1.0
176
     1
 90
        1
176
     1
 90
        6
176
     1
 90
        2
176
     1
 62
     7
176
     1
 90
        5
176
     1
 90
        0
176
     1
 90
        0
176
     1
290
     0
176
     1
 90
        1
176
     1
 40
0.0
176
     1
 90
        0
176
     1
290
     0
176
     1
290
     1
176
     1
290
     1
176
     1
290
     0
176
     1
290
     0
176
     1
290
     0
176
     1
290
     0
176
     1
290
     0
176
     1
290
     0
176
     1
 90
       50
176
     1
 40
0.0
176
     1
 40
1.0
176
     1
 90
        0
176
     1
 62
    18
420
        0
176
     1
 90
       50
176
     1
 90
        3
176
     1
 62
     5
420
      255
176
     1
290
     0
176
     1
 90
       50
176
     1
 90
       50
176
     1
 90
       50
176
     1
290
     0
176
     1
 90
       50
176
     1
 62
   256
176
     0
 40
1.0
176
     0
 90
        2
176
     1
  1
strokes_ogs.tif
176
     1
290
     0
176
     1
 40
1.0
176
     1
 40
1.0
176
     1
  0
VISUALSTYLE
  5
3C
102
{ACAD_REACTORS
330
2A
102
}
330
2A
100
AcDbVisualStyle
  2
OverhangOff
 70
    21
177
     3
291
     1
 70
    58
 90
        2
176
     0
 90
        2
176
     0
 90
        0
176
     0
 90
        0
176
     0
 40
0.6
176
     0
 40
30.0
176
     0
 62
     7
420
 16777215
176
     0
 90
        1
176
     0
 90
        4
176
     0
 62
     7
176
     0
 62
   257
176
     0
 90
        1
176
     0
 90
        1
176
     0
 40
1.0
176
     0
 90
        9
176
     2
 62
     7
176
     0
 40
1.0
176
     0
 90
        1
176
     0
 90
        6
176
     0
 90
        2
176
     0
 62
     7
176
     0
 90
        5
176
     0
 90
        0
176
     0
 90
        0
176
     0
290
     0
176
     0
 90
        1
176
     0
 40
0.0
176
     0
 90
        0
176
     0
290
     0
176
     0
290
     1
176
     0
290
     1
176
     0
290
     0
176
     0
290
     0
176
     0
290
     0
176
     0
290
     0
176
     0
290
     0
176
     0
290
     0
176
     0
 90
       50
176
     0
 40
0.0
176
     0
 40
1.0
176
     0
 90
        0
176
     0
 62
    18
420
        0
176
     0
 90
       50
176
     0
 90
        3
176
     0
 62
     5
420
      255
176
     0
290
     0
176
     0
 90
       50
176
     0
 90
       50
176
     0
 90
       50
176
     0
290
     0
176
     0
 90
       50
176
     0
 62
   256
176
     0
 40
1.0
176
     0
 90
        2
176
     0
  1
strokes_ogs.tif
176
     0
290
     0
176
     0
 40
1.0
176
     0
 40
1.0
176
     0
  0
VISUALSTYLE
  5
33
102
{ACAD_REACTORS
330
2A
102
}
330
2A
100
AcDbVisualStyle
  2
Realistic
 70
     8
177
     3
291
     0
 70
    58
 90
        2
176
     1
 90
        3
176
     1
 90
        0
176
     1
 90
        2
176
     1
 40
0.6
176
     1
 40
30.0
176
     1
 62
     7
420
 16777215
176
     1
 90
        0
176
     1
 90
        0
176
     1
 62
     7
176
     1
 62
   257
176
     1
 90
        1
176
     1
 90
        1
176
     1
 40
1.0
176
     1
 90
        8
176
     1
 62
   257
176
     1
 40
1.0
176
     1
 90
        1
176
     1
 90
        6
176
     1
 90
        2
176
     1
 62
     7
176
     1
 90
        3
176
     1
 90
        0
176
     1
 90
        0
176
     1
290
     0
176
     1
 90
       13
176
     1
 40
0.0
176
     1
 90
        0
176
     1
290
     0
176
     1
290
     1
176
     1
290
     1
176
     1
290
     0
176
     1
290
     0
176
     1
290
     0
176
     1
290
     0
176
     1
290
     0
176
     1
290
     0
176
     1
 90
       50
176
     1
 40
0.0
176
     1
 40
1.0
176
     1
 90
        0
176
     1
 62
    18
420
        0
176
     1
 90
       50
176
     1
 90
        3
176
     1
 62
     5
420
      255
176
     1
290
     0
176
     1
 90
       50
176
     1
 90
       50
176
     1
 90
       50
176
     1
290
     0
176
     1
 90
       50
176
     1
 62
   256
176
     0
 40
1.0
176
     0
 90
        2
176
     1
  1
strokes_ogs.tif
176
     1
290
     0
176
     1
 40
1.0
176
     1
 40
1.0
176
     1
  0
VISUALSTYLE
  5
42
102
{ACAD_REACTORS
330
2A
102
}
330
2A
100
AcDbVisualStyle
  2
Shaded
 70
    27
177
     3
291
     0
 70
    58
 90
        2
176
     1
 90
        2
176
     1
 90
        1
176
     1
 90
        2
176
     1
 40
0.6
176
     1
 40
30.0
176
     1
 62
     7
420
 16777215
176
     1
 90
        0
176
     1
 90
        4
176
     1
 62
     7
176
     1
 62
   257
176
     1
 90
        1
176
     1
 90
        1
176
     1
 40
1.0
176
     1
 90
        8
176
     1
 62
   257
176
     1
 40
1.0
176
     1
 90
        1
176
     1
 90
        6
176
     1
 90
        2
176
     1
 62
     8
420
  7895160
176
     1
 90
        3
176
     1
 90
        0
176
     1
 90
        0
176
     1
290
     0
176
     1
 90
        5
176
     1
 40
0.0
176
     1
 90
        0
176
     1
290
     0
176
     1
290
     1
176
     1
290
     1
176
     1
290
     0
176
     1
290
     0
176
     1
290
     0
176
     1
290
     0
176
     1
290
     0
176
     1
290
     0
176
     1
 90
       50
176
     1
 40
0.0
176
     1
 40
1.0
176
     1
 90
        0
176
     1
 62
    18
420
        0
176
     1
 90
       50
176
     1
 90
        3
176
     1
 62
     5
420
      255
176
     1
290
     0
176
     1
 90
       50
176
     1
 90
       50
176
     1
 90
       50
176
     1
290
     0
176
     1
 90
       50
176
     1
 62
   256
176
     0
 40
1.0
176
     0
 90
        2
176
     1
  1
strokes_ogs.tif
176
     1
290
     0
176
     1
 40
1.0
176
     1
 40
1.0
176
     1
  0
VISUALSTYLE
  5
41
102
{ACAD_REACTORS
330
2A
102
}
330
2A
100
AcDbVisualStyle
  2
Shaded with edges
 70
    26
177
     3
291
     0
 70
    58
 90
        2
176
     1
 90
        2
176
     1
 90
        1
176
     1
 90
        2
176
     1
 40
0.6
176
     1
 40
30.0
176
     1
 62
     7
420
 16777215
176
     1
 90
        1
176
     1
 90
       10
176
     1
 62
     7
176
     1
 62
   257
176
     1
 90
        2
176
     1
 90
        1
176
     1
 40
1.0
176
     1
 90
        8
176
     1
 62
   257
176
     1
 40
1.0
176
     1
 90
        1
176
     1
 90
        6
176
     1
 90
        2
176
     1
 62
     7
176
     1
 90
        3
176
     1
 90
        0
176
     1
 90
        0
176
     1
290
     0
176
     1
 90
        5
176
     1
 40
0.0
176
     1
 90
        0
176
     1
290
     0
176
     1
290
     1
176
     1
290
     1
176
     1
290
     0
176
     1
290
     0
176
     1
290
     0
176
     1
290
     0
176
     1
290
     0
176
     1
290
     0
176
     1
 90
       50
176
     1
 40
0.0
176
     1
 40
1.0
176
     1
 90
        0
176
     1
 62
    18
420
        0
176
     1
 90
       50
176
     1
 90
        3
176
     1
 62
     5
420
      255
176
     1
290
     0
176
     1
 90
       50
176
     1
 90
       50
176
     1
 90
       50
176
     1
290
     0
176
     1
 90
       50
176
     1
 62
   256
176
     0
 40
1.0
176
     0
 90
        2
176
     1
  1
strokes_ogs.tif
176
     1
290
     0
176
     1
 40
1.0
176
     1
 40
1.0
176
     1
  0
VISUALSTYLE
  5
3E
102
{ACAD_REACTORS
330
2A
102
}
330
2A
100
AcDbVisualStyle
  2
Shades of Gray
 70
    23
177
     3
291
     0
 70
    58
 90
        2
176
     1
 90
        2
176
     1
 90
        3
176
     1
 90
        0
176
     1
 40
0.6
176
     1
 40
30.0
176
     1
 62
     7
420
 16777215
176
     1
 90
        2
176
     1
 90
        2
176
     1
 62
     7
176
     1
 62
     7
176
     1
 90
        1
176
     1
 90
        1
176
     1
 40
40.0
176
     1
 90
        8
176
     1
 62
     7
176
     1
 40
1.0
176
     1
 90
        1
176
     1
 90
        6
176
     1
 90
        2
176
     1
 62
     7
176
     1
 90
        3
176
     1
 90
        0
176
     1
 90
        0
176
     1
290
     0
176
     1
 90
        1
176
     1
 40
0.0
176
     1
 90
        0
176
     1
290
     0
176
     1
290
     1
176
     1
290
     1
176
     1
290
     0
176
     1
290
     0
176
     1
290
     0
176
     1
290
     0
176
     1
290
     0
176
     1
290
     0
176
     1
 90
       50
176
     1
 40
0.0
176
     1
 40
1.0
176
     1
 90
        0
176
     1
 62
    18
420
        0
176
     1
 90
       50
176
     1
 90
        3
176
     1
 62
     5
420
      255
176
     1
290
     0
176
     1
 90
       50
176
     1
 90
       50
176
     1
 90
       50
176
     1
290
     0
176
     1
 90
       50
176
     1
 62
   256
176
     0
 40
1.0
176
     0
 90
        2
176
     1
  1
strokes_ogs.tif
176
     1
290
     0
176
     1
 40
1.0
176
     1
 40
1.0
176
     1
  0
VISUALSTYLE
  5
3F
102
{ACAD_REACTORS
330
2A
102
}
330
2A
100
AcDbVisualStyle
  2
Sketchy
 70
    24
177
     3
291
     0
 70
    58
 90
        1
176
     1
 90
        2
176
     1
 90
        2
176
     1
 90
        0
176
     1
 40
0.6
176
     1
 40
30.0
176
     1
 62
     7
420
 16777215
176
     1
 90
        2
176
     1
 90
        2
176
     1
 62
     7
176
     1
 62
     7
176
     1
 90
        1
176
     1
 90
        1
176
     1
 40
40.0
176
     1
 90
       11
176
     1
 62
     7
176
     1
 40
1.0
176
     1
 90
        1
176
     1
 90
        6
176
     1
 90
        2
176
     1
 62
     7
176
     1
 90
        6
176
     1
 90
        0
176
     1
 90
        0
176
     1
290
     0
176
     1
 90
        1
176
     1
 40
0.0
176
     1
 90
        0
176
     1
290
     0
176
     1
290
     1
176
     1
290
     1
176
     1
290
     0
176
     1
290
     0
176
     1
290
     0
176
     1
290
     0
176
     1
290
     0
176
     1
290
     0
176
     1
 90
       50
176
     1
 40
0.0
176
     1
 40
1.0
176
     1
 90
        0
176
     1
 62
    18
420
        0
176
     1
 90
       50
176
     1
 90
        3
176
     1
 62
     5
420
      255
176
     1
290
     0
176
     1
 90
       50
176
     1
 90
       50
176
     1
 90
       50
176
     1
290
     0
176
     1
 90
       50
176
     1
 62
   256
176
     0
 40
1.0
176
     0
 90
        2
176
     1
  1
strokes_ogs.tif
176
     1
290
     0
176
     1
 40
1.0
176
     1
 40
1.0
176
     1
  0
VISUALSTYLE
  5
37
102
{ACAD_REACTORS
330
2A
102
}
330
2A
100
AcDbVisualStyle
  2
Thicken
 70
    13
177
     3
291
     1
 70
    58
 90
        2
176
     1
 90
        2
176
     1
 90
        0
176
     1
 90
        0
176
     1
 40
0.6
176
     1
 40
30.0
176
     1
 62
     7
420
 16777215
176
     1
 90
        1
176
     1
 90
        4
176
     1
 62
     7
176
     1
 62
   257
176
     1
 90
        1
176
     1
 90
        1
176
     1
 40
1.0
176
     1
 90
       12
176
     1
 62
     7
176
     1
 40
1.0
176
     1
 90
        1
176
     1
 90
        6
176
     1
 90
        2
176
     1
 62
     7
176
     1
 90
        5
176
     1
 90
        0
176
     1
 90
        0
176
     1
290
     0
176
     1
 90
        1
176
     1
 40
0.0
176
     1
 90
        0
176
     1
290
     0
176
     1
290
     1
176
     1
290
     1
176
     1
290
     0
176
     1
290
     0
176
     1
290
     0
176
     1
290
     0
176
     1
290
     0
176
     1
290
     0
176
     1
 90
       50
176
     1
 40
0.0
176
     1
 40
1.0
176
     1
 90
        0
176
     1
 62
    18
420
        0
176
     1
 90
       50
176
     1
 90
        3
176
     1
 62
     5
420
      255
176
     1
290
     0
176
     1
 90
       50
176
     1
 90
       50
176
     1
 90
       50
176
     1
290
     0
176
     1
 90
       50
176
     1
 62
   256
176
     0
 40
1.0
176
     0
 90
        2
176
     1
  1
strokes_ogs.tif
176
     1
290
     0
176
     1
 40
1.0
176
     1
 40
1.0
176
     1
  0
VISUALSTYLE
  5
30
102
{ACAD_REACTORS
330
2A
102
}
330
2A
100
AcDbVisualStyle
  2
Wireframe
 70
     5
177
     3
291
     0
 70
    58
 90
        0
176
     1
 90
        2
176
     1
 90
        0
176
     1
 90
        0
176
     1
 40
0.6
176
     1
 40
30.0
176
     1
 62
     7
420
 16777215
176
     1
 90
        1
176
     1
 90
        4
176
     1
 62
     7
176
     1
 62
   257
176
     1
 90
        1
176
     1
 90
        1
176
     1
 40
1.0
176
     1
 90
        0
176
     1
 62
   257
176
     1
 40
1.0
176
     1
 90
        1
176
     1
 90
        6
176
     1
 90
        2
176
     1
 62
     7
176
     1
 90
        3
176
     1
 90
        0
176
     1
 90
        0
176
     1
290
     0
176
     1
 90
        1
176
     1
 40
0.0
176
     1
 90
        0
176
     1
290
     0
176
     1
290
     1
176
     1
290
     1
176
     1
290
     0
176
     1
290
     0
176
     1
290
     0
176
     1
290
     0
176
     1
290
     0
176
     1
290
     0
176
     1
 90
       50
176
     1
 40
0.0
176
     1
 40
1.0
176
     1
 90
        0
176
     1
 62
    18
420
        0
176
     1
 90
       50
176
     1
 90
        3
176
     1
 62
     5
420
      255
176
     1
290
     0
176
     1
 90
       50
176
     1
 90
       50
176
     1
 90
       50
176
     1
290
     0
176
     1
 90
       50
176
     1
 62
   256
176
     0
 40
1.0
176
     0
 90
        2
176
     1
  1
strokes_ogs.tif
176
     1
290
     0
176
     1
 40
1.0
176
     1
 40
1.0
176
     1
  0
VISUALSTYLE
  5
40
102
{ACAD_REACTORS
330
2A
102
}
330
2A
100
AcDbVisualStyle
  2
X-Ray
 70
    25
177
     3
291
     0
 70
    58
 90
        2
176
     1
 90
        2
176
     1
 90
        1
176
     1
 90
        1
176
     1
 40
0.5
176
     1
 40
30.0
176
     1
 62
     7
420
 16777215
176
     1
 90
        1
176
     1
 90
        0
176
     1
 62
     7
176
     1
 62
   257
176
     1
 90
        1
176
     1
 90
        1
176
     1
 40
1.0
176
     1
 90
        8
176
     1
 62
     7
176
     1
 40
1.0
176
     1
 90
        1
176
     1
 90
        6
176
     1
 90
        2
176
     1
 62
     7
176
     1
 90
        3
176
     1
 90
        0
176
     1
 90
        0
176
     1
290
     0
176
     1
 90
       13
176
     1
 40
0.0
176
     1
 90
        0
176
     1
290
     0
176
     1
290
     1
176
     1
290
     1
176
     1
290
     0
176
     1
290
     0
176
     1
290
     0
176
     1
290
     0
176
     1
290
     0
176
     1
290
     0
176
     1
 90
       50
176
     1
 40
0.0
176
     1
 40
1.0
176
     1
 90
        0
176
     1
 62
    18
420
        0
176
     1
 90
       50
176
     1
 90
        3
176
     1
 62
     5
420
      255
176
     1
290
     0
176
     1
 90
       50
176
     1
 90
       50
176
     1
 90
       50
176
     1
290
     0
176
     1
 90
       50
176
     1
 62
   256
176
     0
 40
1.0
176
     0
 90
        2
176
     1
  1
strokes_ogs.tif
176
     1
290
     0
176
     1
 40
1.0
176
     1
 40
1.0
176
     1
  0
DICTIONARYVAR
  5
523
102
{ACAD_REACTORS
330
522
102
}
330
522
100
DictionaryVariables
280
     0
  1
1:1
  0
DICTIONARYVAR
  5
52B
102
{ACAD_REACTORS
330
522
102
}
330
522
100
DictionaryVariables
280
     0
  1
3.500000
  0
DICTIONARYVAR
  5
52C
102
{ACAD_REACTORS
330
522
102
}
330
522
100
DictionaryVariables
280
     0
  1
acadiso.lin
  0
DICTIONARYVAR
  5
528
102
{ACAD_REACTORS
330
522
102
}
330
522
100
DictionaryVariables
280
     0
  1
Standard
  0
DICTIONARYVAR
  5
527
102
{ACAD_REACTORS
330
522
102
}
330
522
100
DictionaryVariables
280
     0
  1
Standard
  0
DICTIONARY
  5
524
330
6A
100
AcDbDictionary
280
     1
281
     1
  3
ACAD_ROUNDTRIP_2008_TABLESTYLE_CELLSTYLEMAP
360
525
  0
CELLSTYLEMAP
  5
525
102
{ACAD_REACTORS
330
524
102
}
330
524
100
AcDbCellStyleMap
 90
        3
300
CELLSTYLE
  1
TABLEFORMAT_BEGIN
 90
        5
170
     1
 91
        0
 92
    32768
 62
   257
 93
        1
300
CONTENTFORMAT
  1
CONTENTFORMAT_BEGIN
 90
        0
 91
        0
 92
        4
 93
        0
300

 40
0.0
140
1.0
 94
        5
 62
     0
340
11
144
6.0
309
CONTENTFORMAT_END
171
     1
301
MARGIN
  1
CELLMARGIN_BEGIN
 40
1.5
 40
1.5
 40
1.5
 40
1.5
 40
1.5
 40
1.5
309
CELLMARGIN_END
 94
        6
 95
        1
302
GRIDFORMAT
  1
GRIDFORMAT_BEGIN
 90
        0
 91
        1
 62
     0
 92
       -2
340
14
 93
        0
 40
0.045
309
GRIDFORMAT_END
 95
        2
302
GRIDFORMAT
  1
GRIDFORMAT_BEGIN
 90
        0
 91
        1
 62
     0
 92
       -2
340
14
 93
        0
 40
0.045
309
GRIDFORMAT_END
 95
        4
302
GRIDFORMAT
  1
GRIDFORMAT_BEGIN
 90
        0
 91
        1
 62
     0
 92
       -2
340
14
 93
        0
 40
0.045
309
GRIDFORMAT_END
 95
        8
302
GRIDFORMAT
  1
GRIDFORMAT_BEGIN
 90
        0
 91
        1
 62
     0
 92
       -2
340
14
 93
        0
 40
0.045
309
GRIDFORMAT_END
 95
       16
302
GRIDFORMAT
  1
GRIDFORMAT_BEGIN
 90
        0
 91
        1
 62
     0
 92
       -2
340
14
 93
        0
 40
0.045
309
GRIDFORMAT_END
 95
       32
302
GRIDFORMAT
  1
GRIDFORMAT_BEGIN
 90
        0
 91
        1
 62
     0
 92
       -2
340
14
 93
        0
 40
0.045
309
GRIDFORMAT_END
309
TABLEFORMAT_END
  1
CELLSTYLE_BEGIN
 90
        1
 91
        1
300
_TITLE
309
CELLSTYLE_END
300
CELLSTYLE
  1
TABLEFORMAT_BEGIN
 90
        5
170
     1
 91
        0
 92
        0
 62
   257
 93
        1
300
CONTENTFORMAT
  1
CONTENTFORMAT_BEGIN
 90
        0
 91
        0
 92
        4
 93
        0
300

 40
0.0
140
1.0
 94
        5
 62
     0
340
11
144
4.5
309
CONTENTFORMAT_END
171
     1
301
MARGIN
  1
CELLMARGIN_BEGIN
 40
1.5
 40
1.5
 40
1.5
 40
1.5
 40
1.5
 40
1.5
309
CELLMARGIN_END
 94
        6
 95
        1
302
GRIDFORMAT
  1
GRIDFORMAT_BEGIN
 90
        0
 91
        1
 62
     0
 92
       -2
340
14
 93
        0
 40
0.045
309
GRIDFORMAT_END
 95
        2
302
GRIDFORMAT
  1
GRIDFORMAT_BEGIN
 90
        0
 91
        1
 62
     0
 92
       -2
340
14
 93
        0
 40
0.045
309
GRIDFORMAT_END
 95
        4
302
GRIDFORMAT
  1
GRIDFORMAT_BEGIN
 90
        0
 91
        1
 62
     0
 92
       -2
340
14
 93
        0
 40
0.045
309
GRIDFORMAT_END
 95
        8
302
GRIDFORMAT
  1
GRIDFORMAT_BEGIN
 90
        0
 91
        1
 62
     0
 92
       -2
340
14
 93
        0
 40
0.045
309
GRIDFORMAT_END
 95
       16
302
GRIDFORMAT
  1
GRIDFORMAT_BEGIN
 90
        0
 91
        1
 62
     0
 92
       -2
340
14
 93
        0
 40
0.045
309
GRIDFORMAT_END
 95
       32
302
GRIDFORMAT
  1
GRIDFORMAT_BEGIN
 90
        0
 91
        1
 62
     0
 92
       -2
340
14
 93
        0
 40
0.045
309
GRIDFORMAT_END
309
TABLEFORMAT_END
  1
CELLSTYLE_BEGIN
 90
        2
 91
        1
300
_HEADER
309
CELLSTYLE_END
300
CELLSTYLE
  1
TABLEFORMAT_BEGIN
 90
        5
170
     1
 91
        0
 92
        0
 62
   257
 93
        1
300
CONTENTFORMAT
  1
CONTENTFORMAT_BEGIN
 90
        0
 91
        0
 92
        4
 93
        0
300

 40
0.0
140
1.0
 94
        2
 62
     0
340
11
144
4.5
309
CONTENTFORMAT_END
171
     1
301
MARGIN
  1
CELLMARGIN_BEGIN
 40
1.5
 40
1.5
 40
1.5
 40
1.5
 40
1.5
 40
1.5
309
CELLMARGIN_END
 94
        6
 95
        1
302
GRIDFORMAT
  1
GRIDFORMAT_BEGIN
 90
        0
 91
        1
 62
     0
 92
       -2
340
14
 93
        0
 40
0.045
309
GRIDFORMAT_END
 95
        2
302
GRIDFORMAT
  1
GRIDFORMAT_BEGIN
 90
        0
 91
        1
 62
     0
 92
       -2
340
14
 93
        0
 40
0.045
309
GRIDFORMAT_END
 95
        4
302
GRIDFORMAT
  1
GRIDFORMAT_BEGIN
 90
        0
 91
        1
 62
     0
 92
       -2
340
14
 93
        0
 40
0.045
309
GRIDFORMAT_END
 95
        8
302
GRIDFORMAT
  1
GRIDFORMAT_BEGIN
 90
        0
 91
        1
 62
     0
 92
       -2
340
14
 93
        0
 40
0.045
309
GRIDFORMAT_END
 95
       16
302
GRIDFORMAT
  1
GRIDFORMAT_BEGIN
 90
        0
 91
        1
 62
     0
 92
       -2
340
14
 93
        0
 40
0.045
309
GRIDFORMAT_END
 95
       32
302
GRIDFORMAT
  1
GRIDFORMAT_BEGIN
 90
        0
 91
        1
 62
     0
 92
       -2
340
14
 93
        0
 40
0.045
309
GRIDFORMAT_END
309
TABLEFORMAT_END
  1
CELLSTYLE_BEGIN
 90
        3
 91
        2
300
_DATA
309
CELLSTYLE_END
  0
ENDSEC
  0
EOF
