  0
SECTION
  2
HEADER
  9
$ACADVER
  1
AC1027
  9
$ACADMAINTVER
 70
   105
  9
$DWGCODEPAGE
  3
ANSI_932
  9
$REQUIREDVERSIONS
160
                 0
  9
$INSBASE
 10
0.0
 20
0.0
 30
0.0
  9
$EXTMIN
 10
-1050.0
 20
-742.5
 30
0.0
  9
$EXTMAX
 10
1050.0
 20
742.5
 30
0.0
  9
$LIMMIN
 10
-1050.0
 20
-742.5
  9
$LIMMAX
 10
1050.0
 20
742.5
  9
$ORTHOMODE
 70
     0
  9
$REGENMODE
 70
     1
  9
$FILLMODE
 70
     1
  9
$QTEXTMODE
 70
     0
  9
$MIRRTEXT
 70
     1
  9
$LTSCALE
 40
5.0
  9
$ATTMODE
 70
     1
  9
$TEXTSIZE
 40
2.5
  9
$TRACEWID
 40
1.0
  9
$TEXTSTYLE
  7
Standard
  9
$CLAYER
  8
0
  9
$CELTYPE
  6
ByLayer
  9
$CECOLOR
 62
   256
  9
$CELTSCALE
 40
1.0
  9
$DISPSILH
 70
     0
  9
$DIMSCALE
 40
1.0
  9
$DIMASZ
 40
2.5
  9
$DIMEXO
 40
0.625
  9
$DIMDLI
 40
3.75
  9
$DIMRND
 40
0.0
  9
$DIMDLE
 40
0.0
  9
$DIMEXE
 40
1.25
  9
$DIMTP
 40
0.0
  9
$DIMTM
 40
0.0
  9
$DIMTXT
 40
2.5
  9
$DIMCEN
 40
2.5
  9
$DIMTSZ
 40
0.0
  9
$DIMTOL
 70
     0
  9
$DIMLIM
 70
     0
  9
$DIMTIH
 70
     0
  9
$DIMTOH
 70
     0
  9
$DIMSE1
 70
     0
  9
$DIMSE2
 70
     0
  9
$DIMTAD
 70
     1
  9
$DIMZIN
 70
     8
  9
$DIMBLK
  1

  9
$DIMASO
 70
     1
  9
$DIMSHO
 70
     1
  9
$DIMPOST
  1

  9
$DIMAPOST
  1

  9
$DIMALT
 70
     0
  9
$DIMALTD
 70
     3
  9
$DIMALTF
 40
0.03937007874016
  9
$DIMLFAC
 40
1.0
  9
$DIMTOFL
 70
     1
  9
$DIMTVP
 40
0.0
  9
$DIMTIX
 70
     0
  9
$DIMSOXD
 70
     0
  9
$DIMSAH
 70
     0
  9
$DIMBLK1
  1

  9
$DIMBLK2
  1

  9
$DIMSTYLE
  2
ISO-25
  9
$DIMCLRD
 70
     0
  9
$DIMCLRE
 70
     0
  9
$DIMCLRT
 70
     0
  9
$DIMTFAC
 40
1.0
  9
$DIMGAP
 40
0.625
  9
$DIMJUST
 70
     0
  9
$DIMSD1
 70
     0
  9
$DIMSD2
 70
     0
  9
$DIMTOLJ
 70
     0
  9
$DIMTZIN
 70
     8
  9
$DIMALTZ
 70
     0
  9
$DIMALTTZ
 70
     0
  9
$DIMUPT
 70
     0
  9
$DIMDEC
 70
     2
  9
$DIMTDEC
 70
     2
  9
$DIMALTU
 70
     2
  9
$DIMALTTD
 70
     3
  9
$DIMTXSTY
  7
Standard
  9
$DIMAUNIT
 70
     0
  9
$DIMADEC
 70
     0
  9
$DIMALTRND
 40
0.0
  9
$DIMAZIN
 70
     0
  9
$DIMDSEP
 70
    44
  9
$DIMATFIT
 70
     3
  9
$DIMFRAC
 70
     0
  9
$DIMLDRBLK
  1

  9
$DIMLUNIT
 70
     2
  9
$DIMLWD
 70
    -2
  9
$DIMLWE
 70
    -2
  9
$DIMTMOVE
 70
     0
  9
$DIMFXL
 40
1.0
  9
$DIMFXLON
 70
     0
  9
$DIMJOGANG
 40
0.7853981633974483
  9
$DIMTFILL
 70
     0
  9
$DIMTFILLCLR
 70
     0
  9
$DIMARCSYM
 70
     0
  9
$DIMLTYPE
  6

  9
$DIMLTEX1
  6

  9
$DIMLTEX2
  6

  9
$DIMTXTDIRECTION
 70
     0
  9
$LUNITS
 70
     2
  9
$LUPREC
 70
     4
  9
$SKETCHINC
 40
1.0
  9
$FILLETRAD
 40
10.0
  9
$AUNITS
 70
     0
  9
$AUPREC
 70
     0
  9
$MENU
  1
.
  9
$ELEVATION
 40
0.0
  9
$PELEVATION
 40
0.0
  9
$THICKNESS
 40
0.0
  9
$LIMCHECK
 70
     0
  9
$CHAMFERA
 40
0.0
  9
$CHAMFERB
 40
0.0
  9
$CHAMFERC
 40
0.0
  9
$CHAMFERD
 40
0.0
  9
$SKPOLY
 70
     0
  9
$TDCREATE
 40
2458817.458018345
  9
$TDUCREATE
 40
2458817.083018345
  9
$TDUPDATE
 40
2458817.458019711
  9
$TDUUPDATE
 40
2458817.083019711
  9
$TDINDWG
 40
0.0000000116
  9
$TDUSRTIMER
 40
0.0000000116
  9
$USRTIMER
 70
     1
  9
$ANGBASE
 50
0.0
  9
$ANGDIR
 70
     0
  9
$PDMODE
 70
     0
  9
$PDSIZE
 40
0.0
  9
$PLINEWID
 40
0.0
  9
$SPLFRAME
 70
     0
  9
$SPLINETYPE
 70
     6
  9
$SPLINESEGS
 70
     8
  9
$HANDSEED
  5
584
  9
$SURFTAB1
 70
     6
  9
$SURFTAB2
 70
     6
  9
$SURFTYPE
 70
     6
  9
$SURFU
 70
     6
  9
$SURFV
 70
     6
  9
$UCSBASE
  2

  9
$UCSNAME
  2

  9
$UCSORG
 10
0.0
 20
0.0
 30
0.0
  9
$UCSXDIR
 10
1.0
 20
0.0
 30
0.0
  9
$UCSYDIR
 10
0.0
 20
1.0
 30
0.0
  9
$UCSORTHOREF
  2

  9
$UCSORTHOVIEW
 70
     0
  9
$UCSORGTOP
 10
0.0
 20
0.0
 30
0.0
  9
$UCSORGBOTTOM
 10
0.0
 20
0.0
 30
0.0
  9
$UCSORGLEFT
 10
0.0
 20
0.0
 30
0.0
  9
$UCSORGRIGHT
 10
0.0
 20
0.0
 30
0.0
  9
$UCSORGFRONT
 10
0.0
 20
0.0
 30
0.0
  9
$UCSORGBACK
 10
0.0
 20
0.0
 30
0.0
  9
$PUCSBASE
  2

  9
$PUCSNAME
  2

  9
$PUCSORG
 10
0.0
 20
0.0
 30
0.0
  9
$PUCSXDIR
 10
1.0
 20
0.0
 30
0.0
  9
$PUCSYDIR
 10
0.0
 20
1.0
 30
0.0
  9
$PUCSORTHOREF
  2

  9
$PUCSORTHOVIEW
 70
     0
  9
$PUCSORGTOP
 10
0.0
 20
0.0
 30
0.0
  9
$PUCSORGBOTTOM
 10
0.0
 20
0.0
 30
0.0
  9
$PUCSORGLEFT
 10
0.0
 20
0.0
 30
0.0
  9
$PUCSORGRIGHT
 10
0.0
 20
0.0
 30
0.0
  9
$PUCSORGFRONT
 10
0.0
 20
0.0
 30
0.0
  9
$PUCSORGBACK
 10
0.0
 20
0.0
 30
0.0
  9
$USERI1
 70
     0
  9
$USERI2
 70
     0
  9
$USERI3
 70
     0
  9
$USERI4
 70
     0
  9
$USERI5
 70
     0
  9
$USERR1
 40
0.0
  9
$USERR2
 40
0.0
  9
$USERR3
 40
0.0
  9
$USERR4
 40
0.0
  9
$USERR5
 40
0.0
  9
$WORLDVIEW
 70
     1
  9
$SHADEDGE
 70
     3
  9
$SHADEDIF
 70
    70
  9
$TILEMODE
 70
     1
  9
$MAXACTVP
 70
    64
  9
$PINSBASE
 10
0.0
 20
0.0
 30
0.0
  9
$PLIMCHECK
 70
     0
  9
$PEXTMIN
 10
1.000000000000000E+20
 20
1.000000000000000E+20
 30
1.000000000000000E+20
  9
$PEXTMAX
 10
-1.000000000000000E+20
 20
-1.000000000000000E+20
 30
-1.000000000000000E+20
  9
$PLIMMIN
 10
0.0
 20
0.0
  9
$PLIMMAX
 10
420.0
 20
297.0
  9
$UNITMODE
 70
     0
  9
$VISRETAIN
 70
     1
  9
$PLINEGEN
 70
     0
  9
$PSLTSCALE
 70
     1
  9
$TREEDEPTH
 70
  3020
  9
$CMLSTYLE
  2
Standard
  9
$CMLJUST
 70
     0
  9
$CMLSCALE
 40
20.0
  9
$PROXYGRAPHICS
 70
     1
  9
$MEASUREMENT
 70
     1
  9
$CELWEIGHT
370
    -1
  9
$ENDCAPS
280
     0
  9
$JOINSTYLE
280
     0
  9
$LWDISPLAY
290
     0
  9
$INSUNITS
 70
     4
  9
$HYPERLINKBASE
  1

  9
$STYLESHEET
  1

  9
$XEDIT
290
     1
  9
$CEPSNTYPE
380
     0
  9
$PSTYLEMODE
290
     1
  9
$FINGERPRINTGUID
  2
{638C4A0A-EF02-4D2F-BEF5-8AD15A6CB8BD}
  9
$VERSIONGUID
  2
{FAEB1C32-E019-11D5-929B-00C0DF256EC4}
  9
$EXTNAMES
290
     1
  9
$PSVPSCALE
 40
0.0
  9
$OLESTARTUP
290
     0
  9
$SORTENTS
280
   127
  9
$INDEXCTL
280
     0
  9
$HIDETEXT
280
     1
  9
$XCLIPFRAME
280
     2
  9
$HALOGAP
280
     0
  9
$OBSCOLOR
 70
   257
  9
$OBSLTYPE
280
     0
  9
$INTERSECTIONDISPLAY
280
     0
  9
$INTERSECTIONCOLOR
 70
   257
  9
$DIMASSOC
280
     2
  9
$PROJECTNAME
  1

  9
$CAMERADISPLAY
290
     0
  9
$LENSLENGTH
 40
50.0
  9
$CAMERAHEIGHT
 40
0.0
  9
$STEPSPERSEC
 40
2.0
  9
$STEPSIZE
 40
6.0
  9
$3DDWFPREC
 40
2.0
  9
$PSOLWIDTH
 40
5.0
  9
$PSOLHEIGHT
 40
80.0
  9
$LOFTANG1
 40
1.570796326794897
  9
$LOFTANG2
 40
1.570796326794897
  9
$LOFTMAG1
 40
0.0
  9
$LOFTMAG2
 40
0.0
  9
$LOFTPARAM
 70
     7
  9
$LOFTNORMALS
280
     1
  9
$LATITUDE
 40
37.795
  9
$LONGITUDE
 40
-122.394
  9
$NORTHDIRECTION
 40
0.0
  9
$TIMEZONE
 70
 -8000
  9
$LIGHTGLYPHDISPLAY
280
     1
  9
$TILEMODELIGHTSYNCH
280
     1
  9
$CMATERIAL
347
44
  9
$SOLIDHIST
280
     0
  9
$SHOWHIST
280
     1
  9
$DWFFRAME
280
     2
  9
$DGNFRAME
280
     2
  9
$REALWORLDSCALE
290
     1
  9
$INTERFERECOLOR
 62
   256
  9
$CSHADOW
280
     0
  9
$SHADOWPLANELOCATION
 40
0.0
  0
ENDSEC
  0
SECTION
  2
CLASSES
  0
CLASS
  1
ACDBDICTIONARYWDFLT
  2
AcDbDictionaryWithDefault
  3
ObjectDBX Classes
 90
        0
 91
        4
280
     0
281
     0
  0
CLASS
  1
VISUALSTYLE
  2
AcDbVisualStyle
  3
ObjectDBX Classes
 90
     4095
 91
        4
280
     0
281
     0
  0
CLASS
  1
MATERIAL
  2
AcDbMaterial
  3
ObjectDBX Classes
 90
     1153
 91
        4
280
     0
281
     0
  0
CLASS
  1
SCALE
  2
AcDbScale
  3
ObjectDBX Classes
 90
     1153
 91
        4
280
     0
281
     0
  0
CLASS
  1
TABLESTYLE
  2
AcDbTableStyle
  3
ObjectDBX Classes
 90
     4095
 91
        4
280
     0
281
     0
  0
CLASS
  1
MLEADERSTYLE
  2
AcDbMLeaderStyle
  3
ACDB_MLEADERSTYLE_CLASS
 90
     4095
 91
        4
280
     0
281
     0
  0
CLASS
  1
SUN
  2
AcDbSun
  3
SCENEOE
 90
     1153
 91
        4
280
     0
281
     0
  0
CLASS
  1
DICTIONARYVAR
  2
AcDbDictionaryVar
  3
ObjectDBX Classes
 90
        0
 91
        4
280
     0
281
     0
  0
CLASS
  1
CELLSTYLEMAP
  2
AcDbCellStyleMap
  3
ObjectDBX Classes
 90
     1152
 91
        4
280
     0
281
     0
  0
ENDSEC
  0
SECTION
  2
TABLES
  0
TABLE
  2
VPORT
  5
8
330
0
100
AcDbSymbolTable
 70
     1
  0
VPORT
  5
29
330
8
100
AcDbSymbolTableRecord
100
AcDbViewportTableRecord
  2
*Active
 70
     0
 10
0.0
 20
0.0
 11
1.0
 21
1.0
 12
0.0
 22
0.0
 13
0.0
 23
0.0
 14
10.0
 24
10.0
 15
10.0
 25
10.0
 16
0.0
 26
0.0
 36
1.0
 17
0.0
 27
0.0
 37
0.0
 40
1633.5
 41
1.414141414141414
 42
50.0
 43
0.0
 44
0.0
 50
0.0
 51
0.0
 71
     0
 72
 10000
 73
     1
 74
     3
 75
     0
 76
     0
 77
     0
 78
     0
281
     0
 65
     1
110
0.0
120
0.0
130
0.0
111
1.0
121
0.0
131
0.0
112
0.0
122
1.0
132
0.0
 79
     0
146
0.0
348
2F
 60
     3
 61
     5
292
     1
282
     1
141
0.0
142
0.0
 63
   250
361
6D
  0
ENDTAB
  0
TABLE
  2
LTYPE
  5
5
330
0
100
AcDbSymbolTable
 70
     4
  0
LTYPE
  5
14
330
5
100
AcDbSymbolTableRecord
100
AcDbLinetypeTableRecord
  2
ByBlock
 70
     0
  3

 72
    65
 73
     0
 40
0.0
  0
LTYPE
  5
15
330
5
100
AcDbSymbolTableRecord
100
AcDbLinetypeTableRecord
  2
ByLayer
 70
     0
  3

 72
    65
 73
     0
 40
0.0
  0
LTYPE
  5
16
330
5
100
AcDbSymbolTableRecord
100
AcDbLinetypeTableRecord
  2
Continuous
 70
     0
  3
Solid line
 72
    65
 73
     0
 40
0.0
  0
LTYPE
  5
6F
330
5
100
AcDbSymbolTableRecord
100
AcDbLinetypeTableRecord
  2
JWW_DASHED3
 70
     0
  3
---  ------  ------  ------  ---
 72
    65
 73
     2
 40
3.386666666666667
 49
2.54
 74
     0
 49
-0.8466666666666667
 74
     0
  0
LTYPE
  5
70
330
5
100
AcDbSymbolTableRecord
100
AcDbLinetypeTableRecord
  2
JWW_CENTER1
 70
     0
  3
-----  --  ----------  --  -----
 72
    65
 73
     4
 40
6.773333333333333
 49
4.233333333333333
 74
     0
 49
-0.8466666666666667
 74
     0
 49
0.8466666666666667
 74
     0
 49
-0.8466666666666667
 74
     0
  0
LTYPE
  5
71
330
5
100
AcDbSymbolTableRecord
100
AcDbLinetypeTableRecord
  2
JWW_PHANTOM2
 70
     0
  3
------------  -  -  ------------
 72
    65
 73
     6
 40
13.54666666666667
 49
10.16
 74
     0
 49
-0.8466666666666667
 74
     0
 49
0.4233333333333333
 74
     0
 49
-0.8466666666666667
 74
     0
 49
0.4233333333333333
 74
     0
 49
-0.8466666666666667
 74
     0
  0
ENDTAB
  0
TABLE
  2
LAYER
  5
2
330
0
100
AcDbSymbolTable
 70
     6
  0
LAYER
  5
10
330
2
100
AcDbSymbolTableRecord
100
AcDbLayerTableRecord
  2
0
 70
     0
 62
     7
  6
Continuous
370
    -3
390
F
347
46
348
0
  0
LAYER
  5
72
330
2
100
AcDbSymbolTableRecord
100
AcDbLayerTableRecord
  2
躯体
 70
     0
 62
     7
  6
Continuous
370
    -3
390
F
347
46
348
0
  0
LAYER
  5
73
330
2
100
AcDbSymbolTableRecord
100
AcDbLayerTableRecord
  2
0-E
 70
     0
 62
     7
  6
Continuous
370
    -3
390
F
347
46
348
0
  0
LAYER
  5
74
330
2
100
AcDbSymbolTableRecord
100
AcDbLayerTableRecord
  2
通り芯
 70
     0
 62
     7
  6
Continuous
370
    -3
390
F
347
46
348
0
  0
LAYER
  5
75
330
2
100
AcDbSymbolTableRecord
100
AcDbLayerTableRecord
  2
0-F
 70
     0
 62
     7
  6
Continuous
370
    -3
390
F
347
46
348
0
  0
LAYER
  5
76
330
2
100
AcDbSymbolTableRecord
100
AcDbLayerTableRecord
  2
F-Fﾚｲﾔ
 70
     0
 62
     7
  6
Continuous
370
    -3
390
F
347
46
348
0
  0
ENDTAB
  0
TABLE
  2
STYLE
  5
3
330
0
100
AcDbSymbolTable
 70
     2
  0
STYLE
  5
11
330
3
100
AcDbSymbolTableRecord
100
AcDbTextStyleTableRecord
  2
Standard
 70
     0
 40
0.0
 41
1.0
 50
0.0
 71
     0
 42
2.5
  3
txt
  4

  0
STYLE
  5
6E
330
3
100
AcDbSymbolTableRecord
100
AcDbTextStyleTableRecord
  2
ＭＳ ゴシック
 70
     0
 40
1.0
 41
1.0
 50
0.0
 71
     0
 42
2.5
  3

  4

1001
ACAD
1000
MS Gothic
1071
    32817
  0
ENDTAB
  0
TABLE
  2
VIEW
  5
6
330
0
100
AcDbSymbolTable
 70
     0
  0
ENDTAB
  0
TABLE
  2
UCS
  5
7
330
0
100
AcDbSymbolTable
 70
     0
  0
ENDTAB
  0
TABLE
  2
APPID
  5
9
330
0
100
AcDbSymbolTable
 70
     1
  0
APPID
  5
12
330
9
100
AcDbSymbolTableRecord
100
AcDbRegAppTableRecord
  2
ACAD
 70
     0
  0
ENDTAB
  0
TABLE
  2
DIMSTYLE
  5
A
330
0
100
AcDbSymbolTable
 70
     1
100
AcDbDimStyleTable
  0
DIMSTYLE
105
27
330
A
100
AcDbSymbolTableRecord
100
AcDbDimStyleTableRecord
  2
ISO-25
 70
     0
 41
2.5
 42
0.625
 43
3.75
 44
1.25
 73
     0
 74
     0
 77
     1
 78
     8
140
2.5
141
2.5
143
0.03937007874016
147
0.625
171
     3
172
     1
178
     0
271
     2
272
     2
274
     3
278
    44
283
     0
284
     8
340
11
  0
ENDTAB
  0
TABLE
  2
BLOCK_RECORD
  5
1
330
0
100
AcDbSymbolTable
 70
     1
  0
BLOCK_RECORD
  5
1F
330
1
100
AcDbSymbolTableRecord
100
AcDbBlockTableRecord
  2
*Model_Space
340
22
 70
     0
280
     1
281
     0
  0
BLOCK_RECORD
  5
1B
330
1
100
AcDbSymbolTableRecord
100
AcDbBlockTableRecord
  2
*Paper_Space
340
1E
 70
     0
280
     1
281
     0
  0
BLOCK_RECORD
  5
23
330
1
100
AcDbSymbolTableRecord
100
AcDbBlockTableRecord
  2
*Paper_Space0
340
26
 70
     0
280
     1
281
     0
  0
ENDTAB
  0
ENDSEC
  0
SECTION
  2
BLOCKS
  0
BLOCK
  5
20
330
1F
100
AcDbEntity
  8
0
100
AcDbBlockBegin
  2
*Model_Space
 70
     0
 10
0.0
 20
0.0
 30
0.0
  3
*Model_Space
  1

  0
ENDBLK
  5
21
330
1F
100
AcDbEntity
  8
0
100
AcDbBlockEnd
  0
BLOCK
  5
1C
330
1B
100
AcDbEntity
 67
     1
  8
0
100
AcDbBlockBegin
  2
*Paper_Space
 70
     0
 10
0.0
 20
0.0
 30
0.0
  3
*Paper_Space
  1

  0
ENDBLK
  5
1D
330
1B
100
AcDbEntity
 67
     1
  8
0
100
AcDbBlockEnd
  0
BLOCK
  5
24
330
23
100
AcDbEntity
  8
0
100
AcDbBlockBegin
  2
*Paper_Space0
 70
     0
 10
0.0
 20
0.0
 30
0.0
  3
*Paper_Space0
  1

  0
ENDBLK
  5
25
330
23
100
AcDbEntity
  8
0
100
AcDbBlockEnd
  0
ENDSEC
  0
SECTION
  2
ENTITIES
  0
LINE
  5
77
330
1F
100
AcDbEntity
  8
躯体
  6
Continuous
 62
     2
370
     9
100
AcDbLine
 10
486.3398783915753
 20
-51.70226638381536
 30
0.0
 11
486.3398783915753
 21
-47.29888916015625
 31
0.0
  0
LINE
  5
78
330
1F
100
AcDbEntity
  8
躯体
  6
Continuous
 62
     2
370
     9
100
AcDbLine
 10
483.3399179819469
 20
-54.70228865339948
 30
0.0
 11
461.3399196315456
 21
-54.70228865339948
 31
0.0
  0
LINE
  5
79
330
1F
100
AcDbEntity
  8
躯体
  6
Continuous
 62
     2
370
     9
100
AcDbLine
 10
504.5398196658573
 20
-57.90224229967265
 30
0.0
 11
461.3399196315456
 21
-57.90224229967265
 31
0.0
  0
LINE
  5
7A
330
1F
100
AcDbEntity
  8
躯体
  6
Continuous
 62
     2
370
     9
100
AcDbLine
 10
461.3399196315456
 20
-54.70228865339948
 30
0.0
 11
461.3399196315456
 21
-57.90224229967265
 31
0.0
  0
LINE
  5
7B
330
1F
100
AcDbEntity
  8
躯体
  6
Continuous
 62
     2
370
     9
100
AcDbLine
 10
509.5398361618456
 20
-71.90232560441302
 30
0.0
 11
509.5398361618456
 21
-86.90231323242188
 31
0.0
  0
LINE
  5
7C
330
1F
100
AcDbEntity
  8
躯体
  6
Continuous
 62
     2
370
     9
100
AcDbLine
 10
518.5397173907307
 20
-71.90226374445729
 30
0.0
 11
518.5397173907307
 21
-86.90231323242188
 31
0.0
  0
LINE
  5
7D
330
1F
100
AcDbEntity
  8
躯体
  6
Continuous
 62
     2
370
     9
100
AcDbLine
 10
518.5397173907307
 20
-86.90231323242188
 30
0.0
 11
509.5398361618456
 21
-86.90231323242188
 31
0.0
  0
LINE
  5
7E
330
1F
100
AcDbEntity
  8
躯体
  6
Continuous
 62
     2
370
     9
100
AcDbLine
 10
504.5398196658573
 20
-66.90230910842473
 30
0.0
 11
479.5397371859164
 21
-66.90230910842473
 31
0.0
  0
LINE
  5
7F
330
1F
100
AcDbEntity
  8
躯体
  6
Continuous
 62
     2
370
     9
100
AcDbLine
 10
479.5397371859164
 20
-57.90224229967265
 30
0.0
 11
479.5397371859164
 21
-66.90230910842473
 31
0.0
  0
LINE
  5
80
330
1F
100
AcDbEntity
  8
躯体
  6
Continuous
 62
     2
370
     9
100
AcDbLine
 10
486.3398783915753
 20
245.8476463524072
 30
0.0
 11
486.3398783915753
 21
241.4443928486592
 31
0.0
  0
LINE
  5
81
330
1F
100
AcDbEntity
  8
躯体
  6
Continuous
 62
     2
370
     9
100
AcDbLine
 10
483.3399179819469
 20
248.8477304819469
 30
0.0
 11
461.3399196315456
 21
248.8477304819469
 31
0.0
  0
LINE
  5
82
330
1F
100
AcDbEntity
  8
躯体
  6
Continuous
 62
     2
370
     9
100
AcDbLine
 10
504.5398196658573
 20
252.0476841282201
 30
0.0
 11
461.3399196315456
 21
252.0476841282201
 31
0.0
  0
LINE
  5
83
330
1F
100
AcDbEntity
  8
躯体
  6
Continuous
 62
     2
370
     9
100
AcDbLine
 10
461.3399196315456
 20
248.8477304819469
 30
0.0
 11
461.3399196315456
 21
252.0476841282201
 31
0.0
  0
LINE
  5
84
330
1F
100
AcDbEntity
  8
躯体
  6
Continuous
 62
     2
370
     9
100
AcDbLine
 10
509.5398361618456
 20
266.0476437130491
 30
0.0
 11
509.5398361618456
 21
281.0478169209249
 31
0.0
  0
LINE
  5
85
330
1F
100
AcDbEntity
  8
躯体
  6
Continuous
 62
     2
370
     9
100
AcDbLine
 10
518.5397173907307
 20
266.0476437130491
 30
0.0
 11
518.5397173907307
 21
281.0478169209249
 31
0.0
  0
LINE
  5
86
330
1F
100
AcDbEntity
  8
躯体
  6
Continuous
 62
     2
370
     9
100
AcDbLine
 10
518.5397173907307
 20
281.0478169209249
 30
0.0
 11
509.5398361618456
 21
281.0478169209249
 31
0.0
  0
LINE
  5
87
330
1F
100
AcDbEntity
  8
躯体
  6
Continuous
 62
     2
370
     9
100
AcDbLine
 10
504.5398196658573
 20
261.0476890770166
 30
0.0
 11
479.5397371859164
 21
261.0476890770166
 31
0.0
  0
LINE
  5
88
330
1F
100
AcDbEntity
  8
躯体
  6
Continuous
 62
     2
370
     9
100
AcDbLine
 10
479.5397371859164
 20
252.0476841282201
 30
0.0
 11
479.5397371859164
 21
261.0476890770166
 31
0.0
  0
LINE
  5
89
330
1F
100
AcDbEntity
  8
躯体
  6
Continuous
 62
     2
370
     9
100
AcDbLine
 10
489.5397701778927
 20
-51.70226638381536
 30
0.0
 11
489.5397701778927
 21
-27.70227380701016
 31
0.0
  0
LINE
  5
8A
330
1F
100
AcDbEntity
  8
躯体
  6
Continuous
 62
     2
370
     9
100
AcDbLine
 10
489.5397701778927
 20
245.8476463524072
 30
0.0
 11
489.5397701778927
 21
221.8477156355574
 31
0.0
  0
LINE
  5
8B
330
1F
100
AcDbEntity
  8
躯体
  6
Continuous
 62
     2
370
     9
100
AcDbLine
 10
-634.6776085930902
 20
256.5476866026182
 30
0.0
 11
-634.6776085930902
 21
281.0478169209249
 31
0.0
  0
LINE
  5
8C
330
1F
100
AcDbEntity
  8
躯体
  6
Continuous
 62
     2
370
     9
100
AcDbLine
 10
-625.6776345742715
 20
256.5476866026182
 30
0.0
 11
-625.6776345742715
 21
281.0478169209249
 31
0.0
  0
LINE
  5
8D
330
1F
100
AcDbEntity
  8
躯体
  6
Continuous
 62
     2
370
     9
100
AcDbLine
 10
-634.6776085930902
 20
281.0478169209249
 30
0.0
 11
-625.6776345742715
 21
281.0478169209249
 31
0.0
  0
LINE
  5
8E
330
1F
100
AcDbEntity
  8
躯体
  6
Continuous
 62
     2
370
     9
100
AcDbLine
 10
-34.67757766311223
 20
256.5476866026182
 30
0.0
 11
-34.67757766311223
 21
281.0478169209249
 31
0.0
  0
LINE
  5
8F
330
1F
100
AcDbEntity
  8
躯体
  6
Continuous
 62
     2
370
     9
100
AcDbLine
 10
-25.67757271431589
 20
256.5476866026182
 30
0.0
 11
-25.67757271431589
 21
281.0478169209249
 31
0.0
  0
LINE
  5
90
330
1F
100
AcDbEntity
  8
躯体
  6
Continuous
 62
     2
370
     9
100
AcDbLine
 10
-34.67757766311223
 20
281.0478169209249
 30
0.0
 11
-25.67757271431589
 21
281.0478169209249
 31
0.0
  0
LINE
  5
91
330
1F
100
AcDbEntity
  8
躯体
  6
Continuous
 62
     2
370
     9
100
AcDbLine
 10
489.5397701778927
 20
221.8477156355574
 30
0.0
 11
486.3398783915753
 21
221.8477156355574
 31
0.0
  0
LINE
  5
92
330
1F
100
AcDbEntity
  8
躯体
  6
Continuous
 62
     2
370
     9
100
AcDbLine
 10
489.5397701778927
 20
-27.70227380701016
 30
0.0
 11
486.3398783915753
 21
-27.70227380701016
 31
0.0
  0
LINE
  5
93
330
1F
100
AcDbEntity
  8
躯体
  6
Continuous
 62
     2
370
     9
100
AcDbLine
 10
-730.1775958086994
 20
221.8476537756018
 30
0.0
 11
-730.1775958086994
 21
252.0476222682645
 31
0.0
  0
LINE
  5
94
330
1F
100
AcDbEntity
  8
躯体
  6
Continuous
 62
     2
370
     9
100
AcDbLine
 10
-730.1775958086994
 20
221.8476537756018
 30
0.0
 11
-729.1775986954973
 21
221.8476537756018
 31
0.0
  0
LINE
  5
95
330
1F
100
AcDbEntity
  8
躯体
  6
Continuous
 62
     2
370
     9
100
AcDbLine
 10
-730.1775958086994
 20
-27.70221194705442
 30
0.0
 11
-730.1775958086994
 21
-57.90218043971706
 31
0.0
  0
LINE
  5
96
330
1F
100
AcDbEntity
  8
躯体
  6
Continuous
 62
     2
370
     9
100
AcDbLine
 10
-730.1775958086994
 20
-27.70221194705442
 30
0.0
 11
-729.1775986954973
 21
-27.70221194705442
 31
0.0
  0
LINE
  5
97
330
1F
100
AcDbEntity
  8
躯体
  6
Continuous
 62
     2
370
     9
100
AcDbLine
 10
99.82242068728894
 20
117.0726631783151
 30
0.0
 11
109.8224536792652
 21
117.0726631783151
 31
0.0
  0
LINE
  5
98
330
1F
100
AcDbEntity
  8
躯体
  6
Continuous
 62
     2
370
     9
100
AcDbLine
 10
109.8224536792652
 20
117.0726631783151
 30
0.0
 11
89.8223876953125
 21
77.07265493032097
 31
0.0
  0
LINE
  5
99
330
1F
100
AcDbEntity
  8
躯体
  6
Continuous
 62
     2
370
     9
100
AcDbLine
 10
89.8223876953125
 20
77.07265493032097
 30
0.0
 11
99.82242068728894
 21
77.07265493032097
 31
0.0
  0
LINE
  5
9A
330
1F
100
AcDbEntity
  8
躯体
  6
Continuous
 62
     2
370
     9
100
AcDbLine
 10
99.82242068728894
 20
117.0726631783151
 30
0.0
 11
99.82242068728894
 21
272.0476263922615
 31
0.0
  0
LINE
  5
9B
330
1F
100
AcDbEntity
  8
躯体
  6
Continuous
 62
     2
370
     9
100
AcDbLine
 10
99.82242068728894
 20
252.0476222682645
 30
0.0
 11
-730.1775958086994
 21
252.0476222682645
 31
0.0
  0
LINE
  5
9C
330
1F
100
AcDbEntity
  8
躯体
  6
Continuous
 62
     2
370
     9
100
AcDbLine
 10
99.82242068728894
 20
248.8476686219911
 30
0.0
 11
-730.1775958086994
 21
248.8476686219911
 31
0.0
  0
LINE
  5
9D
330
1F
100
AcDbEntity
  8
躯体
  6
JWW_DASHED3
 62
     2
370
     9
100
AcDbLine
 10
99.82242068728894
 20
221.8476537756018
 30
0.0
 11
-729.1775986954973
 21
221.8476537756018
 31
0.0
  0
LINE
  5
9E
330
1F
100
AcDbEntity
  8
躯体
  6
JWW_DASHED3
 62
     2
370
     9
100
AcDbLine
 10
99.82242068728894
 20
-27.70221194705442
 30
0.0
 11
-729.1775986954973
 21
-27.70221194705442
 31
0.0
  0
LINE
  5
9F
330
1F
100
AcDbEntity
  8
躯体
  6
Continuous
 62
     2
370
     9
100
AcDbLine
 10
99.82242068728894
 20
-57.90218043971706
 30
0.0
 11
-730.1775958086994
 21
-57.90218043971706
 31
0.0
  0
LINE
  5
A0
330
1F
100
AcDbEntity
  8
躯体
  6
Continuous
 62
     2
370
     9
100
AcDbLine
 10
99.82242068728894
 20
-54.70222679344374
 30
0.0
 11
-730.1775958086994
 21
-54.70222679344374
 31
0.0
  0
LINE
  5
A1
330
1F
100
AcDbEntity
  8
躯体
  6
Continuous
 62
     2
370
     9
100
AcDbLine
 10
99.82242068728894
 20
-77.90218456371406
 30
0.0
 11
99.82242068728894
 21
77.07265493032097
 31
0.0
  0
LINE
  5
A2
330
1F
100
AcDbEntity
  8
躯体
  6
JWW_CENTER1
 62
     2
370
     9
100
AcDbLine
 10
-21.67758426150755
 20
256.5476866026182
 30
0.0
 11
-38.67756611592057
 21
256.5476866026182
 31
0.0
  0
LINE
  5
A3
330
1F
100
AcDbEntity
  8
躯体
  6
JWW_CENTER1
 62
     2
370
     9
100
AcDbLine
 10
-30.17763704866965
 20
248.0476956754119
 30
0.0
 11
-30.17763704866965
 21
285.0478053737332
 31
0.0
  0
LINE
  5
A4
330
1F
100
AcDbEntity
  8
躯体
  6
JWW_CENTER1
 62
     2
370
     9
100
AcDbLine
 10
-621.6775842615075
 20
256.5476866026182
 30
0.0
 11
-638.6775661159206
 21
256.5476866026182
 31
0.0
  0
LINE
  5
A5
330
1F
100
AcDbEntity
  8
躯体
  6
JWW_CENTER1
 62
     2
370
     9
100
AcDbLine
 10
-630.1776370486697
 20
248.0476956754119
 30
0.0
 11
-630.1776370486697
 21
285.0478053737332
 31
0.0
  0
LINE
  5
A6
330
1F
100
AcDbEntity
  8
躯体
  6
JWW_CENTER1
 62
     2
370
     9
100
AcDbLine
 10
514.039776776288
 20
266.0476437130491
 30
0.0
 11
514.039776776288
 21
286.047833416913
 31
0.0
  0
LINE
  5
A7
330
1F
100
AcDbEntity
  8
躯体
  6
JWW_CENTER1
 62
     2
370
     9
100
AcDbLine
 10
504.5398196658573
 20
256.5476866026182
 30
0.0
 11
474.5397206899284
 21
256.5476866026182
 31
0.0
  0
LINE
  5
A8
330
1F
100
AcDbEntity
  8
躯体
  6
JWW_CENTER1
 62
     2
370
     9
100
AcDbLine
 10
514.039776776288
 20
-71.90226374445729
 30
0.0
 11
514.039776776288
 21
-91.90232972841002
 31
0.0
  0
LINE
  5
A9
330
1F
100
AcDbEntity
  8
躯体
  6
JWW_CENTER1
 62
     2
370
     9
100
AcDbLine
 10
504.5398196658573
 20
-62.40230663402656
 30
0.0
 11
474.5397206899284
 21
-62.40230663402656
 31
0.0
  0
LINE
  5
AA
330
1F
100
AcDbEntity
  8
0-E
  6
Continuous
 62
     7
370
     9
100
AcDbLine
 10
244.9905395507812
 20
358.1573651288008
 30
0.0
 11
430.0286370354732
 21
358.1573651288008
 31
0.0
  0
LINE
  5
AB
330
1F
100
AcDbEntity
  8
0-E
  6
Continuous
 62
     7
370
     9
100
AcDbLine
 10
430.0286370354732
 20
358.1573651288008
 30
0.0
 11
471.9910905167865
 21
252.0476841282201
 31
0.0
  0
LINE
  5
AC
330
1F
100
AcDbEntity
  8
0-E
  6
Continuous
 62
     7
370
     9
100
AcDbLine
 10
471.9910905167865
 20
252.0476841282201
 30
0.0
 11
464.7012659021325
 21
265.1571696513409
 31
0.0
  0
LINE
  5
AD
330
1F
100
AcDbEntity
  8
0-E
  6
Continuous
 62
     7
370
     9
100
AcDbLine
 10
471.9910905167865
 20
252.0476841282201
 30
0.0
 11
468.3427140519427
 21
266.5972075591216
 31
0.0
  0
LINE
  5
AE
330
1F
100
AcDbEntity
  8
0-E
  6
Continuous
 62
     7
370
     9
100
AcDbLine
 10
555.73165481155
 20
356.4765064136402
 30
0.0
 11
747.0416094805745
 21
356.4765064136402
 31
0.0
  0
LINE
  5
AF
330
1F
100
AcDbEntity
  8
通り芯
  6
Continuous
 62
     3
370
     9
100
AcDbLine
 10
486.3397546716638
 20
109.0728099926099
 30
0.0
 11
500.3398998363599
 21
109.0728099926099
 31
0.0
  0
LINE
  5
B0
330
1F
100
AcDbEntity
  8
通り芯
  6
Continuous
 62
     3
370
     9
100
AcDbLine
 10
486.3397546716638
 20
103.0728891733531
 30
0.0
 11
500.3398998363599
 21
103.0728891733531
 31
0.0
  0
LINE
  5
B1
330
1F
100
AcDbEntity
  8
通り芯
  6
Continuous
 62
     3
370
     9
100
AcDbLine
 10
486.3397546716638
 20
91.07280009501693
 30
0.0
 11
500.3398998363599
 21
91.07280009501693
 31
0.0
  0
LINE
  5
B2
330
1F
100
AcDbEntity
  8
通り芯
  6
Continuous
 62
     3
370
     9
100
AcDbLine
 10
486.3397546716638
 20
85.07287927576016
 30
0.0
 11
500.3398998363599
 21
85.07287927576016
 31
0.0
  0
LINE
  5
B3
330
1F
100
AcDbEntity
  8
通り芯
  6
Continuous
 62
     3
370
     9
100
AcDbLine
 10
504.0623845280828
 20
99.57285288217903
 30
0.0
 11
541.0623086465373
 21
99.57285288217903
 31
0.0
  0
LINE
  5
B4
330
1F
100
AcDbEntity
  8
通り芯
  6
Continuous
 62
     3
370
     9
100
AcDbLine
 10
504.0623845280828
 20
94.57283638619089
 30
0.0
 11
541.0623086465373
 21
94.57283638619089
 31
0.0
  0
LINE
  5
B5
330
1F
100
AcDbEntity
  8
通り芯
  6
Continuous
 62
     3
370
     9
100
AcDbLine
 10
570.5915296399917
 20
113.6789022909629
 30
0.0
 11
553.2972181165542
 21
75.63156540329402
 31
0.0
  0
LINE
  5
B6
330
1F
100
AcDbEntity
  8
通り芯
  6
Continuous
 62
     3
370
     9
100
AcDbLine
 10
542.5622888513516
 20
106.0728495829815
 30
0.0
 11
567.134052998311
 21
106.0728495829815
 31
0.0
  0
LINE
  5
B7
330
1F
100
AcDbEntity
  8
通り芯
  6
Continuous
 62
     3
370
     9
100
AcDbLine
 10
542.5622888513516
 20
101.0728330869932
 30
0.0
 11
564.8613182274073
 21
101.0728330869932
 31
0.0
  0
LINE
  5
B8
330
1F
100
AcDbEntity
  8
通り芯
  6
Continuous
 62
     3
370
     9
100
AcDbLine
 10
542.5622888513516
 20
93.0728561813767
 30
0.0
 11
561.2251900337839
 21
93.0728561813767
 31
0.0
  0
LINE
  5
B9
330
1F
100
AcDbEntity
  8
通り芯
  6
Continuous
 62
     3
370
     9
100
AcDbLine
 10
542.5622888513516
 20
88.07283968538854
 30
0.0
 11
558.9522078230575
 21
88.07283968538854
 31
0.0
  0
LINE
  5
BA
330
1F
100
AcDbEntity
  8
通り芯
  6
Continuous
 62
     3
370
     9
100
AcDbLine
 10
-728.1775706523173
 20
-50.42727083773229
 30
0.0
 11
-728.1775706523173
 21
-35.42709762985638
 31
0.0
  0
LINE
  5
BB
330
1F
100
AcDbEntity
  8
通り芯
  6
Continuous
 62
     3
370
     9
100
AcDbLine
 10
-729.1775986954973
 20
-34.42713144663216
 30
0.0
 11
-729.1775986954973
 21
-51.42723702095651
 31
0.0
  0
LINE
  5
BC
330
1F
100
AcDbEntity
  8
通り芯
  6
Continuous
 62
     3
370
     9
100
AcDbLine
 10
-133.6776320998733
 20
-51.92718918259075
 30
0.0
 11
-726.6775904475031
 21
-51.92718918259075
 31
0.0
  0
LINE
  5
BD
330
1F
100
AcDbEntity
  8
通り芯
  6
Continuous
 62
     3
370
     9
100
AcDbLine
 10
-132.677480336782
 20
-52.92715536581497
 30
0.0
 11
-727.6775875607052
 21
-52.92715536581497
 31
0.0
  0
LINE
  5
BE
330
1F
100
AcDbEntity
  8
通り芯
  6
Continuous
 62
     3
370
     9
100
AcDbLine
 10
-132.1774044552365
 20
-35.42709762985638
 30
0.0
 11
-132.1774044552365
 21
-50.42727083773229
 31
0.0
  0
LINE
  5
BF
330
1F
100
AcDbEntity
  8
通り芯
  6
Continuous
 62
     3
370
     9
100
AcDbLine
 10
-133.6776320998733
 20
-33.92717928499792
 30
0.0
 11
-726.6775904475031
 21
-33.92717928499792
 31
0.0
  0
LINE
  5
C0
330
1F
100
AcDbEntity
  8
通り芯
  6
Continuous
 62
     3
370
     9
100
AcDbLine
 10
-132.677480336782
 20
-32.92721310177356
 30
0.0
 11
-727.6775875607052
 21
-32.92721310177356
 31
0.0
  0
LINE
  5
C1
330
1F
100
AcDbEntity
  8
通り芯
  6
Continuous
 62
     3
370
     9
100
AcDbLine
 10
-131.1775001319678
 20
-23.4271322714315
 30
0.0
 11
-131.1775001319678
 21
-51.42723702095651
 31
0.0
  0
LINE
  5
C2
330
1F
100
AcDbEntity
  8
通り芯
  6
Continuous
 62
     3
370
     9
100
AcDbLine
 10
-728.1775706523173
 20
-22.42710422825169
 30
0.0
 11
-728.1775706523173
 21
-7.427054740287105
 31
0.0
  0
LINE
  5
C3
330
1F
100
AcDbEntity
  8
通り芯
  6
Continuous
 62
     3
370
     9
100
AcDbLine
 10
-729.1775986954973
 20
-6.427150417018481
 30
0.0
 11
-729.1775986954973
 21
-23.4271322714315
 31
0.0
  0
LINE
  5
C4
330
1F
100
AcDbEntity
  8
通り芯
  6
Continuous
 62
     3
370
     9
100
AcDbLine
 10
-133.6776320998733
 20
-23.92720815297722
 30
0.0
 11
-726.6775904475031
 21
-23.92720815297722
 31
0.0
  0
LINE
  5
C5
330
1F
100
AcDbEntity
  8
通り芯
  6
Continuous
 62
     3
370
     9
100
AcDbLine
 10
-132.677480336782
 20
-24.92717433620143
 30
0.0
 11
-727.6775875607052
 21
-24.92717433620143
 31
0.0
  0
LINE
  5
C6
330
1F
100
AcDbEntity
  8
通り芯
  6
Continuous
 62
     3
370
     9
100
AcDbLine
 10
-132.1774044552365
 20
-7.427054740287105
 30
0.0
 11
-132.1774044552365
 21
-22.42710422825169
 31
0.0
  0
LINE
  5
C7
330
1F
100
AcDbEntity
  8
通り芯
  6
Continuous
 62
     3
370
     9
100
AcDbLine
 10
-133.6776320998733
 20
-5.927074535472912
 30
0.0
 11
-726.6775904475031
 21
-5.927074535472912
 31
0.0
  0
LINE
  5
C8
330
1F
100
AcDbEntity
  8
通り芯
  6
Continuous
 62
     3
370
     9
100
AcDbLine
 10
-132.677480336782
 20
-4.927170212204288
 30
0.0
 11
-727.6775875607052
 21
-4.927170212204288
 31
0.0
  0
LINE
  5
C9
330
1F
100
AcDbEntity
  8
通り芯
  6
Continuous
 62
     3
370
     9
100
AcDbLine
 10
-131.1775001319678
 20
4.57278689822644
 30
0.0
 11
-131.1775001319678
 21
-23.4271322714315
 31
0.0
  0
LINE
  5
CA
330
1F
100
AcDbEntity
  8
通り芯
  6
Continuous
 62
     3
370
     9
100
AcDbLine
 10
-728.1775706523173
 20
5.572691221494921
 30
0.0
 11
-728.1775706523173
 21
20.57286442937084
 31
0.0
  0
LINE
  5
CB
330
1F
100
AcDbEntity
  8
通り芯
  6
Continuous
 62
     3
370
     9
100
AcDbLine
 10
-729.1775986954973
 20
21.57289247255065
 30
0.0
 11
-729.1775986954973
 21
4.57278689822644
 31
0.0
  0
LINE
  5
CC
330
1F
100
AcDbEntity
  8
通り芯
  6
Continuous
 62
     3
370
     9
100
AcDbLine
 10
-133.6776320998733
 20
4.072834736592057
 30
0.0
 11
-726.6775904475031
 21
4.072834736592057
 31
0.0
  0
LINE
  5
CD
330
1F
100
AcDbEntity
  8
通り芯
  6
Continuous
 62
     3
370
     9
100
AcDbLine
 10
-132.677480336782
 20
3.072806693412247
 30
0.0
 11
-727.6775875607052
 21
3.072806693412247
 31
0.0
  0
LINE
  5
CE
330
1F
100
AcDbEntity
  8
通り芯
  6
Continuous
 62
     3
370
     9
100
AcDbLine
 10
-132.1774044552365
 20
20.57286442937084
 30
0.0
 11
-132.1774044552365
 21
5.572691221494921
 31
0.0
  0
LINE
  5
CF
330
1F
100
AcDbEntity
  8
通り芯
  6
Continuous
 62
     3
370
     9
100
AcDbLine
 10
-133.6776320998733
 20
22.0727209142737
 30
0.0
 11
-726.6775904475031
 21
22.0727209142737
 31
0.0
  0
LINE
  5
D0
330
1F
100
AcDbEntity
  8
通り芯
  6
Continuous
 62
     3
370
     9
100
AcDbLine
 10
-132.677480336782
 20
23.07274895745365
 30
0.0
 11
-727.6775875607052
 21
23.07274895745365
 31
0.0
  0
LINE
  5
D1
330
1F
100
AcDbEntity
  8
通り芯
  6
Continuous
 62
     3
370
     9
100
AcDbLine
 10
-131.1775001319678
 20
32.57282978779571
 30
0.0
 11
-131.1775001319678
 21
4.57278689822644
 31
0.0
  0
LINE
  5
D2
330
1F
100
AcDbEntity
  8
通り芯
  6
Continuous
 62
     3
370
     9
100
AcDbLine
 10
-728.1775706523173
 20
33.57273411106419
 30
0.0
 11
-728.1775706523173
 21
48.57278359902878
 31
0.0
  0
LINE
  5
D3
330
1F
100
AcDbEntity
  8
通り芯
  6
Continuous
 62
     3
370
     9
100
AcDbLine
 10
-729.1775986954973
 20
49.57281164220859
 30
0.0
 11
-729.1775986954973
 21
32.57282978779571
 31
0.0
  0
LINE
  5
D4
330
1F
100
AcDbEntity
  8
通り芯
  6
Continuous
 62
     3
370
     9
100
AcDbLine
 10
-133.6776320998733
 20
32.07275390625
 30
0.0
 11
-726.6775904475031
 21
32.07275390625
 31
0.0
  0
LINE
  5
D5
330
1F
100
AcDbEntity
  8
通り芯
  6
Continuous
 62
     3
370
     9
100
AcDbLine
 10
-132.677480336782
 20
31.07284958298152
 30
0.0
 11
-727.6775875607052
 21
31.07284958298152
 31
0.0
  0
LINE
  5
D6
330
1F
100
AcDbEntity
  8
通り芯
  6
Continuous
 62
     3
370
     9
100
AcDbLine
 10
-132.1774044552365
 20
48.57278359902878
 30
0.0
 11
-132.1774044552365
 21
33.57273411106419
 31
0.0
  0
LINE
  5
D7
330
1F
100
AcDbEntity
  8
通り芯
  6
Continuous
 62
     3
370
     9
100
AcDbLine
 10
-133.6776320998733
 20
50.0728875237543
 30
0.0
 11
-726.6775904475031
 21
50.0728875237543
 31
0.0
  0
LINE
  5
D8
330
1F
100
AcDbEntity
  8
通り芯
  6
Continuous
 62
     3
370
     9
100
AcDbLine
 10
-132.677480336782
 20
51.07291556693411
 30
0.0
 11
-727.6775875607052
 21
51.07291556693411
 31
0.0
  0
LINE
  5
D9
330
1F
100
AcDbEntity
  8
通り芯
  6
Continuous
 62
     3
370
     9
100
AcDbLine
 10
-131.1775001319678
 20
88.57291556693411
 30
0.0
 11
-131.1775001319678
 21
32.57282978779571
 31
0.0
  0
LINE
  5
DA
330
1F
100
AcDbEntity
  8
通り芯
  6
Continuous
 62
     3
370
     9
100
AcDbLine
 10
-728.1775706523173
 20
61.57277700063347
 30
0.0
 11
-728.1775706523173
 21
76.57282648859805
 31
0.0
  0
LINE
  5
DB
330
1F
100
AcDbEntity
  8
通り芯
  6
Continuous
 62
     3
370
     9
100
AcDbLine
 10
-729.1775986954973
 20
77.57285453177786
 30
0.0
 11
-729.1775986954973
 21
49.57281164220859
 31
0.0
  0
LINE
  5
DC
330
1F
100
AcDbEntity
  8
通り芯
  6
Continuous
 62
     3
370
     9
100
AcDbLine
 10
-133.6776320998733
 20
60.07279679581927
 30
0.0
 11
-726.6775904475031
 21
60.07279679581927
 31
0.0
  0
LINE
  5
DD
330
1F
100
AcDbEntity
  8
通り芯
  6
Continuous
 62
     3
370
     9
100
AcDbLine
 10
-132.677480336782
 20
59.07289247255079
 30
0.0
 11
-727.6775875607052
 21
59.07289247255079
 31
0.0
  0
LINE
  5
DE
330
1F
100
AcDbEntity
  8
通り芯
  6
Continuous
 62
     3
370
     9
100
AcDbLine
 10
-132.1774044552365
 20
76.57282648859805
 30
0.0
 11
-132.1774044552365
 21
61.57277700063347
 31
0.0
  0
LINE
  5
DF
330
1F
100
AcDbEntity
  8
通り芯
  6
Continuous
 62
     3
370
     9
100
AcDbLine
 10
-133.6776320998733
 20
78.07280669341225
 30
0.0
 11
-726.6775904475031
 21
78.07280669341225
 31
0.0
  0
LINE
  5
E0
330
1F
100
AcDbEntity
  8
通り芯
  6
Continuous
 62
     3
370
     9
100
AcDbLine
 10
-132.677480336782
 20
79.07271101668073
 30
0.0
 11
-727.6775875607052
 21
79.07271101668073
 31
0.0
  0
LINE
  5
E1
330
1F
100
AcDbEntity
  8
通り芯
  6
Continuous
 62
     3
370
     9
100
AcDbLine
 10
-728.1775706523173
 20
89.57281989020274
 30
0.0
 11
-728.1775706523173
 21
104.5728693781673
 31
0.0
  0
LINE
  5
E2
330
1F
100
AcDbEntity
  8
通り芯
  6
Continuous
 62
     3
370
     9
100
AcDbLine
 10
-729.1775986954973
 20
105.5727737014358
 30
0.0
 11
-729.1775986954973
 21
88.57291556693411
 31
0.0
  0
LINE
  5
E3
330
1F
100
AcDbEntity
  8
通り芯
  6
Continuous
 62
     3
370
     9
100
AcDbLine
 10
-133.6776320998733
 20
88.07283968538854
 30
0.0
 11
-726.6775904475031
 21
88.07283968538854
 31
0.0
  0
LINE
  5
E4
330
1F
100
AcDbEntity
  8
通り芯
  6
Continuous
 62
     3
370
     9
100
AcDbLine
 10
-132.1774044552365
 20
104.5728693781673
 30
0.0
 11
-132.1774044552365
 21
89.57281989020274
 31
0.0
  0
LINE
  5
E5
330
1F
100
AcDbEntity
  8
通り芯
  6
Continuous
 62
     3
370
     9
100
AcDbLine
 10
-133.6776320998733
 20
106.0728495829815
 30
0.0
 11
-726.6775904475031
 21
106.0728495829815
 31
0.0
  0
LINE
  5
E6
330
1F
100
AcDbEntity
  8
通り芯
  6
Continuous
 62
     3
370
     9
100
AcDbLine
 10
-132.677480336782
 20
107.07275390625
 30
0.0
 11
-727.6775875607052
 21
107.07275390625
 31
0.0
  0
LINE
  5
E7
330
1F
100
AcDbEntity
  8
通り芯
  6
Continuous
 62
     3
370
     9
100
AcDbLine
 10
-131.1775001319678
 20
144.57275390625
 30
0.0
 11
-131.1775001319678
 21
88.57291556693411
 31
0.0
  0
LINE
  5
E8
330
1F
100
AcDbEntity
  8
通り芯
  6
Continuous
 62
     3
370
     9
100
AcDbLine
 10
-728.1775706523173
 20
117.5727390598607
 30
0.0
 11
-728.1775706523173
 21
132.5729122677366
 31
0.0
  0
LINE
  5
E9
330
1F
100
AcDbEntity
  8
通り芯
  6
Continuous
 62
     3
370
     9
100
AcDbLine
 10
-729.1775986954973
 20
133.5728165910051
 30
0.0
 11
-729.1775986954973
 21
105.5727737014358
 31
0.0
  0
LINE
  5
EA
330
1F
100
AcDbEntity
  8
通り芯
  6
Continuous
 62
     3
370
     9
100
AcDbLine
 10
-133.6776320998733
 20
116.0728825749578
 30
0.0
 11
-726.6775904475031
 21
116.0728825749578
 31
0.0
  0
LINE
  5
EB
330
1F
100
AcDbEntity
  8
通り芯
  6
Continuous
 62
     3
370
     9
100
AcDbLine
 10
-132.677480336782
 20
115.0727308118665
 30
0.0
 11
-727.6775875607052
 21
115.0727308118665
 31
0.0
  0
LINE
  5
EC
330
1F
100
AcDbEntity
  8
通り芯
  6
Continuous
 62
     3
370
     9
100
AcDbLine
 10
-132.1774044552365
 20
132.5729122677366
 30
0.0
 11
-132.1774044552365
 21
117.5727390598607
 31
0.0
  0
LINE
  5
ED
330
1F
100
AcDbEntity
  8
通り芯
  6
Continuous
 62
     3
370
     9
100
AcDbLine
 10
-133.6776320998733
 20
134.0727687526395
 30
0.0
 11
-726.6775904475031
 21
134.0727687526395
 31
0.0
  0
LINE
  5
EE
330
1F
100
AcDbEntity
  8
通り芯
  6
Continuous
 62
     3
370
     9
100
AcDbLine
 10
-132.677480336782
 20
135.0727967958193
 30
0.0
 11
-727.6775875607052
 21
135.0727967958193
 31
0.0
  0
LINE
  5
EF
330
1F
100
AcDbEntity
  8
通り芯
  6
Continuous
 62
     3
370
     9
100
AcDbLine
 10
-728.1775706523173
 20
145.57278194943
 30
0.0
 11
-728.1775706523173
 21
160.5728314373945
 31
0.0
  0
LINE
  5
F0
330
1F
100
AcDbEntity
  8
通り芯
  6
Continuous
 62
     3
370
     9
100
AcDbLine
 10
-729.1775986954973
 20
161.5728594805744
 30
0.0
 11
-729.1775986954973
 21
144.57275390625
 31
0.0
  0
LINE
  5
F1
330
1F
100
AcDbEntity
  8
通り芯
  6
Continuous
 62
     3
370
     9
100
AcDbLine
 10
-133.6776320998733
 20
144.0728017446158
 30
0.0
 11
-726.6775904475031
 21
144.0728017446158
 31
0.0
  0
LINE
  5
F2
330
1F
100
AcDbEntity
  8
通り芯
  6
Continuous
 62
     3
370
     9
100
AcDbLine
 10
-132.677480336782
 20
143.0727737014358
 30
0.0
 11
-727.6775875607052
 21
143.0727737014358
 31
0.0
  0
LINE
  5
F3
330
1F
100
AcDbEntity
  8
通り芯
  6
Continuous
 62
     3
370
     9
100
AcDbLine
 10
-132.1774044552365
 20
160.5728314373945
 30
0.0
 11
-132.1774044552365
 21
145.57278194943
 31
0.0
  0
LINE
  5
F4
330
1F
100
AcDbEntity
  8
通り芯
  6
Continuous
 62
     3
370
     9
100
AcDbLine
 10
-133.6776320998733
 20
162.0729353621199
 30
0.0
 11
-726.6775904475031
 21
162.0729353621199
 31
0.0
  0
LINE
  5
F5
330
1F
100
AcDbEntity
  8
通り芯
  6
Continuous
 62
     3
370
     9
100
AcDbLine
 10
-132.677480336782
 20
163.0728396853885
 30
0.0
 11
-727.6775875607052
 21
163.0728396853885
 31
0.0
  0
LINE
  5
F6
330
1F
100
AcDbEntity
  8
通り芯
  6
Continuous
 62
     3
370
     9
100
AcDbLine
 10
-131.1775001319678
 20
172.5727967958193
 30
0.0
 11
-131.1775001319678
 21
144.57275390625
 31
0.0
  0
LINE
  5
F7
330
1F
100
AcDbEntity
  8
通り芯
  6
Continuous
 62
     3
370
     9
100
AcDbLine
 10
-728.1775706523173
 20
173.5727011190879
 30
0.0
 11
-728.1775706523173
 21
188.5727506070525
 31
0.0
  0
LINE
  5
F8
330
1F
100
AcDbEntity
  8
通り芯
  6
Continuous
 62
     3
370
     9
100
AcDbLine
 10
-729.1775986954973
 20
189.5729023701436
 30
0.0
 11
-729.1775986954973
 21
172.5727967958193
 31
0.0
  0
LINE
  5
F9
330
1F
100
AcDbEntity
  8
通り芯
  6
Continuous
 62
     3
370
     9
100
AcDbLine
 10
-133.6776320998733
 20
172.072844634185
 30
0.0
 11
-726.6775904475031
 21
172.072844634185
 31
0.0
  0
LINE
  5
FA
330
1F
100
AcDbEntity
  8
通り芯
  6
Continuous
 62
     3
370
     9
100
AcDbLine
 10
-132.677480336782
 20
171.0728165910051
 30
0.0
 11
-727.6775875607052
 21
171.0728165910051
 31
0.0
  0
LINE
  5
FB
330
1F
100
AcDbEntity
  8
通り芯
  6
Continuous
 62
     3
370
     9
100
AcDbLine
 10
-132.1774044552365
 20
188.5727506070525
 30
0.0
 11
-132.1774044552365
 21
173.5727011190879
 31
0.0
  0
LINE
  5
FC
330
1F
100
AcDbEntity
  8
通り芯
  6
Continuous
 62
     3
370
     9
100
AcDbLine
 10
-133.6776320998733
 20
190.0728545317779
 30
0.0
 11
-726.6775904475031
 21
190.0728545317779
 31
0.0
  0
LINE
  5
FD
330
1F
100
AcDbEntity
  8
通り芯
  6
Continuous
 62
     3
370
     9
100
AcDbLine
 10
-132.677480336782
 20
191.0728825749578
 30
0.0
 11
-727.6775875607052
 21
191.0728825749578
 31
0.0
  0
LINE
  5
FE
330
1F
100
AcDbEntity
  8
通り芯
  6
Continuous
 62
     3
370
     9
100
AcDbLine
 10
-131.1775001319678
 20
228.5728825749578
 30
0.0
 11
-131.1775001319678
 21
172.5727967958193
 31
0.0
  0
LINE
  5
FF
330
1F
100
AcDbEntity
  8
通り芯
  6
Continuous
 62
     3
370
     9
100
AcDbLine
 10
-728.1775706523173
 20
201.5728677285685
 30
0.0
 11
-728.1775706523173
 21
216.5729172165329
 31
0.0
  0
LINE
  5
100
330
1F
100
AcDbEntity
  8
通り芯
  6
Continuous
 62
     3
370
     9
100
AcDbLine
 10
-729.1775986954973
 20
217.5728215398016
 30
0.0
 11
-729.1775986954973
 21
189.5729023701436
 31
0.0
  0
LINE
  5
101
330
1F
100
AcDbEntity
  8
通り芯
  6
Continuous
 62
     3
370
     9
100
AcDbLine
 10
-133.6776320998733
 20
200.072763803843
 30
0.0
 11
-726.6775904475031
 21
200.072763803843
 31
0.0
  0
LINE
  5
102
330
1F
100
AcDbEntity
  8
通り芯
  6
Continuous
 62
     3
370
     9
100
AcDbLine
 10
-132.677480336782
 20
199.0728594805744
 30
0.0
 11
-727.6775875607052
 21
199.0728594805744
 31
0.0
  0
LINE
  5
103
330
1F
100
AcDbEntity
  8
通り芯
  6
Continuous
 62
     3
370
     9
100
AcDbLine
 10
-132.1774044552365
 20
216.5729172165329
 30
0.0
 11
-132.1774044552365
 21
201.5728677285685
 31
0.0
  0
LINE
  5
104
330
1F
100
AcDbEntity
  8
通り芯
  6
Continuous
 62
     3
370
     9
100
AcDbLine
 10
-133.6776320998733
 20
218.0727737014358
 30
0.0
 11
-726.6775904475031
 21
218.0727737014358
 31
0.0
  0
LINE
  5
105
330
1F
100
AcDbEntity
  8
通り芯
  6
Continuous
 62
     3
370
     9
100
AcDbLine
 10
-132.677480336782
 20
219.0728017446158
 30
0.0
 11
-727.6775875607052
 21
219.0728017446158
 31
0.0
  0
LINE
  5
106
330
1F
100
AcDbEntity
  8
通り芯
  6
Continuous
 62
     3
370
     9
100
AcDbLine
 10
-728.1775706523173
 20
229.5727868982264
 30
0.0
 11
-728.1775706523173
 21
244.5728363861909
 31
0.0
  0
LINE
  5
107
330
1F
100
AcDbEntity
  8
通り芯
  6
Continuous
 62
     3
370
     9
100
AcDbLine
 10
-729.1775986954973
 20
245.5728644293708
 30
0.0
 11
-729.1775986954973
 21
228.5728825749578
 31
0.0
  0
LINE
  5
108
330
1F
100
AcDbEntity
  8
通り芯
  6
Continuous
 62
     3
370
     9
100
AcDbLine
 10
-133.6776320998733
 20
228.0728066934122
 30
0.0
 11
-726.6775904475031
 21
228.0728066934122
 31
0.0
  0
LINE
  5
109
330
1F
100
AcDbEntity
  8
通り芯
  6
Continuous
 62
     3
370
     9
100
AcDbLine
 10
-132.677480336782
 20
227.0727786502323
 30
0.0
 11
-727.6775875607052
 21
227.0727786502323
 31
0.0
  0
LINE
  5
10A
330
1F
100
AcDbEntity
  8
通り芯
  6
Continuous
 62
     3
370
     9
100
AcDbLine
 10
-132.1774044552365
 20
244.5728363861909
 30
0.0
 11
-132.1774044552365
 21
229.5727868982264
 31
0.0
  0
LINE
  5
10B
330
1F
100
AcDbEntity
  8
通り芯
  6
Continuous
 62
     3
370
     9
100
AcDbLine
 10
-133.6776320998733
 20
246.0728165910051
 30
0.0
 11
-726.6775904475031
 21
246.0728165910051
 31
0.0
  0
LINE
  5
10C
330
1F
100
AcDbEntity
  8
通り芯
  6
Continuous
 62
     3
370
     9
100
AcDbLine
 10
-132.677480336782
 20
247.0727209142737
 30
0.0
 11
-727.6775875607052
 21
247.0727209142737
 31
0.0
  0
LINE
  5
10D
330
1F
100
AcDbEntity
  8
通り芯
  6
Continuous
 62
     3
370
     9
100
AcDbLine
 10
-131.1775001319678
 20
245.5728644293708
 30
0.0
 11
-131.1775001319678
 21
228.5728825749578
 31
0.0
  0
LINE
  5
10E
330
1F
100
AcDbEntity
  8
通り芯
  6
Continuous
 62
     3
370
     9
100
AcDbLine
 10
-729.1775986954973
 20
-23.4271322714315
 30
0.0
 11
-729.1775986954973
 21
-34.42713144663216
 31
0.0
  0
LINE
  5
10F
330
1F
100
AcDbEntity
  8
通り芯
  6
Continuous
 62
     3
370
     9
100
AcDbLine
 10
-709.1775945715003
 20
-24.92717433620143
 30
0.0
 11
-709.1775945715003
 21
-32.92721310177356
 31
0.0
  0
LINE
  5
110
330
1F
100
AcDbEntity
  8
通り芯
  6
Continuous
 62
     3
370
     9
100
AcDbLine
 10
-593.5775447536159
 20
-24.92717433620143
 30
0.0
 11
-593.5775447536159
 21
-32.92721310177356
 31
0.0
  0
LINE
  5
111
330
1F
100
AcDbEntity
  8
通り芯
  6
Continuous
 62
     3
370
     9
100
AcDbLine
 10
-613.5776107375686
 20
-24.92717433620143
 30
0.0
 11
-613.5776107375686
 21
-32.92721310177356
 31
0.0
  0
LINE
  5
112
330
1F
100
AcDbEntity
  8
通り芯
  6
Continuous
 62
     3
370
     9
100
AcDbLine
 10
-497.9775918496621
 20
-24.92717433620143
 30
0.0
 11
-497.9775918496621
 21
-32.92721310177356
 31
0.0
  0
LINE
  5
113
330
1F
100
AcDbEntity
  8
通り芯
  6
Continuous
 62
     3
370
     9
100
AcDbLine
 10
-477.9776495856208
 20
-24.92717433620143
 30
0.0
 11
-477.9776495856208
 21
-32.92721310177356
 31
0.0
  0
LINE
  5
114
330
1F
100
AcDbEntity
  8
通り芯
  6
Continuous
 62
     3
370
     9
100
AcDbLine
 10
-382.3775420317779
 20
-24.92717433620143
 30
0.0
 11
-382.3775420317779
 21
-32.92721310177356
 31
0.0
  0
LINE
  5
115
330
1F
100
AcDbEntity
  8
通り芯
  6
Continuous
 62
     3
370
     9
100
AcDbLine
 10
-362.3775997677365
 20
-24.92717433620143
 30
0.0
 11
-362.3775997677365
 21
-32.92721310177356
 31
0.0
  0
LINE
  5
116
330
1F
100
AcDbEntity
  8
通り芯
  6
Continuous
 62
     3
370
     9
100
AcDbLine
 10
-266.7776159338048
 20
-24.92717433620143
 30
0.0
 11
-266.7776159338048
 21
-32.92721310177356
 31
0.0
  0
LINE
  5
117
330
1F
100
AcDbEntity
  8
通り芯
  6
Continuous
 62
     3
370
     9
100
AcDbLine
 10
-246.7775499498522
 20
-24.92717433620143
 30
0.0
 11
-246.7775499498522
 21
-32.92721310177356
 31
0.0
  0
LINE
  5
118
330
1F
100
AcDbEntity
  8
通り芯
  6
Continuous
 62
     3
370
     9
100
AcDbLine
 10
-151.1775661159206
 20
-24.92717433620143
 30
0.0
 11
-151.1775661159206
 21
-32.92721310177356
 31
0.0
  0
LINE
  5
119
330
1F
100
AcDbEntity
  8
通り芯
  6
Continuous
 62
     3
370
     9
100
AcDbLine
 10
-729.1775986954973
 20
4.57278689822644
 30
0.0
 11
-729.1775986954973
 21
-6.427150417018481
 31
0.0
  0
LINE
  5
11A
330
1F
100
AcDbEntity
  8
通り芯
  6
Continuous
 62
     3
370
     9
100
AcDbLine
 10
-709.1775945715003
 20
3.072806693412247
 30
0.0
 11
-709.1775945715003
 21
-4.927170212204288
 31
0.0
  0
LINE
  5
11B
330
1F
100
AcDbEntity
  8
通り芯
  6
Continuous
 62
     3
370
     9
100
AcDbLine
 10
-593.5775447536159
 20
3.072806693412247
 30
0.0
 11
-593.5775447536159
 21
-4.927170212204288
 31
0.0
  0
LINE
  5
11C
330
1F
100
AcDbEntity
  8
通り芯
  6
Continuous
 62
     3
370
     9
100
AcDbLine
 10
-613.5776107375686
 20
3.072806693412247
 30
0.0
 11
-613.5776107375686
 21
-4.927170212204288
 31
0.0
  0
LINE
  5
11D
330
1F
100
AcDbEntity
  8
通り芯
  6
Continuous
 62
     3
370
     9
100
AcDbLine
 10
-497.9775918496621
 20
3.072806693412247
 30
0.0
 11
-497.9775918496621
 21
-4.927170212204288
 31
0.0
  0
LINE
  5
11E
330
1F
100
AcDbEntity
  8
通り芯
  6
Continuous
 62
     3
370
     9
100
AcDbLine
 10
-477.9776495856208
 20
3.072806693412247
 30
0.0
 11
-477.9776495856208
 21
-4.927170212204288
 31
0.0
  0
LINE
  5
11F
330
1F
100
AcDbEntity
  8
通り芯
  6
Continuous
 62
     3
370
     9
100
AcDbLine
 10
-382.3775420317779
 20
3.072806693412247
 30
0.0
 11
-382.3775420317779
 21
-4.927170212204288
 31
0.0
  0
LINE
  5
120
330
1F
100
AcDbEntity
  8
通り芯
  6
Continuous
 62
     3
370
     9
100
AcDbLine
 10
-362.3775997677365
 20
3.072806693412247
 30
0.0
 11
-362.3775997677365
 21
-4.927170212204288
 31
0.0
  0
LINE
  5
121
330
1F
100
AcDbEntity
  8
通り芯
  6
Continuous
 62
     3
370
     9
100
AcDbLine
 10
-266.7776159338048
 20
3.072806693412247
 30
0.0
 11
-266.7776159338048
 21
-4.927170212204288
 31
0.0
  0
LINE
  5
122
330
1F
100
AcDbEntity
  8
通り芯
  6
Continuous
 62
     3
370
     9
100
AcDbLine
 10
-246.7775499498522
 20
3.072806693412247
 30
0.0
 11
-246.7775499498522
 21
-4.927170212204288
 31
0.0
  0
LINE
  5
123
330
1F
100
AcDbEntity
  8
通り芯
  6
Continuous
 62
     3
370
     9
100
AcDbLine
 10
-151.1775661159206
 20
3.072806693412247
 30
0.0
 11
-151.1775661159206
 21
-4.927170212204288
 31
0.0
  0
LINE
  5
124
330
1F
100
AcDbEntity
  8
通り芯
  6
Continuous
 62
     3
370
     9
100
AcDbLine
 10
-729.1775986954973
 20
32.57282978779571
 30
0.0
 11
-729.1775986954973
 21
21.57289247255065
 31
0.0
  0
LINE
  5
125
330
1F
100
AcDbEntity
  8
通り芯
  6
Continuous
 62
     3
370
     9
100
AcDbLine
 10
-709.1775945715003
 20
31.07284958298152
 30
0.0
 11
-709.1775945715003
 21
23.07274895745365
 31
0.0
  0
LINE
  5
126
330
1F
100
AcDbEntity
  8
通り芯
  6
Continuous
 62
     3
370
     9
100
AcDbLine
 10
-593.5775447536159
 20
31.07284958298152
 30
0.0
 11
-593.5775447536159
 21
23.07274895745365
 31
0.0
  0
LINE
  5
127
330
1F
100
AcDbEntity
  8
通り芯
  6
Continuous
 62
     3
370
     9
100
AcDbLine
 10
-613.5776107375686
 20
31.07284958298152
 30
0.0
 11
-613.5776107375686
 21
23.07274895745365
 31
0.0
  0
LINE
  5
128
330
1F
100
AcDbEntity
  8
通り芯
  6
Continuous
 62
     3
370
     9
100
AcDbLine
 10
-497.9775918496621
 20
31.07284958298152
 30
0.0
 11
-497.9775918496621
 21
23.07274895745365
 31
0.0
  0
LINE
  5
129
330
1F
100
AcDbEntity
  8
通り芯
  6
Continuous
 62
     3
370
     9
100
AcDbLine
 10
-477.9776495856208
 20
31.07284958298152
 30
0.0
 11
-477.9776495856208
 21
23.07274895745365
 31
0.0
  0
LINE
  5
12A
330
1F
100
AcDbEntity
  8
通り芯
  6
Continuous
 62
     3
370
     9
100
AcDbLine
 10
-382.3775420317779
 20
31.07284958298152
 30
0.0
 11
-382.3775420317779
 21
23.07274895745365
 31
0.0
  0
LINE
  5
12B
330
1F
100
AcDbEntity
  8
通り芯
  6
Continuous
 62
     3
370
     9
100
AcDbLine
 10
-362.3775997677365
 20
31.07284958298152
 30
0.0
 11
-362.3775997677365
 21
23.07274895745365
 31
0.0
  0
LINE
  5
12C
330
1F
100
AcDbEntity
  8
通り芯
  6
Continuous
 62
     3
370
     9
100
AcDbLine
 10
-266.7776159338048
 20
31.07284958298152
 30
0.0
 11
-266.7776159338048
 21
23.07274895745365
 31
0.0
  0
LINE
  5
12D
330
1F
100
AcDbEntity
  8
通り芯
  6
Continuous
 62
     3
370
     9
100
AcDbLine
 10
-246.7775499498522
 20
31.07284958298152
 30
0.0
 11
-246.7775499498522
 21
23.07274895745365
 31
0.0
  0
LINE
  5
12E
330
1F
100
AcDbEntity
  8
通り芯
  6
Continuous
 62
     3
370
     9
100
AcDbLine
 10
-151.1775661159206
 20
31.07284958298152
 30
0.0
 11
-151.1775661159206
 21
23.07274895745365
 31
0.0
  0
LINE
  5
12F
330
1F
100
AcDbEntity
  8
通り芯
  6
Continuous
 62
     3
370
     9
100
AcDbLine
 10
-709.1775945715003
 20
59.07289247255079
 30
0.0
 11
-709.1775945715003
 21
51.07291556693411
 31
0.0
  0
LINE
  5
130
330
1F
100
AcDbEntity
  8
通り芯
  6
Continuous
 62
     3
370
     9
100
AcDbLine
 10
-593.5775447536159
 20
59.07289247255079
 30
0.0
 11
-593.5775447536159
 21
51.07291556693411
 31
0.0
  0
LINE
  5
131
330
1F
100
AcDbEntity
  8
通り芯
  6
Continuous
 62
     3
370
     9
100
AcDbLine
 10
-613.5776107375686
 20
59.07289247255079
 30
0.0
 11
-613.5776107375686
 21
51.07291556693411
 31
0.0
  0
LINE
  5
132
330
1F
100
AcDbEntity
  8
通り芯
  6
Continuous
 62
     3
370
     9
100
AcDbLine
 10
-497.9775918496621
 20
59.07289247255079
 30
0.0
 11
-497.9775918496621
 21
51.07291556693411
 31
0.0
  0
LINE
  5
133
330
1F
100
AcDbEntity
  8
通り芯
  6
Continuous
 62
     3
370
     9
100
AcDbLine
 10
-477.9776495856208
 20
59.07289247255079
 30
0.0
 11
-477.9776495856208
 21
51.07291556693411
 31
0.0
  0
LINE
  5
134
330
1F
100
AcDbEntity
  8
通り芯
  6
Continuous
 62
     3
370
     9
100
AcDbLine
 10
-382.3775420317779
 20
59.07289247255079
 30
0.0
 11
-382.3775420317779
 21
51.07291556693411
 31
0.0
  0
LINE
  5
135
330
1F
100
AcDbEntity
  8
通り芯
  6
Continuous
 62
     3
370
     9
100
AcDbLine
 10
-362.3775997677365
 20
59.07289247255079
 30
0.0
 11
-362.3775997677365
 21
51.07291556693411
 31
0.0
  0
LINE
  5
136
330
1F
100
AcDbEntity
  8
通り芯
  6
Continuous
 62
     3
370
     9
100
AcDbLine
 10
-266.7776159338048
 20
59.07289247255079
 30
0.0
 11
-266.7776159338048
 21
51.07291556693411
 31
0.0
  0
LINE
  5
137
330
1F
100
AcDbEntity
  8
通り芯
  6
Continuous
 62
     3
370
     9
100
AcDbLine
 10
-246.7775499498522
 20
59.07289247255079
 30
0.0
 11
-246.7775499498522
 21
51.07291556693411
 31
0.0
  0
LINE
  5
138
330
1F
100
AcDbEntity
  8
通り芯
  6
Continuous
 62
     3
370
     9
100
AcDbLine
 10
-151.1775661159206
 20
59.07289247255079
 30
0.0
 11
-151.1775661159206
 21
51.07291556693411
 31
0.0
  0
LINE
  5
139
330
1F
100
AcDbEntity
  8
通り芯
  6
Continuous
 62
     3
370
     9
100
AcDbLine
 10
-729.1775986954973
 20
88.57291556693411
 30
0.0
 11
-729.1775986954973
 21
77.57285453177786
 31
0.0
  0
LINE
  5
13A
330
1F
100
AcDbEntity
  8
通り芯
  6
Continuous
 62
     3
370
     9
100
AcDbLine
 10
-709.1775945715003
 20
87.07281164220859
 30
0.0
 11
-709.1775945715003
 21
79.07271101668073
 31
0.0
  0
LINE
  5
13B
330
1F
100
AcDbEntity
  8
通り芯
  6
Continuous
 62
     3
370
     9
100
AcDbLine
 10
-593.5775447536159
 20
87.07281164220859
 30
0.0
 11
-593.5775447536159
 21
79.07271101668073
 31
0.0
  0
LINE
  5
13C
330
1F
100
AcDbEntity
  8
通り芯
  6
Continuous
 62
     3
370
     9
100
AcDbLine
 10
-613.5776107375686
 20
87.07281164220859
 30
0.0
 11
-613.5776107375686
 21
79.07271101668073
 31
0.0
  0
LINE
  5
13D
330
1F
100
AcDbEntity
  8
通り芯
  6
Continuous
 62
     3
370
     9
100
AcDbLine
 10
-497.9775918496621
 20
87.07281164220859
 30
0.0
 11
-497.9775918496621
 21
79.07271101668073
 31
0.0
  0
LINE
  5
13E
330
1F
100
AcDbEntity
  8
通り芯
  6
Continuous
 62
     3
370
     9
100
AcDbLine
 10
-477.9776495856208
 20
87.07281164220859
 30
0.0
 11
-477.9776495856208
 21
79.07271101668073
 31
0.0
  0
LINE
  5
13F
330
1F
100
AcDbEntity
  8
通り芯
  6
Continuous
 62
     3
370
     9
100
AcDbLine
 10
-382.3775420317779
 20
87.07281164220859
 30
0.0
 11
-382.3775420317779
 21
79.07271101668073
 31
0.0
  0
LINE
  5
140
330
1F
100
AcDbEntity
  8
通り芯
  6
Continuous
 62
     3
370
     9
100
AcDbLine
 10
-362.3775997677365
 20
87.07281164220859
 30
0.0
 11
-362.3775997677365
 21
79.07271101668073
 31
0.0
  0
LINE
  5
141
330
1F
100
AcDbEntity
  8
通り芯
  6
Continuous
 62
     3
370
     9
100
AcDbLine
 10
-266.7776159338048
 20
87.07281164220859
 30
0.0
 11
-266.7776159338048
 21
79.07271101668073
 31
0.0
  0
LINE
  5
142
330
1F
100
AcDbEntity
  8
通り芯
  6
Continuous
 62
     3
370
     9
100
AcDbLine
 10
-246.7775499498522
 20
87.07281164220859
 30
0.0
 11
-246.7775499498522
 21
79.07271101668073
 31
0.0
  0
LINE
  5
143
330
1F
100
AcDbEntity
  8
通り芯
  6
Continuous
 62
     3
370
     9
100
AcDbLine
 10
-151.1775661159206
 20
87.07281164220859
 30
0.0
 11
-151.1775661159206
 21
79.07271101668073
 31
0.0
  0
LINE
  5
144
330
1F
100
AcDbEntity
  8
通り芯
  6
Continuous
 62
     3
370
     9
100
AcDbLine
 10
-709.1775945715003
 20
115.0727308118665
 30
0.0
 11
-709.1775945715003
 21
107.07275390625
 31
0.0
  0
LINE
  5
145
330
1F
100
AcDbEntity
  8
通り芯
  6
Continuous
 62
     3
370
     9
100
AcDbLine
 10
-593.5775447536159
 20
115.0727308118665
 30
0.0
 11
-593.5775447536159
 21
107.07275390625
 31
0.0
  0
LINE
  5
146
330
1F
100
AcDbEntity
  8
通り芯
  6
Continuous
 62
     3
370
     9
100
AcDbLine
 10
-613.5776107375686
 20
115.0727308118665
 30
0.0
 11
-613.5776107375686
 21
107.07275390625
 31
0.0
  0
LINE
  5
147
330
1F
100
AcDbEntity
  8
通り芯
  6
Continuous
 62
     3
370
     9
100
AcDbLine
 10
-497.9775918496621
 20
115.0727308118665
 30
0.0
 11
-497.9775918496621
 21
107.07275390625
 31
0.0
  0
LINE
  5
148
330
1F
100
AcDbEntity
  8
通り芯
  6
Continuous
 62
     3
370
     9
100
AcDbLine
 10
-477.9776495856208
 20
115.0727308118665
 30
0.0
 11
-477.9776495856208
 21
107.07275390625
 31
0.0
  0
LINE
  5
149
330
1F
100
AcDbEntity
  8
通り芯
  6
Continuous
 62
     3
370
     9
100
AcDbLine
 10
-382.3775420317779
 20
115.0727308118665
 30
0.0
 11
-382.3775420317779
 21
107.07275390625
 31
0.0
  0
LINE
  5
14A
330
1F
100
AcDbEntity
  8
通り芯
  6
Continuous
 62
     3
370
     9
100
AcDbLine
 10
-362.3775997677365
 20
115.0727308118665
 30
0.0
 11
-362.3775997677365
 21
107.07275390625
 31
0.0
  0
LINE
  5
14B
330
1F
100
AcDbEntity
  8
通り芯
  6
Continuous
 62
     3
370
     9
100
AcDbLine
 10
-266.7776159338048
 20
115.0727308118665
 30
0.0
 11
-266.7776159338048
 21
107.07275390625
 31
0.0
  0
LINE
  5
14C
330
1F
100
AcDbEntity
  8
通り芯
  6
Continuous
 62
     3
370
     9
100
AcDbLine
 10
-246.7775499498522
 20
115.0727308118665
 30
0.0
 11
-246.7775499498522
 21
107.07275390625
 31
0.0
  0
LINE
  5
14D
330
1F
100
AcDbEntity
  8
通り芯
  6
Continuous
 62
     3
370
     9
100
AcDbLine
 10
-151.1775661159206
 20
115.0727308118665
 30
0.0
 11
-151.1775661159206
 21
107.07275390625
 31
0.0
  0
LINE
  5
14E
330
1F
100
AcDbEntity
  8
通り芯
  6
Continuous
 62
     3
370
     9
100
AcDbLine
 10
-729.1775986954973
 20
144.57275390625
 30
0.0
 11
-729.1775986954973
 21
133.5728165910051
 31
0.0
  0
LINE
  5
14F
330
1F
100
AcDbEntity
  8
通り芯
  6
Continuous
 62
     3
370
     9
100
AcDbLine
 10
-709.1775945715003
 20
143.0727737014358
 30
0.0
 11
-709.1775945715003
 21
135.0727967958193
 31
0.0
  0
LINE
  5
150
330
1F
100
AcDbEntity
  8
通り芯
  6
Continuous
 62
     3
370
     9
100
AcDbLine
 10
-593.5775447536159
 20
143.0727737014358
 30
0.0
 11
-593.5775447536159
 21
135.0727967958193
 31
0.0
  0
LINE
  5
151
330
1F
100
AcDbEntity
  8
通り芯
  6
Continuous
 62
     3
370
     9
100
AcDbLine
 10
-613.5776107375686
 20
143.0727737014358
 30
0.0
 11
-613.5776107375686
 21
135.0727967958193
 31
0.0
  0
LINE
  5
152
330
1F
100
AcDbEntity
  8
通り芯
  6
Continuous
 62
     3
370
     9
100
AcDbLine
 10
-497.9775918496621
 20
143.0727737014358
 30
0.0
 11
-497.9775918496621
 21
135.0727967958193
 31
0.0
  0
LINE
  5
153
330
1F
100
AcDbEntity
  8
通り芯
  6
Continuous
 62
     3
370
     9
100
AcDbLine
 10
-477.9776495856208
 20
143.0727737014358
 30
0.0
 11
-477.9776495856208
 21
135.0727967958193
 31
0.0
  0
LINE
  5
154
330
1F
100
AcDbEntity
  8
通り芯
  6
Continuous
 62
     3
370
     9
100
AcDbLine
 10
-382.3775420317779
 20
143.0727737014358
 30
0.0
 11
-382.3775420317779
 21
135.0727967958193
 31
0.0
  0
LINE
  5
155
330
1F
100
AcDbEntity
  8
通り芯
  6
Continuous
 62
     3
370
     9
100
AcDbLine
 10
-362.3775997677365
 20
143.0727737014358
 30
0.0
 11
-362.3775997677365
 21
135.0727967958193
 31
0.0
  0
LINE
  5
156
330
1F
100
AcDbEntity
  8
通り芯
  6
Continuous
 62
     3
370
     9
100
AcDbLine
 10
-266.7776159338048
 20
143.0727737014358
 30
0.0
 11
-266.7776159338048
 21
135.0727967958193
 31
0.0
  0
LINE
  5
157
330
1F
100
AcDbEntity
  8
通り芯
  6
Continuous
 62
     3
370
     9
100
AcDbLine
 10
-246.7775499498522
 20
143.0727737014358
 30
0.0
 11
-246.7775499498522
 21
135.0727967958193
 31
0.0
  0
LINE
  5
158
330
1F
100
AcDbEntity
  8
通り芯
  6
Continuous
 62
     3
370
     9
100
AcDbLine
 10
-151.1775661159206
 20
143.0727737014358
 30
0.0
 11
-151.1775661159206
 21
135.0727967958193
 31
0.0
  0
LINE
  5
159
330
1F
100
AcDbEntity
  8
通り芯
  6
Continuous
 62
     3
370
     9
100
AcDbLine
 10
-729.1775986954973
 20
172.5727967958193
 30
0.0
 11
-729.1775986954973
 21
161.5728594805744
 31
0.0
  0
LINE
  5
15A
330
1F
100
AcDbEntity
  8
通り芯
  6
Continuous
 62
     3
370
     9
100
AcDbLine
 10
-709.1775945715003
 20
171.0728165910051
 30
0.0
 11
-709.1775945715003
 21
163.0728396853885
 31
0.0
  0
LINE
  5
15B
330
1F
100
AcDbEntity
  8
通り芯
  6
Continuous
 62
     3
370
     9
100
AcDbLine
 10
-593.5775447536159
 20
171.0728165910051
 30
0.0
 11
-593.5775447536159
 21
163.0728396853885
 31
0.0
  0
LINE
  5
15C
330
1F
100
AcDbEntity
  8
通り芯
  6
Continuous
 62
     3
370
     9
100
AcDbLine
 10
-613.5776107375686
 20
171.0728165910051
 30
0.0
 11
-613.5776107375686
 21
163.0728396853885
 31
0.0
  0
LINE
  5
15D
330
1F
100
AcDbEntity
  8
通り芯
  6
Continuous
 62
     3
370
     9
100
AcDbLine
 10
-497.9775918496621
 20
171.0728165910051
 30
0.0
 11
-497.9775918496621
 21
163.0728396853885
 31
0.0
  0
LINE
  5
15E
330
1F
100
AcDbEntity
  8
通り芯
  6
Continuous
 62
     3
370
     9
100
AcDbLine
 10
-477.9776495856208
 20
171.0728165910051
 30
0.0
 11
-477.9776495856208
 21
163.0728396853885
 31
0.0
  0
LINE
  5
15F
330
1F
100
AcDbEntity
  8
通り芯
  6
Continuous
 62
     3
370
     9
100
AcDbLine
 10
-382.3775420317779
 20
171.0728165910051
 30
0.0
 11
-382.3775420317779
 21
163.0728396853885
 31
0.0
  0
LINE
  5
160
330
1F
100
AcDbEntity
  8
通り芯
  6
Continuous
 62
     3
370
     9
100
AcDbLine
 10
-362.3775997677365
 20
171.0728165910051
 30
0.0
 11
-362.3775997677365
 21
163.0728396853885
 31
0.0
  0
LINE
  5
161
330
1F
100
AcDbEntity
  8
通り芯
  6
Continuous
 62
     3
370
     9
100
AcDbLine
 10
-266.7776159338048
 20
171.0728165910051
 30
0.0
 11
-266.7776159338048
 21
163.0728396853885
 31
0.0
  0
LINE
  5
162
330
1F
100
AcDbEntity
  8
通り芯
  6
Continuous
 62
     3
370
     9
100
AcDbLine
 10
-246.7775499498522
 20
171.0728165910051
 30
0.0
 11
-246.7775499498522
 21
163.0728396853885
 31
0.0
  0
LINE
  5
163
330
1F
100
AcDbEntity
  8
通り芯
  6
Continuous
 62
     3
370
     9
100
AcDbLine
 10
-151.1775661159206
 20
171.0728165910051
 30
0.0
 11
-151.1775661159206
 21
163.0728396853885
 31
0.0
  0
LINE
  5
164
330
1F
100
AcDbEntity
  8
通り芯
  6
Continuous
 62
     3
370
     9
100
AcDbLine
 10
-709.1775945715003
 20
199.0728594805744
 30
0.0
 11
-709.1775945715003
 21
191.0728825749578
 31
0.0
  0
LINE
  5
165
330
1F
100
AcDbEntity
  8
通り芯
  6
Continuous
 62
     3
370
     9
100
AcDbLine
 10
-593.5775447536159
 20
199.0728594805744
 30
0.0
 11
-593.5775447536159
 21
191.0728825749578
 31
0.0
  0
LINE
  5
166
330
1F
100
AcDbEntity
  8
通り芯
  6
Continuous
 62
     3
370
     9
100
AcDbLine
 10
-613.5776107375686
 20
199.0728594805744
 30
0.0
 11
-613.5776107375686
 21
191.0728825749578
 31
0.0
  0
LINE
  5
167
330
1F
100
AcDbEntity
  8
通り芯
  6
Continuous
 62
     3
370
     9
100
AcDbLine
 10
-497.9775918496621
 20
199.0728594805744
 30
0.0
 11
-497.9775918496621
 21
191.0728825749578
 31
0.0
  0
LINE
  5
168
330
1F
100
AcDbEntity
  8
通り芯
  6
Continuous
 62
     3
370
     9
100
AcDbLine
 10
-477.9776495856208
 20
199.0728594805744
 30
0.0
 11
-477.9776495856208
 21
191.0728825749578
 31
0.0
  0
LINE
  5
169
330
1F
100
AcDbEntity
  8
通り芯
  6
Continuous
 62
     3
370
     9
100
AcDbLine
 10
-382.3775420317779
 20
199.0728594805744
 30
0.0
 11
-382.3775420317779
 21
191.0728825749578
 31
0.0
  0
LINE
  5
16A
330
1F
100
AcDbEntity
  8
通り芯
  6
Continuous
 62
     3
370
     9
100
AcDbLine
 10
-362.3775997677365
 20
199.0728594805744
 30
0.0
 11
-362.3775997677365
 21
191.0728825749578
 31
0.0
  0
LINE
  5
16B
330
1F
100
AcDbEntity
  8
通り芯
  6
Continuous
 62
     3
370
     9
100
AcDbLine
 10
-266.7776159338048
 20
199.0728594805744
 30
0.0
 11
-266.7776159338048
 21
191.0728825749578
 31
0.0
  0
LINE
  5
16C
330
1F
100
AcDbEntity
  8
通り芯
  6
Continuous
 62
     3
370
     9
100
AcDbLine
 10
-246.7775499498522
 20
199.0728594805744
 30
0.0
 11
-246.7775499498522
 21
191.0728825749578
 31
0.0
  0
LINE
  5
16D
330
1F
100
AcDbEntity
  8
通り芯
  6
Continuous
 62
     3
370
     9
100
AcDbLine
 10
-151.1775661159206
 20
199.0728594805744
 30
0.0
 11
-151.1775661159206
 21
191.0728825749578
 31
0.0
  0
LINE
  5
16E
330
1F
100
AcDbEntity
  8
通り芯
  6
Continuous
 62
     3
370
     9
100
AcDbLine
 10
-729.1775986954973
 20
228.5728825749578
 30
0.0
 11
-729.1775986954973
 21
217.5728215398016
 31
0.0
  0
LINE
  5
16F
330
1F
100
AcDbEntity
  8
通り芯
  6
Continuous
 62
     3
370
     9
100
AcDbLine
 10
-709.1775945715003
 20
227.0729023701436
 30
0.0
 11
-709.1775945715003
 21
219.0728017446158
 31
0.0
  0
LINE
  5
170
330
1F
100
AcDbEntity
  8
通り芯
  6
Continuous
 62
     3
370
     9
100
AcDbLine
 10
-593.5775447536159
 20
227.0729023701436
 30
0.0
 11
-593.5775447536159
 21
219.0728017446158
 31
0.0
  0
LINE
  5
171
330
1F
100
AcDbEntity
  8
通り芯
  6
Continuous
 62
     3
370
     9
100
AcDbLine
 10
-613.5776107375686
 20
227.0729023701436
 30
0.0
 11
-613.5776107375686
 21
219.0728017446158
 31
0.0
  0
LINE
  5
172
330
1F
100
AcDbEntity
  8
通り芯
  6
Continuous
 62
     3
370
     9
100
AcDbLine
 10
-497.9775918496621
 20
227.0729023701436
 30
0.0
 11
-497.9775918496621
 21
219.0728017446158
 31
0.0
  0
LINE
  5
173
330
1F
100
AcDbEntity
  8
通り芯
  6
Continuous
 62
     3
370
     9
100
AcDbLine
 10
-477.9776495856208
 20
227.0729023701436
 30
0.0
 11
-477.9776495856208
 21
219.0728017446158
 31
0.0
  0
LINE
  5
174
330
1F
100
AcDbEntity
  8
通り芯
  6
Continuous
 62
     3
370
     9
100
AcDbLine
 10
-382.3775420317779
 20
227.0729023701436
 30
0.0
 11
-382.3775420317779
 21
219.0728017446158
 31
0.0
  0
LINE
  5
175
330
1F
100
AcDbEntity
  8
通り芯
  6
Continuous
 62
     3
370
     9
100
AcDbLine
 10
-362.3775997677365
 20
227.0729023701436
 30
0.0
 11
-362.3775997677365
 21
219.0728017446158
 31
0.0
  0
LINE
  5
176
330
1F
100
AcDbEntity
  8
通り芯
  6
Continuous
 62
     3
370
     9
100
AcDbLine
 10
-266.7776159338048
 20
227.0729023701436
 30
0.0
 11
-266.7776159338048
 21
219.0728017446158
 31
0.0
  0
LINE
  5
177
330
1F
100
AcDbEntity
  8
通り芯
  6
Continuous
 62
     3
370
     9
100
AcDbLine
 10
-246.7775499498522
 20
227.0729023701436
 30
0.0
 11
-246.7775499498522
 21
219.0728017446158
 31
0.0
  0
LINE
  5
178
330
1F
100
AcDbEntity
  8
通り芯
  6
Continuous
 62
     3
370
     9
100
AcDbLine
 10
-151.1775661159206
 20
227.0729023701436
 30
0.0
 11
-151.1775661159206
 21
219.0728017446158
 31
0.0
  0
LINE
  5
179
330
1F
100
AcDbEntity
  8
通り芯
  6
Continuous
 62
     3
370
     9
100
AcDbLine
 10
-709.6923003325592
 20
-35.92723537135768
 30
0.0
 11
-713.934934461439
 21
-35.92723537135768
 31
0.0
  0
LINE
  5
17A
330
1F
100
AcDbEntity
  8
通り芯
  6
Continuous
 62
     3
370
     9
100
AcDbLine
 10
-708.1775665283203
 20
-42.92724609375
 30
0.0
 11
-708.1775665283203
 21
-38.6550738360431
 31
0.0
  0
LINE
  5
17B
330
1F
100
AcDbEntity
  8
通り芯
  6
Continuous
 62
     3
370
     9
100
AcDbLine
 10
-724.1775821995091
 20
-41.92721805057005
 30
0.0
 11
-724.1775821995091
 21
-35.92723537135768
 31
0.0
  0
LINE
  5
17C
330
1F
100
AcDbEntity
  8
通り芯
  6
Continuous
 62
     3
370
     9
100
AcDbLine
 10
-724.1775821995091
 20
-41.92721805057005
 30
0.0
 11
-718.1775995202966
 21
-35.92723537135768
 31
0.0
  0
LINE
  5
17D
330
1F
100
AcDbEntity
  8
通り芯
  6
Continuous
 62
     3
370
     9
100
AcDbLine
 10
-724.1775821995091
 20
-35.92723537135768
 30
0.0
 11
-718.1775995202966
 21
-35.92723537135768
 31
0.0
  0
LINE
  5
17E
330
1F
100
AcDbEntity
  8
通り芯
  6
Continuous
 62
     3
370
     9
100
AcDbLine
 10
-720.9349142538533
 20
-42.92724609375
 30
0.0
 11
-713.934934461439
 21
-35.92723537135768
 31
0.0
  0
LINE
  5
17F
330
1F
100
AcDbEntity
  8
通り芯
  6
Continuous
 62
     3
370
     9
100
AcDbLine
 10
-716.6922801249735
 20
-42.92724609375
 30
0.0
 11
-709.6923003325592
 21
-35.92723537135768
 31
0.0
  0
LINE
  5
180
330
1F
100
AcDbEntity
  8
通り芯
  6
Continuous
 62
     3
370
     9
100
AcDbLine
 10
-712.4496459960938
 20
-42.92724609375
 30
0.0
 11
-708.1775665283203
 21
-38.6550738360431
 31
0.0
  0
LINE
  5
181
330
1F
100
AcDbEntity
  8
通り芯
  6
Continuous
 62
     3
370
     9
100
AcDbLine
 10
-709.6923003325592
 20
-49.92719495618658
 30
0.0
 11
-713.934934461439
 21
-49.92719495618658
 31
0.0
  0
LINE
  5
182
330
1F
100
AcDbEntity
  8
通り芯
  6
Continuous
 62
     3
370
     9
100
AcDbLine
 10
-708.1775665283203
 20
-42.92724609375
 30
0.0
 11
-708.1775665283203
 21
-47.19929463154557
 31
0.0
  0
LINE
  5
183
330
1F
100
AcDbEntity
  8
通り芯
  6
Continuous
 62
     3
370
     9
100
AcDbLine
 10
-724.1775821995091
 20
-43.92721227697422
 30
0.0
 11
-724.1775821995091
 21
-49.92719495618658
 31
0.0
  0
LINE
  5
184
330
1F
100
AcDbEntity
  8
通り芯
  6
Continuous
 62
     3
370
     9
100
AcDbLine
 10
-724.1775821995091
 20
-43.92721227697422
 30
0.0
 11
-718.1775995202966
 21
-49.92719495618658
 31
0.0
  0
LINE
  5
185
330
1F
100
AcDbEntity
  8
通り芯
  6
Continuous
 62
     3
370
     9
100
AcDbLine
 10
-724.1775821995091
 20
-49.92719495618658
 30
0.0
 11
-718.1775995202966
 21
-49.92719495618658
 31
0.0
  0
LINE
  5
186
330
1F
100
AcDbEntity
  8
通り芯
  6
Continuous
 62
     3
370
     9
100
AcDbLine
 10
-720.9349142538533
 20
-42.92724609375
 30
0.0
 11
-713.934934461439
 21
-49.92719495618658
 31
0.0
  0
LINE
  5
187
330
1F
100
AcDbEntity
  8
通り芯
  6
Continuous
 62
     3
370
     9
100
AcDbLine
 10
-716.6922801249735
 20
-42.92724609375
 30
0.0
 11
-709.6923003325592
 21
-49.92719495618658
 31
0.0
  0
LINE
  5
188
330
1F
100
AcDbEntity
  8
通り芯
  6
Continuous
 62
     3
370
     9
100
AcDbLine
 10
-712.4496459960938
 20
-42.92724609375
 30
0.0
 11
-708.1775665283203
 21
-47.19929463154557
 31
0.0
  0
LINE
  5
189
330
1F
100
AcDbEntity
  8
通り芯
  6
Continuous
 62
     3
370
     9
100
AcDbLine
 10
-687.6923329121357
 20
-35.92723537135768
 30
0.0
 11
-691.9349361110378
 21
-35.92723537135768
 31
0.0
  0
LINE
  5
18A
330
1F
100
AcDbEntity
  8
通り芯
  6
Continuous
 62
     3
370
     9
100
AcDbLine
 10
-686.1775681779192
 20
-42.92724609375
 30
0.0
 11
-686.1775681779192
 21
-38.6550738360431
 31
0.0
  0
LINE
  5
18B
330
1F
100
AcDbEntity
  8
通り芯
  6
Continuous
 62
     3
370
     9
100
AcDbLine
 10
-702.1775838491078
 20
-41.92721805057005
 30
0.0
 11
-702.1775838491078
 21
-35.92723537135768
 31
0.0
  0
LINE
  5
18C
330
1F
100
AcDbEntity
  8
通り芯
  6
Continuous
 62
     3
370
     9
100
AcDbLine
 10
-702.1775838491078
 20
-41.92721805057005
 30
0.0
 11
-696.1776011698954
 21
-35.92723537135768
 31
0.0
  0
LINE
  5
18D
330
1F
100
AcDbEntity
  8
通り芯
  6
Continuous
 62
     3
370
     9
100
AcDbLine
 10
-702.1775838491078
 20
-35.92723537135768
 30
0.0
 11
-696.1776011698954
 21
-35.92723537135768
 31
0.0
  0
LINE
  5
18E
330
1F
100
AcDbEntity
  8
通り芯
  6
Continuous
 62
     3
370
     9
100
AcDbLine
 10
-698.9349159034523
 20
-42.92724609375
 30
0.0
 11
-691.9349361110378
 21
-35.92723537135768
 31
0.0
  0
LINE
  5
18F
330
1F
100
AcDbEntity
  8
通り芯
  6
Continuous
 62
     3
370
     9
100
AcDbLine
 10
-694.6922817745724
 20
-42.92724609375
 30
0.0
 11
-687.6923329121357
 21
-35.92723537135768
 31
0.0
  0
LINE
  5
190
330
1F
100
AcDbEntity
  8
通り芯
  6
Continuous
 62
     3
370
     9
100
AcDbLine
 10
-690.4496476456926
 20
-42.92724609375
 30
0.0
 11
-686.1775681779192
 21
-38.6550738360431
 31
0.0
  0
LINE
  5
191
330
1F
100
AcDbEntity
  8
通り芯
  6
Continuous
 62
     3
370
     9
100
AcDbLine
 10
-687.6923329121357
 20
-49.92719495618658
 30
0.0
 11
-691.9349361110378
 21
-49.92719495618658
 31
0.0
  0
LINE
  5
192
330
1F
100
AcDbEntity
  8
通り芯
  6
Continuous
 62
     3
370
     9
100
AcDbLine
 10
-686.1775681779192
 20
-42.92724609375
 30
0.0
 11
-686.1775681779192
 21
-47.19929463154557
 31
0.0
  0
LINE
  5
193
330
1F
100
AcDbEntity
  8
通り芯
  6
Continuous
 62
     3
370
     9
100
AcDbLine
 10
-702.1775838491078
 20
-43.92721227697422
 30
0.0
 11
-702.1775838491078
 21
-49.92719495618658
 31
0.0
  0
LINE
  5
194
330
1F
100
AcDbEntity
  8
通り芯
  6
Continuous
 62
     3
370
     9
100
AcDbLine
 10
-702.1775838491078
 20
-43.92721227697422
 30
0.0
 11
-696.1776011698954
 21
-49.92719495618658
 31
0.0
  0
LINE
  5
195
330
1F
100
AcDbEntity
  8
通り芯
  6
Continuous
 62
     3
370
     9
100
AcDbLine
 10
-702.1775838491078
 20
-49.92719495618658
 30
0.0
 11
-696.1776011698954
 21
-49.92719495618658
 31
0.0
  0
LINE
  5
196
330
1F
100
AcDbEntity
  8
通り芯
  6
Continuous
 62
     3
370
     9
100
AcDbLine
 10
-698.9349159034523
 20
-42.92724609375
 30
0.0
 11
-691.9349361110378
 21
-49.92719495618658
 31
0.0
  0
LINE
  5
197
330
1F
100
AcDbEntity
  8
通り芯
  6
Continuous
 62
     3
370
     9
100
AcDbLine
 10
-694.6922817745724
 20
-42.92724609375
 30
0.0
 11
-687.6923329121357
 21
-49.92719495618658
 31
0.0
  0
LINE
  5
198
330
1F
100
AcDbEntity
  8
通り芯
  6
Continuous
 62
     3
370
     9
100
AcDbLine
 10
-690.4496476456926
 20
-42.92724609375
 30
0.0
 11
-686.1775681779192
 21
-47.19929463154557
 31
0.0
  0
LINE
  5
199
330
1F
100
AcDbEntity
  8
通り芯
  6
Continuous
 62
     3
370
     9
100
AcDbLine
 10
-665.6922727017788
 20
-35.92723537135768
 30
0.0
 11
-669.9349377606366
 21
-35.92723537135768
 31
0.0
  0
LINE
  5
19A
330
1F
100
AcDbEntity
  8
通り芯
  6
Continuous
 62
     3
370
     9
100
AcDbLine
 10
-664.177569827518
 20
-42.92724609375
 30
0.0
 11
-664.177569827518
 21
-38.6550738360431
 31
0.0
  0
LINE
  5
19B
330
1F
100
AcDbEntity
  8
通り芯
  6
Continuous
 62
     3
370
     9
100
AcDbLine
 10
-680.1775854987068
 20
-41.92721805057005
 30
0.0
 11
-680.1775854987068
 21
-35.92723537135768
 31
0.0
  0
LINE
  5
19C
330
1F
100
AcDbEntity
  8
通り芯
  6
Continuous
 62
     3
370
     9
100
AcDbLine
 10
-680.1775854987068
 20
-41.92721805057005
 30
0.0
 11
-674.1776028194943
 21
-35.92723537135768
 31
0.0
  0
LINE
  5
19D
330
1F
100
AcDbEntity
  8
通り芯
  6
Continuous
 62
     3
370
     9
100
AcDbLine
 10
-680.1775854987068
 20
-35.92723537135768
 30
0.0
 11
-674.1776028194943
 21
-35.92723537135768
 31
0.0
  0
LINE
  5
19E
330
1F
100
AcDbEntity
  8
通り芯
  6
Continuous
 62
     3
370
     9
100
AcDbLine
 10
-676.934917553051
 20
-42.92724609375
 30
0.0
 11
-669.9349377606366
 21
-35.92723537135768
 31
0.0
  0
LINE
  5
19F
330
1F
100
AcDbEntity
  8
通り芯
  6
Continuous
 62
     3
370
     9
100
AcDbLine
 10
-672.6922834241713
 20
-42.92724609375
 30
0.0
 11
-665.6922727017788
 21
-35.92723537135768
 31
0.0
  0
LINE
  5
1A0
330
1F
100
AcDbEntity
  8
通り芯
  6
Continuous
 62
     3
370
     9
100
AcDbLine
 10
-668.4496183653135
 20
-42.92724609375
 30
0.0
 11
-664.177569827518
 21
-38.6550738360431
 31
0.0
  0
LINE
  5
1A1
330
1F
100
AcDbEntity
  8
通り芯
  6
Continuous
 62
     3
370
     9
100
AcDbLine
 10
-665.6922727017788
 20
-49.92719495618658
 30
0.0
 11
-669.9349377606366
 21
-49.92719495618658
 31
0.0
  0
LINE
  5
1A2
330
1F
100
AcDbEntity
  8
通り芯
  6
Continuous
 62
     3
370
     9
100
AcDbLine
 10
-664.177569827518
 20
-42.92724609375
 30
0.0
 11
-664.177569827518
 21
-47.19929463154557
 31
0.0
  0
LINE
  5
1A3
330
1F
100
AcDbEntity
  8
通り芯
  6
Continuous
 62
     3
370
     9
100
AcDbLine
 10
-680.1775854987068
 20
-43.92721227697422
 30
0.0
 11
-680.1775854987068
 21
-49.92719495618658
 31
0.0
  0
LINE
  5
1A4
330
1F
100
AcDbEntity
  8
通り芯
  6
Continuous
 62
     3
370
     9
100
AcDbLine
 10
-680.1775854987068
 20
-43.92721227697422
 30
0.0
 11
-674.1776028194943
 21
-49.92719495618658
 31
0.0
  0
LINE
  5
1A5
330
1F
100
AcDbEntity
  8
通り芯
  6
Continuous
 62
     3
370
     9
100
AcDbLine
 10
-680.1775854987068
 20
-49.92719495618658
 30
0.0
 11
-674.1776028194943
 21
-49.92719495618658
 31
0.0
  0
LINE
  5
1A6
330
1F
100
AcDbEntity
  8
通り芯
  6
Continuous
 62
     3
370
     9
100
AcDbLine
 10
-676.934917553051
 20
-42.92724609375
 30
0.0
 11
-669.9349377606366
 21
-49.92719495618658
 31
0.0
  0
LINE
  5
1A7
330
1F
100
AcDbEntity
  8
通り芯
  6
Continuous
 62
     3
370
     9
100
AcDbLine
 10
-672.6922834241713
 20
-42.92724609375
 30
0.0
 11
-665.6922727017788
 21
-49.92719495618658
 31
0.0
  0
LINE
  5
1A8
330
1F
100
AcDbEntity
  8
通り芯
  6
Continuous
 62
     3
370
     9
100
AcDbLine
 10
-668.4496183653135
 20
-42.92724609375
 30
0.0
 11
-664.177569827518
 21
-47.19929463154557
 31
0.0
  0
LINE
  5
1A9
330
1F
100
AcDbEntity
  8
通り芯
  6
Continuous
 62
     3
370
     9
100
AcDbLine
 10
-643.6922743513777
 20
-35.92723537135768
 30
0.0
 11
-647.9349394102354
 21
-35.92723537135768
 31
0.0
  0
LINE
  5
1AA
330
1F
100
AcDbEntity
  8
通り芯
  6
Continuous
 62
     3
370
     9
100
AcDbLine
 10
-642.1775714771167
 20
-42.92724609375
 30
0.0
 11
-642.1775714771167
 21
-38.6550738360431
 31
0.0
  0
LINE
  5
1AB
330
1F
100
AcDbEntity
  8
通り芯
  6
Continuous
 62
     3
370
     9
100
AcDbLine
 10
-658.1775871483055
 20
-41.92721805057005
 30
0.0
 11
-658.1775871483055
 21
-35.92723537135768
 31
0.0
  0
LINE
  5
1AC
330
1F
100
AcDbEntity
  8
通り芯
  6
Continuous
 62
     3
370
     9
100
AcDbLine
 10
-658.1775871483055
 20
-41.92721805057005
 30
0.0
 11
-652.1776044690931
 21
-35.92723537135768
 31
0.0
  0
LINE
  5
1AD
330
1F
100
AcDbEntity
  8
通り芯
  6
Continuous
 62
     3
370
     9
100
AcDbLine
 10
-658.1775871483055
 20
-35.92723537135768
 30
0.0
 11
-652.1776044690931
 21
-35.92723537135768
 31
0.0
  0
LINE
  5
1AE
330
1F
100
AcDbEntity
  8
通り芯
  6
Continuous
 62
     3
370
     9
100
AcDbLine
 10
-654.9349501326277
 20
-42.92724609375
 30
0.0
 11
-647.9349394102354
 21
-35.92723537135768
 31
0.0
  0
LINE
  5
1AF
330
1F
100
AcDbEntity
  8
通り芯
  6
Continuous
 62
     3
370
     9
100
AcDbLine
 10
-650.6922850737701
 20
-42.92724609375
 30
0.0
 11
-643.6922743513777
 21
-35.92723537135768
 31
0.0
  0
LINE
  5
1B0
330
1F
100
AcDbEntity
  8
通り芯
  6
Continuous
 62
     3
370
     9
100
AcDbLine
 10
-646.4496200149124
 20
-42.92724609375
 30
0.0
 11
-642.1775714771167
 21
-38.6550738360431
 31
0.0
  0
LINE
  5
1B1
330
1F
100
AcDbEntity
  8
通り芯
  6
Continuous
 62
     3
370
     9
100
AcDbLine
 10
-643.6922743513777
 20
-49.92719495618658
 30
0.0
 11
-647.9349394102354
 21
-49.92719495618658
 31
0.0
  0
LINE
  5
1B2
330
1F
100
AcDbEntity
  8
通り芯
  6
Continuous
 62
     3
370
     9
100
AcDbLine
 10
-642.1775714771167
 20
-42.92724609375
 30
0.0
 11
-642.1775714771167
 21
-47.19929463154557
 31
0.0
  0
LINE
  5
1B3
330
1F
100
AcDbEntity
  8
通り芯
  6
Continuous
 62
     3
370
     9
100
AcDbLine
 10
-658.1775871483055
 20
-43.92721227697422
 30
0.0
 11
-658.1775871483055
 21
-49.92719495618658
 31
0.0
  0
LINE
  5
1B4
330
1F
100
AcDbEntity
  8
通り芯
  6
Continuous
 62
     3
370
     9
100
AcDbLine
 10
-658.1775871483055
 20
-43.92721227697422
 30
0.0
 11
-652.1776044690931
 21
-49.92719495618658
 31
0.0
  0
LINE
  5
1B5
330
1F
100
AcDbEntity
  8
通り芯
  6
Continuous
 62
     3
370
     9
100
AcDbLine
 10
-658.1775871483055
 20
-49.92719495618658
 30
0.0
 11
-652.1776044690931
 21
-49.92719495618658
 31
0.0
  0
LINE
  5
1B6
330
1F
100
AcDbEntity
  8
通り芯
  6
Continuous
 62
     3
370
     9
100
AcDbLine
 10
-654.9349501326277
 20
-42.92724609375
 30
0.0
 11
-647.9349394102354
 21
-49.92719495618658
 31
0.0
  0
LINE
  5
1B7
330
1F
100
AcDbEntity
  8
通り芯
  6
Continuous
 62
     3
370
     9
100
AcDbLine
 10
-650.6922850737701
 20
-42.92724609375
 30
0.0
 11
-643.6922743513777
 21
-49.92719495618658
 31
0.0
  0
LINE
  5
1B8
330
1F
100
AcDbEntity
  8
通り芯
  6
Continuous
 62
     3
370
     9
100
AcDbLine
 10
-646.4496200149124
 20
-42.92724609375
 30
0.0
 11
-642.1775714771167
 21
-47.19929463154557
 31
0.0
  0
LINE
  5
1B9
330
1F
100
AcDbEntity
  8
通り芯
  6
Continuous
 62
     3
370
     9
100
AcDbLine
 10
-621.6922760009766
 20
-35.92723537135768
 30
0.0
 11
-625.9349410598343
 21
-35.92723537135768
 31
0.0
  0
LINE
  5
1BA
330
1F
100
AcDbEntity
  8
通り芯
  6
Continuous
 62
     3
370
     9
100
AcDbLine
 10
-620.1775731267155
 20
-42.92724609375
 30
0.0
 11
-620.1775731267155
 21
-38.6550738360431
 31
0.0
  0
LINE
  5
1BB
330
1F
100
AcDbEntity
  8
通り芯
  6
Continuous
 62
     3
370
     9
100
AcDbLine
 10
-636.1775887979043
 20
-41.92721805057005
 30
0.0
 11
-636.1775887979043
 21
-35.92723537135768
 31
0.0
  0
LINE
  5
1BC
330
1F
100
AcDbEntity
  8
通り芯
  6
Continuous
 62
     3
370
     9
100
AcDbLine
 10
-636.1775887979043
 20
-41.92721805057005
 30
0.0
 11
-630.177606118692
 21
-35.92723537135768
 31
0.0
  0
LINE
  5
1BD
330
1F
100
AcDbEntity
  8
通り芯
  6
Continuous
 62
     3
370
     9
100
AcDbLine
 10
-636.1775887979043
 20
-35.92723537135768
 30
0.0
 11
-630.177606118692
 21
-35.92723537135768
 31
0.0
  0
LINE
  5
1BE
330
1F
100
AcDbEntity
  8
通り芯
  6
Continuous
 62
     3
370
     9
100
AcDbLine
 10
-632.9348899222709
 20
-42.92724609375
 30
0.0
 11
-625.9349410598343
 21
-35.92723537135768
 31
0.0
  0
LINE
  5
1BF
330
1F
100
AcDbEntity
  8
通り芯
  6
Continuous
 62
     3
370
     9
100
AcDbLine
 10
-628.6922867233689
 20
-42.92724609375
 30
0.0
 11
-621.6922760009766
 21
-35.92723537135768
 31
0.0
  0
LINE
  5
1C0
330
1F
100
AcDbEntity
  8
通り芯
  6
Continuous
 62
     3
370
     9
100
AcDbLine
 10
-624.4496216645111
 20
-42.92724609375
 30
0.0
 11
-620.1775731267155
 21
-38.6550738360431
 31
0.0
  0
LINE
  5
1C1
330
1F
100
AcDbEntity
  8
通り芯
  6
Continuous
 62
     3
370
     9
100
AcDbLine
 10
-621.6922760009766
 20
-49.92719495618658
 30
0.0
 11
-625.9349410598343
 21
-49.92719495618658
 31
0.0
  0
LINE
  5
1C2
330
1F
100
AcDbEntity
  8
通り芯
  6
Continuous
 62
     3
370
     9
100
AcDbLine
 10
-620.1775731267155
 20
-42.92724609375
 30
0.0
 11
-620.1775731267155
 21
-47.19929463154557
 31
0.0
  0
LINE
  5
1C3
330
1F
100
AcDbEntity
  8
通り芯
  6
Continuous
 62
     3
370
     9
100
AcDbLine
 10
-636.1775887979043
 20
-43.92721227697422
 30
0.0
 11
-636.1775887979043
 21
-49.92719495618658
 31
0.0
  0
LINE
  5
1C4
330
1F
100
AcDbEntity
  8
通り芯
  6
Continuous
 62
     3
370
     9
100
AcDbLine
 10
-636.1775887979043
 20
-43.92721227697422
 30
0.0
 11
-630.177606118692
 21
-49.92719495618658
 31
0.0
  0
LINE
  5
1C5
330
1F
100
AcDbEntity
  8
通り芯
  6
Continuous
 62
     3
370
     9
100
AcDbLine
 10
-636.1775887979043
 20
-49.92719495618658
 30
0.0
 11
-630.177606118692
 21
-49.92719495618658
 31
0.0
  0
LINE
  5
1C6
330
1F
100
AcDbEntity
  8
通り芯
  6
Continuous
 62
     3
370
     9
100
AcDbLine
 10
-632.9348899222709
 20
-42.92724609375
 30
0.0
 11
-625.9349410598343
 21
-49.92719495618658
 31
0.0
  0
LINE
  5
1C7
330
1F
100
AcDbEntity
  8
通り芯
  6
Continuous
 62
     3
370
     9
100
AcDbLine
 10
-628.6922867233689
 20
-42.92724609375
 30
0.0
 11
-621.6922760009766
 21
-49.92719495618658
 31
0.0
  0
LINE
  5
1C8
330
1F
100
AcDbEntity
  8
通り芯
  6
Continuous
 62
     3
370
     9
100
AcDbLine
 10
-624.4496216645111
 20
-42.92724609375
 30
0.0
 11
-620.1775731267155
 21
-47.19929463154557
 31
0.0
  0
LINE
  5
1C9
330
1F
100
AcDbEntity
  8
通り芯
  6
Continuous
 62
     3
370
     9
100
AcDbLine
 10
-709.6923003325592
 20
20.07278854782527
 30
0.0
 11
-713.934934461439
 21
20.07278854782527
 31
0.0
  0
LINE
  5
1CA
330
1F
100
AcDbEntity
  8
通り芯
  6
Continuous
 62
     3
370
     9
100
AcDbLine
 10
-708.1775665283203
 20
13.07283968538854
 30
0.0
 11
-708.1775665283203
 21
17.34488822318411
 31
0.0
  0
LINE
  5
1CB
330
1F
100
AcDbEntity
  8
通り芯
  6
Continuous
 62
     3
370
     9
100
AcDbLine
 10
-724.1775821995091
 20
14.07274400865717
 30
0.0
 11
-724.1775821995091
 21
20.07278854782527
 31
0.0
  0
LINE
  5
1CC
330
1F
100
AcDbEntity
  8
通り芯
  6
Continuous
 62
     3
370
     9
100
AcDbLine
 10
-724.1775821995091
 20
14.07274400865717
 30
0.0
 11
-718.1775995202966
 21
20.07278854782527
 31
0.0
  0
LINE
  5
1CD
330
1F
100
AcDbEntity
  8
通り芯
  6
Continuous
 62
     3
370
     9
100
AcDbLine
 10
-724.1775821995091
 20
20.07278854782527
 30
0.0
 11
-718.1775995202966
 21
20.07278854782527
 31
0.0
  0
LINE
  5
1CE
330
1F
100
AcDbEntity
  8
通り芯
  6
Continuous
 62
     3
370
     9
100
AcDbLine
 10
-720.9349142538533
 20
13.07283968538854
 30
0.0
 11
-713.934934461439
 21
20.07278854782527
 31
0.0
  0
LINE
  5
1CF
330
1F
100
AcDbEntity
  8
通り芯
  6
Continuous
 62
     3
370
     9
100
AcDbLine
 10
-716.6922801249735
 20
13.07283968538854
 30
0.0
 11
-709.6923003325592
 21
20.07278854782527
 31
0.0
  0
LINE
  5
1D0
330
1F
100
AcDbEntity
  8
通り芯
  6
Continuous
 62
     3
370
     9
100
AcDbLine
 10
-712.4496459960938
 20
13.07283968538854
 30
0.0
 11
-708.1775665283203
 21
17.34488822318411
 31
0.0
  0
LINE
  5
1D1
330
1F
100
AcDbEntity
  8
通り芯
  6
Continuous
 62
     3
370
     9
100
AcDbLine
 10
-709.6923003325592
 20
6.072767103040633
 30
0.0
 11
-713.934934461439
 21
6.072767103040633
 31
0.0
  0
LINE
  5
1D2
330
1F
100
AcDbEntity
  8
通り芯
  6
Continuous
 62
     3
370
     9
100
AcDbLine
 10
-708.1775665283203
 20
13.07283968538854
 30
0.0
 11
-708.1775665283203
 21
8.800791147592975
 31
0.0
  0
LINE
  5
1D3
330
1F
100
AcDbEntity
  8
通り芯
  6
Continuous
 62
     3
370
     9
100
AcDbLine
 10
-724.1775821995091
 20
12.07281164220859
 30
0.0
 11
-724.1775821995091
 21
6.072767103040633
 31
0.0
  0
LINE
  5
1D4
330
1F
100
AcDbEntity
  8
通り芯
  6
Continuous
 62
     3
370
     9
100
AcDbLine
 10
-724.1775821995091
 20
12.07281164220859
 30
0.0
 11
-718.1775995202966
 21
6.072767103040633
 31
0.0
  0
LINE
  5
1D5
330
1F
100
AcDbEntity
  8
通り芯
  6
Continuous
 62
     3
370
     9
100
AcDbLine
 10
-724.1775821995091
 20
6.072767103040633
 30
0.0
 11
-718.1775995202966
 21
6.072767103040633
 31
0.0
  0
LINE
  5
1D6
330
1F
100
AcDbEntity
  8
通り芯
  6
Continuous
 62
     3
370
     9
100
AcDbLine
 10
-720.9349142538533
 20
13.07283968538854
 30
0.0
 11
-713.934934461439
 21
6.072767103040633
 31
0.0
  0
LINE
  5
1D7
330
1F
100
AcDbEntity
  8
通り芯
  6
Continuous
 62
     3
370
     9
100
AcDbLine
 10
-716.6922801249735
 20
13.07283968538854
 30
0.0
 11
-709.6923003325592
 21
6.072767103040633
 31
0.0
  0
LINE
  5
1D8
330
1F
100
AcDbEntity
  8
通り芯
  6
Continuous
 62
     3
370
     9
100
AcDbLine
 10
-712.4496459960938
 20
13.07283968538854
 30
0.0
 11
-708.1775665283203
 21
8.800791147592975
 31
0.0
  0
LINE
  5
1D9
330
1F
100
AcDbEntity
  8
通り芯
  6
Continuous
 62
     3
370
     9
100
AcDbLine
 10
-687.6923329121357
 20
20.07278854782527
 30
0.0
 11
-691.9349361110378
 21
20.07278854782527
 31
0.0
  0
LINE
  5
1DA
330
1F
100
AcDbEntity
  8
通り芯
  6
Continuous
 62
     3
370
     9
100
AcDbLine
 10
-686.1775681779192
 20
13.07283968538854
 30
0.0
 11
-686.1775681779192
 21
17.34488822318411
 31
0.0
  0
LINE
  5
1DB
330
1F
100
AcDbEntity
  8
通り芯
  6
Continuous
 62
     3
370
     9
100
AcDbLine
 10
-702.1775838491078
 20
14.07274400865717
 30
0.0
 11
-702.1775838491078
 21
20.07278854782527
 31
0.0
  0
LINE
  5
1DC
330
1F
100
AcDbEntity
  8
通り芯
  6
Continuous
 62
     3
370
     9
100
AcDbLine
 10
-702.1775838491078
 20
14.07274400865717
 30
0.0
 11
-696.1776011698954
 21
20.07278854782527
 31
0.0
  0
LINE
  5
1DD
330
1F
100
AcDbEntity
  8
通り芯
  6
Continuous
 62
     3
370
     9
100
AcDbLine
 10
-702.1775838491078
 20
20.07278854782527
 30
0.0
 11
-696.1776011698954
 21
20.07278854782527
 31
0.0
  0
LINE
  5
1DE
330
1F
100
AcDbEntity
  8
通り芯
  6
Continuous
 62
     3
370
     9
100
AcDbLine
 10
-698.9349159034523
 20
13.07283968538854
 30
0.0
 11
-691.9349361110378
 21
20.07278854782527
 31
0.0
  0
LINE
  5
1DF
330
1F
100
AcDbEntity
  8
通り芯
  6
Continuous
 62
     3
370
     9
100
AcDbLine
 10
-694.6922817745724
 20
13.07283968538854
 30
0.0
 11
-687.6923329121357
 21
20.07278854782527
 31
0.0
  0
LINE
  5
1E0
330
1F
100
AcDbEntity
  8
通り芯
  6
Continuous
 62
     3
370
     9
100
AcDbLine
 10
-690.4496476456926
 20
13.07283968538854
 30
0.0
 11
-686.1775681779192
 21
17.34488822318411
 31
0.0
  0
LINE
  5
1E1
330
1F
100
AcDbEntity
  8
通り芯
  6
Continuous
 62
     3
370
     9
100
AcDbLine
 10
-687.6923329121357
 20
6.072767103040633
 30
0.0
 11
-691.9349361110378
 21
6.072767103040633
 31
0.0
  0
LINE
  5
1E2
330
1F
100
AcDbEntity
  8
通り芯
  6
Continuous
 62
     3
370
     9
100
AcDbLine
 10
-686.1775681779192
 20
13.07283968538854
 30
0.0
 11
-686.1775681779192
 21
8.800791147592975
 31
0.0
  0
LINE
  5
1E3
330
1F
100
AcDbEntity
  8
通り芯
  6
Continuous
 62
     3
370
     9
100
AcDbLine
 10
-702.1775838491078
 20
12.07281164220859
 30
0.0
 11
-702.1775838491078
 21
6.072767103040633
 31
0.0
  0
LINE
  5
1E4
330
1F
100
AcDbEntity
  8
通り芯
  6
Continuous
 62
     3
370
     9
100
AcDbLine
 10
-702.1775838491078
 20
12.07281164220859
 30
0.0
 11
-696.1776011698954
 21
6.072767103040633
 31
0.0
  0
LINE
  5
1E5
330
1F
100
AcDbEntity
  8
通り芯
  6
Continuous
 62
     3
370
     9
100
AcDbLine
 10
-702.1775838491078
 20
6.072767103040633
 30
0.0
 11
-696.1776011698954
 21
6.072767103040633
 31
0.0
  0
LINE
  5
1E6
330
1F
100
AcDbEntity
  8
通り芯
  6
Continuous
 62
     3
370
     9
100
AcDbLine
 10
-698.9349159034523
 20
13.07283968538854
 30
0.0
 11
-691.9349361110378
 21
6.072767103040633
 31
0.0
  0
LINE
  5
1E7
330
1F
100
AcDbEntity
  8
通り芯
  6
Continuous
 62
     3
370
     9
100
AcDbLine
 10
-694.6922817745724
 20
13.07283968538854
 30
0.0
 11
-687.6923329121357
 21
6.072767103040633
 31
0.0
  0
LINE
  5
1E8
330
1F
100
AcDbEntity
  8
通り芯
  6
Continuous
 62
     3
370
     9
100
AcDbLine
 10
-690.4496476456926
 20
13.07283968538854
 30
0.0
 11
-686.1775681779192
 21
8.800791147592975
 31
0.0
  0
LINE
  5
1E9
330
1F
100
AcDbEntity
  8
通り芯
  6
Continuous
 62
     3
370
     9
100
AcDbLine
 10
-665.6922727017788
 20
20.07278854782527
 30
0.0
 11
-669.9349377606366
 21
20.07278854782527
 31
0.0
  0
LINE
  5
1EA
330
1F
100
AcDbEntity
  8
通り芯
  6
Continuous
 62
     3
370
     9
100
AcDbLine
 10
-664.177569827518
 20
13.07283968538854
 30
0.0
 11
-664.177569827518
 21
17.34488822318411
 31
0.0
  0
LINE
  5
1EB
330
1F
100
AcDbEntity
  8
通り芯
  6
Continuous
 62
     3
370
     9
100
AcDbLine
 10
-680.1775854987068
 20
14.07274400865717
 30
0.0
 11
-680.1775854987068
 21
20.07278854782527
 31
0.0
  0
LINE
  5
1EC
330
1F
100
AcDbEntity
  8
通り芯
  6
Continuous
 62
     3
370
     9
100
AcDbLine
 10
-680.1775854987068
 20
14.07274400865717
 30
0.0
 11
-674.1776028194943
 21
20.07278854782527
 31
0.0
  0
LINE
  5
1ED
330
1F
100
AcDbEntity
  8
通り芯
  6
Continuous
 62
     3
370
     9
100
AcDbLine
 10
-680.1775854987068
 20
20.07278854782527
 30
0.0
 11
-674.1776028194943
 21
20.07278854782527
 31
0.0
  0
LINE
  5
1EE
330
1F
100
AcDbEntity
  8
通り芯
  6
Continuous
 62
     3
370
     9
100
AcDbLine
 10
-676.934917553051
 20
13.07283968538854
 30
0.0
 11
-669.9349377606366
 21
20.07278854782527
 31
0.0
  0
LINE
  5
1EF
330
1F
100
AcDbEntity
  8
通り芯
  6
Continuous
 62
     3
370
     9
100
AcDbLine
 10
-672.6922834241713
 20
13.07283968538854
 30
0.0
 11
-665.6922727017788
 21
20.07278854782527
 31
0.0
  0
LINE
  5
1F0
330
1F
100
AcDbEntity
  8
通り芯
  6
Continuous
 62
     3
370
     9
100
AcDbLine
 10
-668.4496183653135
 20
13.07283968538854
 30
0.0
 11
-664.177569827518
 21
17.34488822318411
 31
0.0
  0
LINE
  5
1F1
330
1F
100
AcDbEntity
  8
通り芯
  6
Continuous
 62
     3
370
     9
100
AcDbLine
 10
-665.6922727017788
 20
6.072767103040633
 30
0.0
 11
-669.9349377606366
 21
6.072767103040633
 31
0.0
  0
LINE
  5
1F2
330
1F
100
AcDbEntity
  8
通り芯
  6
Continuous
 62
     3
370
     9
100
AcDbLine
 10
-664.177569827518
 20
13.07283968538854
 30
0.0
 11
-664.177569827518
 21
8.800791147592975
 31
0.0
  0
LINE
  5
1F3
330
1F
100
AcDbEntity
  8
通り芯
  6
Continuous
 62
     3
370
     9
100
AcDbLine
 10
-680.1775854987068
 20
12.07281164220859
 30
0.0
 11
-680.1775854987068
 21
6.072767103040633
 31
0.0
  0
LINE
  5
1F4
330
1F
100
AcDbEntity
  8
通り芯
  6
Continuous
 62
     3
370
     9
100
AcDbLine
 10
-680.1775854987068
 20
12.07281164220859
 30
0.0
 11
-674.1776028194943
 21
6.072767103040633
 31
0.0
  0
LINE
  5
1F5
330
1F
100
AcDbEntity
  8
通り芯
  6
Continuous
 62
     3
370
     9
100
AcDbLine
 10
-680.1775854987068
 20
6.072767103040633
 30
0.0
 11
-674.1776028194943
 21
6.072767103040633
 31
0.0
  0
LINE
  5
1F6
330
1F
100
AcDbEntity
  8
通り芯
  6
Continuous
 62
     3
370
     9
100
AcDbLine
 10
-676.934917553051
 20
13.07283968538854
 30
0.0
 11
-669.9349377606366
 21
6.072767103040633
 31
0.0
  0
LINE
  5
1F7
330
1F
100
AcDbEntity
  8
通り芯
  6
Continuous
 62
     3
370
     9
100
AcDbLine
 10
-672.6922834241713
 20
13.07283968538854
 30
0.0
 11
-665.6922727017788
 21
6.072767103040633
 31
0.0
  0
LINE
  5
1F8
330
1F
100
AcDbEntity
  8
通り芯
  6
Continuous
 62
     3
370
     9
100
AcDbLine
 10
-668.4496183653135
 20
13.07283968538854
 30
0.0
 11
-664.177569827518
 21
8.800791147592975
 31
0.0
  0
LINE
  5
1F9
330
1F
100
AcDbEntity
  8
通り芯
  6
Continuous
 62
     3
370
     9
100
AcDbLine
 10
-709.6923003325592
 20
76.07275060705234
 30
0.0
 11
-713.934934461439
 21
76.07275060705234
 31
0.0
  0
LINE
  5
1FA
330
1F
100
AcDbEntity
  8
通り芯
  6
Continuous
 62
     3
370
     9
100
AcDbLine
 10
-708.1775665283203
 20
69.07267802470443
 30
0.0
 11
-708.1775665283203
 21
73.34497400232266
 31
0.0
  0
LINE
  5
1FB
330
1F
100
AcDbEntity
  8
通り芯
  6
Continuous
 62
     3
370
     9
100
AcDbLine
 10
-724.1775821995091
 20
70.07282978779571
 30
0.0
 11
-724.1775821995091
 21
76.07275060705234
 31
0.0
  0
LINE
  5
1FC
330
1F
100
AcDbEntity
  8
通り芯
  6
Continuous
 62
     3
370
     9
100
AcDbLine
 10
-724.1775821995091
 20
70.07282978779571
 30
0.0
 11
-718.1775995202966
 21
76.07275060705234
 31
0.0
  0
LINE
  5
1FD
330
1F
100
AcDbEntity
  8
通り芯
  6
Continuous
 62
     3
370
     9
100
AcDbLine
 10
-724.1775821995091
 20
76.07275060705234
 30
0.0
 11
-718.1775995202966
 21
76.07275060705234
 31
0.0
  0
LINE
  5
1FE
330
1F
100
AcDbEntity
  8
通り芯
  6
Continuous
 62
     3
370
     9
100
AcDbLine
 10
-720.9349142538533
 20
69.07267802470443
 30
0.0
 11
-713.934934461439
 21
76.07275060705234
 31
0.0
  0
LINE
  5
1FF
330
1F
100
AcDbEntity
  8
通り芯
  6
Continuous
 62
     3
370
     9
100
AcDbLine
 10
-716.6922801249735
 20
69.07267802470443
 30
0.0
 11
-709.6923003325592
 21
76.07275060705234
 31
0.0
  0
LINE
  5
200
330
1F
100
AcDbEntity
  8
通り芯
  6
Continuous
 62
     3
370
     9
100
AcDbLine
 10
-712.4496459960938
 20
69.07267802470443
 30
0.0
 11
-708.1775665283203
 21
73.34497400232266
 31
0.0
  0
LINE
  5
201
330
1F
100
AcDbEntity
  8
通り芯
  6
Continuous
 62
     3
370
     9
100
AcDbLine
 10
-709.6923003325592
 20
62.07285288217903
 30
0.0
 11
-713.934934461439
 21
62.07285288217903
 31
0.0
  0
LINE
  5
202
330
1F
100
AcDbEntity
  8
通り芯
  6
Continuous
 62
     3
370
     9
100
AcDbLine
 10
-708.1775665283203
 20
69.07267802470443
 30
0.0
 11
-708.1775665283203
 21
64.80062948690886
 31
0.0
  0
LINE
  5
203
330
1F
100
AcDbEntity
  8
通り芯
  6
Continuous
 62
     3
370
     9
100
AcDbLine
 10
-724.1775821995091
 20
68.0727737014358
 30
0.0
 11
-724.1775821995091
 21
62.07285288217903
 31
0.0
  0
LINE
  5
204
330
1F
100
AcDbEntity
  8
通り芯
  6
Continuous
 62
     3
370
     9
100
AcDbLine
 10
-724.1775821995091
 20
68.0727737014358
 30
0.0
 11
-718.1775995202966
 21
62.07285288217903
 31
0.0
  0
LINE
  5
205
330
1F
100
AcDbEntity
  8
通り芯
  6
Continuous
 62
     3
370
     9
100
AcDbLine
 10
-724.1775821995091
 20
62.07285288217903
 30
0.0
 11
-718.1775995202966
 21
62.07285288217903
 31
0.0
  0
LINE
  5
206
330
1F
100
AcDbEntity
  8
通り芯
  6
Continuous
 62
     3
370
     9
100
AcDbLine
 10
-720.9349142538533
 20
69.07267802470443
 30
0.0
 11
-713.934934461439
 21
62.07285288217903
 31
0.0
  0
LINE
  5
207
330
1F
100
AcDbEntity
  8
通り芯
  6
Continuous
 62
     3
370
     9
100
AcDbLine
 10
-716.6922801249735
 20
69.07267802470443
 30
0.0
 11
-709.6923003325592
 21
62.07285288217903
 31
0.0
  0
LINE
  5
208
330
1F
100
AcDbEntity
  8
通り芯
  6
Continuous
 62
     3
370
     9
100
AcDbLine
 10
-712.4496459960938
 20
69.07267802470443
 30
0.0
 11
-708.1775665283203
 21
64.80062948690886
 31
0.0
  0
LINE
  5
209
330
1F
100
AcDbEntity
  8
通り芯
  6
Continuous
 62
     3
370
     9
100
AcDbLine
 10
-718.4202142663903
 20
-7.927130621832674
 30
0.0
 11
-722.6628793252482
 21
-7.927130621832674
 31
0.0
  0
LINE
  5
20A
330
1F
100
AcDbEntity
  8
通り芯
  6
Continuous
 62
     3
370
     9
100
AcDbLine
 10
-714.1775801375105
 20
-7.927130621832674
 30
0.0
 11
-708.1775665283203
 21
-7.927130621832674
 31
0.0
  0
LINE
  5
20B
330
1F
100
AcDbEntity
  8
通り芯
  6
Continuous
 62
     3
370
     9
100
AcDbLine
 10
-714.1775801375105
 20
-7.927130621832674
 30
0.0
 11
-708.1775665283203
 21
-13.92717516100078
 31
0.0
  0
LINE
  5
20C
330
1F
100
AcDbEntity
  8
通り芯
  6
Continuous
 62
     3
370
     9
100
AcDbLine
 10
-708.1775665283203
 20
-13.92717516100078
 30
0.0
 11
-708.1775665283203
 21
-7.927130621832674
 31
0.0
  0
LINE
  5
20D
330
1F
100
AcDbEntity
  8
通り芯
  6
Continuous
 62
     3
370
     9
100
AcDbLine
 10
-724.1775821995091
 20
-14.92720320418073
 30
0.0
 11
-724.1775821995091
 21
-10.65515466638516
 31
0.0
  0
LINE
  5
20E
330
1F
100
AcDbEntity
  8
通り芯
  6
Continuous
 62
     3
370
     9
100
AcDbLine
 10
-724.1775821995091
 20
-10.65515466638516
 30
0.0
 11
-719.9055336617135
 21
-14.92720320418073
 31
0.0
  0
LINE
  5
20F
330
1F
100
AcDbEntity
  8
通り芯
  6
Continuous
 62
     3
370
     9
100
AcDbLine
 10
-722.6628793252482
 20
-7.927130621832674
 30
0.0
 11
-715.6628686028557
 21
-14.92720320418073
 31
0.0
  0
LINE
  5
210
330
1F
100
AcDbEntity
  8
通り芯
  6
Continuous
 62
     3
370
     9
100
AcDbLine
 10
-718.4202142663903
 20
-7.927130621832674
 30
0.0
 11
-711.4202654039536
 21
-14.92720320418073
 31
0.0
  0
LINE
  5
211
330
1F
100
AcDbEntity
  8
通り芯
  6
Continuous
 62
     3
370
     9
100
AcDbLine
 10
-718.4202142663903
 20
-21.92715206661731
 30
0.0
 11
-722.6628793252482
 21
-21.92715206661731
 31
0.0
  0
LINE
  5
212
330
1F
100
AcDbEntity
  8
通り芯
  6
Continuous
 62
     3
370
     9
100
AcDbLine
 10
-714.1775801375105
 20
-21.92715206661731
 30
0.0
 11
-708.1775665283203
 21
-21.92715206661731
 31
0.0
  0
LINE
  5
213
330
1F
100
AcDbEntity
  8
通り芯
  6
Continuous
 62
     3
370
     9
100
AcDbLine
 10
-714.1775801375105
 20
-21.92715206661731
 30
0.0
 11
-708.1775665283203
 21
-15.92710752744935
 31
0.0
  0
LINE
  5
214
330
1F
100
AcDbEntity
  8
通り芯
  6
Continuous
 62
     3
370
     9
100
AcDbLine
 10
-708.1775665283203
 20
-15.92710752744935
 30
0.0
 11
-708.1775665283203
 21
-21.92715206661731
 31
0.0
  0
LINE
  5
215
330
1F
100
AcDbEntity
  8
通り芯
  6
Continuous
 62
     3
370
     9
100
AcDbLine
 10
-724.1775821995091
 20
-14.92720320418073
 30
0.0
 11
-724.1775821995091
 21
-19.1992517419763
 31
0.0
  0
LINE
  5
216
330
1F
100
AcDbEntity
  8
通り芯
  6
Continuous
 62
     3
370
     9
100
AcDbLine
 10
-724.1775821995091
 20
-19.1992517419763
 30
0.0
 11
-719.9055336617135
 21
-14.92720320418073
 31
0.0
  0
LINE
  5
217
330
1F
100
AcDbEntity
  8
通り芯
  6
Continuous
 62
     3
370
     9
100
AcDbLine
 10
-722.6628793252482
 20
-21.92715206661731
 30
0.0
 11
-715.6628686028557
 21
-14.92720320418073
 31
0.0
  0
LINE
  5
218
330
1F
100
AcDbEntity
  8
通り芯
  6
Continuous
 62
     3
370
     9
100
AcDbLine
 10
-718.4202142663903
 20
-21.92715206661731
 30
0.0
 11
-711.4202654039536
 21
-14.92720320418073
 31
0.0
  0
LINE
  5
219
330
1F
100
AcDbEntity
  8
通り芯
  6
Continuous
 62
     3
370
     9
100
AcDbLine
 10
-696.4202159159892
 20
-7.927130621832674
 30
0.0
 11
-700.6628809748469
 21
-7.927130621832674
 31
0.0
  0
LINE
  5
21A
330
1F
100
AcDbEntity
  8
通り芯
  6
Continuous
 62
     3
370
     9
100
AcDbLine
 10
-692.1775817871094
 20
-7.927130621832674
 30
0.0
 11
-686.1775681779192
 21
-7.927130621832674
 31
0.0
  0
LINE
  5
21B
330
1F
100
AcDbEntity
  8
通り芯
  6
Continuous
 62
     3
370
     9
100
AcDbLine
 10
-692.1775817871094
 20
-7.927130621832674
 30
0.0
 11
-686.1775681779192
 21
-13.92717516100078
 31
0.0
  0
LINE
  5
21C
330
1F
100
AcDbEntity
  8
通り芯
  6
Continuous
 62
     3
370
     9
100
AcDbLine
 10
-686.1775681779192
 20
-13.92717516100078
 30
0.0
 11
-686.1775681779192
 21
-7.927130621832674
 31
0.0
  0
LINE
  5
21D
330
1F
100
AcDbEntity
  8
通り芯
  6
Continuous
 62
     3
370
     9
100
AcDbLine
 10
-702.1775838491078
 20
-14.92720320418073
 30
0.0
 11
-702.1775838491078
 21
-10.65515466638516
 31
0.0
  0
LINE
  5
21E
330
1F
100
AcDbEntity
  8
通り芯
  6
Continuous
 62
     3
370
     9
100
AcDbLine
 10
-702.1775838491078
 20
-10.65515466638516
 30
0.0
 11
-697.9055353113122
 21
-14.92720320418073
 31
0.0
  0
LINE
  5
21F
330
1F
100
AcDbEntity
  8
通り芯
  6
Continuous
 62
     3
370
     9
100
AcDbLine
 10
-700.6628809748469
 20
-7.927130621832674
 30
0.0
 11
-693.6628702524546
 21
-14.92720320418073
 31
0.0
  0
LINE
  5
220
330
1F
100
AcDbEntity
  8
通り芯
  6
Continuous
 62
     3
370
     9
100
AcDbLine
 10
-696.4202159159892
 20
-7.927130621832674
 30
0.0
 11
-689.4202670535526
 21
-14.92720320418073
 31
0.0
  0
LINE
  5
221
330
1F
100
AcDbEntity
  8
通り芯
  6
Continuous
 62
     3
370
     9
100
AcDbLine
 10
-696.4202159159892
 20
-21.92715206661731
 30
0.0
 11
-700.6628809748469
 21
-21.92715206661731
 31
0.0
  0
LINE
  5
222
330
1F
100
AcDbEntity
  8
通り芯
  6
Continuous
 62
     3
370
     9
100
AcDbLine
 10
-692.1775817871094
 20
-21.92715206661731
 30
0.0
 11
-686.1775681779192
 21
-21.92715206661731
 31
0.0
  0
LINE
  5
223
330
1F
100
AcDbEntity
  8
通り芯
  6
Continuous
 62
     3
370
     9
100
AcDbLine
 10
-692.1775817871094
 20
-21.92715206661731
 30
0.0
 11
-686.1775681779192
 21
-15.92710752744935
 31
0.0
  0
LINE
  5
224
330
1F
100
AcDbEntity
  8
通り芯
  6
Continuous
 62
     3
370
     9
100
AcDbLine
 10
-686.1775681779192
 20
-15.92710752744935
 30
0.0
 11
-686.1775681779192
 21
-21.92715206661731
 31
0.0
  0
LINE
  5
225
330
1F
100
AcDbEntity
  8
通り芯
  6
Continuous
 62
     3
370
     9
100
AcDbLine
 10
-702.1775838491078
 20
-14.92720320418073
 30
0.0
 11
-702.1775838491078
 21
-19.1992517419763
 31
0.0
  0
LINE
  5
226
330
1F
100
AcDbEntity
  8
通り芯
  6
Continuous
 62
     3
370
     9
100
AcDbLine
 10
-702.1775838491078
 20
-19.1992517419763
 30
0.0
 11
-697.9055353113122
 21
-14.92720320418073
 31
0.0
  0
LINE
  5
227
330
1F
100
AcDbEntity
  8
通り芯
  6
Continuous
 62
     3
370
     9
100
AcDbLine
 10
-700.6628809748469
 20
-21.92715206661731
 30
0.0
 11
-693.6628702524546
 21
-14.92720320418073
 31
0.0
  0
LINE
  5
228
330
1F
100
AcDbEntity
  8
通り芯
  6
Continuous
 62
     3
370
     9
100
AcDbLine
 10
-696.4202159159892
 20
-21.92715206661731
 30
0.0
 11
-689.4202670535526
 21
-14.92720320418073
 31
0.0
  0
LINE
  5
229
330
1F
100
AcDbEntity
  8
通り芯
  6
Continuous
 62
     3
370
     9
100
AcDbLine
 10
-674.420217565588
 20
-7.927130621832674
 30
0.0
 11
-678.6628516944679
 21
-7.927130621832674
 31
0.0
  0
LINE
  5
22A
330
1F
100
AcDbEntity
  8
通り芯
  6
Continuous
 62
     3
370
     9
100
AcDbLine
 10
-670.1775525067303
 20
-7.927130621832674
 30
0.0
 11
-664.177569827518
 21
-7.927130621832674
 31
0.0
  0
LINE
  5
22B
330
1F
100
AcDbEntity
  8
通り芯
  6
Continuous
 62
     3
370
     9
100
AcDbLine
 10
-670.1775525067303
 20
-7.927130621832674
 30
0.0
 11
-664.177569827518
 21
-13.92717516100078
 31
0.0
  0
LINE
  5
22C
330
1F
100
AcDbEntity
  8
通り芯
  6
Continuous
 62
     3
370
     9
100
AcDbLine
 10
-664.177569827518
 20
-13.92717516100078
 30
0.0
 11
-664.177569827518
 21
-7.927130621832674
 31
0.0
  0
LINE
  5
22D
330
1F
100
AcDbEntity
  8
通り芯
  6
Continuous
 62
     3
370
     9
100
AcDbLine
 10
-680.1775854987068
 20
-14.92720320418073
 30
0.0
 11
-680.1775854987068
 21
-10.65515466638516
 31
0.0
  0
LINE
  5
22E
330
1F
100
AcDbEntity
  8
通り芯
  6
Continuous
 62
     3
370
     9
100
AcDbLine
 10
-680.1775854987068
 20
-10.65515466638516
 30
0.0
 11
-675.905536960911
 21
-14.92720320418073
 31
0.0
  0
LINE
  5
22F
330
1F
100
AcDbEntity
  8
通り芯
  6
Continuous
 62
     3
370
     9
100
AcDbLine
 10
-678.6628516944679
 20
-7.927130621832674
 30
0.0
 11
-671.6628719020534
 21
-14.92720320418073
 31
0.0
  0
LINE
  5
230
330
1F
100
AcDbEntity
  8
通り芯
  6
Continuous
 62
     3
370
     9
100
AcDbLine
 10
-674.420217565588
 20
-7.927130621832674
 30
0.0
 11
-667.4202687031514
 21
-14.92720320418073
 31
0.0
  0
LINE
  5
231
330
1F
100
AcDbEntity
  8
通り芯
  6
Continuous
 62
     3
370
     9
100
AcDbLine
 10
-674.420217565588
 20
-21.92715206661731
 30
0.0
 11
-678.6628516944679
 21
-21.92715206661731
 31
0.0
  0
LINE
  5
232
330
1F
100
AcDbEntity
  8
通り芯
  6
Continuous
 62
     3
370
     9
100
AcDbLine
 10
-670.1775525067303
 20
-21.92715206661731
 30
0.0
 11
-664.177569827518
 21
-21.92715206661731
 31
0.0
  0
LINE
  5
233
330
1F
100
AcDbEntity
  8
通り芯
  6
Continuous
 62
     3
370
     9
100
AcDbLine
 10
-670.1775525067303
 20
-21.92715206661731
 30
0.0
 11
-664.177569827518
 21
-15.92710752744935
 31
0.0
  0
LINE
  5
234
330
1F
100
AcDbEntity
  8
通り芯
  6
Continuous
 62
     3
370
     9
100
AcDbLine
 10
-664.177569827518
 20
-15.92710752744935
 30
0.0
 11
-664.177569827518
 21
-21.92715206661731
 31
0.0
  0
LINE
  5
235
330
1F
100
AcDbEntity
  8
通り芯
  6
Continuous
 62
     3
370
     9
100
AcDbLine
 10
-680.1775854987068
 20
-14.92720320418073
 30
0.0
 11
-680.1775854987068
 21
-19.1992517419763
 31
0.0
  0
LINE
  5
236
330
1F
100
AcDbEntity
  8
通り芯
  6
Continuous
 62
     3
370
     9
100
AcDbLine
 10
-680.1775854987068
 20
-19.1992517419763
 30
0.0
 11
-675.905536960911
 21
-14.92720320418073
 31
0.0
  0
LINE
  5
237
330
1F
100
AcDbEntity
  8
通り芯
  6
Continuous
 62
     3
370
     9
100
AcDbLine
 10
-678.6628516944679
 20
-21.92715206661731
 30
0.0
 11
-671.6628719020534
 21
-14.92720320418073
 31
0.0
  0
LINE
  5
238
330
1F
100
AcDbEntity
  8
通り芯
  6
Continuous
 62
     3
370
     9
100
AcDbLine
 10
-674.420217565588
 20
-21.92715206661731
 30
0.0
 11
-667.4202687031514
 21
-14.92720320418073
 31
0.0
  0
LINE
  5
239
330
1F
100
AcDbEntity
  8
通り芯
  6
Continuous
 62
     3
370
     9
100
AcDbLine
 10
-652.4202192151869
 20
-7.927130621832674
 30
0.0
 11
-656.6628224140889
 21
-7.927130621832674
 31
0.0
  0
LINE
  5
23A
330
1F
100
AcDbEntity
  8
通り芯
  6
Continuous
 62
     3
370
     9
100
AcDbLine
 10
-648.1775541563292
 20
-7.927130621832674
 30
0.0
 11
-642.1775714771167
 21
-7.927130621832674
 31
0.0
  0
LINE
  5
23B
330
1F
100
AcDbEntity
  8
通り芯
  6
Continuous
 62
     3
370
     9
100
AcDbLine
 10
-648.1775541563292
 20
-7.927130621832674
 30
0.0
 11
-642.1775714771167
 21
-13.92717516100078
 31
0.0
  0
LINE
  5
23C
330
1F
100
AcDbEntity
  8
通り芯
  6
Continuous
 62
     3
370
     9
100
AcDbLine
 10
-642.1775714771167
 20
-13.92717516100078
 30
0.0
 11
-642.1775714771167
 21
-7.927130621832674
 31
0.0
  0
LINE
  5
23D
330
1F
100
AcDbEntity
  8
通り芯
  6
Continuous
 62
     3
370
     9
100
AcDbLine
 10
-658.1775871483055
 20
-14.92720320418073
 30
0.0
 11
-658.1775871483055
 21
-10.65515466638516
 31
0.0
  0
LINE
  5
23E
330
1F
100
AcDbEntity
  8
通り芯
  6
Continuous
 62
     3
370
     9
100
AcDbLine
 10
-658.1775871483055
 20
-10.65515466638516
 30
0.0
 11
-653.9055386105099
 21
-14.92720320418073
 31
0.0
  0
LINE
  5
23F
330
1F
100
AcDbEntity
  8
通り芯
  6
Continuous
 62
     3
370
     9
100
AcDbLine
 10
-656.6628224140889
 20
-7.927130621832674
 30
0.0
 11
-649.6628735516522
 21
-14.92720320418073
 31
0.0
  0
LINE
  5
240
330
1F
100
AcDbEntity
  8
通り芯
  6
Continuous
 62
     3
370
     9
100
AcDbLine
 10
-652.4202192151869
 20
-7.927130621832674
 30
0.0
 11
-645.4202703527503
 21
-14.92720320418073
 31
0.0
  0
LINE
  5
241
330
1F
100
AcDbEntity
  8
通り芯
  6
Continuous
 62
     3
370
     9
100
AcDbLine
 10
-652.4202192151869
 20
-21.92715206661731
 30
0.0
 11
-656.6628224140889
 21
-21.92715206661731
 31
0.0
  0
LINE
  5
242
330
1F
100
AcDbEntity
  8
通り芯
  6
Continuous
 62
     3
370
     9
100
AcDbLine
 10
-648.1775541563292
 20
-21.92715206661731
 30
0.0
 11
-642.1775714771167
 21
-21.92715206661731
 31
0.0
  0
LINE
  5
243
330
1F
100
AcDbEntity
  8
通り芯
  6
Continuous
 62
     3
370
     9
100
AcDbLine
 10
-648.1775541563292
 20
-21.92715206661731
 30
0.0
 11
-642.1775714771167
 21
-15.92710752744935
 31
0.0
  0
LINE
  5
244
330
1F
100
AcDbEntity
  8
通り芯
  6
Continuous
 62
     3
370
     9
100
AcDbLine
 10
-642.1775714771167
 20
-15.92710752744935
 30
0.0
 11
-642.1775714771167
 21
-21.92715206661731
 31
0.0
  0
LINE
  5
245
330
1F
100
AcDbEntity
  8
通り芯
  6
Continuous
 62
     3
370
     9
100
AcDbLine
 10
-658.1775871483055
 20
-14.92720320418073
 30
0.0
 11
-658.1775871483055
 21
-19.1992517419763
 31
0.0
  0
LINE
  5
246
330
1F
100
AcDbEntity
  8
通り芯
  6
Continuous
 62
     3
370
     9
100
AcDbLine
 10
-658.1775871483055
 20
-19.1992517419763
 30
0.0
 11
-653.9055386105099
 21
-14.92720320418073
 31
0.0
  0
LINE
  5
247
330
1F
100
AcDbEntity
  8
通り芯
  6
Continuous
 62
     3
370
     9
100
AcDbLine
 10
-656.6628224140889
 20
-21.92715206661731
 30
0.0
 11
-649.6628735516522
 21
-14.92720320418073
 31
0.0
  0
LINE
  5
248
330
1F
100
AcDbEntity
  8
通り芯
  6
Continuous
 62
     3
370
     9
100
AcDbLine
 10
-652.4202192151869
 20
-21.92715206661731
 30
0.0
 11
-645.4202703527503
 21
-14.92720320418073
 31
0.0
  0
LINE
  5
249
330
1F
100
AcDbEntity
  8
通り芯
  6
Continuous
 62
     3
370
     9
100
AcDbLine
 10
-718.4202142663903
 20
48.0728314373944
 30
0.0
 11
-722.6628793252482
 21
48.0728314373944
 31
0.0
  0
LINE
  5
24A
330
1F
100
AcDbEntity
  8
通り芯
  6
Continuous
 62
     3
370
     9
100
AcDbLine
 10
-714.1775801375105
 20
48.0728314373944
 30
0.0
 11
-708.1775665283203
 21
48.0728314373944
 31
0.0
  0
LINE
  5
24B
330
1F
100
AcDbEntity
  8
通り芯
  6
Continuous
 62
     3
370
     9
100
AcDbLine
 10
-714.1775801375105
 20
48.0728314373944
 30
0.0
 11
-708.1775665283203
 21
42.07278689822644
 31
0.0
  0
LINE
  5
24C
330
1F
100
AcDbEntity
  8
通り芯
  6
Continuous
 62
     3
370
     9
100
AcDbLine
 10
-708.1775665283203
 20
42.07278689822644
 30
0.0
 11
-708.1775665283203
 21
48.0728314373944
 31
0.0
  0
LINE
  5
24D
330
1F
100
AcDbEntity
  8
通り芯
  6
Continuous
 62
     3
370
     9
100
AcDbLine
 10
-724.1775821995091
 20
41.07288257495782
 30
0.0
 11
-724.1775821995091
 21
45.34493111275339
 31
0.0
  0
LINE
  5
24E
330
1F
100
AcDbEntity
  8
通り芯
  6
Continuous
 62
     3
370
     9
100
AcDbLine
 10
-724.1775821995091
 20
45.34493111275339
 30
0.0
 11
-719.9055336617135
 21
41.07288257495782
 31
0.0
  0
LINE
  5
24F
330
1F
100
AcDbEntity
  8
通り芯
  6
Continuous
 62
     3
370
     9
100
AcDbLine
 10
-722.6628793252482
 20
48.0728314373944
 30
0.0
 11
-715.6628686028557
 21
41.07288257495782
 31
0.0
  0
LINE
  5
250
330
1F
100
AcDbEntity
  8
通り芯
  6
Continuous
 62
     3
370
     9
100
AcDbLine
 10
-718.4202142663903
 20
48.0728314373944
 30
0.0
 11
-711.4202654039536
 21
41.07288257495782
 31
0.0
  0
LINE
  5
251
330
1F
100
AcDbEntity
  8
通り芯
  6
Continuous
 62
     3
370
     9
100
AcDbLine
 10
-718.4202142663903
 20
34.0728099926099
 30
0.0
 11
-722.6628793252482
 21
34.0728099926099
 31
0.0
  0
LINE
  5
252
330
1F
100
AcDbEntity
  8
通り芯
  6
Continuous
 62
     3
370
     9
100
AcDbLine
 10
-714.1775801375105
 20
34.0728099926099
 30
0.0
 11
-708.1775665283203
 21
34.0728099926099
 31
0.0
  0
LINE
  5
253
330
1F
100
AcDbEntity
  8
通り芯
  6
Continuous
 62
     3
370
     9
100
AcDbLine
 10
-714.1775801375105
 20
34.0728099926099
 30
0.0
 11
-708.1775665283203
 21
40.07285453177786
 31
0.0
  0
LINE
  5
254
330
1F
100
AcDbEntity
  8
通り芯
  6
Continuous
 62
     3
370
     9
100
AcDbLine
 10
-708.1775665283203
 20
40.07285453177786
 30
0.0
 11
-708.1775665283203
 21
34.0728099926099
 31
0.0
  0
LINE
  5
255
330
1F
100
AcDbEntity
  8
通り芯
  6
Continuous
 62
     3
370
     9
100
AcDbLine
 10
-724.1775821995091
 20
41.07288257495782
 30
0.0
 11
-724.1775821995091
 21
36.80083403716225
 31
0.0
  0
LINE
  5
256
330
1F
100
AcDbEntity
  8
通り芯
  6
Continuous
 62
     3
370
     9
100
AcDbLine
 10
-724.1775821995091
 20
36.80083403716225
 30
0.0
 11
-719.9055336617135
 21
41.07288257495782
 31
0.0
  0
LINE
  5
257
330
1F
100
AcDbEntity
  8
通り芯
  6
Continuous
 62
     3
370
     9
100
AcDbLine
 10
-722.6628793252482
 20
34.0728099926099
 30
0.0
 11
-715.6628686028557
 21
41.07288257495782
 31
0.0
  0
LINE
  5
258
330
1F
100
AcDbEntity
  8
通り芯
  6
Continuous
 62
     3
370
     9
100
AcDbLine
 10
-718.4202142663903
 20
34.0728099926099
 30
0.0
 11
-711.4202654039536
 21
41.07288257495782
 31
0.0
  0
LINE
  5
259
330
1F
100
AcDbEntity
  8
通り芯
  6
Continuous
 62
     3
370
     9
100
AcDbLine
 10
-696.4202159159892
 20
48.0728314373944
 30
0.0
 11
-700.6628809748469
 21
48.0728314373944
 31
0.0
  0
LINE
  5
25A
330
1F
100
AcDbEntity
  8
通り芯
  6
Continuous
 62
     3
370
     9
100
AcDbLine
 10
-692.1775817871094
 20
48.0728314373944
 30
0.0
 11
-686.1775681779192
 21
48.0728314373944
 31
0.0
  0
LINE
  5
25B
330
1F
100
AcDbEntity
  8
通り芯
  6
Continuous
 62
     3
370
     9
100
AcDbLine
 10
-692.1775817871094
 20
48.0728314373944
 30
0.0
 11
-686.1775681779192
 21
42.07278689822644
 31
0.0
  0
LINE
  5
25C
330
1F
100
AcDbEntity
  8
通り芯
  6
Continuous
 62
     3
370
     9
100
AcDbLine
 10
-686.1775681779192
 20
42.07278689822644
 30
0.0
 11
-686.1775681779192
 21
48.0728314373944
 31
0.0
  0
LINE
  5
25D
330
1F
100
AcDbEntity
  8
通り芯
  6
Continuous
 62
     3
370
     9
100
AcDbLine
 10
-702.1775838491078
 20
41.07288257495782
 30
0.0
 11
-702.1775838491078
 21
45.34493111275339
 31
0.0
  0
LINE
  5
25E
330
1F
100
AcDbEntity
  8
通り芯
  6
Continuous
 62
     3
370
     9
100
AcDbLine
 10
-702.1775838491078
 20
45.34493111275339
 30
0.0
 11
-697.9055353113122
 21
41.07288257495782
 31
0.0
  0
LINE
  5
25F
330
1F
100
AcDbEntity
  8
通り芯
  6
Continuous
 62
     3
370
     9
100
AcDbLine
 10
-700.6628809748469
 20
48.0728314373944
 30
0.0
 11
-693.6628702524546
 21
41.07288257495782
 31
0.0
  0
LINE
  5
260
330
1F
100
AcDbEntity
  8
通り芯
  6
Continuous
 62
     3
370
     9
100
AcDbLine
 10
-696.4202159159892
 20
48.0728314373944
 30
0.0
 11
-689.4202670535526
 21
41.07288257495782
 31
0.0
  0
LINE
  5
261
330
1F
100
AcDbEntity
  8
通り芯
  6
Continuous
 62
     3
370
     9
100
AcDbLine
 10
-696.4202159159892
 20
34.0728099926099
 30
0.0
 11
-700.6628809748469
 21
34.0728099926099
 31
0.0
  0
LINE
  5
262
330
1F
100
AcDbEntity
  8
通り芯
  6
Continuous
 62
     3
370
     9
100
AcDbLine
 10
-692.1775817871094
 20
34.0728099926099
 30
0.0
 11
-686.1775681779192
 21
34.0728099926099
 31
0.0
  0
LINE
  5
263
330
1F
100
AcDbEntity
  8
通り芯
  6
Continuous
 62
     3
370
     9
100
AcDbLine
 10
-692.1775817871094
 20
34.0728099926099
 30
0.0
 11
-686.1775681779192
 21
40.07285453177786
 31
0.0
  0
LINE
  5
264
330
1F
100
AcDbEntity
  8
通り芯
  6
Continuous
 62
     3
370
     9
100
AcDbLine
 10
-686.1775681779192
 20
40.07285453177786
 30
0.0
 11
-686.1775681779192
 21
34.0728099926099
 31
0.0
  0
LINE
  5
265
330
1F
100
AcDbEntity
  8
通り芯
  6
Continuous
 62
     3
370
     9
100
AcDbLine
 10
-702.1775838491078
 20
41.07288257495782
 30
0.0
 11
-702.1775838491078
 21
36.80083403716225
 31
0.0
  0
LINE
  5
266
330
1F
100
AcDbEntity
  8
通り芯
  6
Continuous
 62
     3
370
     9
100
AcDbLine
 10
-702.1775838491078
 20
36.80083403716225
 30
0.0
 11
-697.9055353113122
 21
41.07288257495782
 31
0.0
  0
LINE
  5
267
330
1F
100
AcDbEntity
  8
通り芯
  6
Continuous
 62
     3
370
     9
100
AcDbLine
 10
-700.6628809748469
 20
34.0728099926099
 30
0.0
 11
-693.6628702524546
 21
41.07288257495782
 31
0.0
  0
LINE
  5
268
330
1F
100
AcDbEntity
  8
通り芯
  6
Continuous
 62
     3
370
     9
100
AcDbLine
 10
-696.4202159159892
 20
34.0728099926099
 30
0.0
 11
-689.4202670535526
 21
41.07288257495782
 31
0.0
  0
LINE
  5
269
330
1F
100
AcDbEntity
  8
通り芯
  6
Continuous
 62
     3
370
     9
100
AcDbLine
 10
-242.1775199271536
 20
-36.9272015545819
 30
0.0
 11
-242.1775199271536
 21
-48.92716691300677
 31
0.0
  0
LINE
  5
26A
330
1F
100
AcDbEntity
  8
通り芯
  6
Continuous
 62
     3
370
     9
100
AcDbLine
 10
-243.1775479703336
 20
-35.92723537135768
 30
0.0
 11
-243.1775479703336
 21
-49.92719495618658
 31
0.0
  0
LINE
  5
26B
330
1F
100
AcDbEntity
  8
通り芯
  6
Continuous
 62
     3
370
     9
100
AcDbLine
 10
-242.1775199271536
 20
-36.9272015545819
 30
0.0
 11
-152.1774704391892
 21
-36.9272015545819
 31
0.0
  0
LINE
  5
26C
330
1F
100
AcDbEntity
  8
通り芯
  6
Continuous
 62
     3
370
     9
100
AcDbLine
 10
-152.1774704391892
 20
-36.9272015545819
 30
0.0
 11
-152.1774704391892
 21
-48.92716691300677
 31
0.0
  0
LINE
  5
26D
330
1F
100
AcDbEntity
  8
通り芯
  6
Continuous
 62
     3
370
     9
100
AcDbLine
 10
-242.1775199271536
 20
-48.92716691300677
 30
0.0
 11
-152.1774704391892
 21
-48.92716691300677
 31
0.0
  0
LINE
  5
26E
330
1F
100
AcDbEntity
  8
通り芯
  6
Continuous
 62
     3
370
     9
100
AcDbLine
 10
-243.1775479703336
 20
-35.92723537135768
 30
0.0
 11
-151.1775661159206
 21
-35.92723537135768
 31
0.0
  0
LINE
  5
26F
330
1F
100
AcDbEntity
  8
通り芯
  6
Continuous
 62
     3
370
     9
100
AcDbLine
 10
-151.1775661159206
 20
-35.92723537135768
 30
0.0
 11
-151.1775661159206
 21
-49.92719495618658
 31
0.0
  0
LINE
  5
270
330
1F
100
AcDbEntity
  8
通り芯
  6
Continuous
 62
     3
370
     9
100
AcDbLine
 10
-243.1775479703336
 20
-49.92719495618658
 30
0.0
 11
-151.1775661159206
 21
-49.92719495618658
 31
0.0
  0
LINE
  5
271
330
1F
100
AcDbEntity
  8
通り芯
  6
Continuous
 62
     3
370
     9
100
AcDbLine
 10
-708.1775974582981
 20
243.0727324614654
 30
0.0
 11
-708.1775974582981
 21
231.0727671030406
 31
0.0
  0
LINE
  5
272
330
1F
100
AcDbEntity
  8
通り芯
  6
Continuous
 62
     3
370
     9
100
AcDbLine
 10
-708.1775974582981
 20
231.0727671030406
 30
0.0
 11
-583.1775871483055
 21
231.0727671030406
 31
0.0
  0
LINE
  5
273
330
1F
100
AcDbEntity
  8
通り芯
  6
Continuous
 62
     3
370
     9
100
AcDbLine
 10
-708.1775974582981
 20
243.0727324614654
 30
0.0
 11
-583.1775871483055
 21
243.0727324614654
 31
0.0
  0
LINE
  5
274
330
1F
100
AcDbEntity
  8
通り芯
  6
Continuous
 62
     3
370
     9
100
AcDbLine
 10
-583.1775871483055
 20
243.0727324614654
 30
0.0
 11
-583.1775871483055
 21
231.0727671030406
 31
0.0
  0
LINE
  5
275
330
1F
100
AcDbEntity
  8
通り芯
  6
Continuous
 62
     3
370
     9
100
AcDbLine
 10
-582.1776209650812
 20
244.0727605046453
 30
0.0
 11
-582.1776209650812
 21
230.0727390598607
 31
0.0
  0
LINE
  5
276
330
1F
100
AcDbEntity
  8
通り芯
  6
Continuous
 62
     3
370
     9
100
AcDbLine
 10
-709.1775945715003
 20
244.0727605046453
 30
0.0
 11
-582.1776209650812
 21
244.0727605046453
 31
0.0
  0
LINE
  5
277
330
1F
100
AcDbEntity
  8
通り芯
  6
Continuous
 62
     3
370
     9
100
AcDbLine
 10
-709.1775945715003
 20
230.0727390598607
 30
0.0
 11
-582.1776209650812
 21
230.0727390598607
 31
0.0
  0
LINE
  5
278
330
1F
100
AcDbEntity
  8
通り芯
  6
Continuous
 62
     3
370
     9
100
AcDbLine
 10
-709.1775945715003
 20
244.0727605046453
 30
0.0
 11
-709.1775945715003
 21
230.0727390598607
 31
0.0
  0
LINE
  5
279
330
1F
100
AcDbEntity
  8
通り芯
  6
Continuous
 62
     3
370
     9
100
AcDbLine
 10
471.3399526235222
 20
-51.79833489495351
 30
0.0
 11
471.3399526235222
 21
-51.92718918259075
 31
0.0
  0
LINE
  5
27A
330
1F
100
AcDbEntity
  8
通り芯
  6
Continuous
 62
     3
370
     9
100
AcDbLine
 10
466.3399361275339
 20
-52.92715536581497
 30
0.0
 11
471.3399526235222
 21
-51.92718918259075
 31
0.0
  0
LINE
  5
27B
330
1F
100
AcDbEntity
  8
通り芯
  6
Continuous
 62
     3
370
     9
100
AcDbLine
 10
484.9147487331081
 20
-38.85599497202278
 30
0.0
 11
469.1899480046453
 21
-38.06969307564401
 31
0.0
  0
LINE
  5
27C
330
1F
100
AcDbEntity
  8
通り芯
  6
Continuous
 62
     3
370
     9
100
AcDbLine
 10
486.3397546716638
 20
-47.52387381888724
 30
0.0
 11
486.3397546716638
 21
-40.35405751821159
 31
0.0
  0
LINE
  5
27D
330
1F
100
AcDbEntity
  8
通り芯
  6
Continuous
 62
     3
370
     9
100
AcDbLine
 10
484.9397401551943
 20
-49.02057544605142
 30
0.0
 11
473.2068860853042
 21
-49.80273272540117
 31
0.0
  0
LINE
  5
27E
330
1F
100
AcDbEntity
  8
通り芯
  6
Continuous
 62
     3
370
     9
100
AcDbLine
 10
462.007759712838
 20
-36.48187173379426
 30
0.0
 11
462.8398998363599
 21
-35.92723537135768
 31
0.0
  0
LINE
  5
27F
330
1F
100
AcDbEntity
  8
通り芯
  6
Continuous
 62
     3
370
     9
100
AcDbLine
 10
462.007759712838
 20
-49.37249673379426
 30
0.0
 11
462.8398998363599
 21
-49.92719495618658
 31
0.0
  0
LINE
  5
280
330
1F
100
AcDbEntity
  8
通り芯
  6
Continuous
 62
     3
370
     9
100
AcDbLine
 10
461.3399196315456
 20
-48.12441026842265
 30
0.0
 11
461.3399196315456
 21
-37.72995819916588
 31
0.0
  0
LINE
  5
281
330
1F
100
AcDbEntity
  8
通り芯
  6
Continuous
 62
     3
370
     9
100
AcDbLine
 10
463.9278927364865
 20
-52.23797359982044
 30
0.0
 11
466.3399361275339
 21
-52.92715536581497
 31
0.0
  0
LINE
  5
282
330
1F
100
AcDbEntity
  8
通り芯
  6
Continuous
 62
     3
370
     9
100
AcDbLine
 10
462.8398998363599
 20
-35.0586597339526
 30
0.0
 11
462.8398998363599
 21
-50.79570873363593
 31
0.0
  0
LINE
  5
283
330
1F
100
AcDbEntity
  8
通り芯
  6
Continuous
 62
     3
370
     9
100
AcDbLine
 10
463.9278927364865
 20
-33.61639486776809
 30
0.0
 11
466.3399361275339
 21
-32.92721310177356
 31
0.0
  0
LINE
  5
284
330
1F
100
AcDbEntity
  8
通り芯
  6
Continuous
 62
     3
370
     9
100
AcDbLine
 10
466.3399361275339
 20
-35.07350612331081
 30
0.0
 11
466.3399361275339
 21
-32.92721310177356
 31
0.0
  0
LINE
  5
285
330
1F
100
AcDbEntity
  8
通り芯
  6
Continuous
 62
     3
370
     9
100
AcDbLine
 10
462.007759712838
 20
-21.37251570418073
 30
0.0
 11
462.8398998363599
 21
-21.92715206661731
 31
0.0
  0
LINE
  5
286
330
1F
100
AcDbEntity
  8
通り芯
  6
Continuous
 62
     3
370
     9
100
AcDbLine
 10
470.1339309279984
 20
-20.16834980732682
 30
0.0
 11
468.7514846389359
 21
-20.44486380912161
 31
0.0
  0
LINE
  5
287
330
1F
100
AcDbEntity
  8
通り芯
  6
Continuous
 62
     3
370
     9
100
AcDbLine
 10
463.9278927364865
 20
-24.2379925702069
 30
0.0
 11
466.3399361275339
 21
-24.92717433620143
 31
0.0
  0
LINE
  5
288
330
1F
100
AcDbEntity
  8
通り芯
  6
Continuous
 62
     3
370
     9
100
AcDbLine
 10
466.3399361275339
 20
-23.38661400047499
 30
0.0
 11
466.3399361275339
 21
-24.92717433620143
 31
0.0
  0
LINE
  5
289
330
1F
100
AcDbEntity
  8
通り芯
  6
Continuous
 62
     3
370
     9
100
AcDbLine
 10
461.3399196315456
 20
-20.12442923880911
 30
0.0
 11
461.3399196315456
 21
-14.92720320418073
 31
0.0
  0
LINE
  5
28A
330
1F
100
AcDbEntity
  8
通り芯
  6
Continuous
 62
     3
370
     9
100
AcDbLine
 10
462.8398998363599
 20
-22.79578956397799
 30
0.0
 11
462.8398998363599
 21
-14.92720320418073
 31
0.0
  0
LINE
  5
28B
330
1F
100
AcDbEntity
  8
通り芯
  6
Continuous
 62
     3
370
     9
100
AcDbLine
 10
471.3399526235222
 20
-18.69744378167226
 30
0.0
 11
471.3399526235222
 21
-14.92720320418073
 31
0.0
  0
LINE
  5
28C
330
1F
100
AcDbEntity
  8
通り芯
  6
Continuous
 62
     3
370
     9
100
AcDbLine
 10
462.007759712838
 20
-8.481890704180728
 30
0.0
 11
462.8398998363599
 21
-7.927130621832674
 31
0.0
  0
LINE
  5
28D
330
1F
100
AcDbEntity
  8
通り芯
  6
Continuous
 62
     3
370
     9
100
AcDbLine
 10
470.1339309279984
 20
-9.685932881123307
 30
0.0
 11
468.7514846389359
 21
-9.409542599239842
 31
0.0
  0
LINE
  5
28E
330
1F
100
AcDbEntity
  8
通り芯
  6
Continuous
 62
     3
370
     9
100
AcDbLine
 10
463.9278927364865
 20
-5.616290118243228
 30
0.0
 11
466.3399361275339
 21
-4.927170212204288
 31
0.0
  0
LINE
  5
28F
330
1F
100
AcDbEntity
  8
通り芯
  6
Continuous
 62
     3
370
     9
100
AcDbLine
 10
466.3399361275339
 20
-6.467730547930728
 30
0.0
 11
466.3399361275339
 21
-4.927170212204288
 31
0.0
  0
LINE
  5
290
330
1F
100
AcDbEntity
  8
通り芯
  6
Continuous
 62
     3
370
     9
100
AcDbLine
 10
461.3399196315456
 20
-9.729977169552342
 30
0.0
 11
461.3399196315456
 21
-14.92720320418073
 31
0.0
  0
LINE
  5
291
330
1F
100
AcDbEntity
  8
通り芯
  6
Continuous
 62
     3
370
     9
100
AcDbLine
 10
462.8398998363599
 20
-7.058616844383465
 30
0.0
 11
462.8398998363599
 21
-14.92720320418073
 31
0.0
  0
LINE
  5
292
330
1F
100
AcDbEntity
  8
通り芯
  6
Continuous
 62
     3
370
     9
100
AcDbLine
 10
471.3399526235222
 20
-11.15683890677786
 30
0.0
 11
471.3399526235222
 21
-14.92720320418073
 31
0.0
  0
LINE
  5
293
330
1F
100
AcDbEntity
  8
通り芯
  6
Continuous
 62
     3
370
     9
100
AcDbLine
 10
462.007759712838
 20
6.627527185388544
 30
0.0
 11
462.8398998363599
 21
6.072767103040633
 31
0.0
  0
LINE
  5
294
330
1F
100
AcDbEntity
  8
通り芯
  6
Continuous
 62
     3
370
     9
100
AcDbLine
 10
470.1339309279984
 20
7.831693082242452
 30
0.0
 11
468.7514846389359
 21
7.555179080447658
 31
0.0
  0
LINE
  5
295
330
1F
100
AcDbEntity
  8
通り芯
  6
Continuous
 62
     3
370
     9
100
AcDbLine
 10
463.9278927364865
 20
3.761926599451044
 30
0.0
 11
466.3399361275339
 21
3.072806693412247
 31
0.0
  0
LINE
  5
296
330
1F
100
AcDbEntity
  8
通り芯
  6
Continuous
 62
     3
370
     9
100
AcDbLine
 10
466.3399361275339
 20
4.613367029138544
 30
0.0
 11
466.3399361275339
 21
3.072806693412247
 31
0.0
  0
LINE
  5
297
330
1F
100
AcDbEntity
  8
通り芯
  6
Continuous
 62
     3
370
     9
100
AcDbLine
 10
461.3399196315456
 20
7.875613650760158
 30
0.0
 11
461.3399196315456
 21
13.07283968538854
 31
0.0
  0
LINE
  5
298
330
1F
100
AcDbEntity
  8
通り芯
  6
Continuous
 62
     3
370
     9
100
AcDbLine
 10
462.8398998363599
 20
5.204253325591282
 30
0.0
 11
462.8398998363599
 21
13.07283968538854
 31
0.0
  0
LINE
  5
299
330
1F
100
AcDbEntity
  8
通り芯
  6
Continuous
 62
     3
370
     9
100
AcDbLine
 10
471.3399526235222
 20
9.30259910789701
 30
0.0
 11
471.3399526235222
 21
13.07283968538854
 31
0.0
  0
LINE
  5
29A
330
1F
100
AcDbEntity
  8
通り芯
  6
Continuous
 62
     3
370
     9
100
AcDbLine
 10
462.007759712838
 20
19.51815218538854
 30
0.0
 11
462.8398998363599
 21
20.0729122677366
 31
0.0
  0
LINE
  5
29B
330
1F
100
AcDbEntity
  8
通り芯
  6
Continuous
 62
     3
370
     9
100
AcDbLine
 10
470.1339309279984
 20
18.31411000844597
 30
0.0
 11
468.7514846389359
 21
18.59050029032943
 31
0.0
  0
LINE
  5
29C
330
1F
100
AcDbEntity
  8
通り芯
  6
Continuous
 62
     3
370
     9
100
AcDbLine
 10
463.9278927364865
 20
22.38375277132604
 30
0.0
 11
466.3399361275339
 21
23.07287267736484
 31
0.0
  0
LINE
  5
29D
330
1F
100
AcDbEntity
  8
通り芯
  6
Continuous
 62
     3
370
     9
100
AcDbLine
 10
466.3399361275339
 20
21.53231234163854
 30
0.0
 11
466.3399361275339
 21
23.07287267736484
 31
0.0
  0
LINE
  5
29E
330
1F
100
AcDbEntity
  8
通り芯
  6
Continuous
 62
     3
370
     9
100
AcDbLine
 10
461.3399196315456
 20
18.27006572001693
 30
0.0
 11
461.3399196315456
 21
13.07283968538854
 31
0.0
  0
LINE
  5
29F
330
1F
100
AcDbEntity
  8
通り芯
  6
Continuous
 62
     3
370
     9
100
AcDbLine
 10
462.8398998363599
 20
20.94130232527448
 30
0.0
 11
462.8398998363599
 21
13.07283968538854
 31
0.0
  0
LINE
  5
2A0
330
1F
100
AcDbEntity
  8
通り芯
  6
Continuous
 62
     3
370
     9
100
AcDbLine
 10
471.3399526235222
 20
16.84308026288008
 30
0.0
 11
471.3399526235222
 21
13.07283968538854
 31
0.0
  0
LINE
  5
2A1
330
1F
100
AcDbEntity
  8
通り芯
  6
Continuous
 62
     3
370
     9
100
AcDbLine
 10
462.007759712838
 20
34.62757007495782
 30
0.0
 11
462.8398998363599
 21
34.0728099926099
 31
0.0
  0
LINE
  5
2A2
330
1F
100
AcDbEntity
  8
通り芯
  6
Continuous
 62
     3
370
     9
100
AcDbLine
 10
463.9278927364865
 20
31.76196948902032
 30
0.0
 11
466.3399361275339
 21
31.07284958298152
 31
0.0
  0
LINE
  5
2A3
330
1F
100
AcDbEntity
  8
通り芯
  6
Continuous
 62
     3
370
     9
100
AcDbLine
 10
461.3399196315456
 20
35.8755328204181
 30
0.0
 11
461.3399196315456
 21
41.07288257495782
 31
0.0
  0
LINE
  5
2A4
330
1F
100
AcDbEntity
  8
通り芯
  6
Continuous
 62
     3
370
     9
100
AcDbLine
 10
462.007759712838
 20
62.62761296452709
 30
0.0
 11
462.8398998363599
 21
62.07285288217903
 31
0.0
  0
LINE
  5
2A5
330
1F
100
AcDbEntity
  8
通り芯
  6
Continuous
 62
     3
370
     9
100
AcDbLine
 10
470.1339309279984
 20
63.83165514146967
 30
0.0
 11
468.7514846389359
 21
63.5552648595862
 31
0.0
  0
LINE
  5
2A6
330
1F
100
AcDbEntity
  8
通り芯
  6
Continuous
 62
     3
370
     9
100
AcDbLine
 10
463.9278927364865
 20
59.76201237858959
 30
0.0
 11
466.3399361275339
 21
59.07289247255079
 31
0.0
  0
LINE
  5
2A7
330
1F
100
AcDbEntity
  8
通り芯
  6
Continuous
 62
     3
370
     9
100
AcDbLine
 10
466.3399361275339
 20
60.61345280827709
 30
0.0
 11
466.3399361275339
 21
59.07289247255079
 31
0.0
  0
LINE
  5
2A8
330
1F
100
AcDbEntity
  8
通り芯
  6
Continuous
 62
     3
370
     9
100
AcDbLine
 10
461.3399196315456
 20
63.8756994298987
 30
0.0
 11
461.3399196315456
 21
69.07292546452709
 31
0.0
  0
LINE
  5
2A9
330
1F
100
AcDbEntity
  8
通り芯
  6
Continuous
 62
     3
370
     9
100
AcDbLine
 10
462.8398998363599
 20
61.20433910472983
 30
0.0
 11
462.8398998363599
 21
69.07292546452709
 31
0.0
  0
LINE
  5
2AA
330
1F
100
AcDbEntity
  8
通り芯
  6
Continuous
 62
     3
370
     9
100
AcDbLine
 10
471.3399526235222
 20
65.3024374472129
 30
0.0
 11
471.3399526235222
 21
69.07292546452709
 31
0.0
  0
LINE
  5
2AB
330
1F
100
AcDbEntity
  8
通り芯
  6
Continuous
 62
     3
370
     9
100
AcDbLine
 10
462.007759712838
 20
75.51823796452709
 30
0.0
 11
462.8398998363599
 21
76.07275060705234
 31
0.0
  0
LINE
  5
2AC
330
1F
100
AcDbEntity
  8
通り芯
  6
Continuous
 62
     3
370
     9
100
AcDbLine
 10
470.1339309279984
 20
74.31407206767318
 30
0.0
 11
468.7514846389359
 21
74.59058606946797
 31
0.0
  0
LINE
  5
2AD
330
1F
100
AcDbEntity
  8
通り芯
  6
Continuous
 62
     3
370
     9
100
AcDbLine
 10
463.9278927364865
 20
78.38359111064193
 30
0.0
 11
466.3399361275339
 21
79.07283473659206
 31
0.0
  0
LINE
  5
2AE
330
1F
100
AcDbEntity
  8
通り芯
  6
Continuous
 62
     3
370
     9
100
AcDbLine
 10
466.3399361275339
 20
77.53239812077709
 30
0.0
 11
466.3399361275339
 21
79.07283473659206
 31
0.0
  0
LINE
  5
2AF
330
1F
100
AcDbEntity
  8
通り芯
  6
Continuous
 62
     3
370
     9
100
AcDbLine
 10
461.3399196315456
 20
74.27015149915547
 30
0.0
 11
461.3399196315456
 21
69.07292546452709
 31
0.0
  0
LINE
  5
2B0
330
1F
100
AcDbEntity
  8
通り芯
  6
Continuous
 62
     3
370
     9
100
AcDbLine
 10
462.8398998363599
 20
76.94151182432435
 30
0.0
 11
462.8398998363599
 21
69.07292546452709
 31
0.0
  0
LINE
  5
2B1
330
1F
100
AcDbEntity
  8
通り芯
  6
Continuous
 62
     3
370
     9
100
AcDbLine
 10
471.3399526235222
 20
72.84316604201862
 30
0.0
 11
471.3399526235222
 21
69.07292546452709
 31
0.0
  0
LINE
  5
2B2
330
1F
100
AcDbEntity
  8
通り芯
  6
Continuous
 62
     3
370
     9
100
AcDbLine
 10
462.007759712838
 20
90.6274084142737
 30
0.0
 11
462.8398998363599
 21
90.0728957717483
 31
0.0
  0
LINE
  5
2B3
330
1F
100
AcDbEntity
  8
通り芯
  6
Continuous
 62
     3
370
     9
100
AcDbLine
 10
470.1339309279984
 20
91.83157431112761
 30
0.0
 11
468.7514846389359
 21
91.55506030933282
 31
0.0
  0
LINE
  5
2B4
330
1F
100
AcDbEntity
  8
通り芯
  6
Continuous
 62
     3
370
     9
100
AcDbLine
 10
463.9278927364865
 20
87.76205526815886
 30
0.0
 11
466.3399361275339
 21
87.07281164220859
 31
0.0
  0
LINE
  5
2B5
330
1F
100
AcDbEntity
  8
通り芯
  6
Continuous
 62
     3
370
     9
100
AcDbLine
 10
461.3399196315456
 20
91.87549487964532
 30
0.0
 11
461.3399196315456
 21
97.07284463418503
 31
0.0
  0
LINE
  5
2B6
330
1F
100
AcDbEntity
  8
通り芯
  6
Continuous
 62
     3
370
     9
100
AcDbLine
 10
462.8398998363599
 20
89.2043819942991
 30
0.0
 11
462.8398998363599
 21
97.07284463418503
 31
0.0
  0
LINE
  5
2B7
330
1F
100
AcDbEntity
  8
通り芯
  6
Continuous
 62
     3
370
     9
100
AcDbLine
 10
471.3399526235222
 20
93.30248033678217
 30
0.0
 11
471.3399526235222
 21
97.07284463418503
 31
0.0
  0
LINE
  5
2B8
330
1F
100
AcDbEntity
  8
通り芯
  6
Continuous
 62
     3
370
     9
100
AcDbLine
 10
496.3397876636404
 20
38.47624907622475
 30
0.0
 11
496.3397876636404
 21
41.07288257495782
 31
0.0
  0
LINE
  5
2B9
330
1F
100
AcDbEntity
  8
通り芯
  6
Continuous
 62
     3
370
     9
100
AcDbLine
 10
466.3399361275339
 20
32.26612812763946
 30
0.0
 11
466.3399361275339
 21
31.07284958298152
 31
0.0
  0
LINE
  5
2BA
330
1F
100
AcDbEntity
  8
通り芯
  6
Continuous
 62
     3
370
     9
100
AcDbLine
 10
462.8398998363599
 20
33.20429621516055
 30
0.0
 11
462.8398998363599
 21
41.07288257495782
 31
0.0
  0
LINE
  5
2BB
330
1F
100
AcDbEntity
  8
通り芯
  6
Continuous
 62
     3
370
     9
100
AcDbLine
 10
462.007759712838
 20
47.51807135504649
 30
0.0
 11
462.8398998363599
 21
48.0728314373944
 31
0.0
  0
LINE
  5
2BC
330
1F
100
AcDbEntity
  8
通り芯
  6
Continuous
 62
     3
370
     9
100
AcDbLine
 10
463.9278927364865
 20
50.38367194098399
 30
0.0
 11
466.3399361275339
 21
51.07291556693411
 31
0.0
  0
LINE
  5
2BD
330
1F
100
AcDbEntity
  8
通り芯
  6
Continuous
 62
     3
370
     9
100
AcDbLine
 10
461.3399196315456
 20
46.26998488967487
 30
0.0
 11
461.3399196315456
 21
41.07288257495782
 31
0.0
  0
LINE
  5
2BE
330
1F
100
AcDbEntity
  8
通り芯
  6
Continuous
 62
     3
370
     9
100
AcDbLine
 10
496.3397876636404
 20
43.66951607369089
 30
0.0
 11
496.3397876636404
 21
41.07288257495782
 31
0.0
  0
LINE
  5
2BF
330
1F
100
AcDbEntity
  8
通り芯
  6
Continuous
 62
     3
370
     9
100
AcDbLine
 10
466.3399361275339
 20
49.87951330236484
 30
0.0
 11
466.3399361275339
 21
51.07291556693411
 31
0.0
  0
LINE
  5
2C0
330
1F
100
AcDbEntity
  8
通り芯
  6
Continuous
 62
     3
370
     9
100
AcDbLine
 10
462.8398998363599
 20
48.94134521484375
 30
0.0
 11
462.8398998363599
 21
41.07288257495782
 31
0.0
  0
LINE
  5
2C1
330
1F
100
AcDbEntity
  8
通り芯
  6
Continuous
 62
     3
370
     9
100
AcDbLine
 10
496.3397876636404
 20
94.47621113545196
 30
0.0
 11
496.3397876636404
 21
97.07284463418503
 31
0.0
  0
LINE
  5
2C2
330
1F
100
AcDbEntity
  8
通り芯
  6
Continuous
 62
     3
370
     9
100
AcDbLine
 10
491.0072120460305
 20
36.71732309702278
 30
0.0
 11
494.9395257073482
 21
36.97948558910483
 31
0.0
  0
LINE
  5
2C3
330
1F
100
AcDbEntity
  8
通り芯
  6
Continuous
 62
     3
370
     9
100
AcDbLine
 10
486.3397546716638
 20
31.72831767314193
 30
0.0
 11
486.3397546716638
 21
-40.35405751821159
 31
0.0
  0
LINE
  5
2C4
330
1F
100
AcDbEntity
  8
通り芯
  6
Continuous
 62
     3
370
     9
100
AcDbLine
 10
469.1402126002956
 20
35.25953138196797
 30
0.0
 11
491.0072120460305
 21
36.71732309702278
 31
0.0
  0
LINE
  5
2C5
330
1F
100
AcDbEntity
  8
通り芯
  6
Continuous
 62
     3
370
     9
100
AcDbLine
 10
491.0072120460305
 20
45.42831833298152
 30
0.0
 11
494.9395257073482
 21
45.16615584089948
 31
0.0
  0
LINE
  5
2C6
330
1F
100
AcDbEntity
  8
通り芯
  6
Continuous
 62
     3
370
     9
100
AcDbLine
 10
469.1402126002956
 20
46.88623376794766
 30
0.0
 11
491.0072120460305
 21
45.42831833298152
 31
0.0
  0
LINE
  5
2C7
330
1F
100
AcDbEntity
  8
通り芯
  6
Continuous
 62
     3
370
     9
100
AcDbLine
 10
486.3397546716638
 20
50.41720003695104
 30
0.0
 11
486.3397546716638
 21
92.40625329919766
 31
0.0
  0
LINE
  5
2C8
330
1F
100
AcDbEntity
  8
通り芯
  6
Continuous
 62
     3
370
     9
100
AcDbLine
 10
486.3397546716638
 20
92.40625329919766
 30
0.0
 11
486.3397546716638
 21
97.07284463418503
 31
0.0
  0
LINE
  5
2C9
330
1F
100
AcDbEntity
  8
通り芯
  6
Continuous
 62
     3
370
     9
100
AcDbLine
 10
466.3399361275339
 20
-32.92721310177356
 30
0.0
 11
466.3399361275339
 21
-24.92717433620143
 31
0.0
  0
LINE
  5
2CA
330
1F
100
AcDbEntity
  8
通り芯
  6
Continuous
 62
     3
370
     9
100
AcDbLine
 10
466.3399361275339
 20
-4.927170212204288
 30
0.0
 11
466.3399361275339
 21
3.072806693412247
 31
0.0
  0
LINE
  5
2CB
330
1F
100
AcDbEntity
  8
通り芯
  6
Continuous
 62
     3
370
     9
100
AcDbLine
 10
466.3399361275339
 20
23.07287267736484
 30
0.0
 11
466.3399361275339
 21
31.07284958298152
 31
0.0
  0
LINE
  5
2CC
330
1F
100
AcDbEntity
  8
通り芯
  6
Continuous
 62
     3
370
     9
100
AcDbLine
 10
466.3399361275339
 20
51.07291556693411
 30
0.0
 11
466.3399361275339
 21
59.07289247255079
 31
0.0
  0
LINE
  5
2CD
330
1F
100
AcDbEntity
  8
通り芯
  6
Continuous
 62
     3
370
     9
100
AcDbLine
 10
466.3399361275339
 20
79.07283473659206
 30
0.0
 11
466.3399361275339
 21
87.07281164220859
 31
0.0
  0
LINE
  5
2CE
330
1F
100
AcDbEntity
  8
通り芯
  6
Continuous
 62
     3
370
     9
100
AcDbLine
 10
471.3399526235222
 20
245.9439004434122
 30
0.0
 11
471.3399526235222
 21
246.0728165910051
 31
0.0
  0
LINE
  5
2CF
330
1F
100
AcDbEntity
  8
通り芯
  6
Continuous
 62
     3
370
     9
100
AcDbLine
 10
466.3399361275339
 20
247.0727209142737
 30
0.0
 11
471.3399526235222
 21
246.0728165910051
 31
0.0
  0
LINE
  5
2D0
330
1F
100
AcDbEntity
  8
通り芯
  6
Continuous
 62
     3
370
     9
100
AcDbLine
 10
484.9147487331081
 20
233.0015605204815
 30
0.0
 11
469.1899480046453
 21
232.2154442039697
 31
0.0
  0
LINE
  5
2D1
330
1F
100
AcDbEntity
  8
通り芯
  6
Continuous
 62
     3
370
     9
100
AcDbLine
 10
486.3397546716638
 20
241.6693775073902
 30
0.0
 11
486.3397546716638
 21
234.4998086465372
 31
0.0
  0
LINE
  5
2D2
330
1F
100
AcDbEntity
  8
通り芯
  6
Continuous
 62
     3
370
     9
100
AcDbLine
 10
484.9397401551943
 20
243.1661409945102
 30
0.0
 11
473.2068860853042
 21
243.9482982738599
 31
0.0
  0
LINE
  5
2D3
330
1F
100
AcDbEntity
  8
通り芯
  6
Continuous
 62
     3
370
     9
100
AcDbLine
 10
462.007759712838
 20
230.6273754222974
 30
0.0
 11
462.8398998363599
 21
230.072862779772
 31
0.0
  0
LINE
  5
2D4
330
1F
100
AcDbEntity
  8
通り芯
  6
Continuous
 62
     3
370
     9
100
AcDbLine
 10
462.007759712838
 20
243.5182478621199
 30
0.0
 11
462.8398998363599
 21
244.0727605046453
 31
0.0
  0
LINE
  5
2D5
330
1F
100
AcDbEntity
  8
通り芯
  6
Continuous
 62
     3
370
     9
100
AcDbLine
 10
461.3399196315456
 20
242.2701613967483
 30
0.0
 11
461.3399196315456
 21
231.875461887669
 31
0.0
  0
LINE
  5
2D6
330
1F
100
AcDbEntity
  8
通り芯
  6
Continuous
 62
     3
370
     9
100
AcDbLine
 10
463.9278927364865
 20
246.3836010082349
 30
0.0
 11
466.3399361275339
 21
247.0727209142737
 31
0.0
  0
LINE
  5
2D7
330
1F
100
AcDbEntity
  8
通り芯
  6
Continuous
 62
     3
370
     9
100
AcDbLine
 10
462.8398998363599
 20
229.2043490023227
 30
0.0
 11
462.8398998363599
 21
244.941398002006
 31
0.0
  0
LINE
  5
2D8
330
1F
100
AcDbEntity
  8
通り芯
  6
Continuous
 62
     3
370
     9
100
AcDbLine
 10
463.9278927364865
 20
227.7620222761824
 30
0.0
 11
466.3399361275339
 21
227.0729023701436
 31
0.0
  0
LINE
  5
2D9
330
1F
100
AcDbEntity
  8
通り芯
  6
Continuous
 62
     3
370
     9
100
AcDbLine
 10
466.3399361275339
 20
229.2190716717695
 30
0.0
 11
466.3399361275339
 21
227.0729023701436
 31
0.0
  0
LINE
  5
2DA
330
1F
100
AcDbEntity
  8
通り芯
  6
Continuous
 62
     3
370
     9
100
AcDbLine
 10
462.007759712838
 20
215.5182049725508
 30
0.0
 11
462.8398998363599
 21
216.072717615076
 31
0.0
  0
LINE
  5
2DB
330
1F
100
AcDbEntity
  8
通り芯
  6
Continuous
 62
     3
370
     9
100
AcDbLine
 10
470.1339309279984
 20
214.3140390756969
 30
0.0
 11
468.7514846389359
 21
214.5905530774917
 31
0.0
  0
LINE
  5
2DC
330
1F
100
AcDbEntity
  8
通り芯
  6
Continuous
 62
     3
370
     9
100
AcDbLine
 10
463.9278927364865
 20
218.3835581186656
 30
0.0
 11
466.3399361275339
 21
219.0728017446158
 31
0.0
  0
LINE
  5
2DD
330
1F
100
AcDbEntity
  8
通り芯
  6
Continuous
 62
     3
370
     9
100
AcDbLine
 10
466.3399361275339
 20
217.5323651288008
 30
0.0
 11
466.3399361275339
 21
219.0728017446158
 31
0.0
  0
LINE
  5
2DE
330
1F
100
AcDbEntity
  8
通り芯
  6
Continuous
 62
     3
370
     9
100
AcDbLine
 10
461.3399196315456
 20
214.2701185071792
 30
0.0
 11
461.3399196315456
 21
209.0726450327281
 31
0.0
  0
LINE
  5
2DF
330
1F
100
AcDbEntity
  8
通り芯
  6
Continuous
 62
     3
370
     9
100
AcDbLine
 10
462.8398998363599
 20
216.9414788323481
 30
0.0
 11
462.8398998363599
 21
209.0726450327281
 31
0.0
  0
LINE
  5
2E0
330
1F
100
AcDbEntity
  8
通り芯
  6
Continuous
 62
     3
370
     9
100
AcDbLine
 10
471.3399526235222
 20
212.8432567699537
 30
0.0
 11
471.3399526235222
 21
209.0726450327281
 31
0.0
  0
LINE
  5
2E1
330
1F
100
AcDbEntity
  8
通り芯
  6
Continuous
 62
     3
370
     9
100
AcDbLine
 10
462.007759712838
 20
202.6274562526395
 30
0.0
 11
462.8398998363599
 21
202.0728198902027
 31
0.0
  0
LINE
  5
2E2
330
1F
100
AcDbEntity
  8
通り芯
  6
Continuous
 62
     3
370
     9
100
AcDbLine
 10
470.1339309279984
 20
203.8316221494932
 30
0.0
 11
468.7514846389359
 21
203.5552318676099
 31
0.0
  0
LINE
  5
2E3
330
1F
100
AcDbEntity
  8
通り芯
  6
Continuous
 62
     3
370
     9
100
AcDbLine
 10
463.9278927364865
 20
199.7619793866133
 30
0.0
 11
466.3399361275339
 21
199.0728594805744
 31
0.0
  0
LINE
  5
2E4
330
1F
100
AcDbEntity
  8
通り芯
  6
Continuous
 62
     3
370
     9
100
AcDbLine
 10
466.3399361275339
 20
200.6134198163008
 30
0.0
 11
466.3399361275339
 21
199.0728594805744
 31
0.0
  0
LINE
  5
2E5
330
1F
100
AcDbEntity
  8
通り芯
  6
Continuous
 62
     3
370
     9
100
AcDbLine
 10
461.3399196315456
 20
203.8755427180111
 30
0.0
 11
461.3399196315456
 21
209.0726450327281
 31
0.0
  0
LINE
  5
2E6
330
1F
100
AcDbEntity
  8
通り芯
  6
Continuous
 62
     3
370
     9
100
AcDbLine
 10
462.8398998363599
 20
201.2043061127534
 30
0.0
 11
462.8398998363599
 21
209.0726450327281
 31
0.0
  0
LINE
  5
2E7
330
1F
100
AcDbEntity
  8
通り芯
  6
Continuous
 62
     3
370
     9
100
AcDbLine
 10
471.3399526235222
 20
205.3024044552366
 30
0.0
 11
471.3399526235222
 21
209.0726450327281
 31
0.0
  0
LINE
  5
2E8
330
1F
100
AcDbEntity
  8
通り芯
  6
Continuous
 62
     3
370
     9
100
AcDbLine
 10
462.007759712838
 20
187.5179146431589
 30
0.0
 11
462.8398998363599
 21
188.0727984454181
 31
0.0
  0
LINE
  5
2E9
330
1F
100
AcDbEntity
  8
通り芯
  6
Continuous
 62
     3
370
     9
100
AcDbLine
 10
470.1339309279984
 20
186.3138724662163
 30
0.0
 11
468.7514846389359
 21
186.5905101879224
 31
0.0
  0
LINE
  5
2EA
330
1F
100
AcDbEntity
  8
通り芯
  6
Continuous
 62
     3
370
     9
100
AcDbLine
 10
463.9278927364865
 20
190.3835152290964
 30
0.0
 11
466.3399361275339
 21
191.0728825749578
 31
0.0
  0
LINE
  5
2EB
330
1F
100
AcDbEntity
  8
通り芯
  6
Continuous
 62
     3
370
     9
100
AcDbLine
 10
466.3399361275339
 20
189.5323222392315
 30
0.0
 11
466.3399361275339
 21
191.0728825749578
 31
0.0
  0
LINE
  5
2EC
330
1F
100
AcDbEntity
  8
通り芯
  6
Continuous
 62
     3
370
     9
100
AcDbLine
 10
461.3399196315456
 20
186.2699518976986
 30
0.0
 11
461.3399196315456
 21
181.0728495829815
 31
0.0
  0
LINE
  5
2ED
330
1F
100
AcDbEntity
  8
通り芯
  6
Continuous
 62
     3
370
     9
100
AcDbLine
 10
462.8398998363599
 20
188.9413122228675
 30
0.0
 11
462.8398998363599
 21
181.0728495829815
 31
0.0
  0
LINE
  5
2EE
330
1F
100
AcDbEntity
  8
通り芯
  6
Continuous
 62
     3
370
     9
100
AcDbLine
 10
471.3399526235222
 20
184.8430901604731
 30
0.0
 11
471.3399526235222
 21
181.0728495829815
 31
0.0
  0
LINE
  5
2EF
330
1F
100
AcDbEntity
  8
通り芯
  6
Continuous
 62
     3
370
     9
100
AcDbLine
 10
462.007759712838
 20
174.6275370829815
 30
0.0
 11
462.8398998363599
 21
174.0727770006335
 31
0.0
  0
LINE
  5
2F0
330
1F
100
AcDbEntity
  8
通り芯
  6
Continuous
 62
     3
370
     9
100
AcDbLine
 10
470.1339309279984
 20
175.8315792599241
 30
0.0
 11
468.7514846389359
 21
175.5550652581293
 31
0.0
  0
LINE
  5
2F1
330
1F
100
AcDbEntity
  8
通り芯
  6
Continuous
 62
     3
370
     9
100
AcDbLine
 10
463.9278927364865
 20
171.761936497044
 30
0.0
 11
466.3399361275339
 21
171.0728165910051
 31
0.0
  0
LINE
  5
2F2
330
1F
100
AcDbEntity
  8
通り芯
  6
Continuous
 62
     3
370
     9
100
AcDbLine
 10
466.3399361275339
 20
172.6132532068202
 30
0.0
 11
466.3399361275339
 21
171.0728165910051
 31
0.0
  0
LINE
  5
2F3
330
1F
100
AcDbEntity
  8
通り芯
  6
Continuous
 62
     3
370
     9
100
AcDbLine
 10
461.3399196315456
 20
175.8756235483531
 30
0.0
 11
461.3399196315456
 21
181.0728495829815
 31
0.0
  0
LINE
  5
2F4
330
1F
100
AcDbEntity
  8
通り芯
  6
Continuous
 62
     3
370
     9
100
AcDbLine
 10
462.8398998363599
 20
173.2042632231841
 30
0.0
 11
462.8398998363599
 21
181.0728495829815
 31
0.0
  0
LINE
  5
2F5
330
1F
100
AcDbEntity
  8
通り芯
  6
Continuous
 62
     3
370
     9
100
AcDbLine
 10
471.3399526235222
 20
177.3023615656673
 30
0.0
 11
471.3399526235222
 21
181.0728495829815
 31
0.0
  0
LINE
  5
2F6
330
1F
100
AcDbEntity
  8
通り芯
  6
Continuous
 62
     3
370
     9
100
AcDbLine
 10
462.007759712838
 20
159.5181191934122
 30
0.0
 11
462.8398998363599
 21
160.0728792757602
 31
0.0
  0
LINE
  5
2F7
330
1F
100
AcDbEntity
  8
通り芯
  6
Continuous
 62
     3
370
     9
100
AcDbLine
 10
463.9278927364865
 20
162.3837197793497
 30
0.0
 11
466.3399361275339
 21
163.0728396853885
 31
0.0
  0
LINE
  5
2F8
330
1F
100
AcDbEntity
  8
通り芯
  6
Continuous
 62
     3
370
     9
100
AcDbLine
 10
461.3399196315456
 20
158.2700327280406
 30
0.0
 11
461.3399196315456
 21
153.0728066934122
 31
0.0
  0
LINE
  5
2F9
330
1F
100
AcDbEntity
  8
通り芯
  6
Continuous
 62
     3
370
     9
100
AcDbLine
 10
462.007759712838
 20
131.518076303843
 30
0.0
 11
462.8398998363599
 21
132.0728363861909
 31
0.0
  0
LINE
  5
2FA
330
1F
100
AcDbEntity
  8
通り芯
  6
Continuous
 62
     3
370
     9
100
AcDbLine
 10
470.1339309279984
 20
130.3140341269004
 30
0.0
 11
468.7514846389359
 21
130.5904244087839
 31
0.0
  0
LINE
  5
2FB
330
1F
100
AcDbEntity
  8
通り芯
  6
Continuous
 62
     3
370
     9
100
AcDbLine
 10
463.9278927364865
 20
134.3836768897805
 30
0.0
 11
466.3399361275339
 21
135.0727967958193
 31
0.0
  0
LINE
  5
2FC
330
1F
100
AcDbEntity
  8
通り芯
  6
Continuous
 62
     3
370
     9
100
AcDbLine
 10
466.3399361275339
 20
133.532236460093
 30
0.0
 11
466.3399361275339
 21
135.0727967958193
 31
0.0
  0
LINE
  5
2FD
330
1F
100
AcDbEntity
  8
通り芯
  6
Continuous
 62
     3
370
     9
100
AcDbLine
 10
461.3399196315456
 20
130.2699898384714
 30
0.0
 11
461.3399196315456
 21
125.072763803843
 31
0.0
  0
LINE
  5
2FE
330
1F
100
AcDbEntity
  8
通り芯
  6
Continuous
 62
     3
370
     9
100
AcDbLine
 10
462.8398998363599
 20
132.9413501636402
 30
0.0
 11
462.8398998363599
 21
125.072763803843
 31
0.0
  0
LINE
  5
2FF
330
1F
100
AcDbEntity
  8
通り芯
  6
Continuous
 62
     3
370
     9
100
AcDbLine
 10
471.3399526235222
 20
128.8431281012458
 30
0.0
 11
471.3399526235222
 21
125.072763803843
 31
0.0
  0
LINE
  5
300
330
1F
100
AcDbEntity
  8
通り芯
  6
Continuous
 62
     3
370
     9
100
AcDbLine
 10
462.007759712838
 20
118.627451303843
 30
0.0
 11
462.8398998363599
 21
118.0728149414062
 31
0.0
  0
LINE
  5
301
330
1F
100
AcDbEntity
  8
通り芯
  6
Continuous
 62
     3
370
     9
100
AcDbLine
 10
470.1339309279984
 20
119.8316172006969
 30
0.0
 11
468.7514846389359
 21
119.5551031989021
 31
0.0
  0
LINE
  5
302
330
1F
100
AcDbEntity
  8
通り芯
  6
Continuous
 62
     3
370
     9
100
AcDbLine
 10
463.9278927364865
 20
115.7619744378168
 30
0.0
 11
466.3399361275339
 21
115.0727308118665
 31
0.0
  0
LINE
  5
303
330
1F
100
AcDbEntity
  8
通り芯
  6
Continuous
 62
     3
370
     9
100
AcDbLine
 10
466.3399361275339
 20
116.613291147593
 30
0.0
 11
466.3399361275339
 21
115.0727308118665
 31
0.0
  0
LINE
  5
304
330
1F
100
AcDbEntity
  8
通り芯
  6
Continuous
 62
     3
370
     9
100
AcDbLine
 10
461.3399196315456
 20
119.8755377692146
 30
0.0
 11
461.3399196315456
 21
125.072763803843
 31
0.0
  0
LINE
  5
305
330
1F
100
AcDbEntity
  8
通り芯
  6
Continuous
 62
     3
370
     9
100
AcDbLine
 10
462.8398998363599
 20
117.204301163957
 30
0.0
 11
462.8398998363599
 21
125.072763803843
 31
0.0
  0
LINE
  5
306
330
1F
100
AcDbEntity
  8
通り芯
  6
Continuous
 62
     3
370
     9
100
AcDbLine
 10
471.3399526235222
 20
121.3025232263514
 30
0.0
 11
471.3399526235222
 21
125.072763803843
 31
0.0
  0
LINE
  5
307
330
1F
100
AcDbEntity
  8
通り芯
  6
Continuous
 62
     3
370
     9
100
AcDbLine
 10
462.007759712838
 20
103.5180334142737
 30
0.0
 11
462.8398998363599
 21
104.0727934966216
 31
0.0
  0
LINE
  5
308
330
1F
100
AcDbEntity
  8
通り芯
  6
Continuous
 62
     3
370
     9
100
AcDbLine
 10
470.1339309279984
 20
102.3139912373311
 30
0.0
 11
468.7514846389359
 21
102.5905052391259
 31
0.0
  0
LINE
  5
309
330
1F
100
AcDbEntity
  8
通り芯
  6
Continuous
 62
     3
370
     9
100
AcDbLine
 10
463.9278927364865
 20
106.3836340002112
 30
0.0
 11
466.3399361275339
 21
107.07275390625
 31
0.0
  0
LINE
  5
30A
330
1F
100
AcDbEntity
  8
通り芯
  6
Continuous
 62
     3
370
     9
100
AcDbLine
 10
461.3399196315456
 20
102.2699469489021
 30
0.0
 11
461.3399196315456
 21
97.07284463418503
 31
0.0
  0
LINE
  5
30B
330
1F
100
AcDbEntity
  8
通り芯
  6
Continuous
 62
     3
370
     9
100
AcDbLine
 10
462.8398998363599
 20
104.941307274071
 30
0.0
 11
462.8398998363599
 21
97.07284463418503
 31
0.0
  0
LINE
  5
30C
330
1F
100
AcDbEntity
  8
通り芯
  6
Continuous
 62
     3
370
     9
100
AcDbLine
 10
471.3399526235222
 20
100.8432089315879
 30
0.0
 11
471.3399526235222
 21
97.07284463418503
 31
0.0
  0
LINE
  5
30D
330
1F
100
AcDbEntity
  8
通り芯
  6
Continuous
 62
     3
370
     9
100
AcDbLine
 10
496.3397876636404
 20
155.6694401921453
 30
0.0
 11
496.3397876636404
 21
153.0728066934122
 31
0.0
  0
LINE
  5
30E
330
1F
100
AcDbEntity
  8
通り芯
  6
Continuous
 62
     3
370
     9
100
AcDbLine
 10
466.3399361275339
 20
161.8794374208193
 30
0.0
 11
466.3399361275339
 21
163.0728396853885
 31
0.0
  0
LINE
  5
30F
330
1F
100
AcDbEntity
  8
通り芯
  6
Continuous
 62
     3
370
     9
100
AcDbLine
 10
462.8398998363599
 20
160.9413930532095
 30
0.0
 11
462.8398998363599
 21
153.0728066934122
 31
0.0
  0
LINE
  5
310
330
1F
100
AcDbEntity
  8
通り芯
  6
Continuous
 62
     3
370
     9
100
AcDbLine
 10
462.007759712838
 20
146.6274941934122
 30
0.0
 11
462.8398998363599
 21
146.0727341110642
 31
0.0
  0
LINE
  5
311
330
1F
100
AcDbEntity
  8
通り芯
  6
Continuous
 62
     3
370
     9
100
AcDbLine
 10
463.9278927364865
 20
143.7618936074747
 30
0.0
 11
466.3399361275339
 21
143.0727737014358
 31
0.0
  0
LINE
  5
312
330
1F
100
AcDbEntity
  8
通り芯
  6
Continuous
 62
     3
370
     9
100
AcDbLine
 10
461.3399196315456
 20
147.8755806587839
 30
0.0
 11
461.3399196315456
 21
153.0728066934122
 31
0.0
  0
LINE
  5
313
330
1F
100
AcDbEntity
  8
通り芯
  6
Continuous
 62
     3
370
     9
100
AcDbLine
 10
496.3397876636404
 20
150.476173194679
 30
0.0
 11
496.3397876636404
 21
153.0728066934122
 31
0.0
  0
LINE
  5
314
330
1F
100
AcDbEntity
  8
通り芯
  6
Continuous
 62
     3
370
     9
100
AcDbLine
 10
466.3399361275339
 20
144.2661759660051
 30
0.0
 11
466.3399361275339
 21
143.0727737014358
 31
0.0
  0
LINE
  5
315
330
1F
100
AcDbEntity
  8
通り芯
  6
Continuous
 62
     3
370
     9
100
AcDbLine
 10
462.8398998363599
 20
145.204220333615
 30
0.0
 11
462.8398998363599
 21
153.0728066934122
 31
0.0
  0
LINE
  5
316
330
1F
100
AcDbEntity
  8
通り芯
  6
Continuous
 62
     3
370
     9
100
AcDbLine
 10
496.3397876636404
 20
99.6694781329181
 30
0.0
 11
496.3397876636404
 21
97.07284463418503
 31
0.0
  0
LINE
  5
317
330
1F
100
AcDbEntity
  8
通り芯
  6
Continuous
 62
     3
370
     9
100
AcDbLine
 10
491.0072120460305
 20
157.4282424514358
 30
0.0
 11
494.9395257073482
 21
157.1662036792652
 31
0.0
  0
LINE
  5
318
330
1F
100
AcDbEntity
  8
通り芯
  6
Continuous
 62
     3
370
     9
100
AcDbLine
 10
486.3397546716638
 20
162.4171241554055
 30
0.0
 11
486.3397546716638
 21
234.4998086465372
 31
0.0
  0
LINE
  5
319
330
1F
100
AcDbEntity
  8
通り芯
  6
Continuous
 62
     3
370
     9
100
AcDbLine
 10
469.1402126002956
 20
158.8861578864021
 30
0.0
 11
491.0072120460305
 21
157.4282424514358
 31
0.0
  0
LINE
  5
31A
330
1F
100
AcDbEntity
  8
通り芯
  6
Continuous
 62
     3
370
     9
100
AcDbLine
 10
491.0072120460305
 20
148.7173709353885
 30
0.0
 11
494.9395257073482
 21
148.9795334274704
 31
0.0
  0
LINE
  5
31B
330
1F
100
AcDbEntity
  8
通り芯
  6
Continuous
 62
     3
370
     9
100
AcDbLine
 10
469.1402126002956
 20
147.2594555004224
 30
0.0
 11
491.0072120460305
 21
148.7173709353885
 31
0.0
  0
LINE
  5
31C
330
1F
100
AcDbEntity
  8
通り芯
  6
Continuous
 62
     3
370
     9
100
AcDbLine
 10
486.3397546716638
 20
101.7394359691724
 30
0.0
 11
486.3397546716638
 21
97.07284463418503
 31
0.0
  0
LINE
  5
31D
330
1F
100
AcDbEntity
  8
通り芯
  6
Continuous
 62
     3
370
     9
100
AcDbLine
 10
466.3399361275339
 20
227.0729023701436
 30
0.0
 11
466.3399361275339
 21
219.0728017446158
 31
0.0
  0
LINE
  5
31E
330
1F
100
AcDbEntity
  8
通り芯
  6
Continuous
 62
     3
370
     9
100
AcDbLine
 10
466.3399361275339
 20
199.0728594805744
 30
0.0
 11
466.3399361275339
 21
191.0728825749578
 31
0.0
  0
LINE
  5
31F
330
1F
100
AcDbEntity
  8
通り芯
  6
Continuous
 62
     3
370
     9
100
AcDbLine
 10
466.3399361275339
 20
171.0728165910051
 30
0.0
 11
466.3399361275339
 21
163.0728396853885
 31
0.0
  0
LINE
  5
320
330
1F
100
AcDbEntity
  8
通り芯
  6
Continuous
 62
     3
370
     9
100
AcDbLine
 10
466.3399361275339
 20
143.0727737014358
 30
0.0
 11
466.3399361275339
 21
135.0727967958193
 31
0.0
  0
LINE
  5
321
330
1F
100
AcDbEntity
  8
通り芯
  6
Continuous
 62
     3
370
     9
100
AcDbLine
 10
466.3399361275339
 20
115.0727308118665
 30
0.0
 11
466.3399361275339
 21
107.07275390625
 31
0.0
  0
LINE
  5
322
330
1F
100
AcDbEntity
  8
通り芯
  6
Continuous
 62
     3
370
     9
100
AcDbLine
 10
-725.2709569157781
 20
-342.5447659879117
 30
0.0
 11
-726.0531141951277
 21
-330.8119737779771
 31
0.0
  0
LINE
  5
323
330
1F
100
AcDbEntity
  8
通り芯
  6
Continuous
 62
     3
370
     9
100
AcDbLine
 10
-182.3189812737542
 20
-351.2655350968645
 30
0.0
 11
-171.7774262299409
 21
-343.945027944204
 31
0.0
  0
LINE
  5
324
330
1F
100
AcDbEntity
  8
通り芯
  6
Continuous
 62
     3
370
     9
100
AcDbLine
 10
-678.0359938337996
 20
-351.26559695682
 30
0.0
 11
-688.5775798075907
 21
-343.945027944204
 31
0.0
  0
LINE
  5
325
330
1F
100
AcDbEntity
  8
通り芯
  6
Continuous
 62
     3
370
     9
100
AcDbLine
 10
-131.8666200380068
 20
-321.5329804291596
 30
0.0
 11
-131.1775001319678
 21
-323.9450238202069
 31
0.0
  0
LINE
  5
326
330
1F
100
AcDbEntity
  8
通り芯
  6
Continuous
 62
     3
370
     9
100
AcDbLine
 10
-728.1775706523173
 20
-328.945040316195
 30
0.0
 11
-132.1774044552365
 21
-328.945040316195
 31
0.0
  0
LINE
  5
327
330
1F
100
AcDbEntity
  8
通り芯
  6
Continuous
 62
     3
370
     9
100
AcDbLine
 10
-131.1775001319678
 20
-323.9450238202069
 30
0.0
 11
-132.1774044552365
 21
-328.945040316195
 31
0.0
  0
LINE
  5
328
330
1F
100
AcDbEntity
  8
通り芯
  6
Continuous
 62
     3
370
     9
100
AcDbLine
 10
-135.084327491554
 20
-342.5447659879117
 30
0.0
 11
-134.3019227723818
 21
-330.8119737779771
 31
0.0
  0
LINE
  5
329
330
1F
100
AcDbEntity
  8
通り芯
  6
Continuous
 62
     3
370
     9
100
AcDbLine
 10
-727.0461520633182
 20
-320.4449875290329
 30
0.0
 11
-133.3089467641469
 21
-320.4449875290329
 31
0.0
  0
LINE
  5
32A
330
1F
100
AcDbEntity
  8
通り芯
  6
Continuous
 62
     3
370
     9
100
AcDbLine
 10
-729.1775986954973
 20
-323.9450238202069
 30
0.0
 11
-728.1775706523173
 21
-328.945040316195
 31
0.0
  0
LINE
  5
32B
330
1F
100
AcDbEntity
  8
通り芯
  6
Continuous
 62
     3
370
     9
100
AcDbLine
 10
-728.4884169295027
 20
-321.5329804291596
 30
0.0
 11
-729.1775986954973
 21
-323.9450238202069
 31
0.0
  0
LINE
  5
32C
330
1F
100
AcDbEntity
  8
通り芯
  6
Continuous
 62
     3
370
     9
100
AcDbLine
 10
-729.1775986954973
 20
-323.9450238202069
 30
0.0
 11
-131.1775001319678
 21
-323.9450238202069
 31
0.0
  0
LINE
  5
32D
330
1F
100
AcDbEntity
  8
通り芯
  6
Continuous
 62
     3
370
     9
100
AcDbLine
 10
-675.3549214955922
 20
-343.945027944204
 30
0.0
 11
-723.7742552886139
 21
-343.945027944204
 31
0.0
  0
LINE
  5
32E
330
1F
100
AcDbEntity
  8
通り芯
  6
Continuous
 62
     3
370
     9
100
AcDbLine
 10
-136.5808435388513
 20
-343.945027944204
 30
0.0
 11
-646.9175905794712
 21
-343.945027944204
 31
0.0
  0
LINE
  5
32F
330
1F
100
AcDbEntity
  8
通り芯
  6
Continuous
 62
     3
370
     9
100
AcDbLine
 10
-646.9175905794712
 20
-343.945027944204
 30
0.0
 11
-675.3549214955922
 21
-343.945027944204
 31
0.0
  0
LINE
  5
330
330
1F
100
AcDbEntity
  8
通り芯
  6
Continuous
 62
     3
370
     9
100
AcDbLine
 10
-652.1776044690931
 20
-367.9450205210093
 30
0.0
 11
-652.1776044690931
 21
-391.9450130978146
 31
0.0
  0
LINE
  5
331
330
1F
100
AcDbEntity
  8
通り芯
  6
Continuous
 62
     3
370
     9
100
AcDbLine
 10
-657.1776209650812
 20
-367.9450205210093
 30
0.0
 11
-657.1776209650812
 21
-391.9450130978146
 31
0.0
  0
LINE
  5
332
330
1F
100
AcDbEntity
  8
通り芯
  6
Continuous
 62
     3
370
     9
100
AcDbLine
 10
-664.177569827518
 20
-353.9449990762247
 30
0.0
 11
-669.4800196467219
 21
-353.9449990762247
 31
0.0
  0
LINE
  5
333
330
1F
100
AcDbEntity
  8
通り芯
  6
Continuous
 62
     3
370
     9
100
AcDbLine
 10
-665.1775978706979
 20
-367.9450205210093
 30
0.0
 11
-665.1775978706979
 21
-391.9450130978146
 31
0.0
  0
LINE
  5
334
330
1F
100
AcDbEntity
  8
通り芯
  6
Continuous
 62
     3
370
     9
100
AcDbLine
 10
-670.1775525067303
 20
-367.9450205210093
 30
0.0
 11
-670.1775525067303
 21
-391.9449512378589
 31
0.0
  0
LINE
  5
335
330
1F
100
AcDbEntity
  8
通り芯
  6
Continuous
 62
     3
370
     9
100
AcDbLine
 10
-658.6776011698954
 20
-393.4450551625844
 30
0.0
 11
-658.6776011698954
 21
-413.4449974266258
 31
0.0
  0
LINE
  5
336
330
1F
100
AcDbEntity
  8
通り芯
  6
Continuous
 62
     3
370
     9
100
AcDbLine
 10
-663.677555805928
 20
-393.4450551625844
 30
0.0
 11
-663.677555805928
 21
-408.0887913059544
 31
0.0
  0
LINE
  5
337
330
1F
100
AcDbEntity
  8
通り芯
  6
Continuous
 62
     3
370
     9
100
AcDbLine
 10
-654.6580031111433
 20
-417.7509452201224
 30
0.0
 11
-667.4683957486538
 21
-404.0279326567779
 31
0.0
  0
LINE
  5
338
330
1F
100
AcDbEntity
  8
通り芯
  6
Continuous
 62
     3
370
     9
100
AcDbLine
 10
-208.1775562183276
 20
-367.9450205210093
 30
0.0
 11
-208.1775562183276
 21
-391.9450130978146
 31
0.0
  0
LINE
  5
339
330
1F
100
AcDbEntity
  8
通り芯
  6
Continuous
 62
     3
370
     9
100
AcDbLine
 10
-203.1774160024281
 20
-367.9450205210093
 30
0.0
 11
-203.1774160024281
 21
-391.9450130978146
 31
0.0
  0
LINE
  5
33A
330
1F
100
AcDbEntity
  8
通り芯
  6
Continuous
 62
     3
370
     9
100
AcDbLine
 10
-195.1774390968116
 20
-367.9450205210093
 30
0.0
 11
-195.1774390968116
 21
-391.9450130978146
 31
0.0
  0
LINE
  5
33B
330
1F
100
AcDbEntity
  8
通り芯
  6
Continuous
 62
     3
370
     9
100
AcDbLine
 10
-190.1774226008234
 20
-367.9450205210093
 30
0.0
 11
-190.1774226008234
 21
-391.9449512378589
 31
0.0
  0
LINE
  5
33C
330
1F
100
AcDbEntity
  8
通り芯
  6
Continuous
 62
     3
370
     9
100
AcDbLine
 10
-201.6775595175253
 20
-393.4450551625844
 30
0.0
 11
-201.6775595175253
 21
-413.4449974266258
 31
0.0
  0
LINE
  5
33D
330
1F
100
AcDbEntity
  8
通り芯
  6
Continuous
 62
     3
370
     9
100
AcDbLine
 10
-196.6775430215371
 20
-393.4450551625844
 30
0.0
 11
-196.6775430215371
 21
-408.0887913059544
 31
0.0
  0
LINE
  5
33E
330
1F
100
AcDbEntity
  8
通り芯
  6
Continuous
 62
     3
370
     9
100
AcDbLine
 10
-205.6970957163217
 20
-417.7509452201224
 30
0.0
 11
-192.8866412188555
 21
-404.0279326567779
 31
0.0
  0
LINE
  5
33F
330
1F
100
AcDbEntity
  8
通り芯
  6
Continuous
 62
     3
370
     9
100
AcDbLine
 10
-658.1775871483055
 20
-353.9449990762247
 30
0.0
 11
-202.1773879592483
 21
-353.9449990762247
 31
0.0
  0
LINE
  5
340
330
1F
100
AcDbEntity
  8
通り芯
  6
Continuous
 62
     3
370
     9
100
AcDbLine
 10
-196.1774671399915
 20
-353.9449990762247
 30
0.0
 11
-190.8749554608319
 21
-353.9449990762247
 31
0.0
  0
LINE
  5
341
330
1F
100
AcDbEntity
  8
通り芯
  6
Continuous
 62
     3
370
     9
100
AcDbLine
 10
-723.6228839771167
 20
-319.6129711254223
 30
0.0
 11
-724.1775821995091
 21
-320.4449875290329
 31
0.0
  0
LINE
  5
342
330
1F
100
AcDbEntity
  8
通り芯
  6
Continuous
 62
     3
370
     9
100
AcDbLine
 10
-709.9803512160843
 20
-318.9450073242188
 30
0.0
 11
-722.3748284417229
 21
-318.9450073242188
 31
0.0
  0
LINE
  5
343
330
1F
100
AcDbEntity
  8
通り芯
  6
Continuous
 62
     3
370
     9
100
AcDbLine
 10
-708.7322647507126
 20
-319.6129711254223
 30
0.0
 11
-708.1775665283203
 21
-320.4449875290329
 31
0.0
  0
LINE
  5
344
330
1F
100
AcDbEntity
  8
通り芯
  6
Continuous
 62
     3
370
     9
100
AcDbLine
 10
-701.6228856267156
 20
-319.6129711254223
 30
0.0
 11
-702.1775838491078
 21
-320.4449875290329
 31
0.0
  0
LINE
  5
345
330
1F
100
AcDbEntity
  8
通り芯
  6
Continuous
 62
     3
370
     9
100
AcDbLine
 10
-687.980352865683
 20
-318.9450073242188
 30
0.0
 11
-700.3748300913218
 21
-318.9450073242188
 31
0.0
  0
LINE
  5
346
330
1F
100
AcDbEntity
  8
通り芯
  6
Continuous
 62
     3
370
     9
100
AcDbLine
 10
-686.7322973302894
 20
-319.6129711254223
 30
0.0
 11
-686.1775681779192
 21
-320.4449875290329
 31
0.0
  0
LINE
  5
347
330
1F
100
AcDbEntity
  8
通り芯
  6
Continuous
 62
     3
370
     9
100
AcDbLine
 10
-679.6228872763143
 20
-319.6129711254223
 30
0.0
 11
-680.1775854987068
 21
-320.4449875290329
 31
0.0
  0
LINE
  5
348
330
1F
100
AcDbEntity
  8
通り芯
  6
Continuous
 62
     3
370
     9
100
AcDbLine
 10
-665.9803545152818
 20
-318.9450073242188
 30
0.0
 11
-678.3748008109427
 21
-318.9450073242188
 31
0.0
  0
LINE
  5
349
330
1F
100
AcDbEntity
  8
通り芯
  6
Continuous
 62
     3
370
     9
100
AcDbLine
 10
-664.7322680499101
 20
-319.6129711254223
 30
0.0
 11
-664.177569827518
 21
-320.4449875290329
 31
0.0
  0
LINE
  5
34A
330
1F
100
AcDbEntity
  8
通り芯
  6
Continuous
 62
     3
370
     9
100
AcDbLine
 10
-657.6228889259132
 20
-319.6129711254223
 30
0.0
 11
-658.1775871483055
 21
-320.4449875290329
 31
0.0
  0
LINE
  5
34B
330
1F
100
AcDbEntity
  8
通り芯
  6
Continuous
 62
     3
370
     9
100
AcDbLine
 10
-643.980294304925
 20
-318.9450073242188
 30
0.0
 11
-656.3748024605417
 21
-318.9450073242188
 31
0.0
  0
LINE
  5
34C
330
1F
100
AcDbEntity
  8
通り芯
  6
Continuous
 62
     3
370
     9
100
AcDbLine
 10
-642.7322696995091
 20
-319.6129711254223
 30
0.0
 11
-642.1775714771167
 21
-320.4449875290329
 31
0.0
  0
LINE
  5
34D
330
1F
100
AcDbEntity
  8
通り芯
  6
Continuous
 62
     3
370
     9
100
AcDbLine
 10
-635.6228905755121
 20
-319.6129711254223
 30
0.0
 11
-636.1775887979043
 21
-320.4449875290329
 31
0.0
  0
LINE
  5
34E
330
1F
100
AcDbEntity
  8
通り芯
  6
Continuous
 62
     3
370
     9
100
AcDbLine
 10
-621.9803578144795
 20
-318.9450073242188
 30
0.0
 11
-634.3748041101403
 21
-318.9450073242188
 31
0.0
  0
LINE
  5
34F
330
1F
100
AcDbEntity
  8
通り芯
  6
Continuous
 62
     3
370
     9
100
AcDbLine
 10
-620.7322713491079
 20
-319.6129711254223
 30
0.0
 11
-620.1775731267155
 21
-320.4449875290329
 31
0.0
  0
LINE
  5
350
330
1F
100
AcDbEntity
  8
通り芯
  6
Continuous
 62
     3
370
     9
100
AcDbLine
 10
-613.6228922251108
 20
-319.6129711254223
 30
0.0
 11
-614.1775904475031
 21
-320.4449875290329
 31
0.0
  0
LINE
  5
351
330
1F
100
AcDbEntity
  8
通り芯
  6
Continuous
 62
     3
370
     9
100
AcDbLine
 10
-599.9802976041226
 20
-318.9450073242188
 30
0.0
 11
-612.3748057597392
 21
-318.9450073242188
 31
0.0
  0
LINE
  5
352
330
1F
100
AcDbEntity
  8
通り芯
  6
Continuous
 62
     3
370
     9
100
AcDbLine
 10
-598.7322729987067
 20
-319.6129711254223
 30
0.0
 11
-598.1775747763144
 21
-320.4449875290329
 31
0.0
  0
LINE
  5
353
330
1F
100
AcDbEntity
  8
通り芯
  6
Continuous
 62
     3
370
     9
100
AcDbLine
 10
-591.6228938747097
 20
-319.6129711254223
 30
0.0
 11
-592.1775302371462
 21
-320.4449875290329
 31
0.0
  0
LINE
  5
354
330
1F
100
AcDbEntity
  8
通り芯
  6
Continuous
 62
     3
370
     9
100
AcDbLine
 10
-577.9803611136772
 20
-318.9450073242188
 30
0.0
 11
-590.374807409338
 21
-318.9450073242188
 31
0.0
  0
LINE
  5
355
330
1F
100
AcDbEntity
  8
通り芯
  6
Continuous
 62
     3
370
     9
100
AcDbLine
 10
-576.7322746483055
 20
-319.6129711254223
 30
0.0
 11
-576.1775764259132
 21
-320.4449875290329
 31
0.0
  0
LINE
  5
356
330
1F
100
AcDbEntity
  8
通り芯
  6
Continuous
 62
     3
370
     9
100
AcDbLine
 10
-569.6228955243084
 20
-319.6129711254223
 30
0.0
 11
-570.1775937467007
 21
-320.4449875290329
 31
0.0
  0
LINE
  5
357
330
1F
100
AcDbEntity
  8
通り芯
  6
Continuous
 62
     3
370
     9
100
AcDbLine
 10
-555.9803627632759
 20
-318.9450073242188
 30
0.0
 11
-568.3748090589369
 21
-318.9450073242188
 31
0.0
  0
LINE
  5
358
330
1F
100
AcDbEntity
  8
通り芯
  6
Continuous
 62
     3
370
     9
100
AcDbLine
 10
-554.7322762979043
 20
-319.6129711254223
 30
0.0
 11
-554.177578075512
 21
-320.4449875290329
 31
0.0
  0
LINE
  5
359
330
1F
100
AcDbEntity
  8
通り芯
  6
Continuous
 62
     3
370
     9
100
AcDbLine
 10
-547.6228971739073
 20
-319.6129711254223
 30
0.0
 11
-548.1775953962996
 21
-320.4449875290329
 31
0.0
  0
LINE
  5
35A
330
1F
100
AcDbEntity
  8
通り芯
  6
Continuous
 62
     3
370
     9
100
AcDbLine
 10
-533.980302552919
 20
-318.9450073242188
 30
0.0
 11
-546.3748107085357
 21
-318.9450073242188
 31
0.0
  0
LINE
  5
35B
330
1F
100
AcDbEntity
  8
通り芯
  6
Continuous
 62
     3
370
     9
100
AcDbLine
 10
-532.7322779475031
 20
-319.6129711254223
 30
0.0
 11
-532.1775797251108
 21
-320.4449875290329
 31
0.0
  0
LINE
  5
35C
330
1F
100
AcDbEntity
  8
通り芯
  6
Continuous
 62
     3
370
     9
100
AcDbLine
 10
-525.622929753484
 20
-319.6129711254223
 30
0.0
 11
-526.1775661159206
 21
-320.4449875290329
 31
0.0
  0
LINE
  5
35D
330
1F
100
AcDbEntity
  8
通り芯
  6
Continuous
 62
     3
370
     9
100
AcDbLine
 10
-511.9803351324958
 20
-318.9450073242188
 30
0.0
 11
-524.3748432881123
 21
-318.9450073242188
 31
0.0
  0
LINE
  5
35E
330
1F
100
AcDbEntity
  8
通り芯
  6
Continuous
 62
     3
370
     9
100
AcDbLine
 10
-510.7322486671242
 20
-319.6129711254223
 30
0.0
 11
-510.1776123046875
 21
-320.4449875290329
 31
0.0
  0
LINE
  5
35F
330
1F
100
AcDbEntity
  8
通り芯
  6
Continuous
 62
     3
370
     9
100
AcDbLine
 10
-503.6229314030828
 20
-319.6129711254223
 30
0.0
 11
-504.1775677655194
 21
-320.4449875290329
 31
0.0
  0
LINE
  5
360
330
1F
100
AcDbEntity
  8
通り芯
  6
Continuous
 62
     3
370
     9
100
AcDbLine
 10
-489.9803367820946
 20
-318.9450073242188
 30
0.0
 11
-502.3748449377111
 21
-318.9450073242188
 31
0.0
  0
LINE
  5
361
330
1F
100
AcDbEntity
  8
通り芯
  6
Continuous
 62
     3
370
     9
100
AcDbLine
 10
-488.7323740366343
 20
-319.6129711254223
 30
0.0
 11
-488.1776139542862
 21
-320.4449875290329
 31
0.0
  0
LINE
  5
362
330
1F
100
AcDbEntity
  8
通り芯
  6
Continuous
 62
     3
370
     9
100
AcDbLine
 10
-481.6229330526816
 20
-319.6129711254223
 30
0.0
 11
-482.1775694151182
 21
-320.4449875290329
 31
0.0
  0
LINE
  5
363
330
1F
100
AcDbEntity
  8
通り芯
  6
Continuous
 62
     3
370
     9
100
AcDbLine
 10
-467.9803384316933
 20
-318.9450073242188
 30
0.0
 11
-480.3748465873099
 21
-318.9450073242188
 31
0.0
  0
LINE
  5
364
330
1F
100
AcDbEntity
  8
通り芯
  6
Continuous
 62
     3
370
     9
100
AcDbLine
 10
-466.7322519663218
 20
-319.6129711254223
 30
0.0
 11
-466.1776156038851
 21
-320.4449875290329
 31
0.0
  0
LINE
  5
365
330
1F
100
AcDbEntity
  8
通り芯
  6
Continuous
 62
     3
370
     9
100
AcDbLine
 10
-459.6229347022804
 20
-319.6129711254223
 30
0.0
 11
-460.1775710647171
 21
-320.4449875290329
 31
0.0
  0
LINE
  5
366
330
1F
100
AcDbEntity
  8
通り芯
  6
Continuous
 62
     3
370
     9
100
AcDbLine
 10
-445.9803400812922
 20
-318.9450073242188
 30
0.0
 11
-458.3748482369087
 21
-318.9450073242188
 31
0.0
  0
LINE
  5
367
330
1F
100
AcDbEntity
  8
通り芯
  6
Continuous
 62
     3
370
     9
100
AcDbLine
 10
-444.7322536159206
 20
-319.6129711254223
 30
0.0
 11
-444.1776172534839
 21
-320.4449875290329
 31
0.0
  0
LINE
  5
368
330
1F
100
AcDbEntity
  8
通り芯
  6
Continuous
 62
     3
370
     9
100
AcDbLine
 10
-437.6228126319679
 20
-319.6129711254223
 30
0.0
 11
-438.1775727143158
 21
-320.4449875290329
 31
0.0
  0
LINE
  5
369
330
1F
100
AcDbEntity
  8
通り芯
  6
Continuous
 62
     3
370
     9
100
AcDbLine
 10
-423.980341730891
 20
-318.9450073242188
 30
0.0
 11
-436.3748498865075
 21
-318.9450073242188
 31
0.0
  0
LINE
  5
36A
330
1F
100
AcDbEntity
  8
通り芯
  6
Continuous
 62
     3
370
     9
100
AcDbLine
 10
-422.7322552655194
 20
-319.6129711254223
 30
0.0
 11
-422.1776189030828
 21
-320.4449875290329
 31
0.0
  0
LINE
  5
36B
330
1F
100
AcDbEntity
  8
通り芯
  6
Continuous
 62
     3
370
     9
100
AcDbLine
 10
-415.6228142815667
 20
-319.6129711254223
 30
0.0
 11
-416.1775743639146
 21
-320.4449875290329
 31
0.0
  0
LINE
  5
36C
330
1F
100
AcDbEntity
  8
通り芯
  6
Continuous
 62
     3
370
     9
100
AcDbLine
 10
-401.9803433804898
 20
-318.9450073242188
 30
0.0
 11
-414.3748515361063
 21
-318.9450073242188
 31
0.0
  0
LINE
  5
36D
330
1F
100
AcDbEntity
  8
通り芯
  6
Continuous
 62
     3
370
     9
100
AcDbLine
 10
-400.7322569151182
 20
-319.6129711254223
 30
0.0
 11
-400.1776205526815
 21
-320.4449875290329
 31
0.0
  0
LINE
  5
36E
330
1F
100
AcDbEntity
  8
通り芯
  6
Continuous
 62
     3
370
     9
100
AcDbLine
 10
-393.6228159311655
 20
-319.6129711254223
 30
0.0
 11
-394.1775760135135
 21
-320.4449875290329
 31
0.0
  0
LINE
  5
36F
330
1F
100
AcDbEntity
  8
通り芯
  6
Continuous
 62
     3
370
     9
100
AcDbLine
 10
-379.9802213101773
 20
-318.9450073242188
 30
0.0
 11
-392.3747294657938
 21
-318.9450073242188
 31
0.0
  0
LINE
  5
370
330
1F
100
AcDbEntity
  8
通り芯
  6
Continuous
 62
     3
370
     9
100
AcDbLine
 10
-378.7322585647171
 20
-319.6129711254223
 30
0.0
 11
-378.177498482369
 21
-320.4449875290329
 31
0.0
  0
LINE
  5
371
330
1F
100
AcDbEntity
  8
通り芯
  6
Continuous
 62
     3
370
     9
100
AcDbLine
 10
-371.6228175807643
 20
-319.6129711254223
 30
0.0
 11
-372.1775776631122
 21
-320.4449875290329
 31
0.0
  0
LINE
  5
372
330
1F
100
AcDbEntity
  8
通り芯
  6
Continuous
 62
     3
370
     9
100
AcDbLine
 10
-357.9802229597761
 20
-318.9450073242188
 30
0.0
 11
-370.3747311153927
 21
-318.9450073242188
 31
0.0
  0
LINE
  5
373
330
1F
100
AcDbEntity
  8
通り芯
  6
Continuous
 62
     3
370
     9
100
AcDbLine
 10
-356.7322602143159
 20
-319.6129711254223
 30
0.0
 11
-356.1775001319678
 21
-320.4449875290329
 31
0.0
  0
LINE
  5
374
330
1F
100
AcDbEntity
  8
通り芯
  6
Continuous
 62
     3
370
     9
100
AcDbLine
 10
-349.6228192303631
 20
-319.6129711254223
 30
0.0
 11
-350.177579312711
 21
-320.4449875290329
 31
0.0
  0
LINE
  5
375
330
1F
100
AcDbEntity
  8
通り芯
  6
Continuous
 62
     3
370
     9
100
AcDbLine
 10
-335.980224609375
 20
-318.9450073242188
 30
0.0
 11
-348.3747327649916
 21
-318.9450073242188
 31
0.0
  0
LINE
  5
376
330
1F
100
AcDbEntity
  8
通り芯
  6
Continuous
 62
     3
370
     9
100
AcDbLine
 10
-334.7321381440034
 20
-319.6129711254223
 30
0.0
 11
-334.1775017815667
 21
-320.4449875290329
 31
0.0
  0
LINE
  5
377
330
1F
100
AcDbEntity
  8
通り芯
  6
Continuous
 62
     3
370
     9
100
AcDbLine
 10
-327.622820879962
 20
-319.6129711254223
 30
0.0
 11
-328.1775809623099
 21
-320.4449875290329
 31
0.0
  0
LINE
  5
378
330
1F
100
AcDbEntity
  8
通り芯
  6
Continuous
 62
     3
370
     9
100
AcDbLine
 10
-313.9802262589739
 20
-318.9450073242188
 30
0.0
 11
-326.3747344145904
 21
-318.9450073242188
 31
0.0
  0
LINE
  5
379
330
1F
100
AcDbEntity
  8
通り芯
  6
Continuous
 62
     3
370
     9
100
AcDbLine
 10
-312.7321397936022
 20
-319.6129711254223
 30
0.0
 11
-312.1775034311655
 21
-320.4449875290329
 31
0.0
  0
LINE
  5
37A
330
1F
100
AcDbEntity
  8
通り芯
  6
Continuous
 62
     3
370
     9
100
AcDbLine
 10
-305.6228225295608
 20
-319.6129711254223
 30
0.0
 11
-306.1774588919974
 21
-320.4449875290329
 31
0.0
  0
LINE
  5
37B
330
1F
100
AcDbEntity
  8
通り芯
  6
Continuous
 62
     3
370
     9
100
AcDbLine
 10
-291.9802279085727
 20
-318.9450073242188
 30
0.0
 11
-304.3747360641892
 21
-318.9450073242188
 31
0.0
  0
LINE
  5
37C
330
1F
100
AcDbEntity
  8
通り芯
  6
Continuous
 62
     3
370
     9
100
AcDbLine
 10
-290.7321414432009
 20
-319.6129711254223
 30
0.0
 11
-290.1775050807643
 21
-320.4449875290329
 31
0.0
  0
LINE
  5
37D
330
1F
100
AcDbEntity
  8
通り芯
  6
Continuous
 62
     3
370
     9
100
AcDbLine
 10
-283.6228241791596
 20
-319.6129711254223
 30
0.0
 11
-284.1774605415962
 21
-320.4449875290329
 31
0.0
  0
LINE
  5
37E
330
1F
100
AcDbEntity
  8
通り芯
  6
Continuous
 62
     3
370
     9
100
AcDbLine
 10
-269.9802295581713
 20
-318.9450073242188
 30
0.0
 11
-282.374737713788
 21
-318.9450073242188
 31
0.0
  0
LINE
  5
37F
330
1F
100
AcDbEntity
  8
通り芯
  6
Continuous
 62
     3
370
     9
100
AcDbLine
 10
-268.732266812711
 20
-319.6129711254223
 30
0.0
 11
-268.1775067303631
 21
-320.4449875290329
 31
0.0
  0
LINE
  5
380
330
1F
100
AcDbEntity
  8
通り芯
  6
Continuous
 62
     3
370
     9
100
AcDbLine
 10
-261.6228258287584
 20
-319.6129711254223
 30
0.0
 11
-262.177462191195
 21
-320.4449875290329
 31
0.0
  0
LINE
  5
381
330
1F
100
AcDbEntity
  8
通り芯
  6
Continuous
 62
     3
370
     9
100
AcDbLine
 10
-247.9802312077702
 20
-318.9450073242188
 30
0.0
 11
-260.3747393633869
 21
-318.9450073242188
 31
0.0
  0
LINE
  5
382
330
1F
100
AcDbEntity
  8
通り芯
  6
Continuous
 62
     3
370
     9
100
AcDbLine
 10
-246.7321447423986
 20
-319.6129711254223
 30
0.0
 11
-246.177508379962
 21
-320.4449875290329
 31
0.0
  0
LINE
  5
383
330
1F
100
AcDbEntity
  8
通り芯
  6
Continuous
 62
     3
370
     9
100
AcDbLine
 10
-239.6228274783572
 20
-319.6129711254223
 30
0.0
 11
-240.1774638407939
 21
-320.4449875290329
 31
0.0
  0
LINE
  5
384
330
1F
100
AcDbEntity
  8
通り芯
  6
Continuous
 62
     3
370
     9
100
AcDbLine
 10
-225.980232857369
 20
-318.9450073242188
 30
0.0
 11
-238.3747410129855
 21
-318.9450073242188
 31
0.0
  0
LINE
  5
385
330
1F
100
AcDbEntity
  8
通り芯
  6
Continuous
 62
     3
370
     9
100
AcDbLine
 10
-224.7321463919974
 20
-319.6129711254223
 30
0.0
 11
-224.1773863096495
 21
-320.4449875290329
 31
0.0
  0
LINE
  5
386
330
1F
100
AcDbEntity
  8
通り芯
  6
Continuous
 62
     3
370
     9
100
AcDbLine
 10
-217.622829127956
 20
-319.6129711254223
 30
0.0
 11
-218.1774654903927
 21
-320.4449875290329
 31
0.0
  0
LINE
  5
387
330
1F
100
AcDbEntity
  8
通り芯
  6
Continuous
 62
     3
370
     9
100
AcDbLine
 10
-203.9801107870565
 20
-318.9450073242188
 30
0.0
 11
-216.3747426625844
 21
-318.9450073242188
 31
0.0
  0
LINE
  5
388
330
1F
100
AcDbEntity
  8
通り芯
  6
Continuous
 62
     3
370
     9
100
AcDbLine
 10
-202.7320243216849
 20
-319.6129711254223
 30
0.0
 11
-202.1773879592483
 21
-320.4449875290329
 31
0.0
  0
LINE
  5
389
330
1F
100
AcDbEntity
  8
通り芯
  6
Continuous
 62
     3
370
     9
100
AcDbLine
 10
-195.6227070576435
 20
-319.6129711254223
 30
0.0
 11
-196.1773434200802
 21
-320.4449875290329
 31
0.0
  0
LINE
  5
38A
330
1F
100
AcDbEntity
  8
通り芯
  6
Continuous
 62
     3
370
     9
100
AcDbLine
 10
-181.9801124366553
 20
-318.9450073242188
 30
0.0
 11
-194.3746205922719
 21
-318.9450073242188
 31
0.0
  0
LINE
  5
38B
330
1F
100
AcDbEntity
  8
通り芯
  6
Continuous
 62
     3
370
     9
100
AcDbLine
 10
-180.7320259712837
 20
-319.6129711254223
 30
0.0
 11
-180.1773896088471
 21
-320.4449875290329
 31
0.0
  0
LINE
  5
38C
330
1F
100
AcDbEntity
  8
通り芯
  6
Continuous
 62
     3
370
     9
100
AcDbLine
 10
-173.6227087072423
 20
-319.6129711254223
 30
0.0
 11
-174.177345069679
 21
-320.4449875290329
 31
0.0
  0
LINE
  5
38D
330
1F
100
AcDbEntity
  8
通り芯
  6
Continuous
 62
     3
370
     9
100
AcDbLine
 10
-159.9801140862542
 20
-318.9450073242188
 30
0.0
 11
-172.3746222418707
 21
-318.9450073242188
 31
0.0
  0
LINE
  5
38E
330
1F
100
AcDbEntity
  8
通り芯
  6
Continuous
 62
     3
370
     9
100
AcDbLine
 10
-158.7320276208825
 20
-319.6129711254223
 30
0.0
 11
-158.1772675385346
 21
-320.4449875290329
 31
0.0
  0
LINE
  5
38F
330
1F
100
AcDbEntity
  8
通り芯
  6
Continuous
 62
     3
370
     9
100
AcDbLine
 10
-151.6227103568411
 20
-319.6129711254223
 30
0.0
 11
-152.1774704391892
 21
-320.4449875290329
 31
0.0
  0
LINE
  5
390
330
1F
100
AcDbEntity
  8
通り芯
  6
Continuous
 62
     3
370
     9
100
AcDbLine
 10
-137.980115735853
 20
-318.9450073242188
 30
0.0
 11
-150.3746238914695
 21
-318.9450073242188
 31
0.0
  0
LINE
  5
391
330
1F
100
AcDbEntity
  8
通り芯
  6
Continuous
 62
     3
370
     9
100
AcDbLine
 10
-136.7320292704814
 20
-319.6129711254223
 30
0.0
 11
-136.1772691881335
 21
-320.4449875290329
 31
0.0
  0
LINE
  5
392
330
1F
100
AcDbEntity
  8
通り芯
  6
Continuous
 62
     3
370
     9
100
AcDbLine
 10
-664.177569827518
 20
-344.0516126478041
 30
0.0
 11
-664.177569827518
 21
-363.945032068201
 31
0.0
  0
LINE
  5
393
330
1F
100
AcDbEntity
  8
通り芯
  6
Continuous
 62
     3
370
     9
100
AcDbLine
 10
-658.1775871483055
 20
-344.0516126478041
 30
0.0
 11
-658.1775871483055
 21
-363.945032068201
 31
0.0
  0
LINE
  5
394
330
1F
100
AcDbEntity
  8
通り芯
  6
Continuous
 62
     3
370
     9
100
AcDbLine
 10
-202.1773879592483
 20
-344.0010730640308
 30
0.0
 11
-202.1773879592483
 21
-363.945032068201
 31
0.0
  0
LINE
  5
395
330
1F
100
AcDbEntity
  8
通り芯
  6
Continuous
 62
     3
370
     9
100
AcDbLine
 10
-196.1774671399915
 20
-344.0010730640308
 30
0.0
 11
-196.1774671399915
 21
-363.945032068201
 31
0.0
  0
LINE
  5
396
330
1F
100
AcDbEntity
  8
通り芯
  6
Continuous
 62
     3
370
     9
100
AcDbLine
 10
486.3397546716638
 20
143.728489231419
 30
0.0
 11
486.3397546716638
 21
101.7394359691724
 31
0.0
  0
LINE
  5
397
330
1F
100
AcDbEntity
  8
通り芯
  6
Continuous
 62
     3
370
     9
100
AcDbLine
 10
494.9395257073482
 20
101.1661179001267
 30
0.0
 11
486.3397546716638
 21
101.7394359691724
 31
0.0
  0
LINE
  5
398
330
1F
100
AcDbEntity
  8
通り芯
  6
Continuous
 62
     3
370
     9
100
AcDbLine
 10
494.9395257073482
 20
92.97957136824323
 30
0.0
 11
486.3397546716638
 21
92.40625329919766
 31
0.0
  0
LINE
  5
399
330
1F
100
AcDbEntity
  8
通り芯
  6
Continuous
 62
     3
370
     9
100
AcDbLine
 10
466.3399361275339
 20
105.5321935705237
 30
0.0
 11
466.3399361275339
 21
107.07275390625
 31
0.0
  0
LINE
  5
39A
330
1F
100
AcDbEntity
  8
通り芯
  6
Continuous
 62
     3
370
     9
100
AcDbLine
 10
466.3399361275339
 20
88.61337197793503
 30
0.0
 11
466.3399361275339
 21
87.07281164220859
 31
0.0
  0
LINE
  5
39B
330
1F
100
AcDbEntity
  8
通り芯
  6
Continuous
 62
     3
370
     9
100
AcDbLine
 10
-132.677480336782
 20
87.07281164220859
 30
0.0
 11
-727.6775875607052
 21
87.07281164220859
 31
0.0
  0
LINE
  5
39C
330
1F
100
AcDbEntity
  8
通り芯
  6
Continuous
 62
     3
370
     9
100
AcDbLine
 10
-669.1775863235061
 20
115.0727308118665
 30
0.0
 11
-669.1775863235061
 21
107.07275390625
 31
0.0
  0
LINE
  5
39D
330
1F
100
AcDbEntity
  8
通り芯
  6
Continuous
 62
     3
370
     9
100
AcDbLine
 10
-669.1775863235061
 20
87.07281164220859
 30
0.0
 11
-669.1775863235061
 21
79.07271101668073
 31
0.0
  0
LINE
  5
39E
330
1F
100
AcDbEntity
  8
通り芯
  6
Continuous
 62
     3
370
     9
100
AcDbLine
 10
-653.1775706523173
 20
115.0727308118665
 30
0.0
 11
-653.1775706523173
 21
107.07275390625
 31
0.0
  0
LINE
  5
39F
330
1F
100
AcDbEntity
  8
通り芯
  6
Continuous
 62
     3
370
     9
100
AcDbLine
 10
-653.1775706523173
 20
87.07281164220859
 30
0.0
 11
-653.1775706523173
 21
79.07271101668073
 31
0.0
  0
LINE
  5
3A0
330
1F
100
AcDbEntity
  8
通り芯
  6
Continuous
 62
     3
370
     9
100
AcDbLine
 10
-207.1775281751478
 20
115.0727308118665
 30
0.0
 11
-207.1775281751478
 21
107.07275390625
 31
0.0
  0
LINE
  5
3A1
330
1F
100
AcDbEntity
  8
通り芯
  6
Continuous
 62
     3
370
     9
100
AcDbLine
 10
-207.1775281751478
 20
87.07281164220859
 30
0.0
 11
-207.1775281751478
 21
79.07271101668073
 31
0.0
  0
LINE
  5
3A2
330
1F
100
AcDbEntity
  8
通り芯
  6
Continuous
 62
     3
370
     9
100
AcDbLine
 10
-191.1775743639147
 20
115.0727308118665
 30
0.0
 11
-191.1775743639147
 21
107.07275390625
 31
0.0
  0
LINE
  5
3A3
330
1F
100
AcDbEntity
  8
通り芯
  6
Continuous
 62
     3
370
     9
100
AcDbLine
 10
-191.1775743639147
 20
87.07281164220859
 30
0.0
 11
-191.1775743639147
 21
79.07271101668073
 31
0.0
  0
LINE
  5
3A4
330
1F
100
AcDbEntity
  8
0-E
  6
Continuous
 62
     7
370
     9
100
AcDbLine
 10
622.9051332216005
 20
23.17679740287161
 30
0.0
 11
500.4563202729096
 21
85.01101932010144
 31
0.0
  0
LINE
  5
3A5
330
1F
100
AcDbEntity
  8
0-E
  6
Continuous
 62
     7
370
     9
100
AcDbLine
 10
500.4563202729096
 20
85.01101932010144
 30
0.0
 11
514.613960884713
 21
80.05504711254233
 31
0.0
  0
LINE
  5
3A6
330
1F
100
AcDbEntity
  8
0-E
  6
Continuous
 62
     7
370
     9
100
AcDbLine
 10
500.4563202729096
 20
85.01101932010144
 30
0.0
 11
512.848848909945
 21
76.55965031804271
 31
0.0
  0
LINE
  5
3A7
330
1F
100
AcDbEntity
  8
通り芯
  6
JWW_CENTER1
 62
     3
370
     9
100
AcDbLine
 10
436.3399608715162
 20
97.07284463418503
 30
0.0
 11
588.043212890625
 21
97.07284463418503
 31
0.0
  0
LINE
  5
3A8
330
1F
100
AcDbEntity
  8
通り芯
  6
JWW_CENTER1
 62
     3
370
     9
100
AcDbLine
 10
-754.1775883855047
 20
97.0727209142737
 30
0.0
 11
124.8223794473185
 21
97.0727209142737
 31
0.0
  0
LINE
  5
3A9
330
1F
100
AcDbEntity
  8
通り芯
  6
JWW_CENTER1
 62
     3
370
     9
100
AcDbLine
 10
-199.1775512695312
 20
-415.7669727222339
 30
0.0
 11
-199.1775512695312
 21
-338.9450423781936
 31
0.0
  0
LINE
  5
3AA
330
1F
100
AcDbEntity
  8
通り芯
  6
JWW_CENTER1
 62
     3
370
     9
100
AcDbLine
 10
-661.1776094178896
 20
-338.9450423781936
 30
0.0
 11
-661.1776094178896
 21
-415.7668490023226
 31
0.0
  0
LINE
  5
3AB
330
1F
100
AcDbEntity
  8
通り芯
  6
JWW_PHANTOM2
 62
     3
370
     9
100
AcDbLine
 10
-129.1775059055637
 20
247.0727209142737
 30
0.0
 11
99.82242068728894
 21
247.0727209142737
 31
0.0
  0
LINE
  5
3AC
330
1F
100
AcDbEntity
  8
通り芯
  6
JWW_PHANTOM2
 62
     3
370
     9
100
AcDbLine
 10
-129.1775059055637
 20
-52.92715536581497
 30
0.0
 11
99.82242068728894
 21
-52.92715536581497
 31
0.0
  0
LINE
  5
3AD
330
1F
100
AcDbEntity
  8
通り芯
  6
JWW_PHANTOM2
 62
     3
370
     9
100
AcDbLine
 10
-129.1775059055637
 20
247.0727209142737
 30
0.0
 11
-129.1775059055637
 21
-52.92715536581497
 31
0.0
  0
LINE
  5
3AE
330
1F
100
AcDbEntity
  8
躯体
  6
Continuous
 62
     2
370
     9
100
AcDbLine
 10
-634.6776085930902
 20
-62.40224477407097
 30
0.0
 11
-634.6776085930902
 21
-86.90237509237747
 31
0.0
  0
LINE
  5
3AF
330
1F
100
AcDbEntity
  8
躯体
  6
Continuous
 62
     2
370
     9
100
AcDbLine
 10
-625.6776345742715
 20
-62.40224477407097
 30
0.0
 11
-625.6776345742715
 21
-86.90237509237747
 31
0.0
  0
LINE
  5
3B0
330
1F
100
AcDbEntity
  8
躯体
  6
Continuous
 62
     2
370
     9
100
AcDbLine
 10
-634.6776085930902
 20
-86.90237509237747
 30
0.0
 11
-625.6776345742715
 21
-86.90237509237747
 31
0.0
  0
LINE
  5
3B1
330
1F
100
AcDbEntity
  8
躯体
  6
Continuous
 62
     2
370
     9
100
AcDbLine
 10
-34.67757766311223
 20
-62.40224477407097
 30
0.0
 11
-34.67757766311223
 21
-86.90237509237747
 31
0.0
  0
LINE
  5
3B2
330
1F
100
AcDbEntity
  8
躯体
  6
Continuous
 62
     2
370
     9
100
AcDbLine
 10
-25.67757271431589
 20
-62.40224477407097
 30
0.0
 11
-25.67757271431589
 21
-86.90237509237747
 31
0.0
  0
LINE
  5
3B3
330
1F
100
AcDbEntity
  8
躯体
  6
Continuous
 62
     2
370
     9
100
AcDbLine
 10
-34.67757766311223
 20
-86.90237509237747
 30
0.0
 11
-25.67757271431589
 21
-86.90237509237747
 31
0.0
  0
LINE
  5
3B4
330
1F
100
AcDbEntity
  8
躯体
  6
JWW_CENTER1
 62
     2
370
     9
100
AcDbLine
 10
-21.67758426150755
 20
-62.40224477407097
 30
0.0
 11
-38.67756611592057
 21
-62.40224477407097
 31
0.0
  0
LINE
  5
3B5
330
1F
100
AcDbEntity
  8
躯体
  6
JWW_CENTER1
 62
     2
370
     9
100
AcDbLine
 10
-30.17763704866965
 20
-53.90225384686445
 30
0.0
 11
-30.17763704866965
 21
-90.9023635451858
 31
0.0
  0
LINE
  5
3B6
330
1F
100
AcDbEntity
  8
躯体
  6
JWW_CENTER1
 62
     2
370
     9
100
AcDbLine
 10
-621.6775842615075
 20
-62.40224477407097
 30
0.0
 11
-638.6775661159206
 21
-62.40224477407097
 31
0.0
  0
LINE
  5
3B7
330
1F
100
AcDbEntity
  8
躯体
  6
JWW_CENTER1
 62
     2
370
     9
100
AcDbLine
 10
-630.1776370486697
 20
-53.90225384686445
 30
0.0
 11
-630.1776370486697
 21
-90.9023635451858
 31
0.0
  0
ARC
  5
3B8
330
1F
100
AcDbEntity
  8
躯体
  6
Continuous
 62
     2
370
     9
100
AcDbCircle
 10
483.3399179819469
 20
-51.70226638381536
 30
0.0
 40
3.000000038662472
100
AcDbArc
 50
270.0
 51
0.0
  0
ARC
  5
3B9
330
1F
100
AcDbEntity
  8
躯体
  6
Continuous
 62
     2
370
     9
100
AcDbCircle
 10
483.3396705421242
 20
-51.70226638381536
 30
0.0
 40
6.200000563183346
100
AcDbArc
 50
270.0
 51
0.0
  0
ARC
  5
3BA
330
1F
100
AcDbEntity
  8
躯体
  6
Continuous
 62
     2
370
     9
100
AcDbCircle
 10
504.5398196658573
 20
-71.90232560441302
 30
0.0
 40
5.000000064437454
100
AcDbArc
 50
0.0
 51
90.0
  0
ARC
  5
3BB
330
1F
100
AcDbEntity
  8
躯体
  6
Continuous
 62
     2
370
     9
100
AcDbCircle
 10
504.5398196658573
 20
-71.90226374445729
 30
0.0
 40
13.99999921386306
100
AcDbArc
 50
0.0
 51
90.0
  0
ARC
  5
3BC
330
1F
100
AcDbEntity
  8
躯体
  6
JWW_CENTER1
 62
     2
370
     9
100
AcDbCircle
 10
504.5398196658573
 20
-71.90226374445729
 30
0.0
 40
9.500000605712067
100
AcDbArc
 50
0.0
 51
90.0
  0
ARC
  5
3BD
330
1F
100
AcDbEntity
  8
躯体
  6
Continuous
 62
     2
370
     9
100
AcDbCircle
 10
483.3399179819469
 20
245.8476463524072
 30
0.0
 40
3.000000038662472
100
AcDbArc
 50
0.0
 51
90.0
  0
ARC
  5
3BE
330
1F
100
AcDbEntity
  8
躯体
  6
Continuous
 62
     2
370
     9
100
AcDbCircle
 10
483.3396705421242
 20
245.8476463524072
 30
0.0
 40
6.200000563183346
100
AcDbArc
 50
0.0
 51
90.0
  0
ARC
  5
3BF
330
1F
100
AcDbEntity
  8
躯体
  6
Continuous
 62
     2
370
     9
100
AcDbCircle
 10
504.5398196658573
 20
266.0476437130491
 30
0.0
 40
5.000000064437454
100
AcDbArc
 50
270.0
 51
0.0
  0
ARC
  5
3C0
330
1F
100
AcDbEntity
  8
躯体
  6
Continuous
 62
     2
370
     9
100
AcDbCircle
 10
504.5398196658573
 20
266.0476437130491
 30
0.0
 40
13.99999921386306
100
AcDbArc
 50
270.0
 51
0.0
  0
ARC
  5
3C1
330
1F
100
AcDbEntity
  8
躯体
  6
JWW_CENTER1
 62
     2
370
     9
100
AcDbCircle
 10
504.5398196658573
 20
266.0476437130491
 30
0.0
 40
9.500000605712067
100
AcDbArc
 50
270.0
 51
0.0
  0
CIRCLE
  5
3C2
330
1F
100
AcDbEntity
  8
躯体
  6
Continuous
 62
     2
370
     9
100
AcDbCircle
 10
-630.1775751887141
 20
256.5476866026182
 30
0.0
 40
4.500000057993709
  0
CIRCLE
  5
3C3
330
1F
100
AcDbEntity
  8
躯体
  6
Continuous
 62
     2
370
     9
100
AcDbCircle
 10
-30.17763704866965
 20
256.5476866026182
 30
0.0
 40
4.500000057993709
  0
ARC
  5
3C4
330
1F
100
AcDbEntity
  8
通り芯
  6
Continuous
 62
     3
370
     9
100
AcDbCircle
 10
504.0623845280828
 20
97.07284463418503
 30
0.0
 40
2.500000032218727
100
AcDbArc
 50
90.0
 51
270.0
  0
ARC
  5
3C5
330
1F
100
AcDbEntity
  8
通り芯
  6
Continuous
 62
     3
370
     9
100
AcDbCircle
 10
541.0623086465373
 20
97.07284463418503
 30
0.0
 40
2.500000032218727
100
AcDbArc
 50
270.0
 51
90.0
  0
ARC
  5
3C6
330
1F
100
AcDbEntity
  8
通り芯
  6
Continuous
 62
     3
370
     9
100
AcDbCircle
 10
542.5622888513516
 20
97.07284463418503
 30
0.0
 40
9.000000115987417
100
AcDbArc
 50
196.1276245117188
 51
270.0
  0
ARC
  5
3C7
330
1F
100
AcDbEntity
  8
通り芯
  6
Continuous
 62
     3
370
     9
100
AcDbCircle
 10
542.5622888513516
 20
97.07284463418503
 30
0.0
 40
4.000000293190415
100
AcDbArc
 50
218.6825866699219
 51
269.9984893798828
  0
ARC
  5
3C8
330
1F
100
AcDbEntity
  8
通り芯
  6
Continuous
 62
     3
370
     9
100
AcDbCircle
 10
542.5622888513516
 20
97.07284463418503
 30
0.0
 40
9.000000115987417
100
AcDbArc
 50
90.0
 51
163.8723754882812
  0
ARC
  5
3C9
330
1F
100
AcDbEntity
  8
通り芯
  6
Continuous
 62
     3
370
     9
100
AcDbCircle
 10
542.5622888513516
 20
97.07284463418503
 30
0.0
 40
4.000000293190415
100
AcDbArc
 50
90.0015106201172
 51
141.3174133300782
  0
ARC
  5
3CA
330
1F
100
AcDbEntity
  8
通り芯
  6
Continuous
 62
     3
370
     9
100
AcDbCircle
 10
500.5388414537586
 20
96.97498218433282
 30
0.0
 40
11.96423930090827
100
AcDbArc
 50
269.6048278808594
 51
348.4177856445312
  0
ARC
  5
3CB
330
1F
100
AcDbEntity
  8
通り芯
  6
Continuous
 62
     3
370
     9
100
AcDbCircle
 10
500.5388414537586
 20
97.14002454603047
 30
0.0
 40
6.023801661826469
100
AcDbArc
 50
270.7848968505859
 51
334.7761230468751
  0
ARC
  5
3CC
330
1F
100
AcDbEntity
  8
通り芯
  6
Continuous
 62
     3
370
     9
100
AcDbCircle
 10
500.5388414537586
 20
96.97498218433282
 30
0.0
 40
11.96423930090827
100
AcDbArc
 50
12.54110717773438
 51
89.60482788085938
  0
ARC
  5
3CD
330
1F
100
AcDbEntity
  8
通り芯
  6
Continuous
 62
     3
370
     9
100
AcDbCircle
 10
500.5388414537586
 20
97.14002454603047
 30
0.0
 40
6.023801661826469
100
AcDbArc
 50
23.82115173339844
 51
90.78489685058594
  0
ARC
  5
3CE
330
1F
100
AcDbEntity
  8
通り芯
  6
Continuous
 62
     3
370
     9
100
AcDbCircle
 10
-726.6775904475031
 20
-35.42709762985638
 30
0.0
 40
1.500000019331236
100
AcDbArc
 50
90.0
 51
180.0
  0
ARC
  5
3CF
330
1F
100
AcDbEntity
  8
通り芯
  6
Continuous
 62
     3
370
     9
100
AcDbCircle
 10
-726.6775904475031
 20
-50.42727083773229
 30
0.0
 40
1.500000019331236
100
AcDbArc
 50
180.0
 51
270.0
  0
ARC
  5
3D0
330
1F
100
AcDbEntity
  8
通り芯
  6
Continuous
 62
     3
370
     9
100
AcDbCircle
 10
-727.6775875607052
 20
-51.42723702095651
 30
0.0
 40
1.500000019331236
100
AcDbArc
 50
180.0
 51
270.0
  0
ARC
  5
3D1
330
1F
100
AcDbEntity
  8
通り芯
  6
Continuous
 62
     3
370
     9
100
AcDbCircle
 10
-727.6775875607052
 20
-34.42713144663216
 30
0.0
 40
1.500000019331236
100
AcDbArc
 50
90.0
 51
180.0
  0
ARC
  5
3D2
330
1F
100
AcDbEntity
  8
通り芯
  6
Continuous
 62
     3
370
     9
100
AcDbCircle
 10
-133.6773846600506
 20
-50.42727083773229
 30
0.0
 40
1.500000019331236
100
AcDbArc
 50
269.9980010986328
 51
0.0000000000000254
  0
ARC
  5
3D3
330
1F
100
AcDbEntity
  8
通り芯
  6
Continuous
 62
     3
370
     9
100
AcDbCircle
 10
-132.677480336782
 20
-51.42723702095651
 30
0.0
 40
1.500000019331236
100
AcDbArc
 50
269.9980010986328
 51
0.0000000000000254
  0
ARC
  5
3D4
330
1F
100
AcDbEntity
  8
通り芯
  6
Continuous
 62
     3
370
     9
100
AcDbCircle
 10
-133.6773846600506
 20
-35.42709762985638
 30
0.0
 40
1.500000019331236
100
AcDbArc
 50
0.0
 51
90.0019989013672
  0
ARC
  5
3D5
330
1F
100
AcDbEntity
  8
通り芯
  6
Continuous
 62
     3
370
     9
100
AcDbCircle
 10
-132.677480336782
 20
-34.42713144663216
 30
0.0
 40
1.500000019331236
100
AcDbArc
 50
0.0
 51
90.0019989013672
  0
ARC
  5
3D6
330
1F
100
AcDbEntity
  8
通り芯
  6
Continuous
 62
     3
370
     9
100
AcDbCircle
 10
-726.6775904475031
 20
-7.427054740287105
 30
0.0
 40
1.500000019331236
100
AcDbArc
 50
90.0
 51
180.0
  0
ARC
  5
3D7
330
1F
100
AcDbEntity
  8
通り芯
  6
Continuous
 62
     3
370
     9
100
AcDbCircle
 10
-726.6775904475031
 20
-22.42710422825169
 30
0.0
 40
1.500000019331236
100
AcDbArc
 50
180.0
 51
270.0
  0
ARC
  5
3D8
330
1F
100
AcDbEntity
  8
通り芯
  6
Continuous
 62
     3
370
     9
100
AcDbCircle
 10
-727.6775875607052
 20
-23.4271322714315
 30
0.0
 40
1.500000019331236
100
AcDbArc
 50
180.0
 51
270.0
  0
ARC
  5
3D9
330
1F
100
AcDbEntity
  8
通り芯
  6
Continuous
 62
     3
370
     9
100
AcDbCircle
 10
-727.6775875607052
 20
-6.427150417018481
 30
0.0
 40
1.500000019331236
100
AcDbArc
 50
90.0
 51
180.0
  0
ARC
  5
3DA
330
1F
100
AcDbEntity
  8
通り芯
  6
Continuous
 62
     3
370
     9
100
AcDbCircle
 10
-133.6773846600506
 20
-22.42710422825169
 30
0.0
 40
1.500000019331236
100
AcDbArc
 50
269.9980010986328
 51
0.0000000000000254
  0
ARC
  5
3DB
330
1F
100
AcDbEntity
  8
通り芯
  6
Continuous
 62
     3
370
     9
100
AcDbCircle
 10
-132.677480336782
 20
-23.4271322714315
 30
0.0
 40
1.500000019331236
100
AcDbArc
 50
269.9980010986328
 51
0.0000000000000254
  0
ARC
  5
3DC
330
1F
100
AcDbEntity
  8
通り芯
  6
Continuous
 62
     3
370
     9
100
AcDbCircle
 10
-133.6773846600506
 20
-7.427054740287105
 30
0.0
 40
1.500000019331236
100
AcDbArc
 50
0.0
 51
90.0019989013672
  0
ARC
  5
3DD
330
1F
100
AcDbEntity
  8
通り芯
  6
Continuous
 62
     3
370
     9
100
AcDbCircle
 10
-132.677480336782
 20
-6.427150417018481
 30
0.0
 40
1.500000019331236
100
AcDbArc
 50
0.0
 51
90.0019989013672
  0
ARC
  5
3DE
330
1F
100
AcDbEntity
  8
通り芯
  6
Continuous
 62
     3
370
     9
100
AcDbCircle
 10
-726.6775904475031
 20
20.57286442937084
 30
0.0
 40
1.500000019331236
100
AcDbArc
 50
90.0
 51
180.0
  0
ARC
  5
3DF
330
1F
100
AcDbEntity
  8
通り芯
  6
Continuous
 62
     3
370
     9
100
AcDbCircle
 10
-726.6775904475031
 20
5.572691221494921
 30
0.0
 40
1.500000019331236
100
AcDbArc
 50
180.0
 51
270.0
  0
ARC
  5
3E0
330
1F
100
AcDbEntity
  8
通り芯
  6
Continuous
 62
     3
370
     9
100
AcDbCircle
 10
-727.6775875607052
 20
4.57278689822644
 30
0.0
 40
1.500000019331236
100
AcDbArc
 50
180.0
 51
270.0
  0
ARC
  5
3E1
330
1F
100
AcDbEntity
  8
通り芯
  6
Continuous
 62
     3
370
     9
100
AcDbCircle
 10
-727.6775875607052
 20
21.57289247255065
 30
0.0
 40
1.500000019331236
100
AcDbArc
 50
90.0
 51
180.0
  0
ARC
  5
3E2
330
1F
100
AcDbEntity
  8
通り芯
  6
Continuous
 62
     3
370
     9
100
AcDbCircle
 10
-133.6773846600506
 20
5.572691221494921
 30
0.0
 40
1.500000019331236
100
AcDbArc
 50
269.9980010986328
 51
0.0000000000000254
  0
ARC
  5
3E3
330
1F
100
AcDbEntity
  8
通り芯
  6
Continuous
 62
     3
370
     9
100
AcDbCircle
 10
-132.677480336782
 20
4.57278689822644
 30
0.0
 40
1.500000019331236
100
AcDbArc
 50
269.9980010986328
 51
0.0000000000000254
  0
ARC
  5
3E4
330
1F
100
AcDbEntity
  8
通り芯
  6
Continuous
 62
     3
370
     9
100
AcDbCircle
 10
-133.6773846600506
 20
20.57286442937084
 30
0.0
 40
1.500000019331236
100
AcDbArc
 50
0.0
 51
90.0019989013672
  0
ARC
  5
3E5
330
1F
100
AcDbEntity
  8
通り芯
  6
Continuous
 62
     3
370
     9
100
AcDbCircle
 10
-132.677480336782
 20
21.57289247255065
 30
0.0
 40
1.500000019331236
100
AcDbArc
 50
0.0
 51
90.0019989013672
  0
ARC
  5
3E6
330
1F
100
AcDbEntity
  8
通り芯
  6
Continuous
 62
     3
370
     9
100
AcDbCircle
 10
-726.6775904475031
 20
48.57278359902878
 30
0.0
 40
1.500000019331236
100
AcDbArc
 50
90.0
 51
180.0
  0
ARC
  5
3E7
330
1F
100
AcDbEntity
  8
通り芯
  6
Continuous
 62
     3
370
     9
100
AcDbCircle
 10
-726.6775904475031
 20
33.57273411106419
 30
0.0
 40
1.500000019331236
100
AcDbArc
 50
180.0
 51
270.0
  0
ARC
  5
3E8
330
1F
100
AcDbEntity
  8
通り芯
  6
Continuous
 62
     3
370
     9
100
AcDbCircle
 10
-727.6775875607052
 20
32.57282978779571
 30
0.0
 40
1.500000019331236
100
AcDbArc
 50
180.0
 51
270.0
  0
ARC
  5
3E9
330
1F
100
AcDbEntity
  8
通り芯
  6
Continuous
 62
     3
370
     9
100
AcDbCircle
 10
-727.6775875607052
 20
49.57281164220859
 30
0.0
 40
1.500000019331236
100
AcDbArc
 50
90.0
 51
180.0
  0
ARC
  5
3EA
330
1F
100
AcDbEntity
  8
通り芯
  6
Continuous
 62
     3
370
     9
100
AcDbCircle
 10
-133.6773846600506
 20
33.57273411106419
 30
0.0
 40
1.500000019331236
100
AcDbArc
 50
269.9980010986328
 51
0.0000000000000254
  0
ARC
  5
3EB
330
1F
100
AcDbEntity
  8
通り芯
  6
Continuous
 62
     3
370
     9
100
AcDbCircle
 10
-132.677480336782
 20
32.57282978779571
 30
0.0
 40
1.500000019331236
100
AcDbArc
 50
269.9980010986328
 51
0.0000000000000254
  0
ARC
  5
3EC
330
1F
100
AcDbEntity
  8
通り芯
  6
Continuous
 62
     3
370
     9
100
AcDbCircle
 10
-133.6773846600506
 20
48.57278359902878
 30
0.0
 40
1.500000019331236
100
AcDbArc
 50
0.0
 51
90.0019989013672
  0
ARC
  5
3ED
330
1F
100
AcDbEntity
  8
通り芯
  6
Continuous
 62
     3
370
     9
100
AcDbCircle
 10
-132.677480336782
 20
49.57281164220859
 30
0.0
 40
1.500000019331236
100
AcDbArc
 50
0.0
 51
90.0019989013672
  0
ARC
  5
3EE
330
1F
100
AcDbEntity
  8
通り芯
  6
Continuous
 62
     3
370
     9
100
AcDbCircle
 10
-726.6775904475031
 20
76.57282648859805
 30
0.0
 40
1.500000019331236
100
AcDbArc
 50
90.0
 51
180.0
  0
ARC
  5
3EF
330
1F
100
AcDbEntity
  8
通り芯
  6
Continuous
 62
     3
370
     9
100
AcDbCircle
 10
-726.6775904475031
 20
61.57277700063347
 30
0.0
 40
1.500000019331236
100
AcDbArc
 50
180.0
 51
270.0
  0
ARC
  5
3F0
330
1F
100
AcDbEntity
  8
通り芯
  6
Continuous
 62
     3
370
     9
100
AcDbCircle
 10
-727.6775875607052
 20
60.57274895745365
 30
0.0
 40
1.500000019331236
100
AcDbArc
 50
180.0
 51
270.0
  0
ARC
  5
3F1
330
1F
100
AcDbEntity
  8
通り芯
  6
Continuous
 62
     3
370
     9
100
AcDbCircle
 10
-727.6775875607052
 20
77.57285453177786
 30
0.0
 40
1.500000019331236
100
AcDbArc
 50
90.0
 51
180.0
  0
ARC
  5
3F2
330
1F
100
AcDbEntity
  8
通り芯
  6
Continuous
 62
     3
370
     9
100
AcDbCircle
 10
-133.6773846600506
 20
61.57277700063347
 30
0.0
 40
1.500000019331236
100
AcDbArc
 50
269.9980010986328
 51
0.0000000000000254
  0
ARC
  5
3F3
330
1F
100
AcDbEntity
  8
通り芯
  6
Continuous
 62
     3
370
     9
100
AcDbCircle
 10
-132.677480336782
 20
60.57274895745365
 30
0.0
 40
1.500000019331236
100
AcDbArc
 50
269.9980010986328
 51
0.0000000000000254
  0
ARC
  5
3F4
330
1F
100
AcDbEntity
  8
通り芯
  6
Continuous
 62
     3
370
     9
100
AcDbCircle
 10
-133.6773846600506
 20
76.57282648859805
 30
0.0
 40
1.500000019331236
100
AcDbArc
 50
0.0
 51
90.0019989013672
  0
ARC
  5
3F5
330
1F
100
AcDbEntity
  8
通り芯
  6
Continuous
 62
     3
370
     9
100
AcDbCircle
 10
-132.677480336782
 20
77.57285453177786
 30
0.0
 40
1.500000019331236
100
AcDbArc
 50
0.0
 51
90.0019989013672
  0
ARC
  5
3F6
330
1F
100
AcDbEntity
  8
通り芯
  6
Continuous
 62
     3
370
     9
100
AcDbCircle
 10
-726.6775904475031
 20
104.5728693781673
 30
0.0
 40
1.500000019331236
100
AcDbArc
 50
90.0
 51
180.0
  0
ARC
  5
3F7
330
1F
100
AcDbEntity
  8
通り芯
  6
Continuous
 62
     3
370
     9
100
AcDbCircle
 10
-726.6775904475031
 20
89.57281989020274
 30
0.0
 40
1.500000019331236
100
AcDbArc
 50
180.0
 51
270.0
  0
ARC
  5
3F8
330
1F
100
AcDbEntity
  8
通り芯
  6
Continuous
 62
     3
370
     9
100
AcDbCircle
 10
-727.6775875607052
 20
88.57291556693411
 30
0.0
 40
1.500000019331236
100
AcDbArc
 50
180.0
 51
270.0
  0
ARC
  5
3F9
330
1F
100
AcDbEntity
  8
通り芯
  6
Continuous
 62
     3
370
     9
100
AcDbCircle
 10
-727.6775875607052
 20
105.5727737014358
 30
0.0
 40
1.500000019331236
100
AcDbArc
 50
90.0
 51
180.0
  0
ARC
  5
3FA
330
1F
100
AcDbEntity
  8
通り芯
  6
Continuous
 62
     3
370
     9
100
AcDbCircle
 10
-133.6773846600506
 20
89.57281989020274
 30
0.0
 40
1.500000019331236
100
AcDbArc
 50
269.9980010986328
 51
0.0000000000000254
  0
ARC
  5
3FB
330
1F
100
AcDbEntity
  8
通り芯
  6
Continuous
 62
     3
370
     9
100
AcDbCircle
 10
-132.677480336782
 20
88.57291556693411
 30
0.0
 40
1.500000019331236
100
AcDbArc
 50
269.9980010986328
 51
0.0000000000000254
  0
ARC
  5
3FC
330
1F
100
AcDbEntity
  8
通り芯
  6
Continuous
 62
     3
370
     9
100
AcDbCircle
 10
-133.6773846600506
 20
104.5728693781673
 30
0.0
 40
1.500000019331236
100
AcDbArc
 50
0.0
 51
90.0019989013672
  0
ARC
  5
3FD
330
1F
100
AcDbEntity
  8
通り芯
  6
Continuous
 62
     3
370
     9
100
AcDbCircle
 10
-132.677480336782
 20
105.5727737014358
 30
0.0
 40
1.500000019331236
100
AcDbArc
 50
0.0
 51
90.0019989013672
  0
ARC
  5
3FE
330
1F
100
AcDbEntity
  8
通り芯
  6
Continuous
 62
     3
370
     9
100
AcDbCircle
 10
-726.6775904475031
 20
132.5729122677366
 30
0.0
 40
1.500000019331236
100
AcDbArc
 50
90.0
 51
180.0
  0
ARC
  5
3FF
330
1F
100
AcDbEntity
  8
通り芯
  6
Continuous
 62
     3
370
     9
100
AcDbCircle
 10
-726.6775904475031
 20
117.5727390598607
 30
0.0
 40
1.500000019331236
100
AcDbArc
 50
180.0
 51
270.0
  0
ARC
  5
400
330
1F
100
AcDbEntity
  8
通り芯
  6
Continuous
 62
     3
370
     9
100
AcDbCircle
 10
-727.6775875607052
 20
116.5727110166807
 30
0.0
 40
1.500000019331236
100
AcDbArc
 50
180.0
 51
270.0
  0
ARC
  5
401
330
1F
100
AcDbEntity
  8
通り芯
  6
Continuous
 62
     3
370
     9
100
AcDbCircle
 10
-727.6775875607052
 20
133.5728165910051
 30
0.0
 40
1.500000019331236
100
AcDbArc
 50
90.0
 51
180.0
  0
ARC
  5
402
330
1F
100
AcDbEntity
  8
通り芯
  6
Continuous
 62
     3
370
     9
100
AcDbCircle
 10
-133.6773846600506
 20
117.5727390598607
 30
0.0
 40
1.500000019331236
100
AcDbArc
 50
269.9980010986328
 51
0.0000000000000254
  0
ARC
  5
403
330
1F
100
AcDbEntity
  8
通り芯
  6
Continuous
 62
     3
370
     9
100
AcDbCircle
 10
-132.677480336782
 20
116.5727110166807
 30
0.0
 40
1.500000019331236
100
AcDbArc
 50
269.9980010986328
 51
0.0000000000000254
  0
ARC
  5
404
330
1F
100
AcDbEntity
  8
通り芯
  6
Continuous
 62
     3
370
     9
100
AcDbCircle
 10
-133.6773846600506
 20
132.5729122677366
 30
0.0
 40
1.500000019331236
100
AcDbArc
 50
0.0
 51
90.0019989013672
  0
ARC
  5
405
330
1F
100
AcDbEntity
  8
通り芯
  6
Continuous
 62
     3
370
     9
100
AcDbCircle
 10
-132.677480336782
 20
133.5728165910051
 30
0.0
 40
1.500000019331236
100
AcDbArc
 50
0.0
 51
90.0019989013672
  0
ARC
  5
406
330
1F
100
AcDbEntity
  8
通り芯
  6
Continuous
 62
     3
370
     9
100
AcDbCircle
 10
-726.6775904475031
 20
160.5728314373945
 30
0.0
 40
1.500000019331236
100
AcDbArc
 50
90.0
 51
180.0
  0
ARC
  5
407
330
1F
100
AcDbEntity
  8
通り芯
  6
Continuous
 62
     3
370
     9
100
AcDbCircle
 10
-726.6775904475031
 20
145.57278194943
 30
0.0
 40
1.500000019331236
100
AcDbArc
 50
180.0
 51
270.0
  0
ARC
  5
408
330
1F
100
AcDbEntity
  8
通り芯
  6
Continuous
 62
     3
370
     9
100
AcDbCircle
 10
-727.6775875607052
 20
144.57275390625
 30
0.0
 40
1.500000019331236
100
AcDbArc
 50
180.0
 51
270.0
  0
ARC
  5
409
330
1F
100
AcDbEntity
  8
通り芯
  6
Continuous
 62
     3
370
     9
100
AcDbCircle
 10
-727.6775875607052
 20
161.5728594805744
 30
0.0
 40
1.500000019331236
100
AcDbArc
 50
90.0
 51
180.0
  0
ARC
  5
40A
330
1F
100
AcDbEntity
  8
通り芯
  6
Continuous
 62
     3
370
     9
100
AcDbCircle
 10
-133.6773846600506
 20
145.57278194943
 30
0.0
 40
1.500000019331236
100
AcDbArc
 50
269.9980010986328
 51
0.0000000000000254
  0
ARC
  5
40B
330
1F
100
AcDbEntity
  8
通り芯
  6
Continuous
 62
     3
370
     9
100
AcDbCircle
 10
-132.677480336782
 20
144.57275390625
 30
0.0
 40
1.500000019331236
100
AcDbArc
 50
269.9980010986328
 51
0.0000000000000254
  0
ARC
  5
40C
330
1F
100
AcDbEntity
  8
通り芯
  6
Continuous
 62
     3
370
     9
100
AcDbCircle
 10
-133.6773846600506
 20
160.5728314373945
 30
0.0
 40
1.500000019331236
100
AcDbArc
 50
0.0
 51
90.0019989013672
  0
ARC
  5
40D
330
1F
100
AcDbEntity
  8
通り芯
  6
Continuous
 62
     3
370
     9
100
AcDbCircle
 10
-132.677480336782
 20
161.5728594805744
 30
0.0
 40
1.500000019331236
100
AcDbArc
 50
0.0
 51
90.0019989013672
  0
ARC
  5
40E
330
1F
100
AcDbEntity
  8
通り芯
  6
Continuous
 62
     3
370
     9
100
AcDbCircle
 10
-726.6775904475031
 20
188.5727506070525
 30
0.0
 40
1.500000019331236
100
AcDbArc
 50
90.0
 51
180.0
  0
ARC
  5
40F
330
1F
100
AcDbEntity
  8
通り芯
  6
Continuous
 62
     3
370
     9
100
AcDbCircle
 10
-726.6775904475031
 20
173.5727011190879
 30
0.0
 40
1.500000019331236
100
AcDbArc
 50
180.0
 51
270.0
  0
ARC
  5
410
330
1F
100
AcDbEntity
  8
通り芯
  6
Continuous
 62
     3
370
     9
100
AcDbCircle
 10
-727.6775875607052
 20
172.5727967958193
 30
0.0
 40
1.500000019331236
100
AcDbArc
 50
180.0
 51
270.0
  0
ARC
  5
411
330
1F
100
AcDbEntity
  8
通り芯
  6
Continuous
 62
     3
370
     9
100
AcDbCircle
 10
-727.6775875607052
 20
189.5729023701436
 30
0.0
 40
1.500000019331236
100
AcDbArc
 50
90.0
 51
180.0
  0
ARC
  5
412
330
1F
100
AcDbEntity
  8
通り芯
  6
Continuous
 62
     3
370
     9
100
AcDbCircle
 10
-133.6773846600506
 20
173.5727011190879
 30
0.0
 40
1.500000019331236
100
AcDbArc
 50
269.9980010986328
 51
0.0000000000000254
  0
ARC
  5
413
330
1F
100
AcDbEntity
  8
通り芯
  6
Continuous
 62
     3
370
     9
100
AcDbCircle
 10
-132.677480336782
 20
172.5727967958193
 30
0.0
 40
1.500000019331236
100
AcDbArc
 50
269.9980010986328
 51
0.0000000000000254
  0
ARC
  5
414
330
1F
100
AcDbEntity
  8
通り芯
  6
Continuous
 62
     3
370
     9
100
AcDbCircle
 10
-133.6773846600506
 20
188.5727506070525
 30
0.0
 40
1.500000019331236
100
AcDbArc
 50
0.0
 51
90.0019989013672
  0
ARC
  5
415
330
1F
100
AcDbEntity
  8
通り芯
  6
Continuous
 62
     3
370
     9
100
AcDbCircle
 10
-132.677480336782
 20
189.5729023701436
 30
0.0
 40
1.500000019331236
100
AcDbArc
 50
0.0
 51
90.0019989013672
  0
ARC
  5
416
330
1F
100
AcDbEntity
  8
通り芯
  6
Continuous
 62
     3
370
     9
100
AcDbCircle
 10
-726.6775904475031
 20
216.5729172165329
 30
0.0
 40
1.500000019331236
100
AcDbArc
 50
90.0
 51
180.0
  0
ARC
  5
417
330
1F
100
AcDbEntity
  8
通り芯
  6
Continuous
 62
     3
370
     9
100
AcDbCircle
 10
-726.6775904475031
 20
201.5728677285685
 30
0.0
 40
1.500000019331236
100
AcDbArc
 50
180.0
 51
270.0
  0
ARC
  5
418
330
1F
100
AcDbEntity
  8
通り芯
  6
Continuous
 62
     3
370
     9
100
AcDbCircle
 10
-727.6775875607052
 20
200.5727159654772
 30
0.0
 40
1.500000019331236
100
AcDbArc
 50
180.0
 51
270.0
  0
ARC
  5
419
330
1F
100
AcDbEntity
  8
通り芯
  6
Continuous
 62
     3
370
     9
100
AcDbCircle
 10
-727.6775875607052
 20
217.5728215398016
 30
0.0
 40
1.500000019331236
100
AcDbArc
 50
90.0
 51
180.0
  0
ARC
  5
41A
330
1F
100
AcDbEntity
  8
通り芯
  6
Continuous
 62
     3
370
     9
100
AcDbCircle
 10
-133.6773846600506
 20
201.5728677285685
 30
0.0
 40
1.500000019331236
100
AcDbArc
 50
269.9980010986328
 51
0.0000000000000254
  0
ARC
  5
41B
330
1F
100
AcDbEntity
  8
通り芯
  6
Continuous
 62
     3
370
     9
100
AcDbCircle
 10
-132.677480336782
 20
200.5727159654772
 30
0.0
 40
1.500000019331236
100
AcDbArc
 50
269.9980010986328
 51
0.0000000000000254
  0
ARC
  5
41C
330
1F
100
AcDbEntity
  8
通り芯
  6
Continuous
 62
     3
370
     9
100
AcDbCircle
 10
-133.6773846600506
 20
216.5729172165329
 30
0.0
 40
1.500000019331236
100
AcDbArc
 50
0.0
 51
90.0019989013672
  0
ARC
  5
41D
330
1F
100
AcDbEntity
  8
通り芯
  6
Continuous
 62
     3
370
     9
100
AcDbCircle
 10
-132.677480336782
 20
217.5728215398016
 30
0.0
 40
1.500000019331236
100
AcDbArc
 50
0.0
 51
90.0019989013672
  0
ARC
  5
41E
330
1F
100
AcDbEntity
  8
通り芯
  6
Continuous
 62
     3
370
     9
100
AcDbCircle
 10
-726.6775904475031
 20
244.5728363861909
 30
0.0
 40
1.500000019331236
100
AcDbArc
 50
90.0
 51
180.0
  0
ARC
  5
41F
330
1F
100
AcDbEntity
  8
通り芯
  6
Continuous
 62
     3
370
     9
100
AcDbCircle
 10
-726.6775904475031
 20
229.5727868982264
 30
0.0
 40
1.500000019331236
100
AcDbArc
 50
180.0
 51
270.0
  0
ARC
  5
420
330
1F
100
AcDbEntity
  8
通り芯
  6
Continuous
 62
     3
370
     9
100
AcDbCircle
 10
-727.6775875607052
 20
228.5728825749578
 30
0.0
 40
1.500000019331236
100
AcDbArc
 50
180.0
 51
270.0
  0
ARC
  5
421
330
1F
100
AcDbEntity
  8
通り芯
  6
Continuous
 62
     3
370
     9
100
AcDbCircle
 10
-727.6775875607052
 20
245.5728644293708
 30
0.0
 40
1.500000019331236
100
AcDbArc
 50
90.0
 51
180.0
  0
ARC
  5
422
330
1F
100
AcDbEntity
  8
通り芯
  6
Continuous
 62
     3
370
     9
100
AcDbCircle
 10
-133.6773846600506
 20
229.5727868982264
 30
0.0
 40
1.500000019331236
100
AcDbArc
 50
269.9980010986328
 51
0.0000000000000254
  0
ARC
  5
423
330
1F
100
AcDbEntity
  8
通り芯
  6
Continuous
 62
     3
370
     9
100
AcDbCircle
 10
-132.677480336782
 20
228.5728825749578
 30
0.0
 40
1.500000019331236
100
AcDbArc
 50
269.9980010986328
 51
0.0000000000000254
  0
ARC
  5
424
330
1F
100
AcDbEntity
  8
通り芯
  6
Continuous
 62
     3
370
     9
100
AcDbCircle
 10
-133.6773846600506
 20
244.5728363861909
 30
0.0
 40
1.500000019331236
100
AcDbArc
 50
0.0
 51
90.0019989013672
  0
ARC
  5
425
330
1F
100
AcDbEntity
  8
通り芯
  6
Continuous
 62
     3
370
     9
100
AcDbCircle
 10
-132.677480336782
 20
245.5728644293708
 30
0.0
 40
1.500000019331236
100
AcDbArc
 50
0.0
 51
90.0019989013672
  0
ARC
  5
426
330
1F
100
AcDbEntity
  8
通り芯
  6
Continuous
 62
     3
370
     9
100
AcDbCircle
 10
473.3397612700591
 20
-51.79833489495351
 30
0.0
 40
2.000000146595208
100
AcDbArc
 50
93.8134765625
 51
180.0
  0
ARC
  5
427
330
1F
100
AcDbEntity
  8
通り芯
  6
Continuous
 62
     3
370
     9
100
AcDbCircle
 10
469.3398965371622
 20
-35.07350612331081
 30
0.0
 40
3.000000038662472
100
AcDbArc
 50
180.0
 51
267.1375885009766
  0
ARC
  5
428
330
1F
100
AcDbEntity
  8
通り芯
  6
Continuous
 62
     3
370
     9
100
AcDbCircle
 10
484.8397744668497
 20
-40.35405751821159
 30
0.0
 40
1.500000019331236
100
AcDbArc
 50
0.0
 51
87.135498046875
  0
ARC
  5
429
330
1F
100
AcDbEntity
  8
通り芯
  6
Continuous
 62
     3
370
     9
100
AcDbCircle
 10
484.8397744668497
 20
-47.52387381888724
 30
0.0
 40
1.500000019331236
100
AcDbArc
 50
273.8164825439453
 51
0.0000000000000254
  0
ARC
  5
42A
330
1F
100
AcDbEntity
  8
通り芯
  6
Continuous
 62
     3
370
     9
100
AcDbCircle
 10
462.8398998363599
 20
-37.72995819916588
 30
0.0
 40
1.500000019331236
100
AcDbArc
 50
123.688949584961
 51
180.0
  0
ARC
  5
42B
330
1F
100
AcDbEntity
  8
通り芯
  6
Continuous
 62
     3
370
     9
100
AcDbCircle
 10
462.8398998363599
 20
-48.12441026842265
 30
0.0
 40
1.500000019331236
100
AcDbArc
 50
180.0
 51
236.3110504150391
  0
ARC
  5
42C
330
1F
100
AcDbEntity
  8
通り芯
  6
Continuous
 62
     3
370
     9
100
AcDbCircle
 10
464.339880041174
 20
-50.79570873363593
 30
0.0
 40
1.500000019331236
100
AcDbArc
 50
180.0
 51
254.0551605224609
  0
ARC
  5
42D
330
1F
100
AcDbEntity
  8
通り芯
  6
Continuous
 62
     3
370
     9
100
AcDbCircle
 10
464.339880041174
 20
-35.0586597339526
 30
0.0
 40
1.500000019331236
100
AcDbArc
 50
105.9448394775391
 51
180.0
  0
ARC
  5
42E
330
1F
100
AcDbEntity
  8
通り芯
  6
Continuous
 62
     3
370
     9
100
AcDbCircle
 10
462.8398998363599
 20
-20.12442923880911
 30
0.0
 40
1.500000019331236
100
AcDbArc
 50
180.0
 51
236.3110504150391
  0
ARC
  5
42F
330
1F
100
AcDbEntity
  8
通り芯
  6
Continuous
 62
     3
370
     9
100
AcDbCircle
 10
469.3398965371622
 20
-23.38661400047499
 30
0.0
 40
3.000000038662472
100
AcDbArc
 50
101.3097381591797
 51
180.0
  0
ARC
  5
430
330
1F
100
AcDbEntity
  8
通り芯
  6
Continuous
 62
     3
370
     9
100
AcDbCircle
 10
464.339880041174
 20
-22.79578956397799
 30
0.0
 40
1.500000019331236
100
AcDbArc
 50
180.0
 51
254.0551605224609
  0
ARC
  5
431
330
1F
100
AcDbEntity
  8
通り芯
  6
Continuous
 62
     3
370
     9
100
AcDbCircle
 10
469.8399724187078
 20
-18.69744378167226
 30
0.0
 40
1.500000019331236
100
AcDbArc
 50
281.3099365234376
 51
0.0000000000000382
  0
ARC
  5
432
330
1F
100
AcDbEntity
  8
通り芯
  6
Continuous
 62
     3
370
     9
100
AcDbCircle
 10
462.8398998363599
 20
-9.729977169552342
 30
0.0
 40
1.500000019331236
100
AcDbArc
 50
123.688949584961
 51
180.0
  0
ARC
  5
433
330
1F
100
AcDbEntity
  8
通り芯
  6
Continuous
 62
     3
370
     9
100
AcDbCircle
 10
469.3398965371622
 20
-6.467730547930728
 30
0.0
 40
3.000000038662472
100
AcDbArc
 50
180.0
 51
258.6902618408203
  0
ARC
  5
434
330
1F
100
AcDbEntity
  8
通り芯
  6
Continuous
 62
     3
370
     9
100
AcDbCircle
 10
464.339880041174
 20
-7.058616844383465
 30
0.0
 40
1.500000019331236
100
AcDbArc
 50
105.9448394775391
 51
180.0
  0
ARC
  5
435
330
1F
100
AcDbEntity
  8
通り芯
  6
Continuous
 62
     3
370
     9
100
AcDbCircle
 10
469.8399724187078
 20
-11.15683890677786
 30
0.0
 40
1.500000019331236
100
AcDbArc
 50
0.0
 51
78.6900634765625
  0
ARC
  5
436
330
1F
100
AcDbEntity
  8
通り芯
  6
Continuous
 62
     3
370
     9
100
AcDbCircle
 10
462.8398998363599
 20
7.875613650760158
 30
0.0
 40
1.500000019331236
100
AcDbArc
 50
180.0
 51
236.3110504150391
  0
ARC
  5
437
330
1F
100
AcDbEntity
  8
通り芯
  6
Continuous
 62
     3
370
     9
100
AcDbCircle
 10
469.3398965371622
 20
4.613367029138544
 30
0.0
 40
3.000000038662472
100
AcDbArc
 50
101.3097381591797
 51
180.0
  0
ARC
  5
438
330
1F
100
AcDbEntity
  8
通り芯
  6
Continuous
 62
     3
370
     9
100
AcDbCircle
 10
464.339880041174
 20
5.204253325591282
 30
0.0
 40
1.500000019331236
100
AcDbArc
 50
180.0
 51
254.0551605224609
  0
ARC
  5
439
330
1F
100
AcDbEntity
  8
通り芯
  6
Continuous
 62
     3
370
     9
100
AcDbCircle
 10
469.8399724187078
 20
9.30259910789701
 30
0.0
 40
1.500000019331236
100
AcDbArc
 50
281.3099365234376
 51
0.0000000000000382
  0
ARC
  5
43A
330
1F
100
AcDbEntity
  8
通り芯
  6
Continuous
 62
     3
370
     9
100
AcDbCircle
 10
462.8398998363599
 20
18.27006572001693
 30
0.0
 40
1.500000019331236
100
AcDbArc
 50
123.688949584961
 51
180.0
  0
ARC
  5
43B
330
1F
100
AcDbEntity
  8
通り芯
  6
Continuous
 62
     3
370
     9
100
AcDbCircle
 10
469.3398965371622
 20
21.53231234163854
 30
0.0
 40
3.000000038662472
100
AcDbArc
 50
180.0
 51
258.6902618408203
  0
ARC
  5
43C
330
1F
100
AcDbEntity
  8
通り芯
  6
Continuous
 62
     3
370
     9
100
AcDbCircle
 10
464.339880041174
 20
20.94130232527448
 30
0.0
 40
1.500000019331236
100
AcDbArc
 50
105.9448394775391
 51
180.0
  0
ARC
  5
43D
330
1F
100
AcDbEntity
  8
通り芯
  6
Continuous
 62
     3
370
     9
100
AcDbCircle
 10
469.8399724187078
 20
16.84308026288008
 30
0.0
 40
1.500000019331236
100
AcDbArc
 50
0.0
 51
78.6900634765625
  0
ARC
  5
43E
330
1F
100
AcDbEntity
  8
通り芯
  6
Continuous
 62
     3
370
     9
100
AcDbCircle
 10
462.8398998363599
 20
35.8755328204181
 30
0.0
 40
1.500000019331236
100
AcDbArc
 50
180.0
 51
236.3110504150391
  0
ARC
  5
43F
330
1F
100
AcDbEntity
  8
通り芯
  6
Continuous
 62
     3
370
     9
100
AcDbCircle
 10
464.339880041174
 20
33.20429621516055
 30
0.0
 40
1.500000019331236
100
AcDbArc
 50
180.0
 51
254.0551605224609
  0
ARC
  5
440
330
1F
100
AcDbEntity
  8
通り芯
  6
Continuous
 62
     3
370
     9
100
AcDbCircle
 10
462.8398998363599
 20
63.8756994298987
 30
0.0
 40
1.500000019331236
100
AcDbArc
 50
180.0
 51
236.3110504150391
  0
ARC
  5
441
330
1F
100
AcDbEntity
  8
通り芯
  6
Continuous
 62
     3
370
     9
100
AcDbCircle
 10
469.3398965371622
 20
60.61345280827709
 30
0.0
 40
3.000000038662472
100
AcDbArc
 50
101.3097381591797
 51
180.0
  0
ARC
  5
442
330
1F
100
AcDbEntity
  8
通り芯
  6
Continuous
 62
     3
370
     9
100
AcDbCircle
 10
464.339880041174
 20
61.20433910472983
 30
0.0
 40
1.500000019331236
100
AcDbArc
 50
180.0
 51
254.0551605224609
  0
ARC
  5
443
330
1F
100
AcDbEntity
  8
通り芯
  6
Continuous
 62
     3
370
     9
100
AcDbCircle
 10
469.8399724187078
 20
65.3024374472129
 30
0.0
 40
1.500000019331236
100
AcDbArc
 50
281.3099365234376
 51
0.0000000000000382
  0
ARC
  5
444
330
1F
100
AcDbEntity
  8
通り芯
  6
Continuous
 62
     3
370
     9
100
AcDbCircle
 10
462.8398998363599
 20
74.27015149915547
 30
0.0
 40
1.500000019331236
100
AcDbArc
 50
123.688949584961
 51
180.0
  0
ARC
  5
445
330
1F
100
AcDbEntity
  8
通り芯
  6
Continuous
 62
     3
370
     9
100
AcDbCircle
 10
469.3398965371622
 20
77.53239812077709
 30
0.0
 40
3.000000038662472
100
AcDbArc
 50
180.0
 51
258.6902618408203
  0
ARC
  5
446
330
1F
100
AcDbEntity
  8
通り芯
  6
Continuous
 62
     3
370
     9
100
AcDbCircle
 10
464.339880041174
 20
76.94151182432435
 30
0.0
 40
1.500000019331236
100
AcDbArc
 50
105.9448394775391
 51
180.0
  0
ARC
  5
447
330
1F
100
AcDbEntity
  8
通り芯
  6
Continuous
 62
     3
370
     9
100
AcDbCircle
 10
469.8399724187078
 20
72.84316604201862
 30
0.0
 40
1.500000019331236
100
AcDbArc
 50
0.0
 51
78.6900634765625
  0
ARC
  5
448
330
1F
100
AcDbEntity
  8
通り芯
  6
Continuous
 62
     3
370
     9
100
AcDbCircle
 10
462.8398998363599
 20
91.87549487964532
 30
0.0
 40
1.500000019331236
100
AcDbArc
 50
180.0
 51
236.3110504150391
  0
ARC
  5
449
330
1F
100
AcDbEntity
  8
通り芯
  6
Continuous
 62
     3
370
     9
100
AcDbCircle
 10
469.3398965371622
 20
88.61337197793503
 30
0.0
 40
3.000000038662472
100
AcDbArc
 50
101.3097381591797
 51
180.0
  0
ARC
  5
44A
330
1F
100
AcDbEntity
  8
通り芯
  6
Continuous
 62
     3
370
     9
100
AcDbCircle
 10
464.339880041174
 20
89.2043819942991
 30
0.0
 40
1.500000019331236
100
AcDbArc
 50
180.0
 51
254.0551605224609
  0
ARC
  5
44B
330
1F
100
AcDbEntity
  8
通り芯
  6
Continuous
 62
     3
370
     9
100
AcDbCircle
 10
469.8399724187078
 20
93.30248033678217
 30
0.0
 40
1.500000019331236
100
AcDbArc
 50
281.3099365234376
 51
0.0000000000000382
  0
ARC
  5
44C
330
1F
100
AcDbEntity
  8
通り芯
  6
Continuous
 62
     3
370
     9
100
AcDbCircle
 10
494.839807458826
 20
38.47624907622475
 30
0.0
 40
1.500000019331236
100
AcDbArc
 50
273.8164825439453
 51
0.0000000000000254
  0
ARC
  5
44D
330
1F
100
AcDbEntity
  8
通り芯
  6
Continuous
 62
     3
370
     9
100
AcDbCircle
 10
469.3398965371622
 20
32.26612812763946
 30
0.0
 40
3.000000038662472
100
AcDbArc
 50
93.81240844726564
 51
180.0
  0
ARC
  5
44E
330
1F
100
AcDbEntity
  8
通り芯
  6
Continuous
 62
     3
370
     9
100
AcDbCircle
 10
462.8398998363599
 20
46.26998488967487
 30
0.0
 40
1.500000019331236
100
AcDbArc
 50
123.688949584961
 51
180.0
  0
ARC
  5
44F
330
1F
100
AcDbEntity
  8
通り芯
  6
Continuous
 62
     3
370
     9
100
AcDbCircle
 10
464.339880041174
 20
48.94134521484375
 30
0.0
 40
1.500000019331236
100
AcDbArc
 50
105.9448394775391
 51
180.0
  0
ARC
  5
450
330
1F
100
AcDbEntity
  8
通り芯
  6
Continuous
 62
     3
370
     9
100
AcDbCircle
 10
494.839807458826
 20
43.66951607369089
 30
0.0
 40
1.500000019331236
100
AcDbArc
 50
0.0
 51
86.1835174560547
  0
ARC
  5
451
330
1F
100
AcDbEntity
  8
通り芯
  6
Continuous
 62
     3
370
     9
100
AcDbCircle
 10
469.3398965371622
 20
49.87951330236484
 30
0.0
 40
3.000000038662472
100
AcDbArc
 50
180.0
 51
266.1875915527344
  0
ARC
  5
452
330
1F
100
AcDbEntity
  8
通り芯
  6
Continuous
 62
     3
370
     9
100
AcDbCircle
 10
494.839807458826
 20
94.47621113545196
 30
0.0
 40
1.500000019331236
100
AcDbArc
 50
273.8164825439453
 51
0.0000000000000254
  0
ARC
  5
453
330
1F
100
AcDbEntity
  8
通り芯
  6
Continuous
 62
     3
370
     9
100
AcDbCircle
 10
491.3397711676521
 20
31.72831767314193
 30
0.0
 40
5.000000064437454
100
AcDbArc
 50
93.81404113769531
 51
180.0
  0
ARC
  5
454
330
1F
100
AcDbEntity
  8
通り芯
  6
Continuous
 62
     3
370
     9
100
AcDbCircle
 10
491.3397711676521
 20
50.41720003695104
 30
0.0
 40
5.000000064437454
100
AcDbArc
 50
180.0
 51
266.1859588623047
  0
ARC
  5
455
330
1F
100
AcDbEntity
  8
通り芯
  6
Continuous
 62
     3
370
     9
100
AcDbCircle
 10
473.3397612700591
 20
245.9439004434122
 30
0.0
 40
2.000000146595208
100
AcDbArc
 50
180.0
 51
266.1865234375
  0
ARC
  5
456
330
1F
100
AcDbEntity
  8
通り芯
  6
Continuous
 62
     3
370
     9
100
AcDbCircle
 10
469.3398965371622
 20
229.2190716717695
 30
0.0
 40
3.000000038662472
100
AcDbArc
 50
92.86241149902344
 51
180.0
  0
ARC
  5
457
330
1F
100
AcDbEntity
  8
通り芯
  6
Continuous
 62
     3
370
     9
100
AcDbCircle
 10
484.8397744668497
 20
234.4998086465372
 30
0.0
 40
1.500000019331236
100
AcDbArc
 50
272.864501953125
 51
0.0
  0
ARC
  5
458
330
1F
100
AcDbEntity
  8
通り芯
  6
Continuous
 62
     3
370
     9
100
AcDbCircle
 10
484.8397744668497
 20
241.6693775073902
 30
0.0
 40
1.500000019331236
100
AcDbArc
 50
0.0
 51
86.1835174560547
  0
ARC
  5
459
330
1F
100
AcDbEntity
  8
通り芯
  6
Continuous
 62
     3
370
     9
100
AcDbCircle
 10
462.8398998363599
 20
231.875461887669
 30
0.0
 40
1.500000019331236
100
AcDbArc
 50
180.0
 51
236.3110504150391
  0
ARC
  5
45A
330
1F
100
AcDbEntity
  8
通り芯
  6
Continuous
 62
     3
370
     9
100
AcDbCircle
 10
462.8398998363599
 20
242.2701613967483
 30
0.0
 40
1.500000019331236
100
AcDbArc
 50
123.688949584961
 51
180.0
  0
ARC
  5
45B
330
1F
100
AcDbEntity
  8
通り芯
  6
Continuous
 62
     3
370
     9
100
AcDbCircle
 10
464.339880041174
 20
244.941398002006
 30
0.0
 40
1.500000019331236
100
AcDbArc
 50
105.9448394775391
 51
180.0
  0
ARC
  5
45C
330
1F
100
AcDbEntity
  8
通り芯
  6
Continuous
 62
     3
370
     9
100
AcDbCircle
 10
464.339880041174
 20
229.2043490023227
 30
0.0
 40
1.500000019331236
100
AcDbArc
 50
180.0
 51
254.0551605224609
  0
ARC
  5
45D
330
1F
100
AcDbEntity
  8
通り芯
  6
Continuous
 62
     3
370
     9
100
AcDbCircle
 10
462.8398998363599
 20
214.2701185071792
 30
0.0
 40
1.500000019331236
100
AcDbArc
 50
123.688949584961
 51
180.0
  0
ARC
  5
45E
330
1F
100
AcDbEntity
  8
通り芯
  6
Continuous
 62
     3
370
     9
100
AcDbCircle
 10
469.3398965371622
 20
217.5323651288008
 30
0.0
 40
3.000000038662472
100
AcDbArc
 50
180.0
 51
258.6902618408203
  0
ARC
  5
45F
330
1F
100
AcDbEntity
  8
通り芯
  6
Continuous
 62
     3
370
     9
100
AcDbCircle
 10
464.339880041174
 20
216.9414788323481
 30
0.0
 40
1.500000019331236
100
AcDbArc
 50
105.9448394775391
 51
180.0
  0
ARC
  5
460
330
1F
100
AcDbEntity
  8
通り芯
  6
Continuous
 62
     3
370
     9
100
AcDbCircle
 10
469.8399724187078
 20
212.8432567699537
 30
0.0
 40
1.500000019331236
100
AcDbArc
 50
0.0
 51
78.6900634765625
  0
ARC
  5
461
330
1F
100
AcDbEntity
  8
通り芯
  6
Continuous
 62
     3
370
     9
100
AcDbCircle
 10
462.8398998363599
 20
203.8755427180111
 30
0.0
 40
1.500000019331236
100
AcDbArc
 50
180.0
 51
236.3110504150391
  0
ARC
  5
462
330
1F
100
AcDbEntity
  8
通り芯
  6
Continuous
 62
     3
370
     9
100
AcDbCircle
 10
469.3398965371622
 20
200.6134198163008
 30
0.0
 40
3.000000038662472
100
AcDbArc
 50
101.3097381591797
 51
180.0
  0
ARC
  5
463
330
1F
100
AcDbEntity
  8
通り芯
  6
Continuous
 62
     3
370
     9
100
AcDbCircle
 10
464.339880041174
 20
201.2043061127534
 30
0.0
 40
1.500000019331236
100
AcDbArc
 50
180.0
 51
254.0551605224609
  0
ARC
  5
464
330
1F
100
AcDbEntity
  8
通り芯
  6
Continuous
 62
     3
370
     9
100
AcDbCircle
 10
469.8399724187078
 20
205.3024044552366
 30
0.0
 40
1.500000019331236
100
AcDbArc
 50
281.3099365234376
 51
0.0000000000000382
  0
ARC
  5
465
330
1F
100
AcDbEntity
  8
通り芯
  6
Continuous
 62
     3
370
     9
100
AcDbCircle
 10
462.8398998363599
 20
186.2699518976986
 30
0.0
 40
1.500000019331236
100
AcDbArc
 50
123.688949584961
 51
180.0
  0
ARC
  5
466
330
1F
100
AcDbEntity
  8
通り芯
  6
Continuous
 62
     3
370
     9
100
AcDbCircle
 10
469.3398965371622
 20
189.5323222392315
 30
0.0
 40
3.000000038662472
100
AcDbArc
 50
180.0
 51
258.6902618408203
  0
ARC
  5
467
330
1F
100
AcDbEntity
  8
通り芯
  6
Continuous
 62
     3
370
     9
100
AcDbCircle
 10
464.339880041174
 20
188.9413122228675
 30
0.0
 40
1.500000019331236
100
AcDbArc
 50
105.9448394775391
 51
180.0
  0
ARC
  5
468
330
1F
100
AcDbEntity
  8
通り芯
  6
Continuous
 62
     3
370
     9
100
AcDbCircle
 10
469.8399724187078
 20
184.8430901604731
 30
0.0
 40
1.500000019331236
100
AcDbArc
 50
0.0
 51
78.6900634765625
  0
ARC
  5
469
330
1F
100
AcDbEntity
  8
通り芯
  6
Continuous
 62
     3
370
     9
100
AcDbCircle
 10
462.8398998363599
 20
175.8756235483531
 30
0.0
 40
1.500000019331236
100
AcDbArc
 50
180.0
 51
236.3110504150391
  0
ARC
  5
46A
330
1F
100
AcDbEntity
  8
通り芯
  6
Continuous
 62
     3
370
     9
100
AcDbCircle
 10
469.3398965371622
 20
172.6132532068202
 30
0.0
 40
3.000000038662472
100
AcDbArc
 50
101.3097381591797
 51
180.0
  0
ARC
  5
46B
330
1F
100
AcDbEntity
  8
通り芯
  6
Continuous
 62
     3
370
     9
100
AcDbCircle
 10
464.339880041174
 20
173.2042632231841
 30
0.0
 40
1.500000019331236
100
AcDbArc
 50
180.0
 51
254.0551605224609
  0
ARC
  5
46C
330
1F
100
AcDbEntity
  8
通り芯
  6
Continuous
 62
     3
370
     9
100
AcDbCircle
 10
469.8399724187078
 20
177.3023615656673
 30
0.0
 40
1.500000019331236
100
AcDbArc
 50
281.3099365234376
 51
0.0000000000000382
  0
ARC
  5
46D
330
1F
100
AcDbEntity
  8
通り芯
  6
Continuous
 62
     3
370
     9
100
AcDbCircle
 10
462.8398998363599
 20
158.2700327280406
 30
0.0
 40
1.500000019331236
100
AcDbArc
 50
123.688949584961
 51
180.0
  0
ARC
  5
46E
330
1F
100
AcDbEntity
  8
通り芯
  6
Continuous
 62
     3
370
     9
100
AcDbCircle
 10
464.339880041174
 20
160.9413930532095
 30
0.0
 40
1.500000019331236
100
AcDbArc
 50
105.9448394775391
 51
180.0
  0
ARC
  5
46F
330
1F
100
AcDbEntity
  8
通り芯
  6
Continuous
 62
     3
370
     9
100
AcDbCircle
 10
462.8398998363599
 20
130.2699898384714
 30
0.0
 40
1.500000019331236
100
AcDbArc
 50
123.688949584961
 51
180.0
  0
ARC
  5
470
330
1F
100
AcDbEntity
  8
通り芯
  6
Continuous
 62
     3
370
     9
100
AcDbCircle
 10
469.3398965371622
 20
133.532236460093
 30
0.0
 40
3.000000038662472
100
AcDbArc
 50
180.0
 51
258.6902618408203
  0
ARC
  5
471
330
1F
100
AcDbEntity
  8
通り芯
  6
Continuous
 62
     3
370
     9
100
AcDbCircle
 10
464.339880041174
 20
132.9413501636402
 30
0.0
 40
1.500000019331236
100
AcDbArc
 50
105.9448394775391
 51
180.0
  0
ARC
  5
472
330
1F
100
AcDbEntity
  8
通り芯
  6
Continuous
 62
     3
370
     9
100
AcDbCircle
 10
469.8399724187078
 20
128.8431281012458
 30
0.0
 40
1.500000019331236
100
AcDbArc
 50
0.0
 51
78.6900634765625
  0
ARC
  5
473
330
1F
100
AcDbEntity
  8
通り芯
  6
Continuous
 62
     3
370
     9
100
AcDbCircle
 10
462.8398998363599
 20
119.8755377692146
 30
0.0
 40
1.500000019331236
100
AcDbArc
 50
180.0
 51
236.3110504150391
  0
ARC
  5
474
330
1F
100
AcDbEntity
  8
通り芯
  6
Continuous
 62
     3
370
     9
100
AcDbCircle
 10
469.3398965371622
 20
116.613291147593
 30
0.0
 40
3.000000038662472
100
AcDbArc
 50
101.3097381591797
 51
180.0
  0
ARC
  5
475
330
1F
100
AcDbEntity
  8
通り芯
  6
Continuous
 62
     3
370
     9
100
AcDbCircle
 10
464.339880041174
 20
117.204301163957
 30
0.0
 40
1.500000019331236
100
AcDbArc
 50
180.0
 51
254.0551605224609
  0
ARC
  5
476
330
1F
100
AcDbEntity
  8
通り芯
  6
Continuous
 62
     3
370
     9
100
AcDbCircle
 10
469.8399724187078
 20
121.3025232263514
 30
0.0
 40
1.500000019331236
100
AcDbArc
 50
281.3099365234376
 51
0.0000000000000382
  0
ARC
  5
477
330
1F
100
AcDbEntity
  8
通り芯
  6
Continuous
 62
     3
370
     9
100
AcDbCircle
 10
462.8398998363599
 20
102.2699469489021
 30
0.0
 40
1.500000019331236
100
AcDbArc
 50
123.688949584961
 51
180.0
  0
ARC
  5
478
330
1F
100
AcDbEntity
  8
通り芯
  6
Continuous
 62
     3
370
     9
100
AcDbCircle
 10
464.339880041174
 20
104.941307274071
 30
0.0
 40
1.500000019331236
100
AcDbArc
 50
105.9448394775391
 51
180.0
  0
ARC
  5
479
330
1F
100
AcDbEntity
  8
通り芯
  6
Continuous
 62
     3
370
     9
100
AcDbCircle
 10
469.8399724187078
 20
100.8432089315879
 30
0.0
 40
1.500000019331236
100
AcDbArc
 50
0.0
 51
78.6900634765625
  0
ARC
  5
47A
330
1F
100
AcDbEntity
  8
通り芯
  6
Continuous
 62
     3
370
     9
100
AcDbCircle
 10
494.839807458826
 20
155.6694401921453
 30
0.0
 40
1.500000019331236
100
AcDbArc
 50
0.0
 51
86.1835174560547
  0
ARC
  5
47B
330
1F
100
AcDbEntity
  8
通り芯
  6
Continuous
 62
     3
370
     9
100
AcDbCircle
 10
469.3398965371622
 20
161.8794374208193
 30
0.0
 40
3.000000038662472
100
AcDbArc
 50
180.0
 51
266.1875915527344
  0
ARC
  5
47C
330
1F
100
AcDbEntity
  8
通り芯
  6
Continuous
 62
     3
370
     9
100
AcDbCircle
 10
462.8398998363599
 20
147.8755806587839
 30
0.0
 40
1.500000019331236
100
AcDbArc
 50
180.0
 51
236.3110504150391
  0
ARC
  5
47D
330
1F
100
AcDbEntity
  8
通り芯
  6
Continuous
 62
     3
370
     9
100
AcDbCircle
 10
464.339880041174
 20
145.204220333615
 30
0.0
 40
1.500000019331236
100
AcDbArc
 50
180.0
 51
254.0551605224609
  0
ARC
  5
47E
330
1F
100
AcDbEntity
  8
通り芯
  6
Continuous
 62
     3
370
     9
100
AcDbCircle
 10
494.839807458826
 20
150.476173194679
 30
0.0
 40
1.500000019331236
100
AcDbArc
 50
273.8164825439453
 51
0.0000000000000254
  0
ARC
  5
47F
330
1F
100
AcDbEntity
  8
通り芯
  6
Continuous
 62
     3
370
     9
100
AcDbCircle
 10
469.3398965371622
 20
144.2661759660051
 30
0.0
 40
3.000000038662472
100
AcDbArc
 50
93.81240844726564
 51
180.0
  0
ARC
  5
480
330
1F
100
AcDbEntity
  8
通り芯
  6
Continuous
 62
     3
370
     9
100
AcDbCircle
 10
494.839807458826
 20
99.6694781329181
 30
0.0
 40
1.500000019331236
100
AcDbArc
 50
0.0
 51
86.1835174560547
  0
ARC
  5
481
330
1F
100
AcDbEntity
  8
通り芯
  6
Continuous
 62
     3
370
     9
100
AcDbCircle
 10
491.3397711676521
 20
162.4171241554055
 30
0.0
 40
5.000000064437454
100
AcDbArc
 50
180.0
 51
266.1859588623047
  0
ARC
  5
482
330
1F
100
AcDbEntity
  8
通り芯
  6
Continuous
 62
     3
370
     9
100
AcDbCircle
 10
491.3397711676521
 20
143.728489231419
 30
0.0
 40
5.000000064437454
100
AcDbArc
 50
93.81404113769531
 51
180.0
  0
ARC
  5
483
330
1F
100
AcDbEntity
  8
通り芯
  6
Continuous
 62
     3
370
     9
100
AcDbCircle
 10
-728.0487163646801
 20
-330.9449726826435
 30
0.0
 40
2.000000146595208
100
AcDbArc
 50
3.814193725585938
 51
90.0
  0
ARC
  5
484
330
1F
100
AcDbEntity
  8
通り芯
  6
Continuous
 62
     3
370
     9
100
AcDbCircle
 10
-723.7742862185917
 20
-342.4449858794341
 30
0.0
 40
1.500000019331236
100
AcDbArc
 50
183.814468383789
 51
270.0005035400391
  0
ARC
  5
485
330
1F
100
AcDbEntity
  8
通り芯
  6
Continuous
 62
     3
370
     9
100
AcDbCircle
 10
-132.3063206028293
 20
-330.9449726826435
 30
0.0
 40
2.000000146595208
100
AcDbArc
 50
90.0
 51
176.1858062744141
  0
ARC
  5
486
330
1F
100
AcDbEntity
  8
通り芯
  6
Continuous
 62
     3
370
     9
100
AcDbCircle
 10
-190.8749554608319
 20
-338.9450114482157
 30
0.0
 40
15.00000019331236
100
AcDbArc
 50
270.0
 51
304.7778167724609
  0
ARC
  5
487
330
1F
100
AcDbEntity
  8
通り芯
  6
Continuous
 62
     3
370
     9
100
AcDbCircle
 10
-669.4800196467219
 20
-338.9450114482157
 30
0.0
 40
15.00000019331236
100
AcDbArc
 50
235.2221527099609
 51
270.0000457763672
  0
ARC
  5
488
330
1F
100
AcDbEntity
  8
通り芯
  6
Continuous
 62
     3
370
     9
100
AcDbCircle
 10
-133.3089467641469
 20
-321.9449677338471
 30
0.0
 40
1.500000019331236
100
AcDbArc
 50
15.94483947753906
 51
89.99800109863281
  0
ARC
  5
489
330
1F
100
AcDbEntity
  8
通り芯
  6
Continuous
 62
     3
370
     9
100
AcDbCircle
 10
-136.5808435388513
 20
-342.4449858794341
 30
0.0
 40
1.500000019331236
100
AcDbArc
 50
270.0
 51
356.1855316162109
  0
ARC
  5
48A
330
1F
100
AcDbEntity
  8
通り芯
  6
Continuous
 62
     3
370
     9
100
AcDbCircle
 10
-727.0461520633182
 20
-321.9449677338471
 30
0.0
 40
1.500000019331236
100
AcDbArc
 50
90.0
 51
164.0551605224609
  0
ARC
  5
48B
330
1F
100
AcDbEntity
  8
通り芯
  6
Continuous
 62
     3
370
     9
100
AcDbCircle
 10
-661.1776094178896
 20
-363.945032068201
 30
0.0
 40
3.000004146550153
100
AcDbArc
 50
180.0
 51
0.0
  0
ARC
  5
48C
330
1F
100
AcDbEntity
  8
通り芯
  6
Continuous
 62
     3
370
     9
100
AcDbCircle
 10
-661.1776094178896
 20
-338.9450114482157
 30
0.0
 40
15.00000019331236
100
AcDbArc
 50
199.4712219238281
 51
258.4630126953125
  0
ARC
  5
48D
330
1F
100
AcDbEntity
  8
通り芯
  6
Continuous
 62
     3
370
     9
100
AcDbCircle
 10
-661.1776094178896
 20
-338.9450114482157
 30
0.0
 40
15.00000019331236
100
AcDbArc
 50
281.5369873046875
 51
340.5287780761718
  0
ARC
  5
48E
330
1F
100
AcDbEntity
  8
通り芯
  6
Continuous
 62
     3
370
     9
100
AcDbCircle
 10
-661.1776094178896
 20
-367.9450205210093
 30
0.0
 40
9.000000115987417
100
AcDbArc
 50
109.4712677001953
 51
180.0
  0
ARC
  5
48F
330
1F
100
AcDbEntity
  8
通り芯
  6
Continuous
 62
     3
370
     9
100
AcDbCircle
 10
-661.1776094178896
 20
-367.9450205210093
 30
0.0
 40
9.000000115987417
100
AcDbArc
 50
0.0
 51
70.52873229980467
  0
ARC
  5
490
330
1F
100
AcDbEntity
  8
通り芯
  6
Continuous
 62
     3
370
     9
100
AcDbCircle
 10
-661.1776094178896
 20
-367.9450205210093
 30
0.0
 40
4.000000293190415
100
AcDbArc
 50
359.9996185302735
 51
45.95120239257818
  0
ARC
  5
491
330
1F
100
AcDbEntity
  8
通り芯
  6
Continuous
 62
     3
370
     9
100
AcDbCircle
 10
-661.1776094178896
 20
-367.9450205210093
 30
0.0
 40
4.000000293190415
100
AcDbArc
 50
134.0487976074219
 51
180.0003814697266
  0
ARC
  5
492
330
1F
100
AcDbEntity
  8
通り芯
  6
Continuous
 62
     3
370
     9
100
AcDbCircle
 10
-661.1776094178896
 20
-393.4450551625844
 30
0.0
 40
2.500000032218727
100
AcDbArc
 50
0.0
 51
180.0
  0
ARC
  5
493
330
1F
100
AcDbEntity
  8
通り芯
  6
Continuous
 62
     3
370
     9
100
AcDbCircle
 10
-661.1776094178896
 20
-391.9450130978146
 30
0.0
 40
9.000000115987417
100
AcDbArc
 50
179.9998321533203
 51
253.8724060058594
  0
ARC
  5
494
330
1F
100
AcDbEntity
  8
通り芯
  6
Continuous
 62
     3
370
     9
100
AcDbCircle
 10
-661.1776094178896
 20
-391.9450130978146
 30
0.0
 40
4.000001259752223
100
AcDbArc
 50
180.0
 51
231.3177947998047
  0
ARC
  5
495
330
1F
100
AcDbEntity
  8
通り芯
  6
Continuous
 62
     3
370
     9
100
AcDbCircle
 10
-661.1776094178896
 20
-391.9450130978146
 30
0.0
 40
4.000001259752223
100
AcDbArc
 50
308.6822052001953
 51
0.0
  0
ARC
  5
496
330
1F
100
AcDbEntity
  8
通り芯
  6
Continuous
 62
     3
370
     9
100
AcDbCircle
 10
-661.1776094178896
 20
-391.9450130978146
 30
0.0
 40
9.000000115987417
100
AcDbArc
 50
286.1275939941406
 51
0.0
  0
ARC
  5
497
330
1F
100
AcDbEntity
  8
通り芯
  6
Continuous
 62
     3
370
     9
100
AcDbCircle
 10
-199.1775512695312
 20
-363.945032068201
 30
0.0
 40
3.000004146550153
100
AcDbArc
 50
180.0
 51
0.0
  0
ARC
  5
498
330
1F
100
AcDbEntity
  8
通り芯
  6
Continuous
 62
     3
370
     9
100
AcDbCircle
 10
-199.1775512695312
 20
-338.9450114482157
 30
0.0
 40
15.00000019331236
100
AcDbArc
 50
281.5369873046875
 51
340.5287780761718
  0
ARC
  5
499
330
1F
100
AcDbEntity
  8
通り芯
  6
Continuous
 62
     3
370
     9
100
AcDbCircle
 10
-199.1775512695312
 20
-338.9450114482157
 30
0.0
 40
15.00000019331236
100
AcDbArc
 50
199.4712219238281
 51
258.4630126953125
  0
ARC
  5
49A
330
1F
100
AcDbEntity
  8
通り芯
  6
Continuous
 62
     3
370
     9
100
AcDbCircle
 10
-199.1775512695312
 20
-367.9450205210093
 30
0.0
 40
9.000000115987417
100
AcDbArc
 50
0.0
 51
70.52873229980467
  0
ARC
  5
49B
330
1F
100
AcDbEntity
  8
通り芯
  6
Continuous
 62
     3
370
     9
100
AcDbCircle
 10
-199.1775512695312
 20
-367.9450205210093
 30
0.0
 40
9.000000115987417
100
AcDbArc
 50
109.4712677001953
 51
180.0
  0
ARC
  5
49C
330
1F
100
AcDbEntity
  8
通り芯
  6
Continuous
 62
     3
370
     9
100
AcDbCircle
 10
-199.1775512695312
 20
-367.9450205210093
 30
0.0
 40
4.000000293190415
100
AcDbArc
 50
134.0487976074219
 51
180.0003814697266
  0
ARC
  5
49D
330
1F
100
AcDbEntity
  8
通り芯
  6
Continuous
 62
     3
370
     9
100
AcDbCircle
 10
-199.1775512695312
 20
-367.9450205210093
 30
0.0
 40
4.000000293190415
100
AcDbArc
 50
359.9996185302734
 51
45.95120239257813
  0
ARC
  5
49E
330
1F
100
AcDbEntity
  8
通り芯
  6
Continuous
 62
     3
370
     9
100
AcDbCircle
 10
-199.1775512695312
 20
-393.4450551625844
 30
0.0
 40
2.500000032218727
100
AcDbArc
 50
0.0
 51
180.0
  0
ARC
  5
49F
330
1F
100
AcDbEntity
  8
通り芯
  6
Continuous
 62
     3
370
     9
100
AcDbCircle
 10
-199.1775512695312
 20
-391.9450130978146
 30
0.0
 40
9.000000115987417
100
AcDbArc
 50
286.1275939941406
 51
0.0001678466797443
  0
ARC
  5
4A0
330
1F
100
AcDbEntity
  8
通り芯
  6
Continuous
 62
     3
370
     9
100
AcDbCircle
 10
-199.1775512695312
 20
-391.9450130978146
 30
0.0
 40
4.000001259752223
100
AcDbArc
 50
308.6822052001953
 51
0.0
  0
ARC
  5
4A1
330
1F
100
AcDbEntity
  8
通り芯
  6
Continuous
 62
     3
370
     9
100
AcDbCircle
 10
-199.1775512695312
 20
-391.9450130978146
 30
0.0
 40
4.000001259752223
100
AcDbArc
 50
180.0
 51
231.3177947998047
  0
ARC
  5
4A2
330
1F
100
AcDbEntity
  8
通り芯
  6
Continuous
 62
     3
370
     9
100
AcDbCircle
 10
-199.1775512695312
 20
-391.9450130978146
 30
0.0
 40
9.000000115987417
100
AcDbArc
 50
180.0
 51
253.8724060058594
  0
ARC
  5
4A3
330
1F
100
AcDbEntity
  8
通り芯
  6
Continuous
 62
     3
370
     9
100
AcDbCircle
 10
-722.3748284417229
 20
-320.4449875290329
 30
0.0
 40
1.500000019331236
100
AcDbArc
 50
90.0
 51
146.3110504150391
  0
ARC
  5
4A4
330
1F
100
AcDbEntity
  8
通り芯
  6
Continuous
 62
     3
370
     9
100
AcDbCircle
 10
-709.9803512160843
 20
-320.4449875290329
 30
0.0
 40
1.500000019331236
100
AcDbArc
 50
33.68894958496094
 51
89.99949645996095
  0
ARC
  5
4A5
330
1F
100
AcDbEntity
  8
通り芯
  6
Continuous
 62
     3
370
     9
100
AcDbCircle
 10
-700.3748300913218
 20
-320.4449875290329
 30
0.0
 40
1.500000019331236
100
AcDbArc
 50
90.0
 51
146.3110504150391
  0
ARC
  5
4A6
330
1F
100
AcDbEntity
  8
通り芯
  6
Continuous
 62
     3
370
     9
100
AcDbCircle
 10
-687.980352865683
 20
-320.4449875290329
 30
0.0
 40
1.500000019331236
100
AcDbArc
 50
33.68894958496094
 51
89.99949645996095
  0
ARC
  5
4A7
330
1F
100
AcDbEntity
  8
通り芯
  6
Continuous
 62
     3
370
     9
100
AcDbCircle
 10
-678.3748008109427
 20
-320.4449875290329
 30
0.0
 40
1.500000019331236
100
AcDbArc
 50
90.0
 51
146.3110504150391
  0
ARC
  5
4A8
330
1F
100
AcDbEntity
  8
通り芯
  6
Continuous
 62
     3
370
     9
100
AcDbCircle
 10
-665.9803545152818
 20
-320.4449875290329
 30
0.0
 40
1.500000019331236
100
AcDbArc
 50
33.68894958496094
 51
89.99949645996095
  0
ARC
  5
4A9
330
1F
100
AcDbEntity
  8
通り芯
  6
Continuous
 62
     3
370
     9
100
AcDbCircle
 10
-656.3748024605417
 20
-320.4449875290329
 30
0.0
 40
1.500000019331236
100
AcDbArc
 50
90.0
 51
146.3110504150391
  0
ARC
  5
4AA
330
1F
100
AcDbEntity
  8
通り芯
  6
Continuous
 62
     3
370
     9
100
AcDbCircle
 10
-643.9803561648807
 20
-320.4449875290329
 30
0.0
 40
1.500000019331236
100
AcDbArc
 50
33.68894958496094
 51
89.99949645996095
  0
ARC
  5
4AB
330
1F
100
AcDbEntity
  8
通り芯
  6
Continuous
 62
     3
370
     9
100
AcDbCircle
 10
-634.3748041101403
 20
-320.4449875290329
 30
0.0
 40
1.500000019331236
100
AcDbArc
 50
90.0
 51
146.3110504150391
  0
ARC
  5
4AC
330
1F
100
AcDbEntity
  8
通り芯
  6
Continuous
 62
     3
370
     9
100
AcDbCircle
 10
-621.9803578144795
 20
-320.4449875290329
 30
0.0
 40
1.500000019331236
100
AcDbArc
 50
33.68894958496094
 51
89.99949645996095
  0
ARC
  5
4AD
330
1F
100
AcDbEntity
  8
通り芯
  6
Continuous
 62
     3
370
     9
100
AcDbCircle
 10
-612.3748057597392
 20
-320.4449875290329
 30
0.0
 40
1.500000019331236
100
AcDbArc
 50
90.0
 51
146.3110504150391
  0
ARC
  5
4AE
330
1F
100
AcDbEntity
  8
通り芯
  6
Continuous
 62
     3
370
     9
100
AcDbCircle
 10
-599.9803594640783
 20
-320.4449875290329
 30
0.0
 40
1.500000019331236
100
AcDbArc
 50
33.68894958496094
 51
89.99949645996095
  0
ARC
  5
4AF
330
1F
100
AcDbEntity
  8
通り芯
  6
Continuous
 62
     3
370
     9
100
AcDbCircle
 10
-590.374807409338
 20
-320.4449875290329
 30
0.0
 40
1.500000019331236
100
AcDbArc
 50
90.0
 51
146.3110504150391
  0
ARC
  5
4B0
330
1F
100
AcDbEntity
  8
通り芯
  6
Continuous
 62
     3
370
     9
100
AcDbCircle
 10
-577.9803611136772
 20
-320.4449875290329
 30
0.0
 40
1.500000019331236
100
AcDbArc
 50
33.68894958496094
 51
89.99949645996095
  0
ARC
  5
4B1
330
1F
100
AcDbEntity
  8
通り芯
  6
Continuous
 62
     3
370
     9
100
AcDbCircle
 10
-568.3748090589369
 20
-320.4449875290329
 30
0.0
 40
1.500000019331236
100
AcDbArc
 50
90.0
 51
146.3110504150391
  0
ARC
  5
4B2
330
1F
100
AcDbEntity
  8
通り芯
  6
Continuous
 62
     3
370
     9
100
AcDbCircle
 10
-555.9803627632759
 20
-320.4449875290329
 30
0.0
 40
1.500000019331236
100
AcDbArc
 50
33.68894958496094
 51
89.99949645996095
  0
ARC
  5
4B3
330
1F
100
AcDbEntity
  8
通り芯
  6
Continuous
 62
     3
370
     9
100
AcDbCircle
 10
-546.3748107085357
 20
-320.4449875290329
 30
0.0
 40
1.500000019331236
100
AcDbArc
 50
90.0
 51
146.3110504150391
  0
ARC
  5
4B4
330
1F
100
AcDbEntity
  8
通り芯
  6
Continuous
 62
     3
370
     9
100
AcDbCircle
 10
-533.980302552919
 20
-320.4449875290329
 30
0.0
 40
1.500000019331236
100
AcDbArc
 50
33.68894958496094
 51
89.99949645996095
  0
ARC
  5
4B5
330
1F
100
AcDbEntity
  8
通り芯
  6
Continuous
 62
     3
370
     9
100
AcDbCircle
 10
-524.3748432881123
 20
-320.4449875290329
 30
0.0
 40
1.500000019331236
100
AcDbArc
 50
90.0
 51
146.3110504150391
  0
ARC
  5
4B6
330
1F
100
AcDbEntity
  8
通り芯
  6
Continuous
 62
     3
370
     9
100
AcDbCircle
 10
-511.9803351324958
 20
-320.4449875290329
 30
0.0
 40
1.500000019331236
100
AcDbArc
 50
33.68894958496094
 51
89.99949645996095
  0
ARC
  5
4B7
330
1F
100
AcDbEntity
  8
通り芯
  6
Continuous
 62
     3
370
     9
100
AcDbCircle
 10
-502.3748449377111
 20
-320.4449875290329
 30
0.0
 40
1.500000019331236
100
AcDbArc
 50
90.0
 51
146.3110504150391
  0
ARC
  5
4B8
330
1F
100
AcDbEntity
  8
通り芯
  6
Continuous
 62
     3
370
     9
100
AcDbCircle
 10
-489.9803367820946
 20
-320.4449875290329
 30
0.0
 40
1.500000019331236
100
AcDbArc
 50
33.68894958496094
 51
89.99949645996095
  0
ARC
  5
4B9
330
1F
100
AcDbEntity
  8
通り芯
  6
Continuous
 62
     3
370
     9
100
AcDbCircle
 10
-480.3748465873099
 20
-320.4449875290329
 30
0.0
 40
1.500000019331236
100
AcDbArc
 50
90.0
 51
146.3110504150391
  0
ARC
  5
4BA
330
1F
100
AcDbEntity
  8
通り芯
  6
Continuous
 62
     3
370
     9
100
AcDbCircle
 10
-467.9803384316933
 20
-320.4449875290329
 30
0.0
 40
1.500000019331236
100
AcDbArc
 50
33.68894958496094
 51
89.99949645996095
  0
ARC
  5
4BB
330
1F
100
AcDbEntity
  8
通り芯
  6
Continuous
 62
     3
370
     9
100
AcDbCircle
 10
-458.3748482369087
 20
-320.4449875290329
 30
0.0
 40
1.500000019331236
100
AcDbArc
 50
90.0
 51
146.3110504150391
  0
ARC
  5
4BC
330
1F
100
AcDbEntity
  8
通り芯
  6
Continuous
 62
     3
370
     9
100
AcDbCircle
 10
-445.9803400812922
 20
-320.4449875290329
 30
0.0
 40
1.500000019331236
100
AcDbArc
 50
33.68894958496094
 51
89.99949645996095
  0
ARC
  5
4BD
330
1F
100
AcDbEntity
  8
通り芯
  6
Continuous
 62
     3
370
     9
100
AcDbCircle
 10
-436.3748498865075
 20
-320.4449875290329
 30
0.0
 40
1.500000019331236
100
AcDbArc
 50
90.0
 51
146.3110504150391
  0
ARC
  5
4BE
330
1F
100
AcDbEntity
  8
通り芯
  6
Continuous
 62
     3
370
     9
100
AcDbCircle
 10
-423.980341730891
 20
-320.4449875290329
 30
0.0
 40
1.500000019331236
100
AcDbArc
 50
33.68894958496094
 51
89.99949645996095
  0
ARC
  5
4BF
330
1F
100
AcDbEntity
  8
通り芯
  6
Continuous
 62
     3
370
     9
100
AcDbCircle
 10
-414.3748515361063
 20
-320.4449875290329
 30
0.0
 40
1.500000019331236
100
AcDbArc
 50
90.0
 51
146.3110504150391
  0
ARC
  5
4C0
330
1F
100
AcDbEntity
  8
通り芯
  6
Continuous
 62
     3
370
     9
100
AcDbCircle
 10
-401.9803433804898
 20
-320.4449875290329
 30
0.0
 40
1.500000019331236
100
AcDbArc
 50
33.68894958496094
 51
89.99949645996095
  0
ARC
  5
4C1
330
1F
100
AcDbEntity
  8
通り芯
  6
Continuous
 62
     3
370
     9
100
AcDbCircle
 10
-392.3747294657938
 20
-320.4449875290329
 30
0.0
 40
1.500000019331236
100
AcDbArc
 50
90.0
 51
146.3110504150391
  0
ARC
  5
4C2
330
1F
100
AcDbEntity
  8
通り芯
  6
Continuous
 62
     3
370
     9
100
AcDbCircle
 10
-379.9802213101773
 20
-320.4449875290329
 30
0.0
 40
1.500000019331236
100
AcDbArc
 50
33.68894958496094
 51
89.99949645996095
  0
ARC
  5
4C3
330
1F
100
AcDbEntity
  8
通り芯
  6
Continuous
 62
     3
370
     9
100
AcDbCircle
 10
-370.3747311153927
 20
-320.4449875290329
 30
0.0
 40
1.500000019331236
100
AcDbArc
 50
90.0
 51
146.3110504150391
  0
ARC
  5
4C4
330
1F
100
AcDbEntity
  8
通り芯
  6
Continuous
 62
     3
370
     9
100
AcDbCircle
 10
-357.9802229597761
 20
-320.4449875290329
 30
0.0
 40
1.500000019331236
100
AcDbArc
 50
33.68894958496094
 51
89.99949645996095
  0
ARC
  5
4C5
330
1F
100
AcDbEntity
  8
通り芯
  6
Continuous
 62
     3
370
     9
100
AcDbCircle
 10
-348.3747327649916
 20
-320.4449875290329
 30
0.0
 40
1.500000019331236
100
AcDbArc
 50
90.0
 51
146.3110504150391
  0
ARC
  5
4C6
330
1F
100
AcDbEntity
  8
通り芯
  6
Continuous
 62
     3
370
     9
100
AcDbCircle
 10
-335.980224609375
 20
-320.4449875290329
 30
0.0
 40
1.500000019331236
100
AcDbArc
 50
33.68894958496094
 51
89.99949645996095
  0
ARC
  5
4C7
330
1F
100
AcDbEntity
  8
通り芯
  6
Continuous
 62
     3
370
     9
100
AcDbCircle
 10
-326.3747344145904
 20
-320.4449875290329
 30
0.0
 40
1.500000019331236
100
AcDbArc
 50
90.0
 51
146.3110504150391
  0
ARC
  5
4C8
330
1F
100
AcDbEntity
  8
通り芯
  6
Continuous
 62
     3
370
     9
100
AcDbCircle
 10
-313.9802262589739
 20
-320.4449875290329
 30
0.0
 40
1.500000019331236
100
AcDbArc
 50
33.68894958496094
 51
89.99949645996095
  0
ARC
  5
4C9
330
1F
100
AcDbEntity
  8
通り芯
  6
Continuous
 62
     3
370
     9
100
AcDbCircle
 10
-304.3747360641892
 20
-320.4449875290329
 30
0.0
 40
1.500000019331236
100
AcDbArc
 50
90.0
 51
146.3110504150391
  0
ARC
  5
4CA
330
1F
100
AcDbEntity
  8
通り芯
  6
Continuous
 62
     3
370
     9
100
AcDbCircle
 10
-291.9802279085727
 20
-320.4449875290329
 30
0.0
 40
1.500000019331236
100
AcDbArc
 50
33.68894958496094
 51
89.99949645996095
  0
ARC
  5
4CB
330
1F
100
AcDbEntity
  8
通り芯
  6
Continuous
 62
     3
370
     9
100
AcDbCircle
 10
-282.374737713788
 20
-320.4449875290329
 30
0.0
 40
1.500000019331236
100
AcDbArc
 50
90.0
 51
146.3110504150391
  0
ARC
  5
4CC
330
1F
100
AcDbEntity
  8
通り芯
  6
Continuous
 62
     3
370
     9
100
AcDbCircle
 10
-269.9802295581713
 20
-320.4449875290329
 30
0.0
 40
1.500000019331236
100
AcDbArc
 50
33.68894958496094
 51
89.99949645996095
  0
ARC
  5
4CD
330
1F
100
AcDbEntity
  8
通り芯
  6
Continuous
 62
     3
370
     9
100
AcDbCircle
 10
-260.3747393633869
 20
-320.4449875290329
 30
0.0
 40
1.500000019331236
100
AcDbArc
 50
90.0
 51
146.3110504150391
  0
ARC
  5
4CE
330
1F
100
AcDbEntity
  8
通り芯
  6
Continuous
 62
     3
370
     9
100
AcDbCircle
 10
-247.9802312077702
 20
-320.4449875290329
 30
0.0
 40
1.500000019331236
100
AcDbArc
 50
33.68894958496094
 51
89.99949645996095
  0
ARC
  5
4CF
330
1F
100
AcDbEntity
  8
通り芯
  6
Continuous
 62
     3
370
     9
100
AcDbCircle
 10
-238.3747410129855
 20
-320.4449875290329
 30
0.0
 40
1.500000019331236
100
AcDbArc
 50
90.0
 51
146.3110504150391
  0
ARC
  5
4D0
330
1F
100
AcDbEntity
  8
通り芯
  6
Continuous
 62
     3
370
     9
100
AcDbCircle
 10
-225.980232857369
 20
-320.4449875290329
 30
0.0
 40
1.500000019331236
100
AcDbArc
 50
33.68894958496094
 51
89.99949645996095
  0
ARC
  5
4D1
330
1F
100
AcDbEntity
  8
通り芯
  6
Continuous
 62
     3
370
     9
100
AcDbCircle
 10
-216.3747426625844
 20
-320.4449875290329
 30
0.0
 40
1.500000019331236
100
AcDbArc
 50
90.0
 51
146.3110504150391
  0
ARC
  5
4D2
330
1F
100
AcDbEntity
  8
通り芯
  6
Continuous
 62
     3
370
     9
100
AcDbCircle
 10
-203.9801107870565
 20
-320.4449875290329
 30
0.0
 40
1.500000019331236
100
AcDbArc
 50
33.68894958496094
 51
89.99949645996095
  0
ARC
  5
4D3
330
1F
100
AcDbEntity
  8
通り芯
  6
Continuous
 62
     3
370
     9
100
AcDbCircle
 10
-194.3746205922719
 20
-320.4449875290329
 30
0.0
 40
1.500000019331236
100
AcDbArc
 50
90.0
 51
146.3110504150391
  0
ARC
  5
4D4
330
1F
100
AcDbEntity
  8
通り芯
  6
Continuous
 62
     3
370
     9
100
AcDbCircle
 10
-181.9801124366553
 20
-320.4449875290329
 30
0.0
 40
1.500000019331236
100
AcDbArc
 50
33.68894958496094
 51
89.99949645996095
  0
ARC
  5
4D5
330
1F
100
AcDbEntity
  8
通り芯
  6
Continuous
 62
     3
370
     9
100
AcDbCircle
 10
-172.3746222418707
 20
-320.4449875290329
 30
0.0
 40
1.500000019331236
100
AcDbArc
 50
90.0
 51
146.3110504150391
  0
ARC
  5
4D6
330
1F
100
AcDbEntity
  8
通り芯
  6
Continuous
 62
     3
370
     9
100
AcDbCircle
 10
-159.9801140862542
 20
-320.4449875290329
 30
0.0
 40
1.500000019331236
100
AcDbArc
 50
33.68894958496094
 51
89.99949645996095
  0
ARC
  5
4D7
330
1F
100
AcDbEntity
  8
通り芯
  6
Continuous
 62
     3
370
     9
100
AcDbCircle
 10
-150.3746238914695
 20
-320.4449875290329
 30
0.0
 40
1.500000019331236
100
AcDbArc
 50
90.0
 51
146.3110504150391
  0
ARC
  5
4D8
330
1F
100
AcDbEntity
  8
通り芯
  6
Continuous
 62
     3
370
     9
100
AcDbCircle
 10
-137.980115735853
 20
-320.4449875290329
 30
0.0
 40
1.500000019331236
100
AcDbArc
 50
33.68894958496094
 51
89.99949645996095
  0
ARC
  5
4D9
330
1F
100
AcDbEntity
  8
通り芯
  6
Continuous
 62
     3
370
     9
100
AcDbCircle
 10
469.3398965371622
 20
105.5321935705237
 30
0.0
 40
3.000000038662472
100
AcDbArc
 50
180.0
 51
258.6902618408203
  0
CIRCLE
  5
4DA
330
1F
100
AcDbEntity
  8
躯体
  6
Continuous
 62
     2
370
     9
100
AcDbCircle
 10
-630.1775751887141
 20
-62.40224477407097
 30
0.0
 40
4.500000057993709
  0
CIRCLE
  5
4DB
330
1F
100
AcDbEntity
  8
躯体
  6
Continuous
 62
     2
370
     9
100
AcDbCircle
 10
-30.17763704866965
 20
-62.40224477407097
 30
0.0
 40
4.500000057993709
  0
TEXT
  5
4DC
330
1F
100
AcDbEntity
  8
0-E
  6
Continuous
 62
     7
370
     9
100
AcDbText
 10
633.4809669288429
 20
29.52209047059753
 30
0.0
 40
11.43
  1
シャックル：呼び６
 41
1.148148148148148
  7
ＭＳ ゴシック
100
AcDbText
  0
TEXT
  5
4DD
330
1F
100
AcDbEntity
  8
0-E
  6
Continuous
 62
     7
370
     9
100
AcDbText
 10
247.4891662597656
 20
363.5222397592906
 30
0.0
 40
11.43
  1
受枠：Ｌ－２５Ｇ
 41
1.145833333333333
  7
ＭＳ ゴシック
100
AcDbText
  0
TEXT
  5
4DE
330
1F
100
AcDbEntity
  8
0-E
  6
Continuous
 62
     7
370
     9
100
AcDbText
 10
558.6377159324853
 20
338.8213120249156
 30
0.0
 40
11.43
  1
ＳＳ４００，樹脂系塗装
 41
1.151515151515152
  7
ＭＳ ゴシック
100
AcDbText
  0
TEXT
  5
4DF
330
1F
100
AcDbEntity
  8
0-E
  6
Continuous
 62
     7
370
     9
100
AcDbText
 10
246.5318174619932
 20
340.51380041174
 30
0.0
 40
11.43
  1
ＳＰＨＣ，樹脂系塗装
 41
1.15
  7
ＭＳ ゴシック
100
AcDbText
  0
TEXT
  5
4E0
330
1F
100
AcDbEntity
  8
0-E
  6
Continuous
 62
     7
370
     9
100
AcDbText
 10
559.9620221112227
 20
362.8218613413219
 30
0.0
 40
11.43
  1
アンカー：φ９
 41
1.142857142857143
  7
ＭＳ ゴシック
100
AcDbText
  0
TEXT
  5
4E1
330
1F
100
AcDbEntity
  8
0-F
  6
Continuous
 62
     7
370
     9
100
AcDbText
 10
-239.4676084776182
 20
-47.49468977644635
 30
0.0
 40
9.525
  1
ＫＡＮＥＳＯ
 41
1.1
  7
ＭＳ ゴシック
100
AcDbText
  0
TEXT
  5
4E2
330
1F
100
AcDbEntity
  8
0-F
  6
Continuous
 62
     7
370
     9
100
AcDbText
 10
-585.5827931584539
 20
240.8585929252007
 30
0.0
 40
9.525
  1
ＧＸＭ－２－３００
 50
180.0
 41
1.106666666666666
  7
ＭＳ ゴシック
100
AcDbText
  0
LINE
  5
4E3
330
1F
100
AcDbEntity
  8
0-E
  6
Continuous
 62
     7
370
     9
100
AcDbLine
 10
245.2174577039942
 20
-151.5968776393581
 30
0.0
 11
376.3539907094597
 21
-151.5968776393581
 31
0.0
  0
TEXT
  5
4E4
330
1F
100
AcDbEntity
  8
0-E
  6
Continuous
 62
     7
370
     9
100
AcDbText
 10
251.3449461238105
 20
-145.0690358424831
 30
0.0
 40
11.43
  1
蓋：ＦＣ２００
 41
1.142857142857143
  7
ＭＳ ゴシック
100
AcDbText
  0
TEXT
  5
4E5
330
1F
100
AcDbEntity
  8
0-E
  6
Continuous
 62
     7
370
     9
100
AcDbText
 10
251.3448966358459
 20
-167.8125289999472
 30
0.0
 40
11.43
  1
樹脂系塗装
 41
1.133333333333333
  7
ＭＳ ゴシック
100
AcDbText
  0
TEXT
  5
4E6
330
1F
100
AcDbEntity
  8
0-F
  6
Continuous
 62
     2
370
     9
100
AcDbText
 10
397.8700421307528
 20
-462.9584580540018
 30
0.0
 40
15.24
  1
仕様
 41
1.0625
  7
ＭＳ ゴシック
100
AcDbText
  0
TEXT
  5
4E7
330
1F
100
AcDbEntity
  8
0-F
  6
Continuous
 62
     2
370
     9
100
AcDbText
 10
397.8700173867705
 20
-486.9584506308071
 30
0.0
 40
15.24
  1
適用荷重：Ｔ－２
 41
1.109375
  7
ＭＳ ゴシック
100
AcDbText
  0
TEXT
  5
4E8
330
1F
100
AcDbEntity
  8
0-F
  6
Continuous
 62
     2
370
     9
100
AcDbText
 10
397.8700668747351
 20
-534.9584357844178
 30
0.0
 40
15.24
  1
接触圧子：φ１５０ｍｍ
 41
1.113636363636363
  7
ＭＳ ゴシック
100
AcDbText
  0
TEXT
  5
4E9
330
1F
100
AcDbEntity
  8
0-F
  6
Continuous
 62
     2
370
     9
100
AcDbText
 10
397.8700668747351
 20
-510.9584741375904
 30
0.0
 40
15.24
  1
破壊荷重：２０ｋＮ（２，０４１ｋｇｆ）以上
 41
1.119047619047619
  7
ＭＳ ゴシック
100
AcDbText
  0
TEXT
  5
4EA
330
1F
100
AcDbEntity
  8
0-F
  6
Continuous
 62
     2
370
     9
100
AcDbText
 10
397.8701538706855
 20
-558.9584592912005
 30
0.0
 40
15.24
  1
蓋 質 量：１３．０ｋｇ
 50
359.9999920352483
 41
1.113636363636363
  7
ＭＳ ゴシック
100
AcDbText
  0
LINE
  5
4EB
330
1F
100
AcDbEntity
  8
0-F
  6
Continuous
 62
     7
370
     9
100
AcDbLine
 10
-730.1776267386771
 20
327.0476222682645
 30
0.0
 11
-630.1776370486697
 21
327.0476222682645
 31
0.0
  0
LINE
  5
4EC
330
1F
100
AcDbEntity
  8
0-F
  6
Continuous
 62
     7
370
     9
100
AcDbLine
 10
-630.1776370486697
 20
290.0478218697214
 30
0.0
 11
-630.1776370486697
 21
328.5476024730787
 31
0.0
  0
LINE
  5
4ED
330
1F
100
AcDbEntity
  8
0-F
  6
Continuous
 62
     7
370
     9
100
AcDbLine
 10
-730.1776267386771
 20
327.0476222682645
 30
0.0
 11
-715.3059675886824
 21
329.005489864865
 31
0.0
  0
LINE
  5
4EE
330
1F
100
AcDbEntity
  8
0-F
  6
Continuous
 62
     7
370
     9
100
AcDbLine
 10
-730.1776267386771
 20
327.0476222682645
 30
0.0
 11
-715.3059675886824
 21
325.089754671664
 31
0.0
  0
LINE
  5
4EF
330
1F
100
AcDbEntity
  8
0-F
  6
Continuous
 62
     7
370
     9
100
AcDbLine
 10
-630.1776370486697
 20
327.0476222682645
 30
0.0
 11
-645.0492961986645
 21
329.005489864865
 31
0.0
  0
LINE
  5
4F0
330
1F
100
AcDbEntity
  8
0-F
  6
Continuous
 62
     7
370
     9
100
AcDbLine
 10
-630.1776370486697
 20
327.0476222682645
 30
0.0
 11
-645.0492961986645
 21
325.089754671664
 31
0.0
  0
LINE
  5
4F1
330
1F
100
AcDbEntity
  8
0-F
  6
Continuous
 62
     7
370
     9
100
AcDbLine
 10
-630.1776370486697
 20
327.0476222682645
 30
0.0
 11
-30.17763704866965
 21
327.0476222682645
 31
0.0
  0
LINE
  5
4F2
330
1F
100
AcDbEntity
  8
0-F
  6
Continuous
 62
     7
370
     9
100
AcDbLine
 10
-30.17763704866965
 20
290.0478218697214
 30
0.0
 11
-30.17763704866965
 21
328.5476024730787
 31
0.0
  0
LINE
  5
4F3
330
1F
100
AcDbEntity
  8
0-F
  6
Continuous
 62
     7
370
     9
100
AcDbLine
 10
-630.1776370486697
 20
327.0476222682645
 30
0.0
 11
-615.305977898675
 21
329.005489864865
 31
0.0
  0
LINE
  5
4F4
330
1F
100
AcDbEntity
  8
0-F
  6
Continuous
 62
     7
370
     9
100
AcDbLine
 10
-630.1776370486697
 20
327.0476222682645
 30
0.0
 11
-615.305977898675
 21
325.089754671664
 31
0.0
  0
LINE
  5
4F5
330
1F
100
AcDbEntity
  8
0-F
  6
Continuous
 62
     7
370
     9
100
AcDbLine
 10
-30.17763704866965
 20
327.0476222682645
 30
0.0
 11
-45.04932712864232
 21
329.005489864865
 31
0.0
  0
LINE
  5
4F6
330
1F
100
AcDbEntity
  8
0-F
  6
Continuous
 62
     7
370
     9
100
AcDbLine
 10
-30.17763704866965
 20
327.0476222682645
 30
0.0
 11
-45.04932712864232
 21
325.089754671664
 31
0.0
  0
LINE
  5
4F7
330
1F
100
AcDbEntity
  8
0-F
  6
Continuous
 62
     7
370
     9
100
AcDbLine
 10
-30.17763704866965
 20
327.0476222682645
 30
0.0
 11
99.82242068728894
 21
327.0476222682645
 31
0.0
  0
LINE
  5
4F8
330
1F
100
AcDbEntity
  8
0-F
  6
Continuous
 62
     7
370
     9
100
AcDbLine
 10
-30.17763704866965
 20
327.0476222682645
 30
0.0
 11
-15.30594696869713
 21
329.005489864865
 31
0.0
  0
LINE
  5
4F9
330
1F
100
AcDbEntity
  8
0-F
  6
Continuous
 62
     7
370
     9
100
AcDbLine
 10
-30.17763704866965
 20
327.0476222682645
 30
0.0
 11
-15.30594696869713
 21
325.089754671664
 31
0.0
  0
LINE
  5
4FA
330
1F
100
AcDbEntity
  8
0-F
  6
Continuous
 62
     7
370
     9
100
AcDbLine
 10
-730.1776267386771
 20
257.0476387642526
 30
0.0
 11
-730.1776267386771
 21
378.5476437130491
 31
0.0
  0
LINE
  5
4FB
330
1F
100
AcDbEntity
  8
0-F
  6
Continuous
 62
     7
370
     9
100
AcDbLine
 10
-730.1776267386771
 20
377.0476635082349
 30
0.0
 11
99.82242068728894
 21
377.0476635082349
 31
0.0
  0
LINE
  5
4FC
330
1F
100
AcDbEntity
  8
0-F
  6
Continuous
 62
     7
370
     9
100
AcDbLine
 10
-730.1776267386771
 20
377.0476635082349
 30
0.0
 11
-715.3059675886824
 21
379.0055311048354
 31
0.0
  0
LINE
  5
4FD
330
1F
100
AcDbEntity
  8
0-F
  6
Continuous
 62
     7
370
     9
100
AcDbLine
 10
-730.1776267386771
 20
377.0476635082349
 30
0.0
 11
-715.3059675886824
 21
375.0897959116344
 31
0.0
  0
LINE
  5
4FE
330
1F
100
AcDbEntity
  8
0-F
  6
Continuous
 62
     7
370
     9
100
AcDbLine
 10
-734.1776151914854
 20
31.07284958298152
 30
0.0
 11
-780.6776201402819
 21
31.07284958298152
 31
0.0
  0
LINE
  5
4FF
330
1F
100
AcDbEntity
  8
0-F
  6
Continuous
 62
     7
370
     9
100
AcDbLine
 10
-734.1776151914854
 20
22.87281758076446
 30
0.0
 11
-780.6776510702596
 21
22.87281758076446
 31
0.0
  0
LINE
  5
500
330
1F
100
AcDbEntity
  8
0-F
  6
Continuous
 62
     7
370
     9
100
AcDbLine
 10
-779.1776399354677
 20
31.07284958298152
 30
0.0
 11
-781.135538462046
 21
45.94453966295404
 31
0.0
  0
LINE
  5
501
330
1F
100
AcDbEntity
  8
0-F
  6
Continuous
 62
     7
370
     9
100
AcDbLine
 10
-779.1776399354677
 20
31.07284958298152
 30
0.0
 11
-777.2197414088894
 21
45.94453966295404
 31
0.0
  0
LINE
  5
502
330
1F
100
AcDbEntity
  8
0-F
  6
Continuous
 62
     7
370
     9
100
AcDbLine
 10
-734.1776151914854
 20
2.372737575221748
 30
0.0
 11
-780.6776510702596
 21
2.372737575221748
 31
0.0
  0
LINE
  5
503
330
1F
100
AcDbEntity
  8
0-F
  6
Continuous
 62
     7
370
     9
100
AcDbLine
 10
-779.1776399354677
 20
2.372737575221748
 30
0.0
 11
-781.135538462046
 21
-12.49895250475078
 31
0.0
  0
LINE
  5
504
330
1F
100
AcDbEntity
  8
0-F
  6
Continuous
 62
     7
370
     9
100
AcDbLine
 10
-779.1776399354677
 20
2.372737575221748
 30
0.0
 11
-777.2197414088894
 21
-12.49895250475078
 31
0.0
  0
LINE
  5
505
330
1F
100
AcDbEntity
  8
0-F
  6
Continuous
 62
     7
370
     9
100
AcDbLine
 10
-779.1776399354677
 20
59.78100338497683
 30
0.0
 11
-779.1776399354677
 21
22.87281758076446
 31
0.0
  0
LINE
  5
506
330
1F
100
AcDbEntity
  8
0-F
  6
Continuous
 62
     7
370
     9
100
AcDbLine
 10
-779.1776399354677
 20
22.87281758076446
 30
0.0
 11
-779.1776399354677
 21
-19.67755291913008
 31
0.0
  0
LINE
  5
507
330
1F
100
AcDbEntity
  8
0-F
  6
Continuous
 62
     7
370
     9
100
AcDbLine
 10
-729.1775986954973
 20
-132.9021804397171
 30
0.0
 11
-131.1775001319678
 21
-132.9021804397171
 31
0.0
  0
LINE
  5
508
330
1F
100
AcDbEntity
  8
0-F
  6
Continuous
 62
     7
370
     9
100
AcDbLine
 10
-729.1775986954973
 20
-61.90216889252525
 30
0.0
 11
-729.1775986954973
 21
-134.1021398595861
 31
0.0
  0
LINE
  5
509
330
1F
100
AcDbEntity
  8
0-F
  6
Continuous
 62
     7
370
     9
100
AcDbLine
 10
-729.1775986954973
 20
-132.9021804397171
 30
0.0
 11
-717.2802590035104
 21
-131.3358863624367
 31
0.0
  0
LINE
  5
50A
330
1F
100
AcDbEntity
  8
0-F
  6
Continuous
 62
     7
370
     9
100
AcDbLine
 10
-729.1775986954973
 20
-132.9021804397171
 30
0.0
 11
-717.2802590035104
 21
-134.4684745169974
 31
0.0
  0
LINE
  5
50B
330
1F
100
AcDbEntity
  8
0-F
  6
Continuous
 62
     7
370
     9
100
AcDbLine
 10
-131.1775001319678
 20
-132.9021804397171
 30
0.0
 11
-143.0748398239548
 21
-131.3358863624367
 31
0.0
  0
LINE
  5
50C
330
1F
100
AcDbEntity
  8
0-F
  6
Continuous
 62
     7
370
     9
100
AcDbLine
 10
-131.1775001319678
 20
-132.9021804397171
 30
0.0
 11
-143.0748398239548
 21
-134.4684745169974
 31
0.0
  0
LINE
  5
50D
330
1F
100
AcDbEntity
  8
0-F
  6
Continuous
 62
     7
370
     9
100
AcDbLine
 10
-129.1775059055637
 20
-61.90216889252525
 30
0.0
 11
-129.1775059055637
 21
-134.4021606445312
 31
0.0
  0
LINE
  5
50E
330
1F
100
AcDbEntity
  8
0-F
  6
Continuous
 62
     7
370
     9
100
AcDbLine
 10
-129.1775059055637
 20
-132.9021804397171
 30
0.0
 11
-114.3058158255911
 21
-130.9443128431165
 31
0.0
  0
LINE
  5
50F
330
1F
100
AcDbEntity
  8
0-F
  6
Continuous
 62
     7
370
     9
100
AcDbLine
 10
-129.1775059055637
 20
-132.9021804397171
 30
0.0
 11
-114.3058158255911
 21
-134.8600480363175
 31
0.0
  0
LINE
  5
510
330
1F
100
AcDbEntity
  8
0-F
  6
Continuous
 62
     7
370
     9
100
AcDbLine
 10
-129.1775059055637
 20
-132.9021804397171
 30
0.0
 11
99.82242068728894
 21
-132.9021804397171
 31
0.0
  0
LINE
  5
511
330
1F
100
AcDbEntity
  8
0-F
  6
Continuous
 62
     7
370
     9
100
AcDbLine
 10
-131.1775001319678
 20
-61.90216889252525
 30
0.0
 11
-131.1775001319678
 21
-134.4021606445312
 31
0.0
  0
LINE
  5
512
330
1F
100
AcDbEntity
  8
0-F
  6
Continuous
 62
     7
370
     9
100
AcDbLine
 10
456.3399031355576
 20
252.0476841282201
 30
0.0
 11
334.8398981867609
 21
252.0476841282201
 31
0.0
  0
LINE
  5
513
330
1F
100
AcDbEntity
  8
0-F
  6
Continuous
 62
     7
370
     9
100
AcDbLine
 10
456.3399031355576
 20
248.8477304819469
 30
0.0
 11
384.8399394267315
 21
248.8477304819469
 31
0.0
  0
LINE
  5
514
330
1F
100
AcDbEntity
  8
0-F
  6
Continuous
 62
     7
370
     9
100
AcDbLine
 10
386.3399196315456
 20
252.0476841282201
 30
0.0
 11
384.382052034945
 21
266.9193742081926
 31
0.0
  0
LINE
  5
515
330
1F
100
AcDbEntity
  8
0-F
  6
Continuous
 62
     7
370
     9
100
AcDbLine
 10
386.3399196315456
 20
252.0476841282201
 30
0.0
 11
388.2977872281461
 21
266.9193742081926
 31
0.0
  0
LINE
  5
516
330
1F
100
AcDbEntity
  8
0-F
  6
Continuous
 62
     7
370
     9
100
AcDbLine
 10
386.3399196315456
 20
248.8477304819469
 30
0.0
 11
386.3399196315456
 21
246.847674395587
 31
0.0
  0
LINE
  5
517
330
1F
100
AcDbEntity
  8
0-F
  6
Continuous
 62
     7
370
     9
100
AcDbLine
 10
456.3399031355576
 20
246.847674395587
 30
0.0
 11
384.8399394267315
 21
246.847674395587
 31
0.0
  0
LINE
  5
518
330
1F
100
AcDbEntity
  8
0-F
  6
Continuous
 62
     7
370
     9
100
AcDbLine
 10
386.3399196315456
 20
246.847674395587
 30
0.0
 11
384.382052034945
 21
231.9759843156145
 31
0.0
  0
LINE
  5
519
330
1F
100
AcDbEntity
  8
0-F
  6
Continuous
 62
     7
370
     9
100
AcDbLine
 10
386.3399196315456
 20
246.847674395587
 30
0.0
 11
388.2977872281461
 21
231.9759843156145
 31
0.0
  0
LINE
  5
51A
330
1F
100
AcDbEntity
  8
0-F
  6
Continuous
 62
     7
370
     9
100
AcDbLine
 10
386.3399196315456
 20
246.847674395587
 30
0.0
 11
386.3399196315456
 21
-52.70223256703972
 31
0.0
  0
LINE
  5
51B
330
1F
100
AcDbEntity
  8
0-F
  6
Continuous
 62
     7
370
     9
100
AcDbLine
 10
456.3399031355576
 20
-52.70223256703972
 30
0.0
 11
384.8399394267315
 21
-52.70223256703972
 31
0.0
  0
LINE
  5
51C
330
1F
100
AcDbEntity
  8
0-F
  6
Continuous
 62
     7
370
     9
100
AcDbLine
 10
386.3399196315456
 20
-52.70223256703972
 30
0.0
 11
386.3399196315456
 21
-54.70228865339948
 31
0.0
  0
LINE
  5
51D
330
1F
100
AcDbEntity
  8
0-F
  6
Continuous
 62
     7
370
     9
100
AcDbLine
 10
456.3399031355576
 20
-54.70228865339948
 30
0.0
 11
384.8399394267315
 21
-54.70228865339948
 31
0.0
  0
LINE
  5
51E
330
1F
100
AcDbEntity
  8
0-F
  6
Continuous
 62
     7
370
     9
100
AcDbLine
 10
386.3399196315456
 20
-52.70223256703972
 30
0.0
 11
384.382052034945
 21
-37.83054248706705
 31
0.0
  0
LINE
  5
51F
330
1F
100
AcDbEntity
  8
0-F
  6
Continuous
 62
     7
370
     9
100
AcDbLine
 10
386.3399196315456
 20
-52.70223256703972
 30
0.0
 11
388.2977872281461
 21
-37.83054248706705
 31
0.0
  0
LINE
  5
520
330
1F
100
AcDbEntity
  8
0-F
  6
Continuous
 62
     7
370
     9
100
AcDbLine
 10
456.3399031355576
 20
-57.90224229967265
 30
0.0
 11
334.8398981867609
 21
-57.90224229967265
 31
0.0
  0
LINE
  5
521
330
1F
100
AcDbEntity
  8
0-F
  6
Continuous
 62
     7
370
     9
100
AcDbLine
 10
386.3399196315456
 20
-57.90224229967265
 30
0.0
 11
384.382052034945
 21
-72.77393237964517
 31
0.0
  0
LINE
  5
522
330
1F
100
AcDbEntity
  8
0-F
  6
Continuous
 62
     7
370
     9
100
AcDbLine
 10
386.3399196315456
 20
-57.90224229967265
 30
0.0
 11
388.2977872281461
 21
-72.77393237964517
 31
0.0
  0
LINE
  5
523
330
1F
100
AcDbEntity
  8
0-F
  6
Continuous
 62
     7
370
     9
100
AcDbLine
 10
386.3399196315456
 20
302.0221772065034
 30
0.0
 11
386.3399196315456
 21
248.8477304819469
 31
0.0
  0
LINE
  5
524
330
1F
100
AcDbEntity
  8
0-F
  6
Continuous
 62
     7
370
     9
100
AcDbLine
 10
386.3399196315456
 20
-54.70228865339948
 30
0.0
 11
386.3399196315456
 21
-105.3231564083615
 31
0.0
  0
LINE
  5
525
330
1F
100
AcDbEntity
  8
0-F
  6
Continuous
 62
     7
370
     9
100
AcDbLine
 10
336.3398783915753
 20
-57.90224229967265
 30
0.0
 11
336.3398783915753
 21
252.0476841282201
 31
0.0
  0
LINE
  5
526
330
1F
100
AcDbEntity
  8
0-F
  6
Continuous
 62
     7
370
     9
100
AcDbLine
 10
336.3398783915753
 20
-57.90224229967265
 30
0.0
 11
334.3820107949747
 21
-43.03055221970013
 31
0.0
  0
LINE
  5
527
330
1F
100
AcDbEntity
  8
0-F
  6
Continuous
 62
     7
370
     9
100
AcDbLine
 10
336.3398783915753
 20
-57.90224229967265
 30
0.0
 11
338.2977459881758
 21
-43.03055221970013
 31
0.0
  0
LINE
  5
528
330
1F
100
AcDbEntity
  8
0-F
  6
Continuous
 62
     7
370
     9
100
AcDbLine
 10
336.3398783915753
 20
252.0476841282201
 30
0.0
 11
334.3820107949747
 21
237.1759940482475
 31
0.0
  0
LINE
  5
529
330
1F
100
AcDbEntity
  8
0-F
  6
Continuous
 62
     7
370
     9
100
AcDbLine
 10
336.3398783915753
 20
252.0476841282201
 30
0.0
 11
338.2977459881758
 21
237.1759940482475
 31
0.0
  0
LINE
  5
52A
330
1F
100
AcDbEntity
  8
0-F
  6
Continuous
 62
     7
370
     9
100
AcDbLine
 10
555.73165481155
 20
356.4765064136402
 30
0.0
 11
514.039776776288
 21
281.0478169209249
 31
0.0
  0
LINE
  5
52B
330
1F
100
AcDbEntity
  8
0-F
  6
Continuous
 62
     7
370
     9
100
AcDbLine
 10
514.039776776288
 20
281.0478169209249
 30
0.0
 11
519.520445127745
 21
295.0107223923142
 31
0.0
  0
LINE
  5
52C
330
1F
100
AcDbEntity
  8
0-F
  6
Continuous
 62
     7
370
     9
100
AcDbLine
 10
514.039776776288
 20
281.0478169209249
 30
0.0
 11
522.9476103911529
 21
293.116446830131
 31
0.0
  0
LINE
  5
52D
330
1F
100
AcDbEntity
  8
0-F
  6
Continuous
 62
     7
370
     9
100
AcDbLine
 10
461.3399196315456
 20
-14.24699113175677
 30
0.0
 11
455.1797815271325
 21
-27.92373244826848
 31
0.0
  0
LINE
  5
52E
330
1F
100
AcDbEntity
  8
0-F
  6
Continuous
 62
     7
370
     9
100
AcDbLine
 10
461.3399196315456
 20
-14.24699113175677
 30
0.0
 11
451.8498601140203
 21
-25.86330104518581
 31
0.0
  0
LINE
  5
52F
330
1F
100
AcDbEntity
  8
0-F
  6
Continuous
 62
     7
370
     9
100
AcDbLine
 10
631.4247337547511
 20
153.7966300345757
 30
0.0
 11
555.745635161529
 21
106.0728495829815
 31
0.0
  0
LINE
  5
530
330
1F
100
AcDbEntity
  8
0-F
  6
Continuous
 62
     7
370
     9
100
AcDbLine
 10
555.745635161529
 20
106.0728495829815
 30
0.0
 11
567.2806610932221
 21
115.6615757297826
 31
0.0
  0
LINE
  5
531
330
1F
100
AcDbEntity
  8
0-F
  6
Continuous
 62
     7
370
     9
100
AcDbLine
 10
555.745635161529
 20
106.0728495829815
 30
0.0
 11
569.3693006360854
 21
112.3493462639887
 31
0.0
  0
LINE
  5
532
330
1F
100
AcDbEntity
  8
0-F
  6
Continuous
 62
     7
370
     9
100
AcDbLine
 10
461.3399196315456
 20
-62.9022587956608
 30
0.0
 11
461.3399196315456
 21
-184.4022018845017
 31
0.0
  0
LINE
  5
533
330
1F
100
AcDbEntity
  8
0-F
  6
Continuous
 62
     7
370
     9
100
AcDbLine
 10
486.3398783915753
 20
-132.9022422996727
 30
0.0
 11
501.2115066115922
 21
-130.9443747030722
 31
0.0
  0
LINE
  5
534
330
1F
100
AcDbEntity
  8
0-F
  6
Continuous
 62
     7
370
     9
100
AcDbLine
 10
486.3398783915753
 20
-132.9022422996727
 30
0.0
 11
501.2115066115922
 21
-134.8601098962732
 31
0.0
  0
LINE
  5
535
330
1F
100
AcDbEntity
  8
0-F
  6
Continuous
 62
     7
370
     9
100
AcDbLine
 10
461.3399196315456
 20
-132.9022422996727
 30
0.0
 11
446.4682914115289
 21
-130.9443747030722
 31
0.0
  0
LINE
  5
536
330
1F
100
AcDbEntity
  8
0-F
  6
Continuous
 62
     7
370
     9
100
AcDbLine
 10
461.3399196315456
 20
-132.9022422996727
 30
0.0
 11
446.4682914115289
 21
-134.8601098962732
 31
0.0
  0
LINE
  5
537
330
1F
100
AcDbEntity
  8
0-F
  6
Continuous
 62
     7
370
     9
100
AcDbLine
 10
518.5397173907307
 20
-182.9022216796875
 30
0.0
 11
533.4113456107477
 21
-180.944354083087
 31
0.0
  0
LINE
  5
538
330
1F
100
AcDbEntity
  8
0-F
  6
Continuous
 62
     7
370
     9
100
AcDbLine
 10
518.5397173907307
 20
-182.9022216796875
 30
0.0
 11
533.4113456107477
 21
-184.860089276288
 31
0.0
  0
LINE
  5
539
330
1F
100
AcDbEntity
  8
0-F
  6
Continuous
 62
     7
370
     9
100
AcDbLine
 10
461.3399196315456
 20
-182.9022216796875
 30
0.0
 11
446.4682914115289
 21
-180.944354083087
 31
0.0
  0
LINE
  5
53A
330
1F
100
AcDbEntity
  8
0-F
  6
Continuous
 62
     7
370
     9
100
AcDbLine
 10
461.3399196315456
 20
-182.9022216796875
 30
0.0
 11
446.4682914115289
 21
-184.860089276288
 31
0.0
  0
LINE
  5
53B
330
1F
100
AcDbEntity
  8
0-F
  6
Continuous
 62
     7
370
     9
100
AcDbLine
 10
518.5397173907307
 20
-91.90232972841002
 30
0.0
 11
518.5397173907307
 21
-184.4022018845017
 31
0.0
  0
LINE
  5
53C
330
1F
100
AcDbEntity
  8
0-F
  6
Continuous
 62
     7
370
     9
100
AcDbLine
 10
486.3398783915753
 20
-71.90232560441302
 30
0.0
 11
486.3398783915753
 21
-134.4022225044868
 31
0.0
  0
LINE
  5
53D
330
1F
100
AcDbEntity
  8
0-F
  6
Continuous
 62
     7
370
     9
100
AcDbLine
 10
489.5397701778927
 20
-71.90232560441302
 30
0.0
 11
489.5397701778927
 21
-184.4022018845017
 31
0.0
  0
LINE
  5
53E
330
1F
100
AcDbEntity
  8
0-F
  6
Continuous
 62
     7
370
     9
100
AcDbLine
 10
489.5397701778927
 20
-182.9022216796875
 30
0.0
 11
399.3423874313768
 21
-182.9022216796875
 31
0.0
  0
LINE
  5
53F
330
1F
100
AcDbEntity
  8
0-F
  6
Continuous
 62
     7
370
     9
100
AcDbLine
 10
559.4248178842906
 20
-182.9022216796875
 30
0.0
 11
489.5397701778927
 21
-182.9022216796875
 31
0.0
  0
LINE
  5
540
330
1F
100
AcDbEntity
  8
0-F
  6
Continuous
 62
     7
370
     9
100
AcDbLine
 10
508.2722019504857
 20
-132.9022422996727
 30
0.0
 11
421.9734810494089
 21
-132.9022422996727
 31
0.0
  0
LINE
  5
541
330
1F
100
AcDbEntity
  8
0-F
  6
Continuous
 62
     7
370
     9
100
AcDbLine
 10
523.5397338867188
 20
-86.90231323242188
 30
0.0
 11
595.0396975955448
 21
-86.90231323242188
 31
0.0
  0
LINE
  5
542
330
1F
100
AcDbEntity
  8
0-F
  6
Continuous
 62
     7
370
     9
100
AcDbLine
 10
593.5397173907307
 20
-86.90231323242188
 30
0.0
 11
591.5818497941302
 21
-101.7740033123944
 31
0.0
  0
LINE
  5
543
330
1F
100
AcDbEntity
  8
0-F
  6
Continuous
 62
     7
370
     9
100
AcDbLine
 10
593.5397173907307
 20
-86.90231323242188
 30
0.0
 11
595.4975849873313
 21
-101.7740033123944
 31
0.0
  0
LINE
  5
544
330
1F
100
AcDbEntity
  8
0-F
  6
Continuous
 62
     7
370
     9
100
AcDbLine
 10
593.5397173907307
 20
-57.90224229967265
 30
0.0
 11
593.5397173907307
 21
-27.70227380701016
 31
0.0
  0
LINE
  5
545
330
1F
100
AcDbEntity
  8
0-F
  6
Continuous
 62
     7
370
     9
100
AcDbLine
 10
593.5397173907307
 20
-27.70227380701016
 30
0.0
 11
593.5397173907307
 21
221.8477156355574
 31
0.0
  0
LINE
  5
546
330
1F
100
AcDbEntity
  8
0-F
  6
Continuous
 62
     7
370
     9
100
AcDbLine
 10
593.5397173907307
 20
-27.70227380701016
 30
0.0
 11
591.5818497941302
 21
-12.83058372703749
 31
0.0
  0
LINE
  5
547
330
1F
100
AcDbEntity
  8
0-F
  6
Continuous
 62
     7
370
     9
100
AcDbLine
 10
593.5397173907307
 20
-27.70227380701016
 30
0.0
 11
595.4975849873313
 21
-12.83058372703749
 31
0.0
  0
LINE
  5
548
330
1F
100
AcDbEntity
  8
0-F
  6
Continuous
 62
     7
370
     9
100
AcDbLine
 10
593.5397173907307
 20
221.8477156355574
 30
0.0
 11
591.5818497941302
 21
206.9760255555849
 31
0.0
  0
LINE
  5
549
330
1F
100
AcDbEntity
  8
0-F
  6
Continuous
 62
     7
370
     9
100
AcDbLine
 10
593.5397173907307
 20
221.8477156355574
 30
0.0
 11
595.4975849873313
 21
206.9760255555849
 31
0.0
  0
LINE
  5
54A
330
1F
100
AcDbEntity
  8
0-F
  6
Continuous
 62
     7
370
     9
100
AcDbLine
 10
593.5397173907307
 20
221.8477156355574
 30
0.0
 11
593.5397173907307
 21
252.0476222682645
 31
0.0
  0
LINE
  5
54B
330
1F
100
AcDbEntity
  8
0-F
  6
Continuous
 62
     7
370
     9
100
AcDbLine
 10
523.5397338867188
 20
281.0478169209249
 30
0.0
 11
595.0396975955448
 21
281.0478169209249
 31
0.0
  0
LINE
  5
54C
330
1F
100
AcDbEntity
  8
0-F
  6
Continuous
 62
     7
370
     9
100
AcDbLine
 10
593.5397173907307
 20
281.0478169209249
 30
0.0
 11
591.5818497941302
 21
295.9194451409418
 31
0.0
  0
LINE
  5
54D
330
1F
100
AcDbEntity
  8
0-F
  6
Continuous
 62
     7
370
     9
100
AcDbLine
 10
593.5397173907307
 20
281.0478169209249
 30
0.0
 11
595.4975849873313
 21
295.9194451409418
 31
0.0
  0
LINE
  5
54E
330
1F
100
AcDbEntity
  8
0-F
  6
Continuous
 62
     7
370
     9
100
AcDbLine
 10
509.5398361618456
 20
-57.90224229967265
 30
0.0
 11
595.0396975955448
 21
-57.90224229967265
 31
0.0
  0
LINE
  5
54F
330
1F
100
AcDbEntity
  8
0-F
  6
Continuous
 62
     7
370
     9
100
AcDbLine
 10
509.5398361618456
 20
252.0476222682645
 30
0.0
 11
595.0396975955448
 21
252.0476222682645
 31
0.0
  0
LINE
  5
550
330
1F
100
AcDbEntity
  8
0-F
  6
Continuous
 62
     7
370
     9
100
AcDbLine
 10
494.539786673881
 20
221.8477156355574
 30
0.0
 11
595.0396975955448
 21
221.8477156355574
 31
0.0
  0
LINE
  5
551
330
1F
100
AcDbEntity
  8
0-F
  6
Continuous
 62
     7
370
     9
100
AcDbLine
 10
494.539786673881
 20
-27.70227380701016
 30
0.0
 11
595.0396975955448
 21
-27.70227380701016
 31
0.0
  0
LINE
  5
552
330
1F
100
AcDbEntity
  8
0-F
  6
Continuous
 62
     7
370
     9
100
AcDbLine
 10
593.5397173907307
 20
-105.0690975704708
 30
0.0
 11
593.5397173907307
 21
-57.90224229967265
 31
0.0
  0
LINE
  5
553
330
1F
100
AcDbEntity
  8
0-F
  6
Continuous
 62
     7
370
     9
100
AcDbLine
 10
593.5397173907307
 20
252.0476222682645
 30
0.0
 11
593.5397173907307
 21
301.4425494219806
 31
0.0
  0
LINE
  5
554
330
1F
100
AcDbEntity
  8
0-F
  6
Continuous
 62
     7
370
     9
100
AcDbLine
 10
376.3539907094597
 20
-151.5968776393581
 30
0.0
 11
461.3399196315456
 21
-14.24699113175677
 31
0.0
  0
TEXT
  5
555
330
1F
100
AcDbEntity
  8
0-F
  6
Continuous
 62
     2
370
     9
100
AcDbText
 10
-346.4276370486697
 20
332.3676305162584
 30
0.0
 40
15.24
  1
600
 41
1.083333333333333
  7
ＭＳ ゴシック
100
AcDbText
  0
TEXT
  5
556
330
1F
100
AcDbEntity
  8
0-F
  6
Continuous
 62
     2
370
     9
100
AcDbText
 10
-696.9276149852857
 20
332.3676305162584
 30
0.0
 40
15.24
  1
100
 41
1.083333333333333
  7
ＭＳ ゴシック
100
AcDbText
  0
TEXT
  5
557
330
1F
100
AcDbEntity
  8
0-F
  6
Continuous
 62
     2
370
     9
100
AcDbText
 10
68.05064433329825
 20
332.3676305162584
 30
0.0
 40
15.24
  1
600
 41
1.083333333333333
  7
ＭＳ ゴシック
100
AcDbText
  0
TEXT
  5
558
330
1F
100
AcDbEntity
  8
0-F
  6
Continuous
 62
     2
370
     9
100
AcDbText
 10
-331.4275690027185
 20
382.3676717562289
 30
0.0
 40
15.24
  1
2000
 41
1.09375
  7
ＭＳ ゴシック
100
AcDbText
  0
TEXT
  5
559
330
1F
100
AcDbEntity
  8
0-F
  6
Continuous
 62
     2
370
     9
100
AcDbText
 10
-784.4976481834618
 20
1.31308065878379
 30
0.0
 40
15.24
  1
20
 50
90.0
 41
1.0625
  7
ＭＳ ゴシック
100
AcDbText
  0
TEXT
  5
55A
330
1F
100
AcDbEntity
  8
0-F
  6
Continuous
 62
     2
370
     9
100
AcDbText
 10
-784.497617253484
 20
47.90183608596394
 30
0.0
 40
15.24
  1
8
 50
90.0
 41
0.9999999999999998
  7
ＭＳ ゴシック
100
AcDbText
  0
TEXT
  5
55B
330
1F
100
AcDbEntity
  8
0-F
  6
Continuous
 62
     2
370
     9
100
AcDbText
 10
-442.6776506641779
 20
-128.0821862133337
 30
0.0
 40
15.24
  1
598
 50
0.0001090558824337
 41
1.083333333333332
  7
ＭＳ ゴシック
100
AcDbText
  0
TEXT
  5
55C
330
1F
100
AcDbEntity
  8
0-F
  6
Continuous
 62
     2
370
     9
100
AcDbText
 10
67.83883584512253
 20
-127.5821721917229
 30
0.0
 40
15.24
  1
598
 41
1.083333333333333
  7
ＭＳ ゴシック
100
AcDbText
  0
TEXT
  5
55D
330
1F
100
AcDbEntity
  8
0-F
  6
Continuous
 62
     2
370
     9
100
AcDbText
 10
-135.591902861724
 20
-152.9138240339949
 30
0.0
 40
15.24
  1
2
 41
0.9999999999999998
  7
ＭＳ ゴシック
100
AcDbText
  0
TEXT
  5
55E
330
1F
100
AcDbEntity
  8
0-F
  6
Continuous
 62
     2
370
     9
100
AcDbText
 10
381.0199113835516
 20
267.801457997915
 30
0.0
 40
15.24
  1
3.2
 50
90.0
 41
1.083333333333333
  7
ＭＳ ゴシック
100
AcDbText
  0
TEXT
  5
55F
330
1F
100
AcDbEntity
  8
0-F
  6
Continuous
 62
     2
370
     9
100
AcDbText
 10
381.0199113835516
 20
236.0694905873892
 30
0.0
 40
15.24
  1
2
 50
90.0
 41
0.9999999999999998
  7
ＭＳ ゴシック
100
AcDbText
  0
TEXT
  5
560
330
1F
100
AcDbEntity
  8
0-F
  6
Continuous
 62
     2
370
     9
100
AcDbText
 10
381.0199113835516
 20
-50.9900252883498
 30
0.0
 40
15.24
  1
2
 50
90.0
 41
0.9999999999999998
  7
ＭＳ ゴシック
100
AcDbText
  0
TEXT
  5
561
330
1F
100
AcDbEntity
  8
0-F
  6
Continuous
 62
     2
370
     9
100
AcDbText
 10
381.0199113835516
 20
-105.997128873258
 30
0.0
 40
15.24
  1
3.2
 50
90.0
 41
1.083333333333333
  7
ＭＳ ゴシック
100
AcDbText
  0
TEXT
  5
562
330
1F
100
AcDbEntity
  8
0-F
  6
Continuous
 62
     2
370
     9
100
AcDbText
 10
424.099116969753
 20
-127.5822340516786
 30
0.0
 40
15.24
  1
25
 41
1.0625
  7
ＭＳ ゴシック
100
AcDbText
  0
TEXT
  5
563
330
1F
100
AcDbEntity
  8
0-F
  6
Continuous
 62
     2
370
     9
100
AcDbText
 10
534.3466722643053
 20
-177.5822134316934
 30
0.0
 40
15.24
  1
29
 41
1.0625
  7
ＭＳ ゴシック
100
AcDbText
  0
TEXT
  5
564
330
1F
100
AcDbEntity
  8
0-F
  6
Continuous
 62
     2
370
     9
100
AcDbText
 10
401.586151123047
 20
-177.5822134316934
 30
0.0
 40
15.24
  1
28.2
 41
1.09375
  7
ＭＳ ゴシック
100
AcDbText
  0
TEXT
  5
565
330
1F
100
AcDbEntity
  8
0-F
  6
Continuous
 62
     2
370
     9
100
AcDbText
 10
588.2197091427364
 20
-83.02727776604726
 30
0.0
 40
15.24
  1
29
 50
90.0
 41
1.0625
  7
ＭＳ ゴシック
100
AcDbText
  0
TEXT
  5
566
330
1F
100
AcDbEntity
  8
0-F
  6
Continuous
 62
     2
370
     9
100
AcDbText
 10
616.7459328151393
 20
-64.6772580533414
 30
0.0
 40
15.24
  1
30.2
 50
90.0
 41
1.09375
  7
ＭＳ ゴシック
100
AcDbText
  0
TEXT
  5
567
330
1F
100
AcDbEntity
  8
0-F
  6
Continuous
 62
     2
370
     9
100
AcDbText
 10
614.3275797086147
 20
215.0726998818888
 30
0.0
 40
15.24
  1
30.2
 50
90.0
 41
1.09375
  7
ＭＳ ゴシック
100
AcDbText
  0
TEXT
  5
568
330
1F
100
AcDbEntity
  8
0-F
  6
Continuous
 62
     2
370
     9
100
AcDbText
 10
588.2197091427364
 20
255.9227195945947
 30
0.0
 40
15.24
  1
29
 50
90.0
 41
1.0625
  7
ＭＳ ゴシック
100
AcDbText
  0
TEXT
  5
569
330
1F
100
AcDbEntity
  8
0-F
  6
Continuous
 62
     2
370
     9
100
AcDbText
 10
588.2197091427364
 20
58.53569236961576
 30
0.0
 40
15.24
  1
250
 50
90.0
 41
1.083333333333333
  7
ＭＳ ゴシック
100
AcDbText
  0
TEXT
  5
56A
330
1F
100
AcDbEntity
  8
0-F
  6
Continuous
 62
     2
370
     9
100
AcDbText
 10
381.0199113835516
 20
82.01525713946374
 30
0.0
 40
15.24
  1
300
 50
90.0
 41
1.083333333333333
  7
ＭＳ ゴシック
100
AcDbText
  0
TEXT
  5
56B
330
1F
100
AcDbEntity
  8
0-F
  6
Continuous
 62
     2
370
     9
100
AcDbText
 10
331.0198701435813
 20
69.5727518442515
 30
0.0
 40
15.24
  1
310.4
 50
90.0
 41
1.1
  7
ＭＳ ゴシック
100
AcDbText
  0
LWPOLYLINE
  5
56C
330
1F
100
AcDbEntity
  8
0-F
  6
Continuous
 62
     7
370
     9
100
AcDbPolyline
 90
        4
 70
     1
 43
1.0
 10
-778.6776399354677
 20
22.87281758076446
 42
0.4142135623731
 10
-779.1776399354677
 20
23.37281758076446
 42
0.4142135623731
 10
-779.6776399354677
 20
22.87281758076446
 42
0.4142135623731
 10
-779.1776399354677
 20
22.37281758076446
 42
0.4142135623731
  0
LWPOLYLINE
  5
56D
330
1F
100
AcDbEntity
  8
0-F
  6
Continuous
 62
     7
370
     9
100
AcDbPolyline
 90
        4
 70
     1
 43
1.0
 10
386.8399196315455
 20
248.8477304819469
 42
0.4142135623731
 10
386.3399196315456
 20
249.3477304819469
 42
0.4142135623731
 10
385.8399196315456
 20
248.8477304819469
 42
0.4142135623731
 10
386.3399196315456
 20
248.3477304819469
 42
0.4142135623731
  0
LWPOLYLINE
  5
56E
330
1F
100
AcDbEntity
  8
0-F
  6
Continuous
 62
     7
370
     9
100
AcDbPolyline
 90
        4
 70
     1
 43
1.0
 10
386.8399196315455
 20
-54.70228865339948
 42
0.4142135623731
 10
386.3399196315456
 20
-54.20228865339948
 42
0.4142135623731
 10
385.8399196315456
 20
-54.70228865339948
 42
0.4142135623731
 10
386.3399196315456
 20
-55.20228865339948
 42
0.4142135623731
  0
LWPOLYLINE
  5
56F
330
1F
100
AcDbEntity
  8
0-F
  6
Continuous
 62
     7
370
     9
100
AcDbPolyline
 90
        4
 70
     1
 43
1.0
 10
490.0397701778927
 20
-182.9022216796875
 42
0.4142135623731
 10
489.5397701778927
 20
-182.4022216796875
 42
0.4142135623731
 10
489.0397701778927
 20
-182.9022216796875
 42
0.4142135623731
 10
489.5397701778927
 20
-183.4022216796875
 42
0.4142135623731
  0
LWPOLYLINE
  5
570
330
1F
100
AcDbEntity
  8
0-F
  6
Continuous
 62
     7
370
     9
100
AcDbPolyline
 90
        4
 70
     1
 43
1.0
 10
594.0397173907307
 20
-57.90224229967265
 42
0.4142135623731
 10
593.5397173907307
 20
-57.40224229967265
 42
0.4142135623731
 10
593.0397173907307
 20
-57.90224229967265
 42
0.4142135623731
 10
593.5397173907307
 20
-58.40224229967265
 42
0.4142135623731
  0
LWPOLYLINE
  5
571
330
1F
100
AcDbEntity
  8
0-F
  6
Continuous
 62
     7
370
     9
100
AcDbPolyline
 90
        4
 70
     1
 43
1.0
 10
594.0397173907307
 20
252.0476222682645
 42
0.4142135623731
 10
593.5397173907307
 20
252.5476222682645
 42
0.4142135623731
 10
593.0397173907307
 20
252.0476222682645
 42
0.4142135623731
 10
593.5397173907307
 20
251.5476222682645
 42
0.4142135623731
  0
TEXT
  5
572
330
1F
100
AcDbEntity
  8
F-Fﾚｲﾔ
  6
Continuous
 62
     2
370
     9
100
AcDbText
 10
-418.9637188689402
 20
-662.0323086615699
 30
0.0
 40
15.24
  1
　細目ノンスリップタイプ　（すきま８ｍｍ）側溝用
 41
0.8989583333333333
  7
ＭＳ ゴシック
100
AcDbText
  0
TEXT
  5
573
330
1F
100
AcDbEntity
  8
F-Fﾚｲﾔ
  6
Continuous
 62
     2
370
     9
100
AcDbText
 10
-205.5122330418046
 20
-686.5733023977125
 30
0.0
 40
15.24
  1
鋳鉄製みぞ蓋　ＧＸＭ－２－３００＋Ｌ－２５Ｇ
 41
0.8988636363636364
  7
ＭＳ ゴシック
100
AcDbText
  0
TEXT
  5
574
330
1F
100
AcDbEntity
  8
0-E
  6
Continuous
 62
     7
370
     9
100
AcDbText
 10
639.1924677668392
 20
160.1419231023016
 30
0.0
 40
11.43
  1
鎖：φ６×３００（両シャックル）
 41
1.062499999999999
  7
ＭＳ ゴシック
100
AcDbText
  0
TEXT
  5
575
330
1F
100
AcDbEntity
  8
0-E
  6
Continuous
 62
     7
370
     9
100
AcDbText
 10
636.4556318471059
 20
136.0748959130568
 30
0.0
 40
11.43
  1
ＳＷＲＭ，溶融亜鉛めっき
 41
1.152777777777778
  7
ＭＳ ゴシック
100
AcDbText
  0
LINE
  5
576
330
1F
100
AcDbEntity
  8
0-E
  6
Continuous
 62
     7
370
     9
100
AcDbLine
 10
631.4247337547511
 20
153.7966300345757
 30
0.0
 11
887.8739804508975
 21
153.7966300345757
 31
0.0
  0
TEXT
  5
577
330
1F
100
AcDbEntity
  8
0-E
  6
Continuous
 62
     7
370
     9
100
AcDbText
 10
633.21926632443
 20
5.457392380173181
 30
0.0
 40
11.43
  1
Ｓ２０Ｃ，溶融亜鉛めっき
 41
1.152777777777778
  7
ＭＳ ゴシック
100
AcDbText
  0
LINE
  5
578
330
1F
100
AcDbEntity
  8
0-E
  6
Continuous
 62
     7
370
     9
100
AcDbLine
 10
622.9051332216005
 20
23.17679740287161
 30
0.0
 11
838.913565196475
 21
23.17679740287161
 31
0.0
  0
ENDSEC
  0
SECTION
  2
OBJECTS
  0
DICTIONARY
  5
C
330
0
100
AcDbDictionary
281
     1
  3
ACAD_DETAILVIEWSTYLE
350
580
  3
ACAD_GROUP
350
D
  3
ACAD_LAYOUT
350
1A
  3
ACAD_MATERIAL
350
43
  3
ACAD_MLEADERSTYLE
350
6B
  3
ACAD_MLINESTYLE
350
17
  3
ACAD_PLOTSETTINGS
350
19
  3
ACAD_PLOTSTYLENAME
350
E
  3
ACAD_SCALELIST
350
47
  3
ACAD_SECTIONVIEWSTYLE
350
581
  3
ACAD_TABLESTYLE
350
69
  3
ACAD_VISUALSTYLE
350
2A
  3
ACDB_RECOMPOSE_DATA
350
57D
  3
AcDbVariableDictionary
350
579
  0
SUN
  5
6D
330
29
100
AcDbSun
 90
        1
290
     0
 63
     7
421
 16777215
 40
1.0
291
     1
 91
  2455826
 92
 54000000
292
     0
 70
     2
 71
   256
280
     1
  0
DICTIONARY
  5
580
102
{ACAD_REACTORS
330
C
102
}
330
C
100
AcDbDictionary
281
     1
  0
DICTIONARY
  5
D
102
{ACAD_REACTORS
330
C
102
}
330
C
100
AcDbDictionary
281
     1
  0
DICTIONARY
  5
1A
102
{ACAD_REACTORS
330
C
102
}
330
C
100
AcDbDictionary
281
     1
  3
Layout1
350
1E
  3
Layout2
350
26
  3
Model
350
22
  0
DICTIONARY
  5
43
102
{ACAD_REACTORS
330
C
102
}
330
C
100
AcDbDictionary
281
     1
  3
ByBlock
350
45
  3
ByLayer
350
44
  3
Global
350
46
  0
DICTIONARY
  5
6B
102
{ACAD_REACTORS
330
C
102
}
330
C
100
AcDbDictionary
281
     1
  3
Standard
350
6C
  0
DICTIONARY
  5
17
102
{ACAD_REACTORS
330
C
102
}
330
C
100
AcDbDictionary
281
     1
  3
Standard
350
18
  0
DICTIONARY
  5
19
102
{ACAD_REACTORS
330
C
102
}
330
C
100
AcDbDictionary
281
     1
  0
ACDBDICTIONARYWDFLT
  5
E
102
{ACAD_REACTORS
330
C
102
}
330
C
100
AcDbDictionary
281
     1
  3
Normal
350
F
100
AcDbDictionaryWithDefault
340
F
  0
DICTIONARY
  5
47
102
{ACAD_REACTORS
330
C
102
}
330
C
100
AcDbDictionary
281
     1
  3
A0
350
48
  3
A1
350
49
  3
A2
350
4A
  3
A3
350
4B
  3
A4
350
4C
  3
A5
350
4D
  3
A6
350
4E
  3
A7
350
4F
  3
A8
350
50
  3
A9
350
51
  3
B0
350
52
  3
B1
350
53
  3
B2
350
54
  3
B3
350
55
  3
B4
350
56
  3
B5
350
57
  3
B6
350
58
  3
B7
350
59
  3
B8
350
5A
  3
B9
350
5B
  3
C0
350
5C
  3
C1
350
5D
  3
C2
350
5E
  3
C3
350
5F
  3
C4
350
60
  3
C5
350
61
  3
C6
350
62
  3
C7
350
63
  3
C8
350
64
  3
C9
350
65
  3
D0
350
66
  3
D1
350
67
  3
D2
350
68
  0
DICTIONARY
  5
581
102
{ACAD_REACTORS
330
C
102
}
330
C
100
AcDbDictionary
281
     1
  0
DICTIONARY
  5
69
102
{ACAD_REACTORS
330
C
102
}
330
C
100
AcDbDictionary
281
     1
  3
Standard
350
6A
  0
DICTIONARY
  5
2A
102
{ACAD_REACTORS
330
C
102
}
330
C
100
AcDbDictionary
281
     1
  3
2dWireframe
350
2F
  3
Basic
350
32
  3
Brighten
350
36
  3
ColorChange
350
3A
  3
Conceptual
350
34
  3
Dim
350
35
  3
EdgeColorOff
350
3D
  3
Facepattern
350
39
  3
Flat
350
2B
  3
FlatWithEdges
350
2C
  3
Gouraud
350
2D
  3
GouraudWithEdges
350
2E
  3
Hidden
350
31
  3
JitterOff
350
3B
  3
Linepattern
350
38
  3
OverhangOff
350
3C
  3
Realistic
350
33
  3
Shaded
350
42
  3
Shaded with edges
350
41
  3
Shades of Gray
350
3E
  3
Sketchy
350
3F
  3
Thicken
350
37
  3
Wireframe
350
30
  3
X-Ray
350
40
  0
XRECORD
  5
57D
102
{ACAD_REACTORS
330
C
102
}
330
C
100
AcDbXrecord
280
     1
 90
        1
330
6A
  0
DICTIONARY
  5
579
102
{ACAD_REACTORS
330
C
102
}
330
C
100
AcDbDictionary
281
     1
  3
CANNOSCALE
350
57A
  3
CENTEREXE
350
582
  3
CENTERLTYPEFILE
350
583
  3
CMLEADERSTYLE
350
57F
  3
CTABLESTYLE
350
57E
  0
LAYOUT
  5
1E
102
{ACAD_REACTORS
330
1A
102
}
330
1A
100
AcDbPlotSettings
  1

  2
none_device
  4

  6

 40
0.0
 41
0.0
 42
0.0
 43
0.0
 44
0.0
 45
0.0
 46
0.0
 47
0.0
 48
0.0
 49
0.0
140
0.0
141
0.0
142
1.0
143
1.0
 70
   688
 72
     1
 73
     0
 74
     5
  7

 75
    16
 76
     0
 77
     5
 78
   300
147
1.0
148
0.0
149
0.0
100
AcDbLayout
  1
Layout1
 70
     1
 71
     1
 10
0.0
 20
0.0
 11
420.0
 21
297.0
 12
0.0
 22
0.0
 32
0.0
 14
1.000000000000000E+20
 24
1.000000000000000E+20
 34
1.000000000000000E+20
 15
-1.000000000000000E+20
 25
-1.000000000000000E+20
 35
-1.000000000000000E+20
146
0.0
 13
0.0
 23
0.0
 33
0.0
 16
1.0
 26
0.0
 36
0.0
 17
0.0
 27
1.0
 37
0.0
 76
     0
330
1B
  0
LAYOUT
  5
26
102
{ACAD_REACTORS
330
1A
102
}
330
1A
100
AcDbPlotSettings
  1

  2
none_device
  4

  6

 40
0.0
 41
0.0
 42
0.0
 43
0.0
 44
0.0
 45
0.0
 46
0.0
 47
0.0
 48
0.0
 49
0.0
140
0.0
141
0.0
142
1.0
143
1.0
 70
   688
 72
     1
 73
     0
 74
     5
  7

 75
    16
 76
     0
 77
     5
 78
   300
147
1.0
148
0.0
149
0.0
100
AcDbLayout
  1
Layout2
 70
     1
 71
     2
 10
0.0
 20
0.0
 11
0.0
 21
0.0
 12
0.0
 22
0.0
 32
0.0
 14
0.0
 24
0.0
 34
0.0
 15
0.0
 25
0.0
 35
0.0
146
0.0
 13
0.0
 23
0.0
 33
0.0
 16
1.0
 26
0.0
 36
0.0
 17
0.0
 27
1.0
 37
0.0
 76
     0
330
23
  0
LAYOUT
  5
22
102
{ACAD_REACTORS
330
1A
102
}
330
1A
100
AcDbPlotSettings
  1

  2
none_device
  4
Letter_(8.50_x_11.00_Inches)
  6

 40
6.35
 41
6.35
 42
6.35000508
 43
6.35000508
 44
215.9
 45
279.4
 46
0.0
 47
0.0
 48
0.0
 49
0.0
140
0.0
141
0.0
142
1.0
143
1.0
 70
  1712
 72
     1
 73
     0
 74
     0
  7

 75
     0
 76
     0
 77
     5
 78
   300
147
1.0
148
0.0
149
0.0
100
AcDbLayout
  1
Model
 70
     1
 71
     0
 10
-1050.0
 20
-742.5
 11
1050.0
 21
742.5
 12
0.0
 22
0.0
 32
0.0
 14
-1050.0
 24
-742.5
 34
0.0
 15
1050.0
 25
742.5
 35
0.0
146
0.0
 13
0.0
 23
0.0
 33
0.0
 16
1.0
 26
0.0
 36
0.0
 17
0.0
 27
1.0
 37
0.0
 76
     0
330
1F
331
29
  0
MATERIAL
  5
45
102
{ACAD_REACTORS
330
43
102
}
330
43
100
AcDbMaterial
  1
ByBlock
 72
     1
 94
      127
  0
MATERIAL
  5
44
102
{ACAD_REACTORS
330
43
102
}
330
43
100
AcDbMaterial
  1
ByLayer
 72
     1
 94
      127
  0
MATERIAL
  5
46
102
{ACAD_REACTORS
330
43
102
}
330
43
100
AcDbMaterial
  1
Global
 72
     1
 94
      127
  0
MLEADERSTYLE
  5
6C
102
{ACAD_REACTORS
330
6B
102
}
330
6B
100
AcDbMLeaderStyle
179
     2
170
     2
171
     1
172
     0
 90
        2
 40
0.0
 41
0.0
173
     1
 91
-1056964608
340
14
 92
       -2
290
     1
 42
2.0
291
     1
 43
8.0
  3
Standard
341
0
 44
4.0
300

342
11
174
     1
178
     6
175
     1
176
     0
 93
-1056964608
 45
4.0
292
     0
297
     0
 46
4.0
343
0
 94
-1056964608
 47
1.0
 49
1.0
140
1.0
293
     1
141
0.0
294
     1
177
     0
142
1.0
295
     0
296
     0
143
3.75
271
     0
272
     9
273
     9
298
     0
  0
MLINESTYLE
  5
18
102
{ACAD_REACTORS
330
17
102
}
330
17
100
AcDbMlineStyle
  2
Standard
 70
     0
  3

 62
   256
 51
90.0
 52
90.0
 71
     2
 49
0.5
 62
   256
  6
BYLAYER
 49
-0.5
 62
   256
  6
BYLAYER
  0
ACDBPLACEHOLDER
  5
F
102
{ACAD_REACTORS
330
E
102
}
330
E
  0
SCALE
  5
48
102
{ACAD_REACTORS
330
47
102
}
330
47
100
AcDbScale
 70
     0
300
1:1
140
1.0
141
1.0
290
     1
  0
SCALE
  5
49
102
{ACAD_REACTORS
330
47
102
}
330
47
100
AcDbScale
 70
     0
300
1:2
140
1.0
141
2.0
290
     0
  0
SCALE
  5
4A
102
{ACAD_REACTORS
330
47
102
}
330
47
100
AcDbScale
 70
     0
300
1:4
140
1.0
141
4.0
290
     0
  0
SCALE
  5
4B
102
{ACAD_REACTORS
330
47
102
}
330
47
100
AcDbScale
 70
     0
300
1:5
140
1.0
141
5.0
290
     0
  0
SCALE
  5
4C
102
{ACAD_REACTORS
330
47
102
}
330
47
100
AcDbScale
 70
     0
300
1:8
140
1.0
141
8.0
290
     0
  0
SCALE
  5
4D
102
{ACAD_REACTORS
330
47
102
}
330
47
100
AcDbScale
 70
     0
300
1:10
140
1.0
141
10.0
290
     0
  0
SCALE
  5
4E
102
{ACAD_REACTORS
330
47
102
}
330
47
100
AcDbScale
 70
     0
300
1:16
140
1.0
141
16.0
290
     0
  0
SCALE
  5
4F
102
{ACAD_REACTORS
330
47
102
}
330
47
100
AcDbScale
 70
     0
300
1:20
140
1.0
141
20.0
290
     0
  0
SCALE
  5
50
102
{ACAD_REACTORS
330
47
102
}
330
47
100
AcDbScale
 70
     0
300
1:30
140
1.0
141
30.0
290
     0
  0
SCALE
  5
51
102
{ACAD_REACTORS
330
47
102
}
330
47
100
AcDbScale
 70
     0
300
1:40
140
1.0
141
40.0
290
     0
  0
SCALE
  5
52
102
{ACAD_REACTORS
330
47
102
}
330
47
100
AcDbScale
 70
     0
300
1:50
140
1.0
141
50.0
290
     0
  0
SCALE
  5
53
102
{ACAD_REACTORS
330
47
102
}
330
47
100
AcDbScale
 70
     0
300
1:100
140
1.0
141
100.0
290
     0
  0
SCALE
  5
54
102
{ACAD_REACTORS
330
47
102
}
330
47
100
AcDbScale
 70
     0
300
2:1
140
2.0
141
1.0
290
     0
  0
SCALE
  5
55
102
{ACAD_REACTORS
330
47
102
}
330
47
100
AcDbScale
 70
     0
300
4:1
140
4.0
141
1.0
290
     0
  0
SCALE
  5
56
102
{ACAD_REACTORS
330
47
102
}
330
47
100
AcDbScale
 70
     0
300
8:1
140
8.0
141
1.0
290
     0
  0
SCALE
  5
57
102
{ACAD_REACTORS
330
47
102
}
330
47
100
AcDbScale
 70
     0
300
10:1
140
10.0
141
1.0
290
     0
  0
SCALE
  5
58
102
{ACAD_REACTORS
330
47
102
}
330
47
100
AcDbScale
 70
     0
300
100:1
140
100.0
141
1.0
290
     0
  0
SCALE
  5
59
102
{ACAD_REACTORS
330
47
102
}
330
47
100
AcDbScale
 70
     0
300
1/128" = 1'-0"
140
0.0078125
141
12.0
290
     0
  0
SCALE
  5
5A
102
{ACAD_REACTORS
330
47
102
}
330
47
100
AcDbScale
 70
     0
300
1/64" = 1'-0"
140
0.015625
141
12.0
290
     0
  0
SCALE
  5
5B
102
{ACAD_REACTORS
330
47
102
}
330
47
100
AcDbScale
 70
     0
300
1/32" = 1'-0"
140
0.03125
141
12.0
290
     0
  0
SCALE
  5
5C
102
{ACAD_REACTORS
330
47
102
}
330
47
100
AcDbScale
 70
     0
300
1/16" = 1'-0"
140
0.0625
141
12.0
290
     0
  0
SCALE
  5
5D
102
{ACAD_REACTORS
330
47
102
}
330
47
100
AcDbScale
 70
     0
300
3/32" = 1'-0"
140
0.09375
141
12.0
290
     0
  0
SCALE
  5
5E
102
{ACAD_REACTORS
330
47
102
}
330
47
100
AcDbScale
 70
     0
300
1/8" = 1'-0"
140
0.125
141
12.0
290
     0
  0
SCALE
  5
5F
102
{ACAD_REACTORS
330
47
102
}
330
47
100
AcDbScale
 70
     0
300
3/16" = 1'-0"
140
0.1875
141
12.0
290
     0
  0
SCALE
  5
60
102
{ACAD_REACTORS
330
47
102
}
330
47
100
AcDbScale
 70
     0
300
1/4" = 1'-0"
140
0.25
141
12.0
290
     0
  0
SCALE
  5
61
102
{ACAD_REACTORS
330
47
102
}
330
47
100
AcDbScale
 70
     0
300
3/8" = 1'-0"
140
0.375
141
12.0
290
     0
  0
SCALE
  5
62
102
{ACAD_REACTORS
330
47
102
}
330
47
100
AcDbScale
 70
     0
300
1/2" = 1'-0"
140
0.5
141
12.0
290
     0
  0
SCALE
  5
63
102
{ACAD_REACTORS
330
47
102
}
330
47
100
AcDbScale
 70
     0
300
3/4" = 1'-0"
140
0.75
141
12.0
290
     0
  0
SCALE
  5
64
102
{ACAD_REACTORS
330
47
102
}
330
47
100
AcDbScale
 70
     0
300
1" = 1'-0"
140
1.0
141
12.0
290
     0
  0
SCALE
  5
65
102
{ACAD_REACTORS
330
47
102
}
330
47
100
AcDbScale
 70
     0
300
1-1/2" = 1'-0"
140
1.5
141
12.0
290
     0
  0
SCALE
  5
66
102
{ACAD_REACTORS
330
47
102
}
330
47
100
AcDbScale
 70
     0
300
3" = 1'-0"
140
3.0
141
12.0
290
     0
  0
SCALE
  5
67
102
{ACAD_REACTORS
330
47
102
}
330
47
100
AcDbScale
 70
     0
300
6" = 1'-0"
140
6.0
141
12.0
290
     0
  0
SCALE
  5
68
102
{ACAD_REACTORS
330
47
102
}
330
47
100
AcDbScale
 70
     0
300
1'-0" = 1'-0"
140
12.0
141
12.0
290
     0
  0
TABLESTYLE
  5
6A
102
{ACAD_REACTORS
330
69
102
}
102
{ACAD_XDICTIONARY
360
57B
102
}
330
69
100
AcDbTableStyle
  3
Standard
 70
     0
 71
     0
 40
0.06
 41
0.06
280
     0
281
     0
  7
Standard
140
4.5
170
     2
 62
     0
 63
   257
283
     0
 90
        4
 91
        0
  1

274
    -2
284
     1
 64
     0
275
    -2
285
     1
 65
     0
276
    -2
286
     1
 66
     0
277
    -2
287
     1
 67
     0
278
    -2
288
     1
 68
     0
279
    -2
289
     1
 69
     0
  7
Standard
140
6.0
170
     5
 62
     0
 63
   257
283
     0
 90
        4
 91
        0
  1

274
    -2
284
     1
 64
     0
275
    -2
285
     1
 65
     0
276
    -2
286
     1
 66
     0
277
    -2
287
     1
 67
     0
278
    -2
288
     1
 68
     0
279
    -2
289
     1
 69
     0
  7
Standard
140
4.5
170
     5
 62
     0
 63
   257
283
     0
 90
        4
 91
        0
  1

274
    -2
284
     1
 64
     0
275
    -2
285
     1
 65
     0
276
    -2
286
     1
 66
     0
277
    -2
287
     1
 67
     0
278
    -2
288
     1
 68
     0
279
    -2
289
     1
 69
     0
  0
VISUALSTYLE
  5
2F
102
{ACAD_REACTORS
330
2A
102
}
330
2A
100
AcDbVisualStyle
  2
2dWireframe
 70
     4
177
     3
291
     0
 70
    58
 90
        0
176
     1
 90
        2
176
     1
 90
        0
176
     1
 90
        0
176
     1
 40
0.6
176
     1
 40
30.0
176
     1
 62
     7
420
 16777215
176
     1
 90
        1
176
     1
 90
        4
176
     1
 62
     7
176
     1
 62
   257
176
     1
 90
        1
176
     1
 90
        1
176
     1
 40
1.0
176
     1
 90
        0
176
     1
 62
   257
176
     1
 40
1.0
176
     1
 90
        1
176
     1
 90
        6
176
     1
 90
        2
176
     1
 62
     7
176
     1
 90
        5
176
     1
 90
        0
176
     1
 90
        0
176
     1
290
     0
176
     1
 90
        1
176
     1
 40
0.0
176
     1
 90
        0
176
     1
290
     1
176
     1
290
     1
176
     1
290
     0
176
     1
290
     0
176
     1
290
     0
176
     1
290
     0
176
     1
290
     0
176
     1
290
     0
176
     1
290
     0
176
     1
 90
       50
176
     1
 40
0.0
176
     1
 40
1.0
176
     1
 90
        0
176
     1
 62
    18
420
        0
176
     1
 90
       50
176
     1
 90
        3
176
     1
 62
     5
420
      255
176
     1
290
     0
176
     1
 90
       50
176
     1
 90
       50
176
     1
 90
       50
176
     1
290
     0
176
     1
 90
       50
176
     1
 62
   256
176
     0
 40
1.0
176
     0
 90
        2
176
     1
  1
strokes_ogs.tif
176
     1
290
     0
176
     1
 40
1.0
176
     1
 40
1.0
176
     1
  0
VISUALSTYLE
  5
32
102
{ACAD_REACTORS
330
2A
102
}
330
2A
100
AcDbVisualStyle
  2
Basic
 70
     7
177
     3
291
     1
 70
    58
 90
        1
176
     1
 90
        0
176
     1
 90
        1
176
     1
 90
        0
176
     1
 40
0.6
176
     1
 40
30.0
176
     1
 62
     7
420
 16777215
176
     1
 90
        0
176
     1
 90
        4
176
     1
 62
     7
176
     1
 62
   257
176
     1
 90
        1
176
     1
 90
        1
176
     1
 40
1.0
176
     1
 90
        8
176
     1
 62
     7
176
     1
 40
1.0
176
     1
 90
        1
176
     1
 90
        6
176
     1
 90
        2
176
     1
 62
     7
176
     1
 90
        5
176
     1
 90
        0
176
     1
 90
        0
176
     1
290
     0
176
     1
 90
        1
176
     1
 40
0.0
176
     1
 90
        0
176
     1
290
     0
176
     1
290
     1
176
     1
290
     1
176
     1
290
     0
176
     1
290
     0
176
     1
290
     0
176
     1
290
     0
176
     1
290
     0
176
     1
290
     0
176
     1
 90
       50
176
     1
 40
0.0
176
     1
 40
1.0
176
     1
 90
        0
176
     1
 62
    18
420
        0
176
     1
 90
       50
176
     1
 90
        3
176
     1
 62
     5
420
      255
176
     1
290
     0
176
     1
 90
       50
176
     1
 90
       50
176
     1
 90
       50
176
     1
290
     0
176
     1
 90
       50
176
     1
 62
   256
176
     0
 40
1.0
176
     0
 90
        2
176
     1
  1
strokes_ogs.tif
176
     1
290
     0
176
     1
 40
1.0
176
     1
 40
1.0
176
     1
  0
VISUALSTYLE
  5
36
102
{ACAD_REACTORS
330
2A
102
}
330
2A
100
AcDbVisualStyle
  2
Brighten
 70
    12
177
     3
291
     1
 70
    58
 90
        2
176
     1
 90
        2
176
     1
 90
        0
176
     1
 90
        0
176
     1
 40
0.6
176
     1
 40
30.0
176
     1
 62
     7
420
 16777215
176
     1
 90
        1
176
     1
 90
        4
176
     1
 62
     7
176
     1
 62
   257
176
     1
 90
        1
176
     1
 90
        1
176
     1
 40
1.0
176
     1
 90
        8
176
     1
 62
     7
176
     1
 40
1.0
176
     1
 90
        1
176
     1
 90
        6
176
     1
 90
        2
176
     1
 62
     7
176
     1
 90
        5
176
     1
 90
        0
176
     1
 90
        0
176
     1
290
     0
176
     1
 90
        1
176
     1
 40
50.0
176
     1
 90
        0
176
     1
290
     0
176
     1
290
     1
176
     1
290
     1
176
     1
290
     0
176
     1
290
     0
176
     1
290
     0
176
     1
290
     0
176
     1
290
     0
176
     1
290
     0
176
     1
 90
       50
176
     1
 40
0.0
176
     1
 40
1.0
176
     1
 90
        0
176
     1
 62
    18
420
        0
176
     1
 90
       50
176
     1
 90
        3
176
     1
 62
     5
420
      255
176
     1
290
     0
176
     1
 90
       50
176
     1
 90
       50
176
     1
 90
       50
176
     1
290
     0
176
     1
 90
       50
176
     1
 62
   256
176
     0
 40
1.0
176
     0
 90
        2
176
     1
  1
strokes_ogs.tif
176
     1
290
     0
176
     1
 40
1.0
176
     1
 40
1.0
176
     1
  0
VISUALSTYLE
  5
3A
102
{ACAD_REACTORS
330
2A
102
}
330
2A
100
AcDbVisualStyle
  2
ColorChange
 70
    16
177
     3
291
     1
 70
    58
 90
        2
176
     1
 90
        2
176
     1
 90
        3
176
     1
 90
        0
176
     1
 40
0.6
176
     1
 40
30.0
176
     1
 62
     8
420
  8421504
176
     1
 90
        1
176
     1
 90
        4
176
     1
 62
     7
176
     1
 62
   257
176
     1
 90
        1
176
     1
 90
        1
176
     1
 40
1.0
176
     1
 90
        8
176
     1
 62
     8
420
  8421504
176
     1
 40
1.0
176
     1
 90
        1
176
     1
 90
        6
176
     1
 90
        2
176
     1
 62
     7
176
     1
 90
        5
176
     1
 90
        0
176
     1
 90
        0
176
     1
290
     0
176
     1
 90
        1
176
     1
 40
0.0
176
     1
 90
        0
176
     1
290
     0
176
     1
290
     1
176
     1
290
     1
176
     1
290
     0
176
     1
290
     0
176
     1
290
     0
176
     1
290
     0
176
     1
290
     0
176
     1
290
     0
176
     1
 90
       50
176
     1
 40
0.0
176
     1
 40
1.0
176
     1
 90
        0
176
     1
 62
    18
420
        0
176
     1
 90
       50
176
     1
 90
        3
176
     1
 62
     5
420
      255
176
     1
290
     0
176
     1
 90
       50
176
     1
 90
       50
176
     1
 90
       50
176
     1
290
     0
176
     1
 90
       50
176
     1
 62
   256
176
     0
 40
1.0
176
     0
 90
        2
176
     1
  1
strokes_ogs.tif
176
     1
290
     0
176
     1
 40
1.0
176
     1
 40
1.0
176
     1
  0
VISUALSTYLE
  5
34
102
{ACAD_REACTORS
330
2A
102
}
330
2A
100
AcDbVisualStyle
  2
Conceptual
 70
     9
177
     3
291
     0
 70
    58
 90
        3
176
     1
 90
        2
176
     1
 90
        0
176
     1
 90
        0
176
     1
 40
0.6
176
     1
 40
30.0
176
     1
 62
     7
420
 16777215
176
     1
 90
        2
176
     1
 90
        2
176
     1
 62
     7
176
     1
 62
   257
176
     1
 90
        1
176
     1
 90
        1
176
     1
 40
179.0
176
     1
 90
        8
176
     1
 62
     7
176
     1
 40
1.0
176
     1
 90
        1
176
     1
 90
        6
176
     1
 90
        2
176
     1
 62
     7
176
     1
 90
        3
176
     1
 90
        0
176
     1
 90
        0
176
     1
290
     0
176
     1
 90
        1
176
     1
 40
0.0
176
     1
 90
        0
176
     1
290
     0
176
     1
290
     1
176
     1
290
     1
176
     1
290
     0
176
     1
290
     0
176
     1
290
     0
176
     1
290
     0
176
     1
290
     0
176
     1
290
     0
176
     1
 90
       50
176
     1
 40
0.0
176
     1
 40
1.0
176
     1
 90
        0
176
     1
 62
    18
420
        0
176
     1
 90
       50
176
     1
 90
        3
176
     1
 62
     5
420
      255
176
     1
290
     0
176
     1
 90
       50
176
     1
 90
       50
176
     1
 90
       50
176
     1
290
     0
176
     1
 90
       50
176
     1
 62
   256
176
     0
 40
1.0
176
     0
 90
        2
176
     1
  1
strokes_ogs.tif
176
     1
290
     0
176
     1
 40
1.0
176
     1
 40
1.0
176
     1
  0
VISUALSTYLE
  5
35
102
{ACAD_REACTORS
330
2A
102
}
330
2A
100
AcDbVisualStyle
  2
Dim
 70
    11
177
     3
291
     1
 70
    58
 90
        2
176
     1
 90
        2
176
     1
 90
        0
176
     1
 90
        0
176
     1
 40
0.6
176
     1
 40
30.0
176
     1
 62
     7
420
 16777215
176
     1
 90
        1
176
     1
 90
        4
176
     1
 62
     7
176
     1
 62
   257
176
     1
 90
        1
176
     1
 90
        1
176
     1
 40
1.0
176
     1
 90
        8
176
     1
 62
     7
176
     1
 40
1.0
176
     1
 90
        1
176
     1
 90
        6
176
     1
 90
        2
176
     1
 62
     7
176
     1
 90
        5
176
     1
 90
        0
176
     1
 90
        0
176
     1
290
     0
176
     1
 90
        1
176
     1
 40
-50.0
176
     1
 90
        0
176
     1
290
     0
176
     1
290
     1
176
     1
290
     1
176
     1
290
     0
176
     1
290
     0
176
     1
290
     0
176
     1
290
     0
176
     1
290
     0
176
     1
290
     0
176
     1
 90
       50
176
     1
 40
0.0
176
     1
 40
1.0
176
     1
 90
        0
176
     1
 62
    18
420
        0
176
     1
 90
       50
176
     1
 90
        3
176
     1
 62
     5
420
      255
176
     1
290
     0
176
     1
 90
       50
176
     1
 90
       50
176
     1
 90
       50
176
     1
290
     0
176
     1
 90
       50
176
     1
 62
   256
176
     0
 40
1.0
176
     0
 90
        2
176
     1
  1
strokes_ogs.tif
176
     1
290
     0
176
     1
 40
1.0
176
     1
 40
1.0
176
     1
  0
VISUALSTYLE
  5
3D
102
{ACAD_REACTORS
330
2A
102
}
330
2A
100
AcDbVisualStyle
  2
EdgeColorOff
 70
    22
177
     3
291
     1
 70
    58
 90
        2
176
     0
 90
        2
176
     0
 90
        0
176
     0
 90
        0
176
     0
 40
0.6
176
     0
 40
30.0
176
     0
 62
     7
420
 16777215
176
     0
 90
        1
176
     0
 90
        4
176
     0
 62
     7
176
     0
 62
   257
176
     0
 90
        1
176
     0
 90
        1
176
     0
 40
1.0
176
     0
 90
        8
176
     2
 62
     7
176
     0
 40
1.0
176
     0
 90
        1
176
     0
 90
        6
176
     0
 90
        2
176
     0
 62
     7
176
     0
 90
        5
176
     0
 90
        0
176
     0
 90
        0
176
     0
290
     0
176
     0
 90
        1
176
     0
 40
0.0
176
     0
 90
        0
176
     0
290
     0
176
     0
290
     1
176
     0
290
     1
176
     0
290
     0
176
     0
290
     0
176
     0
290
     0
176
     0
290
     0
176
     0
290
     0
176
     0
290
     0
176
     0
 90
       50
176
     0
 40
0.0
176
     0
 40
1.0
176
     0
 90
        0
176
     0
 62
    18
420
        0
176
     0
 90
       50
176
     0
 90
        3
176
     0
 62
     5
420
      255
176
     0
290
     0
176
     0
 90
       50
176
     0
 90
       50
176
     0
 90
       50
176
     0
290
     0
176
     0
 90
       50
176
     0
 62
   256
176
     0
 40
1.0
176
     0
 90
        2
176
     0
  1
strokes_ogs.tif
176
     0
290
     0
176
     0
 40
1.0
176
     0
 40
1.0
176
     0
  0
VISUALSTYLE
  5
39
102
{ACAD_REACTORS
330
2A
102
}
330
2A
100
AcDbVisualStyle
  2
Facepattern
 70
    15
177
     3
291
     1
 70
    58
 90
        2
176
     1
 90
        2
176
     1
 90
        0
176
     1
 90
        0
176
     1
 40
0.6
176
     1
 40
30.0
176
     1
 62
     7
420
 16777215
176
     1
 90
        1
176
     1
 90
        4
176
     1
 62
     7
176
     1
 62
   257
176
     1
 90
        1
176
     1
 90
        1
176
     1
 40
1.0
176
     1
 90
        8
176
     1
 62
     7
176
     1
 40
1.0
176
     1
 90
        1
176
     1
 90
        6
176
     1
 90
        2
176
     1
 62
     7
176
     1
 90
        5
176
     1
 90
        0
176
     1
 90
        0
176
     1
290
     0
176
     1
 90
        1
176
     1
 40
0.0
176
     1
 90
        0
176
     1
290
     0
176
     1
290
     1
176
     1
290
     1
176
     1
290
     0
176
     1
290
     0
176
     1
290
     0
176
     1
290
     0
176
     1
290
     0
176
     1
290
     0
176
     1
 90
       50
176
     1
 40
0.0
176
     1
 40
1.0
176
     1
 90
        0
176
     1
 62
    18
420
        0
176
     1
 90
       50
176
     1
 90
        3
176
     1
 62
     5
420
      255
176
     1
290
     0
176
     1
 90
       50
176
     1
 90
       50
176
     1
 90
       50
176
     1
290
     0
176
     1
 90
       50
176
     1
 62
   256
176
     0
 40
1.0
176
     0
 90
        2
176
     1
  1
strokes_ogs.tif
176
     1
290
     0
176
     1
 40
1.0
176
     1
 40
1.0
176
     1
  0
VISUALSTYLE
  5
2B
102
{ACAD_REACTORS
330
2A
102
}
330
2A
100
AcDbVisualStyle
  2
Flat
 70
     0
177
     3
291
     1
 70
    58
 90
        2
176
     1
 90
        1
176
     1
 90
        1
176
     1
 90
        2
176
     1
 40
0.6
176
     1
 40
30.0
176
     1
 62
     7
420
 16777215
176
     1
 90
        0
176
     1
 90
        0
176
     1
 62
     7
176
     1
 62
   257
176
     1
 90
        1
176
     1
 90
        1
176
     1
 40
1.0
176
     1
 90
        8
176
     1
 62
     7
176
     1
 40
1.0
176
     1
 90
        1
176
     1
 90
        6
176
     1
 90
        2
176
     1
 62
     7
176
     1
 90
        5
176
     1
 90
        0
176
     1
 90
        0
176
     1
290
     0
176
     1
 90
       13
176
     1
 40
0.0
176
     1
 90
        0
176
     1
290
     0
176
     1
290
     1
176
     1
290
     1
176
     1
290
     0
176
     1
290
     0
176
     1
290
     0
176
     1
290
     0
176
     1
290
     0
176
     1
290
     0
176
     1
 90
       50
176
     1
 40
0.0
176
     1
 40
1.0
176
     1
 90
        0
176
     1
 62
    18
420
        0
176
     1
 90
       50
176
     1
 90
        3
176
     1
 62
     5
420
      255
176
     1
290
     0
176
     1
 90
       50
176
     1
 90
       50
176
     1
 90
       50
176
     1
290
     0
176
     1
 90
       50
176
     1
 62
   256
176
     0
 40
1.0
176
     0
 90
        2
176
     1
  1
strokes_ogs.tif
176
     1
290
     0
176
     1
 40
1.0
176
     1
 40
1.0
176
     1
  0
VISUALSTYLE
  5
2C
102
{ACAD_REACTORS
330
2A
102
}
330
2A
100
AcDbVisualStyle
  2
FlatWithEdges
 70
     1
177
     3
291
     1
 70
    58
 90
        2
176
     1
 90
        1
176
     1
 90
        1
176
     1
 90
        2
176
     1
 40
0.6
176
     1
 40
30.0
176
     1
 62
     7
420
 16777215
176
     1
 90
        1
176
     1
 90
        0
176
     1
 62
     7
176
     1
 62
   257
176
     1
 90
        1
176
     1
 90
        1
176
     1
 40
1.0
176
     1
 90
        0
176
     1
 62
   257
176
     1
 40
1.0
176
     1
 90
        1
176
     1
 90
        6
176
     1
 90
        2
176
     1
 62
     7
176
     1
 90
        5
176
     1
 90
        0
176
     1
 90
        0
176
     1
290
     0
176
     1
 90
       13
176
     1
 40
0.0
176
     1
 90
        0
176
     1
290
     0
176
     1
290
     1
176
     1
290
     1
176
     1
290
     0
176
     1
290
     0
176
     1
290
     0
176
     1
290
     0
176
     1
290
     0
176
     1
290
     0
176
     1
 90
       50
176
     1
 40
0.0
176
     1
 40
1.0
176
     1
 90
        0
176
     1
 62
    18
420
        0
176
     1
 90
       50
176
     1
 90
        3
176
     1
 62
     5
420
      255
176
     1
290
     0
176
     1
 90
       50
176
     1
 90
       50
176
     1
 90
       50
176
     1
290
     0
176
     1
 90
       50
176
     1
 62
   256
176
     0
 40
1.0
176
     0
 90
        2
176
     1
  1
strokes_ogs.tif
176
     1
290
     0
176
     1
 40
1.0
176
     1
 40
1.0
176
     1
  0
VISUALSTYLE
  5
2D
102
{ACAD_REACTORS
330
2A
102
}
330
2A
100
AcDbVisualStyle
  2
Gouraud
 70
     2
177
     3
291
     1
 70
    58
 90
        2
176
     1
 90
        2
176
     1
 90
        1
176
     1
 90
        2
176
     1
 40
0.6
176
     1
 40
30.0
176
     1
 62
     7
420
 16777215
176
     1
 90
        0
176
     1
 90
        0
176
     1
 62
     7
176
     1
 62
   257
176
     1
 90
        1
176
     1
 90
        1
176
     1
 40
1.0
176
     1
 90
        0
176
     1
 62
     7
176
     1
 40
1.0
176
     1
 90
        1
176
     1
 90
        6
176
     1
 90
        2
176
     1
 62
     7
176
     1
 90
        5
176
     1
 90
        0
176
     1
 90
        0
176
     1
290
     0
176
     1
 90
       13
176
     1
 40
0.0
176
     1
 90
        0
176
     1
290
     0
176
     1
290
     1
176
     1
290
     1
176
     1
290
     0
176
     1
290
     0
176
     1
290
     0
176
     1
290
     0
176
     1
290
     0
176
     1
290
     0
176
     1
 90
       50
176
     1
 40
0.0
176
     1
 40
1.0
176
     1
 90
        0
176
     1
 62
    18
420
        0
176
     1
 90
       50
176
     1
 90
        3
176
     1
 62
     5
420
      255
176
     1
290
     0
176
     1
 90
       50
176
     1
 90
       50
176
     1
 90
       50
176
     1
290
     0
176
     1
 90
       50
176
     1
 62
   256
176
     0
 40
1.0
176
     0
 90
        2
176
     1
  1
strokes_ogs.tif
176
     1
290
     0
176
     1
 40
1.0
176
     1
 40
1.0
176
     1
  0
VISUALSTYLE
  5
2E
102
{ACAD_REACTORS
330
2A
102
}
330
2A
100
AcDbVisualStyle
  2
GouraudWithEdges
 70
     3
177
     3
291
     1
 70
    58
 90
        2
176
     1
 90
        2
176
     1
 90
        1
176
     1
 90
        2
176
     1
 40
0.6
176
     1
 40
30.0
176
     1
 62
     7
420
 16777215
176
     1
 90
        1
176
     1
 90
        0
176
     1
 62
     7
176
     1
 62
   257
176
     1
 90
        1
176
     1
 90
        1
176
     1
 40
1.0
176
     1
 90
        0
176
     1
 62
   257
176
     1
 40
1.0
176
     1
 90
        1
176
     1
 90
        6
176
     1
 90
        2
176
     1
 62
     7
176
     1
 90
        5
176
     1
 90
        0
176
     1
 90
        0
176
     1
290
     0
176
     1
 90
       13
176
     1
 40
0.0
176
     1
 90
        0
176
     1
290
     0
176
     1
290
     1
176
     1
290
     1
176
     1
290
     0
176
     1
290
     0
176
     1
290
     0
176
     1
290
     0
176
     1
290
     0
176
     1
290
     0
176
     1
 90
       50
176
     1
 40
0.0
176
     1
 40
1.0
176
     1
 90
        0
176
     1
 62
    18
420
        0
176
     1
 90
       50
176
     1
 90
        3
176
     1
 62
     5
420
      255
176
     1
290
     0
176
     1
 90
       50
176
     1
 90
       50
176
     1
 90
       50
176
     1
290
     0
176
     1
 90
       50
176
     1
 62
   256
176
     0
 40
1.0
176
     0
 90
        2
176
     1
  1
strokes_ogs.tif
176
     1
290
     0
176
     1
 40
1.0
176
     1
 40
1.0
176
     1
  0
VISUALSTYLE
  5
31
102
{ACAD_REACTORS
330
2A
102
}
330
2A
100
AcDbVisualStyle
  2
Hidden
 70
     6
177
     3
291
     0
 70
    58
 90
        1
176
     1
 90
        2
176
     1
 90
        2
176
     1
 90
        0
176
     1
 40
0.6
176
     1
 40
30.0
176
     1
 62
     7
420
 16777215
176
     1
 90
        2
176
     1
 90
        2
176
     1
 62
     7
176
     1
 62
   257
176
     1
 90
        2
176
     1
 90
        1
176
     1
 40
40.0
176
     1
 90
        0
176
     1
 62
   257
176
     1
 40
1.0
176
     1
 90
        1
176
     1
 90
        6
176
     1
 90
        2
176
     1
 62
     7
176
     1
 90
        3
176
     1
 90
        0
176
     1
 90
        0
176
     1
290
     0
176
     1
 90
        1
176
     1
 40
0.0
176
     1
 90
        0
176
     1
290
     0
176
     1
290
     1
176
     1
290
     1
176
     1
290
     0
176
     1
290
     0
176
     1
290
     0
176
     1
290
     0
176
     1
290
     0
176
     1
290
     0
176
     1
 90
       50
176
     1
 40
0.0
176
     1
 40
1.0
176
     1
 90
        0
176
     1
 62
    18
420
        0
176
     1
 90
       50
176
     1
 90
        3
176
     1
 62
     5
420
      255
176
     1
290
     0
176
     1
 90
       50
176
     1
 90
       50
176
     1
 90
       50
176
     1
290
     0
176
     1
 90
       50
176
     1
 62
   256
176
     0
 40
1.0
176
     0
 90
        2
176
     1
  1
strokes_ogs.tif
176
     1
290
     0
176
     1
 40
1.0
176
     1
 40
1.0
176
     1
  0
VISUALSTYLE
  5
3B
102
{ACAD_REACTORS
330
2A
102
}
330
2A
100
AcDbVisualStyle
  2
JitterOff
 70
    20
177
     3
291
     1
 70
    58
 90
        2
176
     0
 90
        2
176
     0
 90
        0
176
     0
 90
        0
176
     0
 40
0.6
176
     0
 40
30.0
176
     0
 62
     7
420
 16777215
176
     0
 90
        1
176
     0
 90
        4
176
     0
 62
     7
176
     0
 62
   257
176
     0
 90
        1
176
     0
 90
        1
176
     0
 40
1.0
176
     0
 90
       10
176
     2
 62
     7
176
     0
 40
1.0
176
     0
 90
        1
176
     0
 90
        6
176
     0
 90
        2
176
     0
 62
     7
176
     0
 90
        5
176
     0
 90
        0
176
     0
 90
        0
176
     0
290
     0
176
     0
 90
        1
176
     0
 40
0.0
176
     0
 90
        0
176
     0
290
     0
176
     0
290
     1
176
     0
290
     1
176
     0
290
     0
176
     0
290
     0
176
     0
290
     0
176
     0
290
     0
176
     0
290
     0
176
     0
290
     0
176
     0
 90
       50
176
     0
 40
0.0
176
     0
 40
1.0
176
     0
 90
        0
176
     0
 62
    18
420
        0
176
     0
 90
       50
176
     0
 90
        3
176
     0
 62
     5
420
      255
176
     0
290
     0
176
     0
 90
       50
176
     0
 90
       50
176
     0
 90
       50
176
     0
290
     0
176
     0
 90
       50
176
     0
 62
   256
176
     0
 40
1.0
176
     0
 90
        2
176
     0
  1
strokes_ogs.tif
176
     0
290
     0
176
     0
 40
1.0
176
     0
 40
1.0
176
     0
  0
VISUALSTYLE
  5
38
102
{ACAD_REACTORS
330
2A
102
}
330
2A
100
AcDbVisualStyle
  2
Linepattern
 70
    14
177
     3
291
     1
 70
    58
 90
        2
176
     1
 90
        2
176
     1
 90
        0
176
     1
 90
        0
176
     1
 40
0.6
176
     1
 40
30.0
176
     1
 62
     7
420
 16777215
176
     1
 90
        1
176
     1
 90
        4
176
     1
 62
     7
176
     1
 62
   257
176
     1
 90
        7
176
     1
 90
        7
176
     1
 40
1.0
176
     1
 90
        8
176
     1
 62
     7
176
     1
 40
1.0
176
     1
 90
        1
176
     1
 90
        6
176
     1
 90
        2
176
     1
 62
     7
176
     1
 90
        5
176
     1
 90
        0
176
     1
 90
        0
176
     1
290
     0
176
     1
 90
        1
176
     1
 40
0.0
176
     1
 90
        0
176
     1
290
     0
176
     1
290
     1
176
     1
290
     1
176
     1
290
     0
176
     1
290
     0
176
     1
290
     0
176
     1
290
     0
176
     1
290
     0
176
     1
290
     0
176
     1
 90
       50
176
     1
 40
0.0
176
     1
 40
1.0
176
     1
 90
        0
176
     1
 62
    18
420
        0
176
     1
 90
       50
176
     1
 90
        3
176
     1
 62
     5
420
      255
176
     1
290
     0
176
     1
 90
       50
176
     1
 90
       50
176
     1
 90
       50
176
     1
290
     0
176
     1
 90
       50
176
     1
 62
   256
176
     0
 40
1.0
176
     0
 90
        2
176
     1
  1
strokes_ogs.tif
176
     1
290
     0
176
     1
 40
1.0
176
     1
 40
1.0
176
     1
  0
VISUALSTYLE
  5
3C
102
{ACAD_REACTORS
330
2A
102
}
330
2A
100
AcDbVisualStyle
  2
OverhangOff
 70
    21
177
     3
291
     1
 70
    58
 90
        2
176
     0
 90
        2
176
     0
 90
        0
176
     0
 90
        0
176
     0
 40
0.6
176
     0
 40
30.0
176
     0
 62
     7
420
 16777215
176
     0
 90
        1
176
     0
 90
        4
176
     0
 62
     7
176
     0
 62
   257
176
     0
 90
        1
176
     0
 90
        1
176
     0
 40
1.0
176
     0
 90
        9
176
     2
 62
     7
176
     0
 40
1.0
176
     0
 90
        1
176
     0
 90
        6
176
     0
 90
        2
176
     0
 62
     7
176
     0
 90
        5
176
     0
 90
        0
176
     0
 90
        0
176
     0
290
     0
176
     0
 90
        1
176
     0
 40
0.0
176
     0
 90
        0
176
     0
290
     0
176
     0
290
     1
176
     0
290
     1
176
     0
290
     0
176
     0
290
     0
176
     0
290
     0
176
     0
290
     0
176
     0
290
     0
176
     0
290
     0
176
     0
 90
       50
176
     0
 40
0.0
176
     0
 40
1.0
176
     0
 90
        0
176
     0
 62
    18
420
        0
176
     0
 90
       50
176
     0
 90
        3
176
     0
 62
     5
420
      255
176
     0
290
     0
176
     0
 90
       50
176
     0
 90
       50
176
     0
 90
       50
176
     0
290
     0
176
     0
 90
       50
176
     0
 62
   256
176
     0
 40
1.0
176
     0
 90
        2
176
     0
  1
strokes_ogs.tif
176
     0
290
     0
176
     0
 40
1.0
176
     0
 40
1.0
176
     0
  0
VISUALSTYLE
  5
33
102
{ACAD_REACTORS
330
2A
102
}
330
2A
100
AcDbVisualStyle
  2
Realistic
 70
     8
177
     3
291
     0
 70
    58
 90
        2
176
     1
 90
        3
176
     1
 90
        0
176
     1
 90
        2
176
     1
 40
0.6
176
     1
 40
30.0
176
     1
 62
     7
420
 16777215
176
     1
 90
        0
176
     1
 90
        0
176
     1
 62
     7
176
     1
 62
   257
176
     1
 90
        1
176
     1
 90
        1
176
     1
 40
1.0
176
     1
 90
        8
176
     1
 62
   257
176
     1
 40
1.0
176
     1
 90
        1
176
     1
 90
        6
176
     1
 90
        2
176
     1
 62
     7
176
     1
 90
        3
176
     1
 90
        0
176
     1
 90
        0
176
     1
290
     0
176
     1
 90
       13
176
     1
 40
0.0
176
     1
 90
        0
176
     1
290
     0
176
     1
290
     1
176
     1
290
     1
176
     1
290
     0
176
     1
290
     0
176
     1
290
     0
176
     1
290
     0
176
     1
290
     0
176
     1
290
     0
176
     1
 90
       50
176
     1
 40
0.0
176
     1
 40
1.0
176
     1
 90
        0
176
     1
 62
    18
420
        0
176
     1
 90
       50
176
     1
 90
        3
176
     1
 62
     5
420
      255
176
     1
290
     0
176
     1
 90
       50
176
     1
 90
       50
176
     1
 90
       50
176
     1
290
     0
176
     1
 90
       50
176
     1
 62
   256
176
     0
 40
1.0
176
     0
 90
        2
176
     1
  1
strokes_ogs.tif
176
     1
290
     0
176
     1
 40
1.0
176
     1
 40
1.0
176
     1
  0
VISUALSTYLE
  5
42
102
{ACAD_REACTORS
330
2A
102
}
330
2A
100
AcDbVisualStyle
  2
Shaded
 70
    27
177
     3
291
     0
 70
    58
 90
        2
176
     1
 90
        2
176
     1
 90
        1
176
     1
 90
        2
176
     1
 40
0.6
176
     1
 40
30.0
176
     1
 62
     7
420
 16777215
176
     1
 90
        0
176
     1
 90
        4
176
     1
 62
     7
176
     1
 62
   257
176
     1
 90
        1
176
     1
 90
        1
176
     1
 40
1.0
176
     1
 90
        8
176
     1
 62
   257
176
     1
 40
1.0
176
     1
 90
        1
176
     1
 90
        6
176
     1
 90
        2
176
     1
 62
     8
420
  7895160
176
     1
 90
        3
176
     1
 90
        0
176
     1
 90
        0
176
     1
290
     0
176
     1
 90
        5
176
     1
 40
0.0
176
     1
 90
        0
176
     1
290
     0
176
     1
290
     1
176
     1
290
     1
176
     1
290
     0
176
     1
290
     0
176
     1
290
     0
176
     1
290
     0
176
     1
290
     0
176
     1
290
     0
176
     1
 90
       50
176
     1
 40
0.0
176
     1
 40
1.0
176
     1
 90
        0
176
     1
 62
    18
420
        0
176
     1
 90
       50
176
     1
 90
        3
176
     1
 62
     5
420
      255
176
     1
290
     0
176
     1
 90
       50
176
     1
 90
       50
176
     1
 90
       50
176
     1
290
     0
176
     1
 90
       50
176
     1
 62
   256
176
     0
 40
1.0
176
     0
 90
        2
176
     1
  1
strokes_ogs.tif
176
     1
290
     0
176
     1
 40
1.0
176
     1
 40
1.0
176
     1
  0
VISUALSTYLE
  5
41
102
{ACAD_REACTORS
330
2A
102
}
330
2A
100
AcDbVisualStyle
  2
Shaded with edges
 70
    26
177
     3
291
     0
 70
    58
 90
        2
176
     1
 90
        2
176
     1
 90
        1
176
     1
 90
        2
176
     1
 40
0.6
176
     1
 40
30.0
176
     1
 62
     7
420
 16777215
176
     1
 90
        1
176
     1
 90
       10
176
     1
 62
     7
176
     1
 62
   257
176
     1
 90
        2
176
     1
 90
        1
176
     1
 40
1.0
176
     1
 90
        8
176
     1
 62
   257
176
     1
 40
1.0
176
     1
 90
        1
176
     1
 90
        6
176
     1
 90
        2
176
     1
 62
     7
176
     1
 90
        3
176
     1
 90
        0
176
     1
 90
        0
176
     1
290
     0
176
     1
 90
        5
176
     1
 40
0.0
176
     1
 90
        0
176
     1
290
     0
176
     1
290
     1
176
     1
290
     1
176
     1
290
     0
176
     1
290
     0
176
     1
290
     0
176
     1
290
     0
176
     1
290
     0
176
     1
290
     0
176
     1
 90
       50
176
     1
 40
0.0
176
     1
 40
1.0
176
     1
 90
        0
176
     1
 62
    18
420
        0
176
     1
 90
       50
176
     1
 90
        3
176
     1
 62
     5
420
      255
176
     1
290
     0
176
     1
 90
       50
176
     1
 90
       50
176
     1
 90
       50
176
     1
290
     0
176
     1
 90
       50
176
     1
 62
   256
176
     0
 40
1.0
176
     0
 90
        2
176
     1
  1
strokes_ogs.tif
176
     1
290
     0
176
     1
 40
1.0
176
     1
 40
1.0
176
     1
  0
VISUALSTYLE
  5
3E
102
{ACAD_REACTORS
330
2A
102
}
330
2A
100
AcDbVisualStyle
  2
Shades of Gray
 70
    23
177
     3
291
     0
 70
    58
 90
        2
176
     1
 90
        2
176
     1
 90
        3
176
     1
 90
        0
176
     1
 40
0.6
176
     1
 40
30.0
176
     1
 62
     7
420
 16777215
176
     1
 90
        2
176
     1
 90
        2
176
     1
 62
     7
176
     1
 62
     7
176
     1
 90
        1
176
     1
 90
        1
176
     1
 40
40.0
176
     1
 90
        8
176
     1
 62
     7
176
     1
 40
1.0
176
     1
 90
        1
176
     1
 90
        6
176
     1
 90
        2
176
     1
 62
     7
176
     1
 90
        3
176
     1
 90
        0
176
     1
 90
        0
176
     1
290
     0
176
     1
 90
        1
176
     1
 40
0.0
176
     1
 90
        0
176
     1
290
     0
176
     1
290
     1
176
     1
290
     1
176
     1
290
     0
176
     1
290
     0
176
     1
290
     0
176
     1
290
     0
176
     1
290
     0
176
     1
290
     0
176
     1
 90
       50
176
     1
 40
0.0
176
     1
 40
1.0
176
     1
 90
        0
176
     1
 62
    18
420
        0
176
     1
 90
       50
176
     1
 90
        3
176
     1
 62
     5
420
      255
176
     1
290
     0
176
     1
 90
       50
176
     1
 90
       50
176
     1
 90
       50
176
     1
290
     0
176
     1
 90
       50
176
     1
 62
   256
176
     0
 40
1.0
176
     0
 90
        2
176
     1
  1
strokes_ogs.tif
176
     1
290
     0
176
     1
 40
1.0
176
     1
 40
1.0
176
     1
  0
VISUALSTYLE
  5
3F
102
{ACAD_REACTORS
330
2A
102
}
330
2A
100
AcDbVisualStyle
  2
Sketchy
 70
    24
177
     3
291
     0
 70
    58
 90
        1
176
     1
 90
        2
176
     1
 90
        2
176
     1
 90
        0
176
     1
 40
0.6
176
     1
 40
30.0
176
     1
 62
     7
420
 16777215
176
     1
 90
        2
176
     1
 90
        2
176
     1
 62
     7
176
     1
 62
     7
176
     1
 90
        1
176
     1
 90
        1
176
     1
 40
40.0
176
     1
 90
       11
176
     1
 62
     7
176
     1
 40
1.0
176
     1
 90
        1
176
     1
 90
        6
176
     1
 90
        2
176
     1
 62
     7
176
     1
 90
        6
176
     1
 90
        0
176
     1
 90
        0
176
     1
290
     0
176
     1
 90
        1
176
     1
 40
0.0
176
     1
 90
        0
176
     1
290
     0
176
     1
290
     1
176
     1
290
     1
176
     1
290
     0
176
     1
290
     0
176
     1
290
     0
176
     1
290
     0
176
     1
290
     0
176
     1
290
     0
176
     1
 90
       50
176
     1
 40
0.0
176
     1
 40
1.0
176
     1
 90
        0
176
     1
 62
    18
420
        0
176
     1
 90
       50
176
     1
 90
        3
176
     1
 62
     5
420
      255
176
     1
290
     0
176
     1
 90
       50
176
     1
 90
       50
176
     1
 90
       50
176
     1
290
     0
176
     1
 90
       50
176
     1
 62
   256
176
     0
 40
1.0
176
     0
 90
        2
176
     1
  1
strokes_ogs.tif
176
     1
290
     0
176
     1
 40
1.0
176
     1
 40
1.0
176
     1
  0
VISUALSTYLE
  5
37
102
{ACAD_REACTORS
330
2A
102
}
330
2A
100
AcDbVisualStyle
  2
Thicken
 70
    13
177
     3
291
     1
 70
    58
 90
        2
176
     1
 90
        2
176
     1
 90
        0
176
     1
 90
        0
176
     1
 40
0.6
176
     1
 40
30.0
176
     1
 62
     7
420
 16777215
176
     1
 90
        1
176
     1
 90
        4
176
     1
 62
     7
176
     1
 62
   257
176
     1
 90
        1
176
     1
 90
        1
176
     1
 40
1.0
176
     1
 90
       12
176
     1
 62
     7
176
     1
 40
1.0
176
     1
 90
        1
176
     1
 90
        6
176
     1
 90
        2
176
     1
 62
     7
176
     1
 90
        5
176
     1
 90
        0
176
     1
 90
        0
176
     1
290
     0
176
     1
 90
        1
176
     1
 40
0.0
176
     1
 90
        0
176
     1
290
     0
176
     1
290
     1
176
     1
290
     1
176
     1
290
     0
176
     1
290
     0
176
     1
290
     0
176
     1
290
     0
176
     1
290
     0
176
     1
290
     0
176
     1
 90
       50
176
     1
 40
0.0
176
     1
 40
1.0
176
     1
 90
        0
176
     1
 62
    18
420
        0
176
     1
 90
       50
176
     1
 90
        3
176
     1
 62
     5
420
      255
176
     1
290
     0
176
     1
 90
       50
176
     1
 90
       50
176
     1
 90
       50
176
     1
290
     0
176
     1
 90
       50
176
     1
 62
   256
176
     0
 40
1.0
176
     0
 90
        2
176
     1
  1
strokes_ogs.tif
176
     1
290
     0
176
     1
 40
1.0
176
     1
 40
1.0
176
     1
  0
VISUALSTYLE
  5
30
102
{ACAD_REACTORS
330
2A
102
}
330
2A
100
AcDbVisualStyle
  2
Wireframe
 70
     5
177
     3
291
     0
 70
    58
 90
        0
176
     1
 90
        2
176
     1
 90
        0
176
     1
 90
        0
176
     1
 40
0.6
176
     1
 40
30.0
176
     1
 62
     7
420
 16777215
176
     1
 90
        1
176
     1
 90
        4
176
     1
 62
     7
176
     1
 62
   257
176
     1
 90
        1
176
     1
 90
        1
176
     1
 40
1.0
176
     1
 90
        0
176
     1
 62
   257
176
     1
 40
1.0
176
     1
 90
        1
176
     1
 90
        6
176
     1
 90
        2
176
     1
 62
     7
176
     1
 90
        3
176
     1
 90
        0
176
     1
 90
        0
176
     1
290
     0
176
     1
 90
        1
176
     1
 40
0.0
176
     1
 90
        0
176
     1
290
     0
176
     1
290
     1
176
     1
290
     1
176
     1
290
     0
176
     1
290
     0
176
     1
290
     0
176
     1
290
     0
176
     1
290
     0
176
     1
290
     0
176
     1
 90
       50
176
     1
 40
0.0
176
     1
 40
1.0
176
     1
 90
        0
176
     1
 62
    18
420
        0
176
     1
 90
       50
176
     1
 90
        3
176
     1
 62
     5
420
      255
176
     1
290
     0
176
     1
 90
       50
176
     1
 90
       50
176
     1
 90
       50
176
     1
290
     0
176
     1
 90
       50
176
     1
 62
   256
176
     0
 40
1.0
176
     0
 90
        2
176
     1
  1
strokes_ogs.tif
176
     1
290
     0
176
     1
 40
1.0
176
     1
 40
1.0
176
     1
  0
VISUALSTYLE
  5
40
102
{ACAD_REACTORS
330
2A
102
}
330
2A
100
AcDbVisualStyle
  2
X-Ray
 70
    25
177
     3
291
     0
 70
    58
 90
        2
176
     1
 90
        2
176
     1
 90
        1
176
     1
 90
        1
176
     1
 40
0.5
176
     1
 40
30.0
176
     1
 62
     7
420
 16777215
176
     1
 90
        1
176
     1
 90
        0
176
     1
 62
     7
176
     1
 62
   257
176
     1
 90
        1
176
     1
 90
        1
176
     1
 40
1.0
176
     1
 90
        8
176
     1
 62
     7
176
     1
 40
1.0
176
     1
 90
        1
176
     1
 90
        6
176
     1
 90
        2
176
     1
 62
     7
176
     1
 90
        3
176
     1
 90
        0
176
     1
 90
        0
176
     1
290
     0
176
     1
 90
       13
176
     1
 40
0.0
176
     1
 90
        0
176
     1
290
     0
176
     1
290
     1
176
     1
290
     1
176
     1
290
     0
176
     1
290
     0
176
     1
290
     0
176
     1
290
     0
176
     1
290
     0
176
     1
290
     0
176
     1
 90
       50
176
     1
 40
0.0
176
     1
 40
1.0
176
     1
 90
        0
176
     1
 62
    18
420
        0
176
     1
 90
       50
176
     1
 90
        3
176
     1
 62
     5
420
      255
176
     1
290
     0
176
     1
 90
       50
176
     1
 90
       50
176
     1
 90
       50
176
     1
290
     0
176
     1
 90
       50
176
     1
 62
   256
176
     0
 40
1.0
176
     0
 90
        2
176
     1
  1
strokes_ogs.tif
176
     1
290
     0
176
     1
 40
1.0
176
     1
 40
1.0
176
     1
  0
DICTIONARYVAR
  5
57A
102
{ACAD_REACTORS
330
579
102
}
330
579
100
DictionaryVariables
280
     0
  1
1:1
  0
DICTIONARYVAR
  5
582
102
{ACAD_REACTORS
330
579
102
}
330
579
100
DictionaryVariables
280
     0
  1
3.500000
  0
DICTIONARYVAR
  5
583
102
{ACAD_REACTORS
330
579
102
}
330
579
100
DictionaryVariables
280
     0
  1
acadiso.lin
  0
DICTIONARYVAR
  5
57F
102
{ACAD_REACTORS
330
579
102
}
330
579
100
DictionaryVariables
280
     0
  1
Standard
  0
DICTIONARYVAR
  5
57E
102
{ACAD_REACTORS
330
579
102
}
330
579
100
DictionaryVariables
280
     0
  1
Standard
  0
DICTIONARY
  5
57B
330
6A
100
AcDbDictionary
280
     1
281
     1
  3
ACAD_ROUNDTRIP_2008_TABLESTYLE_CELLSTYLEMAP
360
57C
  0
CELLSTYLEMAP
  5
57C
102
{ACAD_REACTORS
330
57B
102
}
330
57B
100
AcDbCellStyleMap
 90
        3
300
CELLSTYLE
  1
TABLEFORMAT_BEGIN
 90
        5
170
     1
 91
        0
 92
    32768
 62
   257
 93
        1
300
CONTENTFORMAT
  1
CONTENTFORMAT_BEGIN
 90
        0
 91
        0
 92
        4
 93
        0
300

 40
0.0
140
1.0
 94
        5
 62
     0
340
11
144
6.0
309
CONTENTFORMAT_END
171
     1
301
MARGIN
  1
CELLMARGIN_BEGIN
 40
1.5
 40
1.5
 40
1.5
 40
1.5
 40
1.5
 40
1.5
309
CELLMARGIN_END
 94
        6
 95
        1
302
GRIDFORMAT
  1
GRIDFORMAT_BEGIN
 90
        0
 91
        1
 62
     0
 92
       -2
340
14
 93
        0
 40
0.045
309
GRIDFORMAT_END
 95
        2
302
GRIDFORMAT
  1
GRIDFORMAT_BEGIN
 90
        0
 91
        1
 62
     0
 92
       -2
340
14
 93
        0
 40
0.045
309
GRIDFORMAT_END
 95
        4
302
GRIDFORMAT
  1
GRIDFORMAT_BEGIN
 90
        0
 91
        1
 62
     0
 92
       -2
340
14
 93
        0
 40
0.045
309
GRIDFORMAT_END
 95
        8
302
GRIDFORMAT
  1
GRIDFORMAT_BEGIN
 90
        0
 91
        1
 62
     0
 92
       -2
340
14
 93
        0
 40
0.045
309
GRIDFORMAT_END
 95
       16
302
GRIDFORMAT
  1
GRIDFORMAT_BEGIN
 90
        0
 91
        1
 62
     0
 92
       -2
340
14
 93
        0
 40
0.045
309
GRIDFORMAT_END
 95
       32
302
GRIDFORMAT
  1
GRIDFORMAT_BEGIN
 90
        0
 91
        1
 62
     0
 92
       -2
340
14
 93
        0
 40
0.045
309
GRIDFORMAT_END
309
TABLEFORMAT_END
  1
CELLSTYLE_BEGIN
 90
        1
 91
        1
300
_TITLE
309
CELLSTYLE_END
300
CELLSTYLE
  1
TABLEFORMAT_BEGIN
 90
        5
170
     1
 91
        0
 92
        0
 62
   257
 93
        1
300
CONTENTFORMAT
  1
CONTENTFORMAT_BEGIN
 90
        0
 91
        0
 92
        4
 93
        0
300

 40
0.0
140
1.0
 94
        5
 62
     0
340
11
144
4.5
309
CONTENTFORMAT_END
171
     1
301
MARGIN
  1
CELLMARGIN_BEGIN
 40
1.5
 40
1.5
 40
1.5
 40
1.5
 40
1.5
 40
1.5
309
CELLMARGIN_END
 94
        6
 95
        1
302
GRIDFORMAT
  1
GRIDFORMAT_BEGIN
 90
        0
 91
        1
 62
     0
 92
       -2
340
14
 93
        0
 40
0.045
309
GRIDFORMAT_END
 95
        2
302
GRIDFORMAT
  1
GRIDFORMAT_BEGIN
 90
        0
 91
        1
 62
     0
 92
       -2
340
14
 93
        0
 40
0.045
309
GRIDFORMAT_END
 95
        4
302
GRIDFORMAT
  1
GRIDFORMAT_BEGIN
 90
        0
 91
        1
 62
     0
 92
       -2
340
14
 93
        0
 40
0.045
309
GRIDFORMAT_END
 95
        8
302
GRIDFORMAT
  1
GRIDFORMAT_BEGIN
 90
        0
 91
        1
 62
     0
 92
       -2
340
14
 93
        0
 40
0.045
309
GRIDFORMAT_END
 95
       16
302
GRIDFORMAT
  1
GRIDFORMAT_BEGIN
 90
        0
 91
        1
 62
     0
 92
       -2
340
14
 93
        0
 40
0.045
309
GRIDFORMAT_END
 95
       32
302
GRIDFORMAT
  1
GRIDFORMAT_BEGIN
 90
        0
 91
        1
 62
     0
 92
       -2
340
14
 93
        0
 40
0.045
309
GRIDFORMAT_END
309
TABLEFORMAT_END
  1
CELLSTYLE_BEGIN
 90
        2
 91
        1
300
_HEADER
309
CELLSTYLE_END
300
CELLSTYLE
  1
TABLEFORMAT_BEGIN
 90
        5
170
     1
 91
        0
 92
        0
 62
   257
 93
        1
300
CONTENTFORMAT
  1
CONTENTFORMAT_BEGIN
 90
        0
 91
        0
 92
        4
 93
        0
300

 40
0.0
140
1.0
 94
        2
 62
     0
340
11
144
4.5
309
CONTENTFORMAT_END
171
     1
301
MARGIN
  1
CELLMARGIN_BEGIN
 40
1.5
 40
1.5
 40
1.5
 40
1.5
 40
1.5
 40
1.5
309
CELLMARGIN_END
 94
        6
 95
        1
302
GRIDFORMAT
  1
GRIDFORMAT_BEGIN
 90
        0
 91
        1
 62
     0
 92
       -2
340
14
 93
        0
 40
0.045
309
GRIDFORMAT_END
 95
        2
302
GRIDFORMAT
  1
GRIDFORMAT_BEGIN
 90
        0
 91
        1
 62
     0
 92
       -2
340
14
 93
        0
 40
0.045
309
GRIDFORMAT_END
 95
        4
302
GRIDFORMAT
  1
GRIDFORMAT_BEGIN
 90
        0
 91
        1
 62
     0
 92
       -2
340
14
 93
        0
 40
0.045
309
GRIDFORMAT_END
 95
        8
302
GRIDFORMAT
  1
GRIDFORMAT_BEGIN
 90
        0
 91
        1
 62
     0
 92
       -2
340
14
 93
        0
 40
0.045
309
GRIDFORMAT_END
 95
       16
302
GRIDFORMAT
  1
GRIDFORMAT_BEGIN
 90
        0
 91
        1
 62
     0
 92
       -2
340
14
 93
        0
 40
0.045
309
GRIDFORMAT_END
 95
       32
302
GRIDFORMAT
  1
GRIDFORMAT_BEGIN
 90
        0
 91
        1
 62
     0
 92
       -2
340
14
 93
        0
 40
0.045
309
GRIDFORMAT_END
309
TABLEFORMAT_END
  1
CELLSTYLE_BEGIN
 90
        3
 91
        2
300
_DATA
309
CELLSTYLE_END
  0
ENDSEC
  0
EOF
