  0
SECTION
  2
HEADER
  9
$ACADVER
  1
AC1027
  9
$ACADMAINTVER
 70
   105
  9
$DWGCODEPAGE
  3
ANSI_932
  9
$REQUIREDVERSIONS
160
                 0
  9
$INSBASE
 10
0.0
 20
0.0
 30
0.0
  9
$EXTMIN
 10
-1050.0
 20
-742.5
 30
0.0
  9
$EXTMAX
 10
1050.0
 20
742.5
 30
0.0
  9
$LIMMIN
 10
-1050.0
 20
-742.5
  9
$LIMMAX
 10
1050.0
 20
742.5
  9
$ORTHOMODE
 70
     0
  9
$REGENMODE
 70
     1
  9
$FILLMODE
 70
     1
  9
$QTEXTMODE
 70
     0
  9
$MIRRTEXT
 70
     1
  9
$LTSCALE
 40
5.0
  9
$ATTMODE
 70
     1
  9
$TEXTSIZE
 40
2.5
  9
$TRACEWID
 40
1.0
  9
$TEXTSTYLE
  7
Standard
  9
$CLAYER
  8
0
  9
$CELTYPE
  6
ByLayer
  9
$CECOLOR
 62
   256
  9
$CELTSCALE
 40
1.0
  9
$DISPSILH
 70
     0
  9
$DIMSCALE
 40
1.0
  9
$DIMASZ
 40
2.5
  9
$DIMEXO
 40
0.625
  9
$DIMDLI
 40
3.75
  9
$DIMRND
 40
0.0
  9
$DIMDLE
 40
0.0
  9
$DIMEXE
 40
1.25
  9
$DIMTP
 40
0.0
  9
$DIMTM
 40
0.0
  9
$DIMTXT
 40
2.5
  9
$DIMCEN
 40
2.5
  9
$DIMTSZ
 40
0.0
  9
$DIMTOL
 70
     0
  9
$DIMLIM
 70
     0
  9
$DIMTIH
 70
     0
  9
$DIMTOH
 70
     0
  9
$DIMSE1
 70
     0
  9
$DIMSE2
 70
     0
  9
$DIMTAD
 70
     1
  9
$DIMZIN
 70
     8
  9
$DIMBLK
  1

  9
$DIMASO
 70
     1
  9
$DIMSHO
 70
     1
  9
$DIMPOST
  1

  9
$DIMAPOST
  1

  9
$DIMALT
 70
     0
  9
$DIMALTD
 70
     3
  9
$DIMALTF
 40
0.03937007874016
  9
$DIMLFAC
 40
1.0
  9
$DIMTOFL
 70
     1
  9
$DIMTVP
 40
0.0
  9
$DIMTIX
 70
     0
  9
$DIMSOXD
 70
     0
  9
$DIMSAH
 70
     0
  9
$DIMBLK1
  1

  9
$DIMBLK2
  1

  9
$DIMSTYLE
  2
ISO-25
  9
$DIMCLRD
 70
     0
  9
$DIMCLRE
 70
     0
  9
$DIMCLRT
 70
     0
  9
$DIMTFAC
 40
1.0
  9
$DIMGAP
 40
0.625
  9
$DIMJUST
 70
     0
  9
$DIMSD1
 70
     0
  9
$DIMSD2
 70
     0
  9
$DIMTOLJ
 70
     0
  9
$DIMTZIN
 70
     8
  9
$DIMALTZ
 70
     0
  9
$DIMALTTZ
 70
     0
  9
$DIMUPT
 70
     0
  9
$DIMDEC
 70
     2
  9
$DIMTDEC
 70
     2
  9
$DIMALTU
 70
     2
  9
$DIMALTTD
 70
     3
  9
$DIMTXSTY
  7
Standard
  9
$DIMAUNIT
 70
     0
  9
$DIMADEC
 70
     0
  9
$DIMALTRND
 40
0.0
  9
$DIMAZIN
 70
     0
  9
$DIMDSEP
 70
    44
  9
$DIMATFIT
 70
     3
  9
$DIMFRAC
 70
     0
  9
$DIMLDRBLK
  1

  9
$DIMLUNIT
 70
     2
  9
$DIMLWD
 70
    -2
  9
$DIMLWE
 70
    -2
  9
$DIMTMOVE
 70
     0
  9
$DIMFXL
 40
1.0
  9
$DIMFXLON
 70
     0
  9
$DIMJOGANG
 40
0.7853981633974483
  9
$DIMTFILL
 70
     0
  9
$DIMTFILLCLR
 70
     0
  9
$DIMARCSYM
 70
     0
  9
$DIMLTYPE
  6

  9
$DIMLTEX1
  6

  9
$DIMLTEX2
  6

  9
$DIMTXTDIRECTION
 70
     0
  9
$LUNITS
 70
     2
  9
$LUPREC
 70
     4
  9
$SKETCHINC
 40
1.0
  9
$FILLETRAD
 40
10.0
  9
$AUNITS
 70
     0
  9
$AUPREC
 70
     0
  9
$MENU
  1
.
  9
$ELEVATION
 40
0.0
  9
$PELEVATION
 40
0.0
  9
$THICKNESS
 40
0.0
  9
$LIMCHECK
 70
     0
  9
$CHAMFERA
 40
0.0
  9
$CHAMFERB
 40
0.0
  9
$CHAMFERC
 40
0.0
  9
$CHAMFERD
 40
0.0
  9
$SKPOLY
 70
     0
  9
$TDCREATE
 40
2458817.457994329
  9
$TDUCREATE
 40
2458817.082994329
  9
$TDUPDATE
 40
2458817.457994468
  9
$TDUUPDATE
 40
2458817.082994468
  9
$TDINDWG
 40
0.0000000116
  9
$TDUSRTIMER
 40
0.0000000116
  9
$USRTIMER
 70
     1
  9
$ANGBASE
 50
0.0
  9
$ANGDIR
 70
     0
  9
$PDMODE
 70
     0
  9
$PDSIZE
 40
0.0
  9
$PLINEWID
 40
0.0
  9
$SPLFRAME
 70
     0
  9
$SPLINETYPE
 70
     6
  9
$SPLINESEGS
 70
     8
  9
$HANDSEED
  5
506
  9
$SURFTAB1
 70
     6
  9
$SURFTAB2
 70
     6
  9
$SURFTYPE
 70
     6
  9
$SURFU
 70
     6
  9
$SURFV
 70
     6
  9
$UCSBASE
  2

  9
$UCSNAME
  2

  9
$UCSORG
 10
0.0
 20
0.0
 30
0.0
  9
$UCSXDIR
 10
1.0
 20
0.0
 30
0.0
  9
$UCSYDIR
 10
0.0
 20
1.0
 30
0.0
  9
$UCSORTHOREF
  2

  9
$UCSORTHOVIEW
 70
     0
  9
$UCSORGTOP
 10
0.0
 20
0.0
 30
0.0
  9
$UCSORGBOTTOM
 10
0.0
 20
0.0
 30
0.0
  9
$UCSORGLEFT
 10
0.0
 20
0.0
 30
0.0
  9
$UCSORGRIGHT
 10
0.0
 20
0.0
 30
0.0
  9
$UCSORGFRONT
 10
0.0
 20
0.0
 30
0.0
  9
$UCSORGBACK
 10
0.0
 20
0.0
 30
0.0
  9
$PUCSBASE
  2

  9
$PUCSNAME
  2

  9
$PUCSORG
 10
0.0
 20
0.0
 30
0.0
  9
$PUCSXDIR
 10
1.0
 20
0.0
 30
0.0
  9
$PUCSYDIR
 10
0.0
 20
1.0
 30
0.0
  9
$PUCSORTHOREF
  2

  9
$PUCSORTHOVIEW
 70
     0
  9
$PUCSORGTOP
 10
0.0
 20
0.0
 30
0.0
  9
$PUCSORGBOTTOM
 10
0.0
 20
0.0
 30
0.0
  9
$PUCSORGLEFT
 10
0.0
 20
0.0
 30
0.0
  9
$PUCSORGRIGHT
 10
0.0
 20
0.0
 30
0.0
  9
$PUCSORGFRONT
 10
0.0
 20
0.0
 30
0.0
  9
$PUCSORGBACK
 10
0.0
 20
0.0
 30
0.0
  9
$USERI1
 70
     0
  9
$USERI2
 70
     0
  9
$USERI3
 70
     0
  9
$USERI4
 70
     0
  9
$USERI5
 70
     0
  9
$USERR1
 40
0.0
  9
$USERR2
 40
0.0
  9
$USERR3
 40
0.0
  9
$USERR4
 40
0.0
  9
$USERR5
 40
0.0
  9
$WORLDVIEW
 70
     1
  9
$SHADEDGE
 70
     3
  9
$SHADEDIF
 70
    70
  9
$TILEMODE
 70
     1
  9
$MAXACTVP
 70
    64
  9
$PINSBASE
 10
0.0
 20
0.0
 30
0.0
  9
$PLIMCHECK
 70
     0
  9
$PEXTMIN
 10
1.000000000000000E+20
 20
1.000000000000000E+20
 30
1.000000000000000E+20
  9
$PEXTMAX
 10
-1.000000000000000E+20
 20
-1.000000000000000E+20
 30
-1.000000000000000E+20
  9
$PLIMMIN
 10
0.0
 20
0.0
  9
$PLIMMAX
 10
420.0
 20
297.0
  9
$UNITMODE
 70
     0
  9
$VISRETAIN
 70
     1
  9
$PLINEGEN
 70
     0
  9
$PSLTSCALE
 70
     1
  9
$TREEDEPTH
 70
  3020
  9
$CMLSTYLE
  2
Standard
  9
$CMLJUST
 70
     0
  9
$CMLSCALE
 40
20.0
  9
$PROXYGRAPHICS
 70
     1
  9
$MEASUREMENT
 70
     1
  9
$CELWEIGHT
370
    -1
  9
$ENDCAPS
280
     0
  9
$JOINSTYLE
280
     0
  9
$LWDISPLAY
290
     0
  9
$INSUNITS
 70
     4
  9
$HYPERLINKBASE
  1

  9
$STYLESHEET
  1

  9
$XEDIT
290
     1
  9
$CEPSNTYPE
380
     0
  9
$PSTYLEMODE
290
     1
  9
$FINGERPRINTGUID
  2
{1FE5B0C6-16A5-4B6A-94F0-F3CA07F31ECA}
  9
$VERSIONGUID
  2
{FAEB1C32-E019-11D5-929B-00C0DF256EC4}
  9
$EXTNAMES
290
     1
  9
$PSVPSCALE
 40
0.0
  9
$OLESTARTUP
290
     0
  9
$SORTENTS
280
   127
  9
$INDEXCTL
280
     0
  9
$HIDETEXT
280
     1
  9
$XCLIPFRAME
280
     2
  9
$HALOGAP
280
     0
  9
$OBSCOLOR
 70
   257
  9
$OBSLTYPE
280
     0
  9
$INTERSECTIONDISPLAY
280
     0
  9
$INTERSECTIONCOLOR
 70
   257
  9
$DIMASSOC
280
     2
  9
$PROJECTNAME
  1

  9
$CAMERADISPLAY
290
     0
  9
$LENSLENGTH
 40
50.0
  9
$CAMERAHEIGHT
 40
0.0
  9
$STEPSPERSEC
 40
2.0
  9
$STEPSIZE
 40
6.0
  9
$3DDWFPREC
 40
2.0
  9
$PSOLWIDTH
 40
5.0
  9
$PSOLHEIGHT
 40
80.0
  9
$LOFTANG1
 40
1.570796326794897
  9
$LOFTANG2
 40
1.570796326794897
  9
$LOFTMAG1
 40
0.0
  9
$LOFTMAG2
 40
0.0
  9
$LOFTPARAM
 70
     7
  9
$LOFTNORMALS
280
     1
  9
$LATITUDE
 40
37.795
  9
$LONGITUDE
 40
-122.394
  9
$NORTHDIRECTION
 40
0.0
  9
$TIMEZONE
 70
 -8000
  9
$LIGHTGLYPHDISPLAY
280
     1
  9
$TILEMODELIGHTSYNCH
280
     1
  9
$CMATERIAL
347
44
  9
$SOLIDHIST
280
     0
  9
$SHOWHIST
280
     1
  9
$DWFFRAME
280
     2
  9
$DGNFRAME
280
     2
  9
$REALWORLDSCALE
290
     1
  9
$INTERFERECOLOR
 62
   256
  9
$CSHADOW
280
     0
  9
$SHADOWPLANELOCATION
 40
0.0
  0
ENDSEC
  0
SECTION
  2
CLASSES
  0
CLASS
  1
ACDBDICTIONARYWDFLT
  2
AcDbDictionaryWithDefault
  3
ObjectDBX Classes
 90
        0
 91
        4
280
     0
281
     0
  0
CLASS
  1
VISUALSTYLE
  2
AcDbVisualStyle
  3
ObjectDBX Classes
 90
     4095
 91
        4
280
     0
281
     0
  0
CLASS
  1
MATERIAL
  2
AcDbMaterial
  3
ObjectDBX Classes
 90
     1153
 91
        4
280
     0
281
     0
  0
CLASS
  1
SCALE
  2
AcDbScale
  3
ObjectDBX Classes
 90
     1153
 91
        4
280
     0
281
     0
  0
CLASS
  1
TABLESTYLE
  2
AcDbTableStyle
  3
ObjectDBX Classes
 90
     4095
 91
        4
280
     0
281
     0
  0
CLASS
  1
MLEADERSTYLE
  2
AcDbMLeaderStyle
  3
ACDB_MLEADERSTYLE_CLASS
 90
     4095
 91
        4
280
     0
281
     0
  0
CLASS
  1
SUN
  2
AcDbSun
  3
SCENEOE
 90
     1153
 91
        4
280
     0
281
     0
  0
CLASS
  1
DICTIONARYVAR
  2
AcDbDictionaryVar
  3
ObjectDBX Classes
 90
        0
 91
        4
280
     0
281
     0
  0
CLASS
  1
CELLSTYLEMAP
  2
AcDbCellStyleMap
  3
ObjectDBX Classes
 90
     1152
 91
        4
280
     0
281
     0
  0
ENDSEC
  0
SECTION
  2
TABLES
  0
TABLE
  2
VPORT
  5
8
330
0
100
AcDbSymbolTable
 70
     1
  0
VPORT
  5
29
330
8
100
AcDbSymbolTableRecord
100
AcDbViewportTableRecord
  2
*Active
 70
     0
 10
0.0
 20
0.0
 11
1.0
 21
1.0
 12
0.0
 22
0.0
 13
0.0
 23
0.0
 14
10.0
 24
10.0
 15
10.0
 25
10.0
 16
0.0
 26
0.0
 36
1.0
 17
0.0
 27
0.0
 37
0.0
 40
1633.5
 41
1.414141414141414
 42
50.0
 43
0.0
 44
0.0
 50
0.0
 51
0.0
 71
     0
 72
 10000
 73
     1
 74
     3
 75
     0
 76
     0
 77
     0
 78
     0
281
     0
 65
     1
110
0.0
120
0.0
130
0.0
111
1.0
121
0.0
131
0.0
112
0.0
122
1.0
132
0.0
 79
     0
146
0.0
348
2F
 60
     3
 61
     5
292
     1
282
     1
141
0.0
142
0.0
 63
   250
361
6D
  0
ENDTAB
  0
TABLE
  2
LTYPE
  5
5
330
0
100
AcDbSymbolTable
 70
     4
  0
LTYPE
  5
14
330
5
100
AcDbSymbolTableRecord
100
AcDbLinetypeTableRecord
  2
ByBlock
 70
     0
  3

 72
    65
 73
     0
 40
0.0
  0
LTYPE
  5
15
330
5
100
AcDbSymbolTableRecord
100
AcDbLinetypeTableRecord
  2
ByLayer
 70
     0
  3

 72
    65
 73
     0
 40
0.0
  0
LTYPE
  5
16
330
5
100
AcDbSymbolTableRecord
100
AcDbLinetypeTableRecord
  2
Continuous
 70
     0
  3
Solid line
 72
    65
 73
     0
 40
0.0
  0
LTYPE
  5
6F
330
5
100
AcDbSymbolTableRecord
100
AcDbLinetypeTableRecord
  2
JWW_CENTER1
 70
     0
  3
-----  --  ----------  --  -----
 72
    65
 73
     4
 40
6.773333333333333
 49
4.233333333333333
 74
     0
 49
-0.8466666666666667
 74
     0
 49
0.8466666666666667
 74
     0
 49
-0.8466666666666667
 74
     0
  0
LTYPE
  5
70
330
5
100
AcDbSymbolTableRecord
100
AcDbLinetypeTableRecord
  2
JWW_PHANTOM2
 70
     0
  3
------------  -  -  ------------
 72
    65
 73
     6
 40
13.54666666666667
 49
10.16
 74
     0
 49
-0.8466666666666667
 74
     0
 49
0.4233333333333333
 74
     0
 49
-0.8466666666666667
 74
     0
 49
0.4233333333333333
 74
     0
 49
-0.8466666666666667
 74
     0
  0
LTYPE
  5
71
330
5
100
AcDbSymbolTableRecord
100
AcDbLinetypeTableRecord
  2
JWW_DASHED3
 70
     0
  3
---  ------  ------  ------  ---
 72
    65
 73
     2
 40
3.386666666666667
 49
2.54
 74
     0
 49
-0.8466666666666667
 74
     0
  0
ENDTAB
  0
TABLE
  2
LAYER
  5
2
330
0
100
AcDbSymbolTable
 70
     7
  0
LAYER
  5
10
330
2
100
AcDbSymbolTableRecord
100
AcDbLayerTableRecord
  2
0
 70
     0
 62
     7
  6
Continuous
370
    -3
390
F
347
46
348
0
  0
LAYER
  5
72
330
2
100
AcDbSymbolTableRecord
100
AcDbLayerTableRecord
  2
A-1_ピット
 70
     0
 62
     7
  6
Continuous
370
    -3
390
F
347
46
348
0
  0
LAYER
  5
73
330
2
100
AcDbSymbolTableRecord
100
AcDbLayerTableRecord
  2
A-F
 70
     0
 62
     7
  6
Continuous
370
    -3
390
F
347
46
348
0
  0
LAYER
  5
74
330
2
100
AcDbSymbolTableRecord
100
AcDbLayerTableRecord
  2
A-0_通り芯
 70
     0
 62
     7
  6
Continuous
370
    -3
390
F
347
46
348
0
  0
LAYER
  5
75
330
2
100
AcDbSymbolTableRecord
100
AcDbLayerTableRecord
  2
A-E
 70
     0
 62
     7
  6
Continuous
370
    -3
390
F
347
46
348
0
  0
LAYER
  5
76
330
2
100
AcDbSymbolTableRecord
100
AcDbLayerTableRecord
  2
F-Fﾚｲﾔ
 70
     0
 62
     7
  6
Continuous
370
    -3
390
F
347
46
348
0
  0
LAYER
  5
77
330
2
100
AcDbSymbolTableRecord
100
AcDbLayerTableRecord
  2
A-4_寸法
 70
     0
 62
     7
  6
Continuous
370
    -3
390
F
347
46
348
0
  0
ENDTAB
  0
TABLE
  2
STYLE
  5
3
330
0
100
AcDbSymbolTable
 70
     2
  0
STYLE
  5
11
330
3
100
AcDbSymbolTableRecord
100
AcDbTextStyleTableRecord
  2
Standard
 70
     0
 40
0.0
 41
1.0
 50
0.0
 71
     0
 42
2.5
  3
txt
  4

  0
STYLE
  5
6E
330
3
100
AcDbSymbolTableRecord
100
AcDbTextStyleTableRecord
  2
ＭＳ ゴシック
 70
     0
 40
1.0
 41
1.0
 50
0.0
 71
     0
 42
2.5
  3

  4

1001
ACAD
1000
MS Gothic
1071
    32817
  0
ENDTAB
  0
TABLE
  2
VIEW
  5
6
330
0
100
AcDbSymbolTable
 70
     0
  0
ENDTAB
  0
TABLE
  2
UCS
  5
7
330
0
100
AcDbSymbolTable
 70
     0
  0
ENDTAB
  0
TABLE
  2
APPID
  5
9
330
0
100
AcDbSymbolTable
 70
     1
  0
APPID
  5
12
330
9
100
AcDbSymbolTableRecord
100
AcDbRegAppTableRecord
  2
ACAD
 70
     0
  0
ENDTAB
  0
TABLE
  2
DIMSTYLE
  5
A
330
0
100
AcDbSymbolTable
 70
     1
100
AcDbDimStyleTable
  0
DIMSTYLE
105
27
330
A
100
AcDbSymbolTableRecord
100
AcDbDimStyleTableRecord
  2
ISO-25
 70
     0
 41
2.5
 42
0.625
 43
3.75
 44
1.25
 73
     0
 74
     0
 77
     1
 78
     8
140
2.5
141
2.5
143
0.03937007874016
147
0.625
171
     3
172
     1
178
     0
271
     2
272
     2
274
     3
278
    44
283
     0
284
     8
340
11
  0
ENDTAB
  0
TABLE
  2
BLOCK_RECORD
  5
1
330
0
100
AcDbSymbolTable
 70
     1
  0
BLOCK_RECORD
  5
1F
330
1
100
AcDbSymbolTableRecord
100
AcDbBlockTableRecord
  2
*Model_Space
340
22
 70
     0
280
     1
281
     0
  0
BLOCK_RECORD
  5
1B
330
1
100
AcDbSymbolTableRecord
100
AcDbBlockTableRecord
  2
*Paper_Space
340
1E
 70
     0
280
     1
281
     0
  0
BLOCK_RECORD
  5
23
330
1
100
AcDbSymbolTableRecord
100
AcDbBlockTableRecord
  2
*Paper_Space0
340
26
 70
     0
280
     1
281
     0
  0
ENDTAB
  0
ENDSEC
  0
SECTION
  2
BLOCKS
  0
BLOCK
  5
20
330
1F
100
AcDbEntity
  8
0
100
AcDbBlockBegin
  2
*Model_Space
 70
     0
 10
0.0
 20
0.0
 30
0.0
  3
*Model_Space
  1

  0
ENDBLK
  5
21
330
1F
100
AcDbEntity
  8
0
100
AcDbBlockEnd
  0
BLOCK
  5
1C
330
1B
100
AcDbEntity
 67
     1
  8
0
100
AcDbBlockBegin
  2
*Paper_Space
 70
     0
 10
0.0
 20
0.0
 30
0.0
  3
*Paper_Space
  1

  0
ENDBLK
  5
1D
330
1B
100
AcDbEntity
 67
     1
  8
0
100
AcDbBlockEnd
  0
BLOCK
  5
24
330
23
100
AcDbEntity
  8
0
100
AcDbBlockBegin
  2
*Paper_Space0
 70
     0
 10
0.0
 20
0.0
 30
0.0
  3
*Paper_Space0
  1

  0
ENDBLK
  5
25
330
23
100
AcDbEntity
  8
0
100
AcDbBlockEnd
  0
ENDSEC
  0
SECTION
  2
ENTITIES
  0
LINE
  5
78
330
1F
100
AcDbEntity
  8
A-1_ピット
  6
Continuous
 62
     2
370
     9
100
AcDbLine
 10
73.9347864225108
 20
219.8602603659438
 30
0.0
 11
83.9348194144871
 21
219.8602603659438
 31
0.0
  0
LINE
  5
79
330
1F
100
AcDbEntity
  8
A-1_ピット
  6
Continuous
 62
     2
370
     9
100
AcDbLine
 10
83.9348194144871
 20
219.8602603659438
 30
0.0
 11
63.93475343053431
 21
179.8602521179496
 31
0.0
  0
LINE
  5
7A
330
1F
100
AcDbEntity
  8
A-1_ピット
  6
Continuous
 62
     2
370
     9
100
AcDbLine
 10
63.93475343053431
 20
179.8602521179496
 30
0.0
 11
73.9347864225108
 21
179.8602521179496
 31
0.0
  0
LINE
  5
7B
330
1F
100
AcDbEntity
  8
A-F
  6
Continuous
 62
     7
370
     9
100
AcDbLine
 10
-755.0652329602756
 20
-30.11458325208844
 30
0.0
 11
-157.065134396746
 21
-30.11458325208844
 31
0.0
  0
LINE
  5
7C
330
1F
100
AcDbEntity
  8
A-F
  6
Continuous
 62
     7
370
     9
100
AcDbLine
 10
-755.0652329602756
 20
40.88542829510337
 30
0.0
 11
-755.0652329602756
 21
-31.3145426719575
 31
0.0
  0
LINE
  5
7D
330
1F
100
AcDbEntity
  8
A-F
  6
Continuous
 62
     7
370
     9
100
AcDbLine
 10
-755.0652329602756
 20
-30.11458325208844
 30
0.0
 11
-743.1678932682887
 21
-28.54828917480802
 31
0.0
  0
LINE
  5
7E
330
1F
100
AcDbEntity
  8
A-F
  6
Continuous
 62
     7
370
     9
100
AcDbLine
 10
-755.0652329602756
 20
-30.11458325208844
 30
0.0
 11
-743.1678932682887
 21
-31.68087732936883
 31
0.0
  0
LINE
  5
7F
330
1F
100
AcDbEntity
  8
A-F
  6
Continuous
 62
     7
370
     9
100
AcDbLine
 10
-157.065134396746
 20
-30.11458325208844
 30
0.0
 11
-168.962474088733
 21
-28.54828917480802
 31
0.0
  0
LINE
  5
80
330
1F
100
AcDbEntity
  8
A-F
  6
Continuous
 62
     7
370
     9
100
AcDbLine
 10
-157.065134396746
 20
-30.11458325208844
 30
0.0
 11
-168.962474088733
 21
-31.68087732936883
 31
0.0
  0
LINE
  5
81
330
1F
100
AcDbEntity
  8
A-F
  6
Continuous
 62
     7
370
     9
100
AcDbLine
 10
-155.0651401703419
 20
40.88542829510337
 30
0.0
 11
-155.0651401703419
 21
-31.61456345690262
 31
0.0
  0
LINE
  5
82
330
1F
100
AcDbEntity
  8
A-F
  6
Continuous
 62
     7
370
     9
100
AcDbLine
 10
-155.0651401703419
 20
-30.11458325208844
 30
0.0
 11
-140.1934500903693
 21
-28.15671565548792
 31
0.0
  0
LINE
  5
83
330
1F
100
AcDbEntity
  8
A-F
  6
Continuous
 62
     7
370
     9
100
AcDbLine
 10
-155.0651401703419
 20
-30.11458325208844
 30
0.0
 11
-140.1934500903693
 21
-32.07245084868887
 31
0.0
  0
LINE
  5
84
330
1F
100
AcDbEntity
  8
A-F
  6
Continuous
 62
     7
370
     9
100
AcDbLine
 10
-155.0651401703419
 20
-30.11458325208844
 30
0.0
 11
73.9347864225108
 21
-30.11458325208844
 31
0.0
  0
LINE
  5
85
330
1F
100
AcDbEntity
  8
A-F
  6
Continuous
 62
     7
370
     9
100
AcDbLine
 10
-157.065134396746
 20
40.88542829510337
 30
0.0
 11
-157.065134396746
 21
-31.61456345690262
 31
0.0
  0
LINE
  5
86
330
1F
100
AcDbEntity
  8
A-F
  6
Continuous
 62
     7
370
     9
100
AcDbLine
 10
435.4522853667675
 20
88.54060605587186
 30
0.0
 11
429.2921472623544
 21
74.86386473936014
 31
0.0
  0
LINE
  5
87
330
1F
100
AcDbEntity
  8
A-F
  6
Continuous
 62
     7
370
     9
100
AcDbLine
 10
435.4522853667675
 20
88.54060605587186
 30
0.0
 11
425.962225849242
 21
76.92429614244283
 31
0.0
  0
LINE
  5
88
330
1F
100
AcDbEntity
  8
A-F
  6
Continuous
 62
     7
370
     9
100
AcDbLine
 10
435.4522853667675
 20
39.88533839196782
 30
0.0
 11
435.4522853667675
 21
-81.6146046968731
 31
0.0
  0
LINE
  5
89
330
1F
100
AcDbEntity
  8
A-F
  6
Continuous
 62
     7
370
     9
100
AcDbLine
 10
460.452244126797
 20
-30.11464511204402
 30
0.0
 11
475.3238723468139
 21
-28.15677751544357
 31
0.0
  0
LINE
  5
8A
330
1F
100
AcDbEntity
  8
A-F
  6
Continuous
 62
     7
370
     9
100
AcDbLine
 10
460.452244126797
 20
-30.11464511204402
 30
0.0
 11
475.3238723468139
 21
-32.07251270864454
 31
0.0
  0
LINE
  5
8B
330
1F
100
AcDbEntity
  8
A-F
  6
Continuous
 62
     7
370
     9
100
AcDbLine
 10
435.4522853667675
 20
-30.11464511204402
 30
0.0
 11
420.5806571467508
 21
-28.15677751544357
 31
0.0
  0
LINE
  5
8C
330
1F
100
AcDbEntity
  8
A-F
  6
Continuous
 62
     7
370
     9
100
AcDbLine
 10
435.4522853667675
 20
-30.11464511204402
 30
0.0
 11
420.5806571467508
 21
-32.07251270864454
 31
0.0
  0
LINE
  5
8D
330
1F
100
AcDbEntity
  8
A-F
  6
Continuous
 62
     7
370
     9
100
AcDbLine
 10
492.6520831259525
 20
-80.11462449205887
 30
0.0
 11
507.5237113459694
 21
-78.15675689545834
 31
0.0
  0
LINE
  5
8E
330
1F
100
AcDbEntity
  8
A-F
  6
Continuous
 62
     7
370
     9
100
AcDbLine
 10
492.6520831259525
 20
-80.11462449205887
 30
0.0
 11
507.5237113459694
 21
-82.07249208865932
 31
0.0
  0
LINE
  5
8F
330
1F
100
AcDbEntity
  8
A-F
  6
Continuous
 62
     7
370
     9
100
AcDbLine
 10
435.4522853667675
 20
-80.11462449205887
 30
0.0
 11
420.5806571467508
 21
-78.15675689545834
 31
0.0
  0
LINE
  5
90
330
1F
100
AcDbEntity
  8
A-F
  6
Continuous
 62
     7
370
     9
100
AcDbLine
 10
435.4522853667675
 20
-80.11462449205887
 30
0.0
 11
420.5806571467508
 21
-82.07249208865932
 31
0.0
  0
LINE
  5
91
330
1F
100
AcDbEntity
  8
A-F
  6
Continuous
 62
     7
370
     9
100
AcDbLine
 10
492.6520831259525
 20
10.88526745921861
 30
0.0
 11
492.6520831259525
 21
-81.6146046968731
 31
0.0
  0
LINE
  5
92
330
1F
100
AcDbEntity
  8
A-F
  6
Continuous
 62
     7
370
     9
100
AcDbLine
 10
460.452244126797
 20
30.88527158321559
 30
0.0
 11
460.452244126797
 21
-31.61462531685823
 31
0.0
  0
LINE
  5
93
330
1F
100
AcDbEntity
  8
A-F
  6
Continuous
 62
     7
370
     9
100
AcDbLine
 10
463.6521359131144
 20
30.88527158321559
 30
0.0
 11
463.6521359131144
 21
-81.6146046968731
 31
0.0
  0
LINE
  5
94
330
1F
100
AcDbEntity
  8
A-F
  6
Continuous
 62
     7
370
     9
100
AcDbLine
 10
463.6521359131144
 20
-80.11462449205887
 30
0.0
 11
373.4547531665987
 21
-80.11462449205887
 31
0.0
  0
LINE
  5
95
330
1F
100
AcDbEntity
  8
A-F
  6
Continuous
 62
     7
370
     9
100
AcDbLine
 10
533.5371836195123
 20
-80.11462449205887
 30
0.0
 11
463.6521359131144
 21
-80.11462449205887
 31
0.0
  0
LINE
  5
96
330
1F
100
AcDbEntity
  8
A-F
  6
Continuous
 62
     7
370
     9
100
AcDbLine
 10
482.3845676857075
 20
-30.11464511204402
 30
0.0
 11
396.0858467846306
 21
-30.11464511204402
 31
0.0
  0
LINE
  5
97
330
1F
100
AcDbEntity
  8
A-0_通り芯
  6
Continuous
 62
     3
370
     9
100
AcDbLine
 10
-751.1585911805564
 20
-239.7571688002831
 30
0.0
 11
-751.940748459906
 21
-228.0243765903485
 31
0.0
  0
LINE
  5
98
330
1F
100
AcDbEntity
  8
A-0_通り芯
  6
Continuous
 62
     3
370
     9
100
AcDbLine
 10
-208.2066155385323
 20
-248.4779379092358
 30
0.0
 11
-197.6650604947191
 21
-241.1574307565754
 31
0.0
  0
LINE
  5
99
330
1F
100
AcDbEntity
  8
A-0_通り芯
  6
Continuous
 62
     3
370
     9
100
AcDbLine
 10
-703.9236280985779
 20
-248.4779997691914
 30
0.0
 11
-714.465214072369
 21
-241.1574307565754
 31
0.0
  0
LINE
  5
9A
330
1F
100
AcDbEntity
  8
A-0_通り芯
  6
Continuous
 62
     3
370
     9
100
AcDbLine
 10
-157.7542543027849
 20
-218.745383241531
 30
0.0
 11
-157.065134396746
 21
-221.1574266325783
 31
0.0
  0
LINE
  5
9B
330
1F
100
AcDbEntity
  8
A-0_通り芯
  6
Continuous
 62
     3
370
     9
100
AcDbLine
 10
-754.0652049170956
 20
-226.1574431285664
 30
0.0
 11
-158.0650387200146
 21
-226.1574431285664
 31
0.0
  0
LINE
  5
9C
330
1F
100
AcDbEntity
  8
A-0_通り芯
  6
Continuous
 62
     3
370
     9
100
AcDbLine
 10
-157.065134396746
 20
-221.1574266325783
 30
0.0
 11
-158.0650387200146
 21
-226.1574431285664
 31
0.0
  0
LINE
  5
9D
330
1F
100
AcDbEntity
  8
A-0_通り芯
  6
Continuous
 62
     3
370
     9
100
AcDbLine
 10
-160.9719617563322
 20
-239.7571688002831
 30
0.0
 11
-160.1895570371599
 21
-228.0243765903485
 31
0.0
  0
LINE
  5
9E
330
1F
100
AcDbEntity
  8
A-0_通り芯
  6
Continuous
 62
     3
370
     9
100
AcDbLine
 10
-752.9337863280965
 20
-217.6573903414043
 30
0.0
 11
-159.196581028925
 21
-217.6573903414043
 31
0.0
  0
LINE
  5
9F
330
1F
100
AcDbEntity
  8
A-0_通り芯
  6
Continuous
 62
     3
370
     9
100
AcDbLine
 10
-755.0652329602756
 20
-221.1574266325783
 30
0.0
 11
-754.0652049170956
 21
-226.1574431285664
 31
0.0
  0
LINE
  5
A0
330
1F
100
AcDbEntity
  8
A-0_通り芯
  6
Continuous
 62
     3
370
     9
100
AcDbLine
 10
-754.376051194281
 20
-218.745383241531
 30
0.0
 11
-755.0652329602756
 21
-221.1574266325783
 31
0.0
  0
LINE
  5
A1
330
1F
100
AcDbEntity
  8
A-0_通り芯
  6
Continuous
 62
     3
370
     9
100
AcDbLine
 10
-755.0652329602756
 20
-221.1574266325783
 30
0.0
 11
-157.065134396746
 21
-221.1574266325783
 31
0.0
  0
LINE
  5
A2
330
1F
100
AcDbEntity
  8
A-0_通り芯
  6
Continuous
 62
     3
370
     9
100
AcDbLine
 10
-701.2425557603705
 20
-241.1574307565754
 30
0.0
 11
-749.661889553392
 21
-241.1574307565754
 31
0.0
  0
LINE
  5
A3
330
1F
100
AcDbEntity
  8
A-0_通り芯
  6
Continuous
 62
     3
370
     9
100
AcDbLine
 10
-162.4684778036295
 20
-241.1574307565754
 30
0.0
 11
-672.8052248442493
 21
-241.1574307565754
 31
0.0
  0
LINE
  5
A4
330
1F
100
AcDbEntity
  8
A-0_通り芯
  6
Continuous
 62
     3
370
     9
100
AcDbLine
 10
-672.8052248442493
 20
-241.1574307565754
 30
0.0
 11
-701.2425557603705
 21
-241.1574307565754
 31
0.0
  0
LINE
  5
A5
330
1F
100
AcDbEntity
  8
A-0_通り芯
  6
Continuous
 62
     3
370
     9
100
AcDbLine
 10
-678.0652387338714
 20
-265.1574233333806
 30
0.0
 11
-678.0652387338714
 21
-289.1574159101859
 31
0.0
  0
LINE
  5
A6
330
1F
100
AcDbEntity
  8
A-0_通り芯
  6
Continuous
 62
     3
370
     9
100
AcDbLine
 10
-683.0652552298595
 20
-265.1574233333806
 30
0.0
 11
-683.0652552298595
 21
-289.1574159101859
 31
0.0
  0
LINE
  5
A7
330
1F
100
AcDbEntity
  8
A-0_通り芯
  6
Continuous
 62
     3
370
     9
100
AcDbLine
 10
-690.0652040922962
 20
-251.157401888596
 30
0.0
 11
-695.3676539115002
 21
-251.157401888596
 31
0.0
  0
LINE
  5
A8
330
1F
100
AcDbEntity
  8
A-0_通り芯
  6
Continuous
 62
     3
370
     9
100
AcDbLine
 10
-691.0652321354762
 20
-265.1574233333806
 30
0.0
 11
-691.0652321354762
 21
-289.1574159101859
 31
0.0
  0
LINE
  5
A9
330
1F
100
AcDbEntity
  8
A-0_通り芯
  6
Continuous
 62
     3
370
     9
100
AcDbLine
 10
-696.0651867715086
 20
-265.1574233333806
 30
0.0
 11
-696.0651867715086
 21
-289.1573540502303
 31
0.0
  0
LINE
  5
AA
330
1F
100
AcDbEntity
  8
A-0_通り芯
  6
Continuous
 62
     3
370
     9
100
AcDbLine
 10
-684.5652354346737
 20
-290.6574579749558
 30
0.0
 11
-684.5652354346737
 21
-310.6574002389973
 31
0.0
  0
LINE
  5
AB
330
1F
100
AcDbEntity
  8
A-0_通り芯
  6
Continuous
 62
     3
370
     9
100
AcDbLine
 10
-689.5651900707062
 20
-290.6574579749558
 30
0.0
 11
-689.5651900707062
 21
-305.3011941183257
 31
0.0
  0
LINE
  5
AC
330
1F
100
AcDbEntity
  8
A-0_通り芯
  6
Continuous
 62
     3
370
     9
100
AcDbLine
 10
-680.5456373759216
 20
-314.9633480324939
 30
0.0
 11
-693.3560300134321
 21
-301.2403354691492
 31
0.0
  0
LINE
  5
AD
330
1F
100
AcDbEntity
  8
A-0_通り芯
  6
Continuous
 62
     3
370
     9
100
AcDbLine
 10
-234.0651904831058
 20
-265.1574233333806
 30
0.0
 11
-234.0651904831058
 21
-289.1574159101859
 31
0.0
  0
LINE
  5
AE
330
1F
100
AcDbEntity
  8
A-0_通り芯
  6
Continuous
 62
     3
370
     9
100
AcDbLine
 10
-229.0650502672063
 20
-265.1574233333806
 30
0.0
 11
-229.0650502672063
 21
-289.1574159101859
 31
0.0
  0
LINE
  5
AF
330
1F
100
AcDbEntity
  8
A-0_通り芯
  6
Continuous
 62
     3
370
     9
100
AcDbLine
 10
-221.0650733615898
 20
-265.1574233333806
 30
0.0
 11
-221.0650733615898
 21
-289.1574159101859
 31
0.0
  0
LINE
  5
B0
330
1F
100
AcDbEntity
  8
A-0_通り芯
  6
Continuous
 62
     3
370
     9
100
AcDbLine
 10
-216.0650568656016
 20
-265.1574233333806
 30
0.0
 11
-216.0650568656016
 21
-289.1573540502303
 31
0.0
  0
LINE
  5
B1
330
1F
100
AcDbEntity
  8
A-0_通り芯
  6
Continuous
 62
     3
370
     9
100
AcDbLine
 10
-227.5651937823034
 20
-290.6574579749558
 30
0.0
 11
-227.5651937823034
 21
-310.6574002389973
 31
0.0
  0
LINE
  5
B2
330
1F
100
AcDbEntity
  8
A-0_通り芯
  6
Continuous
 62
     3
370
     9
100
AcDbLine
 10
-222.5651772863153
 20
-290.6574579749558
 30
0.0
 11
-222.5651772863153
 21
-305.3011941183257
 31
0.0
  0
LINE
  5
B3
330
1F
100
AcDbEntity
  8
A-0_通り芯
  6
Continuous
 62
     3
370
     9
100
AcDbLine
 10
-231.5847299810999
 20
-314.9633480324939
 30
0.0
 11
-218.7742754836336
 21
-301.2403354691492
 31
0.0
  0
LINE
  5
B4
330
1F
100
AcDbEntity
  8
A-0_通り芯
  6
Continuous
 62
     3
370
     9
100
AcDbLine
 10
-684.0652214130837
 20
-251.157401888596
 30
0.0
 11
-228.0650222240265
 21
-251.157401888596
 31
0.0
  0
LINE
  5
B5
330
1F
100
AcDbEntity
  8
A-0_通り芯
  6
Continuous
 62
     3
370
     9
100
AcDbLine
 10
-222.0651014047697
 20
-251.157401888596
 30
0.0
 11
-216.7625897256101
 21
-251.157401888596
 31
0.0
  0
LINE
  5
B6
330
1F
100
AcDbEntity
  8
A-0_通り芯
  6
Continuous
 62
     3
370
     9
100
AcDbLine
 10
-749.5105182418949
 20
-216.8253739377936
 30
0.0
 11
-750.0652164642873
 21
-217.6573903414043
 31
0.0
  0
LINE
  5
B7
330
1F
100
AcDbEntity
  8
A-0_通り芯
  6
Continuous
 62
     3
370
     9
100
AcDbLine
 10
-735.8679854808624
 20
-216.1574101365901
 30
0.0
 11
-748.2624627065012
 21
-216.1574101365901
 31
0.0
  0
LINE
  5
B8
330
1F
100
AcDbEntity
  8
A-0_通り芯
  6
Continuous
 62
     3
370
     9
100
AcDbLine
 10
-734.6198990154909
 20
-216.8253739377936
 30
0.0
 11
-734.0652007930986
 21
-217.6573903414043
 31
0.0
  0
LINE
  5
B9
330
1F
100
AcDbEntity
  8
A-0_通り芯
  6
Continuous
 62
     3
370
     9
100
AcDbLine
 10
-727.5105198914939
 20
-216.8253739377936
 30
0.0
 11
-728.0652181138861
 21
-217.6573903414043
 31
0.0
  0
LINE
  5
BA
330
1F
100
AcDbEntity
  8
A-0_通り芯
  6
Continuous
 62
     3
370
     9
100
AcDbLine
 10
-713.8679871304613
 20
-216.1574101365901
 30
0.0
 11
-726.2624643561
 21
-216.1574101365901
 31
0.0
  0
LINE
  5
BB
330
1F
100
AcDbEntity
  8
A-0_通り芯
  6
Continuous
 62
     3
370
     9
100
AcDbLine
 10
-712.6199315950676
 20
-216.8253739377936
 30
0.0
 11
-712.0652024426975
 21
-217.6573903414043
 31
0.0
  0
LINE
  5
BC
330
1F
100
AcDbEntity
  8
A-0_通り芯
  6
Continuous
 62
     3
370
     9
100
AcDbLine
 10
-705.5105215410925
 20
-216.8253739377936
 30
0.0
 11
-706.0652197634851
 21
-217.6573903414043
 31
0.0
  0
LINE
  5
BD
330
1F
100
AcDbEntity
  8
A-0_通り芯
  6
Continuous
 62
     3
370
     9
100
AcDbLine
 10
-691.86798878006
 20
-216.1574101365901
 30
0.0
 11
-704.262435075721
 21
-216.1574101365901
 31
0.0
  0
LINE
  5
BE
330
1F
100
AcDbEntity
  8
A-0_通り芯
  6
Continuous
 62
     3
370
     9
100
AcDbLine
 10
-690.6199023146884
 20
-216.8253739377936
 30
0.0
 11
-690.0652040922962
 21
-217.6573903414043
 31
0.0
  0
LINE
  5
BF
330
1F
100
AcDbEntity
  8
A-0_通り芯
  6
Continuous
 62
     3
370
     9
100
AcDbLine
 10
-683.5105231906915
 20
-216.8253739377936
 30
0.0
 11
-684.0652214130837
 21
-217.6573903414043
 31
0.0
  0
LINE
  5
C0
330
1F
100
AcDbEntity
  8
A-0_通り芯
  6
Continuous
 62
     3
370
     9
100
AcDbLine
 10
-669.8679285697033
 20
-216.1574101365901
 30
0.0
 11
-682.26243672532
 21
-216.1574101365901
 31
0.0
  0
LINE
  5
C1
330
1F
100
AcDbEntity
  8
A-0_通り芯
  6
Continuous
 62
     3
370
     9
100
AcDbLine
 10
-668.6199039642873
 20
-216.8253739377936
 30
0.0
 11
-668.0652057418949
 21
-217.6573903414043
 31
0.0
  0
LINE
  5
C2
330
1F
100
AcDbEntity
  8
A-0_通り芯
  6
Continuous
 62
     3
370
     9
100
AcDbLine
 10
-661.5105248402903
 20
-216.8253739377936
 30
0.0
 11
-662.0652230626825
 21
-217.6573903414043
 31
0.0
  0
LINE
  5
C3
330
1F
100
AcDbEntity
  8
A-0_通り芯
  6
Continuous
 62
     3
370
     9
100
AcDbLine
 10
-647.8679920792576
 20
-216.1574101365901
 30
0.0
 11
-660.2624383749186
 21
-216.1574101365901
 31
0.0
  0
LINE
  5
C4
330
1F
100
AcDbEntity
  8
A-0_通り芯
  6
Continuous
 62
     3
370
     9
100
AcDbLine
 10
-646.6199056138861
 20
-216.8253739377936
 30
0.0
 11
-646.0652073914937
 21
-217.6573903414043
 31
0.0
  0
LINE
  5
C5
330
1F
100
AcDbEntity
  8
A-0_通り芯
  6
Continuous
 62
     3
370
     9
100
AcDbLine
 10
-639.5105264898891
 20
-216.8253739377936
 30
0.0
 11
-640.0652247122814
 21
-217.6573903414043
 31
0.0
  0
LINE
  5
C6
330
1F
100
AcDbEntity
  8
A-0_通り芯
  6
Continuous
 62
     3
370
     9
100
AcDbLine
 10
-625.8679318689009
 20
-216.1574101365901
 30
0.0
 11
-638.2624400245174
 21
-216.1574101365901
 31
0.0
  0
LINE
  5
C7
330
1F
100
AcDbEntity
  8
A-0_通り芯
  6
Continuous
 62
     3
370
     9
100
AcDbLine
 10
-624.619907263485
 20
-216.8253739377936
 30
0.0
 11
-624.0652090410925
 21
-217.6573903414043
 31
0.0
  0
LINE
  5
C8
330
1F
100
AcDbEntity
  8
A-0_通り芯
  6
Continuous
 62
     3
370
     9
100
AcDbLine
 10
-617.5105281394879
 20
-216.8253739377936
 30
0.0
 11
-618.0651645019245
 21
-217.6573903414043
 31
0.0
  0
LINE
  5
C9
330
1F
100
AcDbEntity
  8
A-0_通り芯
  6
Continuous
 62
     3
370
     9
100
AcDbLine
 10
-603.8679953784554
 20
-216.1574101365901
 30
0.0
 11
-616.2624416741163
 21
-216.1574101365901
 31
0.0
  0
LINE
  5
CA
330
1F
100
AcDbEntity
  8
A-0_通り芯
  6
Continuous
 62
     3
370
     9
100
AcDbLine
 10
-602.6199089130837
 20
-216.8253739377936
 30
0.0
 11
-602.0652106906914
 21
-217.6573903414043
 31
0.0
  0
LINE
  5
CB
330
1F
100
AcDbEntity
  8
A-0_通り芯
  6
Continuous
 62
     3
370
     9
100
AcDbLine
 10
-595.5105297890867
 20
-216.8253739377936
 30
0.0
 11
-596.065228011479
 21
-217.6573903414043
 31
0.0
  0
LINE
  5
CC
330
1F
100
AcDbEntity
  8
A-0_通り芯
  6
Continuous
 62
     3
370
     9
100
AcDbLine
 10
-581.8679970280541
 20
-216.1574101365901
 30
0.0
 11
-594.2624433237152
 21
-216.1574101365901
 31
0.0
  0
LINE
  5
CD
330
1F
100
AcDbEntity
  8
A-0_通り芯
  6
Continuous
 62
     3
370
     9
100
AcDbLine
 10
-580.6199105626825
 20
-216.8253739377936
 30
0.0
 11
-580.0652123402903
 21
-217.6573903414043
 31
0.0
  0
LINE
  5
CE
330
1F
100
AcDbEntity
  8
A-0_通り芯
  6
Continuous
 62
     3
370
     9
100
AcDbLine
 10
-573.5105314386856
 20
-216.8253739377936
 30
0.0
 11
-574.0652296610779
 21
-217.6573903414043
 31
0.0
  0
LINE
  5
CF
330
1F
100
AcDbEntity
  8
A-0_通り芯
  6
Continuous
 62
     3
370
     9
100
AcDbLine
 10
-559.8679368176972
 20
-216.1574101365901
 30
0.0
 11
-572.2624449733139
 21
-216.1574101365901
 31
0.0
  0
LINE
  5
D0
330
1F
100
AcDbEntity
  8
A-0_通り芯
  6
Continuous
 62
     3
370
     9
100
AcDbLine
 10
-558.6199122122814
 20
-216.8253739377936
 30
0.0
 11
-558.0652139898891
 21
-217.6573903414043
 31
0.0
  0
LINE
  5
D1
330
1F
100
AcDbEntity
  8
A-0_通り芯
  6
Continuous
 62
     3
370
     9
100
AcDbLine
 10
-551.5105640182621
 20
-216.8253739377936
 30
0.0
 11
-552.0652003806988
 21
-217.6573903414043
 31
0.0
  0
LINE
  5
D2
330
1F
100
AcDbEntity
  8
A-0_通り芯
  6
Continuous
 62
     3
370
     9
100
AcDbLine
 10
-537.867969397274
 20
-216.1574101365901
 30
0.0
 11
-550.2624775528905
 21
-216.1574101365901
 31
0.0
  0
LINE
  5
D3
330
1F
100
AcDbEntity
  8
A-0_通り芯
  6
Continuous
 62
     3
370
     9
100
AcDbLine
 10
-536.6198829319023
 20
-216.8253739377936
 30
0.0
 11
-536.0652465694658
 21
-217.6573903414043
 31
0.0
  0
LINE
  5
D4
330
1F
100
AcDbEntity
  8
A-0_通り芯
  6
Continuous
 62
     3
370
     9
100
AcDbLine
 10
-529.5105656678609
 20
-216.8253739377936
 30
0.0
 11
-530.0652020302977
 21
-217.6573903414043
 31
0.0
  0
LINE
  5
D5
330
1F
100
AcDbEntity
  8
A-0_通り芯
  6
Continuous
 62
     3
370
     9
100
AcDbLine
 10
-515.8679710468728
 20
-216.1574101365901
 30
0.0
 11
-528.2624792024893
 21
-216.1574101365901
 31
0.0
  0
LINE
  5
D6
330
1F
100
AcDbEntity
  8
A-0_通り芯
  6
Continuous
 62
     3
370
     9
100
AcDbLine
 10
-514.6200083014126
 20
-216.8253739377936
 30
0.0
 11
-514.0652482190644
 21
-217.6573903414043
 31
0.0
  0
LINE
  5
D7
330
1F
100
AcDbEntity
  8
A-0_通り芯
  6
Continuous
 62
     3
370
     9
100
AcDbLine
 10
-507.5105673174597
 20
-216.8253739377936
 30
0.0
 11
-508.0652036798965
 21
-217.6573903414043
 31
0.0
  0
LINE
  5
D8
330
1F
100
AcDbEntity
  8
A-0_通り芯
  6
Continuous
 62
     3
370
     9
100
AcDbLine
 10
-493.8679726964716
 20
-216.1574101365901
 30
0.0
 11
-506.2624808520882
 21
-216.1574101365901
 31
0.0
  0
LINE
  5
D9
330
1F
100
AcDbEntity
  8
A-0_通り芯
  6
Continuous
 62
     3
370
     9
100
AcDbLine
 10
-492.6198862310999
 20
-216.8253739377936
 30
0.0
 11
-492.0652498686633
 21
-217.6573903414043
 31
0.0
  0
LINE
  5
DA
330
1F
100
AcDbEntity
  8
A-0_通り芯
  6
Continuous
 62
     3
370
     9
100
AcDbLine
 10
-485.5105689670586
 20
-216.8253739377936
 30
0.0
 11
-486.0652053294953
 21
-217.6573903414043
 31
0.0
  0
LINE
  5
DB
330
1F
100
AcDbEntity
  8
A-0_通り芯
  6
Continuous
 62
     3
370
     9
100
AcDbLine
 10
-471.8679743460705
 20
-216.1574101365901
 30
0.0
 11
-484.2624825016869
 21
-216.1574101365901
 31
0.0
  0
LINE
  5
DC
330
1F
100
AcDbEntity
  8
A-0_通り芯
  6
Continuous
 62
     3
370
     9
100
AcDbLine
 10
-470.6198878806988
 20
-216.8253739377936
 30
0.0
 11
-470.0652515182621
 21
-217.6573903414043
 31
0.0
  0
LINE
  5
DD
330
1F
100
AcDbEntity
  8
A-0_通り芯
  6
Continuous
 62
     3
370
     9
100
AcDbLine
 10
-463.5104468967461
 20
-216.8253739377936
 30
0.0
 11
-464.065206979094
 21
-217.6573903414043
 31
0.0
  0
LINE
  5
DE
330
1F
100
AcDbEntity
  8
A-0_通り芯
  6
Continuous
 62
     3
370
     9
100
AcDbLine
 10
-449.8679759956692
 20
-216.1574101365901
 30
0.0
 11
-462.2624841512858
 21
-216.1574101365901
 31
0.0
  0
LINE
  5
DF
330
1F
100
AcDbEntity
  8
A-0_通り芯
  6
Continuous
 62
     3
370
     9
100
AcDbLine
 10
-448.6198895302976
 20
-216.8253739377936
 30
0.0
 11
-448.0652531678609
 21
-217.6573903414043
 31
0.0
  0
LINE
  5
E0
330
1F
100
AcDbEntity
  8
A-0_通り芯
  6
Continuous
 62
     3
370
     9
100
AcDbLine
 10
-441.5104485463449
 20
-216.8253739377936
 30
0.0
 11
-442.0652086286929
 21
-217.6573903414043
 31
0.0
  0
LINE
  5
E1
330
1F
100
AcDbEntity
  8
A-0_通り芯
  6
Continuous
 62
     3
370
     9
100
AcDbLine
 10
-427.8679776452681
 20
-216.1574101365901
 30
0.0
 11
-440.2624858008846
 21
-216.1574101365901
 31
0.0
  0
LINE
  5
E2
330
1F
100
AcDbEntity
  8
A-0_通り芯
  6
Continuous
 62
     3
370
     9
100
AcDbLine
 10
-426.6198911798965
 20
-216.8253739377936
 30
0.0
 11
-426.0652548174597
 21
-217.6573903414043
 31
0.0
  0
LINE
  5
E3
330
1F
100
AcDbEntity
  8
A-0_通り芯
  6
Continuous
 62
     3
370
     9
100
AcDbLine
 10
-419.5104501959437
 20
-216.8253739377936
 30
0.0
 11
-420.0652102782918
 21
-217.6573903414043
 31
0.0
  0
LINE
  5
E4
330
1F
100
AcDbEntity
  8
A-0_通り芯
  6
Continuous
 62
     3
370
     9
100
AcDbLine
 10
-405.8678555749556
 20
-216.1574101365901
 30
0.0
 11
-418.2623637305721
 21
-216.1574101365901
 31
0.0
  0
LINE
  5
E5
330
1F
100
AcDbEntity
  8
A-0_通り芯
  6
Continuous
 62
     3
370
     9
100
AcDbLine
 10
-404.6198928294953
 20
-216.8253739377936
 30
0.0
 11
-404.0651327471472
 21
-217.6573903414043
 31
0.0
  0
LINE
  5
E6
330
1F
100
AcDbEntity
  8
A-0_通り芯
  6
Continuous
 62
     3
370
     9
100
AcDbLine
 10
-397.5104518455425
 20
-216.8253739377936
 30
0.0
 11
-398.0652119278905
 21
-217.6573903414043
 31
0.0
  0
LINE
  5
E7
330
1F
100
AcDbEntity
  8
A-0_通り芯
  6
Continuous
 62
     3
370
     9
100
AcDbLine
 10
-383.8678572245544
 20
-216.1574101365901
 30
0.0
 11
-396.262365380171
 21
-216.1574101365901
 31
0.0
  0
LINE
  5
E8
330
1F
100
AcDbEntity
  8
A-0_通り芯
  6
Continuous
 62
     3
370
     9
100
AcDbLine
 10
-382.6198944790941
 20
-216.8253739377936
 30
0.0
 11
-382.065134396746
 21
-217.6573903414043
 31
0.0
  0
LINE
  5
E9
330
1F
100
AcDbEntity
  8
A-0_通り芯
  6
Continuous
 62
     3
370
     9
100
AcDbLine
 10
-375.5104534951413
 20
-216.8253739377936
 30
0.0
 11
-376.0652135774893
 21
-217.6573903414043
 31
0.0
  0
LINE
  5
EA
330
1F
100
AcDbEntity
  8
A-0_通り芯
  6
Continuous
 62
     3
370
     9
100
AcDbLine
 10
-361.8678588741532
 20
-216.1574101365901
 30
0.0
 11
-374.2623670297697
 21
-216.1574101365901
 31
0.0
  0
LINE
  5
EB
330
1F
100
AcDbEntity
  8
A-0_通り芯
  6
Continuous
 62
     3
370
     9
100
AcDbLine
 10
-360.6197724087816
 20
-216.8253739377936
 30
0.0
 11
-360.0651360463448
 21
-217.6573903414043
 31
0.0
  0
LINE
  5
EC
330
1F
100
AcDbEntity
  8
A-0_通り芯
  6
Continuous
 62
     3
370
     9
100
AcDbLine
 10
-353.5104551447401
 20
-216.8253739377936
 30
0.0
 11
-354.0652152270881
 21
-217.6573903414043
 31
0.0
  0
LINE
  5
ED
330
1F
100
AcDbEntity
  8
A-0_通り芯
  6
Continuous
 62
     3
370
     9
100
AcDbLine
 10
-339.867860523752
 20
-216.1574101365901
 30
0.0
 11
-352.2623686793685
 21
-216.1574101365901
 31
0.0
  0
LINE
  5
EE
330
1F
100
AcDbEntity
  8
A-0_通り芯
  6
Continuous
 62
     3
370
     9
100
AcDbLine
 10
-338.6197740583804
 20
-216.8253739377936
 30
0.0
 11
-338.0651376959437
 21
-217.6573903414043
 31
0.0
  0
LINE
  5
EF
330
1F
100
AcDbEntity
  8
A-0_通り芯
  6
Continuous
 62
     3
370
     9
100
AcDbLine
 10
-331.510456794339
 20
-216.8253739377936
 30
0.0
 11
-332.0650931567756
 21
-217.6573903414043
 31
0.0
  0
LINE
  5
F0
330
1F
100
AcDbEntity
  8
A-0_通り芯
  6
Continuous
 62
     3
370
     9
100
AcDbLine
 10
-317.8678621733508
 20
-216.1574101365901
 30
0.0
 11
-330.2623703289674
 21
-216.1574101365901
 31
0.0
  0
LINE
  5
F1
330
1F
100
AcDbEntity
  8
A-0_通り芯
  6
Continuous
 62
     3
370
     9
100
AcDbLine
 10
-316.6197757079791
 20
-216.8253739377936
 30
0.0
 11
-316.0651393455425
 21
-217.6573903414043
 31
0.0
  0
LINE
  5
F2
330
1F
100
AcDbEntity
  8
A-0_通り芯
  6
Continuous
 62
     3
370
     9
100
AcDbLine
 10
-309.5104584439378
 20
-216.8253739377936
 30
0.0
 11
-310.0650948063744
 21
-217.6573903414043
 31
0.0
  0
LINE
  5
F3
330
1F
100
AcDbEntity
  8
A-0_通り芯
  6
Continuous
 62
     3
370
     9
100
AcDbLine
 10
-295.8678638229495
 20
-216.1574101365901
 30
0.0
 11
-308.2623719785662
 21
-216.1574101365901
 31
0.0
  0
LINE
  5
F4
330
1F
100
AcDbEntity
  8
A-0_通り芯
  6
Continuous
 62
     3
370
     9
100
AcDbLine
 10
-294.6199010774893
 20
-216.8253739377936
 30
0.0
 11
-294.0651409951413
 21
-217.6573903414043
 31
0.0
  0
LINE
  5
F5
330
1F
100
AcDbEntity
  8
A-0_通り芯
  6
Continuous
 62
     3
370
     9
100
AcDbLine
 10
-287.5104600935367
 20
-216.8253739377936
 30
0.0
 11
-288.0650964559732
 21
-217.6573903414043
 31
0.0
  0
LINE
  5
F6
330
1F
100
AcDbEntity
  8
A-0_通り芯
  6
Continuous
 62
     3
370
     9
100
AcDbLine
 10
-273.8678654725484
 20
-216.1574101365901
 30
0.0
 11
-286.2623736281651
 21
-216.1574101365901
 31
0.0
  0
LINE
  5
F7
330
1F
100
AcDbEntity
  8
A-0_通り芯
  6
Continuous
 62
     3
370
     9
100
AcDbLine
 10
-272.6197790071768
 20
-216.8253739377936
 30
0.0
 11
-272.0651426447401
 21
-217.6573903414043
 31
0.0
  0
LINE
  5
F8
330
1F
100
AcDbEntity
  8
A-0_通り芯
  6
Continuous
 62
     3
370
     9
100
AcDbLine
 10
-265.5104617431354
 20
-216.8253739377936
 30
0.0
 11
-266.0650981055721
 21
-217.6573903414043
 31
0.0
  0
LINE
  5
F9
330
1F
100
AcDbEntity
  8
A-0_通り芯
  6
Continuous
 62
     3
370
     9
100
AcDbLine
 10
-251.8678671221472
 20
-216.1574101365901
 30
0.0
 11
-264.2623752777637
 21
-216.1574101365901
 31
0.0
  0
LINE
  5
FA
330
1F
100
AcDbEntity
  8
A-0_通り芯
  6
Continuous
 62
     3
370
     9
100
AcDbLine
 10
-250.6197806567756
 20
-216.8253739377936
 30
0.0
 11
-250.0650205744276
 21
-217.6573903414043
 31
0.0
  0
LINE
  5
FB
330
1F
100
AcDbEntity
  8
A-0_通り芯
  6
Continuous
 62
     3
370
     9
100
AcDbLine
 10
-243.5104633927342
 20
-216.8253739377936
 30
0.0
 11
-244.0650997551709
 21
-217.6573903414043
 31
0.0
  0
LINE
  5
FC
330
1F
100
AcDbEntity
  8
A-0_通り芯
  6
Continuous
 62
     3
370
     9
100
AcDbLine
 10
-229.8677450518347
 20
-216.1574101365901
 30
0.0
 11
-242.2623769273625
 21
-216.1574101365901
 31
0.0
  0
LINE
  5
FD
330
1F
100
AcDbEntity
  8
A-0_通り芯
  6
Continuous
 62
     3
370
     9
100
AcDbLine
 10
-228.6196585864631
 20
-216.8253739377936
 30
0.0
 11
-228.0650222240265
 21
-217.6573903414043
 31
0.0
  0
LINE
  5
FE
330
1F
100
AcDbEntity
  8
A-0_通り芯
  6
Continuous
 62
     3
370
     9
100
AcDbLine
 10
-221.5103413224217
 20
-216.8253739377936
 30
0.0
 11
-222.0649776848584
 21
-217.6573903414043
 31
0.0
  0
LINE
  5
FF
330
1F
100
AcDbEntity
  8
A-0_通り芯
  6
Continuous
 62
     3
370
     9
100
AcDbLine
 10
-207.8677467014335
 20
-216.1574101365901
 30
0.0
 11
-220.26225485705
 21
-216.1574101365901
 31
0.0
  0
LINE
  5
100
330
1F
100
AcDbEntity
  8
A-0_通り芯
  6
Continuous
 62
     3
370
     9
100
AcDbLine
 10
-206.6196602360619
 20
-216.8253739377936
 30
0.0
 11
-206.0650238736253
 21
-217.6573903414043
 31
0.0
  0
LINE
  5
101
330
1F
100
AcDbEntity
  8
A-0_通り芯
  6
Continuous
 62
     3
370
     9
100
AcDbLine
 10
-199.5103429720205
 20
-216.8253739377936
 30
0.0
 11
-200.0649793344572
 21
-217.6573903414043
 31
0.0
  0
LINE
  5
102
330
1F
100
AcDbEntity
  8
A-0_通り芯
  6
Continuous
 62
     3
370
     9
100
AcDbLine
 10
-185.8677483510323
 20
-216.1574101365901
 30
0.0
 11
-198.2622565066489
 21
-216.1574101365901
 31
0.0
  0
LINE
  5
103
330
1F
100
AcDbEntity
  8
A-0_通り芯
  6
Continuous
 62
     3
370
     9
100
AcDbLine
 10
-184.6196618856607
 20
-216.8253739377936
 30
0.0
 11
-184.0649018033128
 21
-217.6573903414043
 31
0.0
  0
LINE
  5
104
330
1F
100
AcDbEntity
  8
A-0_通り芯
  6
Continuous
 62
     3
370
     9
100
AcDbLine
 10
-177.5103446216193
 20
-216.8253739377936
 30
0.0
 11
-178.0651047039674
 21
-217.6573903414043
 31
0.0
  0
LINE
  5
105
330
1F
100
AcDbEntity
  8
A-0_通り芯
  6
Continuous
 62
     3
370
     9
100
AcDbLine
 10
-163.8677500006312
 20
-216.1574101365901
 30
0.0
 11
-176.2622581562477
 21
-216.1574101365901
 31
0.0
  0
LINE
  5
106
330
1F
100
AcDbEntity
  8
A-0_通り芯
  6
Continuous
 62
     3
370
     9
100
AcDbLine
 10
-162.6196635352596
 20
-216.8253739377936
 30
0.0
 11
-162.0649034529117
 21
-217.6573903414043
 31
0.0
  0
LINE
  5
107
330
1F
100
AcDbEntity
  8
A-0_通り芯
  6
Continuous
 62
     3
370
     9
100
AcDbLine
 10
-690.0652040922962
 20
-241.2640154601754
 30
0.0
 11
-690.0652040922962
 21
-261.1574348805723
 31
0.0
  0
LINE
  5
108
330
1F
100
AcDbEntity
  8
A-0_通り芯
  6
Continuous
 62
     3
370
     9
100
AcDbLine
 10
-684.0652214130837
 20
-241.2640154601754
 30
0.0
 11
-684.0652214130837
 21
-261.1574348805723
 31
0.0
  0
LINE
  5
109
330
1F
100
AcDbEntity
  8
A-0_通り芯
  6
Continuous
 62
     3
370
     9
100
AcDbLine
 10
-228.0650222240265
 20
-241.2134758764022
 30
0.0
 11
-228.0650222240265
 21
-261.1574348805723
 31
0.0
  0
LINE
  5
10A
330
1F
100
AcDbEntity
  8
A-0_通り芯
  6
Continuous
 62
     3
370
     9
100
AcDbLine
 10
-222.0651014047697
 20
-241.2134758764022
 30
0.0
 11
-222.0651014047697
 21
-261.1574348805723
 31
0.0
  0
LINE
  5
10B
330
1F
100
AcDbEntity
  8
A-0_通り芯
  6
JWW_CENTER1
 62
     3
370
     9
100
AcDbLine
 10
-225.0651855343094
 20
-312.9793755346053
 30
0.0
 11
-225.0651855343094
 21
-236.157445190565
 31
0.0
  0
LINE
  5
10C
330
1F
100
AcDbEntity
  8
A-0_通り芯
  6
JWW_CENTER1
 62
     3
370
     9
100
AcDbLine
 10
-687.0652436826679
 20
-236.157445190565
 30
0.0
 11
-687.0652436826679
 21
-312.979251814694
 31
0.0
  0
LINE
  5
10D
330
1F
100
AcDbEntity
  8
A-F
  6
Continuous
 62
     7
370
     9
100
AcDbLine
 10
350.4663564446815
 20
-48.80928045172944
 30
0.0
 11
435.4522853667675
 21
88.54060605587186
 31
0.0
  0
ARC
  5
10E
330
1F
100
AcDbEntity
  8
A-0_通り芯
  6
Continuous
 62
     3
370
     9
100
AcDbCircle
 10
-753.9363506294583
 20
-228.157375495015
 30
0.0
 40
2.000000146595208
100
AcDbArc
 50
3.814193725585938
 51
90.0
  0
ARC
  5
10F
330
1F
100
AcDbEntity
  8
A-0_通り芯
  6
Continuous
 62
     3
370
     9
100
AcDbCircle
 10
-749.66192048337
 20
-239.6573886918055
 30
0.0
 40
1.500000019331236
100
AcDbArc
 50
183.814468383789
 51
270.0005035400391
  0
ARC
  5
110
330
1F
100
AcDbEntity
  8
A-0_通り芯
  6
Continuous
 62
     3
370
     9
100
AcDbCircle
 10
-158.1939548676075
 20
-228.157375495015
 30
0.0
 40
2.000000146595208
100
AcDbArc
 50
90.0
 51
176.1858062744141
  0
ARC
  5
111
330
1F
100
AcDbEntity
  8
A-0_通り芯
  6
Continuous
 62
     3
370
     9
100
AcDbCircle
 10
-216.7625897256101
 20
-236.1574142605871
 30
0.0
 40
15.00000019331236
100
AcDbArc
 50
270.0
 51
304.7778167724609
  0
ARC
  5
112
330
1F
100
AcDbEntity
  8
A-0_通り芯
  6
Continuous
 62
     3
370
     9
100
AcDbCircle
 10
-695.3676539115002
 20
-236.1574142605871
 30
0.0
 40
15.00000019331236
100
AcDbArc
 50
235.2221527099609
 51
270.0000457763672
  0
ARC
  5
113
330
1F
100
AcDbEntity
  8
A-0_通り芯
  6
Continuous
 62
     3
370
     9
100
AcDbCircle
 10
-159.196581028925
 20
-219.1573705462185
 30
0.0
 40
1.500000019331236
100
AcDbArc
 50
15.94483947753906
 51
89.99800109863281
  0
ARC
  5
114
330
1F
100
AcDbEntity
  8
A-0_通り芯
  6
Continuous
 62
     3
370
     9
100
AcDbCircle
 10
-162.4684778036295
 20
-239.6573886918055
 30
0.0
 40
1.500000019331236
100
AcDbArc
 50
270.0
 51
356.1855316162109
  0
ARC
  5
115
330
1F
100
AcDbEntity
  8
A-0_通り芯
  6
Continuous
 62
     3
370
     9
100
AcDbCircle
 10
-752.9337863280965
 20
-219.1573705462185
 30
0.0
 40
1.500000019331236
100
AcDbArc
 50
90.0
 51
164.0551605224609
  0
ARC
  5
116
330
1F
100
AcDbEntity
  8
A-0_通り芯
  6
Continuous
 62
     3
370
     9
100
AcDbCircle
 10
-687.0652436826679
 20
-261.1574348805723
 30
0.0
 40
3.000004146550153
100
AcDbArc
 50
180.0
 51
0.0
  0
ARC
  5
117
330
1F
100
AcDbEntity
  8
A-0_通り芯
  6
Continuous
 62
     3
370
     9
100
AcDbCircle
 10
-687.0652436826679
 20
-236.1574142605871
 30
0.0
 40
15.00000019331236
100
AcDbArc
 50
199.4712219238281
 51
258.4630126953125
  0
ARC
  5
118
330
1F
100
AcDbEntity
  8
A-0_通り芯
  6
Continuous
 62
     3
370
     9
100
AcDbCircle
 10
-687.0652436826679
 20
-236.1574142605871
 30
0.0
 40
15.00000019331236
100
AcDbArc
 50
281.5369873046875
 51
340.5287780761718
  0
ARC
  5
119
330
1F
100
AcDbEntity
  8
A-0_通り芯
  6
Continuous
 62
     3
370
     9
100
AcDbCircle
 10
-687.0652436826679
 20
-265.1574233333806
 30
0.0
 40
9.000000115987417
100
AcDbArc
 50
109.4712677001953
 51
180.0
  0
ARC
  5
11A
330
1F
100
AcDbEntity
  8
A-0_通り芯
  6
Continuous
 62
     3
370
     9
100
AcDbCircle
 10
-687.0652436826679
 20
-265.1574233333806
 30
0.0
 40
9.000000115987417
100
AcDbArc
 50
0.0
 51
70.52873229980467
  0
ARC
  5
11B
330
1F
100
AcDbEntity
  8
A-0_通り芯
  6
Continuous
 62
     3
370
     9
100
AcDbCircle
 10
-687.0652436826679
 20
-265.1574233333806
 30
0.0
 40
4.000000293190416
100
AcDbArc
 50
359.9996185302735
 51
45.95120239257818
  0
ARC
  5
11C
330
1F
100
AcDbEntity
  8
A-0_通り芯
  6
Continuous
 62
     3
370
     9
100
AcDbCircle
 10
-687.0652436826679
 20
-265.1574233333806
 30
0.0
 40
4.000000293190416
100
AcDbArc
 50
134.0487976074219
 51
180.0003814697266
  0
ARC
  5
11D
330
1F
100
AcDbEntity
  8
A-0_通り芯
  6
Continuous
 62
     3
370
     9
100
AcDbCircle
 10
-687.0652436826679
 20
-290.6574579749558
 30
0.0
 40
2.500000032218727
100
AcDbArc
 50
0.0
 51
180.0
  0
ARC
  5
11E
330
1F
100
AcDbEntity
  8
A-0_通り芯
  6
Continuous
 62
     3
370
     9
100
AcDbCircle
 10
-687.0652436826679
 20
-289.1574159101859
 30
0.0
 40
9.000000115987417
100
AcDbArc
 50
179.9998321533203
 51
253.8724060058594
  0
ARC
  5
11F
330
1F
100
AcDbEntity
  8
A-0_通り芯
  6
Continuous
 62
     3
370
     9
100
AcDbCircle
 10
-687.0652436826679
 20
-289.1574159101859
 30
0.0
 40
4.000001259752223
100
AcDbArc
 50
180.0
 51
231.3177947998047
  0
ARC
  5
120
330
1F
100
AcDbEntity
  8
A-0_通り芯
  6
Continuous
 62
     3
370
     9
100
AcDbCircle
 10
-687.0652436826679
 20
-289.1574159101859
 30
0.0
 40
4.000001259752223
100
AcDbArc
 50
308.6822052001953
 51
0.0
  0
ARC
  5
121
330
1F
100
AcDbEntity
  8
A-0_通り芯
  6
Continuous
 62
     3
370
     9
100
AcDbCircle
 10
-687.0652436826679
 20
-289.1574159101859
 30
0.0
 40
9.000000115987417
100
AcDbArc
 50
286.1275939941406
 51
0.0
  0
ARC
  5
122
330
1F
100
AcDbEntity
  8
A-0_通り芯
  6
Continuous
 62
     3
370
     9
100
AcDbCircle
 10
-225.0651855343094
 20
-261.1574348805723
 30
0.0
 40
3.000004146550153
100
AcDbArc
 50
180.0
 51
0.0
  0
ARC
  5
123
330
1F
100
AcDbEntity
  8
A-0_通り芯
  6
Continuous
 62
     3
370
     9
100
AcDbCircle
 10
-225.0651855343094
 20
-236.1574142605871
 30
0.0
 40
15.00000019331236
100
AcDbArc
 50
281.5369873046875
 51
340.5287780761718
  0
ARC
  5
124
330
1F
100
AcDbEntity
  8
A-0_通り芯
  6
Continuous
 62
     3
370
     9
100
AcDbCircle
 10
-225.0651855343094
 20
-236.1574142605871
 30
0.0
 40
15.00000019331236
100
AcDbArc
 50
199.4712219238281
 51
258.4630126953125
  0
ARC
  5
125
330
1F
100
AcDbEntity
  8
A-0_通り芯
  6
Continuous
 62
     3
370
     9
100
AcDbCircle
 10
-225.0651855343094
 20
-265.1574233333806
 30
0.0
 40
9.000000115987417
100
AcDbArc
 50
0.0
 51
70.52873229980467
  0
ARC
  5
126
330
1F
100
AcDbEntity
  8
A-0_通り芯
  6
Continuous
 62
     3
370
     9
100
AcDbCircle
 10
-225.0651855343094
 20
-265.1574233333806
 30
0.0
 40
9.000000115987417
100
AcDbArc
 50
109.4712677001953
 51
180.0
  0
ARC
  5
127
330
1F
100
AcDbEntity
  8
A-0_通り芯
  6
Continuous
 62
     3
370
     9
100
AcDbCircle
 10
-225.0651855343094
 20
-265.1574233333806
 30
0.0
 40
4.000000293190416
100
AcDbArc
 50
134.0487976074219
 51
180.0003814697266
  0
ARC
  5
128
330
1F
100
AcDbEntity
  8
A-0_通り芯
  6
Continuous
 62
     3
370
     9
100
AcDbCircle
 10
-225.0651855343094
 20
-265.1574233333806
 30
0.0
 40
4.000000293190416
100
AcDbArc
 50
359.9996185302734
 51
45.95120239257813
  0
ARC
  5
129
330
1F
100
AcDbEntity
  8
A-0_通り芯
  6
Continuous
 62
     3
370
     9
100
AcDbCircle
 10
-225.0651855343094
 20
-290.6574579749558
 30
0.0
 40
2.500000032218727
100
AcDbArc
 50
0.0
 51
180.0
  0
ARC
  5
12A
330
1F
100
AcDbEntity
  8
A-0_通り芯
  6
Continuous
 62
     3
370
     9
100
AcDbCircle
 10
-225.0651855343094
 20
-289.1574159101859
 30
0.0
 40
9.000000115987417
100
AcDbArc
 50
286.1275939941406
 51
0.0001678466797443
  0
ARC
  5
12B
330
1F
100
AcDbEntity
  8
A-0_通り芯
  6
Continuous
 62
     3
370
     9
100
AcDbCircle
 10
-225.0651855343094
 20
-289.1574159101859
 30
0.0
 40
4.000001259752223
100
AcDbArc
 50
308.6822052001953
 51
0.0
  0
ARC
  5
12C
330
1F
100
AcDbEntity
  8
A-0_通り芯
  6
Continuous
 62
     3
370
     9
100
AcDbCircle
 10
-225.0651855343094
 20
-289.1574159101859
 30
0.0
 40
4.000001259752223
100
AcDbArc
 50
180.0
 51
231.3177947998047
  0
ARC
  5
12D
330
1F
100
AcDbEntity
  8
A-0_通り芯
  6
Continuous
 62
     3
370
     9
100
AcDbCircle
 10
-225.0651855343094
 20
-289.1574159101859
 30
0.0
 40
9.000000115987417
100
AcDbArc
 50
180.0
 51
253.8724060058594
  0
ARC
  5
12E
330
1F
100
AcDbEntity
  8
A-0_通り芯
  6
Continuous
 62
     3
370
     9
100
AcDbCircle
 10
-748.2624627065012
 20
-217.6573903414043
 30
0.0
 40
1.500000019331236
100
AcDbArc
 50
90.0
 51
146.3110504150391
  0
ARC
  5
12F
330
1F
100
AcDbEntity
  8
A-0_通り芯
  6
Continuous
 62
     3
370
     9
100
AcDbCircle
 10
-735.8679854808624
 20
-217.6573903414043
 30
0.0
 40
1.500000019331236
100
AcDbArc
 50
33.68894958496094
 51
89.99949645996095
  0
ARC
  5
130
330
1F
100
AcDbEntity
  8
A-0_通り芯
  6
Continuous
 62
     3
370
     9
100
AcDbCircle
 10
-726.2624643561
 20
-217.6573903414043
 30
0.0
 40
1.500000019331236
100
AcDbArc
 50
90.0
 51
146.3110504150391
  0
ARC
  5
131
330
1F
100
AcDbEntity
  8
A-0_通り芯
  6
Continuous
 62
     3
370
     9
100
AcDbCircle
 10
-713.8679871304613
 20
-217.6573903414043
 30
0.0
 40
1.500000019331236
100
AcDbArc
 50
33.68894958496094
 51
89.99949645996095
  0
ARC
  5
132
330
1F
100
AcDbEntity
  8
A-0_通り芯
  6
Continuous
 62
     3
370
     9
100
AcDbCircle
 10
-704.262435075721
 20
-217.6573903414043
 30
0.0
 40
1.500000019331236
100
AcDbArc
 50
90.0
 51
146.3110504150391
  0
ARC
  5
133
330
1F
100
AcDbEntity
  8
A-0_通り芯
  6
Continuous
 62
     3
370
     9
100
AcDbCircle
 10
-691.86798878006
 20
-217.6573903414043
 30
0.0
 40
1.500000019331236
100
AcDbArc
 50
33.68894958496094
 51
89.99949645996095
  0
ARC
  5
134
330
1F
100
AcDbEntity
  8
A-0_通り芯
  6
Continuous
 62
     3
370
     9
100
AcDbCircle
 10
-682.26243672532
 20
-217.6573903414043
 30
0.0
 40
1.500000019331236
100
AcDbArc
 50
90.0
 51
146.3110504150391
  0
ARC
  5
135
330
1F
100
AcDbEntity
  8
A-0_通り芯
  6
Continuous
 62
     3
370
     9
100
AcDbCircle
 10
-669.867990429659
 20
-217.6573903414043
 30
0.0
 40
1.500000019331236
100
AcDbArc
 50
33.68894958496094
 51
89.99949645996095
  0
ARC
  5
136
330
1F
100
AcDbEntity
  8
A-0_通り芯
  6
Continuous
 62
     3
370
     9
100
AcDbCircle
 10
-660.2624383749186
 20
-217.6573903414043
 30
0.0
 40
1.500000019331236
100
AcDbArc
 50
90.0
 51
146.3110504150391
  0
ARC
  5
137
330
1F
100
AcDbEntity
  8
A-0_通り芯
  6
Continuous
 62
     3
370
     9
100
AcDbCircle
 10
-647.8679920792576
 20
-217.6573903414043
 30
0.0
 40
1.500000019331236
100
AcDbArc
 50
33.68894958496094
 51
89.99949645996095
  0
ARC
  5
138
330
1F
100
AcDbEntity
  8
A-0_通り芯
  6
Continuous
 62
     3
370
     9
100
AcDbCircle
 10
-638.2624400245174
 20
-217.6573903414043
 30
0.0
 40
1.500000019331236
100
AcDbArc
 50
90.0
 51
146.3110504150391
  0
ARC
  5
139
330
1F
100
AcDbEntity
  8
A-0_通り芯
  6
Continuous
 62
     3
370
     9
100
AcDbCircle
 10
-625.8679937288565
 20
-217.6573903414043
 30
0.0
 40
1.500000019331236
100
AcDbArc
 50
33.68894958496094
 51
89.99949645996095
  0
ARC
  5
13A
330
1F
100
AcDbEntity
  8
A-0_通り芯
  6
Continuous
 62
     3
370
     9
100
AcDbCircle
 10
-616.2624416741163
 20
-217.6573903414043
 30
0.0
 40
1.500000019331236
100
AcDbArc
 50
90.0
 51
146.3110504150391
  0
ARC
  5
13B
330
1F
100
AcDbEntity
  8
A-0_通り芯
  6
Continuous
 62
     3
370
     9
100
AcDbCircle
 10
-603.8679953784554
 20
-217.6573903414043
 30
0.0
 40
1.500000019331236
100
AcDbArc
 50
33.68894958496094
 51
89.99949645996095
  0
ARC
  5
13C
330
1F
100
AcDbEntity
  8
A-0_通り芯
  6
Continuous
 62
     3
370
     9
100
AcDbCircle
 10
-594.2624433237152
 20
-217.6573903414043
 30
0.0
 40
1.500000019331236
100
AcDbArc
 50
90.0
 51
146.3110504150391
  0
ARC
  5
13D
330
1F
100
AcDbEntity
  8
A-0_通り芯
  6
Continuous
 62
     3
370
     9
100
AcDbCircle
 10
-581.8679970280541
 20
-217.6573903414043
 30
0.0
 40
1.500000019331236
100
AcDbArc
 50
33.68894958496094
 51
89.99949645996095
  0
ARC
  5
13E
330
1F
100
AcDbEntity
  8
A-0_通り芯
  6
Continuous
 62
     3
370
     9
100
AcDbCircle
 10
-572.2624449733139
 20
-217.6573903414043
 30
0.0
 40
1.500000019331236
100
AcDbArc
 50
90.0
 51
146.3110504150391
  0
ARC
  5
13F
330
1F
100
AcDbEntity
  8
A-0_通り芯
  6
Continuous
 62
     3
370
     9
100
AcDbCircle
 10
-559.8679368176972
 20
-217.6573903414043
 30
0.0
 40
1.500000019331236
100
AcDbArc
 50
33.68894958496094
 51
89.99949645996095
  0
ARC
  5
140
330
1F
100
AcDbEntity
  8
A-0_通り芯
  6
Continuous
 62
     3
370
     9
100
AcDbCircle
 10
-550.2624775528905
 20
-217.6573903414043
 30
0.0
 40
1.500000019331236
100
AcDbArc
 50
90.0
 51
146.3110504150391
  0
ARC
  5
141
330
1F
100
AcDbEntity
  8
A-0_通り芯
  6
Continuous
 62
     3
370
     9
100
AcDbCircle
 10
-537.867969397274
 20
-217.6573903414043
 30
0.0
 40
1.500000019331236
100
AcDbArc
 50
33.68894958496094
 51
89.99949645996095
  0
ARC
  5
142
330
1F
100
AcDbEntity
  8
A-0_通り芯
  6
Continuous
 62
     3
370
     9
100
AcDbCircle
 10
-528.2624792024893
 20
-217.6573903414043
 30
0.0
 40
1.500000019331236
100
AcDbArc
 50
90.0
 51
146.3110504150391
  0
ARC
  5
143
330
1F
100
AcDbEntity
  8
A-0_通り芯
  6
Continuous
 62
     3
370
     9
100
AcDbCircle
 10
-515.8679710468728
 20
-217.6573903414043
 30
0.0
 40
1.500000019331236
100
AcDbArc
 50
33.68894958496094
 51
89.99949645996095
  0
ARC
  5
144
330
1F
100
AcDbEntity
  8
A-0_通り芯
  6
Continuous
 62
     3
370
     9
100
AcDbCircle
 10
-506.2624808520882
 20
-217.6573903414043
 30
0.0
 40
1.500000019331236
100
AcDbArc
 50
90.0
 51
146.3110504150391
  0
ARC
  5
145
330
1F
100
AcDbEntity
  8
A-0_通り芯
  6
Continuous
 62
     3
370
     9
100
AcDbCircle
 10
-493.8679726964716
 20
-217.6573903414043
 30
0.0
 40
1.500000019331236
100
AcDbArc
 50
33.68894958496094
 51
89.99949645996095
  0
ARC
  5
146
330
1F
100
AcDbEntity
  8
A-0_通り芯
  6
Continuous
 62
     3
370
     9
100
AcDbCircle
 10
-484.2624825016869
 20
-217.6573903414043
 30
0.0
 40
1.500000019331236
100
AcDbArc
 50
90.0
 51
146.3110504150391
  0
ARC
  5
147
330
1F
100
AcDbEntity
  8
A-0_通り芯
  6
Continuous
 62
     3
370
     9
100
AcDbCircle
 10
-471.8679743460705
 20
-217.6573903414043
 30
0.0
 40
1.500000019331236
100
AcDbArc
 50
33.68894958496094
 51
89.99949645996095
  0
ARC
  5
148
330
1F
100
AcDbEntity
  8
A-0_通り芯
  6
Continuous
 62
     3
370
     9
100
AcDbCircle
 10
-462.2624841512858
 20
-217.6573903414043
 30
0.0
 40
1.500000019331236
100
AcDbArc
 50
90.0
 51
146.3110504150391
  0
ARC
  5
149
330
1F
100
AcDbEntity
  8
A-0_通り芯
  6
Continuous
 62
     3
370
     9
100
AcDbCircle
 10
-449.8679759956692
 20
-217.6573903414043
 30
0.0
 40
1.500000019331236
100
AcDbArc
 50
33.68894958496094
 51
89.99949645996095
  0
ARC
  5
14A
330
1F
100
AcDbEntity
  8
A-0_通り芯
  6
Continuous
 62
     3
370
     9
100
AcDbCircle
 10
-440.2624858008846
 20
-217.6573903414043
 30
0.0
 40
1.500000019331236
100
AcDbArc
 50
90.0
 51
146.3110504150391
  0
ARC
  5
14B
330
1F
100
AcDbEntity
  8
A-0_通り芯
  6
Continuous
 62
     3
370
     9
100
AcDbCircle
 10
-427.8679776452681
 20
-217.6573903414043
 30
0.0
 40
1.500000019331236
100
AcDbArc
 50
33.68894958496094
 51
89.99949645996095
  0
ARC
  5
14C
330
1F
100
AcDbEntity
  8
A-0_通り芯
  6
Continuous
 62
     3
370
     9
100
AcDbCircle
 10
-418.2623637305721
 20
-217.6573903414043
 30
0.0
 40
1.500000019331236
100
AcDbArc
 50
90.0
 51
146.3110504150391
  0
ARC
  5
14D
330
1F
100
AcDbEntity
  8
A-0_通り芯
  6
Continuous
 62
     3
370
     9
100
AcDbCircle
 10
-405.8678555749556
 20
-217.6573903414043
 30
0.0
 40
1.500000019331236
100
AcDbArc
 50
33.68894958496094
 51
89.99949645996095
  0
ARC
  5
14E
330
1F
100
AcDbEntity
  8
A-0_通り芯
  6
Continuous
 62
     3
370
     9
100
AcDbCircle
 10
-396.262365380171
 20
-217.6573903414043
 30
0.0
 40
1.500000019331236
100
AcDbArc
 50
90.0
 51
146.3110504150391
  0
ARC
  5
14F
330
1F
100
AcDbEntity
  8
A-0_通り芯
  6
Continuous
 62
     3
370
     9
100
AcDbCircle
 10
-383.8678572245544
 20
-217.6573903414043
 30
0.0
 40
1.500000019331236
100
AcDbArc
 50
33.68894958496094
 51
89.99949645996095
  0
ARC
  5
150
330
1F
100
AcDbEntity
  8
A-0_通り芯
  6
Continuous
 62
     3
370
     9
100
AcDbCircle
 10
-374.2623670297697
 20
-217.6573903414043
 30
0.0
 40
1.500000019331236
100
AcDbArc
 50
90.0
 51
146.3110504150391
  0
ARC
  5
151
330
1F
100
AcDbEntity
  8
A-0_通り芯
  6
Continuous
 62
     3
370
     9
100
AcDbCircle
 10
-361.8678588741532
 20
-217.6573903414043
 30
0.0
 40
1.500000019331236
100
AcDbArc
 50
33.68894958496094
 51
89.99949645996095
  0
ARC
  5
152
330
1F
100
AcDbEntity
  8
A-0_通り芯
  6
Continuous
 62
     3
370
     9
100
AcDbCircle
 10
-352.2623686793685
 20
-217.6573903414043
 30
0.0
 40
1.500000019331236
100
AcDbArc
 50
90.0
 51
146.3110504150391
  0
ARC
  5
153
330
1F
100
AcDbEntity
  8
A-0_通り芯
  6
Continuous
 62
     3
370
     9
100
AcDbCircle
 10
-339.867860523752
 20
-217.6573903414043
 30
0.0
 40
1.500000019331236
100
AcDbArc
 50
33.68894958496094
 51
89.99949645996095
  0
ARC
  5
154
330
1F
100
AcDbEntity
  8
A-0_通り芯
  6
Continuous
 62
     3
370
     9
100
AcDbCircle
 10
-330.2623703289674
 20
-217.6573903414043
 30
0.0
 40
1.500000019331236
100
AcDbArc
 50
90.0
 51
146.3110504150391
  0
ARC
  5
155
330
1F
100
AcDbEntity
  8
A-0_通り芯
  6
Continuous
 62
     3
370
     9
100
AcDbCircle
 10
-317.8678621733508
 20
-217.6573903414043
 30
0.0
 40
1.500000019331236
100
AcDbArc
 50
33.68894958496094
 51
89.99949645996095
  0
ARC
  5
156
330
1F
100
AcDbEntity
  8
A-0_通り芯
  6
Continuous
 62
     3
370
     9
100
AcDbCircle
 10
-308.2623719785662
 20
-217.6573903414043
 30
0.0
 40
1.500000019331236
100
AcDbArc
 50
90.0
 51
146.3110504150391
  0
ARC
  5
157
330
1F
100
AcDbEntity
  8
A-0_通り芯
  6
Continuous
 62
     3
370
     9
100
AcDbCircle
 10
-295.8678638229495
 20
-217.6573903414043
 30
0.0
 40
1.500000019331236
100
AcDbArc
 50
33.68894958496094
 51
89.99949645996095
  0
ARC
  5
158
330
1F
100
AcDbEntity
  8
A-0_通り芯
  6
Continuous
 62
     3
370
     9
100
AcDbCircle
 10
-286.2623736281651
 20
-217.6573903414043
 30
0.0
 40
1.500000019331236
100
AcDbArc
 50
90.0
 51
146.3110504150391
  0
ARC
  5
159
330
1F
100
AcDbEntity
  8
A-0_通り芯
  6
Continuous
 62
     3
370
     9
100
AcDbCircle
 10
-273.8678654725484
 20
-217.6573903414043
 30
0.0
 40
1.500000019331236
100
AcDbArc
 50
33.68894958496094
 51
89.99949645996095
  0
ARC
  5
15A
330
1F
100
AcDbEntity
  8
A-0_通り芯
  6
Continuous
 62
     3
370
     9
100
AcDbCircle
 10
-264.2623752777637
 20
-217.6573903414043
 30
0.0
 40
1.500000019331236
100
AcDbArc
 50
90.0
 51
146.3110504150391
  0
ARC
  5
15B
330
1F
100
AcDbEntity
  8
A-0_通り芯
  6
Continuous
 62
     3
370
     9
100
AcDbCircle
 10
-251.8678671221472
 20
-217.6573903414043
 30
0.0
 40
1.500000019331236
100
AcDbArc
 50
33.68894958496094
 51
89.99949645996095
  0
ARC
  5
15C
330
1F
100
AcDbEntity
  8
A-0_通り芯
  6
Continuous
 62
     3
370
     9
100
AcDbCircle
 10
-242.2623769273625
 20
-217.6573903414043
 30
0.0
 40
1.500000019331236
100
AcDbArc
 50
90.0
 51
146.3110504150391
  0
ARC
  5
15D
330
1F
100
AcDbEntity
  8
A-0_通り芯
  6
Continuous
 62
     3
370
     9
100
AcDbCircle
 10
-229.8677450518347
 20
-217.6573903414043
 30
0.0
 40
1.500000019331236
100
AcDbArc
 50
33.68894958496094
 51
89.99949645996095
  0
ARC
  5
15E
330
1F
100
AcDbEntity
  8
A-0_通り芯
  6
Continuous
 62
     3
370
     9
100
AcDbCircle
 10
-220.26225485705
 20
-217.6573903414043
 30
0.0
 40
1.500000019331236
100
AcDbArc
 50
90.0
 51
146.3110504150391
  0
ARC
  5
15F
330
1F
100
AcDbEntity
  8
A-0_通り芯
  6
Continuous
 62
     3
370
     9
100
AcDbCircle
 10
-207.8677467014335
 20
-217.6573903414043
 30
0.0
 40
1.500000019331236
100
AcDbArc
 50
33.68894958496094
 51
89.99949645996095
  0
ARC
  5
160
330
1F
100
AcDbEntity
  8
A-0_通り芯
  6
Continuous
 62
     3
370
     9
100
AcDbCircle
 10
-198.2622565066489
 20
-217.6573903414043
 30
0.0
 40
1.500000019331236
100
AcDbArc
 50
90.0
 51
146.3110504150391
  0
ARC
  5
161
330
1F
100
AcDbEntity
  8
A-0_通り芯
  6
Continuous
 62
     3
370
     9
100
AcDbCircle
 10
-185.8677483510323
 20
-217.6573903414043
 30
0.0
 40
1.500000019331236
100
AcDbArc
 50
33.68894958496094
 51
89.99949645996095
  0
ARC
  5
162
330
1F
100
AcDbEntity
  8
A-0_通り芯
  6
Continuous
 62
     3
370
     9
100
AcDbCircle
 10
-176.2622581562477
 20
-217.6573903414043
 30
0.0
 40
1.500000019331236
100
AcDbArc
 50
90.0
 51
146.3110504150391
  0
ARC
  5
163
330
1F
100
AcDbEntity
  8
A-0_通り芯
  6
Continuous
 62
     3
370
     9
100
AcDbCircle
 10
-163.8677500006312
 20
-217.6573903414043
 30
0.0
 40
1.500000019331236
100
AcDbArc
 50
33.68894958496094
 51
89.99949645996095
  0
TEXT
  5
164
330
1F
100
AcDbEntity
  8
A-F
  6
Continuous
 62
     7
370
     0
100
AcDbText
 10
-161.4795371265022
 20
-50.12622684636629
 30
0.0
 40
15.24
  1
2
 41
0.9999999999999998
  7
ＭＳ ゴシック
100
AcDbText
  0
LWPOLYLINE
  5
165
330
1F
100
AcDbEntity
  8
A-F
  6
Continuous
 62
     7
370
     9
100
AcDbPolyline
 90
        4
 70
     1
 43
1.0
 10
464.1521359131144
 20
-80.11462449205887
 42
0.4142135623731
 10
463.6521359131144
 20
-79.61462449205887
 42
0.4142135623731
 10
463.1521359131145
 20
-80.11462449205887
 42
0.4142135623731
 10
463.6521359131144
 20
-80.61462449205888
 42
0.4142135623731
  0
LINE
  5
166
330
1F
100
AcDbEntity
  8
A-E
  6
Continuous
 62
     7
370
     9
100
AcDbLine
 10
125.821432590163
 20
-48.80928045172944
 30
0.0
 11
350.4663564446815
 21
-48.80928045172944
 31
0.0
  0
TEXT
  5
167
330
1F
100
AcDbEntity
  8
A-E
  6
Continuous
 62
     7
370
     0
100
AcDbText
 10
136.7344896596836
 20
-68.6927941631948
 30
0.0
 40
11.43
  1
ＦＣＤ５００，樹脂系塗装
 41
1.152777777777778
  7
ＭＳ ゴシック
100
AcDbText
  0
TEXT
  5
168
330
1F
100
AcDbEntity
  8
A-F
  6
Continuous
 62
     2
370
     0
100
AcDbText
 10
-468.5652849289561
 20
-25.29458902570505
 30
0.0
 40
15.24
  1
598
 50
0.0001090558823325
 41
1.083333333333332
  7
ＭＳ ゴシック
100
AcDbText
  0
TEXT
  5
169
330
1F
100
AcDbEntity
  8
A-F
  6
Continuous
 62
     2
370
   211
100
AcDbText
 10
41.95120158034438
 20
-24.79457500409428
 30
0.0
 40
15.24
  1
598
 41
1.083333333333333
  7
ＭＳ ゴシック
100
AcDbText
  0
TEXT
  5
16A
330
1F
100
AcDbEntity
  8
A-F
  6
Continuous
 62
     2
370
   211
100
AcDbText
 10
508.4590379995271
 20
-74.79461624406477
 30
0.0
 40
15.24
  1
29
 41
1.0625
  7
ＭＳ ゴシック
100
AcDbText
  0
TEXT
  5
16B
330
1F
100
AcDbEntity
  8
A-F
  6
Continuous
 62
     2
370
   211
100
AcDbText
 10
375.6985168582689
 20
-74.79461624406477
 30
0.0
 40
15.24
  1
28.2
 41
1.09375
  7
ＭＳ ゴシック
100
AcDbText
  0
TEXT
  5
16C
330
1F
100
AcDbEntity
  8
A-F
  6
Continuous
 62
     2
370
   211
100
AcDbText
 10
398.2114827049747
 20
-24.79463686404994
 30
0.0
 40
15.24
  1
25
 41
1.0625
  7
ＭＳ ゴシック
100
AcDbText
  0
TEXT
  5
16D
330
1F
100
AcDbEntity
  8
A-F
  6
Continuous
 62
     2
370
     0
100
AcDbText
 10
381.0172647137903
 20
-399.0781439276322
 30
0.0
 40
15.24
  1
仕様
 41
1.0625
  7
ＭＳ ゴシック
100
AcDbText
  0
TEXT
  5
16E
330
1F
100
AcDbEntity
  8
A-F
  6
Continuous
 62
     2
370
     0
100
AcDbText
 10
381.0172399698082
 20
-423.0781210394486
 30
0.0
 40
15.24
  1
適用荷重：Ｔ－６
 41
1.109375
  7
ＭＳ ゴシック
100
AcDbText
  0
TEXT
  5
16F
330
1F
100
AcDbEntity
  8
A-F
  6
Continuous
 62
     2
370
     0
100
AcDbText
 10
381.0172896357781
 20
-471.0781216580503
 30
0.0
 40
15.24
  1
接触圧子：φ１７０ｍｍ
 50
359.9999963833537
 41
1.113636363636364
  7
ＭＳ ゴシック
100
AcDbText
  0
TEXT
  5
170
330
1F
100
AcDbEntity
  8
A-F
  6
Continuous
 62
     2
370
     0
100
AcDbText
 10
381.0172894577727
 20
-447.0781445462317
 30
0.0
 40
15.24
  1
破壊荷重：６０ｋＮ（６，１２３ｋｇｆ）以上
 41
1.119047619047619
  7
ＭＳ ゴシック
100
AcDbText
  0
TEXT
  5
171
330
1F
100
AcDbEntity
  8
F-Fﾚｲﾔ
  6
Continuous
 62
     2
370
     9
100
AcDbText
 10
-421.2215270553985
 20
-663.5050767188394
 30
0.0
 40
15.24
  1
細目ノンスリップタイプ　（すきま８ｍｍ）側溝用
 41
0.8989130434782606
  7
ＭＳ ゴシック
100
AcDbText
  0
LINE
  5
172
330
1F
100
AcDbEntity
  8
A-F
  6
Continuous
 62
     7
370
     9
100
AcDbLine
 10
-656.065271313448
 20
342.8354190573501
 30
0.0
 11
-656.065271313448
 21
381.3351996607073
 31
0.0
  0
LINE
  5
173
330
1F
100
AcDbEntity
  8
A-F
  6
Continuous
 62
     7
370
     9
100
AcDbLine
 10
-56.06527131344784
 20
342.8354190573501
 30
0.0
 11
-56.06527131344784
 21
381.3351996607073
 31
0.0
  0
LINE
  5
174
330
1F
100
AcDbEntity
  8
A-F
  6
Continuous
 62
     7
370
     9
100
AcDbLine
 10
-756.0652610034554
 20
309.8352359518813
 30
0.0
 11
-756.0652610034554
 21
431.3352409006777
 31
0.0
  0
LINE
  5
175
330
1F
100
AcDbEntity
  8
A-E
  6
Continuous
 62
     7
370
     9
100
AcDbLine
 10
219.102905286003
 20
410.9449623164294
 30
0.0
 11
404.1410027706951
 21
410.9449623164294
 31
0.0
  0
LINE
  5
176
330
1F
100
AcDbEntity
  8
A-E
  6
Continuous
 62
     7
370
     9
100
AcDbLine
 10
404.1410027706951
 20
410.9449623164294
 30
0.0
 11
446.1034562520082
 21
304.8352813158488
 31
0.0
  0
LINE
  5
177
330
1F
100
AcDbEntity
  8
A-E
  6
Continuous
 62
     7
370
     9
100
AcDbLine
 10
446.1034562520082
 20
304.8352813158488
 30
0.0
 11
438.8136316373544
 21
317.9447668389696
 31
0.0
  0
LINE
  5
178
330
1F
100
AcDbEntity
  8
A-E
  6
Continuous
 62
     7
370
     9
100
AcDbLine
 10
446.1034562520082
 20
304.8352813158488
 30
0.0
 11
442.4550797871644
 21
319.3848047467503
 31
0.0
  0
LINE
  5
179
330
1F
100
AcDbEntity
  8
A-F
  6
Continuous
 62
     7
370
     9
100
AcDbLine
 10
529.8440205467717
 20
409.2641036012689
 30
0.0
 11
488.1521425115097
 21
333.8354141085535
 31
0.0
  0
LINE
  5
17A
330
1F
100
AcDbEntity
  8
A-F
  6
Continuous
 62
     7
370
     9
100
AcDbLine
 10
488.1521425115097
 20
333.8354141085535
 30
0.0
 11
493.6328108629668
 21
347.7983195799428
 31
0.0
  0
LINE
  5
17B
330
1F
100
AcDbEntity
  8
A-F
  6
Continuous
 62
     7
370
     9
100
AcDbLine
 10
488.1521425115097
 20
333.8354141085535
 30
0.0
 11
497.0599761263746
 21
345.9040440177597
 31
0.0
  0
TEXT
  5
17C
330
1F
100
AcDbEntity
  8
A-E
  6
Continuous
 62
     7
370
     0
100
AcDbText
 10
221.6015319949874
 20
416.3098369469193
 30
0.0
 40
11.43
  1
受枠：Ｌ－２５Ｇ
 41
1.145833333333333
  7
ＭＳ ゴシック
100
AcDbText
  0
TEXT
  5
17D
330
1F
100
AcDbEntity
  8
A-E
  6
Continuous
 62
     7
370
   211
100
AcDbText
 10
220.644183197215
 20
393.3013975993686
 30
0.0
 40
11.43
  1
ＳＰＨＣ，樹脂系塗装
 41
1.15
  7
ＭＳ ゴシック
100
AcDbText
  0
TEXT
  5
17E
330
1F
100
AcDbEntity
  8
A-E
  6
Continuous
 62
     7
370
   211
100
AcDbText
 10
534.0743878464446
 20
415.6094585289505
 30
0.0
 40
11.43
  1
アンカー：φ９
 41
1.142857142857143
  7
ＭＳ ゴシック
100
AcDbText
  0
LINE
  5
17F
330
1F
100
AcDbEntity
  8
A-F
  6
Continuous
 62
     7
370
     9
100
AcDbLine
 10
-756.0652610034554
 20
379.8352194558931
 30
0.0
 11
-741.1936018534607
 21
381.7930870524936
 31
0.0
  0
LINE
  5
180
330
1F
100
AcDbEntity
  8
A-F
  6
Continuous
 62
     7
370
     9
100
AcDbLine
 10
-756.0652610034554
 20
379.8352194558931
 30
0.0
 11
-741.1936018534607
 21
377.8773518592926
 31
0.0
  0
LINE
  5
181
330
1F
100
AcDbEntity
  8
A-F
  6
Continuous
 62
     7
370
     9
100
AcDbLine
 10
-656.065271313448
 20
379.8352194558931
 30
0.0
 11
-670.9369304634426
 21
381.7930870524936
 31
0.0
  0
LINE
  5
182
330
1F
100
AcDbEntity
  8
A-F
  6
Continuous
 62
     7
370
     9
100
AcDbLine
 10
-656.065271313448
 20
379.8352194558931
 30
0.0
 11
-670.9369304634426
 21
377.8773518592926
 31
0.0
  0
LINE
  5
183
330
1F
100
AcDbEntity
  8
A-F
  6
Continuous
 62
     7
370
     9
100
AcDbLine
 10
-656.065271313448
 20
379.8352194558931
 30
0.0
 11
-641.1936121634533
 21
381.7930870524936
 31
0.0
  0
LINE
  5
184
330
1F
100
AcDbEntity
  8
A-F
  6
Continuous
 62
     7
370
     9
100
AcDbLine
 10
-656.065271313448
 20
379.8352194558931
 30
0.0
 11
-641.1936121634533
 21
377.8773518592926
 31
0.0
  0
LINE
  5
185
330
1F
100
AcDbEntity
  8
A-F
  6
Continuous
 62
     7
370
     9
100
AcDbLine
 10
-56.06527131344784
 20
379.8352194558931
 30
0.0
 11
-70.9369613934205
 21
381.7930870524936
 31
0.0
  0
LINE
  5
186
330
1F
100
AcDbEntity
  8
A-F
  6
Continuous
 62
     7
370
     9
100
AcDbLine
 10
-56.06527131344784
 20
379.8352194558931
 30
0.0
 11
-70.9369613934205
 21
377.8773518592926
 31
0.0
  0
LINE
  5
187
330
1F
100
AcDbEntity
  8
A-F
  6
Continuous
 62
     7
370
     9
100
AcDbLine
 10
-56.06527131344784
 20
379.8352194558931
 30
0.0
 11
73.9347864225108
 21
379.8352194558931
 31
0.0
  0
LINE
  5
188
330
1F
100
AcDbEntity
  8
A-F
  6
Continuous
 62
     7
370
     9
100
AcDbLine
 10
-56.06527131344784
 20
379.8352194558931
 30
0.0
 11
-41.19358123347531
 21
381.7930870524936
 31
0.0
  0
LINE
  5
189
330
1F
100
AcDbEntity
  8
A-F
  6
Continuous
 62
     7
370
     9
100
AcDbLine
 10
-56.06527131344784
 20
379.8352194558931
 30
0.0
 11
-41.19358123347531
 21
377.8773518592926
 31
0.0
  0
LINE
  5
18A
330
1F
100
AcDbEntity
  8
A-F
  6
Continuous
 62
     7
370
     9
100
AcDbLine
 10
-756.0652610034554
 20
429.8352606958636
 30
0.0
 11
73.9347864225108
 21
429.8352606958636
 31
0.0
  0
LINE
  5
18B
330
1F
100
AcDbEntity
  8
A-F
  6
Continuous
 62
     7
370
     9
100
AcDbLine
 10
-756.0652610034554
 20
429.8352606958636
 30
0.0
 11
-741.1936018534607
 21
431.7931282924641
 31
0.0
  0
LINE
  5
18C
330
1F
100
AcDbEntity
  8
A-F
  6
Continuous
 62
     7
370
     9
100
AcDbLine
 10
-756.0652610034554
 20
429.8352606958636
 30
0.0
 11
-741.1936018534607
 21
427.877393099263
 31
0.0
  0
TEXT
  5
18D
330
1F
100
AcDbEntity
  8
A-F
  6
Continuous
 62
     2
370
   211
100
AcDbText
 10
42.16301006852007
 20
385.1552277038871
 30
0.0
 40
15.24
  1
600
 41
1.083333333333333
  7
ＭＳ ゴシック
100
AcDbText
  0
TEXT
  5
18E
330
1F
100
AcDbEntity
  8
A-F
  6
Continuous
 62
     2
370
   211
100
AcDbText
 10
-357.3152032674967
 20
435.1552689438575
 30
0.0
 40
15.24
  1
2000
 41
1.09375
  7
ＭＳ ゴシック
100
AcDbText
  0
LINE
  5
18F
330
1F
100
AcDbEntity
  8
A-0_通り芯
  6
Continuous
 62
     3
370
     9
100
AcDbLine
 10
-159.5651426447401
 20
97.76034433052357
 30
0.0
 11
-752.5653484321926
 21
97.76034433052357
 31
0.0
  0
LINE
  5
190
330
1F
100
AcDbEntity
  8
A-0_通り芯
  6
Continuous
 62
     3
370
     9
100
AcDbLine
 10
-158.5652383214717
 20
98.76037237370338
 30
0.0
 11
-753.5653455453948
 21
98.76037237370338
 31
0.0
  0
LINE
  5
191
330
1F
100
AcDbEntity
  8
A-0_通り芯
  6
Continuous
 62
     3
370
     9
100
AcDbLine
 10
-158.5652383214717
 20
78.26035422811638
 30
0.0
 11
-753.5653455453948
 21
78.26035422811638
 31
0.0
  0
LINE
  5
192
330
1F
100
AcDbEntity
  8
A-0_通り芯
  6
Continuous
 62
     3
370
     9
100
AcDbLine
 10
-159.5651426447401
 20
79.26032041134074
 30
0.0
 11
-752.5653484321926
 21
79.26032041134074
 31
0.0
  0
LINE
  5
193
330
1F
100
AcDbEntity
  8
A-0_通り芯
  6
Continuous
 62
     3
370
     9
100
AcDbLine
 10
-754.0653595669849
 20
109.460350763959
 30
0.0
 11
-754.0653595669849
 21
124.9604142735134
 31
0.0
  0
LINE
  5
194
330
1F
100
AcDbEntity
  8
A-0_通り芯
  6
Continuous
 62
     3
370
     9
100
AcDbLine
 10
-159.5651426447401
 20
126.4603944783276
 30
0.0
 11
-752.5653484321926
 21
126.4603944783276
 31
0.0
  0
LINE
  5
195
330
1F
100
AcDbEntity
  8
A-0_通り芯
  6
Continuous
 62
     3
370
     9
100
AcDbLine
 10
-158.5652383214717
 20
127.4604225215076
 30
0.0
 11
-753.5653455453948
 21
127.4604225215076
 31
0.0
  0
LINE
  5
196
330
1F
100
AcDbEntity
  8
A-0_通り芯
  6
Continuous
 62
     3
370
     9
100
AcDbLine
 10
-158.5652383214717
 20
106.9603425159648
 30
0.0
 11
-753.5653455453948
 21
106.9603425159648
 31
0.0
  0
LINE
  5
197
330
1F
100
AcDbEntity
  8
A-0_通り芯
  6
Continuous
 62
     3
370
     9
100
AcDbLine
 10
-159.5651426447401
 20
107.9603705591448
 30
0.0
 11
-752.5653484321926
 21
107.9603705591448
 31
0.0
  0
LINE
  5
198
330
1F
100
AcDbEntity
  8
A-0_通り芯
  6
Continuous
 62
     3
370
     9
100
AcDbLine
 10
-158.065162439926
 20
124.9603524135578
 30
0.0
 11
-158.065162439926
 21
109.460350763959
 31
0.0
  0
LINE
  5
199
330
1F
100
AcDbEntity
  8
A-0_通り芯
  6
Continuous
 62
     3
370
     9
100
AcDbLine
 10
-157.0652581166575
 20
108.460322720779
 30
0.0
 11
-157.0652581166575
 21
125.960318596782
 31
0.0
  0
LINE
  5
19A
330
1F
100
AcDbEntity
  8
A-0_通り芯
  6
Continuous
 62
     3
370
     9
100
AcDbLine
 10
-754.0653595669849
 20
138.1603390518073
 30
0.0
 11
-754.0653595669849
 21
153.6604025613618
 31
0.0
  0
LINE
  5
19B
330
1F
100
AcDbEntity
  8
A-0_通り芯
  6
Continuous
 62
     3
370
     9
100
AcDbLine
 10
-755.065325750209
 20
137.1603728685831
 30
0.0
 11
-755.065325750209
 21
154.6603687445861
 31
0.0
  0
LINE
  5
19C
330
1F
100
AcDbEntity
  8
A-0_通り芯
  6
Continuous
 62
     3
370
     9
100
AcDbLine
 10
-159.5651426447401
 20
155.1604446261316
 30
0.0
 11
-752.5653484321926
 21
155.1604446261316
 31
0.0
  0
LINE
  5
19D
330
1F
100
AcDbEntity
  8
A-0_通り芯
  6
Continuous
 62
     3
370
     9
100
AcDbLine
 10
-158.5652383214717
 20
156.1604108093559
 30
0.0
 11
-753.5653455453948
 21
156.1604108093559
 31
0.0
  0
LINE
  5
19E
330
1F
100
AcDbEntity
  8
A-0_通り芯
  6
Continuous
 62
     3
370
     9
100
AcDbLine
 10
-158.5652383214717
 20
135.6604545237246
 30
0.0
 11
-753.5653455453948
 21
135.6604545237246
 31
0.0
  0
LINE
  5
19F
330
1F
100
AcDbEntity
  8
A-0_通り芯
  6
Continuous
 62
     3
370
     9
100
AcDbLine
 10
-159.5651426447401
 20
136.6604207069488
 30
0.0
 11
-752.5653484321926
 21
136.6604207069488
 31
0.0
  0
LINE
  5
1A0
330
1F
100
AcDbEntity
  8
A-0_通り芯
  6
Continuous
 62
     3
370
     9
100
AcDbLine
 10
-158.065162439926
 20
153.6603407014061
 30
0.0
 11
-158.065162439926
 21
138.1603390518073
 31
0.0
  0
LINE
  5
1A1
330
1F
100
AcDbEntity
  8
A-0_通り芯
  6
Continuous
 62
     3
370
     9
100
AcDbLine
 10
-157.0652581166575
 20
137.1603728685831
 30
0.0
 11
-157.0652581166575
 21
154.6603687445861
 31
0.0
  0
LINE
  5
1A2
330
1F
100
AcDbEntity
  8
A-0_通り芯
  6
Continuous
 62
     3
370
     9
100
AcDbLine
 10
-754.0653595669849
 20
166.8603273396557
 30
0.0
 11
-754.0653595669849
 21
182.3603908492101
 31
0.0
  0
LINE
  5
1A3
330
1F
100
AcDbEntity
  8
A-0_通り芯
  6
Continuous
 62
     3
370
     9
100
AcDbLine
 10
-755.065325750209
 20
165.8603611564315
 30
0.0
 11
-755.065325750209
 21
183.3604188923901
 31
0.0
  0
LINE
  5
1A4
330
1F
100
AcDbEntity
  8
A-0_通り芯
  6
Continuous
 62
     3
370
     9
100
AcDbLine
 10
-159.5651426447401
 20
183.8604329139801
 30
0.0
 11
-752.5653484321926
 21
183.8604329139801
 31
0.0
  0
LINE
  5
1A5
330
1F
100
AcDbEntity
  8
A-0_通り芯
  6
Continuous
 62
     3
370
     9
100
AcDbLine
 10
-158.5652383214717
 20
184.8603990972043
 30
0.0
 11
-753.5653455453948
 21
184.8603990972043
 31
0.0
  0
LINE
  5
1A6
330
1F
100
AcDbEntity
  8
A-0_通り芯
  6
Continuous
 62
     3
370
     9
100
AcDbLine
 10
-158.5652383214717
 20
164.3603809516173
 30
0.0
 11
-753.5653455453948
 21
164.3603809516173
 31
0.0
  0
LINE
  5
1A7
330
1F
100
AcDbEntity
  8
A-0_通り芯
  6
Continuous
 62
     3
370
     9
100
AcDbLine
 10
-159.5651426447401
 20
165.3603471348415
 30
0.0
 11
-752.5653484321926
 21
165.3603471348415
 31
0.0
  0
LINE
  5
1A8
330
1F
100
AcDbEntity
  8
A-0_通り芯
  6
Continuous
 62
     3
370
     9
100
AcDbLine
 10
-158.065162439926
 20
182.3603908492101
 30
0.0
 11
-158.065162439926
 21
166.8603273396557
 31
0.0
  0
LINE
  5
1A9
330
1F
100
AcDbEntity
  8
A-0_通り芯
  6
Continuous
 62
     3
370
     9
100
AcDbLine
 10
-157.0652581166575
 20
165.8603611564315
 30
0.0
 11
-157.0652581166575
 21
183.3604188923901
 31
0.0
  0
LINE
  5
1AA
330
1F
100
AcDbEntity
  8
A-0_通り芯
  6
Continuous
 62
     3
370
     9
100
AcDbLine
 10
-754.0653595669849
 20
195.5603156275042
 30
0.0
 11
-754.0653595669849
 21
211.0604409970143
 31
0.0
  0
LINE
  5
1AB
330
1F
100
AcDbEntity
  8
A-0_通り芯
  6
Continuous
 62
     3
370
     9
100
AcDbLine
 10
-755.065325750209
 20
194.56034944428
 30
0.0
 11
-755.065325750209
 21
212.0604071802385
 31
0.0
  0
LINE
  5
1AC
330
1F
100
AcDbEntity
  8
A-0_通り芯
  6
Continuous
 62
     3
370
     9
100
AcDbLine
 10
-159.5651426447401
 20
212.5603593418728
 30
0.0
 11
-752.5653484321926
 21
212.5603593418728
 31
0.0
  0
LINE
  5
1AD
330
1F
100
AcDbEntity
  8
A-0_通り芯
  6
Continuous
 62
     3
370
     9
100
AcDbLine
 10
-158.5652383214717
 20
213.5602636651414
 30
0.0
 11
-753.5653455453948
 21
213.5602636651414
 31
0.0
  0
LINE
  5
1AE
330
1F
100
AcDbEntity
  8
A-0_通り芯
  6
Continuous
 62
     3
370
     9
100
AcDbLine
 10
-158.5652383214717
 20
193.0603692394658
 30
0.0
 11
-753.5653455453948
 21
193.0603692394658
 31
0.0
  0
LINE
  5
1AF
330
1F
100
AcDbEntity
  8
A-0_通り芯
  6
Continuous
 62
     3
370
     9
100
AcDbLine
 10
-159.5651426447401
 20
194.06033542269
 30
0.0
 11
-752.5653484321926
 21
194.06033542269
 31
0.0
  0
LINE
  5
1B0
330
1F
100
AcDbEntity
  8
A-0_通り芯
  6
Continuous
 62
     3
370
     9
100
AcDbLine
 10
-158.065162439926
 20
211.060317277103
 30
0.0
 11
-158.065162439926
 21
195.5603156275042
 31
0.0
  0
LINE
  5
1B1
330
1F
100
AcDbEntity
  8
A-0_通り芯
  6
Continuous
 62
     3
370
     9
100
AcDbLine
 10
-157.0652581166575
 20
194.56034944428
 30
0.0
 11
-157.0652581166575
 21
212.0603453202828
 31
0.0
  0
LINE
  5
1B2
330
1F
100
AcDbEntity
  8
A-0_通り芯
  6
Continuous
 62
     3
370
     9
100
AcDbLine
 10
-754.0653595669849
 20
224.2604276352638
 30
0.0
 11
-754.0653595669849
 21
239.7604292848626
 31
0.0
  0
LINE
  5
1B3
330
1F
100
AcDbEntity
  8
A-0_通り芯
  6
Continuous
 62
     3
370
     9
100
AcDbLine
 10
-755.065325750209
 20
212.0604071802385
 30
0.0
 11
-755.065325750209
 21
240.7603336081312
 31
0.0
  0
LINE
  5
1B4
330
1F
100
AcDbEntity
  8
A-0_通り芯
  6
Continuous
 62
     3
370
     9
100
AcDbLine
 10
-159.5651426447401
 20
241.2604094896768
 30
0.0
 11
-752.5653484321926
 21
241.2604094896768
 31
0.0
  0
LINE
  5
1B5
330
1F
100
AcDbEntity
  8
A-0_通り芯
  6
Continuous
 62
     3
370
     9
100
AcDbLine
 10
-158.5652383214717
 20
242.2603138129454
 30
0.0
 11
-753.5653455453948
 21
242.2603138129454
 31
0.0
  0
LINE
  5
1B6
330
1F
100
AcDbEntity
  8
A-0_通り芯
  6
Continuous
 62
     3
370
     9
100
AcDbLine
 10
-158.5652383214717
 20
221.7604193872698
 30
0.0
 11
-753.5653455453948
 21
221.7604193872698
 31
0.0
  0
LINE
  5
1B7
330
1F
100
AcDbEntity
  8
A-0_通り芯
  6
Continuous
 62
     3
370
     9
100
AcDbLine
 10
-159.5651426447401
 20
222.7603237105383
 30
0.0
 11
-752.5653484321926
 21
222.7603237105383
 31
0.0
  0
LINE
  5
1B8
330
1F
100
AcDbEntity
  8
A-0_通り芯
  6
Continuous
 62
     3
370
     9
100
AcDbLine
 10
-158.065162439926
 20
239.7604292848626
 30
0.0
 11
-158.065162439926
 21
224.2604276352638
 31
0.0
  0
LINE
  5
1B9
330
1F
100
AcDbEntity
  8
A-0_通り芯
  6
Continuous
 62
     3
370
     9
100
AcDbLine
 10
-157.0652581166575
 20
223.2602758721727
 30
0.0
 11
-157.0652581166575
 21
240.7603336081312
 31
0.0
  0
LINE
  5
1BA
330
1F
100
AcDbEntity
  8
A-0_通り芯
  6
Continuous
 62
     3
370
     9
100
AcDbLine
 10
-159.5651426447401
 20
269.9603359175695
 30
0.0
 11
-752.5653484321926
 21
269.9603359175695
 31
0.0
  0
LINE
  5
1BB
330
1F
100
AcDbEntity
  8
A-0_通り芯
  6
Continuous
 62
     3
370
     9
100
AcDbLine
 10
-158.5652383214717
 20
250.4603458151625
 30
0.0
 11
-753.5653455453948
 21
250.4603458151625
 31
0.0
  0
LINE
  5
1BC
330
1F
100
AcDbEntity
  8
A-0_通り芯
  6
Continuous
 62
     3
370
     9
100
AcDbLine
 10
-159.5651426447401
 20
251.4603738583425
 30
0.0
 11
-752.5653484321926
 21
251.4603738583425
 31
0.0
  0
LINE
  5
1BD
330
1F
100
AcDbEntity
  8
A-0_通り芯
  6
Continuous
 62
     3
370
     9
100
AcDbLine
 10
-754.0653595669849
 20
52.56026448994074
 30
0.0
 11
-754.0653595669849
 21
67.56037583786092
 31
0.0
  0
LINE
  5
1BE
330
1F
100
AcDbEntity
  8
A-0_通り芯
  6
Continuous
 62
     3
370
     9
100
AcDbLine
 10
-755.065325750209
 20
68.56040388104087
 30
0.0
 11
-755.065325750209
 21
51.56029830671652
 31
0.0
  0
LINE
  5
1BF
330
1F
100
AcDbEntity
  8
A-0_通り芯
  6
Continuous
 62
     3
370
     9
100
AcDbLine
 10
-755.065325750209
 20
97.26039216888918
 30
0.0
 11
-755.065325750209
 21
79.76033443293058
 31
0.0
  0
LINE
  5
1C0
330
1F
100
AcDbEntity
  8
A-0_通り芯
  6
Continuous
 62
     3
370
     9
100
AcDbLine
 10
-754.0653595669849
 20
80.76030061615481
 30
0.0
 11
-754.0653595669849
 21
96.26042598566497
 31
0.0
  0
LINE
  5
1C1
330
1F
100
AcDbEntity
  8
A-0_通り芯
  6
Continuous
 62
     3
370
     9
100
AcDbLine
 10
-159.5651426447401
 20
69.06035604267511
 30
0.0
 11
-752.5653484321926
 21
69.06035604267511
 31
0.0
  0
LINE
  5
1C2
330
1F
100
AcDbEntity
  8
A-0_通り芯
  6
Continuous
 62
     3
370
     9
100
AcDbLine
 10
-158.5652383214717
 20
70.06032222589933
 30
0.0
 11
-753.5653455453948
 21
70.06032222589933
 31
0.0
  0
LINE
  5
1C3
330
1F
100
AcDbEntity
  8
A-0_通り芯
  6
Continuous
 62
     3
370
     9
100
AcDbLine
 10
-157.0652581166575
 20
51.56029830671652
 30
0.0
 11
-157.0652581166575
 21
68.56040388104087
 31
0.0
  0
LINE
  5
1C4
330
1F
100
AcDbEntity
  8
A-0_通り芯
  6
Continuous
 62
     3
370
     9
100
AcDbLine
 10
-158.5652383214717
 20
50.06037996185792
 30
0.0
 11
-753.5653455453948
 21
50.06037996185792
 31
0.0
  0
LINE
  5
1C5
330
1F
100
AcDbEntity
  8
A-0_通り芯
  6
Continuous
 62
     3
370
     9
100
AcDbLine
 10
-158.065162439926
 20
52.56026448994074
 30
0.0
 11
-158.065162439926
 21
67.56037583786092
 31
0.0
  0
LINE
  5
1C6
330
1F
100
AcDbEntity
  8
A-0_通り芯
  6
Continuous
 62
     3
370
     9
100
AcDbLine
 10
-159.5651426447401
 20
51.06034614508228
 30
0.0
 11
-752.5653484321926
 21
51.06034614508228
 31
0.0
  0
LINE
  5
1C7
330
1F
100
AcDbEntity
  8
A-0_通り芯
  6
Continuous
 62
     3
370
     9
100
AcDbLine
 10
-158.065162439926
 20
96.26030226575364
 30
0.0
 11
-158.065162439926
 21
80.76030061615481
 31
0.0
  0
LINE
  5
1C8
330
1F
100
AcDbEntity
  8
A-0_通り芯
  6
Continuous
 62
     3
370
     9
100
AcDbLine
 10
-157.0652581166575
 20
97.26033030893359
 30
0.0
 11
-157.0652581166575
 21
79.76033443293058
 31
0.0
  0
LINE
  5
1C9
330
1F
100
AcDbEntity
  8
A-0_通り芯
  6
Continuous
 62
     3
370
     9
100
AcDbLine
 10
-754.0653595669849
 20
281.6604042109607
 30
0.0
 11
-754.0653595669849
 21
297.1102992964758
 31
0.0
  0
LINE
  5
1CA
330
1F
100
AcDbEntity
  8
A-0_通り芯
  6
Continuous
 62
     3
370
     9
100
AcDbLine
 10
-755.065325750209
 20
280.6602524478694
 30
0.0
 11
-755.065325750209
 21
298.1102036197444
 31
0.0
  0
LINE
  5
1CB
330
1F
100
AcDbEntity
  8
A-0_通り芯
  6
Continuous
 62
     3
370
     9
100
AcDbLine
 10
-755.065325750209
 20
269.4603837559353
 30
0.0
 11
-755.065325750209
 21
251.9602023000654
 31
0.0
  0
LINE
  5
1CC
330
1F
100
AcDbEntity
  8
A-0_通り芯
  6
Continuous
 62
     3
370
     9
100
AcDbLine
 10
-754.0653595669849
 20
268.4604794326667
 30
0.0
 11
-754.0653595669849
 21
252.9603540631566
 31
0.0
  0
LINE
  5
1CD
330
1F
100
AcDbEntity
  8
A-0_通り芯
  6
Continuous
 62
     3
370
     9
100
AcDbLine
 10
-159.5651426447401
 20
298.6102795012899
 30
0.0
 11
-752.5653484321926
 21
298.6102795012899
 31
0.0
  0
LINE
  5
1CE
330
1F
100
AcDbEntity
  8
A-0_通り芯
  6
Continuous
 62
     3
370
     9
100
AcDbLine
 10
-158.5652383214717
 20
299.6101838245586
 30
0.0
 11
-753.5653455453948
 21
299.6101838245586
 31
0.0
  0
LINE
  5
1CF
330
1F
100
AcDbEntity
  8
A-0_通り芯
  6
Continuous
 62
     3
370
     9
100
AcDbLine
 10
-157.0652581166575
 20
280.6602524478694
 30
0.0
 11
-157.0652581166575
 21
298.1102036197444
 31
0.0
  0
LINE
  5
1D0
330
1F
100
AcDbEntity
  8
A-0_通り芯
  6
Continuous
 62
     3
370
     9
100
AcDbLine
 10
-158.5652383214717
 20
279.1602722430552
 30
0.0
 11
-753.5653455453948
 21
279.1602722430552
 31
0.0
  0
LINE
  5
1D1
330
1F
100
AcDbEntity
  8
A-0_通り芯
  6
Continuous
 62
     3
370
     9
100
AcDbLine
 10
-158.065162439926
 20
281.6604042109607
 30
0.0
 11
-158.065162439926
 21
297.1102992964758
 31
0.0
  0
LINE
  5
1D2
330
1F
100
AcDbEntity
  8
A-0_通り芯
  6
Continuous
 62
     3
370
     9
100
AcDbLine
 10
-159.5651426447401
 20
280.1601765663238
 30
0.0
 11
-752.5653484321926
 21
280.1601765663238
 31
0.0
  0
LINE
  5
1D3
330
1F
100
AcDbEntity
  8
A-0_通り芯
  6
Continuous
 62
     3
370
     9
100
AcDbLine
 10
-158.065162439926
 20
268.4604794326667
 30
0.0
 11
-158.065162439926
 21
252.9603540631566
 31
0.0
  0
LINE
  5
1D4
330
1F
100
AcDbEntity
  8
A-0_通り芯
  6
Continuous
 62
     3
370
     9
100
AcDbLine
 10
-157.0652581166575
 20
269.4603837559353
 30
0.0
 11
-157.0652581166575
 21
251.9602023000654
 31
0.0
  0
LINE
  5
1D5
330
1F
100
AcDbEntity
  8
A-0_通り芯
  6
Continuous
 62
     3
370
     9
100
AcDbLine
 10
-755.065325750209
 20
79.76033443293058
 30
0.0
 11
-755.065325750209
 21
68.56040388104087
 31
0.0
  0
LINE
  5
1D6
330
1F
100
AcDbEntity
  8
A-0_通り芯
  6
Continuous
 62
     3
370
     9
100
AcDbLine
 10
-735.0653525561897
 20
78.26035422811638
 30
0.0
 11
-735.0653525561897
 21
70.06032222589933
 31
0.0
  0
LINE
  5
1D7
330
1F
100
AcDbEntity
  8
A-0_通り芯
  6
Continuous
 62
     3
370
     9
100
AcDbLine
 10
-619.4653336682832
 20
78.26035422811638
 30
0.0
 11
-619.4653336682832
 21
70.06032222589933
 31
0.0
  0
LINE
  5
1D8
330
1F
100
AcDbEntity
  8
A-0_通り芯
  6
Continuous
 62
     3
370
     9
100
AcDbLine
 10
-639.4653377922804
 20
78.26035422811638
 30
0.0
 11
-639.4653377922804
 21
70.06032222589933
 31
0.0
  0
LINE
  5
1D9
330
1F
100
AcDbEntity
  8
A-0_通り芯
  6
Continuous
 62
     3
370
     9
100
AcDbLine
 10
-750.0653401841986
 20
60.83533261837199
 30
0.0
 11
-750.0653401841986
 21
66.83537715753995
 31
0.0
  0
LINE
  5
1DA
330
1F
100
AcDbEntity
  8
A-0_通り芯
  6
Continuous
 62
     3
370
     9
100
AcDbLine
 10
-744.0653575049864
 20
66.83537715753995
 30
0.0
 11
-750.0653401841986
 21
60.83533261837199
 31
0.0
  0
LINE
  5
1DB
330
1F
100
AcDbEntity
  8
A-0_通り芯
  6
Continuous
 62
     3
370
     9
100
AcDbLine
 10
-735.5800583172486
 20
66.83537715753995
 30
0.0
 11
-739.8226924461287
 21
66.83537715753995
 31
0.0
  0
LINE
  5
1DC
330
1F
100
AcDbEntity
  8
A-0_通り芯
  6
Continuous
 62
     3
370
     9
100
AcDbLine
 10
-734.0653554429877
 20
60.06035109387862
 30
0.0
 11
-734.0653554429877
 21
64.10741497294335
 31
0.0
  0
LINE
  5
1DD
330
1F
100
AcDbEntity
  8
A-0_通り芯
  6
Continuous
 62
     3
370
     9
100
AcDbLine
 10
-750.0653401841986
 20
66.83537715753995
 30
0.0
 11
-744.0653575049864
 21
66.83537715753995
 31
0.0
  0
LINE
  5
1DE
330
1F
100
AcDbEntity
  8
A-0_通り芯
  6
Continuous
 62
     3
370
     9
100
AcDbLine
 10
-739.8226924461287
 20
66.83537715753995
 30
0.0
 11
-746.5977185097897
 21
60.06035109387862
 31
0.0
  0
LINE
  5
1DF
330
1F
100
AcDbEntity
  8
A-0_通り芯
  6
Continuous
 62
     3
370
     9
100
AcDbLine
 10
-735.5800583172486
 20
66.83537715753995
 30
0.0
 11
-742.3550843809101
 21
60.06035109387862
 31
0.0
  0
LINE
  5
1E0
330
1F
100
AcDbEntity
  8
A-0_通り芯
  6
Continuous
 62
     3
370
     9
100
AcDbLine
 10
-734.0653554429877
 20
64.10741497294335
 30
0.0
 11
-738.1124193220522
 21
60.06035109387862
 31
0.0
  0
LINE
  5
1E1
330
1F
100
AcDbEntity
  8
A-0_通り芯
  6
Continuous
 62
     3
370
     9
100
AcDbLine
 10
-750.0653401841986
 20
59.2853077094298
 30
0.0
 11
-750.0653401841986
 21
53.28532503021729
 31
0.0
  0
LINE
  5
1E2
330
1F
100
AcDbEntity
  8
A-0_通り芯
  6
Continuous
 62
     3
370
     9
100
AcDbLine
 10
-744.0653575049864
 20
53.28532503021729
 30
0.0
 11
-750.0653401841986
 21
59.2853077094298
 31
0.0
  0
LINE
  5
1E3
330
1F
100
AcDbEntity
  8
A-0_通り芯
  6
Continuous
 62
     3
370
     9
100
AcDbLine
 10
-735.5800583172486
 20
53.28532503021729
 30
0.0
 11
-739.8226924461287
 21
53.28532503021729
 31
0.0
  0
LINE
  5
1E4
330
1F
100
AcDbEntity
  8
A-0_通り芯
  6
Continuous
 62
     3
370
     9
100
AcDbLine
 10
-734.0653554429877
 20
60.06035109387862
 30
0.0
 11
-734.0653554429877
 21
56.01322535485845
 31
0.0
  0
LINE
  5
1E5
330
1F
100
AcDbEntity
  8
A-0_通り芯
  6
Continuous
 62
     3
370
     9
100
AcDbLine
 10
-750.0653401841986
 20
53.28532503021729
 30
0.0
 11
-744.0653575049864
 21
53.28532503021729
 31
0.0
  0
LINE
  5
1E6
330
1F
100
AcDbEntity
  8
A-0_通り芯
  6
Continuous
 62
     3
370
     9
100
AcDbLine
 10
-739.8226924461287
 20
53.28532503021729
 30
0.0
 11
-746.5977185097897
 21
60.06035109387862
 31
0.0
  0
LINE
  5
1E7
330
1F
100
AcDbEntity
  8
A-0_通り芯
  6
Continuous
 62
     3
370
     9
100
AcDbLine
 10
-735.5800583172486
 20
53.28532503021729
 30
0.0
 11
-742.3550843809101
 21
60.06035109387862
 31
0.0
  0
LINE
  5
1E8
330
1F
100
AcDbEntity
  8
A-0_通り芯
  6
Continuous
 62
     3
370
     9
100
AcDbLine
 10
-734.0653554429877
 20
56.01322535485845
 30
0.0
 11
-738.1124193220522
 21
60.06035109387862
 31
0.0
  0
LINE
  5
1E9
330
1F
100
AcDbEntity
  8
A-0_通り芯
  6
Continuous
 62
     3
370
     9
100
AcDbLine
 10
-728.0653727637755
 20
60.83533261837199
 30
0.0
 11
-728.0653727637755
 21
66.83537715753995
 31
0.0
  0
LINE
  5
1EA
330
1F
100
AcDbEntity
  8
A-0_通り芯
  6
Continuous
 62
     3
370
     9
100
AcDbLine
 10
-722.0653282246074
 20
66.83537715753995
 30
0.0
 11
-728.0653727637755
 21
60.83533261837199
 31
0.0
  0
LINE
  5
1EB
330
1F
100
AcDbEntity
  8
A-0_通り芯
  6
Continuous
 62
     3
370
     9
100
AcDbLine
 10
-713.5800599668476
 20
66.83537715753995
 30
0.0
 11
-717.8226940957272
 21
66.83537715753995
 31
0.0
  0
LINE
  5
1EC
330
1F
100
AcDbEntity
  8
A-0_通り芯
  6
Continuous
 62
     3
370
     9
100
AcDbLine
 10
-712.0653570925866
 20
60.06035109387862
 30
0.0
 11
-712.0653570925866
 21
64.10741497294335
 31
0.0
  0
LINE
  5
1ED
330
1F
100
AcDbEntity
  8
A-0_通り芯
  6
Continuous
 62
     3
370
     9
100
AcDbLine
 10
-728.0653727637755
 20
66.83537715753995
 30
0.0
 11
-722.0653282246074
 21
66.83537715753995
 31
0.0
  0
LINE
  5
1EE
330
1F
100
AcDbEntity
  8
A-0_通り芯
  6
Continuous
 62
     3
370
     9
100
AcDbLine
 10
-717.8226940957272
 20
66.83537715753995
 30
0.0
 11
-724.5976892294109
 21
60.06035109387862
 31
0.0
  0
LINE
  5
1EF
330
1F
100
AcDbEntity
  8
A-0_通り芯
  6
Continuous
 62
     3
370
     9
100
AcDbLine
 10
-713.5800599668476
 20
66.83537715753995
 30
0.0
 11
-720.3550860305088
 21
60.06035109387862
 31
0.0
  0
LINE
  5
1F0
330
1F
100
AcDbEntity
  8
A-0_通り芯
  6
Continuous
 62
     3
370
     9
100
AcDbLine
 10
-712.0653570925866
 20
64.10741497294335
 30
0.0
 11
-716.1124209716512
 21
60.06035109387862
 31
0.0
  0
LINE
  5
1F1
330
1F
100
AcDbEntity
  8
A-0_通り芯
  6
Continuous
 62
     3
370
     9
100
AcDbLine
 10
-728.0653727637755
 20
59.2853077094298
 30
0.0
 11
-728.0653727637755
 21
53.28532503021729
 31
0.0
  0
LINE
  5
1F2
330
1F
100
AcDbEntity
  8
A-0_通り芯
  6
Continuous
 62
     3
370
     9
100
AcDbLine
 10
-722.0653282246074
 20
53.28532503021729
 30
0.0
 11
-728.0653727637755
 21
59.2853077094298
 31
0.0
  0
LINE
  5
1F3
330
1F
100
AcDbEntity
  8
A-0_通り芯
  6
Continuous
 62
     3
370
     9
100
AcDbLine
 10
-713.5800599668476
 20
53.28532503021729
 30
0.0
 11
-717.8226940957272
 21
53.28532503021729
 31
0.0
  0
LINE
  5
1F4
330
1F
100
AcDbEntity
  8
A-0_通り芯
  6
Continuous
 62
     3
370
     9
100
AcDbLine
 10
-712.0653570925866
 20
60.06035109387862
 30
0.0
 11
-712.0653570925866
 21
56.01322535485845
 31
0.0
  0
LINE
  5
1F5
330
1F
100
AcDbEntity
  8
A-0_通り芯
  6
Continuous
 62
     3
370
     9
100
AcDbLine
 10
-728.0653727637755
 20
53.28532503021729
 30
0.0
 11
-722.0653282246074
 21
53.28532503021729
 31
0.0
  0
LINE
  5
1F6
330
1F
100
AcDbEntity
  8
A-0_通り芯
  6
Continuous
 62
     3
370
     9
100
AcDbLine
 10
-717.8226940957272
 20
53.28532503021729
 30
0.0
 11
-724.5976892294109
 21
60.06035109387862
 31
0.0
  0
LINE
  5
1F7
330
1F
100
AcDbEntity
  8
A-0_通り芯
  6
Continuous
 62
     3
370
     9
100
AcDbLine
 10
-713.5800599668476
 20
53.28532503021729
 30
0.0
 11
-720.3550860305088
 21
60.06035109387862
 31
0.0
  0
LINE
  5
1F8
330
1F
100
AcDbEntity
  8
A-0_通り芯
  6
Continuous
 62
     3
370
     9
100
AcDbLine
 10
-712.0653570925866
 20
56.01322535485845
 30
0.0
 11
-716.1124209716512
 21
60.06035109387862
 31
0.0
  0
LINE
  5
1F9
330
1F
100
AcDbEntity
  8
A-0_通り芯
  6
Continuous
 62
     3
370
     9
100
AcDbLine
 10
-706.0653434833964
 20
60.83533261837199
 30
0.0
 11
-706.0653434833964
 21
66.83537715753995
 31
0.0
  0
LINE
  5
1FA
330
1F
100
AcDbEntity
  8
A-0_通り芯
  6
Continuous
 62
     3
370
     9
100
AcDbLine
 10
-700.0653298742063
 20
66.83537715753995
 30
0.0
 11
-706.0653434833964
 21
60.83533261837199
 31
0.0
  0
LINE
  5
1FB
330
1F
100
AcDbEntity
  8
A-0_通り芯
  6
Continuous
 62
     3
370
     9
100
AcDbLine
 10
-691.5800616164463
 20
66.83537715753995
 30
0.0
 11
-695.8226957453262
 21
66.83537715753995
 31
0.0
  0
LINE
  5
1FC
330
1F
100
AcDbEntity
  8
A-0_通り芯
  6
Continuous
 62
     3
370
     9
100
AcDbLine
 10
-690.0653587421855
 20
60.06035109387862
 30
0.0
 11
-690.0653587421855
 21
64.10741497294335
 31
0.0
  0
LINE
  5
1FD
330
1F
100
AcDbEntity
  8
A-0_通り芯
  6
Continuous
 62
     3
370
     9
100
AcDbLine
 10
-706.0653434833964
 20
66.83537715753995
 30
0.0
 11
-700.0653298742063
 21
66.83537715753995
 31
0.0
  0
LINE
  5
1FE
330
1F
100
AcDbEntity
  8
A-0_通り芯
  6
Continuous
 62
     3
370
     9
100
AcDbLine
 10
-695.8226957453262
 20
66.83537715753995
 30
0.0
 11
-702.5976908790099
 21
60.06035109387862
 31
0.0
  0
LINE
  5
1FF
330
1F
100
AcDbEntity
  8
A-0_通り芯
  6
Continuous
 62
     3
370
     9
100
AcDbLine
 10
-691.5800616164463
 20
66.83537715753995
 30
0.0
 11
-698.3550876801078
 21
60.06035109387862
 31
0.0
  0
LINE
  5
200
330
1F
100
AcDbEntity
  8
A-0_通り芯
  6
Continuous
 62
     3
370
     9
100
AcDbLine
 10
-690.0653587421855
 20
64.10741497294335
 30
0.0
 11
-694.1124226212501
 21
60.06035109387862
 31
0.0
  0
LINE
  5
201
330
1F
100
AcDbEntity
  8
A-0_通り芯
  6
Continuous
 62
     3
370
     9
100
AcDbLine
 10
-706.0653434833964
 20
59.2853077094298
 30
0.0
 11
-706.0653434833964
 21
53.28532503021729
 31
0.0
  0
LINE
  5
202
330
1F
100
AcDbEntity
  8
A-0_通り芯
  6
Continuous
 62
     3
370
     9
100
AcDbLine
 10
-700.0653298742063
 20
53.28532503021729
 30
0.0
 11
-706.0653434833964
 21
59.2853077094298
 31
0.0
  0
LINE
  5
203
330
1F
100
AcDbEntity
  8
A-0_通り芯
  6
Continuous
 62
     3
370
     9
100
AcDbLine
 10
-691.5800616164463
 20
53.28532503021729
 30
0.0
 11
-695.8226957453262
 21
53.28532503021729
 31
0.0
  0
LINE
  5
204
330
1F
100
AcDbEntity
  8
A-0_通り芯
  6
Continuous
 62
     3
370
     9
100
AcDbLine
 10
-690.0653587421855
 20
60.06035109387862
 30
0.0
 11
-690.0653587421855
 21
56.01322535485845
 31
0.0
  0
LINE
  5
205
330
1F
100
AcDbEntity
  8
A-0_通り芯
  6
Continuous
 62
     3
370
     9
100
AcDbLine
 10
-706.0653434833964
 20
53.28532503021729
 30
0.0
 11
-700.0653298742063
 21
53.28532503021729
 31
0.0
  0
LINE
  5
206
330
1F
100
AcDbEntity
  8
A-0_通り芯
  6
Continuous
 62
     3
370
     9
100
AcDbLine
 10
-695.8226957453262
 20
53.28532503021729
 30
0.0
 11
-702.5976908790099
 21
60.06035109387862
 31
0.0
  0
LINE
  5
207
330
1F
100
AcDbEntity
  8
A-0_通り芯
  6
Continuous
 62
     3
370
     9
100
AcDbLine
 10
-691.5800616164463
 20
53.28532503021729
 30
0.0
 11
-698.3550876801078
 21
60.06035109387862
 31
0.0
  0
LINE
  5
208
330
1F
100
AcDbEntity
  8
A-0_通り芯
  6
Continuous
 62
     3
370
     9
100
AcDbLine
 10
-690.0653587421855
 20
56.01322535485845
 30
0.0
 11
-694.1124226212501
 21
60.06035109387862
 31
0.0
  0
LINE
  5
209
330
1F
100
AcDbEntity
  8
A-0_通り芯
  6
Continuous
 62
     3
370
     9
100
AcDbLine
 10
-684.0653451329949
 20
60.83533261837199
 30
0.0
 11
-684.0653451329949
 21
66.83537715753995
 31
0.0
  0
LINE
  5
20A
330
1F
100
AcDbEntity
  8
A-0_通り芯
  6
Continuous
 62
     3
370
     9
100
AcDbLine
 10
-678.0653315238048
 20
66.83537715753995
 30
0.0
 11
-684.0653451329949
 21
60.83533261837199
 31
0.0
  0
LINE
  5
20B
330
1F
100
AcDbEntity
  8
A-0_通り芯
  6
Continuous
 62
     3
370
     9
100
AcDbLine
 10
-669.5800323360673
 20
66.83537715753995
 30
0.0
 11
-673.822666464947
 21
66.83537715753995
 31
0.0
  0
LINE
  5
20C
330
1F
100
AcDbEntity
  8
A-0_通り芯
  6
Continuous
 62
     3
370
     9
100
AcDbLine
 10
-668.0652985318285
 20
60.06035109387862
 30
0.0
 11
-668.0652985318285
 21
64.10741497294335
 31
0.0
  0
LINE
  5
20D
330
1F
100
AcDbEntity
  8
A-0_通り芯
  6
Continuous
 62
     3
370
     9
100
AcDbLine
 10
-684.0653451329949
 20
66.83537715753995
 30
0.0
 11
-678.0653315238048
 21
66.83537715753995
 31
0.0
  0
LINE
  5
20E
330
1F
100
AcDbEntity
  8
A-0_通り芯
  6
Continuous
 62
     3
370
     9
100
AcDbLine
 10
-673.822666464947
 20
66.83537715753995
 30
0.0
 11
-680.5976925286085
 21
60.06035109387862
 31
0.0
  0
LINE
  5
20F
330
1F
100
AcDbEntity
  8
A-0_通り芯
  6
Continuous
 62
     3
370
     9
100
AcDbLine
 10
-669.5800323360673
 20
66.83537715753995
 30
0.0
 11
-676.3550274697507
 21
60.06035109387862
 31
0.0
  0
LINE
  5
210
330
1F
100
AcDbEntity
  8
A-0_通り芯
  6
Continuous
 62
     3
370
     9
100
AcDbLine
 10
-668.0652985318285
 20
64.10741497294335
 30
0.0
 11
-672.1123624108931
 21
60.06035109387862
 31
0.0
  0
LINE
  5
211
330
1F
100
AcDbEntity
  8
A-0_通り芯
  6
Continuous
 62
     3
370
     9
100
AcDbLine
 10
-684.0653451329949
 20
59.2853077094298
 30
0.0
 11
-684.0653451329949
 21
53.28532503021729
 31
0.0
  0
LINE
  5
212
330
1F
100
AcDbEntity
  8
A-0_通り芯
  6
Continuous
 62
     3
370
     9
100
AcDbLine
 10
-678.0653315238048
 20
53.28532503021729
 30
0.0
 11
-684.0653451329949
 21
59.2853077094298
 31
0.0
  0
LINE
  5
213
330
1F
100
AcDbEntity
  8
A-0_通り芯
  6
Continuous
 62
     3
370
     9
100
AcDbLine
 10
-669.5800323360673
 20
53.28532503021729
 30
0.0
 11
-673.822666464947
 21
53.28532503021729
 31
0.0
  0
LINE
  5
214
330
1F
100
AcDbEntity
  8
A-0_通り芯
  6
Continuous
 62
     3
370
     9
100
AcDbLine
 10
-668.0652985318285
 20
60.06035109387862
 30
0.0
 11
-668.0652985318285
 21
56.01322535485845
 31
0.0
  0
LINE
  5
215
330
1F
100
AcDbEntity
  8
A-0_通り芯
  6
Continuous
 62
     3
370
     9
100
AcDbLine
 10
-684.0653451329949
 20
53.28532503021729
 30
0.0
 11
-678.0653315238048
 21
53.28532503021729
 31
0.0
  0
LINE
  5
216
330
1F
100
AcDbEntity
  8
A-0_通り芯
  6
Continuous
 62
     3
370
     9
100
AcDbLine
 10
-673.822666464947
 20
53.28532503021729
 30
0.0
 11
-680.5976925286085
 21
60.06035109387862
 31
0.0
  0
LINE
  5
217
330
1F
100
AcDbEntity
  8
A-0_通り芯
  6
Continuous
 62
     3
370
     9
100
AcDbLine
 10
-669.5800323360673
 20
53.28532503021729
 30
0.0
 11
-676.3550274697507
 21
60.06035109387862
 31
0.0
  0
LINE
  5
218
330
1F
100
AcDbEntity
  8
A-0_通り芯
  6
Continuous
 62
     3
370
     9
100
AcDbLine
 10
-668.0652985318285
 20
56.01322535485845
 30
0.0
 11
-672.1123624108931
 21
60.06035109387862
 31
0.0
  0
LINE
  5
219
330
1F
100
AcDbEntity
  8
A-0_通り芯
  6
Continuous
 62
     3
370
     9
100
AcDbLine
 10
-662.065315852616
 20
60.83533261837199
 30
0.0
 11
-662.065315852616
 21
66.83537715753995
 31
0.0
  0
LINE
  5
21A
330
1F
100
AcDbEntity
  8
A-0_通り芯
  6
Continuous
 62
     3
370
     9
100
AcDbLine
 10
-656.0653331734035
 20
66.83537715753995
 30
0.0
 11
-662.065315852616
 21
60.83533261837199
 31
0.0
  0
LINE
  5
21B
330
1F
100
AcDbEntity
  8
A-0_通り芯
  6
Continuous
 62
     3
370
     9
100
AcDbLine
 10
-647.580033985666
 20
66.83537715753995
 30
0.0
 11
-651.822668114546
 21
66.83537715753995
 31
0.0
  0
LINE
  5
21C
330
1F
100
AcDbEntity
  8
A-0_通り芯
  6
Continuous
 62
     3
370
     9
100
AcDbLine
 10
-646.0653001814272
 20
60.06035109387862
 30
0.0
 11
-646.0653001814272
 21
64.10741497294335
 31
0.0
  0
LINE
  5
21D
330
1F
100
AcDbEntity
  8
A-0_通り芯
  6
Continuous
 62
     3
370
     9
100
AcDbLine
 10
-662.065315852616
 20
66.83537715753995
 30
0.0
 11
-656.0653331734035
 21
66.83537715753995
 31
0.0
  0
LINE
  5
21E
330
1F
100
AcDbEntity
  8
A-0_通り芯
  6
Continuous
 62
     3
370
     9
100
AcDbLine
 10
-651.822668114546
 20
66.83537715753995
 30
0.0
 11
-658.5976941782071
 21
60.06035109387862
 31
0.0
  0
LINE
  5
21F
330
1F
100
AcDbEntity
  8
A-0_通り芯
  6
Continuous
 62
     3
370
     9
100
AcDbLine
 10
-647.580033985666
 20
66.83537715753995
 30
0.0
 11
-654.3550291193496
 21
60.06035109387862
 31
0.0
  0
LINE
  5
220
330
1F
100
AcDbEntity
  8
A-0_通り芯
  6
Continuous
 62
     3
370
     9
100
AcDbLine
 10
-646.0653001814272
 20
64.10741497294335
 30
0.0
 11
-650.1123640604918
 21
60.06035109387862
 31
0.0
  0
LINE
  5
221
330
1F
100
AcDbEntity
  8
A-0_通り芯
  6
Continuous
 62
     3
370
     9
100
AcDbLine
 10
-662.065315852616
 20
59.2853077094298
 30
0.0
 11
-662.065315852616
 21
53.28532503021729
 31
0.0
  0
LINE
  5
222
330
1F
100
AcDbEntity
  8
A-0_通り芯
  6
Continuous
 62
     3
370
     9
100
AcDbLine
 10
-656.0653331734035
 20
53.28532503021729
 30
0.0
 11
-662.065315852616
 21
59.2853077094298
 31
0.0
  0
LINE
  5
223
330
1F
100
AcDbEntity
  8
A-0_通り芯
  6
Continuous
 62
     3
370
     9
100
AcDbLine
 10
-647.580033985666
 20
53.28532503021729
 30
0.0
 11
-651.822668114546
 21
53.28532503021729
 31
0.0
  0
LINE
  5
224
330
1F
100
AcDbEntity
  8
A-0_通り芯
  6
Continuous
 62
     3
370
     9
100
AcDbLine
 10
-646.0653001814272
 20
60.06035109387862
 30
0.0
 11
-646.0653001814272
 21
56.01322535485845
 31
0.0
  0
LINE
  5
225
330
1F
100
AcDbEntity
  8
A-0_通り芯
  6
Continuous
 62
     3
370
     9
100
AcDbLine
 10
-662.065315852616
 20
53.28532503021729
 30
0.0
 11
-656.0653331734035
 21
53.28532503021729
 31
0.0
  0
LINE
  5
226
330
1F
100
AcDbEntity
  8
A-0_通り芯
  6
Continuous
 62
     3
370
     9
100
AcDbLine
 10
-651.822668114546
 20
53.28532503021729
 30
0.0
 11
-658.5976941782071
 21
60.06035109387862
 31
0.0
  0
LINE
  5
227
330
1F
100
AcDbEntity
  8
A-0_通り芯
  6
Continuous
 62
     3
370
     9
100
AcDbLine
 10
-647.580033985666
 20
53.28532503021729
 30
0.0
 11
-654.3550291193496
 21
60.06035109387862
 31
0.0
  0
LINE
  5
228
330
1F
100
AcDbEntity
  8
A-0_通り芯
  6
Continuous
 62
     3
370
     9
100
AcDbLine
 10
-646.0653001814272
 20
56.01322535485845
 30
0.0
 11
-650.1123640604918
 21
60.06035109387862
 31
0.0
  0
LINE
  5
229
330
1F
100
AcDbEntity
  8
A-0_通り芯
  6
Continuous
 62
     3
370
     9
100
AcDbLine
 10
-744.3079722510802
 20
95.5103740233022
 30
0.0
 11
-748.5506063799598
 21
95.5103740233022
 31
0.0
  0
LINE
  5
22A
330
1F
100
AcDbEntity
  8
A-0_通り芯
  6
Continuous
 62
     3
370
     9
100
AcDbLine
 10
-740.0653381222002
 20
95.5103740233022
 30
0.0
 11
-734.0653554429877
 21
95.5103740233022
 31
0.0
  0
LINE
  5
22B
330
1F
100
AcDbEntity
  8
A-0_通り芯
  6
Continuous
 62
     3
370
     9
100
AcDbLine
 10
-740.0653381222002
 20
95.5103740233022
 30
0.0
 11
-734.0653554429877
 21
89.51032948413425
 31
0.0
  0
LINE
  5
22C
330
1F
100
AcDbEntity
  8
A-0_通り芯
  6
Continuous
 62
     3
370
     9
100
AcDbLine
 10
-734.0653554429877
 20
89.51032948413425
 30
0.0
 11
-734.0653554429877
 21
95.5103740233022
 31
0.0
  0
LINE
  5
22D
330
1F
100
AcDbEntity
  8
A-0_通り芯
  6
Continuous
 62
     3
370
     9
100
AcDbLine
 10
-750.0653401841986
 20
88.51036330090989
 30
0.0
 11
-750.0653401841986
 21
92.7824118387056
 31
0.0
  0
LINE
  5
22E
330
1F
100
AcDbEntity
  8
A-0_通り芯
  6
Continuous
 62
     3
370
     9
100
AcDbLine
 10
-750.0653401841986
 20
92.7824118387056
 30
0.0
 11
-745.7932297864475
 21
88.51036330090989
 31
0.0
  0
LINE
  5
22F
330
1F
100
AcDbEntity
  8
A-0_通り芯
  6
Continuous
 62
     3
370
     9
100
AcDbLine
 10
-748.5506063799598
 20
95.5103740233022
 30
0.0
 11
-741.5505956575678
 21
88.51036330090989
 31
0.0
  0
LINE
  5
230
330
1F
100
AcDbEntity
  8
A-0_通り芯
  6
Continuous
 62
     3
370
     9
100
AcDbLine
 10
-744.3079722510802
 20
95.5103740233022
 30
0.0
 11
-737.3079615286877
 21
88.51036330090989
 31
0.0
  0
LINE
  5
231
330
1F
100
AcDbEntity
  8
A-0_通り芯
  6
Continuous
 62
     3
370
     9
100
AcDbLine
 10
-744.3079722510802
 20
81.51029071856198
 30
0.0
 11
-748.5506063799598
 21
81.51029071856198
 31
0.0
  0
LINE
  5
232
330
1F
100
AcDbEntity
  8
A-0_通り芯
  6
Continuous
 62
     3
370
     9
100
AcDbLine
 10
-740.0653381222002
 20
81.51029071856198
 30
0.0
 11
-734.0653554429877
 21
81.51029071856198
 31
0.0
  0
LINE
  5
233
330
1F
100
AcDbEntity
  8
A-0_通り芯
  6
Continuous
 62
     3
370
     9
100
AcDbLine
 10
-740.0653381222002
 20
81.51029071856198
 30
0.0
 11
-734.0653554429877
 21
87.51033525773008
 31
0.0
  0
LINE
  5
234
330
1F
100
AcDbEntity
  8
A-0_通り芯
  6
Continuous
 62
     3
370
     9
100
AcDbLine
 10
-734.0653554429877
 20
87.51033525773008
 30
0.0
 11
-734.0653554429877
 21
81.51029071856198
 31
0.0
  0
LINE
  5
235
330
1F
100
AcDbEntity
  8
A-0_通り芯
  6
Continuous
 62
     3
370
     9
100
AcDbLine
 10
-750.0653401841986
 20
88.51036330090989
 30
0.0
 11
-750.0653401841986
 21
84.23825290315872
 31
0.0
  0
LINE
  5
236
330
1F
100
AcDbEntity
  8
A-0_通り芯
  6
Continuous
 62
     3
370
     9
100
AcDbLine
 10
-750.0653401841986
 20
84.23825290315872
 30
0.0
 11
-745.7932297864475
 21
88.51036330090989
 31
0.0
  0
LINE
  5
237
330
1F
100
AcDbEntity
  8
A-0_通り芯
  6
Continuous
 62
     3
370
     9
100
AcDbLine
 10
-748.5506063799598
 20
81.51029071856198
 30
0.0
 11
-741.5505956575678
 21
88.51036330090989
 31
0.0
  0
LINE
  5
238
330
1F
100
AcDbEntity
  8
A-0_通り芯
  6
Continuous
 62
     3
370
     9
100
AcDbLine
 10
-744.3079722510802
 20
81.51029071856198
 30
0.0
 11
-737.3079615286877
 21
88.51036330090989
 31
0.0
  0
LINE
  5
239
330
1F
100
AcDbEntity
  8
A-0_通り芯
  6
Continuous
 62
     3
370
     9
100
AcDbLine
 10
-722.3079739006788
 20
95.5103740233022
 30
0.0
 11
-726.5506080295588
 21
95.5103740233022
 31
0.0
  0
LINE
  5
23A
330
1F
100
AcDbEntity
  8
A-0_通り芯
  6
Continuous
 62
     3
370
     9
100
AcDbLine
 10
-718.065339771799
 20
95.5103740233022
 30
0.0
 11
-712.0653570925866
 21
95.5103740233022
 31
0.0
  0
LINE
  5
23B
330
1F
100
AcDbEntity
  8
A-0_通り芯
  6
Continuous
 62
     3
370
     9
100
AcDbLine
 10
-718.065339771799
 20
95.5103740233022
 30
0.0
 11
-712.0653570925866
 21
89.51032948413425
 31
0.0
  0
LINE
  5
23C
330
1F
100
AcDbEntity
  8
A-0_通り芯
  6
Continuous
 62
     3
370
     9
100
AcDbLine
 10
-712.0653570925866
 20
89.51032948413425
 30
0.0
 11
-712.0653570925866
 21
95.5103740233022
 31
0.0
  0
LINE
  5
23D
330
1F
100
AcDbEntity
  8
A-0_通り芯
  6
Continuous
 62
     3
370
     9
100
AcDbLine
 10
-728.0653727637755
 20
88.51036330090989
 30
0.0
 11
-728.0653727637755
 21
92.7824118387056
 31
0.0
  0
LINE
  5
23E
330
1F
100
AcDbEntity
  8
A-0_通り芯
  6
Continuous
 62
     3
370
     9
100
AcDbLine
 10
-728.0653727637755
 20
92.7824118387056
 30
0.0
 11
-723.7932623660241
 21
88.51036330090989
 31
0.0
  0
LINE
  5
23F
330
1F
100
AcDbEntity
  8
A-0_通り芯
  6
Continuous
 62
     3
370
     9
100
AcDbLine
 10
-726.5506080295588
 20
95.5103740233022
 30
0.0
 11
-719.5505973071663
 21
88.51036330090989
 31
0.0
  0
LINE
  5
240
330
1F
100
AcDbEntity
  8
A-0_通り芯
  6
Continuous
 62
     3
370
     9
100
AcDbLine
 10
-722.3079739006788
 20
95.5103740233022
 30
0.0
 11
-715.3079322483088
 21
88.51036330090989
 31
0.0
  0
LINE
  5
241
330
1F
100
AcDbEntity
  8
A-0_通り芯
  6
Continuous
 62
     3
370
     9
100
AcDbLine
 10
-722.3079739006788
 20
81.51029071856198
 30
0.0
 11
-726.5506080295588
 21
81.51029071856198
 31
0.0
  0
LINE
  5
242
330
1F
100
AcDbEntity
  8
A-0_通り芯
  6
Continuous
 62
     3
370
     9
100
AcDbLine
 10
-718.065339771799
 20
81.51029071856198
 30
0.0
 11
-712.0653570925866
 21
81.51029071856198
 31
0.0
  0
LINE
  5
243
330
1F
100
AcDbEntity
  8
A-0_通り芯
  6
Continuous
 62
     3
370
     9
100
AcDbLine
 10
-718.065339771799
 20
81.51029071856198
 30
0.0
 11
-712.0653570925866
 21
87.51033525773008
 31
0.0
  0
LINE
  5
244
330
1F
100
AcDbEntity
  8
A-0_通り芯
  6
Continuous
 62
     3
370
     9
100
AcDbLine
 10
-712.0653570925866
 20
87.51033525773008
 30
0.0
 11
-712.0653570925866
 21
81.51029071856198
 31
0.0
  0
LINE
  5
245
330
1F
100
AcDbEntity
  8
A-0_通り芯
  6
Continuous
 62
     3
370
     9
100
AcDbLine
 10
-728.0653727637755
 20
88.51036330090989
 30
0.0
 11
-728.0653727637755
 21
84.23825290315872
 31
0.0
  0
LINE
  5
246
330
1F
100
AcDbEntity
  8
A-0_通り芯
  6
Continuous
 62
     3
370
     9
100
AcDbLine
 10
-728.0653727637755
 20
84.23825290315872
 30
0.0
 11
-723.7932623660241
 21
88.51036330090989
 31
0.0
  0
LINE
  5
247
330
1F
100
AcDbEntity
  8
A-0_通り芯
  6
Continuous
 62
     3
370
     9
100
AcDbLine
 10
-726.5506080295588
 20
81.51029071856198
 30
0.0
 11
-719.5505973071663
 21
88.51036330090989
 31
0.0
  0
LINE
  5
248
330
1F
100
AcDbEntity
  8
A-0_通り芯
  6
Continuous
 62
     3
370
     9
100
AcDbLine
 10
-722.3079739006788
 20
81.51029071856198
 30
0.0
 11
-715.3079322483088
 21
88.51036330090989
 31
0.0
  0
LINE
  5
249
330
1F
100
AcDbEntity
  8
A-0_通り芯
  6
Continuous
 62
     3
370
     9
100
AcDbLine
 10
-700.3079755502777
 20
95.5103740233022
 30
0.0
 11
-704.5506096791574
 21
95.5103740233022
 31
0.0
  0
LINE
  5
24A
330
1F
100
AcDbEntity
  8
A-0_通り芯
  6
Continuous
 62
     3
370
     9
100
AcDbLine
 10
-696.065341421398
 20
95.5103740233022
 30
0.0
 11
-690.0653587421855
 21
95.5103740233022
 31
0.0
  0
LINE
  5
24B
330
1F
100
AcDbEntity
  8
A-0_通り芯
  6
Continuous
 62
     3
370
     9
100
AcDbLine
 10
-696.065341421398
 20
95.5103740233022
 30
0.0
 11
-690.0653587421855
 21
89.51032948413425
 31
0.0
  0
LINE
  5
24C
330
1F
100
AcDbEntity
  8
A-0_通り芯
  6
Continuous
 62
     3
370
     9
100
AcDbLine
 10
-690.0653587421855
 20
89.51032948413425
 30
0.0
 11
-690.0653587421855
 21
95.5103740233022
 31
0.0
  0
LINE
  5
24D
330
1F
100
AcDbEntity
  8
A-0_通り芯
  6
Continuous
 62
     3
370
     9
100
AcDbLine
 10
-706.0653434833964
 20
88.51036330090989
 30
0.0
 11
-706.0653434833964
 21
92.7824118387056
 31
0.0
  0
LINE
  5
24E
330
1F
100
AcDbEntity
  8
A-0_通り芯
  6
Continuous
 62
     3
370
     9
100
AcDbLine
 10
-706.0653434833964
 20
92.7824118387056
 30
0.0
 11
-701.7932330856449
 21
88.51036330090989
 31
0.0
  0
LINE
  5
24F
330
1F
100
AcDbEntity
  8
A-0_通り芯
  6
Continuous
 62
     3
370
     9
100
AcDbLine
 10
-704.5506096791574
 20
95.5103740233022
 30
0.0
 11
-697.5505680267875
 21
88.51036330090989
 31
0.0
  0
LINE
  5
250
330
1F
100
AcDbEntity
  8
A-0_通り芯
  6
Continuous
 62
     3
370
     9
100
AcDbLine
 10
-700.3079755502777
 20
95.5103740233022
 30
0.0
 11
-693.3079648278854
 21
88.51036330090989
 31
0.0
  0
LINE
  5
251
330
1F
100
AcDbEntity
  8
A-0_通り芯
  6
Continuous
 62
     3
370
     9
100
AcDbLine
 10
-700.3079755502777
 20
81.51029071856198
 30
0.0
 11
-704.5506096791574
 21
81.51029071856198
 31
0.0
  0
LINE
  5
252
330
1F
100
AcDbEntity
  8
A-0_通り芯
  6
Continuous
 62
     3
370
     9
100
AcDbLine
 10
-696.065341421398
 20
81.51029071856198
 30
0.0
 11
-690.0653587421855
 21
81.51029071856198
 31
0.0
  0
LINE
  5
253
330
1F
100
AcDbEntity
  8
A-0_通り芯
  6
Continuous
 62
     3
370
     9
100
AcDbLine
 10
-696.065341421398
 20
81.51029071856198
 30
0.0
 11
-690.0653587421855
 21
87.51033525773008
 31
0.0
  0
LINE
  5
254
330
1F
100
AcDbEntity
  8
A-0_通り芯
  6
Continuous
 62
     3
370
     9
100
AcDbLine
 10
-690.0653587421855
 20
87.51033525773008
 30
0.0
 11
-690.0653587421855
 21
81.51029071856198
 31
0.0
  0
LINE
  5
255
330
1F
100
AcDbEntity
  8
A-0_通り芯
  6
Continuous
 62
     3
370
     9
100
AcDbLine
 10
-706.0653434833964
 20
88.51036330090989
 30
0.0
 11
-706.0653434833964
 21
84.23825290315872
 31
0.0
  0
LINE
  5
256
330
1F
100
AcDbEntity
  8
A-0_通り芯
  6
Continuous
 62
     3
370
     9
100
AcDbLine
 10
-706.0653434833964
 20
84.23825290315872
 30
0.0
 11
-701.7932330856449
 21
88.51036330090989
 31
0.0
  0
LINE
  5
257
330
1F
100
AcDbEntity
  8
A-0_通り芯
  6
Continuous
 62
     3
370
     9
100
AcDbLine
 10
-704.5506096791574
 20
81.51029071856198
 30
0.0
 11
-697.5505680267875
 21
88.51036330090989
 31
0.0
  0
LINE
  5
258
330
1F
100
AcDbEntity
  8
A-0_通り芯
  6
Continuous
 62
     3
370
     9
100
AcDbLine
 10
-700.3079755502777
 20
81.51029071856198
 30
0.0
 11
-693.3079648278854
 21
88.51036330090989
 31
0.0
  0
LINE
  5
259
330
1F
100
AcDbEntity
  8
A-0_通り芯
  6
Continuous
 62
     3
370
     9
100
AcDbLine
 10
-678.3080081298543
 20
95.5103740233022
 30
0.0
 11
-682.5506113287561
 21
95.5103740233022
 31
0.0
  0
LINE
  5
25A
330
1F
100
AcDbEntity
  8
A-0_通り芯
  6
Continuous
 62
     3
370
     9
100
AcDbLine
 10
-674.0653121410186
 20
95.5103740233022
 30
0.0
 11
-668.0652985318285
 21
95.5103740233022
 31
0.0
  0
LINE
  5
25B
330
1F
100
AcDbEntity
  8
A-0_通り芯
  6
Continuous
 62
     3
370
     9
100
AcDbLine
 10
-674.0653121410186
 20
95.5103740233022
 30
0.0
 11
-668.0652985318285
 21
89.51032948413425
 31
0.0
  0
LINE
  5
25C
330
1F
100
AcDbEntity
  8
A-0_通り芯
  6
Continuous
 62
     3
370
     9
100
AcDbLine
 10
-668.0652985318285
 20
89.51032948413425
 30
0.0
 11
-668.0652985318285
 21
95.5103740233022
 31
0.0
  0
LINE
  5
25D
330
1F
100
AcDbEntity
  8
A-0_通り芯
  6
Continuous
 62
     3
370
     9
100
AcDbLine
 10
-684.0653451329949
 20
88.51036330090989
 30
0.0
 11
-684.0653451329949
 21
92.7824118387056
 31
0.0
  0
LINE
  5
25E
330
1F
100
AcDbEntity
  8
A-0_通り芯
  6
Continuous
 62
     3
370
     9
100
AcDbLine
 10
-684.0653451329949
 20
92.7824118387056
 30
0.0
 11
-679.793203805266
 21
88.51036330090989
 31
0.0
  0
LINE
  5
25F
330
1F
100
AcDbEntity
  8
A-0_通り芯
  6
Continuous
 62
     3
370
     9
100
AcDbLine
 10
-682.5506113287561
 20
95.5103740233022
 30
0.0
 11
-675.5506006063639
 21
88.51036330090989
 31
0.0
  0
LINE
  5
260
330
1F
100
AcDbEntity
  8
A-0_通り芯
  6
Continuous
 62
     3
370
     9
100
AcDbLine
 10
-678.3080081298543
 20
95.5103740233022
 30
0.0
 11
-671.3079355475061
 21
88.51036330090989
 31
0.0
  0
LINE
  5
261
330
1F
100
AcDbEntity
  8
A-0_通り芯
  6
Continuous
 62
     3
370
     9
100
AcDbLine
 10
-678.3080081298543
 20
81.51029071856198
 30
0.0
 11
-682.5506113287561
 21
81.51029071856198
 31
0.0
  0
LINE
  5
262
330
1F
100
AcDbEntity
  8
A-0_通り芯
  6
Continuous
 62
     3
370
     9
100
AcDbLine
 10
-674.0653121410186
 20
81.51029071856198
 30
0.0
 11
-668.0652985318285
 21
81.51029071856198
 31
0.0
  0
LINE
  5
263
330
1F
100
AcDbEntity
  8
A-0_通り芯
  6
Continuous
 62
     3
370
     9
100
AcDbLine
 10
-674.0653121410186
 20
81.51029071856198
 30
0.0
 11
-668.0652985318285
 21
87.51033525773008
 31
0.0
  0
LINE
  5
264
330
1F
100
AcDbEntity
  8
A-0_通り芯
  6
Continuous
 62
     3
370
     9
100
AcDbLine
 10
-668.0652985318285
 20
87.51033525773008
 30
0.0
 11
-668.0652985318285
 21
81.51029071856198
 31
0.0
  0
LINE
  5
265
330
1F
100
AcDbEntity
  8
A-0_通り芯
  6
Continuous
 62
     3
370
     9
100
AcDbLine
 10
-684.0653451329949
 20
88.51036330090989
 30
0.0
 11
-684.0653451329949
 21
84.23825290315872
 31
0.0
  0
LINE
  5
266
330
1F
100
AcDbEntity
  8
A-0_通り芯
  6
Continuous
 62
     3
370
     9
100
AcDbLine
 10
-684.0653451329949
 20
84.23825290315872
 30
0.0
 11
-679.793203805266
 21
88.51036330090989
 31
0.0
  0
LINE
  5
267
330
1F
100
AcDbEntity
  8
A-0_通り芯
  6
Continuous
 62
     3
370
     9
100
AcDbLine
 10
-682.5506113287561
 20
81.51029071856198
 30
0.0
 11
-675.5506006063639
 21
88.51036330090989
 31
0.0
  0
LINE
  5
268
330
1F
100
AcDbEntity
  8
A-0_通り芯
  6
Continuous
 62
     3
370
     9
100
AcDbLine
 10
-678.3080081298543
 20
81.51029071856198
 30
0.0
 11
-671.3079355475061
 21
88.51036330090989
 31
0.0
  0
LINE
  5
269
330
1F
100
AcDbEntity
  8
A-0_通り芯
  6
Continuous
 62
     3
370
     9
100
AcDbLine
 10
-750.0653401841986
 20
118.1853263498965
 30
0.0
 11
-750.0653401841986
 21
124.1853708890644
 31
0.0
  0
LINE
  5
26A
330
1F
100
AcDbEntity
  8
A-0_通り芯
  6
Continuous
 62
     3
370
     9
100
AcDbLine
 10
-744.0653575049864
 20
124.1853708890644
 30
0.0
 11
-750.0653401841986
 21
118.1853263498965
 31
0.0
  0
LINE
  5
26B
330
1F
100
AcDbEntity
  8
A-0_通り芯
  6
Continuous
 62
     3
370
     9
100
AcDbLine
 10
-735.5800583172486
 20
124.1853708890644
 30
0.0
 11
-739.8226924461287
 21
124.1853708890644
 31
0.0
  0
LINE
  5
26C
330
1F
100
AcDbEntity
  8
A-0_通り芯
  6
Continuous
 62
     3
370
     9
100
AcDbLine
 10
-734.0653554429877
 20
117.4103448254033
 30
0.0
 11
-734.0653554429877
 21
121.4574087044678
 31
0.0
  0
LINE
  5
26D
330
1F
100
AcDbEntity
  8
A-0_通り芯
  6
Continuous
 62
     3
370
     9
100
AcDbLine
 10
-750.0653401841986
 20
124.1853708890644
 30
0.0
 11
-744.0653575049864
 21
124.1853708890644
 31
0.0
  0
LINE
  5
26E
330
1F
100
AcDbEntity
  8
A-0_通り芯
  6
Continuous
 62
     3
370
     9
100
AcDbLine
 10
-739.8226924461287
 20
124.1853708890644
 30
0.0
 11
-746.5977185097897
 21
117.4103448254033
 31
0.0
  0
LINE
  5
26F
330
1F
100
AcDbEntity
  8
A-0_通り芯
  6
Continuous
 62
     3
370
     9
100
AcDbLine
 10
-735.5800583172486
 20
124.1853708890644
 30
0.0
 11
-742.3550843809101
 21
117.4103448254033
 31
0.0
  0
LINE
  5
270
330
1F
100
AcDbEntity
  8
A-0_通り芯
  6
Continuous
 62
     3
370
     9
100
AcDbLine
 10
-734.0653554429877
 20
121.4574087044678
 30
0.0
 11
-738.1124193220522
 21
117.4103448254033
 31
0.0
  0
LINE
  5
271
330
1F
100
AcDbEntity
  8
A-0_通り芯
  6
Continuous
 62
     3
370
     9
100
AcDbLine
 10
-750.0653401841986
 20
116.6353633009099
 30
0.0
 11
-750.0653401841986
 21
110.6353187617419
 31
0.0
  0
LINE
  5
272
330
1F
100
AcDbEntity
  8
A-0_通り芯
  6
Continuous
 62
     3
370
     9
100
AcDbLine
 10
-744.0653575049864
 20
110.6353187617419
 30
0.0
 11
-750.0653401841986
 21
116.6353633009099
 31
0.0
  0
LINE
  5
273
330
1F
100
AcDbEntity
  8
A-0_通り芯
  6
Continuous
 62
     3
370
     9
100
AcDbLine
 10
-735.5800583172486
 20
110.6353187617419
 30
0.0
 11
-739.8226924461287
 21
110.6353187617419
 31
0.0
  0
LINE
  5
274
330
1F
100
AcDbEntity
  8
A-0_通り芯
  6
Continuous
 62
     3
370
     9
100
AcDbLine
 10
-734.0653554429877
 20
117.4103448254033
 30
0.0
 11
-734.0653554429877
 21
113.3632809463385
 31
0.0
  0
LINE
  5
275
330
1F
100
AcDbEntity
  8
A-0_通り芯
  6
Continuous
 62
     3
370
     9
100
AcDbLine
 10
-750.0653401841986
 20
110.6353187617419
 30
0.0
 11
-744.0653575049864
 21
110.6353187617419
 31
0.0
  0
LINE
  5
276
330
1F
100
AcDbEntity
  8
A-0_通り芯
  6
Continuous
 62
     3
370
     9
100
AcDbLine
 10
-739.8226924461287
 20
110.6353187617419
 30
0.0
 11
-746.5977185097897
 21
117.4103448254033
 31
0.0
  0
LINE
  5
277
330
1F
100
AcDbEntity
  8
A-0_通り芯
  6
Continuous
 62
     3
370
     9
100
AcDbLine
 10
-735.5800583172486
 20
110.6353187617419
 30
0.0
 11
-742.3550843809101
 21
117.4103448254033
 31
0.0
  0
LINE
  5
278
330
1F
100
AcDbEntity
  8
A-0_通り芯
  6
Continuous
 62
     3
370
     9
100
AcDbLine
 10
-734.0653554429877
 20
113.3632809463385
 30
0.0
 11
-738.1124193220522
 21
117.4103448254033
 31
0.0
  0
LINE
  5
279
330
1F
100
AcDbEntity
  8
A-0_通り芯
  6
Continuous
 62
     3
370
     9
100
AcDbLine
 10
-728.0653727637755
 20
118.1853263498965
 30
0.0
 11
-728.0653727637755
 21
124.1853708890644
 31
0.0
  0
LINE
  5
27A
330
1F
100
AcDbEntity
  8
A-0_通り芯
  6
Continuous
 62
     3
370
     9
100
AcDbLine
 10
-722.0653282246074
 20
124.1853708890644
 30
0.0
 11
-728.0653727637755
 21
118.1853263498965
 31
0.0
  0
LINE
  5
27B
330
1F
100
AcDbEntity
  8
A-0_通り芯
  6
Continuous
 62
     3
370
     9
100
AcDbLine
 10
-713.5800599668476
 20
124.1853708890644
 30
0.0
 11
-717.8226940957272
 21
124.1853708890644
 31
0.0
  0
LINE
  5
27C
330
1F
100
AcDbEntity
  8
A-0_通り芯
  6
Continuous
 62
     3
370
     9
100
AcDbLine
 10
-712.0653570925866
 20
117.4103448254033
 30
0.0
 11
-712.0653570925866
 21
121.4574087044678
 31
0.0
  0
LINE
  5
27D
330
1F
100
AcDbEntity
  8
A-0_通り芯
  6
Continuous
 62
     3
370
     9
100
AcDbLine
 10
-728.0653727637755
 20
124.1853708890644
 30
0.0
 11
-722.0653282246074
 21
124.1853708890644
 31
0.0
  0
LINE
  5
27E
330
1F
100
AcDbEntity
  8
A-0_通り芯
  6
Continuous
 62
     3
370
     9
100
AcDbLine
 10
-717.8226940957272
 20
124.1853708890644
 30
0.0
 11
-724.5976892294109
 21
117.4103448254033
 31
0.0
  0
LINE
  5
27F
330
1F
100
AcDbEntity
  8
A-0_通り芯
  6
Continuous
 62
     3
370
     9
100
AcDbLine
 10
-713.5800599668476
 20
124.1853708890644
 30
0.0
 11
-720.3550860305088
 21
117.4103448254033
 31
0.0
  0
LINE
  5
280
330
1F
100
AcDbEntity
  8
A-0_通り芯
  6
Continuous
 62
     3
370
     9
100
AcDbLine
 10
-712.0653570925866
 20
121.4574087044678
 30
0.0
 11
-716.1124209716512
 21
117.4103448254033
 31
0.0
  0
LINE
  5
281
330
1F
100
AcDbEntity
  8
A-0_通り芯
  6
Continuous
 62
     3
370
     9
100
AcDbLine
 10
-728.0653727637755
 20
116.6353633009099
 30
0.0
 11
-728.0653727637755
 21
110.6353187617419
 31
0.0
  0
LINE
  5
282
330
1F
100
AcDbEntity
  8
A-0_通り芯
  6
Continuous
 62
     3
370
     9
100
AcDbLine
 10
-722.0653282246074
 20
110.6353187617419
 30
0.0
 11
-728.0653727637755
 21
116.6353633009099
 31
0.0
  0
LINE
  5
283
330
1F
100
AcDbEntity
  8
A-0_通り芯
  6
Continuous
 62
     3
370
     9
100
AcDbLine
 10
-713.5800599668476
 20
110.6353187617419
 30
0.0
 11
-717.8226940957272
 21
110.6353187617419
 31
0.0
  0
LINE
  5
284
330
1F
100
AcDbEntity
  8
A-0_通り芯
  6
Continuous
 62
     3
370
     9
100
AcDbLine
 10
-712.0653570925866
 20
117.4103448254033
 30
0.0
 11
-712.0653570925866
 21
113.3632809463385
 31
0.0
  0
LINE
  5
285
330
1F
100
AcDbEntity
  8
A-0_通り芯
  6
Continuous
 62
     3
370
     9
100
AcDbLine
 10
-728.0653727637755
 20
110.6353187617419
 30
0.0
 11
-722.0653282246074
 21
110.6353187617419
 31
0.0
  0
LINE
  5
286
330
1F
100
AcDbEntity
  8
A-0_通り芯
  6
Continuous
 62
     3
370
     9
100
AcDbLine
 10
-717.8226940957272
 20
110.6353187617419
 30
0.0
 11
-724.5976892294109
 21
117.4103448254033
 31
0.0
  0
LINE
  5
287
330
1F
100
AcDbEntity
  8
A-0_通り芯
  6
Continuous
 62
     3
370
     9
100
AcDbLine
 10
-713.5800599668476
 20
110.6353187617419
 30
0.0
 11
-720.3550860305088
 21
117.4103448254033
 31
0.0
  0
LINE
  5
288
330
1F
100
AcDbEntity
  8
A-0_通り芯
  6
Continuous
 62
     3
370
     9
100
AcDbLine
 10
-712.0653570925866
 20
113.3632809463385
 30
0.0
 11
-716.1124209716512
 21
117.4103448254033
 31
0.0
  0
LINE
  5
289
330
1F
100
AcDbEntity
  8
A-0_通り芯
  6
Continuous
 62
     3
370
     9
100
AcDbLine
 10
-706.0653434833964
 20
118.1853263498965
 30
0.0
 11
-706.0653434833964
 21
124.1853708890644
 31
0.0
  0
LINE
  5
28A
330
1F
100
AcDbEntity
  8
A-0_通り芯
  6
Continuous
 62
     3
370
     9
100
AcDbLine
 10
-700.0653298742063
 20
124.1853708890644
 30
0.0
 11
-706.0653434833964
 21
118.1853263498965
 31
0.0
  0
LINE
  5
28B
330
1F
100
AcDbEntity
  8
A-0_通り芯
  6
Continuous
 62
     3
370
     9
100
AcDbLine
 10
-691.5800616164463
 20
124.1853708890644
 30
0.0
 11
-695.8226957453262
 21
124.1853708890644
 31
0.0
  0
LINE
  5
28C
330
1F
100
AcDbEntity
  8
A-0_通り芯
  6
Continuous
 62
     3
370
     9
100
AcDbLine
 10
-690.0653587421855
 20
117.4103448254033
 30
0.0
 11
-690.0653587421855
 21
121.4574087044678
 31
0.0
  0
LINE
  5
28D
330
1F
100
AcDbEntity
  8
A-0_通り芯
  6
Continuous
 62
     3
370
     9
100
AcDbLine
 10
-706.0653434833964
 20
124.1853708890644
 30
0.0
 11
-700.0653298742063
 21
124.1853708890644
 31
0.0
  0
LINE
  5
28E
330
1F
100
AcDbEntity
  8
A-0_通り芯
  6
Continuous
 62
     3
370
     9
100
AcDbLine
 10
-695.8226957453262
 20
124.1853708890644
 30
0.0
 11
-702.5976908790099
 21
117.4103448254033
 31
0.0
  0
LINE
  5
28F
330
1F
100
AcDbEntity
  8
A-0_通り芯
  6
Continuous
 62
     3
370
     9
100
AcDbLine
 10
-691.5800616164463
 20
124.1853708890644
 30
0.0
 11
-698.3550876801078
 21
117.4103448254033
 31
0.0
  0
LINE
  5
290
330
1F
100
AcDbEntity
  8
A-0_通り芯
  6
Continuous
 62
     3
370
     9
100
AcDbLine
 10
-690.0653587421855
 20
121.4574087044678
 30
0.0
 11
-694.1124226212501
 21
117.4103448254033
 31
0.0
  0
LINE
  5
291
330
1F
100
AcDbEntity
  8
A-0_通り芯
  6
Continuous
 62
     3
370
     9
100
AcDbLine
 10
-706.0653434833964
 20
116.6353633009099
 30
0.0
 11
-706.0653434833964
 21
110.6353187617419
 31
0.0
  0
LINE
  5
292
330
1F
100
AcDbEntity
  8
A-0_通り芯
  6
Continuous
 62
     3
370
     9
100
AcDbLine
 10
-700.0653298742063
 20
110.6353187617419
 30
0.0
 11
-706.0653434833964
 21
116.6353633009099
 31
0.0
  0
LINE
  5
293
330
1F
100
AcDbEntity
  8
A-0_通り芯
  6
Continuous
 62
     3
370
     9
100
AcDbLine
 10
-691.5800616164463
 20
110.6353187617419
 30
0.0
 11
-695.8226957453262
 21
110.6353187617419
 31
0.0
  0
LINE
  5
294
330
1F
100
AcDbEntity
  8
A-0_通り芯
  6
Continuous
 62
     3
370
     9
100
AcDbLine
 10
-690.0653587421855
 20
117.4103448254033
 30
0.0
 11
-690.0653587421855
 21
113.3632809463385
 31
0.0
  0
LINE
  5
295
330
1F
100
AcDbEntity
  8
A-0_通り芯
  6
Continuous
 62
     3
370
     9
100
AcDbLine
 10
-706.0653434833964
 20
110.6353187617419
 30
0.0
 11
-700.0653298742063
 21
110.6353187617419
 31
0.0
  0
LINE
  5
296
330
1F
100
AcDbEntity
  8
A-0_通り芯
  6
Continuous
 62
     3
370
     9
100
AcDbLine
 10
-695.8226957453262
 20
110.6353187617419
 30
0.0
 11
-702.5976908790099
 21
117.4103448254033
 31
0.0
  0
LINE
  5
297
330
1F
100
AcDbEntity
  8
A-0_通り芯
  6
Continuous
 62
     3
370
     9
100
AcDbLine
 10
-691.5800616164463
 20
110.6353187617419
 30
0.0
 11
-698.3550876801078
 21
117.4103448254033
 31
0.0
  0
LINE
  5
298
330
1F
100
AcDbEntity
  8
A-0_通り芯
  6
Continuous
 62
     3
370
     9
100
AcDbLine
 10
-690.0653587421855
 20
113.3632809463385
 30
0.0
 11
-694.1124226212501
 21
117.4103448254033
 31
0.0
  0
LINE
  5
299
330
1F
100
AcDbEntity
  8
A-0_通り芯
  6
Continuous
 62
     3
370
     9
100
AcDbLine
 10
-744.3079722510802
 20
152.9103505989991
 30
0.0
 11
-748.5506063799598
 21
152.9103505989991
 31
0.0
  0
LINE
  5
29A
330
1F
100
AcDbEntity
  8
A-0_通り芯
  6
Continuous
 62
     3
370
     9
100
AcDbLine
 10
-740.0653381222002
 20
152.9103505989991
 30
0.0
 11
-734.0653554429877
 21
152.9103505989991
 31
0.0
  0
LINE
  5
29B
330
1F
100
AcDbEntity
  8
A-0_通り芯
  6
Continuous
 62
     3
370
     9
100
AcDbLine
 10
-740.0653381222002
 20
152.9103505989991
 30
0.0
 11
-734.0653554429877
 21
146.9104297797423
 31
0.0
  0
LINE
  5
29C
330
1F
100
AcDbEntity
  8
A-0_通り芯
  6
Continuous
 62
     3
370
     9
100
AcDbLine
 10
-734.0653554429877
 20
146.9104297797423
 30
0.0
 11
-734.0653554429877
 21
152.9103505989991
 31
0.0
  0
LINE
  5
29D
330
1F
100
AcDbEntity
  8
A-0_通り芯
  6
Continuous
 62
     3
370
     9
100
AcDbLine
 10
-750.0653401841986
 20
145.9104017365624
 30
0.0
 11
-750.0653401841986
 21
150.1825121343137
 31
0.0
  0
LINE
  5
29E
330
1F
100
AcDbEntity
  8
A-0_通り芯
  6
Continuous
 62
     3
370
     9
100
AcDbLine
 10
-750.0653401841986
 20
150.1825121343137
 30
0.0
 11
-745.7932297864475
 21
145.9104017365624
 31
0.0
  0
LINE
  5
29F
330
1F
100
AcDbEntity
  8
A-0_通り芯
  6
Continuous
 62
     3
370
     9
100
AcDbLine
 10
-748.5506063799598
 20
152.9103505989991
 30
0.0
 11
-741.5505956575678
 21
145.9104017365624
 31
0.0
  0
LINE
  5
2A0
330
1F
100
AcDbEntity
  8
A-0_通り芯
  6
Continuous
 62
     3
370
     9
100
AcDbLine
 10
-744.3079722510802
 20
152.9103505989991
 30
0.0
 11
-737.3079615286877
 21
145.9104017365624
 31
0.0
  0
LINE
  5
2A1
330
1F
100
AcDbEntity
  8
A-0_通り芯
  6
Continuous
 62
     3
370
     9
100
AcDbLine
 10
-744.3079722510802
 20
138.9103291542145
 30
0.0
 11
-748.5506063799598
 21
138.9103291542145
 31
0.0
  0
LINE
  5
2A2
330
1F
100
AcDbEntity
  8
A-0_通り芯
  6
Continuous
 62
     3
370
     9
100
AcDbLine
 10
-740.0653381222002
 20
138.9103291542145
 30
0.0
 11
-734.0653554429877
 21
138.9103291542145
 31
0.0
  0
LINE
  5
2A3
330
1F
100
AcDbEntity
  8
A-0_通り芯
  6
Continuous
 62
     3
370
     9
100
AcDbLine
 10
-740.0653381222002
 20
138.9103291542145
 30
0.0
 11
-734.0653554429877
 21
144.9103118334268
 31
0.0
  0
LINE
  5
2A4
330
1F
100
AcDbEntity
  8
A-0_通り芯
  6
Continuous
 62
     3
370
     9
100
AcDbLine
 10
-734.0653554429877
 20
144.9103118334268
 30
0.0
 11
-734.0653554429877
 21
138.9103291542145
 31
0.0
  0
LINE
  5
2A5
330
1F
100
AcDbEntity
  8
A-0_通り芯
  6
Continuous
 62
     3
370
     9
100
AcDbLine
 10
-750.0653401841986
 20
145.9104017365624
 30
0.0
 11
-750.0653401841986
 21
141.6382294788555
 31
0.0
  0
LINE
  5
2A6
330
1F
100
AcDbEntity
  8
A-0_通り芯
  6
Continuous
 62
     3
370
     9
100
AcDbLine
 10
-750.0653401841986
 20
141.6382294788555
 30
0.0
 11
-745.7932297864475
 21
145.9104017365624
 31
0.0
  0
LINE
  5
2A7
330
1F
100
AcDbEntity
  8
A-0_通り芯
  6
Continuous
 62
     3
370
     9
100
AcDbLine
 10
-748.5506063799598
 20
138.9103291542145
 30
0.0
 11
-741.5505956575678
 21
145.9104017365624
 31
0.0
  0
LINE
  5
2A8
330
1F
100
AcDbEntity
  8
A-0_通り芯
  6
Continuous
 62
     3
370
     9
100
AcDbLine
 10
-744.3079722510802
 20
138.9103291542145
 30
0.0
 11
-737.3079615286877
 21
145.9104017365624
 31
0.0
  0
LINE
  5
2A9
330
1F
100
AcDbEntity
  8
A-0_通り芯
  6
Continuous
 62
     3
370
     9
100
AcDbLine
 10
-722.3079739006788
 20
152.9103505989991
 30
0.0
 11
-726.5506080295588
 21
152.9103505989991
 31
0.0
  0
LINE
  5
2AA
330
1F
100
AcDbEntity
  8
A-0_通り芯
  6
Continuous
 62
     3
370
     9
100
AcDbLine
 10
-718.065339771799
 20
152.9103505989991
 30
0.0
 11
-712.0653570925866
 21
152.9103505989991
 31
0.0
  0
LINE
  5
2AB
330
1F
100
AcDbEntity
  8
A-0_通り芯
  6
Continuous
 62
     3
370
     9
100
AcDbLine
 10
-718.065339771799
 20
152.9103505989991
 30
0.0
 11
-712.0653570925866
 21
146.9104297797423
 31
0.0
  0
LINE
  5
2AC
330
1F
100
AcDbEntity
  8
A-0_通り芯
  6
Continuous
 62
     3
370
     9
100
AcDbLine
 10
-712.0653570925866
 20
146.9104297797423
 30
0.0
 11
-712.0653570925866
 21
152.9103505989991
 31
0.0
  0
LINE
  5
2AD
330
1F
100
AcDbEntity
  8
A-0_通り芯
  6
Continuous
 62
     3
370
     9
100
AcDbLine
 10
-728.0653727637755
 20
145.9104017365624
 30
0.0
 11
-728.0653727637755
 21
150.1825121343137
 31
0.0
  0
LINE
  5
2AE
330
1F
100
AcDbEntity
  8
A-0_通り芯
  6
Continuous
 62
     3
370
     9
100
AcDbLine
 10
-728.0653727637755
 20
150.1825121343137
 30
0.0
 11
-723.7932623660241
 21
145.9104017365624
 31
0.0
  0
LINE
  5
2AF
330
1F
100
AcDbEntity
  8
A-0_通り芯
  6
Continuous
 62
     3
370
     9
100
AcDbLine
 10
-726.5506080295588
 20
152.9103505989991
 30
0.0
 11
-719.5505973071663
 21
145.9104017365624
 31
0.0
  0
LINE
  5
2B0
330
1F
100
AcDbEntity
  8
A-0_通り芯
  6
Continuous
 62
     3
370
     9
100
AcDbLine
 10
-722.3079739006788
 20
152.9103505989991
 30
0.0
 11
-715.3079322483088
 21
145.9104017365624
 31
0.0
  0
LINE
  5
2B1
330
1F
100
AcDbEntity
  8
A-0_通り芯
  6
Continuous
 62
     3
370
     9
100
AcDbLine
 10
-722.3079739006788
 20
138.9103291542145
 30
0.0
 11
-726.5506080295588
 21
138.9103291542145
 31
0.0
  0
LINE
  5
2B2
330
1F
100
AcDbEntity
  8
A-0_通り芯
  6
Continuous
 62
     3
370
     9
100
AcDbLine
 10
-718.065339771799
 20
138.9103291542145
 30
0.0
 11
-712.0653570925866
 21
138.9103291542145
 31
0.0
  0
LINE
  5
2B3
330
1F
100
AcDbEntity
  8
A-0_通り芯
  6
Continuous
 62
     3
370
     9
100
AcDbLine
 10
-718.065339771799
 20
138.9103291542145
 30
0.0
 11
-712.0653570925866
 21
144.9103118334268
 31
0.0
  0
LINE
  5
2B4
330
1F
100
AcDbEntity
  8
A-0_通り芯
  6
Continuous
 62
     3
370
     9
100
AcDbLine
 10
-712.0653570925866
 20
144.9103118334268
 30
0.0
 11
-712.0653570925866
 21
138.9103291542145
 31
0.0
  0
LINE
  5
2B5
330
1F
100
AcDbEntity
  8
A-0_通り芯
  6
Continuous
 62
     3
370
     9
100
AcDbLine
 10
-728.0653727637755
 20
145.9104017365624
 30
0.0
 11
-728.0653727637755
 21
141.6382294788555
 31
0.0
  0
LINE
  5
2B6
330
1F
100
AcDbEntity
  8
A-0_通り芯
  6
Continuous
 62
     3
370
     9
100
AcDbLine
 10
-728.0653727637755
 20
141.6382294788555
 30
0.0
 11
-723.7932623660241
 21
145.9104017365624
 31
0.0
  0
LINE
  5
2B7
330
1F
100
AcDbEntity
  8
A-0_通り芯
  6
Continuous
 62
     3
370
     9
100
AcDbLine
 10
-726.5506080295588
 20
138.9103291542145
 30
0.0
 11
-719.5505973071663
 21
145.9104017365624
 31
0.0
  0
LINE
  5
2B8
330
1F
100
AcDbEntity
  8
A-0_通り芯
  6
Continuous
 62
     3
370
     9
100
AcDbLine
 10
-722.3079739006788
 20
138.9103291542145
 30
0.0
 11
-715.3079322483088
 21
145.9104017365624
 31
0.0
  0
LINE
  5
2B9
330
1F
100
AcDbEntity
  8
A-0_通り芯
  6
Continuous
 62
     3
370
     9
100
AcDbLine
 10
-750.0653401841986
 20
175.5853647855488
 30
0.0
 11
-750.0653401841986
 21
181.5853474647613
 31
0.0
  0
LINE
  5
2BA
330
1F
100
AcDbEntity
  8
A-0_通り芯
  6
Continuous
 62
     3
370
     9
100
AcDbLine
 10
-744.0653575049864
 20
181.5853474647613
 30
0.0
 11
-750.0653401841986
 21
175.5853647855488
 31
0.0
  0
LINE
  5
2BB
330
1F
100
AcDbEntity
  8
A-0_通り芯
  6
Continuous
 62
     3
370
     9
100
AcDbLine
 10
-735.5800583172486
 20
181.5853474647613
 30
0.0
 11
-739.8226924461287
 21
181.5853474647613
 31
0.0
  0
LINE
  5
2BC
330
1F
100
AcDbEntity
  8
A-0_通り芯
  6
Continuous
 62
     3
370
     9
100
AcDbLine
 10
-734.0653554429877
 20
174.8103832610556
 30
0.0
 11
-734.0653554429877
 21
178.8575090000759
 31
0.0
  0
LINE
  5
2BD
330
1F
100
AcDbEntity
  8
A-0_通り芯
  6
Continuous
 62
     3
370
     9
100
AcDbLine
 10
-750.0653401841986
 20
181.5853474647613
 30
0.0
 11
-744.0653575049864
 21
181.5853474647613
 31
0.0
  0
LINE
  5
2BE
330
1F
100
AcDbEntity
  8
A-0_通り芯
  6
Continuous
 62
     3
370
     9
100
AcDbLine
 10
-739.8226924461287
 20
181.5853474647613
 30
0.0
 11
-746.5977185097897
 21
174.8103832610556
 31
0.0
  0
LINE
  5
2BF
330
1F
100
AcDbEntity
  8
A-0_通り芯
  6
Continuous
 62
     3
370
     9
100
AcDbLine
 10
-735.5800583172486
 20
181.5853474647613
 30
0.0
 11
-742.3550843809101
 21
174.8103832610556
 31
0.0
  0
LINE
  5
2C0
330
1F
100
AcDbEntity
  8
A-0_通り芯
  6
Continuous
 62
     3
370
     9
100
AcDbLine
 10
-734.0653554429877
 20
178.8575090000759
 30
0.0
 11
-738.1124193220522
 21
174.8103832610556
 31
0.0
  0
LINE
  5
2C1
330
1F
100
AcDbEntity
  8
A-0_通り芯
  6
Continuous
 62
     3
370
     9
100
AcDbLine
 10
-750.0653401841986
 20
174.0354017365624
 30
0.0
 11
-750.0653401841986
 21
168.0353571973943
 31
0.0
  0
LINE
  5
2C2
330
1F
100
AcDbEntity
  8
A-0_通り芯
  6
Continuous
 62
     3
370
     9
100
AcDbLine
 10
-744.0653575049864
 20
168.0353571973943
 30
0.0
 11
-750.0653401841986
 21
174.0354017365624
 31
0.0
  0
LINE
  5
2C3
330
1F
100
AcDbEntity
  8
A-0_通り芯
  6
Continuous
 62
     3
370
     9
100
AcDbLine
 10
-735.5800583172486
 20
168.0353571973943
 30
0.0
 11
-739.8226924461287
 21
168.0353571973943
 31
0.0
  0
LINE
  5
2C4
330
1F
100
AcDbEntity
  8
A-0_通り芯
  6
Continuous
 62
     3
370
     9
100
AcDbLine
 10
-734.0653554429877
 20
174.8103832610556
 30
0.0
 11
-734.0653554429877
 21
170.763319381991
 31
0.0
  0
LINE
  5
2C5
330
1F
100
AcDbEntity
  8
A-0_通り芯
  6
Continuous
 62
     3
370
     9
100
AcDbLine
 10
-750.0653401841986
 20
168.0353571973943
 30
0.0
 11
-744.0653575049864
 21
168.0353571973943
 31
0.0
  0
LINE
  5
2C6
330
1F
100
AcDbEntity
  8
A-0_通り芯
  6
Continuous
 62
     3
370
     9
100
AcDbLine
 10
-739.8226924461287
 20
168.0353571973943
 30
0.0
 11
-746.5977185097897
 21
174.8103832610556
 31
0.0
  0
LINE
  5
2C7
330
1F
100
AcDbEntity
  8
A-0_通り芯
  6
Continuous
 62
     3
370
     9
100
AcDbLine
 10
-735.5800583172486
 20
168.0353571973943
 30
0.0
 11
-742.3550843809101
 21
174.8103832610556
 31
0.0
  0
LINE
  5
2C8
330
1F
100
AcDbEntity
  8
A-0_通り芯
  6
Continuous
 62
     3
370
     9
100
AcDbLine
 10
-734.0653554429877
 20
170.763319381991
 30
0.0
 11
-738.1124193220522
 21
174.8103832610556
 31
0.0
  0
LINE
  5
2C9
330
1F
100
AcDbEntity
  8
A-0_通り芯
  6
Continuous
 62
     3
370
     9
100
AcDbLine
 10
-755.065325750209
 20
108.460322720779
 30
0.0
 11
-755.065325750209
 21
97.26039216888918
 31
0.0
  0
LINE
  5
2CA
330
1F
100
AcDbEntity
  8
A-0_通り芯
  6
Continuous
 62
     3
370
     9
100
AcDbLine
 10
-755.065325750209
 20
165.8603611564315
 30
0.0
 11
-755.065325750209
 21
154.6603687445861
 31
0.0
  0
LINE
  5
2CB
330
1F
100
AcDbEntity
  8
A-0_通り芯
  6
Continuous
 62
     3
370
     9
100
AcDbLine
 10
-755.065325750209
 20
194.56034944428
 30
0.0
 11
-755.065325750209
 21
183.3604188923901
 31
0.0
  0
LINE
  5
2CC
330
1F
100
AcDbEntity
  8
A-0_通り芯
  6
Continuous
 62
     3
370
     9
100
AcDbLine
 10
-755.065325750209
 20
251.9602023000654
 30
0.0
 11
-755.065325750209
 21
240.7603336081312
 31
0.0
  0
LINE
  5
2CD
330
1F
100
AcDbEntity
  8
A-0_通り芯
  6
Continuous
 62
     3
370
     9
100
AcDbLine
 10
-755.065325750209
 20
269.4603837559353
 30
0.0
 11
-755.065325750209
 21
280.6602524478694
 31
0.0
  0
LINE
  5
2CE
330
1F
100
AcDbEntity
  8
A-0_通り芯
  6
Continuous
 62
     3
370
     9
100
AcDbLine
 10
-523.8653189043738
 20
78.26035422811638
 30
0.0
 11
-523.8653189043738
 21
70.06032222589933
 31
0.0
  0
LINE
  5
2CF
330
1F
100
AcDbEntity
  8
A-0_通り芯
  6
Continuous
 62
     3
370
     9
100
AcDbLine
 10
-503.8652529204212
 20
78.26035422811638
 30
0.0
 11
-503.8652529204212
 21
70.06032222589933
 31
0.0
  0
LINE
  5
2D0
330
1F
100
AcDbEntity
  8
A-0_通り芯
  6
Continuous
 62
     3
370
     9
100
AcDbLine
 10
-388.2652958924704
 20
78.26035422811638
 30
0.0
 11
-388.2652958924704
 21
70.06032222589933
 31
0.0
  0
LINE
  5
2D1
330
1F
100
AcDbEntity
  8
A-0_通り芯
  6
Continuous
 62
     3
370
     9
100
AcDbLine
 10
-408.2652381565117
 20
78.26035422811638
 30
0.0
 11
-408.2652381565117
 21
70.06032222589933
 31
0.0
  0
LINE
  5
2D2
330
1F
100
AcDbEntity
  8
A-0_通り芯
  6
Continuous
 62
     3
370
     9
100
AcDbLine
 10
-292.6653120585387
 20
78.26035422811638
 30
0.0
 11
-292.6653120585387
 21
70.06032222589933
 31
0.0
  0
LINE
  5
2D3
330
1F
100
AcDbEntity
  8
A-0_通り芯
  6
Continuous
 62
     3
370
     9
100
AcDbLine
 10
-272.665246074586
 20
78.26035422811638
 30
0.0
 11
-272.665246074586
 21
70.06032222589933
 31
0.0
  0
LINE
  5
2D4
330
1F
100
AcDbEntity
  8
A-0_通り芯
  6
Continuous
 62
     3
370
     9
100
AcDbLine
 10
-177.0652003806987
 20
78.26035422811638
 30
0.0
 11
-177.0652003806987
 21
70.06032222589933
 31
0.0
  0
LINE
  5
2D5
330
1F
100
AcDbEntity
  8
A-0_通り芯
  6
Continuous
 62
     3
370
     9
100
AcDbLine
 10
-157.0652581166575
 20
79.76033443293058
 30
0.0
 11
-157.0652581166575
 21
68.56040388104087
 31
0.0
  0
LINE
  5
2D6
330
1F
100
AcDbEntity
  8
A-0_通り芯
  6
Continuous
 62
     3
370
     9
100
AcDbLine
 10
-735.0653525561897
 20
106.9603425159648
 30
0.0
 11
-735.0653525561897
 21
98.76037237370338
 31
0.0
  0
LINE
  5
2D7
330
1F
100
AcDbEntity
  8
A-0_通り芯
  6
Continuous
 62
     3
370
     9
100
AcDbLine
 10
-619.4653336682832
 20
106.9603425159648
 30
0.0
 11
-619.4653336682832
 21
98.76037237370338
 31
0.0
  0
LINE
  5
2D8
330
1F
100
AcDbEntity
  8
A-0_通り芯
  6
Continuous
 62
     3
370
     9
100
AcDbLine
 10
-639.4653377922804
 20
106.9603425159648
 30
0.0
 11
-639.4653377922804
 21
98.76037237370338
 31
0.0
  0
LINE
  5
2D9
330
1F
100
AcDbEntity
  8
A-0_通り芯
  6
Continuous
 62
     3
370
     9
100
AcDbLine
 10
-523.8653189043738
 20
106.9603425159648
 30
0.0
 11
-523.8653189043738
 21
98.76037237370338
 31
0.0
  0
LINE
  5
2DA
330
1F
100
AcDbEntity
  8
A-0_通り芯
  6
Continuous
 62
     3
370
     9
100
AcDbLine
 10
-503.8652529204212
 20
106.9603425159648
 30
0.0
 11
-503.8652529204212
 21
98.76037237370338
 31
0.0
  0
LINE
  5
2DB
330
1F
100
AcDbEntity
  8
A-0_通り芯
  6
Continuous
 62
     3
370
     9
100
AcDbLine
 10
-388.2652958924704
 20
106.9603425159648
 30
0.0
 11
-388.2652958924704
 21
98.76037237370338
 31
0.0
  0
LINE
  5
2DC
330
1F
100
AcDbEntity
  8
A-0_通り芯
  6
Continuous
 62
     3
370
     9
100
AcDbLine
 10
-408.2652381565117
 20
106.9603425159648
 30
0.0
 11
-408.2652381565117
 21
98.76037237370338
 31
0.0
  0
LINE
  5
2DD
330
1F
100
AcDbEntity
  8
A-0_通り芯
  6
Continuous
 62
     3
370
     9
100
AcDbLine
 10
-292.6653120585387
 20
106.9603425159648
 30
0.0
 11
-292.6653120585387
 21
98.76037237370338
 31
0.0
  0
LINE
  5
2DE
330
1F
100
AcDbEntity
  8
A-0_通り芯
  6
Continuous
 62
     3
370
     9
100
AcDbLine
 10
-272.665246074586
 20
106.9603425159648
 30
0.0
 11
-272.665246074586
 21
98.76037237370338
 31
0.0
  0
LINE
  5
2DF
330
1F
100
AcDbEntity
  8
A-0_通り芯
  6
Continuous
 62
     3
370
     9
100
AcDbLine
 10
-177.0652003806987
 20
106.9603425159648
 30
0.0
 11
-177.0652003806987
 21
98.76037237370338
 31
0.0
  0
LINE
  5
2E0
330
1F
100
AcDbEntity
  8
A-0_通り芯
  6
Continuous
 62
     3
370
     9
100
AcDbLine
 10
-735.0653525561897
 20
135.6604545237246
 30
0.0
 11
-735.0653525561897
 21
127.4604225215076
 31
0.0
  0
LINE
  5
2E1
330
1F
100
AcDbEntity
  8
A-0_通り芯
  6
Continuous
 62
     3
370
     9
100
AcDbLine
 10
-619.4653336682832
 20
135.6604545237246
 30
0.0
 11
-619.4653336682832
 21
127.4604225215076
 31
0.0
  0
LINE
  5
2E2
330
1F
100
AcDbEntity
  8
A-0_通り芯
  6
Continuous
 62
     3
370
     9
100
AcDbLine
 10
-639.4653377922804
 20
135.6604545237246
 30
0.0
 11
-639.4653377922804
 21
127.4604225215076
 31
0.0
  0
LINE
  5
2E3
330
1F
100
AcDbEntity
  8
A-0_通り芯
  6
Continuous
 62
     3
370
     9
100
AcDbLine
 10
-523.8653189043738
 20
135.6604545237246
 30
0.0
 11
-523.8653189043738
 21
127.4604225215076
 31
0.0
  0
LINE
  5
2E4
330
1F
100
AcDbEntity
  8
A-0_通り芯
  6
Continuous
 62
     3
370
     9
100
AcDbLine
 10
-503.8652529204212
 20
135.6604545237246
 30
0.0
 11
-503.8652529204212
 21
127.4604225215076
 31
0.0
  0
LINE
  5
2E5
330
1F
100
AcDbEntity
  8
A-0_通り芯
  6
Continuous
 62
     3
370
     9
100
AcDbLine
 10
-388.2652958924704
 20
135.6604545237246
 30
0.0
 11
-388.2652958924704
 21
127.4604225215076
 31
0.0
  0
LINE
  5
2E6
330
1F
100
AcDbEntity
  8
A-0_通り芯
  6
Continuous
 62
     3
370
     9
100
AcDbLine
 10
-408.2652381565117
 20
135.6604545237246
 30
0.0
 11
-408.2652381565117
 21
127.4604225215076
 31
0.0
  0
LINE
  5
2E7
330
1F
100
AcDbEntity
  8
A-0_通り芯
  6
Continuous
 62
     3
370
     9
100
AcDbLine
 10
-292.6653120585387
 20
135.6604545237246
 30
0.0
 11
-292.6653120585387
 21
127.4604225215076
 31
0.0
  0
LINE
  5
2E8
330
1F
100
AcDbEntity
  8
A-0_通り芯
  6
Continuous
 62
     3
370
     9
100
AcDbLine
 10
-272.665246074586
 20
135.6604545237246
 30
0.0
 11
-272.665246074586
 21
127.4604225215076
 31
0.0
  0
LINE
  5
2E9
330
1F
100
AcDbEntity
  8
A-0_通り芯
  6
Continuous
 62
     3
370
     9
100
AcDbLine
 10
-177.0652003806987
 20
135.6604545237246
 30
0.0
 11
-177.0652003806987
 21
127.4604225215076
 31
0.0
  0
LINE
  5
2EA
330
1F
100
AcDbEntity
  8
A-0_通り芯
  6
Continuous
 62
     3
370
     9
100
AcDbLine
 10
-735.0653525561897
 20
164.3603809516173
 30
0.0
 11
-735.0653525561897
 21
156.1604108093559
 31
0.0
  0
LINE
  5
2EB
330
1F
100
AcDbEntity
  8
A-0_通り芯
  6
Continuous
 62
     3
370
     9
100
AcDbLine
 10
-619.4653336682832
 20
164.3603809516173
 30
0.0
 11
-619.4653336682832
 21
156.1604108093559
 31
0.0
  0
LINE
  5
2EC
330
1F
100
AcDbEntity
  8
A-0_通り芯
  6
Continuous
 62
     3
370
     9
100
AcDbLine
 10
-639.4653377922804
 20
164.3603809516173
 30
0.0
 11
-639.4653377922804
 21
156.1604108093559
 31
0.0
  0
LINE
  5
2ED
330
1F
100
AcDbEntity
  8
A-0_通り芯
  6
Continuous
 62
     3
370
     9
100
AcDbLine
 10
-523.8653189043738
 20
164.3603809516173
 30
0.0
 11
-523.8653189043738
 21
156.1604108093559
 31
0.0
  0
LINE
  5
2EE
330
1F
100
AcDbEntity
  8
A-0_通り芯
  6
Continuous
 62
     3
370
     9
100
AcDbLine
 10
-503.8652529204212
 20
164.3603809516173
 30
0.0
 11
-503.8652529204212
 21
156.1604108093559
 31
0.0
  0
LINE
  5
2EF
330
1F
100
AcDbEntity
  8
A-0_通り芯
  6
Continuous
 62
     3
370
     9
100
AcDbLine
 10
-388.2652958924704
 20
164.3603809516173
 30
0.0
 11
-388.2652958924704
 21
156.1604108093559
 31
0.0
  0
LINE
  5
2F0
330
1F
100
AcDbEntity
  8
A-0_通り芯
  6
Continuous
 62
     3
370
     9
100
AcDbLine
 10
-408.2652381565117
 20
164.3603809516173
 30
0.0
 11
-408.2652381565117
 21
156.1604108093559
 31
0.0
  0
LINE
  5
2F1
330
1F
100
AcDbEntity
  8
A-0_通り芯
  6
Continuous
 62
     3
370
     9
100
AcDbLine
 10
-292.6653120585387
 20
164.3603809516173
 30
0.0
 11
-292.6653120585387
 21
156.1604108093559
 31
0.0
  0
LINE
  5
2F2
330
1F
100
AcDbEntity
  8
A-0_通り芯
  6
Continuous
 62
     3
370
     9
100
AcDbLine
 10
-272.665246074586
 20
164.3603809516173
 30
0.0
 11
-272.665246074586
 21
156.1604108093559
 31
0.0
  0
LINE
  5
2F3
330
1F
100
AcDbEntity
  8
A-0_通り芯
  6
Continuous
 62
     3
370
     9
100
AcDbLine
 10
-177.0652003806987
 20
164.3603809516173
 30
0.0
 11
-177.0652003806987
 21
156.1604108093559
 31
0.0
  0
LINE
  5
2F4
330
1F
100
AcDbEntity
  8
A-0_通り芯
  6
Continuous
 62
     3
370
     9
100
AcDbLine
 10
-735.0653525561897
 20
193.0603692394658
 30
0.0
 11
-735.0653525561897
 21
184.8603372372487
 31
0.0
  0
LINE
  5
2F5
330
1F
100
AcDbEntity
  8
A-0_通り芯
  6
Continuous
 62
     3
370
     9
100
AcDbLine
 10
-619.4653336682832
 20
193.0603692394658
 30
0.0
 11
-619.4653336682832
 21
184.8603372372487
 31
0.0
  0
LINE
  5
2F6
330
1F
100
AcDbEntity
  8
A-0_通り芯
  6
Continuous
 62
     3
370
     9
100
AcDbLine
 10
-639.4653377922804
 20
193.0603692394658
 30
0.0
 11
-639.4653377922804
 21
184.8603372372487
 31
0.0
  0
LINE
  5
2F7
330
1F
100
AcDbEntity
  8
A-0_通り芯
  6
Continuous
 62
     3
370
     9
100
AcDbLine
 10
-523.8653189043738
 20
193.0603692394658
 30
0.0
 11
-523.8653189043738
 21
184.8603372372487
 31
0.0
  0
LINE
  5
2F8
330
1F
100
AcDbEntity
  8
A-0_通り芯
  6
Continuous
 62
     3
370
     9
100
AcDbLine
 10
-503.8652529204212
 20
193.0603692394658
 30
0.0
 11
-503.8652529204212
 21
184.8603372372487
 31
0.0
  0
LINE
  5
2F9
330
1F
100
AcDbEntity
  8
A-0_通り芯
  6
Continuous
 62
     3
370
     9
100
AcDbLine
 10
-388.2652958924704
 20
193.0603692394658
 30
0.0
 11
-388.2652958924704
 21
184.8603372372487
 31
0.0
  0
LINE
  5
2FA
330
1F
100
AcDbEntity
  8
A-0_通り芯
  6
Continuous
 62
     3
370
     9
100
AcDbLine
 10
-408.2652381565117
 20
193.0603692394658
 30
0.0
 11
-408.2652381565117
 21
184.8603372372487
 31
0.0
  0
LINE
  5
2FB
330
1F
100
AcDbEntity
  8
A-0_通り芯
  6
Continuous
 62
     3
370
     9
100
AcDbLine
 10
-292.6653120585387
 20
193.0603692394658
 30
0.0
 11
-292.6653120585387
 21
184.8603372372487
 31
0.0
  0
LINE
  5
2FC
330
1F
100
AcDbEntity
  8
A-0_通り芯
  6
Continuous
 62
     3
370
     9
100
AcDbLine
 10
-272.665246074586
 20
193.0603692394658
 30
0.0
 11
-272.665246074586
 21
184.8603372372487
 31
0.0
  0
LINE
  5
2FD
330
1F
100
AcDbEntity
  8
A-0_通り芯
  6
Continuous
 62
     3
370
     9
100
AcDbLine
 10
-177.0652003806987
 20
193.0603692394658
 30
0.0
 11
-177.0652003806987
 21
184.8603372372487
 31
0.0
  0
LINE
  5
2FE
330
1F
100
AcDbEntity
  8
A-0_通り芯
  6
Continuous
 62
     3
370
     9
100
AcDbLine
 10
-735.0653525561897
 20
221.7604193872698
 30
0.0
 11
-735.0653525561897
 21
213.5602636651414
 31
0.0
  0
LINE
  5
2FF
330
1F
100
AcDbEntity
  8
A-0_通り芯
  6
Continuous
 62
     3
370
     9
100
AcDbLine
 10
-619.4653336682832
 20
221.7604193872698
 30
0.0
 11
-619.4653336682832
 21
213.5602636651414
 31
0.0
  0
LINE
  5
300
330
1F
100
AcDbEntity
  8
A-0_通り芯
  6
Continuous
 62
     3
370
     9
100
AcDbLine
 10
-639.4653377922804
 20
221.7604193872698
 30
0.0
 11
-639.4653377922804
 21
213.5602636651414
 31
0.0
  0
LINE
  5
301
330
1F
100
AcDbEntity
  8
A-0_通り芯
  6
Continuous
 62
     3
370
     9
100
AcDbLine
 10
-523.8653189043738
 20
221.7604193872698
 30
0.0
 11
-523.8653189043738
 21
213.5602636651414
 31
0.0
  0
LINE
  5
302
330
1F
100
AcDbEntity
  8
A-0_通り芯
  6
Continuous
 62
     3
370
     9
100
AcDbLine
 10
-503.8652529204212
 20
221.7604193872698
 30
0.0
 11
-503.8652529204212
 21
213.5602636651414
 31
0.0
  0
LINE
  5
303
330
1F
100
AcDbEntity
  8
A-0_通り芯
  6
Continuous
 62
     3
370
     9
100
AcDbLine
 10
-388.2652958924704
 20
221.7604193872698
 30
0.0
 11
-388.2652958924704
 21
213.5602636651414
 31
0.0
  0
LINE
  5
304
330
1F
100
AcDbEntity
  8
A-0_通り芯
  6
Continuous
 62
     3
370
     9
100
AcDbLine
 10
-408.2652381565117
 20
221.7604193872698
 30
0.0
 11
-408.2652381565117
 21
213.5602636651414
 31
0.0
  0
LINE
  5
305
330
1F
100
AcDbEntity
  8
A-0_通り芯
  6
Continuous
 62
     3
370
     9
100
AcDbLine
 10
-292.6653120585387
 20
221.7604193872698
 30
0.0
 11
-292.6653120585387
 21
213.5602636651414
 31
0.0
  0
LINE
  5
306
330
1F
100
AcDbEntity
  8
A-0_通り芯
  6
Continuous
 62
     3
370
     9
100
AcDbLine
 10
-272.665246074586
 20
221.7604193872698
 30
0.0
 11
-272.665246074586
 21
213.5602636651414
 31
0.0
  0
LINE
  5
307
330
1F
100
AcDbEntity
  8
A-0_通り芯
  6
Continuous
 62
     3
370
     9
100
AcDbLine
 10
-177.0652003806987
 20
221.7604193872698
 30
0.0
 11
-177.0652003806987
 21
213.5602636651414
 31
0.0
  0
LINE
  5
308
330
1F
100
AcDbEntity
  8
A-0_通り芯
  6
Continuous
 62
     3
370
     9
100
AcDbLine
 10
-735.0653525561897
 20
250.4603458151625
 30
0.0
 11
-735.0653525561897
 21
242.2603138129454
 31
0.0
  0
LINE
  5
309
330
1F
100
AcDbEntity
  8
A-0_通り芯
  6
Continuous
 62
     3
370
     9
100
AcDbLine
 10
-619.4653336682832
 20
250.4603458151625
 30
0.0
 11
-619.4653336682832
 21
242.2603138129454
 31
0.0
  0
LINE
  5
30A
330
1F
100
AcDbEntity
  8
A-0_通り芯
  6
Continuous
 62
     3
370
     9
100
AcDbLine
 10
-639.4653377922804
 20
250.4603458151625
 30
0.0
 11
-639.4653377922804
 21
242.2603138129454
 31
0.0
  0
LINE
  5
30B
330
1F
100
AcDbEntity
  8
A-0_通り芯
  6
Continuous
 62
     3
370
     9
100
AcDbLine
 10
-523.8653189043738
 20
250.4603458151625
 30
0.0
 11
-523.8653189043738
 21
242.2603138129454
 31
0.0
  0
LINE
  5
30C
330
1F
100
AcDbEntity
  8
A-0_通り芯
  6
Continuous
 62
     3
370
     9
100
AcDbLine
 10
-503.8652529204212
 20
250.4603458151625
 30
0.0
 11
-503.8652529204212
 21
242.2603138129454
 31
0.0
  0
LINE
  5
30D
330
1F
100
AcDbEntity
  8
A-0_通り芯
  6
Continuous
 62
     3
370
     9
100
AcDbLine
 10
-388.2652958924704
 20
250.4603458151625
 30
0.0
 11
-388.2652958924704
 21
242.2603138129454
 31
0.0
  0
LINE
  5
30E
330
1F
100
AcDbEntity
  8
A-0_通り芯
  6
Continuous
 62
     3
370
     9
100
AcDbLine
 10
-408.2652381565117
 20
250.4603458151625
 30
0.0
 11
-408.2652381565117
 21
242.2603138129454
 31
0.0
  0
LINE
  5
30F
330
1F
100
AcDbEntity
  8
A-0_通り芯
  6
Continuous
 62
     3
370
     9
100
AcDbLine
 10
-292.6653120585387
 20
250.4603458151625
 30
0.0
 11
-292.6653120585387
 21
242.2603138129454
 31
0.0
  0
LINE
  5
310
330
1F
100
AcDbEntity
  8
A-0_通り芯
  6
Continuous
 62
     3
370
     9
100
AcDbLine
 10
-272.665246074586
 20
250.4603458151625
 30
0.0
 11
-272.665246074586
 21
242.2603138129454
 31
0.0
  0
LINE
  5
311
330
1F
100
AcDbEntity
  8
A-0_通り芯
  6
Continuous
 62
     3
370
     9
100
AcDbLine
 10
-177.0652003806987
 20
250.4603458151625
 30
0.0
 11
-177.0652003806987
 21
242.2603138129454
 31
0.0
  0
LINE
  5
312
330
1F
100
AcDbEntity
  8
A-0_通り芯
  6
Continuous
 62
     3
370
     9
100
AcDbLine
 10
-735.0653525561897
 20
279.1605196828779
 30
0.0
 11
-735.0653525561897
 21
270.9603639607495
 31
0.0
  0
LINE
  5
313
330
1F
100
AcDbEntity
  8
A-0_通り芯
  6
Continuous
 62
     3
370
     9
100
AcDbLine
 10
-619.4653336682832
 20
279.1605196828779
 30
0.0
 11
-619.4653336682832
 21
270.9603639607495
 31
0.0
  0
LINE
  5
314
330
1F
100
AcDbEntity
  8
A-0_通り芯
  6
Continuous
 62
     3
370
     9
100
AcDbLine
 10
-639.4653377922804
 20
279.1605196828779
 30
0.0
 11
-639.4653377922804
 21
270.9603639607495
 31
0.0
  0
LINE
  5
315
330
1F
100
AcDbEntity
  8
A-0_通り芯
  6
Continuous
 62
     3
370
     9
100
AcDbLine
 10
-523.8653189043738
 20
279.1605196828779
 30
0.0
 11
-523.8653189043738
 21
270.9603639607495
 31
0.0
  0
LINE
  5
316
330
1F
100
AcDbEntity
  8
A-0_通り芯
  6
Continuous
 62
     3
370
     9
100
AcDbLine
 10
-503.8652529204212
 20
279.1605196828779
 30
0.0
 11
-503.8652529204212
 21
270.9603639607495
 31
0.0
  0
LINE
  5
317
330
1F
100
AcDbEntity
  8
A-0_通り芯
  6
Continuous
 62
     3
370
     9
100
AcDbLine
 10
-388.2652958924704
 20
279.1605196828779
 30
0.0
 11
-388.2652958924704
 21
270.9603639607495
 31
0.0
  0
LINE
  5
318
330
1F
100
AcDbEntity
  8
A-0_通り芯
  6
Continuous
 62
     3
370
     9
100
AcDbLine
 10
-408.2652381565117
 20
279.1605196828779
 30
0.0
 11
-408.2652381565117
 21
270.9603639607495
 31
0.0
  0
LINE
  5
319
330
1F
100
AcDbEntity
  8
A-0_通り芯
  6
Continuous
 62
     3
370
     9
100
AcDbLine
 10
-292.6653120585387
 20
279.1605196828779
 30
0.0
 11
-292.6653120585387
 21
270.9603639607495
 31
0.0
  0
LINE
  5
31A
330
1F
100
AcDbEntity
  8
A-0_通り芯
  6
Continuous
 62
     3
370
     9
100
AcDbLine
 10
-272.665246074586
 20
279.1605196828779
 30
0.0
 11
-272.665246074586
 21
270.9603639607495
 31
0.0
  0
LINE
  5
31B
330
1F
100
AcDbEntity
  8
A-0_通り芯
  6
Continuous
 62
     3
370
     9
100
AcDbLine
 10
-177.0652003806987
 20
279.1605196828779
 30
0.0
 11
-177.0652003806987
 21
270.9603639607495
 31
0.0
  0
LINE
  5
31C
330
1F
100
AcDbEntity
  8
A-0_通り芯
  6
Continuous
 62
     3
370
     9
100
AcDbLine
 10
-157.0652581166575
 20
108.460322720779
 30
0.0
 11
-157.0652581166575
 21
97.26039216888918
 31
0.0
  0
LINE
  5
31D
330
1F
100
AcDbEntity
  8
A-0_通り芯
  6
Continuous
 62
     3
370
     9
100
AcDbLine
 10
-157.0652581166575
 20
137.1603728685831
 30
0.0
 11
-157.0652581166575
 21
125.9603804567376
 31
0.0
  0
LINE
  5
31E
330
1F
100
AcDbEntity
  8
A-0_通り芯
  6
Continuous
 62
     3
370
     9
100
AcDbLine
 10
-157.0652581166575
 20
165.8603611564315
 30
0.0
 11
-157.0652581166575
 21
154.6603687445861
 31
0.0
  0
LINE
  5
31F
330
1F
100
AcDbEntity
  8
A-0_通り芯
  6
Continuous
 62
     3
370
     9
100
AcDbLine
 10
-157.0652581166575
 20
194.56034944428
 30
0.0
 11
-157.0652581166575
 21
183.3604188923901
 31
0.0
  0
LINE
  5
320
330
1F
100
AcDbEntity
  8
A-0_通り芯
  6
Continuous
 62
     3
370
     9
100
AcDbLine
 10
-157.0652581166575
 20
223.2602758721727
 30
0.0
 11
-157.0652581166575
 21
212.0604071802385
 31
0.0
  0
LINE
  5
321
330
1F
100
AcDbEntity
  8
A-0_通り芯
  6
Continuous
 62
     3
370
     9
100
AcDbLine
 10
-157.0652581166575
 20
251.9602023000654
 30
0.0
 11
-157.0652581166575
 21
240.7603336081312
 31
0.0
  0
LINE
  5
322
330
1F
100
AcDbEntity
  8
A-0_通り芯
  6
Continuous
 62
     3
370
     9
100
AcDbLine
 10
-157.0652581166575
 20
280.6602524478694
 30
0.0
 11
-157.0652581166575
 21
269.4603837559353
 31
0.0
  0
LINE
  5
323
330
1F
100
AcDbEntity
  8
A-0_通り芯
  6
Continuous
 62
     3
370
     9
100
AcDbLine
 10
-268.0652160518875
 20
54.06036841466626
 30
0.0
 11
-268.0652160518875
 21
66.06033377309113
 31
0.0
  0
LINE
  5
324
330
1F
100
AcDbEntity
  8
A-0_通り芯
  6
Continuous
 62
     3
370
     9
100
AcDbLine
 10
-269.0652440950675
 20
53.06040223144204
 30
0.0
 11
-269.0652440950675
 21
67.06036181627094
 31
0.0
  0
LINE
  5
325
330
1F
100
AcDbEntity
  8
A-0_通り芯
  6
Continuous
 62
     3
370
     9
100
AcDbLine
 10
-268.0652160518875
 20
66.06033377309113
 30
0.0
 11
-178.0652284238787
 21
66.06033377309113
 31
0.0
  0
LINE
  5
326
330
1F
100
AcDbEntity
  8
A-0_通り芯
  6
Continuous
 62
     3
370
     9
100
AcDbLine
 10
-269.0652440950675
 20
67.06036181627094
 30
0.0
 11
-177.0652003806987
 21
67.06036181627094
 31
0.0
  0
LINE
  5
327
330
1F
100
AcDbEntity
  8
A-0_通り芯
  6
Continuous
 62
     3
370
     9
100
AcDbLine
 10
-177.0652003806987
 20
53.06040223144204
 30
0.0
 11
-177.0652003806987
 21
67.06036181627094
 31
0.0
  0
LINE
  5
328
330
1F
100
AcDbEntity
  8
A-0_通り芯
  6
Continuous
 62
     3
370
     9
100
AcDbLine
 10
-269.0652440950675
 20
53.06040223144204
 30
0.0
 11
-177.0652003806987
 21
53.06040223144204
 31
0.0
  0
LINE
  5
329
330
1F
100
AcDbEntity
  8
A-0_通り芯
  6
Continuous
 62
     3
370
     9
100
AcDbLine
 10
-268.0652160518875
 20
54.06036841466626
 30
0.0
 11
-178.0652284238787
 21
54.06036841466626
 31
0.0
  0
LINE
  5
32A
330
1F
100
AcDbEntity
  8
A-0_通り芯
  6
Continuous
 62
     3
370
     9
100
AcDbLine
 10
-178.0652284238787
 20
54.06036841466626
 30
0.0
 11
-178.0652284238787
 21
66.06033377309113
 31
0.0
  0
LINE
  5
32B
330
1F
100
AcDbEntity
  8
A-0_通り芯
  6
Continuous
 62
     3
370
     9
100
AcDbLine
 10
-734.0653554429877
 20
283.3851834946388
 30
0.0
 11
-734.0653554429877
 21
295.3851488530636
 31
0.0
  0
LINE
  5
32C
330
1F
100
AcDbEntity
  8
A-0_通り芯
  6
Continuous
 62
     3
370
     9
100
AcDbLine
 10
-735.0653525561897
 20
282.385155451459
 30
0.0
 11
-735.0653525561897
 21
296.385300616155
 31
0.0
  0
LINE
  5
32D
330
1F
100
AcDbEntity
  8
A-0_通り芯
  6
Continuous
 62
     3
370
     9
100
AcDbLine
 10
-734.0653554429877
 20
295.3851488530636
 30
0.0
 11
-609.0652832730394
 21
295.3851488530636
 31
0.0
  0
LINE
  5
32E
330
1F
100
AcDbEntity
  8
A-0_通り芯
  6
Continuous
 62
     3
370
     9
100
AcDbLine
 10
-735.0653525561897
 20
296.385300616155
 30
0.0
 11
-608.0652861598373
 21
296.385300616155
 31
0.0
  0
LINE
  5
32F
330
1F
100
AcDbEntity
  8
A-0_通り芯
  6
Continuous
 62
     3
370
     9
100
AcDbLine
 10
-609.0652832730394
 20
283.3851834946388
 30
0.0
 11
-609.0652832730394
 21
295.3851488530636
 31
0.0
  0
LINE
  5
330
330
1F
100
AcDbEntity
  8
A-0_通り芯
  6
Continuous
 62
     3
370
     9
100
AcDbLine
 10
-734.0653554429877
 20
283.3851834946388
 30
0.0
 11
-609.0652832730394
 21
283.3851834946388
 31
0.0
  0
LINE
  5
331
330
1F
100
AcDbEntity
  8
A-0_通り芯
  6
Continuous
 62
     3
370
     9
100
AcDbLine
 10
-735.0653525561897
 20
282.385155451459
 30
0.0
 11
-608.0652861598373
 21
282.385155451459
 31
0.0
  0
LINE
  5
332
330
1F
100
AcDbEntity
  8
A-0_通り芯
  6
Continuous
 62
     3
370
     9
100
AcDbLine
 10
-608.0652861598373
 20
282.385155451459
 30
0.0
 11
-608.0652861598373
 21
296.385300616155
 31
0.0
  0
LINE
  5
333
330
1F
100
AcDbEntity
  8
A-0_通り芯
  6
Continuous
 62
     3
370
     9
100
AcDbLine
 10
-679.0653286370069
 20
106.9603425159648
 30
0.0
 11
-679.0653286370069
 21
98.76037237370338
 31
0.0
  0
LINE
  5
334
330
1F
100
AcDbEntity
  8
A-0_通り芯
  6
Continuous
 62
     3
370
     9
100
AcDbLine
 10
-695.0653443081958
 20
106.9603425159648
 30
0.0
 11
-695.0653443081958
 21
98.76037237370338
 31
0.0
  0
LINE
  5
335
330
1F
100
AcDbEntity
  8
A-0_通り芯
  6
Continuous
 62
     3
370
     9
100
AcDbLine
 10
-679.0653286370069
 20
135.6604545237246
 30
0.0
 11
-679.0653286370069
 21
127.4604225215076
 31
0.0
  0
LINE
  5
336
330
1F
100
AcDbEntity
  8
A-0_通り芯
  6
Continuous
 62
     3
370
     9
100
AcDbLine
 10
-695.0653443081958
 20
135.6604545237246
 30
0.0
 11
-695.0653443081958
 21
127.4604225215076
 31
0.0
  0
LINE
  5
337
330
1F
100
AcDbEntity
  8
A-0_通り芯
  6
Continuous
 62
     3
370
     9
100
AcDbLine
 10
-233.065162439926
 20
106.9603425159648
 30
0.0
 11
-233.065162439926
 21
98.76037237370338
 31
0.0
  0
LINE
  5
338
330
1F
100
AcDbEntity
  8
A-0_通り芯
  6
Continuous
 62
     3
370
     9
100
AcDbLine
 10
-217.0652086286929
 20
106.9603425159648
 30
0.0
 11
-217.0652086286929
 21
98.76037237370338
 31
0.0
  0
LINE
  5
339
330
1F
100
AcDbEntity
  8
A-0_通り芯
  6
Continuous
 62
     3
370
     9
100
AcDbLine
 10
-233.065162439926
 20
135.6604545237246
 30
0.0
 11
-233.065162439926
 21
127.4604225215076
 31
0.0
  0
LINE
  5
33A
330
1F
100
AcDbEntity
  8
A-0_通り芯
  6
Continuous
 62
     3
370
     9
100
AcDbLine
 10
-217.0652086286929
 20
135.6604545237246
 30
0.0
 11
-217.0652086286929
 21
127.4604225215076
 31
0.0
  0
LINE
  5
33B
330
1F
100
AcDbEntity
  8
A-0_通り芯
  6
Continuous
 62
     3
370
     9
100
AcDbLine
 10
-158.5652383214717
 20
270.9603639607495
 30
0.0
 11
-753.5653455453948
 21
270.9603639607495
 31
0.0
  0
LINE
  5
33C
330
1F
100
AcDbEntity
  8
A-0_通り芯
  6
Continuous
 62
     3
370
     9
100
AcDbLine
 10
-755.065356680187
 20
125.9603804567376
 30
0.0
 11
-755.065356680187
 21
108.460322720779
 31
0.0
  0
ARC
  5
33D
330
1F
100
AcDbEntity
  8
A-0_通り芯
  6
Continuous
 62
     3
370
     9
100
AcDbCircle
 10
-752.5653484321926
 20
96.26042598566497
 30
0.0
 40
1.500000019331236
100
AcDbArc
 50
90.0
 51
180.0
  0
ARC
  5
33E
330
1F
100
AcDbEntity
  8
A-0_通り芯
  6
Continuous
 62
     3
370
     9
100
AcDbCircle
 10
-753.5653455453948
 20
97.26039216888918
 30
0.0
 40
1.500000019331236
100
AcDbArc
 50
90.0
 51
180.0
  0
ARC
  5
33F
330
1F
100
AcDbEntity
  8
A-0_通り芯
  6
Continuous
 62
     3
370
     9
100
AcDbCircle
 10
-752.5653484321926
 20
80.76030061615481
 30
0.0
 40
1.500000019331236
100
AcDbArc
 50
180.0
 51
270.0
  0
ARC
  5
340
330
1F
100
AcDbEntity
  8
A-0_通り芯
  6
Continuous
 62
     3
370
     9
100
AcDbCircle
 10
-753.5653455453948
 20
79.76033443293058
 30
0.0
 40
1.500000019331236
100
AcDbArc
 50
180.0
 51
270.0
  0
ARC
  5
341
330
1F
100
AcDbEntity
  8
A-0_通り芯
  6
Continuous
 62
     3
370
     9
100
AcDbCircle
 10
-159.5651426447401
 20
96.26042598566497
 30
0.0
 40
1.500000019331236
100
AcDbArc
 50
359.9980010986328
 51
89.99999999999997
  0
ARC
  5
342
330
1F
100
AcDbEntity
  8
A-0_通り芯
  6
Continuous
 62
     3
370
     9
100
AcDbCircle
 10
-158.5652383214717
 20
97.26039216888918
 30
0.0
 40
1.500000019331236
100
AcDbArc
 50
359.9980010986328
 51
89.99999999999997
  0
ARC
  5
343
330
1F
100
AcDbEntity
  8
A-0_通り芯
  6
Continuous
 62
     3
370
     9
100
AcDbCircle
 10
-158.5652383214717
 20
79.76033443293058
 30
0.0
 40
1.500000019331236
100
AcDbArc
 50
270.0
 51
0.0
  0
ARC
  5
344
330
1F
100
AcDbEntity
  8
A-0_通り芯
  6
Continuous
 62
     3
370
     9
100
AcDbCircle
 10
-159.5651426447401
 20
80.76030061615481
 30
0.0
 40
1.500000019331236
100
AcDbArc
 50
270.0
 51
0.0
  0
ARC
  5
345
330
1F
100
AcDbEntity
  8
A-0_通り芯
  6
Continuous
 62
     3
370
     9
100
AcDbCircle
 10
-752.5653484321926
 20
124.9604142735134
 30
0.0
 40
1.500000019331236
100
AcDbArc
 50
90.0
 51
180.0
  0
ARC
  5
346
330
1F
100
AcDbEntity
  8
A-0_通り芯
  6
Continuous
 62
     3
370
     9
100
AcDbCircle
 10
-753.5653455453948
 20
125.9603804567376
 30
0.0
 40
1.500000019331236
100
AcDbArc
 50
90.0
 51
180.0
  0
ARC
  5
347
330
1F
100
AcDbEntity
  8
A-0_通り芯
  6
Continuous
 62
     3
370
     9
100
AcDbCircle
 10
-752.5653484321926
 20
109.460350763959
 30
0.0
 40
1.500000019331236
100
AcDbArc
 50
180.0
 51
270.0
  0
ARC
  5
348
330
1F
100
AcDbEntity
  8
A-0_通り芯
  6
Continuous
 62
     3
370
     9
100
AcDbCircle
 10
-753.5653455453948
 20
108.460322720779
 30
0.0
 40
1.500000019331236
100
AcDbArc
 50
180.0
 51
270.0
  0
ARC
  5
349
330
1F
100
AcDbEntity
  8
A-0_通り芯
  6
Continuous
 62
     3
370
     9
100
AcDbCircle
 10
-159.5651426447401
 20
124.9604142735134
 30
0.0
 40
1.500000019331236
100
AcDbArc
 50
359.9980010986328
 51
89.99999999999997
  0
ARC
  5
34A
330
1F
100
AcDbEntity
  8
A-0_通り芯
  6
Continuous
 62
     3
370
     9
100
AcDbCircle
 10
-158.5652383214717
 20
125.9603804567376
 30
0.0
 40
1.500000019331236
100
AcDbArc
 50
359.9980010986328
 51
89.99999999999997
  0
ARC
  5
34B
330
1F
100
AcDbEntity
  8
A-0_通り芯
  6
Continuous
 62
     3
370
     9
100
AcDbCircle
 10
-158.5652383214717
 20
108.460322720779
 30
0.0
 40
1.500000019331236
100
AcDbArc
 50
270.0
 51
0.0
  0
ARC
  5
34C
330
1F
100
AcDbEntity
  8
A-0_通り芯
  6
Continuous
 62
     3
370
     9
100
AcDbCircle
 10
-159.5651426447401
 20
109.460350763959
 30
0.0
 40
1.500000019331236
100
AcDbArc
 50
270.0
 51
0.0
  0
ARC
  5
34D
330
1F
100
AcDbEntity
  8
A-0_通り芯
  6
Continuous
 62
     3
370
     9
100
AcDbCircle
 10
-752.5653484321926
 20
153.6604025613618
 30
0.0
 40
1.500000019331236
100
AcDbArc
 50
90.0
 51
180.0
  0
ARC
  5
34E
330
1F
100
AcDbEntity
  8
A-0_通り芯
  6
Continuous
 62
     3
370
     9
100
AcDbCircle
 10
-753.5653455453948
 20
154.6603687445861
 30
0.0
 40
1.500000019331236
100
AcDbArc
 50
90.0
 51
180.0
  0
ARC
  5
34F
330
1F
100
AcDbEntity
  8
A-0_通り芯
  6
Continuous
 62
     3
370
     9
100
AcDbCircle
 10
-752.5653484321926
 20
138.1603390518073
 30
0.0
 40
1.500000019331236
100
AcDbArc
 50
180.0
 51
270.0
  0
ARC
  5
350
330
1F
100
AcDbEntity
  8
A-0_通り芯
  6
Continuous
 62
     3
370
     9
100
AcDbCircle
 10
-753.5653455453948
 20
137.1603728685831
 30
0.0
 40
1.500000019331236
100
AcDbArc
 50
180.0
 51
270.0
  0
ARC
  5
351
330
1F
100
AcDbEntity
  8
A-0_通り芯
  6
Continuous
 62
     3
370
     9
100
AcDbCircle
 10
-159.5651426447401
 20
153.6604025613618
 30
0.0
 40
1.500000019331236
100
AcDbArc
 50
359.9980010986328
 51
89.99999999999997
  0
ARC
  5
352
330
1F
100
AcDbEntity
  8
A-0_通り芯
  6
Continuous
 62
     3
370
     9
100
AcDbCircle
 10
-158.5652383214717
 20
154.6603687445861
 30
0.0
 40
1.500000019331236
100
AcDbArc
 50
359.9980010986328
 51
89.99999999999997
  0
ARC
  5
353
330
1F
100
AcDbEntity
  8
A-0_通り芯
  6
Continuous
 62
     3
370
     9
100
AcDbCircle
 10
-158.5652383214717
 20
137.1603728685831
 30
0.0
 40
1.500000019331236
100
AcDbArc
 50
270.0
 51
0.0
  0
ARC
  5
354
330
1F
100
AcDbEntity
  8
A-0_通り芯
  6
Continuous
 62
     3
370
     9
100
AcDbCircle
 10
-159.5651426447401
 20
138.1603390518073
 30
0.0
 40
1.500000019331236
100
AcDbArc
 50
270.0
 51
0.0
  0
ARC
  5
355
330
1F
100
AcDbEntity
  8
A-0_通り芯
  6
Continuous
 62
     3
370
     9
100
AcDbCircle
 10
-752.5653484321926
 20
182.3603908492101
 30
0.0
 40
1.500000019331236
100
AcDbArc
 50
90.0
 51
180.0
  0
ARC
  5
356
330
1F
100
AcDbEntity
  8
A-0_通り芯
  6
Continuous
 62
     3
370
     9
100
AcDbCircle
 10
-753.5653455453948
 20
183.3604188923901
 30
0.0
 40
1.500000019331236
100
AcDbArc
 50
90.0
 51
180.0
  0
ARC
  5
357
330
1F
100
AcDbEntity
  8
A-0_通り芯
  6
Continuous
 62
     3
370
     9
100
AcDbCircle
 10
-752.5653484321926
 20
166.8603273396557
 30
0.0
 40
1.500000019331236
100
AcDbArc
 50
180.0
 51
270.0
  0
ARC
  5
358
330
1F
100
AcDbEntity
  8
A-0_通り芯
  6
Continuous
 62
     3
370
     9
100
AcDbCircle
 10
-753.5653455453948
 20
165.8603611564315
 30
0.0
 40
1.500000019331236
100
AcDbArc
 50
180.0
 51
270.0
  0
ARC
  5
359
330
1F
100
AcDbEntity
  8
A-0_通り芯
  6
Continuous
 62
     3
370
     9
100
AcDbCircle
 10
-159.5651426447401
 20
182.3603908492101
 30
0.0
 40
1.500000019331236
100
AcDbArc
 50
359.9980010986328
 51
89.99999999999997
  0
ARC
  5
35A
330
1F
100
AcDbEntity
  8
A-0_通り芯
  6
Continuous
 62
     3
370
     9
100
AcDbCircle
 10
-158.5652383214717
 20
183.3604188923901
 30
0.0
 40
1.500000019331236
100
AcDbArc
 50
359.9980010986328
 51
89.99999999999997
  0
ARC
  5
35B
330
1F
100
AcDbEntity
  8
A-0_通り芯
  6
Continuous
 62
     3
370
     9
100
AcDbCircle
 10
-158.5652383214717
 20
165.8603611564315
 30
0.0
 40
1.500000019331236
100
AcDbArc
 50
270.0
 51
0.0
  0
ARC
  5
35C
330
1F
100
AcDbEntity
  8
A-0_通り芯
  6
Continuous
 62
     3
370
     9
100
AcDbCircle
 10
-159.5651426447401
 20
166.8603273396557
 30
0.0
 40
1.500000019331236
100
AcDbArc
 50
270.0
 51
0.0
  0
ARC
  5
35D
330
1F
100
AcDbEntity
  8
A-0_通り芯
  6
Continuous
 62
     3
370
     9
100
AcDbCircle
 10
-752.5653484321926
 20
211.0604409970143
 30
0.0
 40
1.500000019331236
100
AcDbArc
 50
90.0
 51
180.0
  0
ARC
  5
35E
330
1F
100
AcDbEntity
  8
A-0_通り芯
  6
Continuous
 62
     3
370
     9
100
AcDbCircle
 10
-753.5653455453948
 20
212.0604071802385
 30
0.0
 40
1.500000019331236
100
AcDbArc
 50
90.0
 51
180.0
  0
ARC
  5
35F
330
1F
100
AcDbEntity
  8
A-0_通り芯
  6
Continuous
 62
     3
370
     9
100
AcDbCircle
 10
-752.5653484321926
 20
195.5603156275042
 30
0.0
 40
1.500000019331236
100
AcDbArc
 50
180.0
 51
270.0
  0
ARC
  5
360
330
1F
100
AcDbEntity
  8
A-0_通り芯
  6
Continuous
 62
     3
370
     9
100
AcDbCircle
 10
-753.5653455453948
 20
194.56034944428
 30
0.0
 40
1.500000019331236
100
AcDbArc
 50
180.0
 51
270.0
  0
ARC
  5
361
330
1F
100
AcDbEntity
  8
A-0_通り芯
  6
Continuous
 62
     3
370
     9
100
AcDbCircle
 10
-159.5651426447401
 20
211.0604409970143
 30
0.0
 40
1.500000019331236
100
AcDbArc
 50
359.9980010986328
 51
89.99999999999997
  0
ARC
  5
362
330
1F
100
AcDbEntity
  8
A-0_通り芯
  6
Continuous
 62
     3
370
     9
100
AcDbCircle
 10
-158.5652383214717
 20
212.0604071802385
 30
0.0
 40
1.500000019331236
100
AcDbArc
 50
359.9980010986328
 51
89.99999999999997
  0
ARC
  5
363
330
1F
100
AcDbEntity
  8
A-0_通り芯
  6
Continuous
 62
     3
370
     9
100
AcDbCircle
 10
-158.5652383214717
 20
194.56034944428
 30
0.0
 40
1.500000019331236
100
AcDbArc
 50
270.0
 51
0.0
  0
ARC
  5
364
330
1F
100
AcDbEntity
  8
A-0_通り芯
  6
Continuous
 62
     3
370
     9
100
AcDbCircle
 10
-159.5651426447401
 20
195.5603156275042
 30
0.0
 40
1.500000019331236
100
AcDbArc
 50
270.0
 51
0.0
  0
ARC
  5
365
330
1F
100
AcDbEntity
  8
A-0_通り芯
  6
Continuous
 62
     3
370
     9
100
AcDbCircle
 10
-752.5653484321926
 20
239.7604292848626
 30
0.0
 40
1.500000019331236
100
AcDbArc
 50
90.0
 51
180.0
  0
ARC
  5
366
330
1F
100
AcDbEntity
  8
A-0_通り芯
  6
Continuous
 62
     3
370
     9
100
AcDbCircle
 10
-753.5653455453948
 20
240.7603336081312
 30
0.0
 40
1.500000019331236
100
AcDbArc
 50
90.0
 51
180.0
  0
ARC
  5
367
330
1F
100
AcDbEntity
  8
A-0_通り芯
  6
Continuous
 62
     3
370
     9
100
AcDbCircle
 10
-752.5653484321926
 20
224.2604276352638
 30
0.0
 40
1.500000019331236
100
AcDbArc
 50
180.0
 51
270.0
  0
ARC
  5
368
330
1F
100
AcDbEntity
  8
A-0_通り芯
  6
Continuous
 62
     3
370
     9
100
AcDbCircle
 10
-753.5653455453948
 20
223.2602758721727
 30
0.0
 40
1.500000019331236
100
AcDbArc
 50
180.0
 51
270.0
  0
ARC
  5
369
330
1F
100
AcDbEntity
  8
A-0_通り芯
  6
Continuous
 62
     3
370
     9
100
AcDbCircle
 10
-159.5651426447401
 20
239.7604292848626
 30
0.0
 40
1.500000019331236
100
AcDbArc
 50
359.9980010986328
 51
89.99999999999997
  0
ARC
  5
36A
330
1F
100
AcDbEntity
  8
A-0_通り芯
  6
Continuous
 62
     3
370
     9
100
AcDbCircle
 10
-158.5652383214717
 20
240.7603336081312
 30
0.0
 40
1.500000019331236
100
AcDbArc
 50
359.9980010986328
 51
89.99999999999997
  0
ARC
  5
36B
330
1F
100
AcDbEntity
  8
A-0_通り芯
  6
Continuous
 62
     3
370
     9
100
AcDbCircle
 10
-158.5652383214717
 20
223.2602758721727
 30
0.0
 40
1.500000019331236
100
AcDbArc
 50
270.0
 51
0.0
  0
ARC
  5
36C
330
1F
100
AcDbEntity
  8
A-0_通り芯
  6
Continuous
 62
     3
370
     9
100
AcDbCircle
 10
-159.5651426447401
 20
224.2604276352638
 30
0.0
 40
1.500000019331236
100
AcDbArc
 50
270.0
 51
0.0
  0
ARC
  5
36D
330
1F
100
AcDbEntity
  8
A-0_通り芯
  6
Continuous
 62
     3
370
     9
100
AcDbCircle
 10
-752.5653484321926
 20
268.4604794326667
 30
0.0
 40
1.500000019331236
100
AcDbArc
 50
90.0
 51
180.0
  0
ARC
  5
36E
330
1F
100
AcDbEntity
  8
A-0_通り芯
  6
Continuous
 62
     3
370
     9
100
AcDbCircle
 10
-753.5653455453948
 20
269.4603837559353
 30
0.0
 40
1.500000019331236
100
AcDbArc
 50
90.0
 51
180.0
  0
ARC
  5
36F
330
1F
100
AcDbEntity
  8
A-0_通り芯
  6
Continuous
 62
     3
370
     9
100
AcDbCircle
 10
-752.5653484321926
 20
252.9603540631566
 30
0.0
 40
1.500000019331236
100
AcDbArc
 50
180.0
 51
270.0
  0
ARC
  5
370
330
1F
100
AcDbEntity
  8
A-0_通り芯
  6
Continuous
 62
     3
370
     9
100
AcDbCircle
 10
-753.5653455453948
 20
251.9602023000654
 30
0.0
 40
1.500000019331236
100
AcDbArc
 50
180.0
 51
270.0
  0
ARC
  5
371
330
1F
100
AcDbEntity
  8
A-0_通り芯
  6
Continuous
 62
     3
370
     9
100
AcDbCircle
 10
-159.5651426447401
 20
268.4604794326667
 30
0.0
 40
1.500000019331236
100
AcDbArc
 50
359.9980010986328
 51
89.99999999999997
  0
ARC
  5
372
330
1F
100
AcDbEntity
  8
A-0_通り芯
  6
Continuous
 62
     3
370
     9
100
AcDbCircle
 10
-158.5652383214717
 20
269.4603837559353
 30
0.0
 40
1.500000019331236
100
AcDbArc
 50
359.9980010986328
 51
89.99999999999997
  0
ARC
  5
373
330
1F
100
AcDbEntity
  8
A-0_通り芯
  6
Continuous
 62
     3
370
     9
100
AcDbCircle
 10
-158.5652383214717
 20
251.9602023000654
 30
0.0
 40
1.500000019331236
100
AcDbArc
 50
270.0
 51
0.0
  0
ARC
  5
374
330
1F
100
AcDbEntity
  8
A-0_通り芯
  6
Continuous
 62
     3
370
     9
100
AcDbCircle
 10
-159.5651426447401
 20
252.9603540631566
 30
0.0
 40
1.500000019331236
100
AcDbArc
 50
270.0
 51
0.0
  0
ARC
  5
375
330
1F
100
AcDbEntity
  8
A-0_通り芯
  6
Continuous
 62
     3
370
     9
100
AcDbCircle
 10
-752.5653484321926
 20
67.56037583786092
 30
0.0
 40
1.500000019331236
100
AcDbArc
 50
90.0
 51
180.0
  0
ARC
  5
376
330
1F
100
AcDbEntity
  8
A-0_通り芯
  6
Continuous
 62
     3
370
     9
100
AcDbCircle
 10
-752.5653484321926
 20
52.56026448994074
 30
0.0
 40
1.500000019331236
100
AcDbArc
 50
180.0
 51
270.0
  0
ARC
  5
377
330
1F
100
AcDbEntity
  8
A-0_通り芯
  6
Continuous
 62
     3
370
     9
100
AcDbCircle
 10
-753.5653455453948
 20
51.56029830671652
 30
0.0
 40
1.500000019331236
100
AcDbArc
 50
180.0
 51
270.0
  0
ARC
  5
378
330
1F
100
AcDbEntity
  8
A-0_通り芯
  6
Continuous
 62
     3
370
     9
100
AcDbCircle
 10
-753.5653455453948
 20
68.56040388104087
 30
0.0
 40
1.500000019331236
100
AcDbArc
 50
90.0
 51
180.0
  0
ARC
  5
379
330
1F
100
AcDbEntity
  8
A-0_通り芯
  6
Continuous
 62
     3
370
     9
100
AcDbCircle
 10
-159.5651426447401
 20
67.56037583786092
 30
0.0
 40
1.500000019331236
100
AcDbArc
 50
0.0
 51
90.0
  0
ARC
  5
37A
330
1F
100
AcDbEntity
  8
A-0_通り芯
  6
Continuous
 62
     3
370
     9
100
AcDbCircle
 10
-158.5652383214717
 20
68.56040388104087
 30
0.0
 40
1.500000019331236
100
AcDbArc
 50
0.0
 51
90.0
  0
ARC
  5
37B
330
1F
100
AcDbEntity
  8
A-0_通り芯
  6
Continuous
 62
     3
370
     9
100
AcDbCircle
 10
-158.5652383214717
 20
51.56029830671652
 30
0.0
 40
1.500000019331236
100
AcDbArc
 50
270.0
 51
0.0
  0
ARC
  5
37C
330
1F
100
AcDbEntity
  8
A-0_通り芯
  6
Continuous
 62
     3
370
     9
100
AcDbCircle
 10
-159.5651426447401
 20
52.56026448994074
 30
0.0
 40
1.500000019331236
100
AcDbArc
 50
270.0
 51
0.0
  0
ARC
  5
37D
330
1F
100
AcDbEntity
  8
A-0_通り芯
  6
Continuous
 62
     3
370
     9
100
AcDbCircle
 10
-752.5653484321926
 20
297.1102992964758
 30
0.0
 40
1.500000019331236
100
AcDbArc
 50
90.0
 51
180.0
  0
ARC
  5
37E
330
1F
100
AcDbEntity
  8
A-0_通り芯
  6
Continuous
 62
     3
370
     9
100
AcDbCircle
 10
-753.5653455453948
 20
298.1102036197444
 30
0.0
 40
1.500000019331236
100
AcDbArc
 50
90.0
 51
180.0
  0
ARC
  5
37F
330
1F
100
AcDbEntity
  8
A-0_通り芯
  6
Continuous
 62
     3
370
     9
100
AcDbCircle
 10
-752.5653484321926
 20
281.6604042109607
 30
0.0
 40
1.500000019331236
100
AcDbArc
 50
180.0
 51
270.0
  0
ARC
  5
380
330
1F
100
AcDbEntity
  8
A-0_通り芯
  6
Continuous
 62
     3
370
     9
100
AcDbCircle
 10
-753.5653455453948
 20
280.6602524478694
 30
0.0
 40
1.500000019331236
100
AcDbArc
 50
180.0
 51
270.0
  0
ARC
  5
381
330
1F
100
AcDbEntity
  8
A-0_通り芯
  6
Continuous
 62
     3
370
     9
100
AcDbCircle
 10
-159.5651426447401
 20
297.1102992964758
 30
0.0
 40
1.500000019331236
100
AcDbArc
 50
0.0
 51
90.0
  0
ARC
  5
382
330
1F
100
AcDbEntity
  8
A-0_通り芯
  6
Continuous
 62
     3
370
     9
100
AcDbCircle
 10
-158.5652383214717
 20
298.1102036197444
 30
0.0
 40
1.500000019331236
100
AcDbArc
 50
0.0
 51
90.0
  0
ARC
  5
383
330
1F
100
AcDbEntity
  8
A-0_通り芯
  6
Continuous
 62
     3
370
     9
100
AcDbCircle
 10
-158.5652383214717
 20
280.6602524478694
 30
0.0
 40
1.500000019331236
100
AcDbArc
 50
270.0
 51
0.0
  0
ARC
  5
384
330
1F
100
AcDbEntity
  8
A-0_通り芯
  6
Continuous
 62
     3
370
     9
100
AcDbCircle
 10
-159.5651426447401
 20
281.6604042109607
 30
0.0
 40
1.500000019331236
100
AcDbArc
 50
270.0
 51
0.0
  0
TEXT
  5
385
330
1F
100
AcDbEntity
  8
A-0_通り芯
  6
Continuous
 62
     4
370
   211
100
AcDbText
 10
-609.392399556155
 20
293.7296469634129
 30
0.0
 40
9.525
  1
ＧＸＭ－６－２５０
 50
180.0
 41
1.106666666666669
  7
ＭＳ ゴシック
100
AcDbText
  0
TEXT
  5
386
330
1F
100
AcDbEntity
  8
A-0_通り芯
  6
Continuous
 62
     4
370
   211
100
AcDbText
 10
-265.3553664623078
 20
55.82286841466626
 30
0.0
 40
9.525
  1
ＫＡＮＥＳＯ
 41
1.1
  7
ＭＳ ゴシック
100
AcDbText
  0
LINE
  5
387
330
1F
100
AcDbEntity
  8
A-0_通り芯
  6
JWW_PHANTOM2
 62
     3
370
     9
100
AcDbLine
 10
-155.0651401703419
 20
49.84785381571675
 30
0.0
 11
73.9347864225108
 21
49.84785381571675
 31
0.0
  0
LINE
  5
388
330
1F
100
AcDbEntity
  8
A-0_通り芯
  6
JWW_PHANTOM2
 62
     3
370
     9
100
AcDbLine
 10
-155.0651401703419
 20
299.8478538157167
 30
0.0
 11
-155.0651401703419
 21
49.84785381571675
 31
0.0
  0
LINE
  5
389
330
1F
100
AcDbEntity
  8
A-0_通り芯
  6
JWW_PHANTOM2
 62
     3
370
     9
100
AcDbLine
 10
-155.0651401703419
 20
299.8478538157167
 30
0.0
 11
73.9347864225108
 21
299.8478538157167
 31
0.0
  0
LINE
  5
38A
330
1F
100
AcDbEntity
  8
A-0_通り芯
  6
JWW_PHANTOM2
 62
     3
370
     9
100
AcDbLine
 10
-155.0652020302976
 20
49.84773009580542
 30
0.0
 11
-155.0652020302976
 21
299.3977195383729
 31
0.0
  0
LINE
  5
38B
330
1F
100
AcDbEntity
  8
A-1_ピット
  6
Continuous
 62
     2
370
     9
100
AcDbLine
 10
460.452244126797
 20
298.8352435400358
 30
0.0
 11
460.452244126797
 21
294.4319900362879
 31
0.0
  0
LINE
  5
38C
330
1F
100
AcDbEntity
  8
A-1_ピット
  6
Continuous
 62
     2
370
     9
100
AcDbLine
 10
457.4522837171686
 20
301.8353276695756
 30
0.0
 11
435.4522853667675
 21
301.8353276695756
 31
0.0
  0
LINE
  5
38D
330
1F
100
AcDbEntity
  8
A-1_ピット
  6
Continuous
 62
     2
370
     9
100
AcDbLine
 10
478.652185401079
 20
305.0352813158487
 30
0.0
 11
435.4522853667675
 21
305.0352813158487
 31
0.0
  0
LINE
  5
38E
330
1F
100
AcDbEntity
  8
A-1_ピット
  6
Continuous
 62
     2
370
     9
100
AcDbLine
 10
435.4522853667675
 20
301.8353276695756
 30
0.0
 11
435.4522853667675
 21
305.0352813158487
 31
0.0
  0
LINE
  5
38F
330
1F
100
AcDbEntity
  8
A-1_ピット
  6
Continuous
 62
     2
370
     9
100
AcDbLine
 10
483.6522018970674
 20
319.0352409006777
 30
0.0
 11
483.6522018970674
 21
334.0354141085535
 31
0.0
  0
LINE
  5
390
330
1F
100
AcDbEntity
  8
A-1_ピット
  6
Continuous
 62
     2
370
     9
100
AcDbLine
 10
492.6520831259525
 20
319.0352409006777
 30
0.0
 11
492.6520831259525
 21
334.0354141085535
 31
0.0
  0
LINE
  5
391
330
1F
100
AcDbEntity
  8
A-1_ピット
  6
Continuous
 62
     2
370
     9
100
AcDbLine
 10
492.6520831259525
 20
334.0354141085535
 30
0.0
 11
483.6522018970674
 21
334.0354141085535
 31
0.0
  0
LINE
  5
392
330
1F
100
AcDbEntity
  8
A-1_ピット
  6
Continuous
 62
     2
370
     9
100
AcDbLine
 10
478.652185401079
 20
314.0352862646452
 30
0.0
 11
453.6521029211382
 21
314.0352862646452
 31
0.0
  0
LINE
  5
393
330
1F
100
AcDbEntity
  8
A-1_ピット
  6
Continuous
 62
     2
370
     9
100
AcDbLine
 10
453.6521029211382
 20
305.0352813158487
 30
0.0
 11
453.6521029211382
 21
314.0352862646452
 31
0.0
  0
LINE
  5
394
330
1F
100
AcDbEntity
  8
A-1_ピット
  6
Continuous
 62
     2
370
     9
100
AcDbLine
 10
463.6521359131144
 20
298.8352435400358
 30
0.0
 11
463.6521359131144
 21
274.835312823186
 31
0.0
  0
LINE
  5
395
330
1F
100
AcDbEntity
  8
A-1_ピット
  6
Continuous
 62
     2
370
     9
100
AcDbLine
 10
-660.5652428578684
 20
309.5352837902469
 30
0.0
 11
-660.5652428578684
 21
334.0354141085535
 31
0.0
  0
LINE
  5
396
330
1F
100
AcDbEntity
  8
A-1_ピット
  6
Continuous
 62
     2
370
     9
100
AcDbLine
 10
-651.5652688390497
 20
309.5352837902469
 30
0.0
 11
-651.5652688390497
 21
334.0354141085535
 31
0.0
  0
LINE
  5
397
330
1F
100
AcDbEntity
  8
A-1_ピット
  6
Continuous
 62
     2
370
     9
100
AcDbLine
 10
-660.5652428578684
 20
334.0354141085535
 30
0.0
 11
-651.5652688390497
 21
334.0354141085535
 31
0.0
  0
LINE
  5
398
330
1F
100
AcDbEntity
  8
A-1_ピット
  6
Continuous
 62
     2
370
     9
100
AcDbLine
 10
-60.56521192789042
 20
309.5352837902469
 30
0.0
 11
-60.56521192789042
 21
334.0354141085535
 31
0.0
  0
LINE
  5
399
330
1F
100
AcDbEntity
  8
A-1_ピット
  6
Continuous
 62
     2
370
     9
100
AcDbLine
 10
-51.56520697909407
 20
309.5352837902469
 30
0.0
 11
-51.56520697909407
 21
334.0354141085535
 31
0.0
  0
LINE
  5
39A
330
1F
100
AcDbEntity
  8
A-1_ピット
  6
Continuous
 62
     2
370
     9
100
AcDbLine
 10
-60.56521192789042
 20
334.0354141085535
 30
0.0
 11
-51.56520697909407
 21
334.0354141085535
 31
0.0
  0
LINE
  5
39B
330
1F
100
AcDbEntity
  8
A-1_ピット
  6
Continuous
 62
     2
370
     9
100
AcDbLine
 10
463.6521359131144
 20
274.835312823186
 30
0.0
 11
460.452244126797
 21
274.835312823186
 31
0.0
  0
LINE
  5
39C
330
1F
100
AcDbEntity
  8
A-1_ピット
  6
Continuous
 62
     2
370
     9
100
AcDbLine
 10
-756.0652300734776
 20
274.8352509632305
 30
0.0
 11
-756.0652300734776
 21
305.0352194558931
 31
0.0
  0
LINE
  5
39D
330
1F
100
AcDbEntity
  8
A-1_ピット
  6
Continuous
 62
     2
370
     9
100
AcDbLine
 10
-756.0652300734776
 20
274.8352509632305
 30
0.0
 11
-755.0652329602756
 21
274.8352509632305
 31
0.0
  0
LINE
  5
39E
330
1F
100
AcDbEntity
  8
A-1_ピット
  6
Continuous
 62
     2
370
     9
100
AcDbLine
 10
73.9347864225108
 20
219.8602603659438
 30
0.0
 11
73.9347864225108
 21
325.0352235798902
 31
0.0
  0
LINE
  5
39F
330
1F
100
AcDbEntity
  8
A-1_ピット
  6
Continuous
 62
     2
370
     9
100
AcDbLine
 10
73.9347864225108
 20
305.0352194558931
 30
0.0
 11
-756.0652300734776
 21
305.0352194558931
 31
0.0
  0
LINE
  5
3A0
330
1F
100
AcDbEntity
  8
A-1_ピット
  6
Continuous
 62
     2
370
     9
100
AcDbLine
 10
73.9347864225108
 20
301.8352658096198
 30
0.0
 11
-756.0652300734776
 21
301.8352658096198
 31
0.0
  0
LINE
  5
3A1
330
1F
100
AcDbEntity
  8
A-1_ピット
  6
JWW_DASHED3
 62
     2
370
     9
100
AcDbLine
 10
73.9347864225108
 20
274.8352509632305
 30
0.0
 11
-755.0652329602756
 21
274.8352509632305
 31
0.0
  0
LINE
  5
3A2
330
1F
100
AcDbEntity
  8
A-1_ピット
  6
JWW_CENTER1
 62
     2
370
     9
100
AcDbLine
 10
-47.56521852628573
 20
309.5352837902469
 30
0.0
 11
-64.56520038069876
 21
309.5352837902469
 31
0.0
  0
LINE
  5
3A3
330
1F
100
AcDbEntity
  8
A-1_ピット
  6
JWW_CENTER1
 62
     2
370
     9
100
AcDbLine
 10
-56.06527131344784
 20
301.0352928630405
 30
0.0
 11
-56.06527131344784
 21
338.0354025613619
 31
0.0
  0
LINE
  5
3A4
330
1F
100
AcDbEntity
  8
A-1_ピット
  6
JWW_CENTER1
 62
     2
370
     9
100
AcDbLine
 10
-647.5652185262858
 20
309.5352837902469
 30
0.0
 11
-664.5652003806988
 21
309.5352837902469
 31
0.0
  0
LINE
  5
3A5
330
1F
100
AcDbEntity
  8
A-1_ピット
  6
JWW_CENTER1
 62
     2
370
     9
100
AcDbLine
 10
-656.065271313448
 20
301.0352928630405
 30
0.0
 11
-656.065271313448
 21
338.0354025613619
 31
0.0
  0
LINE
  5
3A6
330
1F
100
AcDbEntity
  8
A-1_ピット
  6
JWW_CENTER1
 62
     2
370
     9
100
AcDbLine
 10
488.1521425115097
 20
319.0352409006777
 30
0.0
 11
488.1521425115097
 21
339.0354306045417
 31
0.0
  0
LINE
  5
3A7
330
1F
100
AcDbEntity
  8
A-1_ピット
  6
JWW_CENTER1
 62
     2
370
     9
100
AcDbLine
 10
478.652185401079
 20
309.5352837902469
 30
0.0
 11
448.6520864251502
 21
309.5352837902469
 31
0.0
  0
ARC
  5
3A8
330
1F
100
AcDbEntity
  8
A-1_ピット
  6
Continuous
 62
     2
370
     9
100
AcDbCircle
 10
457.4522837171686
 20
298.8352435400358
 30
0.0
 40
3.000000038662472
100
AcDbArc
 50
0.0
 51
90.0
  0
ARC
  5
3A9
330
1F
100
AcDbEntity
  8
A-1_ピット
  6
Continuous
 62
     2
370
     9
100
AcDbCircle
 10
457.452036277346
 20
298.8352435400358
 30
0.0
 40
6.200000563183346
100
AcDbArc
 50
0.0
 51
90.0
  0
ARC
  5
3AA
330
1F
100
AcDbEntity
  8
A-1_ピット
  6
Continuous
 62
     2
370
     9
100
AcDbCircle
 10
478.652185401079
 20
319.0352409006777
 30
0.0
 40
5.000000064437454
100
AcDbArc
 50
270.0
 51
0.0
  0
ARC
  5
3AB
330
1F
100
AcDbEntity
  8
A-1_ピット
  6
Continuous
 62
     2
370
     9
100
AcDbCircle
 10
478.652185401079
 20
319.0352409006777
 30
0.0
 40
13.99999921386306
100
AcDbArc
 50
270.0
 51
0.0
  0
ARC
  5
3AC
330
1F
100
AcDbEntity
  8
A-1_ピット
  6
JWW_CENTER1
 62
     2
370
     9
100
AcDbCircle
 10
478.652185401079
 20
319.0352409006777
 30
0.0
 40
9.500000605712067
100
AcDbArc
 50
270.0
 51
0.0
  0
CIRCLE
  5
3AD
330
1F
100
AcDbEntity
  8
A-1_ピット
  6
Continuous
 62
     2
370
     9
100
AcDbCircle
 10
-656.0652094534923
 20
309.5352837902469
 30
0.0
 40
4.500000057993709
  0
CIRCLE
  5
3AE
330
1F
100
AcDbEntity
  8
A-1_ピット
  6
Continuous
 62
     2
370
     9
100
AcDbCircle
 10
-56.06527131344784
 20
309.5352837902469
 30
0.0
 40
4.500000057993709
  0
LINE
  5
3AF
330
1F
100
AcDbEntity
  8
A-1_ピット
  6
Continuous
 62
     2
370
     9
100
AcDbLine
 10
460.452244126797
 20
50.88533080381328
 30
0.0
 11
460.452244126797
 21
55.28870802747238
 31
0.0
  0
LINE
  5
3B0
330
1F
100
AcDbEntity
  8
A-1_ピット
  6
Continuous
 62
     2
370
     9
100
AcDbLine
 10
457.4522837171686
 20
47.88530853422915
 30
0.0
 11
435.4522853667675
 21
47.88530853422915
 31
0.0
  0
LINE
  5
3B1
330
1F
100
AcDbEntity
  8
A-1_ピット
  6
Continuous
 62
     2
370
     9
100
AcDbLine
 10
478.652185401079
 20
44.68535488795598
 30
0.0
 11
435.4522853667675
 21
44.68535488795598
 31
0.0
  0
LINE
  5
3B2
330
1F
100
AcDbEntity
  8
A-1_ピット
  6
Continuous
 62
     2
370
     9
100
AcDbLine
 10
435.4522853667675
 20
47.88530853422915
 30
0.0
 11
435.4522853667675
 21
44.68535488795598
 31
0.0
  0
LINE
  5
3B3
330
1F
100
AcDbEntity
  8
A-1_ピット
  6
Continuous
 62
     2
370
     9
100
AcDbLine
 10
483.6522018970674
 20
30.6852715832156
 30
0.0
 11
483.6522018970674
 21
15.68528395520676
 31
0.0
  0
LINE
  5
3B4
330
1F
100
AcDbEntity
  8
A-1_ピット
  6
Continuous
 62
     2
370
     9
100
AcDbLine
 10
492.6520831259525
 20
30.68533344317133
 30
0.0
 11
492.6520831259525
 21
15.68528395520676
 31
0.0
  0
LINE
  5
3B5
330
1F
100
AcDbEntity
  8
A-1_ピット
  6
Continuous
 62
     2
370
     9
100
AcDbLine
 10
492.6520831259525
 20
15.68528395520676
 30
0.0
 11
483.6522018970674
 21
15.68528395520676
 31
0.0
  0
LINE
  5
3B6
330
1F
100
AcDbEntity
  8
A-1_ピット
  6
Continuous
 62
     2
370
     9
100
AcDbLine
 10
478.652185401079
 20
35.68528807920389
 30
0.0
 11
453.6521029211382
 21
35.68528807920389
 31
0.0
  0
LINE
  5
3B7
330
1F
100
AcDbEntity
  8
A-1_ピット
  6
Continuous
 62
     2
370
     9
100
AcDbLine
 10
453.6521029211382
 20
44.68535488795598
 30
0.0
 11
453.6521029211382
 21
35.68528807920389
 31
0.0
  0
LINE
  5
3B8
330
1F
100
AcDbEntity
  8
A-1_ピット
  6
Continuous
 62
     2
370
     9
100
AcDbLine
 10
463.6521359131144
 20
50.88533080381328
 30
0.0
 11
463.6521359131144
 21
74.88532338061847
 31
0.0
  0
LINE
  5
3B9
330
1F
100
AcDbEntity
  8
A-1_ピット
  6
Continuous
 62
     2
370
     9
100
AcDbLine
 10
463.6521359131144
 20
74.88532338061847
 30
0.0
 11
460.452244126797
 21
74.88532338061847
 31
0.0
  0
LINE
  5
3BA
330
1F
100
AcDbEntity
  8
A-1_ピット
  6
Continuous
 62
     2
370
     9
100
AcDbLine
 10
-756.0652300734776
 20
74.88538524057421
 30
0.0
 11
-756.0652300734776
 21
44.68541674791157
 31
0.0
  0
LINE
  5
3BB
330
1F
100
AcDbEntity
  8
A-1_ピット
  6
Continuous
 62
     2
370
     9
100
AcDbLine
 10
-756.0652300734776
 20
74.88538524057421
 30
0.0
 11
-755.0652329602756
 21
74.88538524057421
 31
0.0
  0
LINE
  5
3BC
330
1F
100
AcDbEntity
  8
A-1_ピット
  6
JWW_DASHED3
 62
     2
370
     9
100
AcDbLine
 10
73.9347864225108
 20
74.88538524057421
 30
0.0
 11
-755.0652329602756
 21
74.88538524057421
 31
0.0
  0
LINE
  5
3BD
330
1F
100
AcDbEntity
  8
A-1_ピット
  6
Continuous
 62
     2
370
     9
100
AcDbLine
 10
73.9347864225108
 20
44.68541674791157
 30
0.0
 11
-756.0652300734776
 21
44.68541674791157
 31
0.0
  0
LINE
  5
3BE
330
1F
100
AcDbEntity
  8
A-1_ピット
  6
Continuous
 62
     2
370
     9
100
AcDbLine
 10
73.9347864225108
 20
47.88537039418489
 30
0.0
 11
-756.0652300734776
 21
47.88537039418489
 31
0.0
  0
LINE
  5
3BF
330
1F
100
AcDbEntity
  8
A-1_ピット
  6
Continuous
 62
     2
370
     9
100
AcDbLine
 10
73.9347864225108
 20
24.68541262391458
 30
0.0
 11
73.9347864225108
 21
179.8602521179496
 31
0.0
  0
LINE
  5
3C0
330
1F
100
AcDbEntity
  8
A-1_ピット
  6
JWW_CENTER1
 62
     2
370
     9
100
AcDbLine
 10
488.1521425115097
 20
30.68533344317133
 30
0.0
 11
488.1521425115097
 21
10.68526745921861
 31
0.0
  0
LINE
  5
3C1
330
1F
100
AcDbEntity
  8
A-1_ピット
  6
JWW_CENTER1
 62
     2
370
     9
100
AcDbLine
 10
478.652185401079
 20
40.18529055360206
 30
0.0
 11
448.6520864251502
 21
40.18529055360206
 31
0.0
  0
LINE
  5
3C2
330
1F
100
AcDbEntity
  8
A-1_ピット
  6
Continuous
 62
     2
370
     9
100
AcDbLine
 10
-660.5652428578684
 20
40.18535241355765
 30
0.0
 11
-660.5652428578684
 21
15.68522209525117
 31
0.0
  0
LINE
  5
3C3
330
1F
100
AcDbEntity
  8
A-1_ピット
  6
Continuous
 62
     2
370
     9
100
AcDbLine
 10
-651.5652688390497
 20
40.18535241355765
 30
0.0
 11
-651.5652688390497
 21
15.68522209525117
 31
0.0
  0
LINE
  5
3C4
330
1F
100
AcDbEntity
  8
A-1_ピット
  6
Continuous
 62
     2
370
     9
100
AcDbLine
 10
-660.5652428578684
 20
15.68522209525117
 30
0.0
 11
-651.5652688390497
 21
15.68522209525117
 31
0.0
  0
LINE
  5
3C5
330
1F
100
AcDbEntity
  8
A-1_ピット
  6
Continuous
 62
     2
370
     9
100
AcDbLine
 10
-60.56521192789042
 20
40.18535241355765
 30
0.0
 11
-60.56521192789042
 21
15.68522209525117
 31
0.0
  0
LINE
  5
3C6
330
1F
100
AcDbEntity
  8
A-1_ピット
  6
Continuous
 62
     2
370
     9
100
AcDbLine
 10
-51.56520697909407
 20
40.18535241355765
 30
0.0
 11
-51.56520697909407
 21
15.68522209525117
 31
0.0
  0
LINE
  5
3C7
330
1F
100
AcDbEntity
  8
A-1_ピット
  6
Continuous
 62
     2
370
     9
100
AcDbLine
 10
-60.56521192789042
 20
15.68522209525117
 30
0.0
 11
-51.56520697909407
 21
15.68522209525117
 31
0.0
  0
LINE
  5
3C8
330
1F
100
AcDbEntity
  8
A-1_ピット
  6
JWW_CENTER1
 62
     2
370
     9
100
AcDbLine
 10
-47.56521852628573
 20
40.18535241355765
 30
0.0
 11
-64.56520038069876
 21
40.18535241355765
 31
0.0
  0
LINE
  5
3C9
330
1F
100
AcDbEntity
  8
A-1_ピット
  6
JWW_CENTER1
 62
     2
370
     9
100
AcDbLine
 10
-56.06527131344784
 20
48.68534334076418
 30
0.0
 11
-56.06527131344784
 21
11.68523364244283
 31
0.0
  0
LINE
  5
3CA
330
1F
100
AcDbEntity
  8
A-1_ピット
  6
JWW_CENTER1
 62
     2
370
     9
100
AcDbLine
 10
-647.5652185262858
 20
40.18535241355765
 30
0.0
 11
-664.5652003806988
 21
40.18535241355765
 31
0.0
  0
LINE
  5
3CB
330
1F
100
AcDbEntity
  8
A-1_ピット
  6
JWW_CENTER1
 62
     2
370
     9
100
AcDbLine
 10
-656.065271313448
 20
48.68534334076418
 30
0.0
 11
-656.065271313448
 21
11.68523364244283
 31
0.0
  0
ARC
  5
3CC
330
1F
100
AcDbEntity
  8
A-1_ピット
  6
Continuous
 62
     2
370
     9
100
AcDbCircle
 10
457.4522837171686
 20
50.88533080381328
 30
0.0
 40
3.000000038662472
100
AcDbArc
 50
270.0
 51
0.0
  0
ARC
  5
3CD
330
1F
100
AcDbEntity
  8
A-1_ピット
  6
Continuous
 62
     2
370
     9
100
AcDbCircle
 10
457.452036277346
 20
50.88533080381328
 30
0.0
 40
6.200000563183346
100
AcDbArc
 50
270.0
 51
0.0
  0
ARC
  5
3CE
330
1F
100
AcDbEntity
  8
A-1_ピット
  6
Continuous
 62
     2
370
     9
100
AcDbCircle
 10
478.652185401079
 20
30.6852715832156
 30
0.0
 40
5.000000064437454
100
AcDbArc
 50
0.0
 51
90.0
  0
ARC
  5
3CF
330
1F
100
AcDbEntity
  8
A-1_ピット
  6
Continuous
 62
     2
370
     9
100
AcDbCircle
 10
478.652185401079
 20
30.68533344317133
 30
0.0
 40
13.99999921386306
100
AcDbArc
 50
0.0
 51
90.0
  0
ARC
  5
3D0
330
1F
100
AcDbEntity
  8
A-1_ピット
  6
JWW_CENTER1
 62
     2
370
     9
100
AcDbCircle
 10
478.652185401079
 20
30.68533344317133
 30
0.0
 40
9.500000605712067
100
AcDbArc
 50
0.0
 51
90.0
  0
CIRCLE
  5
3D1
330
1F
100
AcDbEntity
  8
A-1_ピット
  6
Continuous
 62
     2
370
     9
100
AcDbCircle
 10
-656.0652094534923
 20
40.18535241355765
 30
0.0
 40
4.500000057993709
  0
CIRCLE
  5
3D2
330
1F
100
AcDbEntity
  8
A-1_ピット
  6
Continuous
 62
     2
370
     9
100
AcDbCircle
 10
-56.06527131344784
 20
40.18535241355765
 30
0.0
 40
4.500000057993709
  0
LINE
  5
3D3
330
1F
100
AcDbEntity
  8
A-E
  6
Continuous
 62
     7
370
     9
100
AcDbLine
 10
529.8440205467717
 20
409.2641036012689
 30
0.0
 11
724.6019834634363
 21
409.2641036012689
 31
0.0
  0
LINE
  5
3D4
330
1F
100
AcDbEntity
  8
A-F
  6
Continuous
 62
     7
370
     9
100
AcDbLine
 10
-756.0652610034554
 20
379.8352194558931
 30
0.0
 11
-656.065271313448
 21
379.8352194558931
 31
0.0
  0
TEXT
  5
3D5
330
1F
100
AcDbEntity
  8
A-F
  6
Continuous
 62
     2
370
   211
100
AcDbText
 10
-722.815249250064
 20
385.1552277038871
 30
0.0
 40
15.24
  1
100
 41
1.083333333333333
  7
ＭＳ ゴシック
100
AcDbText
  0
LINE
  5
3D6
330
1F
100
AcDbEntity
  8
A-F
  6
Continuous
 62
     7
370
     9
100
AcDbLine
 10
-656.065271313448
 20
379.8352194558931
 30
0.0
 11
-56.06527131344784
 21
379.8352194558931
 31
0.0
  0
TEXT
  5
3D7
330
1F
100
AcDbEntity
  8
A-F
  6
Continuous
 62
     2
370
   211
100
AcDbText
 10
-372.3152713134479
 20
385.1552277038871
 30
0.0
 40
15.24
  1
600
 41
1.083333333333333
  7
ＭＳ ゴシック
100
AcDbText
  0
LINE
  5
3D8
330
1F
100
AcDbEntity
  8
A-4_寸法
  6
Continuous
 62
     7
370
     9
100
AcDbLine
 10
298.3848820077272
 20
44.68535488795599
 30
0.0
 11
298.3848820077272
 21
305.0352813158487
 31
0.0
  0
LINE
  5
3D9
330
1F
100
AcDbEntity
  8
A-4_寸法
  6
Continuous
 62
     7
370
     9
100
AcDbLine
 10
298.3848820077272
 20
44.68535488795599
 30
0.0
 11
296.7533046049766
 21
57.07841565512862
 31
0.0
  0
LINE
  5
3DA
330
1F
100
AcDbEntity
  8
A-4_寸法
  6
Continuous
 62
     7
370
     9
100
AcDbLine
 10
298.3848820077272
 20
44.68535488795599
 30
0.0
 11
300.0164594104779
 21
57.07841565512862
 31
0.0
  0
LINE
  5
3DB
330
1F
100
AcDbEntity
  8
A-4_寸法
  6
Continuous
 62
     7
370
     9
100
AcDbLine
 10
298.3848820077272
 20
305.0352813158487
 30
0.0
 11
296.7533046049766
 21
292.6422205486761
 31
0.0
  0
LINE
  5
3DC
330
1F
100
AcDbEntity
  8
A-4_寸法
  6
Continuous
 62
     7
370
     9
100
AcDbLine
 10
298.3848820077272
 20
305.0352813158487
 30
0.0
 11
300.0164594104779
 21
292.6422205486761
 31
0.0
  0
LINE
  5
3DD
330
1F
100
AcDbEntity
  8
A-4_寸法
  6
Continuous
 62
     7
370
     9
100
AcDbLine
 10
295.8848820077272
 20
44.68535488795599
 30
0.0
 11
425.4522853667675
 21
44.68535488795598
 31
0.0
  0
LINE
  5
3DE
330
1F
100
AcDbEntity
  8
A-4_寸法
  6
Continuous
 62
     7
370
     9
100
AcDbLine
 10
295.8848820077272
 20
305.0352813158487
 30
0.0
 11
425.4522853667675
 21
305.0352813158487
 31
0.0
  0
TEXT
  5
3DF
330
1F
100
AcDbEntity
  8
A-4_寸法
  6
Continuous
 62
     2
370
   211
100
AcDbText
 10
292.5648820077272
 20
147.3603181019024
 30
0.0
 40
15.24
  1
260.4
 50
90.0
 41
1.1
  7
ＭＳ ゴシック
100
AcDbText
  0
LWPOLYLINE
  5
3E0
330
1F
100
AcDbEntity
  8
A-4_寸法
  6
Continuous
 62
     7
370
     9
100
AcDbPolyline
 90
        4
 70
     1
 43
1.0
 10
362.1831852226107
 20
301.8353276695756
 42
0.4142135623731
 10
361.6831852226107
 20
302.3353276695756
 42
0.4142135623731
 10
361.1831852226107
 20
301.8353276695756
 42
0.4142135623731
 10
361.6831852226107
 20
301.3353276695756
 42
0.4142135623731
  0
LINE
  5
3E1
330
1F
100
AcDbEntity
  8
A-4_寸法
  6
Continuous
 62
     7
370
     9
100
AcDbLine
 10
359.1831852226107
 20
301.8353276695756
 30
0.0
 11
425.4522853667675
 21
301.8353276695756
 31
0.0
  0
LINE
  5
3E2
330
1F
100
AcDbEntity
  8
A-4_寸法
  6
Continuous
 62
     7
370
     9
100
AcDbLine
 10
361.6831852226107
 20
301.8353276695756
 30
0.0
 11
361.6831852226107
 21
299.3975958184615
 31
0.0
  0
LINE
  5
3E3
330
1F
100
AcDbEntity
  8
A-4_寸法
  6
Continuous
 62
     7
370
     9
100
AcDbLine
 10
359.1831852226107
 20
299.3975958184615
 30
0.0
 11
430.4523018627557
 21
299.3975958184615
 31
0.0
  0
LINE
  5
3E4
330
1F
100
AcDbEntity
  8
A-4_寸法
  6
Continuous
 62
     7
370
     9
100
AcDbLine
 10
359.1831852226107
 20
49.84779195576088
 30
0.0
 11
430.4523018627557
 21
49.84779195576088
 31
0.0
  0
LINE
  5
3E5
330
1F
100
AcDbEntity
  8
A-4_寸法
  6
Continuous
 62
     7
370
     9
100
AcDbLine
 10
361.6831852226107
 20
299.3975958184615
 30
0.0
 11
361.6831852226107
 21
7.77782022995595
 31
0.0
  0
LWPOLYLINE
  5
3E6
330
1F
100
AcDbEntity
  8
A-4_寸法
  6
Continuous
 62
     7
370
     9
100
AcDbPolyline
 90
        4
 70
     1
 43
1.0
 10
362.1831852226107
 20
47.88530853422916
 42
0.4142135623731
 10
361.6831852226107
 20
48.38530853422916
 42
0.4142135623731
 10
361.1831852226107
 20
47.88530853422916
 42
0.4142135623731
 10
361.6831852226107
 20
47.38530853422916
 42
0.4142135623731
  0
LINE
  5
3E7
330
1F
100
AcDbEntity
  8
A-4_寸法
  6
Continuous
 62
     7
370
     9
100
AcDbLine
 10
359.1831852226107
 20
47.88530853422916
 30
0.0
 11
425.4522853667675
 21
47.88530853422916
 31
0.0
  0
TEXT
  5
3E8
330
1F
100
AcDbEntity
  8
A-4_寸法
  6
Continuous
 62
     2
370
   211
100
AcDbText
 10
355.8631852226108
 20
311.8030825459803
 30
0.0
 40
15.24
  1
3.2
 50
90.0
 41
1.083333333333333
  7
ＭＳ ゴシック
100
AcDbText
  0
LINE
  5
3E9
330
1F
100
AcDbEntity
  8
A-0_通り芯
  6
JWW_CENTER1
 62
     3
370
     9
100
AcDbLine
 10
-780.065222650283
 20
174.8603181019024
 30
0.0
 11
98.93474518254031
 21
174.8603181019024
 31
0.0
  0
LINE
  5
3EA
330
1F
100
AcDbEntity
  8
A-0_通り芯
  6
JWW_CENTER1
 62
     3
370
     9
100
AcDbLine
 10
410.4523266067379
 20
174.8603181019024
 30
0.0
 11
562.1555786258467
 21
174.8603181019024
 31
0.0
  0
LINE
  5
3EB
330
1F
100
AcDbEntity
  8
A-0_通り芯
  6
Continuous
 62
     3
370
     9
100
AcDbLine
 10
460.4521204068856
 20
186.8602834603272
 30
0.0
 11
474.4522655715816
 21
186.8602834603272
 31
0.0
  0
LINE
  5
3EC
330
1F
100
AcDbEntity
  8
A-0_通り芯
  6
Continuous
 62
     3
370
     9
100
AcDbLine
 10
460.4521204068856
 20
180.8603626410704
 30
0.0
 11
474.4522655715816
 21
180.8603626410704
 31
0.0
  0
LINE
  5
3ED
330
1F
100
AcDbEntity
  8
A-0_通り芯
  6
Continuous
 62
     3
370
     9
100
AcDbLine
 10
460.4521204068856
 20
168.8602735627342
 30
0.0
 11
474.4522655715816
 21
168.8602735627342
 31
0.0
  0
LINE
  5
3EE
330
1F
100
AcDbEntity
  8
A-0_通り芯
  6
Continuous
 62
     3
370
     9
100
AcDbLine
 10
460.4521204068856
 20
162.8603527434774
 30
0.0
 11
474.4522655715816
 21
162.8603527434774
 31
0.0
  0
LINE
  5
3EF
330
1F
100
AcDbEntity
  8
A-0_通り芯
  6
Continuous
 62
     3
370
     9
100
AcDbLine
 10
478.1747502633045
 20
177.3603263498964
 30
0.0
 11
515.174674381759
 21
177.3603263498964
 31
0.0
  0
LINE
  5
3F0
330
1F
100
AcDbEntity
  8
A-0_通り芯
  6
Continuous
 62
     3
370
     9
100
AcDbLine
 10
478.1747502633045
 20
172.3603098539082
 30
0.0
 11
515.174674381759
 21
172.3603098539082
 31
0.0
  0
LINE
  5
3F1
330
1F
100
AcDbEntity
  8
A-0_通り芯
  6
Continuous
 62
     3
370
     9
100
AcDbLine
 10
544.7038953752134
 20
191.4663757586802
 30
0.0
 11
527.4095838517759
 21
153.4190388710113
 31
0.0
  0
LINE
  5
3F2
330
1F
100
AcDbEntity
  8
A-0_通り芯
  6
Continuous
 62
     3
370
     9
100
AcDbLine
 10
516.6746545865733
 20
183.8603230506988
 30
0.0
 11
541.2464187335327
 21
183.8603230506988
 31
0.0
  0
LINE
  5
3F3
330
1F
100
AcDbEntity
  8
A-0_通り芯
  6
Continuous
 62
     3
370
     9
100
AcDbLine
 10
516.6746545865733
 20
178.8603065547105
 30
0.0
 11
538.973683962629
 21
178.8603065547105
 31
0.0
  0
LINE
  5
3F4
330
1F
100
AcDbEntity
  8
A-0_通り芯
  6
Continuous
 62
     3
370
     9
100
AcDbLine
 10
516.6746545865733
 20
170.860329649094
 30
0.0
 11
535.3375557690056
 21
170.860329649094
 31
0.0
  0
LINE
  5
3F5
330
1F
100
AcDbEntity
  8
A-0_通り芯
  6
Continuous
 62
     3
370
     9
100
AcDbLine
 10
516.6746545865733
 20
165.8603131531058
 30
0.0
 11
533.0645735582793
 21
165.8603131531058
 31
0.0
  0
ARC
  5
3F6
330
1F
100
AcDbEntity
  8
A-0_通り芯
  6
Continuous
 62
     3
370
     9
100
AcDbCircle
 10
478.1747502633045
 20
174.8603181019024
 30
0.0
 40
2.500000032218727
100
AcDbArc
 50
90.0
 51
270.0
  0
ARC
  5
3F7
330
1F
100
AcDbEntity
  8
A-0_通り芯
  6
Continuous
 62
     3
370
     9
100
AcDbCircle
 10
515.174674381759
 20
174.8603181019024
 30
0.0
 40
2.500000032218727
100
AcDbArc
 50
270.0
 51
90.0
  0
ARC
  5
3F8
330
1F
100
AcDbEntity
  8
A-0_通り芯
  6
Continuous
 62
     3
370
     9
100
AcDbCircle
 10
516.6746545865733
 20
174.8603181019024
 30
0.0
 40
9.000000115987417
100
AcDbArc
 50
196.1276245117188
 51
270.0
  0
ARC
  5
3F9
330
1F
100
AcDbEntity
  8
A-0_通り芯
  6
Continuous
 62
     3
370
     9
100
AcDbCircle
 10
516.6746545865733
 20
174.8603181019024
 30
0.0
 40
4.000000293190416
100
AcDbArc
 50
218.6825866699219
 51
269.9984893798828
  0
ARC
  5
3FA
330
1F
100
AcDbEntity
  8
A-0_通り芯
  6
Continuous
 62
     3
370
     9
100
AcDbCircle
 10
516.6746545865733
 20
174.8603181019024
 30
0.0
 40
9.000000115987417
100
AcDbArc
 50
90.0
 51
163.8723754882812
  0
ARC
  5
3FB
330
1F
100
AcDbEntity
  8
A-0_通り芯
  6
Continuous
 62
     3
370
     9
100
AcDbCircle
 10
516.6746545865733
 20
174.8603181019024
 30
0.0
 40
4.000000293190416
100
AcDbArc
 50
90.0015106201172
 51
141.3174133300782
  0
ARC
  5
3FC
330
1F
100
AcDbEntity
  8
A-0_通り芯
  6
Continuous
 62
     3
370
     9
100
AcDbCircle
 10
474.6512071889804
 20
174.7624556520501
 30
0.0
 40
11.96423930090827
100
AcDbArc
 50
269.6048278808594
 51
348.4177856445312
  0
ARC
  5
3FD
330
1F
100
AcDbEntity
  8
A-0_通り芯
  6
Continuous
 62
     3
370
     9
100
AcDbCircle
 10
474.6512071889804
 20
174.9274980137478
 30
0.0
 40
6.023801661826469
100
AcDbArc
 50
270.7848968505859
 51
334.7761230468751
  0
ARC
  5
3FE
330
1F
100
AcDbEntity
  8
A-0_通り芯
  6
Continuous
 62
     3
370
     9
100
AcDbCircle
 10
474.6512071889804
 20
174.7624556520501
 30
0.0
 40
11.96423930090827
100
AcDbArc
 50
12.54110717773438
 51
89.60482788085938
  0
ARC
  5
3FF
330
1F
100
AcDbEntity
  8
A-0_通り芯
  6
Continuous
 62
     3
370
     9
100
AcDbCircle
 10
474.6512071889804
 20
174.9274980137478
 30
0.0
 40
6.023801661826469
100
AcDbArc
 50
23.82115173339844
 51
90.78489685058594
  0
LINE
  5
400
330
1F
100
AcDbEntity
  8
A-0_通り芯
  6
Continuous
 62
     3
370
     9
100
AcDbLine
 10
438.0402584717083
 20
50.77456700656857
 30
0.0
 11
440.4523018627557
 21
50.08538524057403
 31
0.0
  0
LINE
  5
401
330
1F
100
AcDbEntity
  8
A-0_通り芯
  6
Continuous
 62
     3
370
     9
100
AcDbLine
 10
436.9522655715818
 20
68.40391204985411
 30
0.0
 11
436.9522655715818
 21
52.21677001279748
 31
0.0
  0
LINE
  5
402
330
1F
100
AcDbEntity
  8
A-0_通り芯
  6
Continuous
 62
     3
370
     9
100
AcDbLine
 10
438.0402584717083
 20
69.84623877599435
 30
0.0
 11
440.4523018627557
 21
70.53535868203315
 31
0.0
  0
LINE
  5
403
330
1F
100
AcDbEntity
  8
A-0_通り芯
  6
Continuous
 62
     3
370
     9
100
AcDbLine
 10
438.0402584717083
 20
79.42457245024474
 30
0.0
 11
440.4523018627557
 21
78.7353906842502
 31
0.0
  0
LINE
  5
404
330
1F
100
AcDbEntity
  8
A-0_通り芯
  6
Continuous
 62
     3
370
     9
100
AcDbLine
 10
436.9522655715818
 20
80.86683731642924
 30
0.0
 11
436.9522655715818
 21
97.10390033770241
 31
0.0
  0
LINE
  5
405
330
1F
100
AcDbEntity
  8
A-0_通り芯
  6
Continuous
 62
     3
370
     9
100
AcDbLine
 10
443.3023137398672
 20
64.94284753074513
 30
0.0
 11
459.02711446833
 21
64.15654563436635
 31
0.0
  0
LINE
  5
406
330
1F
100
AcDbEntity
  8
A-0_通り芯
  6
Continuous
 62
     3
370
     9
100
AcDbLine
 10
460.4521204068857
 20
55.4887286474575
 30
0.0
 11
460.4521204068857
 21
62.65848308817755
 31
0.0
  0
LINE
  5
407
330
1F
100
AcDbEntity
  8
A-0_通り芯
  6
Continuous
 62
     3
370
     9
100
AcDbLine
 10
459.0518584505935
 20
53.99196516033758
 30
0.0
 11
447.3190043807034
 21
53.20980788098797
 31
0.0
  0
LINE
  5
408
330
1F
100
AcDbEntity
  8
A-0_通り芯
  6
Continuous
 62
     3
370
     9
100
AcDbLine
 10
440.4523018627557
 20
50.08538524057403
 30
0.0
 11
445.4523183587438
 21
51.08535142379839
 31
0.0
  0
LINE
  5
409
330
1F
100
AcDbEntity
  8
A-0_通り芯
  6
Continuous
 62
     3
370
     9
100
AcDbLine
 10
445.4523183587438
 20
51.21426757139123
 30
0.0
 11
445.4523183587438
 21
51.08535142379839
 31
0.0
  0
LINE
  5
40A
330
1F
100
AcDbEntity
  8
A-0_通り芯
  6
Continuous
 62
     3
370
     9
100
AcDbLine
 10
445.4523183587438
 20
85.21503545964083
 30
0.0
 11
445.4523183587438
 21
92.75576405444656
 31
0.0
  0
LINE
  5
40B
330
1F
100
AcDbEntity
  8
A-0_通り芯
  6
Continuous
 62
     3
370
     9
100
AcDbLine
 10
442.8638503741576
 20
94.50312222194017
 30
0.0
 11
444.2462966632201
 21
94.22660822014552
 31
0.0
  0
LINE
  5
40C
330
1F
100
AcDbEntity
  8
A-0_通り芯
  6
Continuous
 62
     3
370
     9
100
AcDbLine
 10
442.8638503741576
 20
83.4678010120584
 30
0.0
 11
444.2462966632201
 21
83.74419129394187
 31
0.0
  0
LINE
  5
40D
330
1F
100
AcDbEntity
  8
A-0_通り芯
  6
Continuous
 62
     3
370
     9
100
AcDbLine
 10
440.4523018627557
 20
80.52598896074929
 30
0.0
 11
440.4523018627557
 21
78.7353906842502
 31
0.0
  0
LINE
  5
40E
330
1F
100
AcDbEntity
  8
A-0_通り芯
  6
Continuous
 62
     3
370
     9
100
AcDbLine
 10
440.4523018627557
 20
67.93903448307833
 30
0.0
 11
440.4523018627557
 21
70.53535868203315
 31
0.0
  0
LINE
  5
40F
330
1F
100
AcDbEntity
  8
A-0_通り芯
  6
Continuous
 62
     3
370
     9
100
AcDbLine
 10
436.1201254480596
 20
66.75571539128146
 30
0.0
 11
436.9522655715818
 21
67.31035175371804
 31
0.0
  0
LINE
  5
410
330
1F
100
AcDbEntity
  8
A-0_通り芯
  6
Continuous
 62
     3
370
     9
100
AcDbLine
 10
436.1201254480596
 20
53.86502853132573
 30
0.0
 11
436.9522655715818
 21
53.31033030893341
 31
0.0
  0
LINE
  5
411
330
1F
100
AcDbEntity
  8
A-0_通り芯
  6
Continuous
 62
     3
370
     9
100
AcDbLine
 10
435.4522853667675
 20
55.11311499669748
 30
0.0
 11
435.4522853667675
 21
65.50762892590984
 31
0.0
  0
LINE
  5
412
330
1F
100
AcDbEntity
  8
A-0_通り芯
  6
Continuous
 62
     3
370
     9
100
AcDbLine
 10
436.1201254480596
 20
95.4306503970881
 30
0.0
 11
436.9522655715818
 21
95.98534861948028
 31
0.0
  0
LINE
  5
413
330
1F
100
AcDbEntity
  8
A-0_通り芯
  6
Continuous
 62
     3
370
     9
100
AcDbLine
 10
435.4522853667675
 20
83.78811186245971
 30
0.0
 11
435.4522853667675
 21
94.18256393171634
 31
0.0
  0
LINE
  5
414
330
1F
100
AcDbEntity
  8
A-0_通り芯
  6
Continuous
 62
     3
370
     9
100
AcDbLine
 10
436.1201254480596
 20
82.5400253970881
 30
0.0
 11
436.9522655715818
 21
81.98538903465138
 31
0.0
  0
LINE
  5
415
330
1F
100
AcDbEntity
  8
A-0_通り芯
  6
Continuous
 62
     3
370
     9
100
AcDbLine
 10
438.0402584717083
 20
98.54622706384265
 30
0.0
 11
440.4523018627557
 21
99.23540882983718
 31
0.0
  0
LINE
  5
416
330
1F
100
AcDbEntity
  8
A-0_通り芯
  6
Continuous
 62
     3
370
     9
100
AcDbLine
 10
440.4523018627557
 20
97.4448105533381
 30
0.0
 11
440.4523018627557
 21
107.4354408320542
 31
0.0
  0
LINE
  5
417
330
1F
100
AcDbEntity
  8
A-0_通り芯
  6
Continuous
 62
     3
370
     9
100
AcDbLine
 10
440.4523018627557
 20
78.7353906842502
 30
0.0
 11
440.4523018627557
 21
70.53535868203315
 31
0.0
  0
LINE
  5
418
330
1F
100
AcDbEntity
  8
A-0_通り芯
  6
Continuous
 62
     3
370
     9
100
AcDbLine
 10
438.0402584717083
 20
298.9460691972358
 30
0.0
 11
440.4523018627557
 21
299.6351891032747
 31
0.0
  0
LINE
  5
419
330
1F
100
AcDbEntity
  8
A-0_通り芯
  6
Continuous
 62
     3
370
     9
100
AcDbLine
 10
436.9522655715818
 20
281.3167241539504
 30
0.0
 11
436.9522655715818
 21
297.5037424710956
 31
0.0
  0
LINE
  5
41A
330
1F
100
AcDbEntity
  8
A-0_通り芯
  6
Continuous
 62
     3
370
     9
100
AcDbLine
 10
438.0402584717083
 20
279.8743974278103
 30
0.0
 11
440.4523018627557
 21
279.1852775217713
 31
0.0
  0
LINE
  5
41B
330
1F
100
AcDbEntity
  8
A-0_通り芯
  6
Continuous
 62
     3
370
     9
100
AcDbLine
 10
438.0402584717083
 20
270.2960018936041
 30
0.0
 11
440.4523018627557
 21
270.9852455195543
 31
0.0
  0
LINE
  5
41C
330
1F
100
AcDbEntity
  8
A-0_通り芯
  6
Continuous
 62
     3
370
     9
100
AcDbLine
 10
436.9522655715818
 20
268.8536751674639
 30
0.0
 11
436.9522655715818
 21
252.6166740061463
 31
0.0
  0
LINE
  5
41D
330
1F
100
AcDbEntity
  8
A-0_通り芯
  6
Continuous
 62
     3
370
     9
100
AcDbLine
 10
443.3023137398672
 20
284.7779123929707
 30
0.0
 11
459.02711446833
 21
285.5640287094825
 31
0.0
  0
LINE
  5
41E
330
1F
100
AcDbEntity
  8
A-0_通り芯
  6
Continuous
 62
     3
370
     9
100
AcDbLine
 10
460.4521204068857
 20
294.2319694163025
 30
0.0
 11
460.4521204068857
 21
287.0620293957156
 31
0.0
  0
LINE
  5
41F
330
1F
100
AcDbEntity
  8
A-0_通り芯
  6
Continuous
 62
     3
370
     9
100
AcDbLine
 10
459.0518584505935
 20
295.7286091835111
 30
0.0
 11
447.3190043807034
 21
296.5107664628608
 31
0.0
  0
LINE
  5
420
330
1F
100
AcDbEntity
  8
A-0_通り芯
  6
Continuous
 62
     3
370
     9
100
AcDbLine
 10
440.4523018627557
 20
299.6351891032747
 30
0.0
 11
445.4523183587438
 21
298.635284780006
 31
0.0
  0
LINE
  5
421
330
1F
100
AcDbEntity
  8
A-0_通り芯
  6
Continuous
 62
     3
370
     9
100
AcDbLine
 10
445.4523183587438
 20
298.5063686324132
 30
0.0
 11
445.4523183587438
 21
298.635284780006
 31
0.0
  0
LINE
  5
422
330
1F
100
AcDbEntity
  8
A-0_通り芯
  6
Continuous
 62
     3
370
     9
100
AcDbLine
 10
445.4523183587438
 20
264.505538884208
 30
0.0
 11
445.4523183587438
 21
256.9649340093135
 31
0.0
  0
LINE
  5
423
330
1F
100
AcDbEntity
  8
A-0_通り芯
  6
Continuous
 62
     3
370
     9
100
AcDbLine
 10
442.8638503741576
 20
255.2175139818643
 30
0.0
 11
444.2462966632201
 21
255.4940279836589
 31
0.0
  0
LINE
  5
424
330
1F
100
AcDbEntity
  8
A-0_通り芯
  6
Continuous
 62
     3
370
     9
100
AcDbLine
 10
442.8638503741576
 20
266.252835191746
 30
0.0
 11
444.2462966632201
 21
265.9764449098626
 31
0.0
  0
LINE
  5
425
330
1F
100
AcDbEntity
  8
A-0_通り芯
  6
Continuous
 62
     3
370
     9
100
AcDbLine
 10
440.4523018627557
 20
269.1946472430552
 30
0.0
 11
440.4523018627557
 21
270.9852455195543
 31
0.0
  0
LINE
  5
426
330
1F
100
AcDbEntity
  8
A-0_通り芯
  6
Continuous
 62
     3
370
     9
100
AcDbLine
 10
440.4523018627557
 20
281.7815398607705
 30
0.0
 11
440.4523018627557
 21
279.1852775217713
 31
0.0
  0
LINE
  5
427
330
1F
100
AcDbEntity
  8
A-0_通り芯
  6
Continuous
 62
     3
370
     9
100
AcDbLine
 10
436.1201254480596
 20
282.964920812523
 30
0.0
 11
436.9522655715818
 21
282.4101607301751
 31
0.0
  0
LINE
  5
428
330
1F
100
AcDbEntity
  8
A-0_通り芯
  6
Continuous
 62
     3
370
     9
100
AcDbLine
 10
436.1201254480596
 20
295.855545812523
 30
0.0
 11
436.9522655715818
 21
296.410305894871
 31
0.0
  0
LINE
  5
429
330
1F
100
AcDbEntity
  8
A-0_通り芯
  6
Continuous
 62
     3
370
     9
100
AcDbLine
 10
435.4522853667675
 20
294.6074593471514
 30
0.0
 11
435.4522853667675
 21
284.2130072778946
 31
0.0
  0
LINE
  5
42A
330
1F
100
AcDbEntity
  8
A-0_通り芯
  6
Continuous
 62
     3
370
     9
100
AcDbLine
 10
436.1201254480596
 20
254.2899858067165
 30
0.0
 11
436.9522655715818
 21
253.7352257243684
 31
0.0
  0
LINE
  5
42B
330
1F
100
AcDbEntity
  8
A-0_通り芯
  6
Continuous
 62
     3
370
     9
100
AcDbLine
 10
435.4522853667675
 20
265.9325243413447
 30
0.0
 11
435.4522853667675
 21
255.5379485521768
 31
0.0
  0
LINE
  5
42C
330
1F
100
AcDbEntity
  8
A-0_通り芯
  6
Continuous
 62
     3
370
     9
100
AcDbLine
 10
436.1201254480596
 20
267.1804870868052
 30
0.0
 11
436.9522655715818
 21
267.7352471691531
 31
0.0
  0
LINE
  5
42D
330
1F
100
AcDbEntity
  8
A-0_通り芯
  6
Continuous
 62
     3
370
     9
100
AcDbLine
 10
438.0402584717083
 20
251.1743472800061
 30
0.0
 11
440.4523018627557
 21
250.4852273739673
 31
0.0
  0
LINE
  5
42E
330
1F
100
AcDbEntity
  8
A-0_通り芯
  6
Continuous
 62
     3
370
     9
100
AcDbLine
 10
440.4523018627557
 20
252.2757019305552
 30
0.0
 11
440.4523018627557
 21
250.4852273739673
 31
0.0
  0
LINE
  5
42F
330
1F
100
AcDbEntity
  8
A-0_通り芯
  6
Continuous
 62
     3
370
     9
100
AcDbLine
 10
440.4523018627557
 20
270.9852455195543
 30
0.0
 11
440.4523018627557
 21
279.1852775217713
 31
0.0
  0
LINE
  5
430
330
1F
100
AcDbEntity
  8
A-0_通り芯
  6
Continuous
 62
     3
370
     9
100
AcDbLine
 10
438.0402584717083
 20
108.124560738093
 30
0.0
 11
440.4523018627557
 21
107.4354408320542
 31
0.0
  0
LINE
  5
431
330
1F
100
AcDbEntity
  8
A-0_通り芯
  6
Continuous
 62
     3
370
     9
100
AcDbLine
 10
436.9522655715818
 20
109.5668256042777
 30
0.0
 11
436.9522655715818
 21
125.8039504855066
 31
0.0
  0
LINE
  5
432
330
1F
100
AcDbEntity
  8
A-0_通り芯
  6
Continuous
 62
     3
370
     9
100
AcDbLine
 10
445.4523183587438
 20
113.9151474674006
 30
0.0
 11
445.4523183587438
 21
121.455752342295
 31
0.0
  0
LINE
  5
433
330
1F
100
AcDbEntity
  8
A-0_通り芯
  6
Continuous
 62
     3
370
     9
100
AcDbLine
 10
442.8638503741576
 20
123.2031105097886
 30
0.0
 11
444.2462966632201
 21
122.9265965079938
 31
0.0
  0
LINE
  5
434
330
1F
100
AcDbEntity
  8
A-0_通り芯
  6
Continuous
 62
     3
370
     9
100
AcDbLine
 10
442.8638503741576
 20
112.1677892999068
 30
0.0
 11
444.2462966632201
 21
112.444241441746
 31
0.0
  0
LINE
  5
435
330
1F
100
AcDbEntity
  8
A-0_通り芯
  6
Continuous
 62
     3
370
     9
100
AcDbLine
 10
436.1201254480596
 20
124.1307005448921
 30
0.0
 11
436.9522655715818
 21
124.6853987672845
 31
0.0
  0
LINE
  5
436
330
1F
100
AcDbEntity
  8
A-0_通り芯
  6
Continuous
 62
     3
370
     9
100
AcDbLine
 10
435.4522853667675
 20
112.4881620102637
 30
0.0
 11
435.4522853667675
 21
122.8826759394761
 31
0.0
  0
LINE
  5
437
330
1F
100
AcDbEntity
  8
A-0_通り芯
  6
Continuous
 62
     3
370
     9
100
AcDbLine
 10
436.1201254480596
 20
111.2400755448921
 30
0.0
 11
436.9522655715818
 21
110.6853773224998
 31
0.0
  0
LINE
  5
438
330
1F
100
AcDbEntity
  8
A-0_通り芯
  6
Continuous
 62
     3
370
     9
100
AcDbLine
 10
438.0402584717083
 20
127.2462153516911
 30
0.0
 11
440.4523018627557
 21
127.9353971176856
 31
0.0
  0
LINE
  5
439
330
1F
100
AcDbEntity
  8
A-0_通り芯
  6
Continuous
 62
     3
370
     9
100
AcDbLine
 10
438.0402584717083
 20
136.8246108858972
 30
0.0
 11
440.4523018627557
 21
136.1354291199027
 31
0.0
  0
LINE
  5
43A
330
1F
100
AcDbEntity
  8
A-0_通り芯
  6
Continuous
 62
     3
370
     9
100
AcDbLine
 10
436.9522655715818
 20
138.2668757520817
 30
0.0
 11
436.9522655715818
 21
154.5040006333106
 31
0.0
  0
LINE
  5
43B
330
1F
100
AcDbEntity
  8
A-0_通り芯
  6
Continuous
 62
     3
370
     9
100
AcDbLine
 10
445.4523183587438
 20
142.6151357552489
 30
0.0
 11
445.4523183587438
 21
150.1557406301433
 31
0.0
  0
LINE
  5
43C
330
1F
100
AcDbEntity
  8
A-0_通り芯
  6
Continuous
 62
     3
370
     9
100
AcDbLine
 10
442.8638503741576
 20
151.9030987976371
 30
0.0
 11
444.2462966632201
 21
151.6265847958423
 31
0.0
  0
LINE
  5
43D
330
1F
100
AcDbEntity
  8
A-0_通り芯
  6
Continuous
 62
     3
370
     9
100
AcDbLine
 10
442.8638503741576
 20
140.8677775877553
 30
0.0
 11
444.2462966632201
 21
141.1442915895501
 31
0.0
  0
LINE
  5
43E
330
1F
100
AcDbEntity
  8
A-0_通り芯
  6
Continuous
 62
     3
370
     9
100
AcDbLine
 10
440.4523018627557
 20
137.9259655364462
 30
0.0
 11
440.4523018627557
 21
127.9353971176856
 31
0.0
  0
LINE
  5
43F
330
1F
100
AcDbEntity
  8
A-0_通り芯
  6
Continuous
 62
     3
370
     9
100
AcDbLine
 10
436.1201254480596
 20
152.8306888327404
 30
0.0
 11
436.9522655715818
 21
153.3853870551328
 31
0.0
  0
LINE
  5
440
330
1F
100
AcDbEntity
  8
A-0_通り芯
  6
Continuous
 62
     3
370
     9
100
AcDbLine
 10
435.4522853667675
 20
141.188150298112
 30
0.0
 11
435.4522853667675
 21
151.5826642273246
 31
0.0
  0
LINE
  5
441
330
1F
100
AcDbEntity
  8
A-0_通り芯
  6
Continuous
 62
     3
370
     9
100
AcDbLine
 10
436.1201254480596
 20
139.9401256926962
 30
0.0
 11
436.9522655715818
 21
139.3853656103481
 31
0.0
  0
LINE
  5
442
330
1F
100
AcDbEntity
  8
A-0_通り芯
  6
Continuous
 62
     3
370
     9
100
AcDbLine
 10
438.0402584717083
 20
155.9462036395395
 30
0.0
 11
440.4523018627557
 21
156.6353854055339
 31
0.0
  0
LINE
  5
443
330
1F
100
AcDbEntity
  8
A-0_通り芯
  6
Continuous
 62
     3
370
     9
100
AcDbLine
 10
440.4523018627557
 20
154.8449108489462
 30
0.0
 11
440.4523018627557
 21
156.6353854055339
 31
0.0
  0
LINE
  5
444
330
1F
100
AcDbEntity
  8
A-0_通り芯
  6
Continuous
 62
     3
370
     9
100
AcDbLine
 10
436.9522655715818
 20
166.9668640399302
 30
0.0
 11
436.9522655715818
 21
183.2039889211589
 31
0.0
  0
LINE
  5
445
330
1F
100
AcDbEntity
  8
A-0_通り芯
  6
Continuous
 62
     3
370
     9
100
AcDbLine
 10
436.1201254480596
 20
181.5307389805446
 30
0.0
 11
436.9522655715818
 21
182.0853753429812
 31
0.0
  0
LINE
  5
446
330
1F
100
AcDbEntity
  8
A-0_通り芯
  6
Continuous
 62
     3
370
     9
100
AcDbLine
 10
435.4522853667675
 20
169.8882004459162
 30
0.0
 11
435.4522853667675
 21
180.2826525151729
 31
0.0
  0
LINE
  5
447
330
1F
100
AcDbEntity
  8
A-0_通り芯
  6
Continuous
 62
     3
370
     9
100
AcDbLine
 10
436.1201254480596
 20
168.6401139805445
 30
0.0
 11
436.9522655715818
 21
168.0853538981966
 31
0.0
  0
LINE
  5
448
330
1F
100
AcDbEntity
  8
A-0_通り芯
  6
Continuous
 62
     3
370
     9
100
AcDbLine
 10
438.0402584717083
 20
184.6462537873436
 30
0.0
 11
440.4523018627557
 21
185.3353736933824
 31
0.0
  0
LINE
  5
449
330
1F
100
AcDbEntity
  8
A-0_通り芯
  6
Continuous
 62
     3
370
     9
100
AcDbLine
 10
440.4523018627557
 20
183.5448372768389
 30
0.0
 11
440.4523018627557
 21
185.3353736933824
 31
0.0
  0
LINE
  5
44A
330
1F
100
AcDbEntity
  8
A-0_通り芯
  6
Continuous
 62
     3
370
     9
100
AcDbLine
 10
438.0402584717083
 20
194.224587461594
 30
0.0
 11
440.4523018627557
 21
193.5354056955994
 31
0.0
  0
LINE
  5
44B
330
1F
100
AcDbEntity
  8
A-0_通り芯
  6
Continuous
 62
     3
370
     9
100
AcDbLine
 10
436.9522655715818
 20
195.6668523277785
 30
0.0
 11
436.9522655715818
 21
211.9039153490518
 31
0.0
  0
LINE
  5
44C
330
1F
100
AcDbEntity
  8
A-0_通り芯
  6
Continuous
 62
     3
370
     9
100
AcDbLine
 10
445.4523183587438
 20
200.01505047099
 30
0.0
 11
445.4523183587438
 21
207.5557790657958
 31
0.0
  0
LINE
  5
44D
330
1F
100
AcDbEntity
  8
A-0_通り芯
  6
Continuous
 62
     3
370
     9
100
AcDbLine
 10
442.8638503741576
 20
209.3030135133782
 30
0.0
 11
444.2462966632201
 21
209.0266232314947
 31
0.0
  0
LINE
  5
44E
330
1F
100
AcDbEntity
  8
A-0_通り芯
  6
Continuous
 62
     3
370
     9
100
AcDbLine
 10
442.8638503741576
 20
198.2678160234078
 30
0.0
 11
444.2462966632201
 21
198.5442063052912
 31
0.0
  0
LINE
  5
44F
330
1F
100
AcDbEntity
  8
A-0_通り芯
  6
Continuous
 62
     3
370
     9
100
AcDbLine
 10
440.4523018627557
 20
195.3260039720986
 30
0.0
 11
440.4523018627557
 21
185.3353736933824
 31
0.0
  0
LINE
  5
450
330
1F
100
AcDbEntity
  8
A-0_通り芯
  6
Continuous
 62
     3
370
     9
100
AcDbLine
 10
436.1201254480596
 20
210.2306654084373
 30
0.0
 11
436.9522655715818
 21
210.7853636308296
 31
0.0
  0
LINE
  5
451
330
1F
100
AcDbEntity
  8
A-0_通り芯
  6
Continuous
 62
     3
370
     9
100
AcDbLine
 10
435.4522853667675
 20
198.5881268738089
 30
0.0
 11
435.4522853667675
 21
208.9825789430657
 31
0.0
  0
LINE
  5
452
330
1F
100
AcDbEntity
  8
A-0_通り芯
  6
Continuous
 62
     3
370
     9
100
AcDbLine
 10
436.1201254480596
 20
197.3400404084373
 30
0.0
 11
436.9522655715818
 21
196.7854040460006
 31
0.0
  0
LINE
  5
453
330
1F
100
AcDbEntity
  8
A-0_通り芯
  6
Continuous
 62
     3
370
     9
100
AcDbLine
 10
438.0402584717083
 20
213.3462420751919
 30
0.0
 11
440.4523018627557
 21
214.0353619812308
 31
0.0
  0
LINE
  5
454
330
1F
100
AcDbEntity
  8
A-0_通り芯
  6
Continuous
 62
     3
370
     9
100
AcDbLine
 10
440.4523018627557
 20
212.2448255646873
 30
0.0
 11
440.4523018627557
 21
214.0353619812308
 31
0.0
  0
LINE
  5
455
330
1F
100
AcDbEntity
  8
A-0_通り芯
  6
Continuous
 62
     3
370
     9
100
AcDbLine
 10
440.4523018627557
 20
126.1448607011421
 30
0.0
 11
440.4523018627557
 21
127.9353971176856
 31
0.0
  0
LINE
  5
456
330
1F
100
AcDbEntity
  8
A-0_通り芯
  6
Continuous
 62
     3
370
     9
100
AcDbLine
 10
438.0402584717083
 20
241.5959517458001
 30
0.0
 11
440.4523018627557
 21
242.2851953717502
 31
0.0
  0
LINE
  5
457
330
1F
100
AcDbEntity
  8
A-0_通り芯
  6
Continuous
 62
     3
370
     9
100
AcDbLine
 10
436.9522655715818
 20
240.1536250196598
 30
0.0
 11
436.9522655715818
 21
223.9166238583423
 31
0.0
  0
LINE
  5
458
330
1F
100
AcDbEntity
  8
A-0_通り芯
  6
Continuous
 62
     3
370
     9
100
AcDbLine
 10
445.4523183587438
 20
235.8056124563152
 30
0.0
 11
445.4523183587438
 21
228.2648838615094
 31
0.0
  0
LINE
  5
459
330
1F
100
AcDbEntity
  8
A-0_通り芯
  6
Continuous
 62
     3
370
     9
100
AcDbLine
 10
442.8638503741576
 20
226.5175875539714
 30
0.0
 11
444.2462966632201
 21
226.7941015557662
 31
0.0
  0
LINE
  5
45A
330
1F
100
AcDbEntity
  8
A-0_通り芯
  6
Continuous
 62
     3
370
     9
100
AcDbLine
 10
442.8638503741576
 20
237.5527850439419
 30
0.0
 11
444.2462966632201
 21
237.2763947620585
 31
0.0
  0
LINE
  5
45B
330
1F
100
AcDbEntity
  8
A-0_通り芯
  6
Continuous
 62
     3
370
     9
100
AcDbLine
 10
436.1201254480596
 20
225.5900593788236
 30
0.0
 11
436.9522655715818
 21
225.0352992964757
 31
0.0
  0
LINE
  5
45C
330
1F
100
AcDbEntity
  8
A-0_通り芯
  6
Continuous
 62
     3
370
     9
100
AcDbLine
 10
435.4522853667675
 20
237.232597913452
 30
0.0
 11
435.4522853667675
 21
226.8380221242839
 31
0.0
  0
LINE
  5
45D
330
1F
100
AcDbEntity
  8
A-0_通り芯
  6
Continuous
 62
     3
370
     9
100
AcDbLine
 10
436.1201254480596
 20
238.4805606589123
 30
0.0
 11
436.9522655715818
 21
239.035197021349
 31
0.0
  0
LINE
  5
45E
330
1F
100
AcDbEntity
  8
A-0_通り芯
  6
Continuous
 62
     3
370
     9
100
AcDbLine
 10
438.0402584717083
 20
222.474297132202
 30
0.0
 11
440.4523018627557
 21
221.7853009460746
 31
0.0
  0
LINE
  5
45F
330
1F
100
AcDbEntity
  8
A-0_通り芯
  6
Continuous
 62
     3
370
     9
100
AcDbLine
 10
440.4523018627557
 20
223.575651782751
 30
0.0
 11
440.4523018627557
 21
221.7853009460746
 31
0.0
  0
LINE
  5
460
330
1F
100
AcDbEntity
  8
A-0_通り芯
  6
Continuous
 62
     3
370
     9
100
AcDbLine
 10
440.4523018627557
 20
240.8418788863195
 30
0.0
 11
440.4523018627557
 21
242.2851953717502
 31
0.0
  0
LINE
  5
461
330
1F
100
AcDbEntity
  8
A-0_通り芯
  6
Continuous
 62
     3
370
     9
100
AcDbLine
 10
438.0402584717083
 20
165.5245373137899
 30
0.0
 11
440.4523018627557
 21
164.835417407751
 31
0.0
  0
LINE
  5
462
330
1F
100
AcDbEntity
  8
A-0_通り芯
  6
Continuous
 62
     3
370
     9
100
AcDbLine
 10
440.4523018627557
 20
166.0536255145395
 30
0.0
 11
440.4523018627557
 21
164.835417407751
 31
0.0
  0
LINE
  5
463
330
1F
100
AcDbEntity
  8
A-0_通り芯
  6
Continuous
 62
     3
370
     9
100
AcDbLine
 10
470.4519059590393
 20
172.2636846031691
 30
0.0
 11
470.4519059590393
 21
177.4569516006354
 31
0.0
  0
LINE
  5
464
330
1F
100
AcDbEntity
  8
A-0_通り芯
  6
Continuous
 62
     3
370
     9
100
AcDbLine
 10
440.4523018627557
 20
156.6353854055339
 30
0.0
 11
440.4523018627557
 21
164.835417407751
 31
0.0
  0
LINE
  5
465
330
1F
100
AcDbEntity
  8
A-0_通り芯
  6
Continuous
 62
     3
370
     9
100
AcDbLine
 10
440.4523018627557
 20
214.0353619812308
 30
0.0
 11
440.4523018627557
 21
221.7853009460746
 31
0.0
  0
LINE
  5
466
330
1F
100
AcDbEntity
  8
A-0_通り芯
  6
Continuous
 62
     3
370
     9
100
AcDbLine
 10
440.4523018627557
 20
242.2851953717502
 30
0.0
 11
440.4523018627557
 21
250.4852273739673
 31
0.0
  0
LINE
  5
467
330
1F
100
AcDbEntity
  8
A-0_通り芯
  6
Continuous
 62
     3
370
     9
100
AcDbLine
 10
465.1195777812524
 20
170.5048204839229
 30
0.0
 11
469.0518914425698
 21
170.7669829760049
 31
0.0
  0
LINE
  5
468
330
1F
100
AcDbEntity
  8
A-0_通り芯
  6
Continuous
 62
     3
370
     9
100
AcDbLine
 10
443.2525783355175
 20
169.0469669089123
 30
0.0
 11
465.1195777812524
 21
170.5048204839229
 31
0.0
  0
LINE
  5
469
330
1F
100
AcDbEntity
  8
A-0_通り芯
  6
Continuous
 62
     3
370
     9
100
AcDbLine
 10
460.4521204068857
 20
184.2046974238511
 30
0.0
 11
460.4521204068857
 21
287.0620293957156
 31
0.0
  0
LINE
  5
46A
330
1F
100
AcDbEntity
  8
A-0_通り芯
  6
Continuous
 62
     3
370
     9
100
AcDbLine
 10
465.1195777812524
 20
179.2158157198816
 30
0.0
 11
469.0518914425698
 21
178.953591367844
 31
0.0
  0
LINE
  5
46B
330
1F
100
AcDbEntity
  8
A-0_通り芯
  6
Continuous
 62
     3
370
     9
100
AcDbLine
 10
443.2525783355175
 20
180.6736074349364
 30
0.0
 11
469.0518914425698
 21
178.953591367844
 31
0.0
  0
LINE
  5
46C
330
1F
100
AcDbEntity
  8
A-0_通り芯
  6
Continuous
 62
     3
370
     9
100
AcDbLine
 10
460.4521204068857
 20
165.5159387799533
 30
0.0
 11
460.4521204068857
 21
62.65848308817755
 31
0.0
  0
LINE
  5
46D
330
1F
100
AcDbEntity
  8
A-0_通り芯
  6
Continuous
 62
     3
370
     9
100
AcDbLine
 10
440.4523018627557
 20
109.2259772485977
 30
0.0
 11
440.4523018627557
 21
107.4354408320542
 31
0.0
  0
ARC
  5
46E
330
1F
100
AcDbEntity
  8
A-0_通り芯
  6
Continuous
 62
     3
370
     9
100
AcDbCircle
 10
447.452127005281
 20
51.21426757139123
 30
0.0
 40
2.000000146595208
100
AcDbArc
 50
93.8134765625
 51
180.0
  0
ARC
  5
46F
330
1F
100
AcDbEntity
  8
A-0_通り芯
  6
Continuous
 62
     3
370
     9
100
AcDbCircle
 10
438.4522457763958
 20
52.21677001279748
 30
0.0
 40
1.500000019331236
100
AcDbArc
 50
180.0
 51
254.0551605224609
  0
ARC
  5
470
330
1F
100
AcDbEntity
  8
A-0_通り芯
  6
Continuous
 62
     3
370
     9
100
AcDbCircle
 10
438.4522457763958
 20
68.40391204985411
 30
0.0
 40
1.500000019331236
100
AcDbArc
 50
105.9448394775391
 51
180.0
  0
ARC
  5
471
330
1F
100
AcDbEntity
  8
A-0_通り芯
  6
Continuous
 62
     3
370
     9
100
AcDbCircle
 10
438.4522457763958
 20
97.10390033770241
 30
0.0
 40
1.500000019331236
100
AcDbArc
 50
105.9448394775391
 51
180.0
  0
ARC
  5
472
330
1F
100
AcDbEntity
  8
A-0_通り芯
  6
Continuous
 62
     3
370
     9
100
AcDbCircle
 10
438.4522457763958
 20
80.86683731642924
 30
0.0
 40
1.500000019331236
100
AcDbArc
 50
180.0
 51
254.0551605224609
  0
ARC
  5
473
330
1F
100
AcDbEntity
  8
A-0_通り芯
  6
Continuous
 62
     3
370
     9
100
AcDbCircle
 10
458.9521402020716
 20
62.65848308817755
 30
0.0
 40
1.500000019331236
100
AcDbArc
 50
0.0
 51
87.135498046875
  0
ARC
  5
474
330
1F
100
AcDbEntity
  8
A-0_通り芯
  6
Continuous
 62
     3
370
     9
100
AcDbCircle
 10
443.4522622723841
 20
67.93903448307833
 30
0.0
 40
3.000000038662472
100
AcDbArc
 50
180.0
 51
267.1375885009766
  0
ARC
  5
475
330
1F
100
AcDbEntity
  8
A-0_通り芯
  6
Continuous
 62
     3
370
     9
100
AcDbCircle
 10
458.9521402020716
 20
55.4887286474575
 30
0.0
 40
1.500000019331236
100
AcDbArc
 50
273.8164825439452
 51
0.0
  0
ARC
  5
476
330
1F
100
AcDbEntity
  8
A-0_通り芯
  6
Continuous
 62
     3
370
     9
100
AcDbCircle
 10
443.9523381539297
 20
92.75576405444656
 30
0.0
 40
1.500000019331236
100
AcDbArc
 50
0.0
 51
78.6900634765625
  0
ARC
  5
477
330
1F
100
AcDbEntity
  8
A-0_通り芯
  6
Continuous
 62
     3
370
     9
100
AcDbCircle
 10
443.9523381539297
 20
85.21503545964083
 30
0.0
 40
1.500000019331236
100
AcDbArc
 50
281.3099365234376
 51
0.0000000000000382
  0
ARC
  5
478
330
1F
100
AcDbEntity
  8
A-0_通り芯
  6
Continuous
 62
     3
370
     9
100
AcDbCircle
 10
443.4522622723841
 20
97.4448105533381
 30
0.0
 40
3.000000038662472
100
AcDbArc
 50
180.0
 51
258.6904602050781
  0
ARC
  5
479
330
1F
100
AcDbEntity
  8
A-0_通り芯
  6
Continuous
 62
     3
370
     9
100
AcDbCircle
 10
443.4522622723841
 20
80.52598896074929
 30
0.0
 40
3.000000038662472
100
AcDbArc
 50
101.3095397949219
 51
180.0
  0
ARC
  5
47A
330
1F
100
AcDbEntity
  8
A-0_通り芯
  6
Continuous
 62
     3
370
     9
100
AcDbCircle
 10
436.9522655715818
 20
65.50762892590984
 30
0.0
 40
1.500000019331236
100
AcDbArc
 50
123.6889495849609
 51
180.0
  0
ARC
  5
47B
330
1F
100
AcDbEntity
  8
A-0_通り芯
  6
Continuous
 62
     3
370
     9
100
AcDbCircle
 10
436.9522655715818
 20
55.11311499669748
 30
0.0
 40
1.500000019331236
100
AcDbArc
 50
180.0
 51
236.3110504150391
  0
ARC
  5
47C
330
1F
100
AcDbEntity
  8
A-0_通り芯
  6
Continuous
 62
     3
370
     9
100
AcDbCircle
 10
436.9522655715818
 20
94.18256393171634
 30
0.0
 40
1.500000019331236
100
AcDbArc
 50
123.6889495849609
 51
180.0
  0
ARC
  5
47D
330
1F
100
AcDbEntity
  8
A-0_通り芯
  6
Continuous
 62
     3
370
     9
100
AcDbCircle
 10
436.9522655715818
 20
83.78811186245971
 30
0.0
 40
1.500000019331236
100
AcDbArc
 50
180.0
 51
236.3110504150391
  0
ARC
  5
47E
330
1F
100
AcDbEntity
  8
A-0_通り芯
  6
Continuous
 62
     3
370
     9
100
AcDbCircle
 10
447.452127005281
 20
298.5063686324132
 30
0.0
 40
2.000000146595208
100
AcDbArc
 50
180.0
 51
266.1865234375
  0
ARC
  5
47F
330
1F
100
AcDbEntity
  8
A-0_通り芯
  6
Continuous
 62
     3
370
     9
100
AcDbCircle
 10
438.4522457763958
 20
297.5037424710956
 30
0.0
 40
1.500000019331236
100
AcDbArc
 50
105.9448394775391
 51
180.0
  0
ARC
  5
480
330
1F
100
AcDbEntity
  8
A-0_通り芯
  6
Continuous
 62
     3
370
     9
100
AcDbCircle
 10
438.4522457763958
 20
281.3167241539504
 30
0.0
 40
1.500000019331236
100
AcDbArc
 50
180.0
 51
254.0551605224609
  0
ARC
  5
481
330
1F
100
AcDbEntity
  8
A-0_通り芯
  6
Continuous
 62
     3
370
     9
100
AcDbCircle
 10
438.4522457763958
 20
252.6166740061463
 30
0.0
 40
1.500000019331236
100
AcDbArc
 50
180.0
 51
254.0551605224609
  0
ARC
  5
482
330
1F
100
AcDbEntity
  8
A-0_通り芯
  6
Continuous
 62
     3
370
     9
100
AcDbCircle
 10
438.4522457763958
 20
268.8536751674639
 30
0.0
 40
1.500000019331236
100
AcDbArc
 50
105.9448394775391
 51
180.0
  0
ARC
  5
483
330
1F
100
AcDbEntity
  8
A-0_通り芯
  6
Continuous
 62
     3
370
     9
100
AcDbCircle
 10
458.9521402020716
 20
287.0620293957156
 30
0.0
 40
1.500000019331236
100
AcDbArc
 50
272.864501953125
 51
0.0
  0
ARC
  5
484
330
1F
100
AcDbEntity
  8
A-0_通り芯
  6
Continuous
 62
     3
370
     9
100
AcDbCircle
 10
443.4522622723841
 20
281.7815398607705
 30
0.0
 40
3.000000038662472
100
AcDbArc
 50
92.86241149902344
 51
180.0
  0
ARC
  5
485
330
1F
100
AcDbEntity
  8
A-0_通り芯
  6
Continuous
 62
     3
370
     9
100
AcDbCircle
 10
458.9521402020716
 20
294.2319694163025
 30
0.0
 40
1.500000019331236
100
AcDbArc
 50
0.0
 51
86.1835174560547
  0
ARC
  5
486
330
1F
100
AcDbEntity
  8
A-0_通り芯
  6
Continuous
 62
     3
370
     9
100
AcDbCircle
 10
443.9523381539297
 20
256.9649340093135
 30
0.0
 40
1.500000019331236
100
AcDbArc
 50
281.3099365234376
 51
0.0000000000000382
  0
ARC
  5
487
330
1F
100
AcDbEntity
  8
A-0_通り芯
  6
Continuous
 62
     3
370
     9
100
AcDbCircle
 10
443.9523381539297
 20
264.505538884208
 30
0.0
 40
1.500000019331236
100
AcDbArc
 50
0.0
 51
78.6900634765625
  0
ARC
  5
488
330
1F
100
AcDbEntity
  8
A-0_通り芯
  6
Continuous
 62
     3
370
     9
100
AcDbCircle
 10
443.4522622723841
 20
252.2757019305552
 30
0.0
 40
3.000000038662472
100
AcDbArc
 50
101.3095397949219
 51
180.0
  0
ARC
  5
489
330
1F
100
AcDbEntity
  8
A-0_通り芯
  6
Continuous
 62
     3
370
     9
100
AcDbCircle
 10
443.4522622723841
 20
269.1946472430552
 30
0.0
 40
3.000000038662472
100
AcDbArc
 50
180.0
 51
258.6904602050781
  0
ARC
  5
48A
330
1F
100
AcDbEntity
  8
A-0_通り芯
  6
Continuous
 62
     3
370
     9
100
AcDbCircle
 10
436.9522655715818
 20
284.2130072778946
 30
0.0
 40
1.500000019331236
100
AcDbArc
 50
180.0
 51
236.3110504150391
  0
ARC
  5
48B
330
1F
100
AcDbEntity
  8
A-0_通り芯
  6
Continuous
 62
     3
370
     9
100
AcDbCircle
 10
436.9522655715818
 20
294.6074593471514
 30
0.0
 40
1.500000019331236
100
AcDbArc
 50
123.6889495849609
 51
180.0
  0
ARC
  5
48C
330
1F
100
AcDbEntity
  8
A-0_通り芯
  6
Continuous
 62
     3
370
     9
100
AcDbCircle
 10
436.9522655715818
 20
255.5379485521768
 30
0.0
 40
1.500000019331236
100
AcDbArc
 50
180.0
 51
236.3110504150391
  0
ARC
  5
48D
330
1F
100
AcDbEntity
  8
A-0_通り芯
  6
Continuous
 62
     3
370
     9
100
AcDbCircle
 10
436.9522655715818
 20
265.9325243413447
 30
0.0
 40
1.500000019331236
100
AcDbArc
 50
123.6889495849609
 51
180.0
  0
ARC
  5
48E
330
1F
100
AcDbEntity
  8
A-0_通り芯
  6
Continuous
 62
     3
370
     9
100
AcDbCircle
 10
438.4522457763958
 20
125.8039504855066
 30
0.0
 40
1.500000019331236
100
AcDbArc
 50
105.9448394775391
 51
180.0
  0
ARC
  5
48F
330
1F
100
AcDbEntity
  8
A-0_通り芯
  6
Continuous
 62
     3
370
     9
100
AcDbCircle
 10
438.4522457763958
 20
109.5668256042777
 30
0.0
 40
1.500000019331236
100
AcDbArc
 50
180.0
 51
254.0551605224609
  0
ARC
  5
490
330
1F
100
AcDbEntity
  8
A-0_通り芯
  6
Continuous
 62
     3
370
     9
100
AcDbCircle
 10
443.9523381539297
 20
121.455752342295
 30
0.0
 40
1.500000019331236
100
AcDbArc
 50
0.0
 51
78.6900634765625
  0
ARC
  5
491
330
1F
100
AcDbEntity
  8
A-0_通り芯
  6
Continuous
 62
     3
370
     9
100
AcDbCircle
 10
443.9523381539297
 20
113.9151474674006
 30
0.0
 40
1.500000019331236
100
AcDbArc
 50
281.3099365234376
 51
0.0000000000000382
  0
ARC
  5
492
330
1F
100
AcDbEntity
  8
A-0_通り芯
  6
Continuous
 62
     3
370
     9
100
AcDbCircle
 10
436.9522655715818
 20
122.8826759394761
 30
0.0
 40
1.500000019331236
100
AcDbArc
 50
123.6889495849609
 51
180.0
  0
ARC
  5
493
330
1F
100
AcDbEntity
  8
A-0_通り芯
  6
Continuous
 62
     3
370
     9
100
AcDbCircle
 10
436.9522655715818
 20
112.4881620102637
 30
0.0
 40
1.500000019331236
100
AcDbArc
 50
180.0
 51
236.3110504150391
  0
ARC
  5
494
330
1F
100
AcDbEntity
  8
A-0_通り芯
  6
Continuous
 62
     3
370
     9
100
AcDbCircle
 10
438.4522457763958
 20
154.5040006333106
 30
0.0
 40
1.500000019331236
100
AcDbArc
 50
105.9448394775391
 51
180.0
  0
ARC
  5
495
330
1F
100
AcDbEntity
  8
A-0_通り芯
  6
Continuous
 62
     3
370
     9
100
AcDbCircle
 10
438.4522457763958
 20
138.2668757520817
 30
0.0
 40
1.500000019331236
100
AcDbArc
 50
180.0
 51
254.0551605224609
  0
ARC
  5
496
330
1F
100
AcDbEntity
  8
A-0_通り芯
  6
Continuous
 62
     3
370
     9
100
AcDbCircle
 10
443.9523381539297
 20
150.1557406301433
 30
0.0
 40
1.500000019331236
100
AcDbArc
 50
0.0
 51
78.6900634765625
  0
ARC
  5
497
330
1F
100
AcDbEntity
  8
A-0_通り芯
  6
Continuous
 62
     3
370
     9
100
AcDbCircle
 10
443.9523381539297
 20
142.6151357552489
 30
0.0
 40
1.500000019331236
100
AcDbArc
 50
281.3099365234376
 51
0.0000000000000382
  0
ARC
  5
498
330
1F
100
AcDbEntity
  8
A-0_通り芯
  6
Continuous
 62
     3
370
     9
100
AcDbCircle
 10
443.4522622723841
 20
154.8449108489462
 30
0.0
 40
3.000000038662472
100
AcDbArc
 50
180.0
 51
258.6904602050781
  0
ARC
  5
499
330
1F
100
AcDbEntity
  8
A-0_通り芯
  6
Continuous
 62
     3
370
     9
100
AcDbCircle
 10
443.4522622723841
 20
137.9259655364462
 30
0.0
 40
3.000000038662472
100
AcDbArc
 50
101.3095397949219
 51
180.0
  0
ARC
  5
49A
330
1F
100
AcDbEntity
  8
A-0_通り芯
  6
Continuous
 62
     3
370
     9
100
AcDbCircle
 10
436.9522655715818
 20
151.5826642273246
 30
0.0
 40
1.500000019331236
100
AcDbArc
 50
123.6889495849609
 51
180.0
  0
ARC
  5
49B
330
1F
100
AcDbEntity
  8
A-0_通り芯
  6
Continuous
 62
     3
370
     9
100
AcDbCircle
 10
436.9522655715818
 20
141.188150298112
 30
0.0
 40
1.500000019331236
100
AcDbArc
 50
180.0
 51
236.3110504150391
  0
ARC
  5
49C
330
1F
100
AcDbEntity
  8
A-0_通り芯
  6
Continuous
 62
     3
370
     9
100
AcDbCircle
 10
438.4522457763958
 20
183.2039889211589
 30
0.0
 40
1.500000019331236
100
AcDbArc
 50
105.9448394775391
 51
180.0
  0
ARC
  5
49D
330
1F
100
AcDbEntity
  8
A-0_通り芯
  6
Continuous
 62
     3
370
     9
100
AcDbCircle
 10
438.4522457763958
 20
166.9668640399302
 30
0.0
 40
1.500000019331236
100
AcDbArc
 50
180.0
 51
254.0551605224609
  0
ARC
  5
49E
330
1F
100
AcDbEntity
  8
A-0_通り芯
  6
Continuous
 62
     3
370
     9
100
AcDbCircle
 10
436.9522655715818
 20
180.2826525151729
 30
0.0
 40
1.500000019331236
100
AcDbArc
 50
123.6889495849609
 51
180.0
  0
ARC
  5
49F
330
1F
100
AcDbEntity
  8
A-0_通り芯
  6
Continuous
 62
     3
370
     9
100
AcDbCircle
 10
436.9522655715818
 20
169.8882004459162
 30
0.0
 40
1.500000019331236
100
AcDbArc
 50
180.0
 51
236.3110504150391
  0
ARC
  5
4A0
330
1F
100
AcDbEntity
  8
A-0_通り芯
  6
Continuous
 62
     3
370
     9
100
AcDbCircle
 10
438.4522457763958
 20
211.9039153490518
 30
0.0
 40
1.500000019331236
100
AcDbArc
 50
105.9448394775391
 51
180.0
  0
ARC
  5
4A1
330
1F
100
AcDbEntity
  8
A-0_通り芯
  6
Continuous
 62
     3
370
     9
100
AcDbCircle
 10
438.4522457763958
 20
195.6668523277785
 30
0.0
 40
1.500000019331236
100
AcDbArc
 50
180.0
 51
254.0551605224609
  0
ARC
  5
4A2
330
1F
100
AcDbEntity
  8
A-0_通り芯
  6
Continuous
 62
     3
370
     9
100
AcDbCircle
 10
443.9523381539297
 20
207.5557790657958
 30
0.0
 40
1.500000019331236
100
AcDbArc
 50
0.0
 51
78.6900634765625
  0
ARC
  5
4A3
330
1F
100
AcDbEntity
  8
A-0_通り芯
  6
Continuous
 62
     3
370
     9
100
AcDbCircle
 10
443.9523381539297
 20
200.01505047099
 30
0.0
 40
1.500000019331236
100
AcDbArc
 50
281.3099365234376
 51
0.0000000000000382
  0
ARC
  5
4A4
330
1F
100
AcDbEntity
  8
A-0_通り芯
  6
Continuous
 62
     3
370
     9
100
AcDbCircle
 10
443.4522622723841
 20
212.2448255646873
 30
0.0
 40
3.000000038662472
100
AcDbArc
 50
180.0
 51
258.6904602050781
  0
ARC
  5
4A5
330
1F
100
AcDbEntity
  8
A-0_通り芯
  6
Continuous
 62
     3
370
     9
100
AcDbCircle
 10
443.4522622723841
 20
195.3260039720986
 30
0.0
 40
3.000000038662472
100
AcDbArc
 50
101.3095397949219
 51
180.0
  0
ARC
  5
4A6
330
1F
100
AcDbEntity
  8
A-0_通り芯
  6
Continuous
 62
     3
370
     9
100
AcDbCircle
 10
436.9522655715818
 20
208.9825789430657
 30
0.0
 40
1.500000019331236
100
AcDbArc
 50
123.6889495849609
 51
180.0
  0
ARC
  5
4A7
330
1F
100
AcDbEntity
  8
A-0_通り芯
  6
Continuous
 62
     3
370
     9
100
AcDbCircle
 10
436.9522655715818
 20
198.5881268738089
 30
0.0
 40
1.500000019331236
100
AcDbArc
 50
180.0
 51
236.3110504150391
  0
ARC
  5
4A8
330
1F
100
AcDbEntity
  8
A-0_通り芯
  6
Continuous
 62
     3
370
     9
100
AcDbCircle
 10
438.4522457763958
 20
223.9166238583423
 30
0.0
 40
1.500000019331236
100
AcDbArc
 50
180.0
 51
254.0551605224609
  0
ARC
  5
4A9
330
1F
100
AcDbEntity
  8
A-0_通り芯
  6
Continuous
 62
     3
370
     9
100
AcDbCircle
 10
438.4522457763958
 20
240.1536250196598
 30
0.0
 40
1.500000019331236
100
AcDbArc
 50
105.9448394775391
 51
180.0
  0
ARC
  5
4AA
330
1F
100
AcDbEntity
  8
A-0_通り芯
  6
Continuous
 62
     3
370
     9
100
AcDbCircle
 10
443.9523381539297
 20
228.2648838615094
 30
0.0
 40
1.500000019331236
100
AcDbArc
 50
281.3099365234376
 51
0.0000000000000382
  0
ARC
  5
4AB
330
1F
100
AcDbEntity
  8
A-0_通り芯
  6
Continuous
 62
     3
370
     9
100
AcDbCircle
 10
443.9523381539297
 20
235.8056124563152
 30
0.0
 40
1.500000019331236
100
AcDbArc
 50
0.0
 51
78.6900634765625
  0
ARC
  5
4AC
330
1F
100
AcDbEntity
  8
A-0_通り芯
  6
Continuous
 62
     3
370
     9
100
AcDbCircle
 10
443.4522622723841
 20
223.575651782751
 30
0.0
 40
3.000000038662472
100
AcDbArc
 50
101.3095397949219
 51
180.0
  0
ARC
  5
4AD
330
1F
100
AcDbEntity
  8
A-0_通り芯
  6
Continuous
 62
     3
370
     9
100
AcDbCircle
 10
443.4522622723841
 20
240.4947208151623
 30
0.0
 40
3.000000038662472
100
AcDbArc
 50
180.0
 51
258.6904602050781
  0
ARC
  5
4AE
330
1F
100
AcDbEntity
  8
A-0_通り芯
  6
Continuous
 62
     3
370
     9
100
AcDbCircle
 10
436.9522655715818
 20
226.8380221242839
 30
0.0
 40
1.500000019331236
100
AcDbArc
 50
180.0
 51
236.3110504150391
  0
ARC
  5
4AF
330
1F
100
AcDbEntity
  8
A-0_通り芯
  6
Continuous
 62
     3
370
     9
100
AcDbCircle
 10
436.9522655715818
 20
237.232597913452
 30
0.0
 40
1.500000019331236
100
AcDbArc
 50
123.6889495849609
 51
180.0
  0
ARC
  5
4B0
330
1F
100
AcDbEntity
  8
A-0_通り芯
  6
Continuous
 62
     3
370
     9
100
AcDbCircle
 10
443.4522622723841
 20
183.6669488293093
 30
0.0
 40
3.000000038662472
100
AcDbArc
 50
180.0
 51
266.1875915527344
  0
ARC
  5
4B1
330
1F
100
AcDbEntity
  8
A-0_通り芯
  6
Continuous
 62
     3
370
     9
100
AcDbCircle
 10
443.4522622723841
 20
166.0536255145395
 30
0.0
 40
3.000000038662472
100
AcDbArc
 50
93.81240844726562
 51
180.0
  0
ARC
  5
4B2
330
1F
100
AcDbEntity
  8
A-0_通り芯
  6
Continuous
 62
     3
370
     9
100
AcDbCircle
 10
468.9519257542253
 20
177.4569516006354
 30
0.0
 40
1.500000019331236
100
AcDbArc
 50
0.0
 51
86.1835174560547
  0
ARC
  5
4B3
330
1F
100
AcDbEntity
  8
A-0_通り芯
  6
Continuous
 62
     3
370
     9
100
AcDbCircle
 10
468.9519257542253
 20
172.2636846031691
 30
0.0
 40
1.500000019331236
100
AcDbArc
 50
273.8164825439452
 51
0.0
  0
ARC
  5
4B4
330
1F
100
AcDbEntity
  8
A-0_通り芯
  6
Continuous
 62
     3
370
     9
100
AcDbCircle
 10
465.452136902874
 20
165.5159387799533
 30
0.0
 40
5.000000064437454
100
AcDbArc
 50
93.81404113769531
 51
180.0
  0
ARC
  5
4B5
330
1F
100
AcDbEntity
  8
A-0_通り芯
  6
Continuous
 62
     3
370
     9
100
AcDbCircle
 10
465.452136902874
 20
184.2046974238511
 30
0.0
 40
5.000000064437454
100
AcDbArc
 50
180.0
 51
266.1859588623047
  0
ARC
  5
4B6
330
1F
100
AcDbEntity
  8
A-0_通り芯
  6
Continuous
 62
     3
370
     9
100
AcDbCircle
 10
443.4522622723841
 20
126.1448607011421
 30
0.0
 40
3.000000038662472
100
AcDbArc
 50
180.0
 51
258.6904602050781
  0
ARC
  5
4B7
330
1F
100
AcDbEntity
  8
A-0_通り芯
  6
Continuous
 62
     3
370
     9
100
AcDbCircle
 10
443.4522622723841
 20
109.2259772485977
 30
0.0
 40
3.000000038662472
100
AcDbArc
 50
101.3095397949219
 51
180.0
  0
TEXT
  5
4B8
330
1F
100
AcDbEntity
  8
A-4_寸法
  6
Continuous
 62
     2
370
   211
100
AcDbText
 10
355.8631852226108
 20
147.1226938871112
 30
0.0
 40
15.24
  1
250
 50
90.0
 41
1.083333333333333
  7
ＭＳ ゴシック
100
AcDbText
  0
TEXT
  5
4B9
330
1F
100
AcDbEntity
  8
A-4_寸法
  6
Continuous
 62
     2
370
   211
100
AcDbText
 10
355.8631852226108
 20
49.9537264638156
 30
0.0
 40
15.24
  1
2
 50
90.0
 41
0.9999999999999998
  7
ＭＳ ゴシック
100
AcDbText
  0
TEXT
  5
4BA
330
1F
100
AcDbEntity
  8
A-4_寸法
  6
Continuous
 62
     2
370
   211
100
AcDbText
 10
355.8631852226108
 20
7.405367741700672
 30
0.0
 40
15.24
  1
3.2
 50
90.0
 41
1.083333333333333
  7
ＭＳ ゴシック
100
AcDbText
  0
LINE
  5
4BB
330
1F
100
AcDbEntity
  8
A-F
  6
Continuous
 62
     7
370
     9
100
AcDbLine
 10
361.6831852226107
 20
304.8352813158488
 30
0.0
 11
359.7253176260102
 21
319.7069713958212
 31
0.0
  0
LINE
  5
4BC
330
1F
100
AcDbEntity
  8
A-F
  6
Continuous
 62
     7
370
     9
100
AcDbLine
 10
361.6831852226107
 20
304.8352813158488
 30
0.0
 11
363.6410528192113
 21
319.7069713958212
 31
0.0
  0
LINE
  5
4BD
330
1F
100
AcDbEntity
  8
A-F
  6
Continuous
 62
     7
370
     9
100
AcDbLine
 10
361.6831852226107
 20
299.6352715832157
 30
0.0
 11
359.7253176260102
 21
284.7635815032431
 31
0.0
  0
LINE
  5
4BE
330
1F
100
AcDbEntity
  8
A-F
  6
Continuous
 62
     7
370
     9
100
AcDbLine
 10
361.6831852226107
 20
299.6352715832157
 30
0.0
 11
363.6410528192113
 21
284.7635815032431
 31
0.0
  0
TEXT
  5
4BF
330
1F
100
AcDbEntity
  8
A-F
  6
Continuous
 62
     2
370
     0
100
AcDbText
 10
356.3631769746166
 20
288.8570877750178
 30
0.0
 40
15.24
  1
2
 50
90.0
 41
0.9999999999999998
  7
ＭＳ ゴシック
100
AcDbText
  0
LINE
  5
4C0
330
1F
100
AcDbEntity
  8
A-4_寸法
  6
Continuous
 62
     7
370
     9
100
AcDbLine
 10
361.6831852226107
 20
348.3174523427092
 30
0.0
 11
361.6831852226107
 21
301.8353276695756
 31
0.0
  0
LINE
  5
4C1
330
1F
100
AcDbEntity
  8
A-F
  6
Continuous
 62
     7
370
     9
100
AcDbLine
 10
361.6831852226107
 20
50.08536462058891
 30
0.0
 11
359.7253176260102
 21
64.95705470056157
 31
0.0
  0
LINE
  5
4C2
330
1F
100
AcDbEntity
  8
A-F
  6
Continuous
 62
     7
370
     9
100
AcDbLine
 10
361.6831852226107
 20
50.08536462058891
 30
0.0
 11
363.6410528192113
 21
64.95705470056157
 31
0.0
  0
LINE
  5
4C3
330
1F
100
AcDbEntity
  8
A-F
  6
Continuous
 62
     7
370
     9
100
AcDbLine
 10
361.6831852226107
 20
44.88535488795598
 30
0.0
 11
359.7253176260102
 21
30.01366480798344
 31
0.0
  0
LINE
  5
4C4
330
1F
100
AcDbEntity
  8
A-F
  6
Continuous
 62
     7
370
     9
100
AcDbLine
 10
361.6831852226107
 20
44.88535488795598
 30
0.0
 11
363.6410528192113
 21
30.01366480798344
 31
0.0
  0
TEXT
  5
4C5
330
1F
100
AcDbEntity
  8
A-E
  6
Continuous
 62
     7
370
     0
100
AcDbText
 10
607.5933326640649
 20
107.6260177498048
 30
0.0
 40
11.43
  1
シャックル：呼び６
 41
1.148148148148148
  7
ＭＳ ゴシック
100
AcDbText
  0
LINE
  5
4C6
330
1F
100
AcDbEntity
  8
A-E
  6
Continuous
 62
     7
370
     9
100
AcDbLine
 10
597.0174989568222
 20
101.2807246820789
 30
0.0
 11
814.8316320596518
 21
101.2807246820789
 31
0.0
  0
LINE
  5
4C7
330
1F
100
AcDbEntity
  8
A-E
  6
Continuous
 62
     7
370
     9
100
AcDbLine
 10
597.0174989568222
 20
101.2807246820789
 30
0.0
 11
474.5686860081314
 21
163.1149465993087
 31
0.0
  0
LINE
  5
4C8
330
1F
100
AcDbEntity
  8
A-E
  6
Continuous
 62
     7
370
     9
100
AcDbLine
 10
474.5686860081314
 20
163.1149465993087
 30
0.0
 11
488.7263266199348
 21
158.1589743917496
 31
0.0
  0
LINE
  5
4C9
330
1F
100
AcDbEntity
  8
A-E
  6
Continuous
 62
     7
370
     9
100
AcDbLine
 10
474.5686860081314
 20
163.1149465993087
 30
0.0
 11
486.9612146451668
 21
154.66357759725
 31
0.0
  0
LINE
  5
4CA
330
1F
100
AcDbEntity
  8
A-E
  6
Continuous
 62
     7
370
     9
100
AcDbLine
 10
605.5370994899728
 20
231.1274326818494
 30
0.0
 11
884.3703825886153
 21
231.1274326818494
 31
0.0
  0
LINE
  5
4CB
330
1F
100
AcDbEntity
  8
A-F
  6
Continuous
 62
     7
370
     9
100
AcDbLine
 10
605.5370994899728
 20
231.1274326818494
 30
0.0
 11
529.8580008967507
 21
183.4036522302553
 31
0.0
  0
LINE
  5
4CC
330
1F
100
AcDbEntity
  8
A-F
  6
Continuous
 62
     7
370
     9
100
AcDbLine
 10
529.8580008967507
 20
183.4036522302553
 30
0.0
 11
541.3930268284439
 21
192.9923783770563
 31
0.0
  0
LINE
  5
4CD
330
1F
100
AcDbEntity
  8
A-F
  6
Continuous
 62
     7
370
     9
100
AcDbLine
 10
529.8580008967507
 20
183.4036522302553
 30
0.0
 11
543.4816663713071
 21
189.6801489112624
 31
0.0
  0
LWPOLYLINE
  5
4CE
330
1F
100
AcDbEntity
  8
A-4_寸法
  6
Continuous
 62
     7
370
     9
100
AcDbPolyline
 90
        4
 70
     1
 43
1.0
 10
533.1363583258559
 20
305.0352813158487
 42
0.4142135623731
 10
532.6363583258559
 20
305.5352813158487
 42
0.4142135623731
 10
532.136358325856
 20
305.0352813158487
 42
0.4142135623731
 10
532.6363583258559
 20
304.5352813158487
 42
0.4142135623731
  0
LINE
  5
4CF
330
1F
100
AcDbEntity
  8
A-4_寸法
  6
Continuous
 62
     7
370
     9
100
AcDbLine
 10
535.1363583258559
 20
334.0354141085535
 30
0.0
 11
502.6520831259525
 21
334.0354141085535
 31
0.0
  0
TEXT
  5
4D0
330
1F
100
AcDbEntity
  8
A-4_寸法
  6
Continuous
 62
     2
370
   211
100
AcDbText
 10
526.816358325856
 20
308.9103477122011
 30
0.0
 40
15.24
  1
29
 50
90.0
 41
1.0625
  7
ＭＳ ゴシック
100
AcDbText
  0
LINE
  5
4D1
330
1F
100
AcDbEntity
  8
A-4_寸法
  6
Continuous
 62
     7
370
     9
100
AcDbLine
 10
532.6363583258559
 20
305.0352813158487
 30
0.0
 11
532.6363583258559
 21
274.835312823186
 31
0.0
  0
LINE
  5
4D2
330
1F
100
AcDbEntity
  8
A-4_寸法
  6
Continuous
 62
     7
370
     9
100
AcDbLine
 10
535.1363583258559
 20
274.835312823186
 30
0.0
 11
473.6521359131144
 21
274.835312823186
 31
0.0
  0
LINE
  5
4D3
330
1F
100
AcDbEntity
  8
A-4_寸法
  6
Continuous
 62
     7
370
     9
100
AcDbLine
 10
532.6363583258559
 20
274.835312823186
 30
0.0
 11
532.6363583258559
 21
74.88532338061847
 31
0.0
  0
LINE
  5
4D4
330
1F
100
AcDbEntity
  8
A-4_寸法
  6
Continuous
 62
     7
370
     9
100
AcDbLine
 10
535.1363583258559
 20
74.88532338061847
 30
0.0
 11
473.6521359131144
 21
74.88532338061847
 31
0.0
  0
LINE
  5
4D5
330
1F
100
AcDbEntity
  8
A-4_寸法
  6
Continuous
 62
     7
370
     9
100
AcDbLine
 10
532.6363583258559
 20
74.88532338061847
 30
0.0
 11
532.6363583258559
 21
44.68535488795599
 31
0.0
  0
LWPOLYLINE
  5
4D6
330
1F
100
AcDbEntity
  8
A-4_寸法
  6
Continuous
 62
     7
370
     9
100
AcDbPolyline
 90
        4
 70
     1
 43
1.0
 10
533.1363583258559
 20
44.68535488795599
 42
0.4142135623731
 10
532.6363583258559
 20
45.18535488795599
 42
0.4142135623731
 10
532.136358325856
 20
44.68535488795599
 42
0.4142135623731
 10
532.6363583258559
 20
44.18535488795599
 42
0.4142135623731
  0
LINE
  5
4D7
330
1F
100
AcDbEntity
  8
A-4_寸法
  6
Continuous
 62
     7
370
     9
100
AcDbLine
 10
535.1363583258559
 20
15.68528395520676
 30
0.0
 11
502.6520831259525
 21
15.68528395520677
 31
0.0
  0
TEXT
  5
4D8
330
1F
100
AcDbEntity
  8
A-4_寸法
  6
Continuous
 62
     2
370
   211
100
AcDbText
 10
526.816358325856
 20
19.56031942158138
 30
0.0
 40
15.24
  1
29
 50
90.0
 41
1.0625
  7
ＭＳ ゴシック
100
AcDbText
  0
TEXT
  5
4D9
330
1F
100
AcDbEntity
  8
A-4_寸法
  6
Continuous
 62
     2
370
   211
100
AcDbText
 10
557.9818639817952
 20
37.91033913428723
 30
0.0
 40
15.24
  1
30.2
 50
90.0
 41
1.09375
  7
ＭＳ ゴシック
100
AcDbText
  0
TEXT
  5
4DA
330
1F
100
AcDbEntity
  8
A-4_寸法
  6
Continuous
 62
     2
370
   211
100
AcDbText
 10
558.5853027746379
 20
268.0602970695174
 30
0.0
 40
15.24
  1
30.2
 50
90.0
 41
1.09375
  7
ＭＳ ゴシック
100
AcDbText
  0
LINE
  5
4DB
330
1F
100
AcDbEntity
  8
A-F
  6
Continuous
 62
     7
370
     9
100
AcDbLine
 10
532.6363583258559
 20
274.635312823186
 30
0.0
 11
530.6784907292554
 21
259.7636227432135
 31
0.0
  0
LINE
  5
4DC
330
1F
100
AcDbEntity
  8
A-F
  6
Continuous
 62
     7
370
     9
100
AcDbLine
 10
532.6363583258559
 20
274.635312823186
 30
0.0
 11
534.5942259224564
 21
259.7636227432135
 31
0.0
  0
LINE
  5
4DD
330
1F
100
AcDbEntity
  8
A-F
  6
Continuous
 62
     7
370
     9
100
AcDbLine
 10
532.6363583258559
 20
333.8354141085535
 30
0.0
 11
530.6784907292554
 21
348.7070423285704
 31
0.0
  0
LINE
  5
4DE
330
1F
100
AcDbEntity
  8
A-F
  6
Continuous
 62
     7
370
     9
100
AcDbLine
 10
532.6363583258559
 20
333.8354141085535
 30
0.0
 11
534.5942259224564
 21
348.7070423285704
 31
0.0
  0
LINE
  5
4DF
330
1F
100
AcDbEntity
  8
A-4_寸法
  6
Continuous
 62
     7
370
     9
100
AcDbLine
 10
532.6363583258559
 20
353.9396456348122
 30
0.0
 11
532.6363583258559
 21
305.0352813158487
 31
0.0
  0
LINE
  5
4E0
330
1F
100
AcDbEntity
  8
A-F
  6
Continuous
 62
     7
370
     9
100
AcDbLine
 10
532.6363583258559
 20
15.88528395520676
 30
0.0
 11
530.6784907292554
 21
1.013593875234235
 31
0.0
  0
LINE
  5
4E1
330
1F
100
AcDbEntity
  8
A-F
  6
Continuous
 62
     7
370
     9
100
AcDbLine
 10
532.6363583258559
 20
15.88528395520676
 30
0.0
 11
534.5942259224564
 21
1.013593875234235
 31
0.0
  0
LINE
  5
4E2
330
1F
100
AcDbEntity
  8
A-F
  6
Continuous
 62
     7
370
     9
100
AcDbLine
 10
532.6363583258559
 20
75.08532338061846
 30
0.0
 11
530.6784907292554
 21
89.95701346059114
 31
0.0
  0
LINE
  5
4E3
330
1F
100
AcDbEntity
  8
A-F
  6
Continuous
 62
     7
370
     9
100
AcDbLine
 10
532.6363583258559
 20
75.08532338061846
 30
0.0
 11
534.5942259224564
 21
89.95701346059114
 31
0.0
  0
LINE
  5
4E4
330
1F
100
AcDbEntity
  8
A-4_寸法
  6
Continuous
 62
     7
370
     9
100
AcDbLine
 10
532.6363583258559
 20
44.68535488795599
 30
0.0
 11
532.6363583258559
 21
-2.605936608830763
 31
0.0
  0
TEXT
  5
4E5
330
1F
100
AcDbEntity
  8
A-4_寸法
  6
Continuous
 62
     2
370
   211
100
AcDbText
 10
526.816358325856
 20
189.1670155822182
 30
0.0
 40
15.24
  1
200
 50
90.0
 41
1.083333333333333
  7
ＭＳ ゴシック
100
AcDbText
  0
LINE
  5
4E6
330
1F
100
AcDbEntity
  8
A-4_寸法
  6
Continuous
 62
     7
370
     9
100
AcDbLine
 10
535.1363583258559
 20
305.0352813158487
 30
0.0
 11
489.6372236310834
 21
305.0352813158487
 31
0.0
  0
LINE
  5
4E7
330
1F
100
AcDbEntity
  8
A-4_寸法
  6
Continuous
 62
     7
370
     9
100
AcDbLine
 10
535.1363583258559
 20
44.68535488795599
 30
0.0
 11
491.5908567229122
 21
44.68535488795599
 31
0.0
  0
TEXT
  5
4E8
330
1F
100
AcDbEntity
  8
A-E
  6
Continuous
 62
     7
370
   211
100
AcDbText
 10
139.1941982085645
 20
-41.40995559953348
 30
0.0
 40
11.43
  1
蓋：ＧＸＭ－６－２５０
 41
1.151515151515151
  7
ＭＳ ゴシック
100
AcDbText
  0
TEXT
  5
4E9
330
1F
100
AcDbEntity
  8
A-F
  6
Continuous
 62
     2
370
     0
100
AcDbText
 10
381.0174999776278
 20
-495.0781451648309
 30
0.0
 40
15.24
  1
蓋 質 量：１１．０ｋｇ
 50
359.9999960176241
 41
1.113636363636364
  7
ＭＳ ゴシック
100
AcDbText
  0
TEXT
  5
4EA
330
1F
100
AcDbEntity
  8
F-Fﾚｲﾔ
  6
Continuous
 62
     2
370
     9
100
AcDbText
 10
-194.2055896143548
 20
-687.3675176327846
 30
0.0
 40
15.24
  1
鋳鉄製みぞ蓋　ＧＸＭ－６－２５０＋Ｌ－２５Ｇ
 41
0.8988636363636364
  7
ＭＳ ゴシック
100
AcDbText
  0
LINE
  5
4EB
330
1F
100
AcDbEntity
  8
A-F
  6
Continuous
 62
     7
370
     9
100
AcDbLine
 10
-760.0652494562637
 20
135.6604545237246
 30
0.0
 11
-806.5652544050602
 21
135.6604545237246
 31
0.0
  0
LINE
  5
4EC
330
1F
100
AcDbEntity
  8
A-F
  6
Continuous
 62
     7
370
     9
100
AcDbLine
 10
-760.0652494562637
 20
127.4604225215076
 30
0.0
 11
-806.5652853350379
 21
127.4604225215076
 31
0.0
  0
LINE
  5
4ED
330
1F
100
AcDbEntity
  8
A-F
  6
Continuous
 62
     7
370
     9
100
AcDbLine
 10
-805.065274200246
 20
135.6604545237246
 30
0.0
 11
-807.0231727268243
 21
150.5321446036971
 31
0.0
  0
LINE
  5
4EE
330
1F
100
AcDbEntity
  8
A-F
  6
Continuous
 62
     7
370
     9
100
AcDbLine
 10
-805.065274200246
 20
135.6604545237246
 30
0.0
 11
-803.1073756736675
 21
150.5321446036971
 31
0.0
  0
LINE
  5
4EF
330
1F
100
AcDbEntity
  8
A-F
  6
Continuous
 62
     7
370
     9
100
AcDbLine
 10
-760.0652494562637
 20
106.9603425159648
 30
0.0
 11
-806.5652853350379
 21
106.9603425159648
 31
0.0
  0
LINE
  5
4F0
330
1F
100
AcDbEntity
  8
A-F
  6
Continuous
 62
     7
370
     9
100
AcDbLine
 10
-805.065274200246
 20
106.9603425159648
 30
0.0
 11
-807.0231727268243
 21
92.08865243599232
 31
0.0
  0
LINE
  5
4F1
330
1F
100
AcDbEntity
  8
A-F
  6
Continuous
 62
     7
370
     9
100
AcDbLine
 10
-805.065274200246
 20
106.9603425159648
 30
0.0
 11
-803.1073756736675
 21
92.08865243599232
 31
0.0
  0
LINE
  5
4F2
330
1F
100
AcDbEntity
  8
A-F
  6
Continuous
 62
     7
370
     9
100
AcDbLine
 10
-805.065274200246
 20
164.3686083257199
 30
0.0
 11
-805.065274200246
 21
127.4604225215076
 31
0.0
  0
LINE
  5
4F3
330
1F
100
AcDbEntity
  8
A-F
  6
Continuous
 62
     7
370
     9
100
AcDbLine
 10
-805.065274200246
 20
127.4604225215076
 30
0.0
 11
-805.065274200246
 21
84.91005202161301
 31
0.0
  0
LWPOLYLINE
  5
4F4
330
1F
100
AcDbEntity
  8
A-F
  6
Continuous
 62
     7
370
     9
100
AcDbPolyline
 90
        4
 70
     1
 43
1.0
 10
-804.565274200246
 20
127.4604225215076
 42
0.4142135623731
 10
-805.065274200246
 20
127.9604225215076
 42
0.4142135623731
 10
-805.565274200246
 20
127.4604225215076
 42
0.4142135623731
 10
-805.065274200246
 20
126.9604225215075
 42
0.4142135623731
  0
TEXT
  5
4F5
330
1F
100
AcDbEntity
  8
A-F
  6
Continuous
 62
     2
370
   211
100
AcDbText
 10
-810.3852515182623
 20
152.489441026707
 30
0.0
 40
15.24
  1
8
 50
90.0
 41
0.9999999999999998
  7
ＭＳ ゴシック
100
AcDbText
  0
TEXT
  5
4F6
330
1F
100
AcDbEntity
  8
A-F
  6
Continuous
 62
     2
370
   211
100
AcDbText
 10
-810.38528244824
 20
105.9006855995269
 30
0.0
 40
15.24
  1
20
 50
90.0
 41
1.0625
  7
ＭＳ ゴシック
100
AcDbText
  0
TEXT
  5
4F7
330
1F
100
AcDbEntity
  8
A-E
  6
Continuous
 62
     7
370
     0
100
AcDbText
 10
532.750081667707
 20
390.0999121380494
 30
0.0
 40
11.43
  1
ＳＳ４００，樹脂系塗装
 41
1.151515151515152
  7
ＭＳ ゴシック
100
AcDbText
  0
TEXT
  5
4F8
330
1F
100
AcDbEntity
  8
A-E
  6
Continuous
 62
     7
370
   211
100
AcDbText
 10
610.2067037651163
 20
237.735738904679
 30
0.0
 40
11.43
  1
鎖：φ６×３００（両シャックル付）
 41
1.062745098039216
  7
ＭＳ ゴシック
100
AcDbText
  0
TEXT
  5
4F9
330
1F
100
AcDbEntity
  8
A-E
  6
Continuous
 62
     7
370
     0
100
AcDbText
 10
638.6469194107075
 20
212.7083491365587
 30
0.0
 40
11.43
  1
ＳＷＲＭ，溶融亜鉛めっき
 41
1.152777777777778
  7
ＭＳ ゴシック
100
AcDbText
  0
TEXT
  5
4FA
330
1F
100
AcDbEntity
  8
A-E
  6
Continuous
 62
     7
370
   211
100
AcDbText
 10
607.3316320596518
 20
83.56131965938049
 30
0.0
 40
11.43
  1
Ｓ２０Ｃ，溶融亜鉛めっき
 41
1.152777777777778
  7
ＭＳ ゴシック
100
AcDbText
  0
ENDSEC
  0
SECTION
  2
OBJECTS
  0
DICTIONARY
  5
C
330
0
100
AcDbDictionary
281
     1
  3
ACAD_DETAILVIEWSTYLE
350
502
  3
ACAD_GROUP
350
D
  3
ACAD_LAYOUT
350
1A
  3
ACAD_MATERIAL
350
43
  3
ACAD_MLEADERSTYLE
350
6B
  3
ACAD_MLINESTYLE
350
17
  3
ACAD_PLOTSETTINGS
350
19
  3
ACAD_PLOTSTYLENAME
350
E
  3
ACAD_SCALELIST
350
47
  3
ACAD_SECTIONVIEWSTYLE
350
503
  3
ACAD_TABLESTYLE
350
69
  3
ACAD_VISUALSTYLE
350
2A
  3
ACDB_RECOMPOSE_DATA
350
4FF
  3
AcDbVariableDictionary
350
4FB
  0
SUN
  5
6D
330
29
100
AcDbSun
 90
        1
290
     0
 63
     7
421
 16777215
 40
1.0
291
     1
 91
  2455826
 92
 54000000
292
     0
 70
     2
 71
   256
280
     1
  0
DICTIONARY
  5
502
102
{ACAD_REACTORS
330
C
102
}
330
C
100
AcDbDictionary
281
     1
  0
DICTIONARY
  5
D
102
{ACAD_REACTORS
330
C
102
}
330
C
100
AcDbDictionary
281
     1
  0
DICTIONARY
  5
1A
102
{ACAD_REACTORS
330
C
102
}
330
C
100
AcDbDictionary
281
     1
  3
Layout1
350
1E
  3
Layout2
350
26
  3
Model
350
22
  0
DICTIONARY
  5
43
102
{ACAD_REACTORS
330
C
102
}
330
C
100
AcDbDictionary
281
     1
  3
ByBlock
350
45
  3
ByLayer
350
44
  3
Global
350
46
  0
DICTIONARY
  5
6B
102
{ACAD_REACTORS
330
C
102
}
330
C
100
AcDbDictionary
281
     1
  3
Standard
350
6C
  0
DICTIONARY
  5
17
102
{ACAD_REACTORS
330
C
102
}
330
C
100
AcDbDictionary
281
     1
  3
Standard
350
18
  0
DICTIONARY
  5
19
102
{ACAD_REACTORS
330
C
102
}
330
C
100
AcDbDictionary
281
     1
  0
ACDBDICTIONARYWDFLT
  5
E
102
{ACAD_REACTORS
330
C
102
}
330
C
100
AcDbDictionary
281
     1
  3
Normal
350
F
100
AcDbDictionaryWithDefault
340
F
  0
DICTIONARY
  5
47
102
{ACAD_REACTORS
330
C
102
}
330
C
100
AcDbDictionary
281
     1
  3
A0
350
48
  3
A1
350
49
  3
A2
350
4A
  3
A3
350
4B
  3
A4
350
4C
  3
A5
350
4D
  3
A6
350
4E
  3
A7
350
4F
  3
A8
350
50
  3
A9
350
51
  3
B0
350
52
  3
B1
350
53
  3
B2
350
54
  3
B3
350
55
  3
B4
350
56
  3
B5
350
57
  3
B6
350
58
  3
B7
350
59
  3
B8
350
5A
  3
B9
350
5B
  3
C0
350
5C
  3
C1
350
5D
  3
C2
350
5E
  3
C3
350
5F
  3
C4
350
60
  3
C5
350
61
  3
C6
350
62
  3
C7
350
63
  3
C8
350
64
  3
C9
350
65
  3
D0
350
66
  3
D1
350
67
  3
D2
350
68
  0
DICTIONARY
  5
503
102
{ACAD_REACTORS
330
C
102
}
330
C
100
AcDbDictionary
281
     1
  0
DICTIONARY
  5
69
102
{ACAD_REACTORS
330
C
102
}
330
C
100
AcDbDictionary
281
     1
  3
Standard
350
6A
  0
DICTIONARY
  5
2A
102
{ACAD_REACTORS
330
C
102
}
330
C
100
AcDbDictionary
281
     1
  3
2dWireframe
350
2F
  3
Basic
350
32
  3
Brighten
350
36
  3
ColorChange
350
3A
  3
Conceptual
350
34
  3
Dim
350
35
  3
EdgeColorOff
350
3D
  3
Facepattern
350
39
  3
Flat
350
2B
  3
FlatWithEdges
350
2C
  3
Gouraud
350
2D
  3
GouraudWithEdges
350
2E
  3
Hidden
350
31
  3
JitterOff
350
3B
  3
Linepattern
350
38
  3
OverhangOff
350
3C
  3
Realistic
350
33
  3
Shaded
350
42
  3
Shaded with edges
350
41
  3
Shades of Gray
350
3E
  3
Sketchy
350
3F
  3
Thicken
350
37
  3
Wireframe
350
30
  3
X-Ray
350
40
  0
XRECORD
  5
4FF
102
{ACAD_REACTORS
330
C
102
}
330
C
100
AcDbXrecord
280
     1
 90
        1
330
6A
  0
DICTIONARY
  5
4FB
102
{ACAD_REACTORS
330
C
102
}
330
C
100
AcDbDictionary
281
     1
  3
CANNOSCALE
350
4FC
  3
CENTEREXE
350
504
  3
CENTERLTYPEFILE
350
505
  3
CMLEADERSTYLE
350
501
  3
CTABLESTYLE
350
500
  0
LAYOUT
  5
1E
102
{ACAD_REACTORS
330
1A
102
}
330
1A
100
AcDbPlotSettings
  1

  2
none_device
  4

  6

 40
0.0
 41
0.0
 42
0.0
 43
0.0
 44
0.0
 45
0.0
 46
0.0
 47
0.0
 48
0.0
 49
0.0
140
0.0
141
0.0
142
1.0
143
1.0
 70
   688
 72
     1
 73
     0
 74
     5
  7

 75
    16
 76
     0
 77
     5
 78
   300
147
1.0
148
0.0
149
0.0
100
AcDbLayout
  1
Layout1
 70
     1
 71
     1
 10
0.0
 20
0.0
 11
420.0
 21
297.0
 12
0.0
 22
0.0
 32
0.0
 14
1.000000000000000E+20
 24
1.000000000000000E+20
 34
1.000000000000000E+20
 15
-1.000000000000000E+20
 25
-1.000000000000000E+20
 35
-1.000000000000000E+20
146
0.0
 13
0.0
 23
0.0
 33
0.0
 16
1.0
 26
0.0
 36
0.0
 17
0.0
 27
1.0
 37
0.0
 76
     0
330
1B
  0
LAYOUT
  5
26
102
{ACAD_REACTORS
330
1A
102
}
330
1A
100
AcDbPlotSettings
  1

  2
none_device
  4

  6

 40
0.0
 41
0.0
 42
0.0
 43
0.0
 44
0.0
 45
0.0
 46
0.0
 47
0.0
 48
0.0
 49
0.0
140
0.0
141
0.0
142
1.0
143
1.0
 70
   688
 72
     1
 73
     0
 74
     5
  7

 75
    16
 76
     0
 77
     5
 78
   300
147
1.0
148
0.0
149
0.0
100
AcDbLayout
  1
Layout2
 70
     1
 71
     2
 10
0.0
 20
0.0
 11
0.0
 21
0.0
 12
0.0
 22
0.0
 32
0.0
 14
0.0
 24
0.0
 34
0.0
 15
0.0
 25
0.0
 35
0.0
146
0.0
 13
0.0
 23
0.0
 33
0.0
 16
1.0
 26
0.0
 36
0.0
 17
0.0
 27
1.0
 37
0.0
 76
     0
330
23
  0
LAYOUT
  5
22
102
{ACAD_REACTORS
330
1A
102
}
330
1A
100
AcDbPlotSettings
  1

  2
none_device
  4
Letter_(8.50_x_11.00_Inches)
  6

 40
6.35
 41
6.35
 42
6.35000508
 43
6.35000508
 44
215.9
 45
279.4
 46
0.0
 47
0.0
 48
0.0
 49
0.0
140
0.0
141
0.0
142
1.0
143
1.0
 70
  1712
 72
     1
 73
     0
 74
     0
  7

 75
     0
 76
     0
 77
     5
 78
   300
147
1.0
148
0.0
149
0.0
100
AcDbLayout
  1
Model
 70
     1
 71
     0
 10
-1050.0
 20
-742.5
 11
1050.0
 21
742.5
 12
0.0
 22
0.0
 32
0.0
 14
-1050.0
 24
-742.5
 34
0.0
 15
1050.0
 25
742.5
 35
0.0
146
0.0
 13
0.0
 23
0.0
 33
0.0
 16
1.0
 26
0.0
 36
0.0
 17
0.0
 27
1.0
 37
0.0
 76
     0
330
1F
331
29
  0
MATERIAL
  5
45
102
{ACAD_REACTORS
330
43
102
}
330
43
100
AcDbMaterial
  1
ByBlock
 72
     1
 94
      127
  0
MATERIAL
  5
44
102
{ACAD_REACTORS
330
43
102
}
330
43
100
AcDbMaterial
  1
ByLayer
 72
     1
 94
      127
  0
MATERIAL
  5
46
102
{ACAD_REACTORS
330
43
102
}
330
43
100
AcDbMaterial
  1
Global
 72
     1
 94
      127
  0
MLEADERSTYLE
  5
6C
102
{ACAD_REACTORS
330
6B
102
}
330
6B
100
AcDbMLeaderStyle
179
     2
170
     2
171
     1
172
     0
 90
        2
 40
0.0
 41
0.0
173
     1
 91
-1056964608
340
14
 92
       -2
290
     1
 42
2.0
291
     1
 43
8.0
  3
Standard
341
0
 44
4.0
300

342
11
174
     1
178
     6
175
     1
176
     0
 93
-1056964608
 45
4.0
292
     0
297
     0
 46
4.0
343
0
 94
-1056964608
 47
1.0
 49
1.0
140
1.0
293
     1
141
0.0
294
     1
177
     0
142
1.0
295
     0
296
     0
143
3.75
271
     0
272
     9
273
     9
298
     0
  0
MLINESTYLE
  5
18
102
{ACAD_REACTORS
330
17
102
}
330
17
100
AcDbMlineStyle
  2
Standard
 70
     0
  3

 62
   256
 51
90.0
 52
90.0
 71
     2
 49
0.5
 62
   256
  6
BYLAYER
 49
-0.5
 62
   256
  6
BYLAYER
  0
ACDBPLACEHOLDER
  5
F
102
{ACAD_REACTORS
330
E
102
}
330
E
  0
SCALE
  5
48
102
{ACAD_REACTORS
330
47
102
}
330
47
100
AcDbScale
 70
     0
300
1:1
140
1.0
141
1.0
290
     1
  0
SCALE
  5
49
102
{ACAD_REACTORS
330
47
102
}
330
47
100
AcDbScale
 70
     0
300
1:2
140
1.0
141
2.0
290
     0
  0
SCALE
  5
4A
102
{ACAD_REACTORS
330
47
102
}
330
47
100
AcDbScale
 70
     0
300
1:4
140
1.0
141
4.0
290
     0
  0
SCALE
  5
4B
102
{ACAD_REACTORS
330
47
102
}
330
47
100
AcDbScale
 70
     0
300
1:5
140
1.0
141
5.0
290
     0
  0
SCALE
  5
4C
102
{ACAD_REACTORS
330
47
102
}
330
47
100
AcDbScale
 70
     0
300
1:8
140
1.0
141
8.0
290
     0
  0
SCALE
  5
4D
102
{ACAD_REACTORS
330
47
102
}
330
47
100
AcDbScale
 70
     0
300
1:10
140
1.0
141
10.0
290
     0
  0
SCALE
  5
4E
102
{ACAD_REACTORS
330
47
102
}
330
47
100
AcDbScale
 70
     0
300
1:16
140
1.0
141
16.0
290
     0
  0
SCALE
  5
4F
102
{ACAD_REACTORS
330
47
102
}
330
47
100
AcDbScale
 70
     0
300
1:20
140
1.0
141
20.0
290
     0
  0
SCALE
  5
50
102
{ACAD_REACTORS
330
47
102
}
330
47
100
AcDbScale
 70
     0
300
1:30
140
1.0
141
30.0
290
     0
  0
SCALE
  5
51
102
{ACAD_REACTORS
330
47
102
}
330
47
100
AcDbScale
 70
     0
300
1:40
140
1.0
141
40.0
290
     0
  0
SCALE
  5
52
102
{ACAD_REACTORS
330
47
102
}
330
47
100
AcDbScale
 70
     0
300
1:50
140
1.0
141
50.0
290
     0
  0
SCALE
  5
53
102
{ACAD_REACTORS
330
47
102
}
330
47
100
AcDbScale
 70
     0
300
1:100
140
1.0
141
100.0
290
     0
  0
SCALE
  5
54
102
{ACAD_REACTORS
330
47
102
}
330
47
100
AcDbScale
 70
     0
300
2:1
140
2.0
141
1.0
290
     0
  0
SCALE
  5
55
102
{ACAD_REACTORS
330
47
102
}
330
47
100
AcDbScale
 70
     0
300
4:1
140
4.0
141
1.0
290
     0
  0
SCALE
  5
56
102
{ACAD_REACTORS
330
47
102
}
330
47
100
AcDbScale
 70
     0
300
8:1
140
8.0
141
1.0
290
     0
  0
SCALE
  5
57
102
{ACAD_REACTORS
330
47
102
}
330
47
100
AcDbScale
 70
     0
300
10:1
140
10.0
141
1.0
290
     0
  0
SCALE
  5
58
102
{ACAD_REACTORS
330
47
102
}
330
47
100
AcDbScale
 70
     0
300
100:1
140
100.0
141
1.0
290
     0
  0
SCALE
  5
59
102
{ACAD_REACTORS
330
47
102
}
330
47
100
AcDbScale
 70
     0
300
1/128" = 1'-0"
140
0.0078125
141
12.0
290
     0
  0
SCALE
  5
5A
102
{ACAD_REACTORS
330
47
102
}
330
47
100
AcDbScale
 70
     0
300
1/64" = 1'-0"
140
0.015625
141
12.0
290
     0
  0
SCALE
  5
5B
102
{ACAD_REACTORS
330
47
102
}
330
47
100
AcDbScale
 70
     0
300
1/32" = 1'-0"
140
0.03125
141
12.0
290
     0
  0
SCALE
  5
5C
102
{ACAD_REACTORS
330
47
102
}
330
47
100
AcDbScale
 70
     0
300
1/16" = 1'-0"
140
0.0625
141
12.0
290
     0
  0
SCALE
  5
5D
102
{ACAD_REACTORS
330
47
102
}
330
47
100
AcDbScale
 70
     0
300
3/32" = 1'-0"
140
0.09375
141
12.0
290
     0
  0
SCALE
  5
5E
102
{ACAD_REACTORS
330
47
102
}
330
47
100
AcDbScale
 70
     0
300
1/8" = 1'-0"
140
0.125
141
12.0
290
     0
  0
SCALE
  5
5F
102
{ACAD_REACTORS
330
47
102
}
330
47
100
AcDbScale
 70
     0
300
3/16" = 1'-0"
140
0.1875
141
12.0
290
     0
  0
SCALE
  5
60
102
{ACAD_REACTORS
330
47
102
}
330
47
100
AcDbScale
 70
     0
300
1/4" = 1'-0"
140
0.25
141
12.0
290
     0
  0
SCALE
  5
61
102
{ACAD_REACTORS
330
47
102
}
330
47
100
AcDbScale
 70
     0
300
3/8" = 1'-0"
140
0.375
141
12.0
290
     0
  0
SCALE
  5
62
102
{ACAD_REACTORS
330
47
102
}
330
47
100
AcDbScale
 70
     0
300
1/2" = 1'-0"
140
0.5
141
12.0
290
     0
  0
SCALE
  5
63
102
{ACAD_REACTORS
330
47
102
}
330
47
100
AcDbScale
 70
     0
300
3/4" = 1'-0"
140
0.75
141
12.0
290
     0
  0
SCALE
  5
64
102
{ACAD_REACTORS
330
47
102
}
330
47
100
AcDbScale
 70
     0
300
1" = 1'-0"
140
1.0
141
12.0
290
     0
  0
SCALE
  5
65
102
{ACAD_REACTORS
330
47
102
}
330
47
100
AcDbScale
 70
     0
300
1-1/2" = 1'-0"
140
1.5
141
12.0
290
     0
  0
SCALE
  5
66
102
{ACAD_REACTORS
330
47
102
}
330
47
100
AcDbScale
 70
     0
300
3" = 1'-0"
140
3.0
141
12.0
290
     0
  0
SCALE
  5
67
102
{ACAD_REACTORS
330
47
102
}
330
47
100
AcDbScale
 70
     0
300
6" = 1'-0"
140
6.0
141
12.0
290
     0
  0
SCALE
  5
68
102
{ACAD_REACTORS
330
47
102
}
330
47
100
AcDbScale
 70
     0
300
1'-0" = 1'-0"
140
12.0
141
12.0
290
     0
  0
TABLESTYLE
  5
6A
102
{ACAD_REACTORS
330
69
102
}
102
{ACAD_XDICTIONARY
360
4FD
102
}
330
69
100
AcDbTableStyle
  3
Standard
 70
     0
 71
     0
 40
0.06
 41
0.06
280
     0
281
     0
  7
Standard
140
4.5
170
     2
 62
     0
 63
   257
283
     0
 90
        4
 91
        0
  1

274
    -2
284
     1
 64
     0
275
    -2
285
     1
 65
     0
276
    -2
286
     1
 66
     0
277
    -2
287
     1
 67
     0
278
    -2
288
     1
 68
     0
279
    -2
289
     1
 69
     0
  7
Standard
140
6.0
170
     5
 62
     0
 63
   257
283
     0
 90
        4
 91
        0
  1

274
    -2
284
     1
 64
     0
275
    -2
285
     1
 65
     0
276
    -2
286
     1
 66
     0
277
    -2
287
     1
 67
     0
278
    -2
288
     1
 68
     0
279
    -2
289
     1
 69
     0
  7
Standard
140
4.5
170
     5
 62
     0
 63
   257
283
     0
 90
        4
 91
        0
  1

274
    -2
284
     1
 64
     0
275
    -2
285
     1
 65
     0
276
    -2
286
     1
 66
     0
277
    -2
287
     1
 67
     0
278
    -2
288
     1
 68
     0
279
    -2
289
     1
 69
     0
  0
VISUALSTYLE
  5
2F
102
{ACAD_REACTORS
330
2A
102
}
330
2A
100
AcDbVisualStyle
  2
2dWireframe
 70
     4
177
     3
291
     0
 70
    58
 90
        0
176
     1
 90
        2
176
     1
 90
        0
176
     1
 90
        0
176
     1
 40
0.6
176
     1
 40
30.0
176
     1
 62
     7
420
 16777215
176
     1
 90
        1
176
     1
 90
        4
176
     1
 62
     7
176
     1
 62
   257
176
     1
 90
        1
176
     1
 90
        1
176
     1
 40
1.0
176
     1
 90
        0
176
     1
 62
   257
176
     1
 40
1.0
176
     1
 90
        1
176
     1
 90
        6
176
     1
 90
        2
176
     1
 62
     7
176
     1
 90
        5
176
     1
 90
        0
176
     1
 90
        0
176
     1
290
     0
176
     1
 90
        1
176
     1
 40
0.0
176
     1
 90
        0
176
     1
290
     1
176
     1
290
     1
176
     1
290
     0
176
     1
290
     0
176
     1
290
     0
176
     1
290
     0
176
     1
290
     0
176
     1
290
     0
176
     1
290
     0
176
     1
 90
       50
176
     1
 40
0.0
176
     1
 40
1.0
176
     1
 90
        0
176
     1
 62
    18
420
        0
176
     1
 90
       50
176
     1
 90
        3
176
     1
 62
     5
420
      255
176
     1
290
     0
176
     1
 90
       50
176
     1
 90
       50
176
     1
 90
       50
176
     1
290
     0
176
     1
 90
       50
176
     1
 62
   256
176
     0
 40
1.0
176
     0
 90
        2
176
     1
  1
strokes_ogs.tif
176
     1
290
     0
176
     1
 40
1.0
176
     1
 40
1.0
176
     1
  0
VISUALSTYLE
  5
32
102
{ACAD_REACTORS
330
2A
102
}
330
2A
100
AcDbVisualStyle
  2
Basic
 70
     7
177
     3
291
     1
 70
    58
 90
        1
176
     1
 90
        0
176
     1
 90
        1
176
     1
 90
        0
176
     1
 40
0.6
176
     1
 40
30.0
176
     1
 62
     7
420
 16777215
176
     1
 90
        0
176
     1
 90
        4
176
     1
 62
     7
176
     1
 62
   257
176
     1
 90
        1
176
     1
 90
        1
176
     1
 40
1.0
176
     1
 90
        8
176
     1
 62
     7
176
     1
 40
1.0
176
     1
 90
        1
176
     1
 90
        6
176
     1
 90
        2
176
     1
 62
     7
176
     1
 90
        5
176
     1
 90
        0
176
     1
 90
        0
176
     1
290
     0
176
     1
 90
        1
176
     1
 40
0.0
176
     1
 90
        0
176
     1
290
     0
176
     1
290
     1
176
     1
290
     1
176
     1
290
     0
176
     1
290
     0
176
     1
290
     0
176
     1
290
     0
176
     1
290
     0
176
     1
290
     0
176
     1
 90
       50
176
     1
 40
0.0
176
     1
 40
1.0
176
     1
 90
        0
176
     1
 62
    18
420
        0
176
     1
 90
       50
176
     1
 90
        3
176
     1
 62
     5
420
      255
176
     1
290
     0
176
     1
 90
       50
176
     1
 90
       50
176
     1
 90
       50
176
     1
290
     0
176
     1
 90
       50
176
     1
 62
   256
176
     0
 40
1.0
176
     0
 90
        2
176
     1
  1
strokes_ogs.tif
176
     1
290
     0
176
     1
 40
1.0
176
     1
 40
1.0
176
     1
  0
VISUALSTYLE
  5
36
102
{ACAD_REACTORS
330
2A
102
}
330
2A
100
AcDbVisualStyle
  2
Brighten
 70
    12
177
     3
291
     1
 70
    58
 90
        2
176
     1
 90
        2
176
     1
 90
        0
176
     1
 90
        0
176
     1
 40
0.6
176
     1
 40
30.0
176
     1
 62
     7
420
 16777215
176
     1
 90
        1
176
     1
 90
        4
176
     1
 62
     7
176
     1
 62
   257
176
     1
 90
        1
176
     1
 90
        1
176
     1
 40
1.0
176
     1
 90
        8
176
     1
 62
     7
176
     1
 40
1.0
176
     1
 90
        1
176
     1
 90
        6
176
     1
 90
        2
176
     1
 62
     7
176
     1
 90
        5
176
     1
 90
        0
176
     1
 90
        0
176
     1
290
     0
176
     1
 90
        1
176
     1
 40
50.0
176
     1
 90
        0
176
     1
290
     0
176
     1
290
     1
176
     1
290
     1
176
     1
290
     0
176
     1
290
     0
176
     1
290
     0
176
     1
290
     0
176
     1
290
     0
176
     1
290
     0
176
     1
 90
       50
176
     1
 40
0.0
176
     1
 40
1.0
176
     1
 90
        0
176
     1
 62
    18
420
        0
176
     1
 90
       50
176
     1
 90
        3
176
     1
 62
     5
420
      255
176
     1
290
     0
176
     1
 90
       50
176
     1
 90
       50
176
     1
 90
       50
176
     1
290
     0
176
     1
 90
       50
176
     1
 62
   256
176
     0
 40
1.0
176
     0
 90
        2
176
     1
  1
strokes_ogs.tif
176
     1
290
     0
176
     1
 40
1.0
176
     1
 40
1.0
176
     1
  0
VISUALSTYLE
  5
3A
102
{ACAD_REACTORS
330
2A
102
}
330
2A
100
AcDbVisualStyle
  2
ColorChange
 70
    16
177
     3
291
     1
 70
    58
 90
        2
176
     1
 90
        2
176
     1
 90
        3
176
     1
 90
        0
176
     1
 40
0.6
176
     1
 40
30.0
176
     1
 62
     8
420
  8421504
176
     1
 90
        1
176
     1
 90
        4
176
     1
 62
     7
176
     1
 62
   257
176
     1
 90
        1
176
     1
 90
        1
176
     1
 40
1.0
176
     1
 90
        8
176
     1
 62
     8
420
  8421504
176
     1
 40
1.0
176
     1
 90
        1
176
     1
 90
        6
176
     1
 90
        2
176
     1
 62
     7
176
     1
 90
        5
176
     1
 90
        0
176
     1
 90
        0
176
     1
290
     0
176
     1
 90
        1
176
     1
 40
0.0
176
     1
 90
        0
176
     1
290
     0
176
     1
290
     1
176
     1
290
     1
176
     1
290
     0
176
     1
290
     0
176
     1
290
     0
176
     1
290
     0
176
     1
290
     0
176
     1
290
     0
176
     1
 90
       50
176
     1
 40
0.0
176
     1
 40
1.0
176
     1
 90
        0
176
     1
 62
    18
420
        0
176
     1
 90
       50
176
     1
 90
        3
176
     1
 62
     5
420
      255
176
     1
290
     0
176
     1
 90
       50
176
     1
 90
       50
176
     1
 90
       50
176
     1
290
     0
176
     1
 90
       50
176
     1
 62
   256
176
     0
 40
1.0
176
     0
 90
        2
176
     1
  1
strokes_ogs.tif
176
     1
290
     0
176
     1
 40
1.0
176
     1
 40
1.0
176
     1
  0
VISUALSTYLE
  5
34
102
{ACAD_REACTORS
330
2A
102
}
330
2A
100
AcDbVisualStyle
  2
Conceptual
 70
     9
177
     3
291
     0
 70
    58
 90
        3
176
     1
 90
        2
176
     1
 90
        0
176
     1
 90
        0
176
     1
 40
0.6
176
     1
 40
30.0
176
     1
 62
     7
420
 16777215
176
     1
 90
        2
176
     1
 90
        2
176
     1
 62
     7
176
     1
 62
   257
176
     1
 90
        1
176
     1
 90
        1
176
     1
 40
179.0
176
     1
 90
        8
176
     1
 62
     7
176
     1
 40
1.0
176
     1
 90
        1
176
     1
 90
        6
176
     1
 90
        2
176
     1
 62
     7
176
     1
 90
        3
176
     1
 90
        0
176
     1
 90
        0
176
     1
290
     0
176
     1
 90
        1
176
     1
 40
0.0
176
     1
 90
        0
176
     1
290
     0
176
     1
290
     1
176
     1
290
     1
176
     1
290
     0
176
     1
290
     0
176
     1
290
     0
176
     1
290
     0
176
     1
290
     0
176
     1
290
     0
176
     1
 90
       50
176
     1
 40
0.0
176
     1
 40
1.0
176
     1
 90
        0
176
     1
 62
    18
420
        0
176
     1
 90
       50
176
     1
 90
        3
176
     1
 62
     5
420
      255
176
     1
290
     0
176
     1
 90
       50
176
     1
 90
       50
176
     1
 90
       50
176
     1
290
     0
176
     1
 90
       50
176
     1
 62
   256
176
     0
 40
1.0
176
     0
 90
        2
176
     1
  1
strokes_ogs.tif
176
     1
290
     0
176
     1
 40
1.0
176
     1
 40
1.0
176
     1
  0
VISUALSTYLE
  5
35
102
{ACAD_REACTORS
330
2A
102
}
330
2A
100
AcDbVisualStyle
  2
Dim
 70
    11
177
     3
291
     1
 70
    58
 90
        2
176
     1
 90
        2
176
     1
 90
        0
176
     1
 90
        0
176
     1
 40
0.6
176
     1
 40
30.0
176
     1
 62
     7
420
 16777215
176
     1
 90
        1
176
     1
 90
        4
176
     1
 62
     7
176
     1
 62
   257
176
     1
 90
        1
176
     1
 90
        1
176
     1
 40
1.0
176
     1
 90
        8
176
     1
 62
     7
176
     1
 40
1.0
176
     1
 90
        1
176
     1
 90
        6
176
     1
 90
        2
176
     1
 62
     7
176
     1
 90
        5
176
     1
 90
        0
176
     1
 90
        0
176
     1
290
     0
176
     1
 90
        1
176
     1
 40
-50.0
176
     1
 90
        0
176
     1
290
     0
176
     1
290
     1
176
     1
290
     1
176
     1
290
     0
176
     1
290
     0
176
     1
290
     0
176
     1
290
     0
176
     1
290
     0
176
     1
290
     0
176
     1
 90
       50
176
     1
 40
0.0
176
     1
 40
1.0
176
     1
 90
        0
176
     1
 62
    18
420
        0
176
     1
 90
       50
176
     1
 90
        3
176
     1
 62
     5
420
      255
176
     1
290
     0
176
     1
 90
       50
176
     1
 90
       50
176
     1
 90
       50
176
     1
290
     0
176
     1
 90
       50
176
     1
 62
   256
176
     0
 40
1.0
176
     0
 90
        2
176
     1
  1
strokes_ogs.tif
176
     1
290
     0
176
     1
 40
1.0
176
     1
 40
1.0
176
     1
  0
VISUALSTYLE
  5
3D
102
{ACAD_REACTORS
330
2A
102
}
330
2A
100
AcDbVisualStyle
  2
EdgeColorOff
 70
    22
177
     3
291
     1
 70
    58
 90
        2
176
     0
 90
        2
176
     0
 90
        0
176
     0
 90
        0
176
     0
 40
0.6
176
     0
 40
30.0
176
     0
 62
     7
420
 16777215
176
     0
 90
        1
176
     0
 90
        4
176
     0
 62
     7
176
     0
 62
   257
176
     0
 90
        1
176
     0
 90
        1
176
     0
 40
1.0
176
     0
 90
        8
176
     2
 62
     7
176
     0
 40
1.0
176
     0
 90
        1
176
     0
 90
        6
176
     0
 90
        2
176
     0
 62
     7
176
     0
 90
        5
176
     0
 90
        0
176
     0
 90
        0
176
     0
290
     0
176
     0
 90
        1
176
     0
 40
0.0
176
     0
 90
        0
176
     0
290
     0
176
     0
290
     1
176
     0
290
     1
176
     0
290
     0
176
     0
290
     0
176
     0
290
     0
176
     0
290
     0
176
     0
290
     0
176
     0
290
     0
176
     0
 90
       50
176
     0
 40
0.0
176
     0
 40
1.0
176
     0
 90
        0
176
     0
 62
    18
420
        0
176
     0
 90
       50
176
     0
 90
        3
176
     0
 62
     5
420
      255
176
     0
290
     0
176
     0
 90
       50
176
     0
 90
       50
176
     0
 90
       50
176
     0
290
     0
176
     0
 90
       50
176
     0
 62
   256
176
     0
 40
1.0
176
     0
 90
        2
176
     0
  1
strokes_ogs.tif
176
     0
290
     0
176
     0
 40
1.0
176
     0
 40
1.0
176
     0
  0
VISUALSTYLE
  5
39
102
{ACAD_REACTORS
330
2A
102
}
330
2A
100
AcDbVisualStyle
  2
Facepattern
 70
    15
177
     3
291
     1
 70
    58
 90
        2
176
     1
 90
        2
176
     1
 90
        0
176
     1
 90
        0
176
     1
 40
0.6
176
     1
 40
30.0
176
     1
 62
     7
420
 16777215
176
     1
 90
        1
176
     1
 90
        4
176
     1
 62
     7
176
     1
 62
   257
176
     1
 90
        1
176
     1
 90
        1
176
     1
 40
1.0
176
     1
 90
        8
176
     1
 62
     7
176
     1
 40
1.0
176
     1
 90
        1
176
     1
 90
        6
176
     1
 90
        2
176
     1
 62
     7
176
     1
 90
        5
176
     1
 90
        0
176
     1
 90
        0
176
     1
290
     0
176
     1
 90
        1
176
     1
 40
0.0
176
     1
 90
        0
176
     1
290
     0
176
     1
290
     1
176
     1
290
     1
176
     1
290
     0
176
     1
290
     0
176
     1
290
     0
176
     1
290
     0
176
     1
290
     0
176
     1
290
     0
176
     1
 90
       50
176
     1
 40
0.0
176
     1
 40
1.0
176
     1
 90
        0
176
     1
 62
    18
420
        0
176
     1
 90
       50
176
     1
 90
        3
176
     1
 62
     5
420
      255
176
     1
290
     0
176
     1
 90
       50
176
     1
 90
       50
176
     1
 90
       50
176
     1
290
     0
176
     1
 90
       50
176
     1
 62
   256
176
     0
 40
1.0
176
     0
 90
        2
176
     1
  1
strokes_ogs.tif
176
     1
290
     0
176
     1
 40
1.0
176
     1
 40
1.0
176
     1
  0
VISUALSTYLE
  5
2B
102
{ACAD_REACTORS
330
2A
102
}
330
2A
100
AcDbVisualStyle
  2
Flat
 70
     0
177
     3
291
     1
 70
    58
 90
        2
176
     1
 90
        1
176
     1
 90
        1
176
     1
 90
        2
176
     1
 40
0.6
176
     1
 40
30.0
176
     1
 62
     7
420
 16777215
176
     1
 90
        0
176
     1
 90
        0
176
     1
 62
     7
176
     1
 62
   257
176
     1
 90
        1
176
     1
 90
        1
176
     1
 40
1.0
176
     1
 90
        8
176
     1
 62
     7
176
     1
 40
1.0
176
     1
 90
        1
176
     1
 90
        6
176
     1
 90
        2
176
     1
 62
     7
176
     1
 90
        5
176
     1
 90
        0
176
     1
 90
        0
176
     1
290
     0
176
     1
 90
       13
176
     1
 40
0.0
176
     1
 90
        0
176
     1
290
     0
176
     1
290
     1
176
     1
290
     1
176
     1
290
     0
176
     1
290
     0
176
     1
290
     0
176
     1
290
     0
176
     1
290
     0
176
     1
290
     0
176
     1
 90
       50
176
     1
 40
0.0
176
     1
 40
1.0
176
     1
 90
        0
176
     1
 62
    18
420
        0
176
     1
 90
       50
176
     1
 90
        3
176
     1
 62
     5
420
      255
176
     1
290
     0
176
     1
 90
       50
176
     1
 90
       50
176
     1
 90
       50
176
     1
290
     0
176
     1
 90
       50
176
     1
 62
   256
176
     0
 40
1.0
176
     0
 90
        2
176
     1
  1
strokes_ogs.tif
176
     1
290
     0
176
     1
 40
1.0
176
     1
 40
1.0
176
     1
  0
VISUALSTYLE
  5
2C
102
{ACAD_REACTORS
330
2A
102
}
330
2A
100
AcDbVisualStyle
  2
FlatWithEdges
 70
     1
177
     3
291
     1
 70
    58
 90
        2
176
     1
 90
        1
176
     1
 90
        1
176
     1
 90
        2
176
     1
 40
0.6
176
     1
 40
30.0
176
     1
 62
     7
420
 16777215
176
     1
 90
        1
176
     1
 90
        0
176
     1
 62
     7
176
     1
 62
   257
176
     1
 90
        1
176
     1
 90
        1
176
     1
 40
1.0
176
     1
 90
        0
176
     1
 62
   257
176
     1
 40
1.0
176
     1
 90
        1
176
     1
 90
        6
176
     1
 90
        2
176
     1
 62
     7
176
     1
 90
        5
176
     1
 90
        0
176
     1
 90
        0
176
     1
290
     0
176
     1
 90
       13
176
     1
 40
0.0
176
     1
 90
        0
176
     1
290
     0
176
     1
290
     1
176
     1
290
     1
176
     1
290
     0
176
     1
290
     0
176
     1
290
     0
176
     1
290
     0
176
     1
290
     0
176
     1
290
     0
176
     1
 90
       50
176
     1
 40
0.0
176
     1
 40
1.0
176
     1
 90
        0
176
     1
 62
    18
420
        0
176
     1
 90
       50
176
     1
 90
        3
176
     1
 62
     5
420
      255
176
     1
290
     0
176
     1
 90
       50
176
     1
 90
       50
176
     1
 90
       50
176
     1
290
     0
176
     1
 90
       50
176
     1
 62
   256
176
     0
 40
1.0
176
     0
 90
        2
176
     1
  1
strokes_ogs.tif
176
     1
290
     0
176
     1
 40
1.0
176
     1
 40
1.0
176
     1
  0
VISUALSTYLE
  5
2D
102
{ACAD_REACTORS
330
2A
102
}
330
2A
100
AcDbVisualStyle
  2
Gouraud
 70
     2
177
     3
291
     1
 70
    58
 90
        2
176
     1
 90
        2
176
     1
 90
        1
176
     1
 90
        2
176
     1
 40
0.6
176
     1
 40
30.0
176
     1
 62
     7
420
 16777215
176
     1
 90
        0
176
     1
 90
        0
176
     1
 62
     7
176
     1
 62
   257
176
     1
 90
        1
176
     1
 90
        1
176
     1
 40
1.0
176
     1
 90
        0
176
     1
 62
     7
176
     1
 40
1.0
176
     1
 90
        1
176
     1
 90
        6
176
     1
 90
        2
176
     1
 62
     7
176
     1
 90
        5
176
     1
 90
        0
176
     1
 90
        0
176
     1
290
     0
176
     1
 90
       13
176
     1
 40
0.0
176
     1
 90
        0
176
     1
290
     0
176
     1
290
     1
176
     1
290
     1
176
     1
290
     0
176
     1
290
     0
176
     1
290
     0
176
     1
290
     0
176
     1
290
     0
176
     1
290
     0
176
     1
 90
       50
176
     1
 40
0.0
176
     1
 40
1.0
176
     1
 90
        0
176
     1
 62
    18
420
        0
176
     1
 90
       50
176
     1
 90
        3
176
     1
 62
     5
420
      255
176
     1
290
     0
176
     1
 90
       50
176
     1
 90
       50
176
     1
 90
       50
176
     1
290
     0
176
     1
 90
       50
176
     1
 62
   256
176
     0
 40
1.0
176
     0
 90
        2
176
     1
  1
strokes_ogs.tif
176
     1
290
     0
176
     1
 40
1.0
176
     1
 40
1.0
176
     1
  0
VISUALSTYLE
  5
2E
102
{ACAD_REACTORS
330
2A
102
}
330
2A
100
AcDbVisualStyle
  2
GouraudWithEdges
 70
     3
177
     3
291
     1
 70
    58
 90
        2
176
     1
 90
        2
176
     1
 90
        1
176
     1
 90
        2
176
     1
 40
0.6
176
     1
 40
30.0
176
     1
 62
     7
420
 16777215
176
     1
 90
        1
176
     1
 90
        0
176
     1
 62
     7
176
     1
 62
   257
176
     1
 90
        1
176
     1
 90
        1
176
     1
 40
1.0
176
     1
 90
        0
176
     1
 62
   257
176
     1
 40
1.0
176
     1
 90
        1
176
     1
 90
        6
176
     1
 90
        2
176
     1
 62
     7
176
     1
 90
        5
176
     1
 90
        0
176
     1
 90
        0
176
     1
290
     0
176
     1
 90
       13
176
     1
 40
0.0
176
     1
 90
        0
176
     1
290
     0
176
     1
290
     1
176
     1
290
     1
176
     1
290
     0
176
     1
290
     0
176
     1
290
     0
176
     1
290
     0
176
     1
290
     0
176
     1
290
     0
176
     1
 90
       50
176
     1
 40
0.0
176
     1
 40
1.0
176
     1
 90
        0
176
     1
 62
    18
420
        0
176
     1
 90
       50
176
     1
 90
        3
176
     1
 62
     5
420
      255
176
     1
290
     0
176
     1
 90
       50
176
     1
 90
       50
176
     1
 90
       50
176
     1
290
     0
176
     1
 90
       50
176
     1
 62
   256
176
     0
 40
1.0
176
     0
 90
        2
176
     1
  1
strokes_ogs.tif
176
     1
290
     0
176
     1
 40
1.0
176
     1
 40
1.0
176
     1
  0
VISUALSTYLE
  5
31
102
{ACAD_REACTORS
330
2A
102
}
330
2A
100
AcDbVisualStyle
  2
Hidden
 70
     6
177
     3
291
     0
 70
    58
 90
        1
176
     1
 90
        2
176
     1
 90
        2
176
     1
 90
        0
176
     1
 40
0.6
176
     1
 40
30.0
176
     1
 62
     7
420
 16777215
176
     1
 90
        2
176
     1
 90
        2
176
     1
 62
     7
176
     1
 62
   257
176
     1
 90
        2
176
     1
 90
        1
176
     1
 40
40.0
176
     1
 90
        0
176
     1
 62
   257
176
     1
 40
1.0
176
     1
 90
        1
176
     1
 90
        6
176
     1
 90
        2
176
     1
 62
     7
176
     1
 90
        3
176
     1
 90
        0
176
     1
 90
        0
176
     1
290
     0
176
     1
 90
        1
176
     1
 40
0.0
176
     1
 90
        0
176
     1
290
     0
176
     1
290
     1
176
     1
290
     1
176
     1
290
     0
176
     1
290
     0
176
     1
290
     0
176
     1
290
     0
176
     1
290
     0
176
     1
290
     0
176
     1
 90
       50
176
     1
 40
0.0
176
     1
 40
1.0
176
     1
 90
        0
176
     1
 62
    18
420
        0
176
     1
 90
       50
176
     1
 90
        3
176
     1
 62
     5
420
      255
176
     1
290
     0
176
     1
 90
       50
176
     1
 90
       50
176
     1
 90
       50
176
     1
290
     0
176
     1
 90
       50
176
     1
 62
   256
176
     0
 40
1.0
176
     0
 90
        2
176
     1
  1
strokes_ogs.tif
176
     1
290
     0
176
     1
 40
1.0
176
     1
 40
1.0
176
     1
  0
VISUALSTYLE
  5
3B
102
{ACAD_REACTORS
330
2A
102
}
330
2A
100
AcDbVisualStyle
  2
JitterOff
 70
    20
177
     3
291
     1
 70
    58
 90
        2
176
     0
 90
        2
176
     0
 90
        0
176
     0
 90
        0
176
     0
 40
0.6
176
     0
 40
30.0
176
     0
 62
     7
420
 16777215
176
     0
 90
        1
176
     0
 90
        4
176
     0
 62
     7
176
     0
 62
   257
176
     0
 90
        1
176
     0
 90
        1
176
     0
 40
1.0
176
     0
 90
       10
176
     2
 62
     7
176
     0
 40
1.0
176
     0
 90
        1
176
     0
 90
        6
176
     0
 90
        2
176
     0
 62
     7
176
     0
 90
        5
176
     0
 90
        0
176
     0
 90
        0
176
     0
290
     0
176
     0
 90
        1
176
     0
 40
0.0
176
     0
 90
        0
176
     0
290
     0
176
     0
290
     1
176
     0
290
     1
176
     0
290
     0
176
     0
290
     0
176
     0
290
     0
176
     0
290
     0
176
     0
290
     0
176
     0
290
     0
176
     0
 90
       50
176
     0
 40
0.0
176
     0
 40
1.0
176
     0
 90
        0
176
     0
 62
    18
420
        0
176
     0
 90
       50
176
     0
 90
        3
176
     0
 62
     5
420
      255
176
     0
290
     0
176
     0
 90
       50
176
     0
 90
       50
176
     0
 90
       50
176
     0
290
     0
176
     0
 90
       50
176
     0
 62
   256
176
     0
 40
1.0
176
     0
 90
        2
176
     0
  1
strokes_ogs.tif
176
     0
290
     0
176
     0
 40
1.0
176
     0
 40
1.0
176
     0
  0
VISUALSTYLE
  5
38
102
{ACAD_REACTORS
330
2A
102
}
330
2A
100
AcDbVisualStyle
  2
Linepattern
 70
    14
177
     3
291
     1
 70
    58
 90
        2
176
     1
 90
        2
176
     1
 90
        0
176
     1
 90
        0
176
     1
 40
0.6
176
     1
 40
30.0
176
     1
 62
     7
420
 16777215
176
     1
 90
        1
176
     1
 90
        4
176
     1
 62
     7
176
     1
 62
   257
176
     1
 90
        7
176
     1
 90
        7
176
     1
 40
1.0
176
     1
 90
        8
176
     1
 62
     7
176
     1
 40
1.0
176
     1
 90
        1
176
     1
 90
        6
176
     1
 90
        2
176
     1
 62
     7
176
     1
 90
        5
176
     1
 90
        0
176
     1
 90
        0
176
     1
290
     0
176
     1
 90
        1
176
     1
 40
0.0
176
     1
 90
        0
176
     1
290
     0
176
     1
290
     1
176
     1
290
     1
176
     1
290
     0
176
     1
290
     0
176
     1
290
     0
176
     1
290
     0
176
     1
290
     0
176
     1
290
     0
176
     1
 90
       50
176
     1
 40
0.0
176
     1
 40
1.0
176
     1
 90
        0
176
     1
 62
    18
420
        0
176
     1
 90
       50
176
     1
 90
        3
176
     1
 62
     5
420
      255
176
     1
290
     0
176
     1
 90
       50
176
     1
 90
       50
176
     1
 90
       50
176
     1
290
     0
176
     1
 90
       50
176
     1
 62
   256
176
     0
 40
1.0
176
     0
 90
        2
176
     1
  1
strokes_ogs.tif
176
     1
290
     0
176
     1
 40
1.0
176
     1
 40
1.0
176
     1
  0
VISUALSTYLE
  5
3C
102
{ACAD_REACTORS
330
2A
102
}
330
2A
100
AcDbVisualStyle
  2
OverhangOff
 70
    21
177
     3
291
     1
 70
    58
 90
        2
176
     0
 90
        2
176
     0
 90
        0
176
     0
 90
        0
176
     0
 40
0.6
176
     0
 40
30.0
176
     0
 62
     7
420
 16777215
176
     0
 90
        1
176
     0
 90
        4
176
     0
 62
     7
176
     0
 62
   257
176
     0
 90
        1
176
     0
 90
        1
176
     0
 40
1.0
176
     0
 90
        9
176
     2
 62
     7
176
     0
 40
1.0
176
     0
 90
        1
176
     0
 90
        6
176
     0
 90
        2
176
     0
 62
     7
176
     0
 90
        5
176
     0
 90
        0
176
     0
 90
        0
176
     0
290
     0
176
     0
 90
        1
176
     0
 40
0.0
176
     0
 90
        0
176
     0
290
     0
176
     0
290
     1
176
     0
290
     1
176
     0
290
     0
176
     0
290
     0
176
     0
290
     0
176
     0
290
     0
176
     0
290
     0
176
     0
290
     0
176
     0
 90
       50
176
     0
 40
0.0
176
     0
 40
1.0
176
     0
 90
        0
176
     0
 62
    18
420
        0
176
     0
 90
       50
176
     0
 90
        3
176
     0
 62
     5
420
      255
176
     0
290
     0
176
     0
 90
       50
176
     0
 90
       50
176
     0
 90
       50
176
     0
290
     0
176
     0
 90
       50
176
     0
 62
   256
176
     0
 40
1.0
176
     0
 90
        2
176
     0
  1
strokes_ogs.tif
176
     0
290
     0
176
     0
 40
1.0
176
     0
 40
1.0
176
     0
  0
VISUALSTYLE
  5
33
102
{ACAD_REACTORS
330
2A
102
}
330
2A
100
AcDbVisualStyle
  2
Realistic
 70
     8
177
     3
291
     0
 70
    58
 90
        2
176
     1
 90
        3
176
     1
 90
        0
176
     1
 90
        2
176
     1
 40
0.6
176
     1
 40
30.0
176
     1
 62
     7
420
 16777215
176
     1
 90
        0
176
     1
 90
        0
176
     1
 62
     7
176
     1
 62
   257
176
     1
 90
        1
176
     1
 90
        1
176
     1
 40
1.0
176
     1
 90
        8
176
     1
 62
   257
176
     1
 40
1.0
176
     1
 90
        1
176
     1
 90
        6
176
     1
 90
        2
176
     1
 62
     7
176
     1
 90
        3
176
     1
 90
        0
176
     1
 90
        0
176
     1
290
     0
176
     1
 90
       13
176
     1
 40
0.0
176
     1
 90
        0
176
     1
290
     0
176
     1
290
     1
176
     1
290
     1
176
     1
290
     0
176
     1
290
     0
176
     1
290
     0
176
     1
290
     0
176
     1
290
     0
176
     1
290
     0
176
     1
 90
       50
176
     1
 40
0.0
176
     1
 40
1.0
176
     1
 90
        0
176
     1
 62
    18
420
        0
176
     1
 90
       50
176
     1
 90
        3
176
     1
 62
     5
420
      255
176
     1
290
     0
176
     1
 90
       50
176
     1
 90
       50
176
     1
 90
       50
176
     1
290
     0
176
     1
 90
       50
176
     1
 62
   256
176
     0
 40
1.0
176
     0
 90
        2
176
     1
  1
strokes_ogs.tif
176
     1
290
     0
176
     1
 40
1.0
176
     1
 40
1.0
176
     1
  0
VISUALSTYLE
  5
42
102
{ACAD_REACTORS
330
2A
102
}
330
2A
100
AcDbVisualStyle
  2
Shaded
 70
    27
177
     3
291
     0
 70
    58
 90
        2
176
     1
 90
        2
176
     1
 90
        1
176
     1
 90
        2
176
     1
 40
0.6
176
     1
 40
30.0
176
     1
 62
     7
420
 16777215
176
     1
 90
        0
176
     1
 90
        4
176
     1
 62
     7
176
     1
 62
   257
176
     1
 90
        1
176
     1
 90
        1
176
     1
 40
1.0
176
     1
 90
        8
176
     1
 62
   257
176
     1
 40
1.0
176
     1
 90
        1
176
     1
 90
        6
176
     1
 90
        2
176
     1
 62
     8
420
  7895160
176
     1
 90
        3
176
     1
 90
        0
176
     1
 90
        0
176
     1
290
     0
176
     1
 90
        5
176
     1
 40
0.0
176
     1
 90
        0
176
     1
290
     0
176
     1
290
     1
176
     1
290
     1
176
     1
290
     0
176
     1
290
     0
176
     1
290
     0
176
     1
290
     0
176
     1
290
     0
176
     1
290
     0
176
     1
 90
       50
176
     1
 40
0.0
176
     1
 40
1.0
176
     1
 90
        0
176
     1
 62
    18
420
        0
176
     1
 90
       50
176
     1
 90
        3
176
     1
 62
     5
420
      255
176
     1
290
     0
176
     1
 90
       50
176
     1
 90
       50
176
     1
 90
       50
176
     1
290
     0
176
     1
 90
       50
176
     1
 62
   256
176
     0
 40
1.0
176
     0
 90
        2
176
     1
  1
strokes_ogs.tif
176
     1
290
     0
176
     1
 40
1.0
176
     1
 40
1.0
176
     1
  0
VISUALSTYLE
  5
41
102
{ACAD_REACTORS
330
2A
102
}
330
2A
100
AcDbVisualStyle
  2
Shaded with edges
 70
    26
177
     3
291
     0
 70
    58
 90
        2
176
     1
 90
        2
176
     1
 90
        1
176
     1
 90
        2
176
     1
 40
0.6
176
     1
 40
30.0
176
     1
 62
     7
420
 16777215
176
     1
 90
        1
176
     1
 90
       10
176
     1
 62
     7
176
     1
 62
   257
176
     1
 90
        2
176
     1
 90
        1
176
     1
 40
1.0
176
     1
 90
        8
176
     1
 62
   257
176
     1
 40
1.0
176
     1
 90
        1
176
     1
 90
        6
176
     1
 90
        2
176
     1
 62
     7
176
     1
 90
        3
176
     1
 90
        0
176
     1
 90
        0
176
     1
290
     0
176
     1
 90
        5
176
     1
 40
0.0
176
     1
 90
        0
176
     1
290
     0
176
     1
290
     1
176
     1
290
     1
176
     1
290
     0
176
     1
290
     0
176
     1
290
     0
176
     1
290
     0
176
     1
290
     0
176
     1
290
     0
176
     1
 90
       50
176
     1
 40
0.0
176
     1
 40
1.0
176
     1
 90
        0
176
     1
 62
    18
420
        0
176
     1
 90
       50
176
     1
 90
        3
176
     1
 62
     5
420
      255
176
     1
290
     0
176
     1
 90
       50
176
     1
 90
       50
176
     1
 90
       50
176
     1
290
     0
176
     1
 90
       50
176
     1
 62
   256
176
     0
 40
1.0
176
     0
 90
        2
176
     1
  1
strokes_ogs.tif
176
     1
290
     0
176
     1
 40
1.0
176
     1
 40
1.0
176
     1
  0
VISUALSTYLE
  5
3E
102
{ACAD_REACTORS
330
2A
102
}
330
2A
100
AcDbVisualStyle
  2
Shades of Gray
 70
    23
177
     3
291
     0
 70
    58
 90
        2
176
     1
 90
        2
176
     1
 90
        3
176
     1
 90
        0
176
     1
 40
0.6
176
     1
 40
30.0
176
     1
 62
     7
420
 16777215
176
     1
 90
        2
176
     1
 90
        2
176
     1
 62
     7
176
     1
 62
     7
176
     1
 90
        1
176
     1
 90
        1
176
     1
 40
40.0
176
     1
 90
        8
176
     1
 62
     7
176
     1
 40
1.0
176
     1
 90
        1
176
     1
 90
        6
176
     1
 90
        2
176
     1
 62
     7
176
     1
 90
        3
176
     1
 90
        0
176
     1
 90
        0
176
     1
290
     0
176
     1
 90
        1
176
     1
 40
0.0
176
     1
 90
        0
176
     1
290
     0
176
     1
290
     1
176
     1
290
     1
176
     1
290
     0
176
     1
290
     0
176
     1
290
     0
176
     1
290
     0
176
     1
290
     0
176
     1
290
     0
176
     1
 90
       50
176
     1
 40
0.0
176
     1
 40
1.0
176
     1
 90
        0
176
     1
 62
    18
420
        0
176
     1
 90
       50
176
     1
 90
        3
176
     1
 62
     5
420
      255
176
     1
290
     0
176
     1
 90
       50
176
     1
 90
       50
176
     1
 90
       50
176
     1
290
     0
176
     1
 90
       50
176
     1
 62
   256
176
     0
 40
1.0
176
     0
 90
        2
176
     1
  1
strokes_ogs.tif
176
     1
290
     0
176
     1
 40
1.0
176
     1
 40
1.0
176
     1
  0
VISUALSTYLE
  5
3F
102
{ACAD_REACTORS
330
2A
102
}
330
2A
100
AcDbVisualStyle
  2
Sketchy
 70
    24
177
     3
291
     0
 70
    58
 90
        1
176
     1
 90
        2
176
     1
 90
        2
176
     1
 90
        0
176
     1
 40
0.6
176
     1
 40
30.0
176
     1
 62
     7
420
 16777215
176
     1
 90
        2
176
     1
 90
        2
176
     1
 62
     7
176
     1
 62
     7
176
     1
 90
        1
176
     1
 90
        1
176
     1
 40
40.0
176
     1
 90
       11
176
     1
 62
     7
176
     1
 40
1.0
176
     1
 90
        1
176
     1
 90
        6
176
     1
 90
        2
176
     1
 62
     7
176
     1
 90
        6
176
     1
 90
        0
176
     1
 90
        0
176
     1
290
     0
176
     1
 90
        1
176
     1
 40
0.0
176
     1
 90
        0
176
     1
290
     0
176
     1
290
     1
176
     1
290
     1
176
     1
290
     0
176
     1
290
     0
176
     1
290
     0
176
     1
290
     0
176
     1
290
     0
176
     1
290
     0
176
     1
 90
       50
176
     1
 40
0.0
176
     1
 40
1.0
176
     1
 90
        0
176
     1
 62
    18
420
        0
176
     1
 90
       50
176
     1
 90
        3
176
     1
 62
     5
420
      255
176
     1
290
     0
176
     1
 90
       50
176
     1
 90
       50
176
     1
 90
       50
176
     1
290
     0
176
     1
 90
       50
176
     1
 62
   256
176
     0
 40
1.0
176
     0
 90
        2
176
     1
  1
strokes_ogs.tif
176
     1
290
     0
176
     1
 40
1.0
176
     1
 40
1.0
176
     1
  0
VISUALSTYLE
  5
37
102
{ACAD_REACTORS
330
2A
102
}
330
2A
100
AcDbVisualStyle
  2
Thicken
 70
    13
177
     3
291
     1
 70
    58
 90
        2
176
     1
 90
        2
176
     1
 90
        0
176
     1
 90
        0
176
     1
 40
0.6
176
     1
 40
30.0
176
     1
 62
     7
420
 16777215
176
     1
 90
        1
176
     1
 90
        4
176
     1
 62
     7
176
     1
 62
   257
176
     1
 90
        1
176
     1
 90
        1
176
     1
 40
1.0
176
     1
 90
       12
176
     1
 62
     7
176
     1
 40
1.0
176
     1
 90
        1
176
     1
 90
        6
176
     1
 90
        2
176
     1
 62
     7
176
     1
 90
        5
176
     1
 90
        0
176
     1
 90
        0
176
     1
290
     0
176
     1
 90
        1
176
     1
 40
0.0
176
     1
 90
        0
176
     1
290
     0
176
     1
290
     1
176
     1
290
     1
176
     1
290
     0
176
     1
290
     0
176
     1
290
     0
176
     1
290
     0
176
     1
290
     0
176
     1
290
     0
176
     1
 90
       50
176
     1
 40
0.0
176
     1
 40
1.0
176
     1
 90
        0
176
     1
 62
    18
420
        0
176
     1
 90
       50
176
     1
 90
        3
176
     1
 62
     5
420
      255
176
     1
290
     0
176
     1
 90
       50
176
     1
 90
       50
176
     1
 90
       50
176
     1
290
     0
176
     1
 90
       50
176
     1
 62
   256
176
     0
 40
1.0
176
     0
 90
        2
176
     1
  1
strokes_ogs.tif
176
     1
290
     0
176
     1
 40
1.0
176
     1
 40
1.0
176
     1
  0
VISUALSTYLE
  5
30
102
{ACAD_REACTORS
330
2A
102
}
330
2A
100
AcDbVisualStyle
  2
Wireframe
 70
     5
177
     3
291
     0
 70
    58
 90
        0
176
     1
 90
        2
176
     1
 90
        0
176
     1
 90
        0
176
     1
 40
0.6
176
     1
 40
30.0
176
     1
 62
     7
420
 16777215
176
     1
 90
        1
176
     1
 90
        4
176
     1
 62
     7
176
     1
 62
   257
176
     1
 90
        1
176
     1
 90
        1
176
     1
 40
1.0
176
     1
 90
        0
176
     1
 62
   257
176
     1
 40
1.0
176
     1
 90
        1
176
     1
 90
        6
176
     1
 90
        2
176
     1
 62
     7
176
     1
 90
        3
176
     1
 90
        0
176
     1
 90
        0
176
     1
290
     0
176
     1
 90
        1
176
     1
 40
0.0
176
     1
 90
        0
176
     1
290
     0
176
     1
290
     1
176
     1
290
     1
176
     1
290
     0
176
     1
290
     0
176
     1
290
     0
176
     1
290
     0
176
     1
290
     0
176
     1
290
     0
176
     1
 90
       50
176
     1
 40
0.0
176
     1
 40
1.0
176
     1
 90
        0
176
     1
 62
    18
420
        0
176
     1
 90
       50
176
     1
 90
        3
176
     1
 62
     5
420
      255
176
     1
290
     0
176
     1
 90
       50
176
     1
 90
       50
176
     1
 90
       50
176
     1
290
     0
176
     1
 90
       50
176
     1
 62
   256
176
     0
 40
1.0
176
     0
 90
        2
176
     1
  1
strokes_ogs.tif
176
     1
290
     0
176
     1
 40
1.0
176
     1
 40
1.0
176
     1
  0
VISUALSTYLE
  5
40
102
{ACAD_REACTORS
330
2A
102
}
330
2A
100
AcDbVisualStyle
  2
X-Ray
 70
    25
177
     3
291
     0
 70
    58
 90
        2
176
     1
 90
        2
176
     1
 90
        1
176
     1
 90
        1
176
     1
 40
0.5
176
     1
 40
30.0
176
     1
 62
     7
420
 16777215
176
     1
 90
        1
176
     1
 90
        0
176
     1
 62
     7
176
     1
 62
   257
176
     1
 90
        1
176
     1
 90
        1
176
     1
 40
1.0
176
     1
 90
        8
176
     1
 62
     7
176
     1
 40
1.0
176
     1
 90
        1
176
     1
 90
        6
176
     1
 90
        2
176
     1
 62
     7
176
     1
 90
        3
176
     1
 90
        0
176
     1
 90
        0
176
     1
290
     0
176
     1
 90
       13
176
     1
 40
0.0
176
     1
 90
        0
176
     1
290
     0
176
     1
290
     1
176
     1
290
     1
176
     1
290
     0
176
     1
290
     0
176
     1
290
     0
176
     1
290
     0
176
     1
290
     0
176
     1
290
     0
176
     1
 90
       50
176
     1
 40
0.0
176
     1
 40
1.0
176
     1
 90
        0
176
     1
 62
    18
420
        0
176
     1
 90
       50
176
     1
 90
        3
176
     1
 62
     5
420
      255
176
     1
290
     0
176
     1
 90
       50
176
     1
 90
       50
176
     1
 90
       50
176
     1
290
     0
176
     1
 90
       50
176
     1
 62
   256
176
     0
 40
1.0
176
     0
 90
        2
176
     1
  1
strokes_ogs.tif
176
     1
290
     0
176
     1
 40
1.0
176
     1
 40
1.0
176
     1
  0
DICTIONARYVAR
  5
4FC
102
{ACAD_REACTORS
330
4FB
102
}
330
4FB
100
DictionaryVariables
280
     0
  1
1:1
  0
DICTIONARYVAR
  5
504
102
{ACAD_REACTORS
330
4FB
102
}
330
4FB
100
DictionaryVariables
280
     0
  1
3.500000
  0
DICTIONARYVAR
  5
505
102
{ACAD_REACTORS
330
4FB
102
}
330
4FB
100
DictionaryVariables
280
     0
  1
acadiso.lin
  0
DICTIONARYVAR
  5
501
102
{ACAD_REACTORS
330
4FB
102
}
330
4FB
100
DictionaryVariables
280
     0
  1
Standard
  0
DICTIONARYVAR
  5
500
102
{ACAD_REACTORS
330
4FB
102
}
330
4FB
100
DictionaryVariables
280
     0
  1
Standard
  0
DICTIONARY
  5
4FD
330
6A
100
AcDbDictionary
280
     1
281
     1
  3
ACAD_ROUNDTRIP_2008_TABLESTYLE_CELLSTYLEMAP
360
4FE
  0
CELLSTYLEMAP
  5
4FE
102
{ACAD_REACTORS
330
4FD
102
}
330
4FD
100
AcDbCellStyleMap
 90
        3
300
CELLSTYLE
  1
TABLEFORMAT_BEGIN
 90
        5
170
     1
 91
        0
 92
    32768
 62
   257
 93
        1
300
CONTENTFORMAT
  1
CONTENTFORMAT_BEGIN
 90
        0
 91
        0
 92
        4
 93
        0
300

 40
0.0
140
1.0
 94
        5
 62
     0
340
11
144
6.0
309
CONTENTFORMAT_END
171
     1
301
MARGIN
  1
CELLMARGIN_BEGIN
 40
1.5
 40
1.5
 40
1.5
 40
1.5
 40
1.5
 40
1.5
309
CELLMARGIN_END
 94
        6
 95
        1
302
GRIDFORMAT
  1
GRIDFORMAT_BEGIN
 90
        0
 91
        1
 62
     0
 92
       -2
340
14
 93
        0
 40
0.045
309
GRIDFORMAT_END
 95
        2
302
GRIDFORMAT
  1
GRIDFORMAT_BEGIN
 90
        0
 91
        1
 62
     0
 92
       -2
340
14
 93
        0
 40
0.045
309
GRIDFORMAT_END
 95
        4
302
GRIDFORMAT
  1
GRIDFORMAT_BEGIN
 90
        0
 91
        1
 62
     0
 92
       -2
340
14
 93
        0
 40
0.045
309
GRIDFORMAT_END
 95
        8
302
GRIDFORMAT
  1
GRIDFORMAT_BEGIN
 90
        0
 91
        1
 62
     0
 92
       -2
340
14
 93
        0
 40
0.045
309
GRIDFORMAT_END
 95
       16
302
GRIDFORMAT
  1
GRIDFORMAT_BEGIN
 90
        0
 91
        1
 62
     0
 92
       -2
340
14
 93
        0
 40
0.045
309
GRIDFORMAT_END
 95
       32
302
GRIDFORMAT
  1
GRIDFORMAT_BEGIN
 90
        0
 91
        1
 62
     0
 92
       -2
340
14
 93
        0
 40
0.045
309
GRIDFORMAT_END
309
TABLEFORMAT_END
  1
CELLSTYLE_BEGIN
 90
        1
 91
        1
300
_TITLE
309
CELLSTYLE_END
300
CELLSTYLE
  1
TABLEFORMAT_BEGIN
 90
        5
170
     1
 91
        0
 92
        0
 62
   257
 93
        1
300
CONTENTFORMAT
  1
CONTENTFORMAT_BEGIN
 90
        0
 91
        0
 92
        4
 93
        0
300

 40
0.0
140
1.0
 94
        5
 62
     0
340
11
144
4.5
309
CONTENTFORMAT_END
171
     1
301
MARGIN
  1
CELLMARGIN_BEGIN
 40
1.5
 40
1.5
 40
1.5
 40
1.5
 40
1.5
 40
1.5
309
CELLMARGIN_END
 94
        6
 95
        1
302
GRIDFORMAT
  1
GRIDFORMAT_BEGIN
 90
        0
 91
        1
 62
     0
 92
       -2
340
14
 93
        0
 40
0.045
309
GRIDFORMAT_END
 95
        2
302
GRIDFORMAT
  1
GRIDFORMAT_BEGIN
 90
        0
 91
        1
 62
     0
 92
       -2
340
14
 93
        0
 40
0.045
309
GRIDFORMAT_END
 95
        4
302
GRIDFORMAT
  1
GRIDFORMAT_BEGIN
 90
        0
 91
        1
 62
     0
 92
       -2
340
14
 93
        0
 40
0.045
309
GRIDFORMAT_END
 95
        8
302
GRIDFORMAT
  1
GRIDFORMAT_BEGIN
 90
        0
 91
        1
 62
     0
 92
       -2
340
14
 93
        0
 40
0.045
309
GRIDFORMAT_END
 95
       16
302
GRIDFORMAT
  1
GRIDFORMAT_BEGIN
 90
        0
 91
        1
 62
     0
 92
       -2
340
14
 93
        0
 40
0.045
309
GRIDFORMAT_END
 95
       32
302
GRIDFORMAT
  1
GRIDFORMAT_BEGIN
 90
        0
 91
        1
 62
     0
 92
       -2
340
14
 93
        0
 40
0.045
309
GRIDFORMAT_END
309
TABLEFORMAT_END
  1
CELLSTYLE_BEGIN
 90
        2
 91
        1
300
_HEADER
309
CELLSTYLE_END
300
CELLSTYLE
  1
TABLEFORMAT_BEGIN
 90
        5
170
     1
 91
        0
 92
        0
 62
   257
 93
        1
300
CONTENTFORMAT
  1
CONTENTFORMAT_BEGIN
 90
        0
 91
        0
 92
        4
 93
        0
300

 40
0.0
140
1.0
 94
        2
 62
     0
340
11
144
4.5
309
CONTENTFORMAT_END
171
     1
301
MARGIN
  1
CELLMARGIN_BEGIN
 40
1.5
 40
1.5
 40
1.5
 40
1.5
 40
1.5
 40
1.5
309
CELLMARGIN_END
 94
        6
 95
        1
302
GRIDFORMAT
  1
GRIDFORMAT_BEGIN
 90
        0
 91
        1
 62
     0
 92
       -2
340
14
 93
        0
 40
0.045
309
GRIDFORMAT_END
 95
        2
302
GRIDFORMAT
  1
GRIDFORMAT_BEGIN
 90
        0
 91
        1
 62
     0
 92
       -2
340
14
 93
        0
 40
0.045
309
GRIDFORMAT_END
 95
        4
302
GRIDFORMAT
  1
GRIDFORMAT_BEGIN
 90
        0
 91
        1
 62
     0
 92
       -2
340
14
 93
        0
 40
0.045
309
GRIDFORMAT_END
 95
        8
302
GRIDFORMAT
  1
GRIDFORMAT_BEGIN
 90
        0
 91
        1
 62
     0
 92
       -2
340
14
 93
        0
 40
0.045
309
GRIDFORMAT_END
 95
       16
302
GRIDFORMAT
  1
GRIDFORMAT_BEGIN
 90
        0
 91
        1
 62
     0
 92
       -2
340
14
 93
        0
 40
0.045
309
GRIDFORMAT_END
 95
       32
302
GRIDFORMAT
  1
GRIDFORMAT_BEGIN
 90
        0
 91
        1
 62
     0
 92
       -2
340
14
 93
        0
 40
0.045
309
GRIDFORMAT_END
309
TABLEFORMAT_END
  1
CELLSTYLE_BEGIN
 90
        3
 91
        2
300
_DATA
309
CELLSTYLE_END
  0
ENDSEC
  0
EOF
