  0
SECTION
  2
HEADER
  9
$ACADVER
  1
AC1021
  9
$ACADMAINTVER
 70
    25
  9
$DWGCODEPAGE
  3
ANSI_932
  9
$INSBASE
 10
0.0
 20
0.0
 30
0.0
  9
$EXTMIN
 10
-1188.0
 20
-840.0
 30
0.0
  9
$EXTMAX
 10
1188.0
 20
840.0
 30
0.0
  9
$LIMMIN
 10
-1188.0
 20
-840.0
  9
$LIMMAX
 10
1188.0
 20
840.0
  9
$ORTHOMODE
 70
     0
  9
$REGENMODE
 70
     1
  9
$FILLMODE
 70
     1
  9
$QTEXTMODE
 70
     0
  9
$MIRRTEXT
 70
     1
  9
$LTSCALE
 40
4.0
  9
$ATTMODE
 70
     1
  9
$TEXTSIZE
 40
2.5
  9
$TRACEWID
 40
1.0
  9
$TEXTSTYLE
  7
Standard
  9
$CLAYER
  8
0
  9
$CELTYPE
  6
ByLayer
  9
$CECOLOR
 62
   256
  9
$CELTSCALE
 40
1.0
  9
$DISPSILH
 70
     0
  9
$DIMSCALE
 40
1.0
  9
$DIMASZ
 40
2.5
  9
$DIMEXO
 40
0.625
  9
$DIMDLI
 40
3.75
  9
$DIMRND
 40
0.0
  9
$DIMDLE
 40
0.0
  9
$DIMEXE
 40
1.25
  9
$DIMTP
 40
0.0
  9
$DIMTM
 40
0.0
  9
$DIMTXT
 40
2.5
  9
$DIMCEN
 40
2.5
  9
$DIMTSZ
 40
0.0
  9
$DIMTOL
 70
     0
  9
$DIMLIM
 70
     0
  9
$DIMTIH
 70
     0
  9
$DIMTOH
 70
     0
  9
$DIMSE1
 70
     0
  9
$DIMSE2
 70
     0
  9
$DIMTAD
 70
     1
  9
$DIMZIN
 70
     8
  9
$DIMBLK
  1

  9
$DIMASO
 70
     1
  9
$DIMSHO
 70
     1
  9
$DIMPOST
  1

  9
$DIMAPOST
  1

  9
$DIMALT
 70
     0
  9
$DIMALTD
 70
     3
  9
$DIMALTF
 40
0.03937007874016
  9
$DIMLFAC
 40
1.0
  9
$DIMTOFL
 70
     1
  9
$DIMTVP
 40
0.0
  9
$DIMTIX
 70
     0
  9
$DIMSOXD
 70
     0
  9
$DIMSAH
 70
     0
  9
$DIMBLK1
  1

  9
$DIMBLK2
  1

  9
$DIMSTYLE
  2
ISO-25
  9
$DIMCLRD
 70
     0
  9
$DIMCLRE
 70
     0
  9
$DIMCLRT
 70
     0
  9
$DIMTFAC
 40
1.0
  9
$DIMGAP
 40
0.625
  9
$DIMJUST
 70
     0
  9
$DIMSD1
 70
     0
  9
$DIMSD2
 70
     0
  9
$DIMTOLJ
 70
     0
  9
$DIMTZIN
 70
     8
  9
$DIMALTZ
 70
     0
  9
$DIMALTTZ
 70
     0
  9
$DIMUPT
 70
     0
  9
$DIMDEC
 70
     2
  9
$DIMTDEC
 70
     2
  9
$DIMALTU
 70
     2
  9
$DIMALTTD
 70
     3
  9
$DIMTXSTY
  7
Standard
  9
$DIMAUNIT
 70
     0
  9
$DIMADEC
 70
     0
  9
$DIMALTRND
 40
0.0
  9
$DIMAZIN
 70
     0
  9
$DIMDSEP
 70
    44
  9
$DIMATFIT
 70
     3
  9
$DIMFRAC
 70
     0
  9
$DIMLDRBLK
  1

  9
$DIMLUNIT
 70
     2
  9
$DIMLWD
 70
    -2
  9
$DIMLWE
 70
    -2
  9
$DIMTMOVE
 70
     0
  9
$DIMFXL
 40
1.0
  9
$DIMFXLON
 70
     0
  9
$DIMJOGANG
 40
0.7853981633974483
  9
$DIMTFILL
 70
     0
  9
$DIMTFILLCLR
 70
     0
  9
$DIMARCSYM
 70
     0
  9
$DIMLTYPE
  6

  9
$DIMLTEX1
  6

  9
$DIMLTEX2
  6

  9
$LUNITS
 70
     2
  9
$LUPREC
 70
     4
  9
$SKETCHINC
 40
1.0
  9
$FILLETRAD
 40
10.0
  9
$AUNITS
 70
     0
  9
$AUPREC
 70
     0
  9
$MENU
  1
.
  9
$ELEVATION
 40
0.0
  9
$PELEVATION
 40
0.0
  9
$THICKNESS
 40
0.0
  9
$LIMCHECK
 70
     0
  9
$CHAMFERA
 40
10.0
  9
$CHAMFERB
 40
10.0
  9
$CHAMFERC
 40
20.0
  9
$CHAMFERD
 40
0.0
  9
$SKPOLY
 70
     0
  9
$TDCREATE
 40
2457722.424281018
  9
$TDUCREATE
 40
2457722.049281018
  9
$TDUPDATE
 40
2457722.42428103
  9
$TDUUPDATE
 40
2457722.04928103
  9
$TDINDWG
 40
0.0000000116
  9
$TDUSRTIMER
 40
0.0000000116
  9
$USRTIMER
 70
     1
  9
$ANGBASE
 50
0.0
  9
$ANGDIR
 70
     0
  9
$PDMODE
 70
     0
  9
$PDSIZE
 40
0.0
  9
$PLINEWID
 40
0.0
  9
$SPLFRAME
 70
     0
  9
$SPLINETYPE
 70
     6
  9
$SPLINESEGS
 70
     8
  9
$HANDSEED
  5
218
  9
$SURFTAB1
 70
     6
  9
$SURFTAB2
 70
     6
  9
$SURFTYPE
 70
     6
  9
$SURFU
 70
     6
  9
$SURFV
 70
     6
  9
$UCSBASE
  2

  9
$UCSNAME
  2

  9
$UCSORG
 10
0.0
 20
0.0
 30
0.0
  9
$UCSXDIR
 10
1.0
 20
0.0
 30
0.0
  9
$UCSYDIR
 10
0.0
 20
1.0
 30
0.0
  9
$UCSORTHOREF
  2

  9
$UCSORTHOVIEW
 70
     0
  9
$UCSORGTOP
 10
0.0
 20
0.0
 30
0.0
  9
$UCSORGBOTTOM
 10
0.0
 20
0.0
 30
0.0
  9
$UCSORGLEFT
 10
0.0
 20
0.0
 30
0.0
  9
$UCSORGRIGHT
 10
0.0
 20
0.0
 30
0.0
  9
$UCSORGFRONT
 10
0.0
 20
0.0
 30
0.0
  9
$UCSORGBACK
 10
0.0
 20
0.0
 30
0.0
  9
$PUCSBASE
  2

  9
$PUCSNAME
  2

  9
$PUCSORG
 10
0.0
 20
0.0
 30
0.0
  9
$PUCSXDIR
 10
1.0
 20
0.0
 30
0.0
  9
$PUCSYDIR
 10
0.0
 20
1.0
 30
0.0
  9
$PUCSORTHOREF
  2

  9
$PUCSORTHOVIEW
 70
     0
  9
$PUCSORGTOP
 10
0.0
 20
0.0
 30
0.0
  9
$PUCSORGBOTTOM
 10
0.0
 20
0.0
 30
0.0
  9
$PUCSORGLEFT
 10
0.0
 20
0.0
 30
0.0
  9
$PUCSORGRIGHT
 10
0.0
 20
0.0
 30
0.0
  9
$PUCSORGFRONT
 10
0.0
 20
0.0
 30
0.0
  9
$PUCSORGBACK
 10
0.0
 20
0.0
 30
0.0
  9
$USERI1
 70
     0
  9
$USERI2
 70
     0
  9
$USERI3
 70
     0
  9
$USERI4
 70
     0
  9
$USERI5
 70
     0
  9
$USERR1
 40
0.0
  9
$USERR2
 40
0.0
  9
$USERR3
 40
0.0
  9
$USERR4
 40
0.0
  9
$USERR5
 40
0.0
  9
$WORLDVIEW
 70
     1
  9
$SHADEDGE
 70
     3
  9
$SHADEDIF
 70
    70
  9
$TILEMODE
 70
     1
  9
$MAXACTVP
 70
    64
  9
$PINSBASE
 10
0.0
 20
0.0
 30
0.0
  9
$PLIMCHECK
 70
     0
  9
$PEXTMIN
 10
1.000000000000000E+20
 20
1.000000000000000E+20
 30
1.000000000000000E+20
  9
$PEXTMAX
 10
-1.000000000000000E+20
 20
-1.000000000000000E+20
 30
-1.000000000000000E+20
  9
$PLIMMIN
 10
0.0
 20
0.0
  9
$PLIMMAX
 10
420.0
 20
297.0
  9
$UNITMODE
 70
     0
  9
$VISRETAIN
 70
     1
  9
$PLINEGEN
 70
     0
  9
$PSLTSCALE
 70
     1
  9
$TREEDEPTH
 70
  3020
  9
$CMLSTYLE
  2
Standard
  9
$CMLJUST
 70
     0
  9
$CMLSCALE
 40
20.0
  9
$PROXYGRAPHICS
 70
     1
  9
$MEASUREMENT
 70
     1
  9
$CELWEIGHT
370
    -1
  9
$ENDCAPS
280
     0
  9
$JOINSTYLE
280
     0
  9
$LWDISPLAY
290
     0
  9
$INSUNITS
 70
     4
  9
$HYPERLINKBASE
  1

  9
$STYLESHEET
  1

  9
$XEDIT
290
     1
  9
$CEPSNTYPE
380
     0
  9
$PSTYLEMODE
290
     1
  9
$FINGERPRINTGUID
  2
{EE734B11-F7BD-4A6C-A76A-221893D51625}
  9
$VERSIONGUID
  2
{FAEB1C32-E019-11D5-929B-00C0DF256EC4}
  9
$EXTNAMES
290
     1
  9
$PSVPSCALE
 40
0.0
  9
$OLESTARTUP
290
     0
  9
$SORTENTS
280
   127
  9
$INDEXCTL
280
     0
  9
$HIDETEXT
280
     1
  9
$XCLIPFRAME
290
     0
  9
$HALOGAP
280
     0
  9
$OBSCOLOR
 70
   257
  9
$OBSLTYPE
280
     0
  9
$INTERSECTIONDISPLAY
280
     0
  9
$INTERSECTIONCOLOR
 70
   257
  9
$DIMASSOC
280
     2
  9
$PROJECTNAME
  1

  9
$CAMERADISPLAY
290
     0
  9
$LENSLENGTH
 40
50.0
  9
$CAMERAHEIGHT
 40
0.0
  9
$STEPSPERSEC
 40
2.0
  9
$STEPSIZE
 40
6.0
  9
$3DDWFPREC
 40
2.0
  9
$PSOLWIDTH
 40
5.0
  9
$PSOLHEIGHT
 40
80.0
  9
$LOFTANG1
 40
1.570796326794897
  9
$LOFTANG2
 40
1.570796326794897
  9
$LOFTMAG1
 40
0.0
  9
$LOFTMAG2
 40
0.0
  9
$LOFTPARAM
 70
     7
  9
$LOFTNORMALS
280
     1
  9
$LATITUDE
 40
37.795
  9
$LONGITUDE
 40
-122.394
  9
$NORTHDIRECTION
 40
0.0
  9
$TIMEZONE
 70
 -8000
  9
$LIGHTGLYPHDISPLAY
280
     1
  9
$TILEMODELIGHTSYNCH
280
     1
  9
$SOLIDHIST
280
     1
  9
$SHOWHIST
280
     1
  9
$DWFFRAME
280
     2
  9
$DGNFRAME
280
     2
  9
$REALWORLDSCALE
290
     1
  9
$INTERFERECOLOR
 62
   256
  9
$CSHADOW
280
     0
  9
$SHADOWPLANELOCATION
 40
0.0
  0
ENDSEC
  0
SECTION
  2
CLASSES
  0
CLASS
  1
ACDBDICTIONARYWDFLT
  2
AcDbDictionaryWithDefault
  3
ObjectDBX Classes
 90
        0
 91
        4
280
     0
281
     0
  0
CLASS
  1
VISUALSTYLE
  2
AcDbVisualStyle
  3
ObjectDBX Classes
 90
     4095
 91
        4
280
     0
281
     0
  0
ENDSEC
  0
SECTION
  2
TABLES
  0
TABLE
  2
VPORT
  5
8
330
0
100
AcDbSymbolTable
 70
     1
  0
VPORT
  5
29
330
8
100
AcDbSymbolTableRecord
100
AcDbViewportTableRecord
  2
*Active
 70
     0
 10
0.0
 20
0.0
 11
1.0
 21
1.0
 12
0.0
 22
0.0
 13
0.0
 23
0.0
 14
10.0
 24
10.0
 15
10.0
 25
10.0
 16
0.0
 26
0.0
 36
1.0
 17
0.0
 27
0.0
 37
0.0
 40
1848.0
 41
1.414285714285714
 42
50.0
 43
0.0
 44
0.0
 50
0.0
 51
0.0
 71
     0
 72
 10000
 73
     1
 74
     3
 75
     0
 76
     0
 77
     0
 78
     0
281
     0
 65
     1
110
0.0
120
0.0
130
0.0
111
1.0
121
0.0
131
0.0
112
0.0
122
1.0
132
0.0
 79
     0
146
0.0
 60
     3
 61
     5
292
     1
282
     1
141
0.0
142
0.0
 63
   256
  0
ENDTAB
  0
TABLE
  2
LTYPE
  5
5
330
0
100
AcDbSymbolTable
 70
     5
  0
LTYPE
  5
14
330
5
100
AcDbSymbolTableRecord
100
AcDbLinetypeTableRecord
  2
ByBlock
 70
     0
  3

 72
    65
 73
     0
 40
0.0
  0
LTYPE
  5
15
330
5
100
AcDbSymbolTableRecord
100
AcDbLinetypeTableRecord
  2
ByLayer
 70
     0
  3

 72
    65
 73
     0
 40
0.0
  0
LTYPE
  5
16
330
5
100
AcDbSymbolTableRecord
100
AcDbLinetypeTableRecord
  2
Continuous
 70
     0
  3
Solid line
 72
    65
 73
     0
 40
0.0
  0
LTYPE
  5
3C
330
5
100
AcDbSymbolTableRecord
100
AcDbLinetypeTableRecord
  2
JWW_CENTER1
 70
     0
  3
-----  --  ----------  --  -----
 72
    65
 73
     4
 40
6.773333333333333
 49
4.233333333333333
 74
     0
 49
-0.8466666666666667
 74
     0
 49
0.8466666666666667
 74
     0
 49
-0.8466666666666667
 74
     0
  0
LTYPE
  5
3D
330
5
100
AcDbSymbolTableRecord
100
AcDbLinetypeTableRecord
  2
JWW_DASHED3
 70
     0
  3
---  ------  ------  ------  ---
 72
    65
 73
     2
 40
3.386666666666667
 49
2.54
 74
     0
 49
-0.8466666666666667
 74
     0
  0
LTYPE
  5
3E
330
5
100
AcDbSymbolTableRecord
100
AcDbLinetypeTableRecord
  2
JWW_CENTER2
 70
     0
  3
-------------  --  -------------
 72
    65
 73
     4
 40
13.54666666666667
 49
11.00666666666667
 74
     0
 49
-0.8466666666666667
 74
     0
 49
0.8466666666666667
 74
     0
 49
-0.8466666666666667
 74
     0
  0
LTYPE
  5
3F
330
5
100
AcDbSymbolTableRecord
100
AcDbLinetypeTableRecord
  2
JWW_DASHED1
 70
     0
  3
-  --  --  --  --  --  --  --  -
 72
    65
 73
     2
 40
1.693333333333333
 49
0.8466666666666667
 74
     0
 49
-0.8466666666666667
 74
     0
  0
ENDTAB
  0
TABLE
  2
LAYER
  5
2
330
0
100
AcDbSymbolTable
 70
    10
  0
LAYER
  5
10
330
2
100
AcDbSymbolTableRecord
100
AcDbLayerTableRecord
  2
0
 70
     0
 62
     7
  6
Continuous
370
    -3
390
F
347
0
  0
LAYER
  5
40
330
2
100
AcDbSymbolTableRecord
100
AcDbLayerTableRecord
  2
F-Fﾚｲﾔ
 70
     0
 62
     7
  6
Continuous
370
    -3
390
F
347
0
  0
LAYER
  5
41
330
2
100
AcDbSymbolTableRecord
100
AcDbLayerTableRecord
  2
F-4ﾚｲﾔ
 70
     0
 62
     7
  6
Continuous
370
    -3
390
F
347
0
  0
LAYER
  5
42
330
2
100
AcDbSymbolTableRecord
100
AcDbLayerTableRecord
  2
F-5ﾚｲﾔ
 70
     0
 62
     7
  6
Continuous
370
    -3
390
F
347
0
  0
LAYER
  5
43
330
2
100
AcDbSymbolTableRecord
100
AcDbLayerTableRecord
  2
建具
 70
     0
 62
     7
  6
Continuous
370
    -3
390
F
347
0
  0
LAYER
  5
44
330
2
100
AcDbSymbolTableRecord
100
AcDbLayerTableRecord
  2
躯体
 70
     0
 62
     7
  6
Continuous
370
    -3
390
F
347
0
  0
LAYER
  5
45
330
2
100
AcDbSymbolTableRecord
100
AcDbLayerTableRecord
  2
その他
 70
     0
 62
     7
  6
Continuous
370
    -3
390
F
347
0
  0
LAYER
  5
46
330
2
100
AcDbSymbolTableRecord
100
AcDbLayerTableRecord
  2
寸法
 70
     0
 62
     7
  6
Continuous
370
    -3
390
F
347
0
  0
LAYER
  5
47
330
2
100
AcDbSymbolTableRecord
100
AcDbLayerTableRecord
  2
仕上
 70
     0
 62
     7
  6
Continuous
370
    -3
390
F
347
0
  0
LAYER
  5
48
330
2
100
AcDbSymbolTableRecord
100
AcDbLayerTableRecord
  2
通り芯
 70
     0
 62
     7
  6
Continuous
370
    -3
390
F
347
0
  0
ENDTAB
  0
TABLE
  2
STYLE
  5
3
330
0
100
AcDbSymbolTable
 70
     2
  0
STYLE
  5
11
330
3
100
AcDbSymbolTableRecord
100
AcDbTextStyleTableRecord
  2
Standard
 70
     0
 40
0.0
 41
1.0
 50
0.0
 71
     0
 42
2.5
  3
txt
  4

1001
ACAD
1000

1071
        0
  0
STYLE
  5
3B
330
3
100
AcDbSymbolTableRecord
100
AcDbTextStyleTableRecord
  2
ＭＳ ゴシック
 70
     0
 40
1.0
 41
1.0
 50
0.0
 71
     0
 42
10.0
  3

  4

1001
ACAD
1000
MS Gothic
1071
    32817
  0
ENDTAB
  0
TABLE
  2
VIEW
  5
6
330
0
100
AcDbSymbolTable
 70
     0
  0
ENDTAB
  0
TABLE
  2
UCS
  5
7
330
0
100
AcDbSymbolTable
 70
     0
  0
ENDTAB
  0
TABLE
  2
APPID
  5
9
330
0
100
AcDbSymbolTable
 70
     1
  0
APPID
  5
12
330
9
100
AcDbSymbolTableRecord
100
AcDbRegAppTableRecord
  2
ACAD
 70
     0
  0
ENDTAB
  0
TABLE
  2
DIMSTYLE
  5
A
330
0
100
AcDbSymbolTable
 70
     1
100
AcDbDimStyleTable
  0
DIMSTYLE
105
27
330
A
100
AcDbSymbolTableRecord
100
AcDbDimStyleTableRecord
  2
ISO-25
 70
     0
 41
2.5
 42
0.625
 43
3.75
 44
1.25
 73
     0
 74
     0
 77
     1
 78
     8
140
2.5
141
2.5
143
0.03937007874016
147
0.625
171
     3
172
     1
271
     2
272
     2
274
     3
278
    44
283
     0
284
     8
340
11
  0
ENDTAB
  0
TABLE
  2
BLOCK_RECORD
  5
1
330
0
100
AcDbSymbolTable
 70
     1
  0
BLOCK_RECORD
  5
1F
330
1
100
AcDbSymbolTableRecord
100
AcDbBlockTableRecord
  2
*Model_Space
340
22
 70
     0
280
     1
281
     0
  0
BLOCK_RECORD
  5
1B
330
1
100
AcDbSymbolTableRecord
100
AcDbBlockTableRecord
  2
*Paper_Space
340
1E
 70
     0
280
     1
281
     0
  0
BLOCK_RECORD
  5
23
330
1
100
AcDbSymbolTableRecord
100
AcDbBlockTableRecord
  2
*Paper_Space0
340
26
 70
     0
280
     1
281
     0
  0
ENDTAB
  0
ENDSEC
  0
SECTION
  2
BLOCKS
  0
BLOCK
  5
20
330
1F
100
AcDbEntity
  8
0
100
AcDbBlockBegin
  2
*Model_Space
 70
     0
 10
0.0
 20
0.0
 30
0.0
  3
*Model_Space
  1

  0
ENDBLK
  5
21
330
1F
100
AcDbEntity
  8
0
100
AcDbBlockEnd
  0
BLOCK
  5
1C
330
1B
100
AcDbEntity
 67
     1
  8
0
100
AcDbBlockBegin
  2
*Paper_Space
 70
     0
 10
0.0
 20
0.0
 30
0.0
  3
*Paper_Space
  1

  0
ENDBLK
  5
1D
330
1B
100
AcDbEntity
 67
     1
  8
0
100
AcDbBlockEnd
  0
BLOCK
  5
24
330
23
100
AcDbEntity
  8
0
100
AcDbBlockBegin
  2
*Paper_Space0
 70
     0
 10
0.0
 20
0.0
 30
0.0
  3
*Paper_Space0
  1

  0
ENDBLK
  5
25
330
23
100
AcDbEntity
  8
0
100
AcDbBlockEnd
  0
ENDSEC
  0
SECTION
  2
ENTITIES
  0
LINE
  5
49
330
1F
100
AcDbEntity
  8
F-Fﾚｲﾔ
  6
Continuous
 62
     7
370
     9
100
AcDbLine
 10
-105.3797467629805
 20
760.915871598609
 30
0.0
 11
522.8790429449925
 21
760.915871598609
 31
0.0
  0
TEXT
  5
4A
330
1F
100
AcDbEntity
  8
F-Fﾚｲﾔ
  6
Continuous
 62
     2
370
     9
100
AcDbText
 10
-94.73285670451907
 20
739.171871598609
 30
0.0
 40
12.192
  1
名称
 41
1.0625
  7
ＭＳ ゴシック
100
AcDbText
  0
TEXT
  5
4B
330
1F
100
AcDbEntity
  8
F-4ﾚｲﾔ
  6
Continuous
 62
     2
370
     9
100
AcDbText
 10
-149.204441572291
 20
-759.0108394076666
 30
0.0
 40
12.192
  1
カラー舗装用みぞ蓋　タイル用　充填深さ２８ｍｍ　スチール製
 41
1.120689655172414
  7
ＭＳ ゴシック
100
AcDbText
  0
TEXT
  5
4C
330
1F
100
AcDbEntity
  8
F-5ﾚｲﾔ
  6
Continuous
 62
     2
370
     9
100
AcDbText
 10
63.34966572385582
 20
739.171871598609
 30
0.0
 40
12.192
  1
化粧用スリットみぞ蓋　タイル用　側溝用
 41
1.118421052631579
  7
ＭＳ ゴシック
100
AcDbText
  0
LINE
  5
4D
330
1F
100
AcDbEntity
  8
F-Fﾚｲﾔ
  6
Continuous
 62
     7
370
     9
100
AcDbLine
 10
-105.3797467629805
 20
728.915871598609
 30
0.0
 11
522.8790429449925
 21
728.915871598609
 31
0.0
  0
LINE
  5
4E
330
1F
100
AcDbEntity
  8
F-Fﾚｲﾔ
  6
Continuous
 62
     7
370
     9
100
AcDbLine
 10
-105.3797467629805
 20
724.915871598609
 30
0.0
 11
522.8790429449925
 21
724.915871598609
 31
0.0
  0
LINE
  5
4F
330
1F
100
AcDbEntity
  8
F-Fﾚｲﾔ
  6
Continuous
 62
     7
370
     9
100
AcDbLine
 10
-105.3797467629805
 20
692.915871598609
 30
0.0
 11
522.8790429449925
 21
692.915871598609
 31
0.0
  0
LINE
  5
50
330
1F
100
AcDbEntity
  8
F-Fﾚｲﾔ
  6
Continuous
 62
     7
370
     9
100
AcDbLine
 10
-105.3797467629805
 20
532.915871598609
 30
0.0
 11
522.8790429449925
 21
532.915871598609
 31
0.0
  0
LINE
  5
51
330
1F
100
AcDbEntity
  8
F-Fﾚｲﾔ
  6
Continuous
 62
     7
370
     9
100
AcDbLine
 10
-105.3797467629805
 20
468.9158715986091
 30
0.0
 11
522.8790429449925
 21
468.9158715986091
 31
0.0
  0
TEXT
  5
52
330
1F
100
AcDbEntity
  8
F-Fﾚｲﾔ
  6
Continuous
 62
     2
370
     9
100
AcDbText
 10
-94.73285670451907
 20
671.171871598609
 30
0.0
 40
12.192
  1
蓋
  7
ＭＳ ゴシック
100
AcDbText
  0
TEXT
  5
53
330
1F
100
AcDbEntity
  8
F-Fﾚｲﾔ
  6
Continuous
 62
     2
370
     9
100
AcDbText
 10
-94.73285670451907
 20
511.171871598609
 30
0.0
 40
12.192
  1
受枠
 41
1.0625
  7
ＭＳ ゴシック
100
AcDbText
  0
TEXT
  5
54
330
1F
100
AcDbEntity
  8
F-Fﾚｲﾔ
  6
Continuous
 62
     2
370
     9
100
AcDbText
 10
-94.73285670451907
 20
447.1718715986091
 30
0.0
 40
12.192
  1
品番
 41
1.0625
  7
ＭＳ ゴシック
100
AcDbText
  0
TEXT
  5
55
330
1F
100
AcDbEntity
  8
F-5ﾚｲﾔ
  6
Continuous
 62
     2
370
     9
100
AcDbText
 10
63.34966572385582
 20
671.171871598609
 30
0.0
 40
12.192
  1
スチール製 溶融亜鉛めっき
 41
1.115
  7
ＭＳ ゴシック
100
AcDbText
  0
TEXT
  5
56
330
1F
100
AcDbEntity
  8
F-5ﾚｲﾔ
  6
Continuous
 62
     2
370
     9
100
AcDbText
 10
63.34966572385582
 20
607.171871598609
 30
0.0
 40
12.192
  1
目地すきま 6mm
 41
1.116071428571429
  7
ＭＳ ゴシック
100
AcDbText
  0
TEXT
  5
57
330
1F
100
AcDbEntity
  8
F-Fﾚｲﾔ
  6
Continuous
 62
     2
370
     9
100
AcDbText
 10
63.34966572385582
 20
447.1718715986091
 30
0.0
 40
12.192
  1
カネソウ　カラー舗装用みぞ蓋
 41
1.116071428571429
  7
ＭＳ ゴシック
100
AcDbText
  0
LINE
  5
58
330
1F
100
AcDbEntity
  8
F-Fﾚｲﾔ
  6
Continuous
 62
     7
370
     9
100
AcDbLine
 10
46.81570496624607
 20
660.915871598609
 30
0.0
 11
522.8790429449925
 21
660.915871598609
 31
0.0
  0
LINE
  5
59
330
1F
100
AcDbEntity
  8
F-Fﾚｲﾔ
  6
Continuous
 62
     7
370
     9
100
AcDbLine
 10
46.81570496624607
 20
628.915871598609
 30
0.0
 11
522.8790429449925
 21
628.915871598609
 31
0.0
  0
LINE
  5
5A
330
1F
100
AcDbEntity
  8
F-Fﾚｲﾔ
  6
Continuous
 62
     7
370
     9
100
AcDbLine
 10
46.81570496624607
 20
596.915871598609
 30
0.0
 11
522.8790429449925
 21
596.915871598609
 31
0.0
  0
LINE
  5
5B
330
1F
100
AcDbEntity
  8
F-Fﾚｲﾔ
  6
Continuous
 62
     7
370
     9
100
AcDbLine
 10
46.81570496624607
 20
564.915871598609
 30
0.0
 11
522.8790429449925
 21
564.915871598609
 31
0.0
  0
LINE
  5
5C
330
1F
100
AcDbEntity
  8
F-Fﾚｲﾔ
  6
Continuous
 62
     7
370
     9
100
AcDbLine
 10
46.81570496624607
 20
500.915871598609
 30
0.0
 11
522.8790429449925
 21
500.915871598609
 31
0.0
  0
TEXT
  5
5D
330
1F
100
AcDbEntity
  8
F-Fﾚｲﾔ
  6
Continuous
 62
     2
370
     9
100
AcDbText
 10
-94.73285670451907
 20
703.171871598609
 30
0.0
 40
12.192
  1
みぞ幅
 41
1.083333333333333
  7
ＭＳ ゴシック
100
AcDbText
  0
LINE
  5
5E
330
1F
100
AcDbEntity
  8
F-Fﾚｲﾔ
  6
Continuous
 62
     7
370
     9
100
AcDbLine
 10
522.8790429449925
 20
760.915871598609
 30
0.0
 11
522.8790429449925
 21
372.9158715986091
 31
0.0
  0
LINE
  5
5F
330
1F
100
AcDbEntity
  8
F-Fﾚｲﾔ
  6
Continuous
 62
     7
370
     9
100
AcDbLine
 10
-105.3797467629805
 20
372.9158715986091
 30
0.0
 11
522.8790429449925
 21
372.9158715986091
 31
0.0
  0
LINE
  5
60
330
1F
100
AcDbEntity
  8
F-Fﾚｲﾔ
  6
Continuous
 62
     7
370
     9
100
AcDbLine
 10
-105.3797467629805
 20
760.915871598609
 30
0.0
 11
-105.3797467629805
 21
372.9158715986091
 31
0.0
  0
LINE
  5
61
330
1F
100
AcDbEntity
  8
F-Fﾚｲﾔ
  6
Continuous
 62
     7
370
     9
100
AcDbLine
 10
46.81570496624607
 20
760.915871598609
 30
0.0
 11
46.81570496624607
 21
372.9158715986091
 31
0.0
  0
TEXT
  5
62
330
1F
100
AcDbEntity
  8
F-5ﾚｲﾔ
  6
Continuous
 62
     2
370
     9
100
AcDbText
 10
63.34966572385588
 20
639.171871598609
 30
0.0
 40
12.192
  1
充填深さ 28mm
 41
1.115384615384615
  7
ＭＳ ゴシック
100
AcDbText
  0
TEXT
  5
63
330
1F
100
AcDbEntity
  8
F-5ﾚｲﾔ
  6
Continuous
 62
     2
370
     9
100
AcDbText
 10
566.1653883124754
 20
739.1718930562811
 30
0.0
 40
12.192
  1
強度性能
 41
1.09375
  7
ＭＳ ゴシック
100
AcDbText
  0
TEXT
  5
64
330
1F
100
AcDbEntity
  8
F-5ﾚｲﾔ
  6
Continuous
 62
     2
370
     9
100
AcDbText
 10
566.1653883124754
 20
703.171871598609
 30
0.0
 40
12.192
  1
強度
 41
1.0625
  7
ＭＳ ゴシック
100
AcDbText
  0
TEXT
  5
65
330
1F
100
AcDbEntity
  8
F-5ﾚｲﾔ
  6
Continuous
 62
     2
370
     9
100
AcDbText
 10
566.1653883124754
 20
639.1718715986088
 30
0.0
 40
12.192
  1
主な使用場所
 41
1.104166666666667
  7
ＭＳ ゴシック
100
AcDbText
  0
LINE
  5
66
330
1F
100
AcDbEntity
  8
F-5ﾚｲﾔ
  6
Continuous
 62
     7
370
     9
100
AcDbLine
 10
555.518498254015
 20
760.915871598609
 30
0.0
 11
1124.205175136017
 21
760.915871598609
 31
0.0
  0
LINE
  5
67
330
1F
100
AcDbEntity
  8
F-5ﾚｲﾔ
  6
Continuous
 62
     7
370
     9
100
AcDbLine
 10
555.518498254015
 20
728.915871598609
 30
0.0
 11
1124.205175136017
 21
728.915871598609
 31
0.0
  0
LINE
  5
68
330
1F
100
AcDbEntity
  8
F-5ﾚｲﾔ
  6
Continuous
 62
     7
370
     9
100
AcDbLine
 10
555.518498254015
 20
724.915871598609
 30
0.0
 11
1124.205175136017
 21
724.915871598609
 31
0.0
  0
LINE
  5
69
330
1F
100
AcDbEntity
  8
F-5ﾚｲﾔ
  6
Continuous
 62
     7
370
     9
100
AcDbLine
 10
555.518498254015
 20
660.9158715986089
 30
0.0
 11
1124.205175136017
 21
660.9158715986089
 31
0.0
  0
LINE
  5
6A
330
1F
100
AcDbEntity
  8
F-5ﾚｲﾔ
  6
Continuous
 62
     7
370
     9
100
AcDbLine
 10
555.518498254015
 20
660.9158715986089
 30
0.0
 11
1124.205175136017
 21
660.9158715986089
 31
0.0
  0
TEXT
  5
6B
330
1F
100
AcDbEntity
  8
F-5ﾚｲﾔ
  6
Continuous
 62
     2
370
     9
100
AcDbText
 10
724.2479107408512
 20
703.171871598609
 30
0.0
 40
12.192
  1
T-2：後輪1輪荷重7.8kN(800kgf)
 41
1.120689655172414
  7
ＭＳ ゴシック
100
AcDbText
  0
TEXT
  5
6C
330
1F
100
AcDbEntity
  8
F-5ﾚｲﾔ
  6
Continuous
 62
     2
370
     9
100
AcDbText
 10
724.2479107408512
 20
671.1718715986088
 30
0.0
 40
12.192
  1
 　　総重量2トンまでの車両が通行可能
 41
1.118055555555556
  7
ＭＳ ゴシック
100
AcDbText
  0
TEXT
  5
6D
330
1F
100
AcDbEntity
  8
F-5ﾚｲﾔ
  6
Continuous
 62
     2
370
     9
100
AcDbText
 10
724.2479107408512
 20
639.1718715986088
 30
0.0
 40
12.192
  1
建物内、建物敷地内、公園敷地内、
 41
1.1171875
  7
ＭＳ ゴシック
100
AcDbText
  0
LINE
  5
6E
330
1F
100
AcDbEntity
  8
F-5ﾚｲﾔ
  6
Continuous
 62
     7
370
     9
100
AcDbLine
 10
555.518498254015
 20
564.9158715986089
 30
0.0
 11
1124.205175136017
 21
564.9158715986089
 31
0.0
  0
LINE
  5
6F
330
1F
100
AcDbEntity
  8
F-5ﾚｲﾔ
  6
Continuous
 62
     7
370
     9
100
AcDbLine
 10
555.518498254015
 20
596.9158715986089
 30
0.0
 11
1124.205175136017
 21
596.9158715986089
 31
0.0
  0
TEXT
  5
70
330
1F
100
AcDbEntity
  8
F-5ﾚｲﾔ
  6
Continuous
 62
     2
370
     9
100
AcDbText
 10
724.2479107408512
 20
607.1718715986088
 30
0.0
 40
12.192
  1
車道以外で車両の乗り入れる可能性のある場所
 41
1.11904761904762
  7
ＭＳ ゴシック
100
AcDbText
  0
LINE
  5
71
330
1F
100
AcDbEntity
  8
F-5ﾚｲﾔ
  6
Continuous
 62
     7
370
     9
100
AcDbLine
 10
555.518498254015
 20
532.9158715986089
 30
0.0
 11
1124.205175136017
 21
532.9158715986089
 31
0.0
  0
LINE
  5
72
330
1F
100
AcDbEntity
  8
F-5ﾚｲﾔ
  6
Continuous
 62
     7
370
     9
100
AcDbLine
 10
555.518498254015
 20
468.9158715986089
 30
0.0
 11
1124.205175136017
 21
468.9158715986089
 31
0.0
  0
TEXT
  5
73
330
1F
100
AcDbEntity
  8
F-5ﾚｲﾔ
  6
Continuous
 62
     2
370
     9
100
AcDbText
 10
566.1653883124754
 20
543.1718715986088
 30
0.0
 40
12.192
  1
衝撃係数
 41
1.09375
  7
ＭＳ ゴシック
100
AcDbText
  0
TEXT
  5
74
330
1F
100
AcDbEntity
  8
F-5ﾚｲﾔ
  6
Continuous
 62
     2
370
     9
100
AcDbText
 10
566.1653883124754
 20
575.1718715986088
 30
0.0
 40
12.192
  1
車両進行方向
 41
1.104166666666667
  7
ＭＳ ゴシック
100
AcDbText
  0
TEXT
  5
75
330
1F
100
AcDbEntity
  8
F-5ﾚｲﾔ
  6
Continuous
 62
     2
370
     9
100
AcDbText
 10
566.1653883124754
 20
511.1718715986088
 30
0.0
 40
12.192
  1
衝撃を考慮した
 41
1.107142857142857
  7
ＭＳ ゴシック
100
AcDbText
  0
TEXT
  5
76
330
1F
100
AcDbEntity
  8
F-5ﾚｲﾔ
  6
Continuous
 62
     2
370
     9
100
AcDbText
 10
566.1653883124754
 20
479.1718715986088
 30
0.0
 40
12.192
  1
後輪1輪荷重
 41
1.102272727272727
  7
ＭＳ ゴシック
100
AcDbText
  0
LINE
  5
77
330
1F
100
AcDbEntity
  8
F-5ﾚｲﾔ
  6
Continuous
 62
     7
370
     9
100
AcDbLine
 10
555.518498254015
 20
436.9158715986089
 30
0.0
 11
1124.205175136017
 21
436.9158715986089
 31
0.0
  0
TEXT
  5
78
330
1F
100
AcDbEntity
  8
F-5ﾚｲﾔ
  6
Continuous
 62
     2
370
     9
100
AcDbText
 10
566.1653883124754
 20
447.1718715986088
 30
0.0
 40
12.192
  1
後輪接地面積
 41
1.104166666666667
  7
ＭＳ ゴシック
100
AcDbText
  0
LINE
  5
79
330
1F
100
AcDbEntity
  8
F-5ﾚｲﾔ
  6
Continuous
 62
     7
370
     9
100
AcDbLine
 10
707.7139499832415
 20
728.915871598609
 30
0.0
 11
707.7139499832415
 21
436.9158715986089
 31
0.0
  0
LINE
  5
7A
330
1F
100
AcDbEntity
  8
F-5ﾚｲﾔ
  6
Continuous
 62
     7
370
     9
100
AcDbLine
 10
555.518498254015
 20
760.915871598609
 30
0.0
 11
555.518498254015
 21
436.9158715986089
 31
0.0
  0
LINE
  5
7B
330
1F
100
AcDbEntity
  8
F-5ﾚｲﾔ
  6
Continuous
 62
     7
370
     9
100
AcDbLine
 10
1124.205175136017
 20
760.915871598609
 30
0.0
 11
1124.205175136017
 21
436.9158715986089
 31
0.0
  0
TEXT
  5
7C
330
1F
100
AcDbEntity
  8
F-5ﾚｲﾔ
  6
Continuous
 62
     2
370
     9
100
AcDbText
 10
724.2479107408512
 20
575.1718715986088
 30
0.0
 40
12.192
  1
横断方向、縦断方向
 41
1.111111111111111
  7
ＭＳ ゴシック
100
AcDbText
  0
TEXT
  5
7D
330
1F
100
AcDbEntity
  8
F-5ﾚｲﾔ
  6
Continuous
 62
     2
370
     9
100
AcDbText
 10
724.2479107408512
 20
543.1718715986088
 30
0.0
 40
12.192
  1
0.1
 41
1.083333333333333
  7
ＭＳ ゴシック
100
AcDbText
  0
TEXT
  5
7E
330
1F
100
AcDbEntity
  8
F-5ﾚｲﾔ
  6
Continuous
 62
     2
370
     9
100
AcDbText
 10
724.2479107408512
 20
447.1718715986088
 30
0.0
 40
12.192
  1
200×160 mm
 41
1.113636363636364
  7
ＭＳ ゴシック
100
AcDbText
  0
TEXT
  5
7F
330
1F
100
AcDbEntity
  8
F-5ﾚｲﾔ
  6
Continuous
 62
     2
370
     9
100
AcDbText
 10
724.2479107408512
 20
495.1718715986088
 30
0.0
 40
12.192
  1
8.6kN
 41
1.1
  7
ＭＳ ゴシック
100
AcDbText
  0
LINE
  5
80
330
1F
100
AcDbEntity
  8
建具
  6
Continuous
 62
     4
370
     9
100
AcDbLine
 10
-555.3211251478838
 20
10.62081950008292
 30
0.0
 11
-555.3211251478838
 21
4.520685552659188
 31
0.0
  0
LINE
  5
81
330
1F
100
AcDbEntity
  8
建具
  6
Continuous
 62
     4
370
     9
100
AcDbLine
 10
-455.3211663878539
 20
20.62060505223667
 30
0.0
 11
-545.3210921559073
 21
20.62060505223667
 31
0.0
  0
LINE
  5
82
330
1F
100
AcDbEntity
  8
建具
  6
Continuous
 62
     4
370
     9
100
AcDbLine
 10
-445.3212571157889
 20
10.62081950008292
 30
0.0
 11
-445.3212571157889
 21
4.520685552659188
 31
0.0
  0
LINE
  5
83
330
1F
100
AcDbEntity
  8
建具
  6
Continuous
 62
     4
370
     9
100
AcDbLine
 10
-454.3211383446741
 20
10.62081950008292
 30
0.0
 11
-454.3211383446741
 21
4.520685552659188
 31
0.0
  0
LINE
  5
84
330
1F
100
AcDbEntity
  8
建具
  6
Continuous
 62
     4
370
     9
100
AcDbLine
 10
-545.3210921559073
 20
11.62072382335168
 30
0.0
 11
-455.3210426679427
 21
11.62072382335168
 31
0.0
  0
LINE
  5
85
330
1F
100
AcDbEntity
  8
建具
  6
Continuous
 62
     4
370
     9
100
AcDbLine
 10
-546.3211201990873
 20
10.62081950008292
 30
0.0
 11
-546.3211201990873
 21
4.520685552659188
 31
0.0
  0
LINE
  5
86
330
1F
100
AcDbEntity
  8
建具
  6
JWW_CENTER1
 62
     4
370
     9
100
AcDbLine
 10
-550.821184533441
 20
-3.586680235981248
 30
0.0
 11
-550.821184533441
 21
12.01093642364754
 31
0.0
  0
LINE
  5
87
330
1F
100
AcDbEntity
  8
建具
  6
JWW_CENTER1
 62
     4
370
     9
100
AcDbLine
 10
-542.6581447847079
 20
4.520685552659188
 30
0.0
 11
-559.0651371041758
 21
4.520685552659188
 31
0.0
  0
LINE
  5
88
330
1F
100
AcDbEntity
  8
建具
  6
JWW_CENTER1
 62
     4
370
     9
100
AcDbLine
 10
-449.8210121503645
 20
-3.586680235981248
 30
0.0
 11
-449.8210121503645
 21
12.01093642364754
 31
0.0
  0
LINE
  5
89
330
1F
100
AcDbEntity
  8
建具
  6
JWW_CENTER1
 62
     4
370
     9
100
AcDbLine
 10
-441.658034261587
 20
4.520685552659188
 30
0.0
 11
-458.0652121609218
 21
4.520685552659188
 31
0.0
  0
LINE
  5
8A
330
1F
100
AcDbEntity
  8
建具
  6
Continuous
 62
     4
370
     9
100
AcDbLine
 10
-55.32105297793535
 20
10.62081950008292
 30
0.0
 11
-55.32105297793535
 21
4.520685552659188
 31
0.0
  0
LINE
  5
8B
330
1F
100
AcDbEntity
  8
建具
  6
Continuous
 62
     4
370
     9
100
AcDbLine
 10
44.67890578209418
 20
20.62060505223667
 30
0.0
 11
-45.32101998595893
 21
20.62060505223667
 31
0.0
  0
LINE
  5
8C
330
1F
100
AcDbEntity
  8
建具
  6
Continuous
 62
     4
370
     9
100
AcDbLine
 10
54.67893877407062
 20
10.62081950008292
 30
0.0
 11
54.67893877407062
 21
4.520685552659188
 31
0.0
  0
LINE
  5
8D
330
1F
100
AcDbEntity
  8
建具
  6
Continuous
 62
     4
370
     9
100
AcDbLine
 10
45.67893382527414
 20
10.62081950008292
 30
0.0
 11
45.67893382527414
 21
4.520685552659188
 31
0.0
  0
LINE
  5
8E
330
1F
100
AcDbEntity
  8
建具
  6
Continuous
 62
     4
370
     9
100
AcDbLine
 10
-45.32101998595893
 20
11.62072382335168
 30
0.0
 11
44.67902950200551
 21
11.62072382335168
 31
0.0
  0
LINE
  5
8F
330
1F
100
AcDbEntity
  8
建具
  6
Continuous
 62
     4
370
     9
100
AcDbLine
 10
-46.32117174905024
 20
10.62081950008292
 30
0.0
 11
-46.32117174905024
 21
4.520685552659188
 31
0.0
  0
LINE
  5
90
330
1F
100
AcDbEntity
  8
建具
  6
JWW_CENTER1
 62
     4
370
     9
100
AcDbLine
 10
-50.82111236349279
 20
-3.586680235981248
 30
0.0
 11
-50.82111236349279
 21
12.01093642364754
 31
0.0
  0
LINE
  5
91
330
1F
100
AcDbEntity
  8
建具
  6
JWW_CENTER1
 62
     4
370
     9
100
AcDbLine
 10
-42.65807261475961
 20
4.520685552659188
 30
0.0
 11
-59.06518865413889
 21
4.520685552659188
 31
0.0
  0
LINE
  5
92
330
1F
100
AcDbEntity
  8
建具
  6
JWW_CENTER1
 62
     4
370
     9
100
AcDbLine
 10
50.17912187953937
 20
-3.586680235981248
 30
0.0
 11
50.17912187953937
 21
12.01093642364754
 31
0.0
  0
LINE
  5
93
330
1F
100
AcDbEntity
  8
建具
  6
JWW_CENTER1
 62
     4
370
     9
100
AcDbLine
 10
58.34179046853846
 20
4.520685552659188
 30
0.0
 11
41.93492186898195
 21
4.520685552659188
 31
0.0
  0
LINE
  5
94
330
1F
100
AcDbEntity
  8
建具
  6
Continuous
 62
     4
370
     9
100
AcDbLine
 10
-750.3210261719546
 20
0.0207449382166942
 30
0.0
 11
-750.3210261719546
 21
-59.97920557381872
 31
0.0
  0
CIRCLE
  5
95
330
1F
100
AcDbEntity
  8
建具
  6
Continuous
 62
     4
370
     9
100
AcDbCircle
 10
-550.821184533441
 20
4.520685552659188
 30
0.0
 40
4.500000057993709
  0
CIRCLE
  5
96
330
1F
100
AcDbEntity
  8
建具
  6
Continuous
 62
     4
370
     9
100
AcDbCircle
 10
-449.8211977302316
 20
4.520685552659188
 30
0.0
 40
4.500000057993709
  0
ARC
  5
97
330
1F
100
AcDbEntity
  8
建具
  6
Continuous
 62
     4
370
     9
100
AcDbCircle
 10
-545.3210921559073
 20
10.62081950008292
 30
0.0
 40
9.9999991623131
100
AcDbArc
 50
90.0
 51
180.0
  0
ARC
  5
98
330
1F
100
AcDbEntity
  8
建具
  6
Continuous
 62
     4
370
     9
100
AcDbCircle
 10
-455.3211663878539
 20
10.62081950008292
 30
0.0
 40
9.9999991623131
100
AcDbArc
 50
0.0
 51
90.0
  0
ARC
  5
99
330
1F
100
AcDbEntity
  8
建具
  6
Continuous
 62
     4
370
     9
100
AcDbCircle
 10
-455.3210426679427
 20
10.62081950008292
 30
0.0
 40
0.9999999524773778
100
AcDbArc
 50
0.0
 51
90.0
  0
ARC
  5
9A
330
1F
100
AcDbEntity
  8
建具
  6
Continuous
 62
     4
370
     9
100
AcDbCircle
 10
-545.3210921559073
 20
10.62081950008292
 30
0.0
 40
0.9999999524773778
100
AcDbArc
 50
90.0
 51
180.0
  0
CIRCLE
  5
9B
330
1F
100
AcDbEntity
  8
建具
  6
Continuous
 62
     4
370
     9
100
AcDbCircle
 10
-50.82111236349279
 20
4.520685552659188
 30
0.0
 40
4.500000057993709
  0
CIRCLE
  5
9C
330
1F
100
AcDbEntity
  8
建具
  6
Continuous
 62
     4
370
     9
100
AcDbCircle
 10
50.17887443971672
 20
4.520685552659188
 30
0.0
 40
4.500000057993709
  0
ARC
  5
9D
330
1F
100
AcDbEntity
  8
建具
  6
Continuous
 62
     4
370
     9
100
AcDbCircle
 10
-45.32101998595893
 20
10.62081950008292
 30
0.0
 40
9.9999991623131
100
AcDbArc
 50
90.0
 51
180.0
  0
ARC
  5
9E
330
1F
100
AcDbEntity
  8
建具
  6
Continuous
 62
     4
370
     9
100
AcDbCircle
 10
44.67890578209418
 20
10.62081950008292
 30
0.0
 40
9.9999991623131
100
AcDbArc
 50
0.0
 51
90.0
  0
ARC
  5
9F
330
1F
100
AcDbEntity
  8
建具
  6
Continuous
 62
     4
370
     9
100
AcDbCircle
 10
44.67902950200551
 20
10.62081950008292
 30
0.0
 40
0.9999999524773778
100
AcDbArc
 50
0.0
 51
90.0
  0
ARC
  5
A0
330
1F
100
AcDbEntity
  8
建具
  6
Continuous
 62
     4
370
     9
100
AcDbCircle
 10
-45.32101998595893
 20
10.62081950008292
 30
0.0
 40
0.9999999524773778
100
AcDbArc
 50
90.0
 51
180.0
  0
LINE
  5
A1
330
1F
100
AcDbEntity
  8
建具
  6
Continuous
 62
     4
370
     9
100
AcDbLine
 10
178.4919982237252
 20
0.0207449382166942
 30
0.0
 11
-750.3210261719546
 21
0.0207449382166942
 31
0.0
  0
LINE
  5
A2
330
1F
100
AcDbEntity
  8
建具
  6
Continuous
 62
     4
370
     9
100
AcDbLine
 10
178.4919982237252
 20
-5.979175881039964
 30
0.0
 11
-750.3210261719546
 21
-5.979175881039964
 31
0.0
  0
LINE
  5
A3
330
1F
100
AcDbEntity
  8
躯体
  6
JWW_DASHED3
 62
     2
370
     9
100
AcDbLine
 10
-149.8210261719555
 20
-59.97920557381872
 30
0.0
 11
-750.3210261719546
 21
-59.97920557381872
 31
0.0
  0
LINE
  5
A4
330
1F
100
AcDbEntity
  8
躯体
  6
Continuous
 62
     2
370
     9
100
AcDbLine
 10
178.4919982237252
 20
-59.97920557381872
 30
0.0
 11
-149.8210261719555
 21
-59.97920557381872
 31
0.0
  0
LINE
  5
A5
330
1F
100
AcDbEntity
  8
その他
  6
Continuous
 62
     7
370
     9
100
AcDbLine
 10
-750.3210261719546
 20
115.4640659733427
 30
0.0
 11
178.4919982237252
 21
115.4640659733427
 31
0.0
  0
LWPOLYLINE
  5
A6
330
1F
100
AcDbEntity
  8
その他
  6
Continuous
 62
     7
370
     9
100
AcDbPolyline
 90
        4
 70
     1
 43
0.4
 10
-750.1210261719546
 20
115.4640659733427
 42
0.4142135623731
 10
-750.3210261719546
 20
115.6640659733427
 42
0.4142135623731
 10
-750.5210261719546
 20
115.4640659733427
 42
0.4142135623731
 10
-750.3210261719546
 20
115.2640659733427
 42
0.4142135623731
  0
LINE
  5
A7
330
1F
100
AcDbEntity
  8
その他
  6
Continuous
 62
     7
370
     9
100
AcDbLine
 10
-750.3210261719546
 20
116.6640659733425
 30
0.0
 11
-750.3210261719546
 21
8.020744938216694
 31
0.0
  0
LINE
  5
A8
330
1F
100
AcDbEntity
  8
その他
  6
Continuous
 62
     7
370
     9
100
AcDbLine
 10
-750.3210261719546
 20
72.64341669180976
 30
0.0
 11
-500.3211292718806
 21
72.64341669180976
 31
0.0
  0
LWPOLYLINE
  5
A9
330
1F
100
AcDbEntity
  8
その他
  6
Continuous
 62
     7
370
     9
100
AcDbPolyline
 90
        4
 70
     1
 43
0.4
 10
-750.1210261719546
 20
72.64341669180976
 42
0.4142135623731
 10
-750.3210261719546
 20
72.84341669180976
 42
0.4142135623731
 10
-750.5210261719546
 20
72.64341669180976
 42
0.4142135623731
 10
-750.3210261719546
 20
72.44341669180976
 42
0.4142135623731
  0
LWPOLYLINE
  5
AA
330
1F
100
AcDbEntity
  8
その他
  6
Continuous
 62
     7
370
     9
100
AcDbPolyline
 90
        4
 70
     1
 43
0.4
 10
-500.1211292718806
 20
72.64341669180976
 42
0.4142135623731
 10
-500.3211292718806
 20
72.84341669180976
 42
0.4142135623731
 10
-500.5211292718806
 20
72.64341669180976
 42
0.4142135623731
 10
-500.3211292718806
 20
72.44341669180976
 42
0.4142135623731
  0
LINE
  5
AB
330
1F
100
AcDbEntity
  8
その他
  6
Continuous
 62
     7
370
     9
100
AcDbLine
 10
-500.3211292718806
 20
73.84341669180981
 30
0.0
 11
-500.3211292718806
 21
28.62060505223667
 31
0.0
  0
TEXT
  5
AC
330
1F
100
AcDbEntity
  8
その他
  6
Continuous
 62
     2
370
   211
100
AcDbText
 10
-638.3210777219176
 20
77.29941669180985
 30
0.0
 40
12.192
  1
250
 41
1.083333333333333
  7
ＭＳ ゴシック
100
AcDbText
  0
LINE
  5
AD
330
1F
100
AcDbEntity
  8
その他
  6
Continuous
 62
     7
370
     9
100
AcDbLine
 10
-500.3211292718806
 20
72.64341669180976
 30
0.0
 11
-0.3210571019323751
 21
72.64341669180976
 31
0.0
  0
LWPOLYLINE
  5
AE
330
1F
100
AcDbEntity
  8
その他
  6
Continuous
 62
     7
370
     9
100
AcDbPolyline
 90
        4
 70
     1
 43
0.4
 10
-0.1210571019323751
 20
72.64341669180976
 42
0.4142135623731
 10
-0.3210571019323751
 20
72.84341669180976
 42
0.4142135623731
 10
-0.5210571019323751
 20
72.64341669180976
 42
0.4142135623731
 10
-0.3210571019323751
 20
72.44341669180976
 42
0.4142135623731
  0
LINE
  5
AF
330
1F
100
AcDbEntity
  8
その他
  6
Continuous
 62
     7
370
     9
100
AcDbLine
 10
-0.3210571019323751
 20
73.84341669180981
 30
0.0
 11
-0.3210571019323751
 21
28.62060505223667
 31
0.0
  0
TEXT
  5
B0
330
1F
100
AcDbEntity
  8
その他
  6
Continuous
 62
     2
370
   211
100
AcDbText
 10
-263.3210931869065
 20
77.29941669180985
 30
0.0
 40
12.192
  1
500
 41
1.083333333333332
  7
ＭＳ ゴシック
100
AcDbText
  0
LINE
  5
B1
330
1F
100
AcDbEntity
  8
その他
  6
Continuous
 62
     7
370
     9
100
AcDbLine
 10
-0.3210571019323751
 20
72.64341669180976
 30
0.0
 11
178.4919982237252
 21
72.64341669180976
 31
0.0
  0
TEXT
  5
B2
330
1F
100
AcDbEntity
  8
その他
  6
Continuous
 62
     2
370
   211
100
AcDbText
 10
-307.9145139741146
 20
120.1200659733426
 30
0.0
 40
12.192
  1
2000
 41
1.09375
  7
ＭＳ ゴシック
100
AcDbText
  0
TEXT
  5
B3
330
1F
100
AcDbEntity
  8
その他
  6
Continuous
 62
     2
370
   211
100
AcDbText
 10
149.5615525057596
 20
77.29941669180985
 30
0.0
 40
12.192
  1
500
 41
1.083333333333333
  7
ＭＳ ゴシック
100
AcDbText
  0
LWPOLYLINE
  5
B4
330
1F
100
AcDbEntity
  8
その他
  6
Continuous
 62
     7
370
     9
100
AcDbPolyline
 90
        4
 70
     1
 43
0.4
 10
376.5547025267495
 20
0.0207449382166942
 42
0.4142135623731
 10
376.3547025267495
 20
0.2207449382166942
 42
0.4142135623731
 10
376.1547025267495
 20
0.0207449382166942
 42
0.4142135623731
 10
376.3547025267495
 20
-0.1792550617833058
 42
0.4142135623731
  0
LWPOLYLINE
  5
B5
330
1F
100
AcDbEntity
  8
その他
  6
Continuous
 62
     7
370
     9
100
AcDbPolyline
 90
        4
 70
     1
 43
0.4
 10
409.8915838466004
 20
-9.478907703400864
 42
0.4142135623731
 10
409.6915838466004
 20
-9.278907703400865
 42
0.4142135623731
 10
409.4915838466004
 20
-9.478907703400864
 42
0.4142135623731
 10
409.6915838466004
 20
-9.678907703400863
 42
0.4142135623731
  0
LINE
  5
B6
330
1F
100
AcDbEntity
  8
その他
  6
Continuous
 62
     7
370
     9
100
AcDbLine
 10
409.6915838466004
 20
-9.478907703400864
 30
0.0
 11
409.6915838466004
 21
-5.979175881039964
 31
0.0
  0
LWPOLYLINE
  5
B7
330
1F
100
AcDbEntity
  8
その他
  6
Continuous
 62
     7
370
     9
100
AcDbPolyline
 90
        4
 70
     1
 43
0.4
 10
409.8915838466004
 20
-5.979175881039964
 42
0.4142135623731
 10
409.6915838466004
 20
-5.779175881039964
 42
0.4142135623731
 10
409.4915838466004
 20
-5.979175881039964
 42
0.4142135623731
 10
409.6915838466004
 20
-6.179175881039964
 42
0.4142135623731
  0
LINE
  5
B8
330
1F
100
AcDbEntity
  8
その他
  6
Continuous
 62
     7
370
     9
100
AcDbLine
 10
409.6915838466004
 20
-5.979175881039964
 30
0.0
 11
409.6915838466004
 21
0.0207490170616893
 31
0.0
  0
LWPOLYLINE
  5
B9
330
1F
100
AcDbEntity
  8
その他
  6
Continuous
 62
     7
370
     9
100
AcDbPolyline
 90
        4
 70
     1
 43
0.4
 10
409.8915838466004
 20
0.0207490170616893
 42
0.4142135623731
 10
409.6915838466004
 20
0.2207490170616893
 42
0.4142135623731
 10
409.4915838466004
 20
0.0207490170616893
 42
0.4142135623731
 10
409.6915838466004
 20
-0.1792509829383107
 42
0.4142135623731
  0
LINE
  5
BA
330
1F
100
AcDbEntity
  8
その他
  6
Continuous
 62
     7
370
     9
100
AcDbLine
 10
375.1547025267495
 20
0.0207449382166942
 30
0.0
 11
520.9687737872124
 21
0.0207449382166942
 31
0.0
  0
LINE
  5
BB
330
1F
100
AcDbEntity
  8
その他
  6
Continuous
 62
     7
370
     9
100
AcDbLine
 10
408.4915838466004
 20
-9.478907703400864
 30
0.0
 11
520.9687737872124
 21
-9.478907703400864
 31
0.0
  0
LINE
  5
BC
330
1F
100
AcDbEntity
  8
その他
  6
Continuous
 62
     7
370
     9
100
AcDbLine
 10
408.4915838466004
 20
-5.979175881039964
 30
0.0
 11
520.9687737872124
 21
-5.979175881039964
 31
0.0
  0
TEXT
  5
BD
330
1F
100
AcDbEntity
  8
その他
  6
Continuous
 62
     2
370
   211
100
AcDbText
 10
405.0355838466004
 20
4.86274139170996
 30
0.0
 40
12.192
  1
6
 50
90.0
  7
ＭＳ ゴシック
100
AcDbText
  0
TEXT
  5
BE
330
1F
100
AcDbEntity
  8
その他
  6
Continuous
 62
     2
370
   211
100
AcDbText
 10
405.0355838466004
 20
-30.70458165246237
 30
0.0
 40
12.192
  1
3.5
 50
90.0
 41
1.083333333333333
  7
ＭＳ ゴシック
100
AcDbText
  0
LINE
  5
BF
330
1F
100
AcDbEntity
  8
その他
  6
Continuous
 62
     7
370
     9
100
AcDbLine
 10
409.6915838466004
 20
0.0207490170616893
 30
0.0
 11
409.6915838466004
 21
17.71851573976733
 31
0.0
  0
LWPOLYLINE
  5
C0
330
1F
100
AcDbEntity
  8
その他
  6
Continuous
 62
     7
370
     9
100
AcDbPolyline
 90
        4
 70
     1
 43
0.4
 10
442.071821561697
 20
-26.97896756027035
 42
0.4142135623731
 10
441.871821561697
 20
-26.77896756027035
 42
0.4142135623731
 10
441.671821561697
 20
-26.97896756027035
 42
0.4142135623731
 10
441.871821561697
 20
-27.17896756027035
 42
0.4142135623731
  0
LINE
  5
C1
330
1F
100
AcDbEntity
  8
その他
  6
Continuous
 62
     7
370
     9
100
AcDbLine
 10
440.671821561697
 20
-26.97896756027035
 30
0.0
 11
520.9687737872124
 21
-26.97896756027035
 31
0.0
  0
LINE
  5
C2
330
1F
100
AcDbEntity
  8
建具
  6
Continuous
 62
     4
370
     9
100
AcDbLine
 10
-555.3211251478838
 20
-330.5792306477208
 30
0.0
 11
-555.3211251478838
 21
-324.4790967002971
 31
0.0
  0
LINE
  5
C3
330
1F
100
AcDbEntity
  8
建具
  6
Continuous
 62
     4
370
     9
100
AcDbLine
 10
-455.3211663878539
 20
-340.5790161998746
 30
0.0
 11
-545.3210921559073
 21
-340.5790161998746
 31
0.0
  0
LINE
  5
C4
330
1F
100
AcDbEntity
  8
建具
  6
Continuous
 62
     4
370
     9
100
AcDbLine
 10
-445.3212571157889
 20
-330.5792306477208
 30
0.0
 11
-445.3212571157889
 21
-324.4790967002971
 31
0.0
  0
LINE
  5
C5
330
1F
100
AcDbEntity
  8
建具
  6
Continuous
 62
     4
370
     9
100
AcDbLine
 10
-454.3211383446741
 20
-330.5792306477208
 30
0.0
 11
-454.3211383446741
 21
-324.4790967002971
 31
0.0
  0
LINE
  5
C6
330
1F
100
AcDbEntity
  8
建具
  6
Continuous
 62
     4
370
     9
100
AcDbLine
 10
-545.3210921559073
 20
-331.5791349709896
 30
0.0
 11
-455.3210426679427
 21
-331.5791349709896
 31
0.0
  0
LINE
  5
C7
330
1F
100
AcDbEntity
  8
建具
  6
Continuous
 62
     4
370
     9
100
AcDbLine
 10
-546.3211201990873
 20
-330.5792306477208
 30
0.0
 11
-546.3211201990873
 21
-324.4790967002971
 31
0.0
  0
LINE
  5
C8
330
1F
100
AcDbEntity
  8
建具
  6
JWW_CENTER1
 62
     4
370
     9
100
AcDbLine
 10
-550.821184533441
 20
-316.3717309116566
 30
0.0
 11
-550.821184533441
 21
-331.969347571285
 31
0.0
  0
LINE
  5
C9
330
1F
100
AcDbEntity
  8
建具
  6
JWW_CENTER1
 62
     4
370
     9
100
AcDbLine
 10
-542.6581447847079
 20
-324.4790967002971
 30
0.0
 11
-559.0651371041758
 21
-324.4790967002971
 31
0.0
  0
LINE
  5
CA
330
1F
100
AcDbEntity
  8
建具
  6
JWW_CENTER1
 62
     4
370
     9
100
AcDbLine
 10
-449.8210121503645
 20
-316.3717309116566
 30
0.0
 11
-449.8210121503645
 21
-331.969347571285
 31
0.0
  0
LINE
  5
CB
330
1F
100
AcDbEntity
  8
建具
  6
JWW_CENTER1
 62
     4
370
     9
100
AcDbLine
 10
-441.658034261587
 20
-324.4790967002971
 30
0.0
 11
-458.0652121609218
 21
-324.4790967002971
 31
0.0
  0
LINE
  5
CC
330
1F
100
AcDbEntity
  8
建具
  6
Continuous
 62
     4
370
     9
100
AcDbLine
 10
-55.32105297793535
 20
-330.5792306477208
 30
0.0
 11
-55.32105297793535
 21
-324.4790967002971
 31
0.0
  0
LINE
  5
CD
330
1F
100
AcDbEntity
  8
建具
  6
Continuous
 62
     4
370
     9
100
AcDbLine
 10
44.67890578209418
 20
-340.5790161998746
 30
0.0
 11
-45.32101998595893
 21
-340.5790161998746
 31
0.0
  0
LINE
  5
CE
330
1F
100
AcDbEntity
  8
建具
  6
Continuous
 62
     4
370
     9
100
AcDbLine
 10
54.67893877407062
 20
-330.5792306477208
 30
0.0
 11
54.67893877407062
 21
-324.4790967002971
 31
0.0
  0
LINE
  5
CF
330
1F
100
AcDbEntity
  8
建具
  6
Continuous
 62
     4
370
     9
100
AcDbLine
 10
45.67893382527414
 20
-330.5792306477208
 30
0.0
 11
45.67893382527414
 21
-324.4790967002971
 31
0.0
  0
LINE
  5
D0
330
1F
100
AcDbEntity
  8
建具
  6
Continuous
 62
     4
370
     9
100
AcDbLine
 10
-45.32101998595893
 20
-331.5791349709896
 30
0.0
 11
44.67902950200551
 21
-331.5791349709896
 31
0.0
  0
LINE
  5
D1
330
1F
100
AcDbEntity
  8
建具
  6
Continuous
 62
     4
370
     9
100
AcDbLine
 10
-46.32117174905024
 20
-330.5792306477208
 30
0.0
 11
-46.32117174905024
 21
-324.4790967002971
 31
0.0
  0
LINE
  5
D2
330
1F
100
AcDbEntity
  8
建具
  6
JWW_CENTER1
 62
     4
370
     9
100
AcDbLine
 10
-50.82111236349279
 20
-316.3717309116566
 30
0.0
 11
-50.82111236349279
 21
-331.969347571285
 31
0.0
  0
LINE
  5
D3
330
1F
100
AcDbEntity
  8
建具
  6
JWW_CENTER1
 62
     4
370
     9
100
AcDbLine
 10
-42.65807261475961
 20
-324.4790967002971
 30
0.0
 11
-59.06518865413889
 21
-324.4790967002971
 31
0.0
  0
LINE
  5
D4
330
1F
100
AcDbEntity
  8
建具
  6
JWW_CENTER1
 62
     4
370
     9
100
AcDbLine
 10
50.17912187953937
 20
-316.3717309116566
 30
0.0
 11
50.17912187953937
 21
-331.969347571285
 31
0.0
  0
LINE
  5
D5
330
1F
100
AcDbEntity
  8
建具
  6
JWW_CENTER1
 62
     4
370
     9
100
AcDbLine
 10
58.34179046853846
 20
-324.4790967002971
 30
0.0
 11
41.93492186898195
 21
-324.4790967002971
 31
0.0
  0
LINE
  5
D6
330
1F
100
AcDbEntity
  8
建具
  6
Continuous
 62
     4
370
     9
100
AcDbLine
 10
-750.3210261719546
 20
-319.9791560858541
 30
0.0
 11
-750.3210261719546
 21
-259.9792055738187
 31
0.0
  0
CIRCLE
  5
D7
330
1F
100
AcDbEntity
  8
建具
  6
Continuous
 62
     4
370
     9
100
AcDbCircle
 10
-550.821184533441
 20
-324.4790967002971
 30
0.0
 40
4.500000057993709
  0
CIRCLE
  5
D8
330
1F
100
AcDbEntity
  8
建具
  6
Continuous
 62
     4
370
     9
100
AcDbCircle
 10
-449.8211977302316
 20
-324.4790967002971
 30
0.0
 40
4.500000057993709
  0
ARC
  5
D9
330
1F
100
AcDbEntity
  8
建具
  6
Continuous
 62
     4
370
     9
100
AcDbCircle
 10
-545.3210921559073
 20
-330.5792306477208
 30
0.0
 40
9.9999991623131
100
AcDbArc
 50
180.0
 51
270.0
  0
ARC
  5
DA
330
1F
100
AcDbEntity
  8
建具
  6
Continuous
 62
     4
370
     9
100
AcDbCircle
 10
-455.3211663878539
 20
-330.5792306477208
 30
0.0
 40
9.9999991623131
100
AcDbArc
 50
270.0
 51
0.0
  0
ARC
  5
DB
330
1F
100
AcDbEntity
  8
建具
  6
Continuous
 62
     4
370
     9
100
AcDbCircle
 10
-455.3210426679427
 20
-330.5792306477208
 30
0.0
 40
0.9999999524773778
100
AcDbArc
 50
270.0
 51
0.0
  0
ARC
  5
DC
330
1F
100
AcDbEntity
  8
建具
  6
Continuous
 62
     4
370
     9
100
AcDbCircle
 10
-545.3210921559073
 20
-330.5792306477208
 30
0.0
 40
0.9999999524773778
100
AcDbArc
 50
180.0
 51
270.0
  0
CIRCLE
  5
DD
330
1F
100
AcDbEntity
  8
建具
  6
Continuous
 62
     4
370
     9
100
AcDbCircle
 10
-50.82111236349279
 20
-324.4790967002971
 30
0.0
 40
4.500000057993709
  0
CIRCLE
  5
DE
330
1F
100
AcDbEntity
  8
建具
  6
Continuous
 62
     4
370
     9
100
AcDbCircle
 10
50.17887443971672
 20
-324.4790967002971
 30
0.0
 40
4.500000057993709
  0
ARC
  5
DF
330
1F
100
AcDbEntity
  8
建具
  6
Continuous
 62
     4
370
     9
100
AcDbCircle
 10
-45.32101998595893
 20
-330.5792306477208
 30
0.0
 40
9.9999991623131
100
AcDbArc
 50
180.0
 51
270.0
  0
ARC
  5
E0
330
1F
100
AcDbEntity
  8
建具
  6
Continuous
 62
     4
370
     9
100
AcDbCircle
 10
44.67890578209418
 20
-330.5792306477208
 30
0.0
 40
9.9999991623131
100
AcDbArc
 50
270.0
 51
0.0
  0
ARC
  5
E1
330
1F
100
AcDbEntity
  8
建具
  6
Continuous
 62
     4
370
     9
100
AcDbCircle
 10
44.67902950200551
 20
-330.5792306477208
 30
0.0
 40
0.9999999524773778
100
AcDbArc
 50
270.0
 51
0.0
  0
ARC
  5
E2
330
1F
100
AcDbEntity
  8
建具
  6
Continuous
 62
     4
370
     9
100
AcDbCircle
 10
-45.32101998595893
 20
-330.5792306477208
 30
0.0
 40
0.9999999524773778
100
AcDbArc
 50
180.0
 51
270.0
  0
LINE
  5
E3
330
1F
100
AcDbEntity
  8
建具
  6
Continuous
 62
     4
370
     9
100
AcDbLine
 10
178.4919982237252
 20
-319.9791560858541
 30
0.0
 11
-750.3210261719546
 21
-319.9791560858541
 31
0.0
  0
LINE
  5
E4
330
1F
100
AcDbEntity
  8
建具
  6
Continuous
 62
     4
370
     9
100
AcDbLine
 10
178.4919982237252
 20
-313.9792352665975
 30
0.0
 11
-750.3210261719546
 21
-313.9792352665975
 31
0.0
  0
LINE
  5
E5
330
1F
100
AcDbEntity
  8
躯体
  6
JWW_DASHED3
 62
     2
370
     9
100
AcDbLine
 10
-149.8210261719555
 20
-259.9792055738187
 30
0.0
 11
-750.3210261719546
 21
-259.9792055738187
 31
0.0
  0
LINE
  5
E6
330
1F
100
AcDbEntity
  8
躯体
  6
Continuous
 62
     2
370
     9
100
AcDbLine
 10
178.4919982237252
 20
-259.9792055738187
 30
0.0
 11
-149.8210261719555
 21
-259.9792055738187
 31
0.0
  0
LINE
  5
E7
330
1F
100
AcDbEntity
  8
その他
  6
Continuous
 62
     7
370
     9
100
AcDbLine
 10
-747.8210261719555
 20
-458.442267182591
 30
0.0
 11
-149.8210261719555
 21
-458.442267182591
 31
0.0
  0
LWPOLYLINE
  5
E8
330
1F
100
AcDbEntity
  8
その他
  6
Continuous
 62
     7
370
     9
100
AcDbPolyline
 90
        4
 70
     1
 43
0.4
 10
-747.6210261719555
 20
-458.442267182591
 42
0.4142135623731
 10
-747.8210261719555
 20
-458.242267182591
 42
0.4142135623731
 10
-748.0210261719556
 20
-458.442267182591
 42
0.4142135623731
 10
-747.8210261719555
 20
-458.642267182591
 42
0.4142135623731
  0
LWPOLYLINE
  5
E9
330
1F
100
AcDbEntity
  8
その他
  6
Continuous
 62
     7
370
     9
100
AcDbPolyline
 90
        4
 70
     1
 43
0.4
 10
-149.6210261719555
 20
-458.442267182591
 42
0.4142135623731
 10
-149.8210261719555
 20
-458.242267182591
 42
0.4142135623731
 10
-150.0210261719555
 20
-458.442267182591
 42
0.4142135623731
 10
-149.8210261719555
 20
-458.642267182591
 42
0.4142135623731
  0
TEXT
  5
EA
330
1F
100
AcDbEntity
  8
その他
  6
Continuous
 62
     2
370
   211
100
AcDbText
 10
-461.8210261719555
 20
-453.7862671825909
 30
0.0
 40
12.192
  1
598
 41
1.083333333333333
  7
ＭＳ ゴシック
100
AcDbText
  0
LINE
  5
EB
330
1F
100
AcDbEntity
  8
その他
  6
Continuous
 62
     7
370
     9
100
AcDbLine
 10
-149.8210261719555
 20
-458.442267182591
 30
0.0
 11
-147.8211236750289
 21
-458.442267182591
 31
0.0
  0
LWPOLYLINE
  5
EC
330
1F
100
AcDbEntity
  8
その他
  6
Continuous
 62
     7
370
     9
100
AcDbPolyline
 90
        4
 70
     1
 43
0.4
 10
-147.6211236750289
 20
-458.442267182591
 42
0.4142135623731
 10
-147.8211236750289
 20
-458.242267182591
 42
0.4142135623731
 10
-148.0211236750289
 20
-458.442267182591
 42
0.4142135623731
 10
-147.8211236750289
 20
-458.642267182591
 42
0.4142135623731
  0
LINE
  5
ED
330
1F
100
AcDbEntity
  8
その他
  6
Continuous
 62
     7
370
     9
100
AcDbLine
 10
-147.8211236750289
 20
-458.442267182591
 30
0.0
 11
178.4919982237252
 21
-458.442267182591
 31
0.0
  0
LINE
  5
EE
330
1F
100
AcDbEntity
  8
その他
  6
Continuous
 62
     7
370
     9
100
AcDbLine
 10
-743.3209413354439
 20
-420.4220436594401
 30
0.0
 11
-154.3211110084662
 21
-420.4220436594401
 31
0.0
  0
LWPOLYLINE
  5
EF
330
1F
100
AcDbEntity
  8
その他
  6
Continuous
 62
     7
370
     9
100
AcDbPolyline
 90
        4
 70
     1
 43
0.4
 10
-743.1209413354438
 20
-420.4220436594401
 42
0.4142135623731
 10
-743.3209413354439
 20
-420.2220436594401
 42
0.4142135623731
 10
-743.5209413354439
 20
-420.4220436594401
 42
0.4142135623731
 10
-743.3209413354439
 20
-420.6220436594401
 42
0.4142135623731
  0
LWPOLYLINE
  5
F0
330
1F
100
AcDbEntity
  8
その他
  6
Continuous
 62
     7
370
     9
100
AcDbPolyline
 90
        4
 70
     1
 43
0.4
 10
-154.1211110084662
 20
-420.4220436594401
 42
0.4142135623731
 10
-154.3211110084662
 20
-420.2220436594401
 42
0.4142135623731
 10
-154.5211110084662
 20
-420.4220436594401
 42
0.4142135623731
 10
-154.3211110084662
 20
-420.6220436594401
 42
0.4142135623731
  0
TEXT
  5
F1
330
1F
100
AcDbEntity
  8
その他
  6
Continuous
 62
     2
370
   211
100
AcDbText
 10
-461.821026171955
 20
-415.7660436594402
 30
0.0
 40
12.192
  1
589
 41
1.083333333333333
  7
ＭＳ ゴシック
100
AcDbText
  0
LINE
  5
F2
330
1F
100
AcDbEntity
  8
その他
  6
Continuous
 62
     7
370
     9
100
AcDbLine
 10
-747.8210261719555
 20
-459.642267182591
 30
0.0
 11
-747.8210261719555
 21
-328.2027780926496
 31
0.0
  0
LINE
  5
F3
330
1F
100
AcDbEntity
  8
その他
  6
Continuous
 62
     7
370
     9
100
AcDbLine
 10
-743.3209413354439
 20
-421.6220436594401
 30
0.0
 11
-743.3209413354439
 21
-328.2027780926496
 31
0.0
  0
LINE
  5
F4
330
1F
100
AcDbEntity
  8
その他
  6
Continuous
 62
     7
370
     9
100
AcDbLine
 10
-147.8211236750289
 20
-459.642267182591
 30
0.0
 11
-147.8211236750289
 21
-328.2027780926496
 31
0.0
  0
LINE
  5
F5
330
1F
100
AcDbEntity
  8
その他
  6
Continuous
 62
     7
370
     9
100
AcDbLine
 10
-149.8210261719555
 20
-459.642267182591
 30
0.0
 11
-149.8210261719555
 21
-328.2027780926496
 31
0.0
  0
LINE
  5
F6
330
1F
100
AcDbEntity
  8
その他
  6
Continuous
 62
     7
370
     9
100
AcDbLine
 10
-154.3211110084662
 20
-421.6220436594401
 30
0.0
 11
-154.3211110084662
 21
-328.2027780926496
 31
0.0
  0
TEXT
  5
F7
330
1F
100
AcDbEntity
  8
その他
  6
Continuous
 62
     2
370
   211
100
AcDbText
 10
151.0517068431731
 20
-453.7862671825909
 30
0.0
 40
12.192
  1
598
 41
1.083333333333333
  7
ＭＳ ゴシック
100
AcDbText
  0
TEXT
  5
F8
330
1F
100
AcDbEntity
  8
その他
  6
Continuous
 62
     2
370
   211
100
AcDbText
 10
-141.5129552111105
 20
-453.7862671825909
 30
0.0
 40
12.192
  1
2
  7
ＭＳ ゴシック
100
AcDbText
  0
LWPOLYLINE
  5
F9
330
1F
100
AcDbEntity
  8
その他
  6
Continuous
 62
     7
370
     9
100
AcDbPolyline
 90
        4
 70
     1
 43
0.4
 10
376.5547025267495
 20
-319.9791560858541
 42
0.4142135623731
 10
376.3547025267495
 20
-319.7791560858541
 42
0.4142135623731
 10
376.1547025267495
 20
-319.9791560858541
 42
0.4142135623731
 10
376.3547025267495
 20
-320.1791560858541
 42
0.4142135623731
  0
LINE
  5
FA
330
1F
100
AcDbEntity
  8
その他
  6
Continuous
 62
     7
370
     9
100
AcDbLine
 10
409.6915838466004
 20
-319.9791560858541
 30
0.0
 11
409.6915838466004
 21
-313.9792352665975
 31
0.0
  0
LWPOLYLINE
  5
FB
330
1F
100
AcDbEntity
  8
その他
  6
Continuous
 62
     7
370
     9
100
AcDbPolyline
 90
        4
 70
     1
 43
0.4
 10
409.8915838466004
 20
-319.9791560858541
 42
0.4142135623731
 10
409.6915838466004
 20
-319.7791560858541
 42
0.4142135623731
 10
409.4915838466004
 20
-319.9791560858541
 42
0.4142135623731
 10
409.6915838466004
 20
-320.1791560858541
 42
0.4142135623731
  0
LWPOLYLINE
  5
FC
330
1F
100
AcDbEntity
  8
その他
  6
Continuous
 62
     7
370
     9
100
AcDbPolyline
 90
        4
 70
     1
 43
0.4
 10
409.8915838466004
 20
-313.9792352665975
 42
0.4142135623731
 10
409.6915838466004
 20
-313.7792352665975
 42
0.4142135623731
 10
409.4915838466004
 20
-313.9792352665975
 42
0.4142135623731
 10
409.6915838466004
 20
-314.1792352665975
 42
0.4142135623731
  0
LINE
  5
FD
330
1F
100
AcDbEntity
  8
その他
  6
Continuous
 62
     7
370
     9
100
AcDbLine
 10
409.6915838466004
 20
-313.9792352665975
 30
0.0
 11
409.6915838466004
 21
-310.4795034442288
 31
0.0
  0
LWPOLYLINE
  5
FE
330
1F
100
AcDbEntity
  8
その他
  6
Continuous
 62
     7
370
     9
100
AcDbPolyline
 90
        4
 70
     1
 43
0.4
 10
409.8915838466004
 20
-310.4795034442288
 42
0.4142135623731
 10
409.6915838466004
 20
-310.2795034442289
 42
0.4142135623731
 10
409.4915838466004
 20
-310.4795034442288
 42
0.4142135623731
 10
409.6915838466004
 20
-310.6795034442288
 42
0.4142135623731
  0
LINE
  5
FF
330
1F
100
AcDbEntity
  8
その他
  6
Continuous
 62
     7
370
     9
100
AcDbLine
 10
500.7630757749309
 20
-313.9792352665975
 30
0.0
 11
500.7630757749309
 21
-307.9795034442288
 31
0.0
  0
LWPOLYLINE
  5
100
330
1F
100
AcDbEntity
  8
その他
  6
Continuous
 62
     7
370
     9
100
AcDbPolyline
 90
        4
 70
     1
 43
0.4
 10
500.9630757749309
 20
-313.9792352665975
 42
0.4142135623731
 10
500.7630757749309
 20
-313.7792352665975
 42
0.4142135623731
 10
500.563075774931
 20
-313.9792352665975
 42
0.4142135623731
 10
500.7630757749309
 20
-314.1792352665975
 42
0.4142135623731
  0
LWPOLYLINE
  5
101
330
1F
100
AcDbEntity
  8
その他
  6
Continuous
 62
     7
370
     9
100
AcDbPolyline
 90
        4
 70
     1
 43
0.4
 10
500.9630757749309
 20
-307.9795034442288
 42
0.4142135623731
 10
500.7630757749309
 20
-307.7795034442289
 42
0.4142135623731
 10
500.563075774931
 20
-307.9795034442288
 42
0.4142135623731
 10
500.7630757749309
 20
-308.1795034442288
 42
0.4142135623731
  0
LINE
  5
102
330
1F
100
AcDbEntity
  8
その他
  6
Continuous
 62
     7
370
     9
100
AcDbLine
 10
500.7630757749309
 20
-307.9795034442288
 30
0.0
 11
500.7630757749309
 21
-303.4795628297873
 31
0.0
  0
LWPOLYLINE
  5
103
330
1F
100
AcDbEntity
  8
その他
  6
Continuous
 62
     7
370
     9
100
AcDbPolyline
 90
        4
 70
     1
 43
0.4
 10
500.9630757749309
 20
-303.4795628297873
 42
0.4142135623731
 10
500.7630757749309
 20
-303.2795628297873
 42
0.4142135623731
 10
500.563075774931
 20
-303.4795628297873
 42
0.4142135623731
 10
500.7630757749309
 20
-303.6795628297872
 42
0.4142135623731
  0
LINE
  5
104
330
1F
100
AcDbEntity
  8
その他
  6
Continuous
 62
     7
370
     9
100
AcDbLine
 10
500.7630757749309
 20
-303.4795628297873
 30
0.0
 11
500.7630757749309
 21
-297.4793842018009
 31
0.0
  0
LWPOLYLINE
  5
105
330
1F
100
AcDbEntity
  8
その他
  6
Continuous
 62
     7
370
     9
100
AcDbPolyline
 90
        4
 70
     1
 43
0.4
 10
500.9630757749309
 20
-297.4793842018009
 42
0.4142135623731
 10
500.7630757749309
 20
-297.279384201801
 42
0.4142135623731
 10
500.563075774931
 20
-297.4793842018009
 42
0.4142135623731
 10
500.7630757749309
 20
-297.6793842018009
 42
0.4142135623731
  0
LINE
  5
106
330
1F
100
AcDbEntity
  8
その他
  6
Continuous
 62
     7
370
     9
100
AcDbLine
 10
499.563075774931
 20
-313.9792352665975
 30
0.0
 11
520.9687737872124
 21
-313.9792352665975
 31
0.0
  0
LINE
  5
107
330
1F
100
AcDbEntity
  8
その他
  6
Continuous
 62
     7
370
     9
100
AcDbLine
 10
499.563075774931
 20
-307.9795034442288
 30
0.0
 11
520.9687737872124
 21
-307.9795034442288
 31
0.0
  0
LINE
  5
108
330
1F
100
AcDbEntity
  8
その他
  6
Continuous
 62
     7
370
     9
100
AcDbLine
 10
499.563075774931
 20
-303.4795628297873
 30
0.0
 11
520.9687737872124
 21
-303.4795628297873
 31
0.0
  0
LINE
  5
109
330
1F
100
AcDbEntity
  8
その他
  6
Continuous
 62
     7
370
     9
100
AcDbLine
 10
499.563075774931
 20
-297.4793842018009
 30
0.0
 11
520.9687737872124
 21
-297.4793842018009
 31
0.0
  0
TEXT
  5
10A
330
1F
100
AcDbEntity
  8
その他
  6
Continuous
 62
     2
370
   211
100
AcDbText
 10
405.0355838466004
 20
-332.8553119463538
 30
0.0
 40
12.192
  1
6
 50
90.0
  7
ＭＳ ゴシック
100
AcDbText
  0
TEXT
  5
10B
330
1F
100
AcDbEntity
  8
その他
  6
Continuous
 62
     2
370
   211
100
AcDbText
 10
405.0355838466004
 20
-314.3040139746195
 30
0.0
 40
12.192
  1
3.5
 50
90.0
 41
1.083333333333333
  7
ＭＳ ゴシック
100
AcDbText
  0
LINE
  5
10C
330
1F
100
AcDbEntity
  8
その他
  6
Continuous
 62
     7
370
     9
100
AcDbLine
 10
409.6915838466004
 20
-319.9791560858541
 30
0.0
 11
409.6915838466004
 21
-336.8784921249357
 31
0.0
  0
TEXT
  5
10D
330
1F
100
AcDbEntity
  8
その他
  6
Continuous
 62
     2
370
   211
100
AcDbText
 10
496.107075774931
 20
-327.5443703501542
 30
0.0
 40
12.192
  1
6
 50
90.0
  7
ＭＳ ゴシック
100
AcDbText
  0
TEXT
  5
10E
330
1F
100
AcDbEntity
  8
その他
  6
Continuous
 62
     2
370
   211
100
AcDbText
 10
496.107075774931
 20
-295.1488881196533
 30
0.0
 40
12.192
  1
6
 50
90.0
  7
ＭＳ ゴシック
100
AcDbText
  0
LINE
  5
10F
330
1F
100
AcDbEntity
  8
その他
  6
Continuous
 62
     7
370
     9
100
AcDbLine
 10
500.7630757749309
 20
-305.729533137008
 30
0.0
 11
479.3214598641827
 21
-314.9661273919219
 31
0.0
  0
LINE
  5
110
330
1F
100
AcDbEntity
  8
その他
  6
Continuous
 62
     7
370
     9
100
AcDbLine
 10
479.3214598641827
 20
-314.9661273919219
 30
0.0
 11
479.3214598641827
 21
-339.7925717180999
 31
0.0
  0
TEXT
  5
111
330
1F
100
AcDbEntity
  8
その他
  6
Continuous
 62
     2
370
   211
100
AcDbText
 10
474.3406062186265
 20
-342.7005211790031
 30
0.0
 40
12.192
  1
4.5
 50
90.0
 41
1.083333333333333
  7
ＭＳ ゴシック
100
AcDbText
  0
LINE
  5
112
330
1F
100
AcDbEntity
  8
その他
  6
Continuous
 62
     7
370
     9
100
AcDbLine
 10
500.7630757749309
 20
-313.9792352665975
 30
0.0
 11
500.7630757749309
 21
-328.2876341035296
 31
0.0
  0
LINE
  5
113
330
1F
100
AcDbEntity
  8
その他
  6
Continuous
 62
     7
370
     9
100
AcDbLine
 10
500.7630757749309
 20
-297.4793842018009
 30
0.0
 11
500.7630757749309
 21
-285.0936577961952
 31
0.0
  0
LWPOLYLINE
  5
114
330
1F
100
AcDbEntity
  8
その他
  6
Continuous
 62
     7
370
     9
100
AcDbPolyline
 90
        4
 70
     1
 43
0.4
 10
442.071821561697
 20
-292.9794435873594
 42
0.4142135623731
 10
441.871821561697
 20
-292.7794435873594
 42
0.4142135623731
 10
441.671821561697
 20
-292.9794435873594
 42
0.4142135623731
 10
441.871821561697
 20
-293.1794435873593
 42
0.4142135623731
  0
LINE
  5
115
330
1F
100
AcDbEntity
  8
その他
  6
Continuous
 62
     7
370
     9
100
AcDbLine
 10
440.671821561697
 20
-292.9794435873594
 30
0.0
 11
458.4372227798392
 21
-292.9794435873594
 31
0.0
  0
LINE
  5
116
330
1F
100
AcDbEntity
  8
その他
  6
Continuous
 62
     7
370
     9
100
AcDbLine
 10
408.4915838466004
 20
-310.4795034442288
 30
0.0
 11
458.4372227798392
 21
-310.4795034442288
 31
0.0
  0
LINE
  5
117
330
1F
100
AcDbEntity
  8
その他
  6
Continuous
 62
     7
370
     9
100
AcDbLine
 10
375.1547025267495
 20
-319.9791560858541
 30
0.0
 11
458.4372227798392
 21
-319.9791560858541
 31
0.0
  0
LINE
  5
118
330
1F
100
AcDbEntity
  8
その他
  6
Continuous
 62
     7
370
     9
100
AcDbLine
 10
408.4915838466004
 20
-313.9792352665975
 30
0.0
 11
458.4372227798392
 21
-313.9792352665975
 31
0.0
  0
LINE
  5
119
330
1F
100
AcDbEntity
  8
建具
  6
Continuous
 62
     4
370
     9
100
AcDbLine
 10
194.2606006944908
 20
-143.7833904190227
 30
0.0
 11
177.1373938084053
 21
-160.9066591650633
 31
0.0
  0
LINE
  5
11A
330
1F
100
AcDbEntity
  8
建具
  6
Continuous
 62
     4
370
     9
100
AcDbLine
 10
161.3686725114249
 20
-176.6753186020885
 30
0.0
 11
177.1373938084053
 21
-160.9066591650633
 31
0.0
  0
LINE
  5
11B
330
1F
100
AcDbEntity
  8
建具
  6
Continuous
 62
     4
370
     9
100
AcDbLine
 10
161.3686725114249
 20
-176.6753185990226
 30
0.0
 11
178.4919982237252
 21
-176.6753185990226
 31
0.0
  0
LINE
  5
11C
330
1F
100
AcDbEntity
  8
建具
  6
Continuous
 62
     4
370
     9
100
AcDbLine
 10
178.4919982237252
 20
20.62091435201523
 30
0.0
 11
178.4919982237252
 21
-143.7833904190227
 31
0.0
  0
LINE
  5
11D
330
1F
100
AcDbEntity
  8
建具
  6
Continuous
 62
     4
370
     9
100
AcDbLine
 10
194.2606006944908
 20
-143.7833904190227
 30
0.0
 11
178.4919982237252
 21
-143.7833904190227
 31
0.0
  0
LINE
  5
11E
330
1F
100
AcDbEntity
  8
建具
  6
Continuous
 62
     4
370
     9
100
AcDbLine
 10
178.4919982237252
 20
-340.5792017797414
 30
0.0
 11
178.4919982237252
 21
-176.6753185990226
 31
0.0
  0
LINE
  5
11F
330
1F
100
AcDbEntity
  8
その他
  6
Continuous
 62
     7
370
     9
100
AcDbLine
 10
441.871821561697
 20
-26.97896756027035
 30
0.0
 11
441.871821561697
 21
-292.9794435873594
 31
0.0
  0
TEXT
  5
120
330
1F
100
AcDbEntity
  8
その他
  6
Continuous
 62
     2
370
   211
100
AcDbText
 10
437.215821561697
 20
-172.9792055738149
 30
0.0
 40
12.192
  1
266
 50
90.0
 41
1.083333333333333
  7
ＭＳ ゴシック
100
AcDbText
  0
LINE
  5
121
330
1F
100
AcDbEntity
  8
その他
  6
Continuous
 62
     7
370
     9
100
AcDbLine
 10
409.6915838466004
 20
-310.4795034442288
 30
0.0
 11
409.6915838466004
 21
-9.478907703400864
 31
0.0
  0
TEXT
  5
122
330
1F
100
AcDbEntity
  8
その他
  6
Continuous
 62
     2
370
   211
100
AcDbText
 10
405.0355838466004
 20
-172.9792055738149
 30
0.0
 40
12.192
  1
301
 50
90.0
 41
1.083333333333333
  7
ＭＳ ゴシック
100
AcDbText
  0
LINE
  5
123
330
1F
100
AcDbEntity
  8
その他
  6
Continuous
 62
     7
370
     9
100
AcDbLine
 10
376.3547025267495
 20
0.0207449382166942
 30
0.0
 11
376.3547025267495
 21
-319.9791560858541
 31
0.0
  0
TEXT
  5
124
330
1F
100
AcDbEntity
  8
その他
  6
Continuous
 62
     2
370
   211
100
AcDbText
 10
371.6987025267495
 20
-172.9792055738187
 30
0.0
 40
12.192
  1
320
 50
90.0
 41
1.083333333333333
  7
ＭＳ ゴシック
100
AcDbText
  0
LWPOLYLINE
  5
125
330
1F
100
AcDbEntity
  8
その他
  6
Continuous
 62
     7
370
     9
100
AcDbPolyline
 90
        4
 70
     1
 43
0.4
 10
531.8416775261086
 20
54.75949498404611
 42
0.4142135623731
 10
531.6416775261085
 20
54.95949498404612
 42
0.4142135623731
 10
531.4416775261085
 20
54.75949498404611
 42
0.4142135623731
 10
531.6416775261085
 20
54.55949498404611
 42
0.4142135623731
  0
LINE
  5
126
330
1F
100
AcDbEntity
  8
その他
  6
Continuous
 62
     7
370
     9
100
AcDbLine
 10
531.6416775261085
 20
85.84773340874017
 30
0.0
 11
531.6416775261085
 21
8.020744938216694
 31
0.0
  0
LWPOLYLINE
  5
127
330
1F
100
AcDbEntity
  8
その他
  6
Continuous
 62
     7
370
     9
100
AcDbPolyline
 90
        4
 70
     1
 43
0.4
 10
531.8416775261086
 20
84.64773340874012
 42
0.4142135623731
 10
531.6416775261085
 20
84.84773340874013
 42
0.4142135623731
 10
531.4416775261085
 20
84.64773340874012
 42
0.4142135623731
 10
531.6416775261085
 20
84.44773340874012
 42
0.4142135623731
  0
TEXT
  5
128
330
1F
100
AcDbEntity
  8
寸法
  6
Continuous
 62
     7
370
     0
100
AcDbText
 10
731.8711462384136
 20
142.2428747900326
 30
0.0
 40
9.144
  1
アンカー：φ９
 50
359.9999409281058
 41
1.142857142857145
  7
ＭＳ ゴシック
100
AcDbText
  0
LINE
  5
129
330
1F
100
AcDbEntity
  8
寸法
  6
Continuous
 62
     7
370
     9
100
AcDbLine
 10
729.6282420857962
 20
137.0912316770527
 30
0.0
 11
660.6414757644062
 21
17.60264735852274
 31
0.0
  0
LINE
  5
12A
330
1F
100
AcDbEntity
  8
寸法
  6
Continuous
 62
     7
370
     9
100
AcDbLine
 10
660.6414757644062
 20
17.60264735852274
 30
0.0
 11
664.4683100880571
 21
26.84144268363571
 31
0.0
  0
LINE
  5
12B
330
1F
100
AcDbEntity
  8
寸法
  6
Continuous
 62
     7
370
     9
100
AcDbLine
 10
660.6414757644062
 20
17.60264735852274
 30
0.0
 11
666.7290900544937
 21
25.53618076143516
 31
0.0
  0
LINE
  5
12C
330
1F
100
AcDbEntity
  8
寸法
  6
Continuous
 62
     7
370
     9
100
AcDbLine
 10
554.0930078463297
 20
0.0206212183068146
 30
0.0
 11
548.0053935562422
 21
7.954154621219232
 31
0.0
  0
LINE
  5
12D
330
1F
100
AcDbEntity
  8
寸法
  6
Continuous
 62
     7
370
     9
100
AcDbLine
 10
554.0930078463297
 20
0.0206212183068146
 30
0.0
 11
550.2661735226787
 21
9.259416543419775
 31
0.0
  0
LINE
  5
12E
330
1F
100
AcDbEntity
  8
その他
  6
Continuous
 62
     7
370
     9
100
AcDbLine
 10
676.3311554151636
 20
0.0207449382166942
 30
0.0
 11
676.3311554151636
 21
-59.97920557381872
 31
0.0
  0
LWPOLYLINE
  5
12F
330
1F
100
AcDbEntity
  8
その他
  6
Continuous
 62
     7
370
     9
100
AcDbPolyline
 90
        4
 70
     1
 43
0.4
 10
676.5311554151637
 20
0.0207449382166942
 42
0.4142135623731
 10
676.3311554151636
 20
0.2207449382166942
 42
0.4142135623731
 10
676.1311554151636
 20
0.0207449382166942
 42
0.4142135623731
 10
676.3311554151636
 20
-0.1792550617833058
 42
0.4142135623731
  0
LWPOLYLINE
  5
130
330
1F
100
AcDbEntity
  8
その他
  6
Continuous
 62
     7
370
     9
100
AcDbPolyline
 90
        4
 70
     1
 43
0.4
 10
676.5311554151637
 20
-59.97920557381872
 42
0.4142135623731
 10
676.3311554151636
 20
-59.77920557381871
 42
0.4142135623731
 10
676.1311554151636
 20
-59.97920557381872
 42
0.4142135623731
 10
676.3311554151636
 20
-60.17920557381872
 42
0.4142135623731
  0
LINE
  5
131
330
1F
100
AcDbEntity
  8
その他
  6
Continuous
 62
     7
370
     9
100
AcDbLine
 10
677.5311554151637
 20
-59.97920557381872
 30
0.0
 11
618.8418447954285
 21
-59.97920557381872
 31
0.0
  0
TEXT
  5
132
330
1F
100
AcDbEntity
  8
その他
  6
Continuous
 62
     2
370
   211
100
AcDbText
 10
671.6751554151637
 20
-38.47923031780101
 30
0.0
 40
12.192
  1
60
 50
90.0
 41
1.0625
  7
ＭＳ ゴシック
100
AcDbText
  0
LINE
  5
133
330
1F
100
AcDbEntity
  8
その他
  6
Continuous
 62
     7
370
     9
100
AcDbLine
 10
677.5311554151637
 20
0.0207449382166942
 30
0.0
 11
618.8418447954285
 21
0.0207449382166942
 31
0.0
  0
LWPOLYLINE
  5
134
330
1F
100
AcDbEntity
  8
その他
  6
Continuous
 62
     7
370
     9
100
AcDbPolyline
 90
        4
 70
     1
 43
0.4
 10
611.0418447954286
 20
84.64773340874012
 42
0.4142135623731
 10
610.8418447954285
 20
84.84773340874013
 42
0.4142135623731
 10
610.6418447954285
 20
84.64773340874012
 42
0.4142135623731
 10
610.8418447954285
 20
84.44773340874012
 42
0.4142135623731
  0
LWPOLYLINE
  5
135
330
1F
100
AcDbEntity
  8
その他
  6
Continuous
 62
     7
370
     9
100
AcDbPolyline
 90
        4
 70
     1
 43
0.4
 10
605.0419239761719
 20
54.75949498404611
 42
0.4142135623731
 10
604.8419239761719
 20
54.95949498404612
 42
0.4142135623731
 10
604.6419239761718
 20
54.75949498404611
 42
0.4142135623731
 10
604.8419239761719
 20
54.55949498404611
 42
0.4142135623731
  0
LINE
  5
136
330
1F
100
AcDbEntity
  8
その他
  6
Continuous
 62
     7
370
     9
100
AcDbLine
 10
604.8419239761719
 20
55.95949498404616
 30
0.0
 11
604.8419239761719
 21
18.99579088612177
 31
0.0
  0
LINE
  5
137
330
1F
100
AcDbEntity
  8
その他
  6
Continuous
 62
     7
370
     9
100
AcDbLine
 10
610.8418447954285
 20
85.84773340874017
 30
0.0
 11
610.8418447954285
 21
18.99579088612177
 31
0.0
  0
LWPOLYLINE
  5
138
330
1F
100
AcDbEntity
  8
その他
  6
Continuous
 62
     7
370
     9
100
AcDbPolyline
 90
        4
 70
     1
 43
0.4
 10
676.5311554151637
 20
-259.9792055738187
 42
0.4142135623731
 10
676.3311554151636
 20
-259.7792055738187
 42
0.4142135623731
 10
676.1311554151636
 20
-259.9792055738187
 42
0.4142135623731
 10
676.3311554151636
 20
-260.1792055738187
 42
0.4142135623731
  0
LINE
  5
139
330
1F
100
AcDbEntity
  8
その他
  6
Continuous
 62
     7
370
     9
100
AcDbLine
 10
677.5311554151637
 20
-259.9792055738187
 30
0.0
 11
618.8418447954285
 21
-259.9792055738187
 31
0.0
  0
LINE
  5
13A
330
1F
100
AcDbEntity
  8
その他
  6
Continuous
 62
     7
370
     9
100
AcDbLine
 10
676.3311554151636
 20
-259.9792055738187
 30
0.0
 11
676.3311554151636
 21
-319.9791560858541
 31
0.0
  0
LWPOLYLINE
  5
13B
330
1F
100
AcDbEntity
  8
その他
  6
Continuous
 62
     7
370
     9
100
AcDbPolyline
 90
        4
 70
     1
 43
0.4
 10
676.5311554151637
 20
-319.9791560858541
 42
0.4142135623731
 10
676.3311554151636
 20
-319.7791560858541
 42
0.4142135623731
 10
676.1311554151636
 20
-319.9791560858541
 42
0.4142135623731
 10
676.3311554151636
 20
-320.1791560858541
 42
0.4142135623731
  0
TEXT
  5
13C
330
1F
100
AcDbEntity
  8
その他
  6
Continuous
 62
     2
370
   211
100
AcDbText
 10
671.6751554151637
 20
-298.4791808298364
 30
0.0
 40
12.192
  1
60
 50
90.0
 41
1.0625
  7
ＭＳ ゴシック
100
AcDbText
  0
LINE
  5
13D
330
1F
100
AcDbEntity
  8
その他
  6
Continuous
 62
     7
370
     9
100
AcDbLine
 10
677.5311554151637
 20
-319.9791560858541
 30
0.0
 11
618.8418447954285
 21
-319.9791560858541
 31
0.0
  0
LINE
  5
13E
330
1F
100
AcDbEntity
  8
仕上
  6
Continuous
 62
     7
370
     9
100
AcDbLine
 10
572.8407948889616
 20
-310.4795034442329
 30
0.0
 11
572.8407948889616
 21
-304.4794567841534
 31
0.0
  0
LINE
  5
13F
330
1F
100
AcDbEntity
  8
仕上
  6
Continuous
 62
     7
370
     9
100
AcDbLine
 10
572.8418480946265
 20
-310.4795034442329
 30
0.0
 11
544.1416379357369
 21
-310.4795034442329
 31
0.0
  0
LINE
  5
140
330
1F
100
AcDbEntity
  8
仕上
  6
Continuous
 62
     7
370
     9
100
AcDbLine
 10
544.1416379357369
 20
-310.4795034442329
 30
0.0
 11
544.1416379357369
 21
-307.9795034442329
 31
0.0
  0
LINE
  5
141
330
1F
100
AcDbEntity
  8
仕上
  6
Continuous
 62
     7
370
     9
100
AcDbLine
 10
540.6416379357369
 20
-303.4795628297913
 30
0.0
 11
540.6416379357369
 21
-297.479384201805
 31
0.0
  0
LINE
  5
142
330
1F
100
AcDbEntity
  8
仕上
  6
Continuous
 62
     7
370
     9
100
AcDbLine
 10
553.8418101538535
 20
-304.4794567841534
 30
0.0
 11
553.8418101538535
 21
-297.479384201805
 31
0.0
  0
LINE
  5
143
330
1F
100
AcDbEntity
  8
仕上
  6
Continuous
 62
     7
370
     9
100
AcDbLine
 10
572.8418480946265
 20
-304.4794567841534
 30
0.0
 11
553.8418101538535
 21
-304.4794567841534
 31
0.0
  0
LINE
  5
144
330
1F
100
AcDbEntity
  8
仕上
  6
Continuous
 62
     7
370
     9
100
AcDbLine
 10
547.6417105180848
 20
-307.9795034442329
 30
0.0
 11
547.6417105180848
 21
-303.4795628297913
 31
0.0
  0
LINE
  5
145
330
1F
100
AcDbEntity
  8
仕上
  6
Continuous
 62
     7
370
     9
100
AcDbLine
 10
547.6417105180843
 20
-11.9789077034045
 30
0.0
 11
547.6417105180843
 21
-16.47884831784609
 31
0.0
  0
LINE
  5
146
330
1F
100
AcDbEntity
  8
仕上
  6
Continuous
 62
     7
370
     9
100
AcDbLine
 10
572.8407948889616
 20
-9.478907703404502
 30
0.0
 11
572.8407948889616
 21
-15.47895436348767
 31
0.0
  0
LINE
  5
147
330
1F
100
AcDbEntity
  8
仕上
  6
Continuous
 62
     7
370
     9
100
AcDbLine
 10
572.8418480946265
 20
-9.478907703404502
 30
0.0
 11
544.1416379357369
 21
-9.478907703404502
 31
0.0
  0
LINE
  5
148
330
1F
100
AcDbEntity
  8
仕上
  6
Continuous
 62
     7
370
     9
100
AcDbLine
 10
544.1416379357369
 20
-9.478907703404502
 30
0.0
 11
544.1416379357369
 21
-11.9789077034045
 31
0.0
  0
LINE
  5
149
330
1F
100
AcDbEntity
  8
仕上
  6
Continuous
 62
     7
370
     9
100
AcDbLine
 10
540.6416379357369
 20
-16.47884831784609
 30
0.0
 11
540.6416379357369
 21
-22.4790269458324
 31
0.0
  0
LINE
  5
14A
330
1F
100
AcDbEntity
  8
仕上
  6
Continuous
 62
     7
370
     9
100
AcDbLine
 10
553.8418101538535
 20
-15.47895436348767
 30
0.0
 11
553.8418101538535
 21
-22.4790269458324
 31
0.0
  0
LINE
  5
14B
330
1F
100
AcDbEntity
  8
仕上
  6
Continuous
 62
     7
370
     9
100
AcDbLine
 10
572.8418480946265
 20
-15.47895436348767
 30
0.0
 11
553.8418101538535
 21
-15.47895436348767
 31
0.0
  0
LINE
  5
14C
330
1F
100
AcDbEntity
  8
仕上
  6
Continuous
 62
     2
370
     9
100
AcDbLine
 10
597.8418794370031
 20
-310.4795034442329
 30
0.0
 11
597.8418794370031
 21
-305.9792649593771
 31
0.0
  0
LINE
  5
14D
330
1F
100
AcDbEntity
  8
仕上
  6
Continuous
 62
     2
370
     9
100
AcDbLine
 10
572.8418480946265
 20
-310.4795034442329
 30
0.0
 11
597.8418794370031
 21
-310.4795034442329
 31
0.0
  0
LINE
  5
14E
330
1F
100
AcDbEntity
  8
仕上
  6
Continuous
 62
     2
370
     9
100
AcDbLine
 10
604.8419239761719
 20
-305.9792649593771
 30
0.0
 11
572.8418480946265
 21
-305.9792649593771
 31
0.0
  0
LINE
  5
14F
330
1F
100
AcDbEntity
  8
仕上
  6
Continuous
 62
     2
370
     9
100
AcDbLine
 10
604.8419239761719
 20
-13.9791461882603
 30
0.0
 11
572.8418480946265
 21
-13.9791461882603
 31
0.0
  0
LINE
  5
150
330
1F
100
AcDbEntity
  8
仕上
  6
Continuous
 62
     2
370
     9
100
AcDbLine
 10
598.8418794370031
 20
-9.478907703404502
 30
0.0
 11
598.8418794370031
 21
-13.9791461882603
 31
0.0
  0
LINE
  5
151
330
1F
100
AcDbEntity
  8
仕上
  6
Continuous
 62
     2
370
     9
100
AcDbLine
 10
572.8418480946265
 20
-9.478907703404502
 30
0.0
 11
598.8418794370031
 21
-9.478907703404502
 31
0.0
  0
LINE
  5
152
330
1F
100
AcDbEntity
  8
仕上
  6
Continuous
 62
     7
370
     9
100
AcDbLine
 10
569.6418325883973
 20
-297.479384201805
 30
0.0
 11
569.6418325883973
 21
-22.4790269458324
 31
0.0
  0
LINE
  5
153
330
1F
100
AcDbEntity
  8
仕上
  6
Continuous
 62
     7
370
     9
100
AcDbLine
 10
569.6418325883973
 20
-292.9794435873634
 30
0.0
 11
531.6416329869397
 21
-292.9794435873634
 31
0.0
  0
LINE
  5
154
330
1F
100
AcDbEntity
  8
仕上
  6
Continuous
 62
     7
370
     9
100
AcDbLine
 10
572.8418480946265
 20
-297.479384201805
 30
0.0
 11
531.6416329869397
 21
-297.479384201805
 31
0.0
  0
LINE
  5
155
330
1F
100
AcDbEntity
  8
仕上
  6
Continuous
 62
     7
370
     9
100
AcDbLine
 10
547.6417105180848
 20
-307.9795034442329
 30
0.0
 11
531.6416329869397
 21
-307.9795034442329
 31
0.0
  0
LINE
  5
156
330
1F
100
AcDbEntity
  8
仕上
  6
Continuous
 62
     7
370
     9
100
AcDbLine
 10
547.6417105180848
 20
-303.4795628297913
 30
0.0
 11
531.6416329869397
 21
-303.4795628297913
 31
0.0
  0
LINE
  5
157
330
1F
100
AcDbEntity
  8
仕上
  6
Continuous
 62
     7
370
     9
100
AcDbLine
 10
531.6416329869397
 20
-307.9795034442329
 30
0.0
 11
531.6416329869397
 21
-303.4795628297913
 31
0.0
  0
LINE
  5
158
330
1F
100
AcDbEntity
  8
仕上
  6
Continuous
 62
     2
370
     9
100
AcDbLine
 10
572.8418480946265
 20
-9.478907703404502
 30
0.0
 11
572.8418480946265
 21
-310.4795034442329
 31
0.0
  0
LINE
  5
159
330
1F
100
AcDbEntity
  8
仕上
  6
Continuous
 62
     7
370
     9
100
AcDbLine
 10
531.6416329869397
 20
-297.479384201805
 30
0.0
 11
531.6416329869397
 21
-22.4790269458324
 31
0.0
  0
LINE
  5
15A
330
1F
100
AcDbEntity
  8
仕上
  6
Continuous
 62
     7
370
     9
100
AcDbLine
 10
569.6418325883973
 20
-26.97896756027399
 30
0.0
 11
531.6416329869397
 21
-26.97896756027399
 31
0.0
  0
LINE
  5
15B
330
1F
100
AcDbEntity
  8
仕上
  6
Continuous
 62
     7
370
     9
100
AcDbLine
 10
572.8418480946265
 20
-22.4790269458324
 30
0.0
 11
531.6416329869397
 21
-22.4790269458324
 31
0.0
  0
LINE
  5
15C
330
1F
100
AcDbEntity
  8
仕上
  6
Continuous
 62
     7
370
     9
100
AcDbLine
 10
547.6417105180848
 20
-11.9789077034045
 30
0.0
 11
531.6416329869397
 21
-11.9789077034045
 31
0.0
  0
LINE
  5
15D
330
1F
100
AcDbEntity
  8
仕上
  6
Continuous
 62
     7
370
     9
100
AcDbLine
 10
547.6417105180848
 20
-16.47884831784609
 30
0.0
 11
531.6416329869397
 21
-16.47884831784609
 31
0.0
  0
LINE
  5
15E
330
1F
100
AcDbEntity
  8
仕上
  6
Continuous
 62
     7
370
     9
100
AcDbLine
 10
531.6416329869397
 20
-11.9789077034045
 30
0.0
 11
531.6416329869397
 21
-16.47884831784609
 31
0.0
  0
LINE
  5
15F
330
1F
100
AcDbEntity
  8
仕上
  6
Continuous
 62
     3
370
     9
100
AcDbLine
 10
568.6418325883968
 20
-152.4792055738187
 30
0.0
 11
559.6418325883973
 21
-136.890748305698
 31
0.0
  0
LINE
  5
160
330
1F
100
AcDbEntity
  8
仕上
  6
Continuous
 62
     3
370
     9
100
AcDbLine
 10
568.6418325883968
 20
-167.4792055738187
 30
0.0
 11
568.6418325883968
 21
-152.4792055738187
 31
0.0
  0
LINE
  5
161
330
1F
100
AcDbEntity
  8
仕上
  6
Continuous
 62
     3
370
     9
100
AcDbLine
 10
568.6418325883968
 20
-167.4792055738187
 30
0.0
 11
559.6418325883973
 21
-183.0676628419394
 31
0.0
  0
LINE
  5
162
330
1F
100
AcDbEntity
  8
仕上
  6
Continuous
 62
     3
370
     9
100
AcDbLine
 10
559.6418325883973
 20
-183.0676628419394
 30
0.0
 11
560.5078579921814
 21
-183.5676628419394
 31
0.0
  0
LINE
  5
163
330
1F
100
AcDbEntity
  8
仕上
  6
Continuous
 62
     3
370
     9
100
AcDbLine
 10
559.6418325883973
 20
-136.890748305698
 30
0.0
 11
560.5078579921814
 21
-136.3907483057017
 31
0.0
  0
LINE
  5
164
330
1F
100
AcDbEntity
  8
仕上
  6
Continuous
 62
     3
370
     9
100
AcDbLine
 10
569.6418325883973
 20
-152.2112563813905
 30
0.0
 11
560.5078579921814
 21
-136.3907483057017
 31
0.0
  0
LINE
  5
165
330
1F
100
AcDbEntity
  8
仕上
  6
Continuous
 62
     3
370
     9
100
AcDbLine
 10
569.6418325883973
 20
-167.7471547662506
 30
0.0
 11
569.6418325883973
 21
-152.2112563813905
 31
0.0
  0
LINE
  5
166
330
1F
100
AcDbEntity
  8
仕上
  6
Continuous
 62
     3
370
     9
100
AcDbLine
 10
569.6418325883973
 20
-167.7471547662506
 30
0.0
 11
560.5078579921814
 21
-183.5676628419394
 31
0.0
  0
LINE
  5
167
330
1F
100
AcDbEntity
  8
仕上
  6
Continuous
 62
     2
370
     9
100
AcDbLine
 10
604.8419239761719
 20
-305.9792649593771
 30
0.0
 11
604.8419239761719
 21
-13.9791461882603
 31
0.0
  0
LINE
  5
168
330
1F
100
AcDbEntity
  8
通り芯
  6
JWW_CENTER2
 62
     7
370
     9
100
AcDbLine
 10
521.069017357715
 20
-159.9792055738187
 30
0.0
 11
623.9488395088696
 21
-159.9792055738187
 31
0.0
  0
LINE
  5
169
330
1F
100
AcDbEntity
  8
その他
  6
Continuous
 62
     7
370
     9
100
AcDbLine
 10
531.6416329869397
 20
-245.6467448271826
 30
0.0
 11
569.6418325883968
 21
-245.6467448271826
 31
0.0
  0
LWPOLYLINE
  5
16A
330
1F
100
AcDbEntity
  8
その他
  6
Continuous
 62
     7
370
     9
100
AcDbPolyline
 90
        4
 70
     1
 43
0.4
 10
531.8416329869398
 20
-245.6467448271826
 42
0.4142135623731
 10
531.6416329869397
 20
-245.4467448271826
 42
0.4142135623731
 10
531.4416329869397
 20
-245.6467448271826
 42
0.4142135623731
 10
531.6416329869397
 20
-245.8467448271826
 42
0.4142135623731
  0
LWPOLYLINE
  5
16B
330
1F
100
AcDbEntity
  8
その他
  6
Continuous
 62
     7
370
     9
100
AcDbPolyline
 90
        4
 70
     1
 43
0.4
 10
569.8418325883969
 20
-245.6467448271826
 42
0.4142135623731
 10
569.6418325883968
 20
-245.4467448271826
 42
0.4142135623731
 10
569.4418325883968
 20
-245.6467448271826
 42
0.4142135623731
 10
569.6418325883968
 20
-245.8467448271826
 42
0.4142135623731
  0
TEXT
  5
16C
330
1F
100
AcDbEntity
  8
その他
  6
Continuous
 62
     2
370
   211
100
AcDbText
 10
542.1417327876683
 20
-240.9907448271825
 30
0.0
 40
12.192
  1
38
 41
1.0625
  7
ＭＳ ゴシック
100
AcDbText
  0
LINE
  5
16D
330
1F
100
AcDbEntity
  8
その他
  6
Continuous
 62
     7
370
     9
100
AcDbLine
 10
569.6418325883968
 20
-245.6467448271826
 30
0.0
 11
572.8418480946265
 21
-245.6467448271826
 31
0.0
  0
LWPOLYLINE
  5
16E
330
1F
100
AcDbEntity
  8
その他
  6
Continuous
 62
     7
370
     9
100
AcDbPolyline
 90
        4
 70
     1
 43
0.4
 10
573.0418480946265
 20
-245.6467448271826
 42
0.4142135623731
 10
572.8418480946265
 20
-245.4467448271826
 42
0.4142135623731
 10
572.6418480946264
 20
-245.6467448271826
 42
0.4142135623731
 10
572.8418480946265
 20
-245.8467448271826
 42
0.4142135623731
  0
LWPOLYLINE
  5
16F
330
1F
100
AcDbEntity
  8
その他
  6
Continuous
 62
     7
370
     9
100
AcDbPolyline
 90
        4
 70
     1
 43
0.4
 10
605.0419239761719
 20
-245.6467448271826
 42
0.4142135623731
 10
604.8419239761719
 20
-245.4467448271826
 42
0.4142135623731
 10
604.6419239761718
 20
-245.6467448271826
 42
0.4142135623731
 10
604.8419239761719
 20
-245.8467448271826
 42
0.4142135623731
  0
LINE
  5
170
330
1F
100
AcDbEntity
  8
その他
  6
Continuous
 62
     7
370
     9
100
AcDbLine
 10
572.8418480946265
 20
-245.6467448271826
 30
0.0
 11
604.8419239761719
 21
-245.6467448271826
 31
0.0
  0
TEXT
  5
171
330
1F
100
AcDbEntity
  8
その他
  6
Continuous
 62
     2
370
   211
100
AcDbText
 10
580.3418860353992
 20
-240.9907448271825
 30
0.0
 40
12.192
  1
32
 41
1.0625
  7
ＭＳ ゴシック
100
AcDbText
  0
LINE
  5
172
330
1F
100
AcDbEntity
  8
その他
  6
Continuous
 62
     7
370
     9
100
AcDbLine
 10
574.0497596753387
 20
-224.5755097536419
 30
0.0
 11
604.9314343249749
 21
-224.5755097536419
 31
0.0
  0
LINE
  5
173
330
1F
100
AcDbEntity
  8
その他
  6
Continuous
 62
     7
370
     9
100
AcDbLine
 10
571.2418403415116
 20
-245.6467448271826
 30
0.0
 11
574.0497596753387
 21
-224.5755097536419
 31
0.0
  0
TEXT
  5
174
330
1F
100
AcDbEntity
  8
その他
  6
Continuous
 62
     2
370
   211
100
AcDbText
 10
577.4254914475579
 20
-221.2854687941088
 30
0.0
 40
12.192
  1
3.2
 41
1.083333333333333
  7
ＭＳ ゴシック
100
AcDbText
  0
LINE
  5
175
330
1F
100
AcDbEntity
  8
その他
  6
Continuous
 62
     7
370
     9
100
AcDbLine
 10
531.6416329869397
 20
-214.8957419096719
 30
0.0
 11
559.6418325883968
 21
-214.8957419096719
 31
0.0
  0
LWPOLYLINE
  5
176
330
1F
100
AcDbEntity
  8
その他
  6
Continuous
 62
     7
370
     9
100
AcDbPolyline
 90
        4
 70
     1
 43
0.4
 10
531.8416329869398
 20
-214.8957419096719
 42
0.4142135623731
 10
531.6416329869397
 20
-214.6957419096719
 42
0.4142135623731
 10
531.4416329869397
 20
-214.8957419096719
 42
0.4142135623731
 10
531.6416329869397
 20
-215.0957419096719
 42
0.4142135623731
  0
LWPOLYLINE
  5
177
330
1F
100
AcDbEntity
  8
その他
  6
Continuous
 62
     7
370
     9
100
AcDbPolyline
 90
        4
 70
     1
 43
0.4
 10
559.8418325883969
 20
-214.8957419096719
 42
0.4142135623731
 10
559.6418325883968
 20
-214.6957419096719
 42
0.4142135623731
 10
559.4418325883968
 20
-214.8957419096719
 42
0.4142135623731
 10
559.6418325883968
 20
-215.0957419096719
 42
0.4142135623731
  0
LINE
  5
178
330
1F
100
AcDbEntity
  8
その他
  6
Continuous
 62
     7
370
     9
100
AcDbLine
 10
559.6418325883968
 20
-216.0957419096717
 30
0.0
 11
559.6418325883968
 21
-192.1274490428109
 31
0.0
  0
TEXT
  5
179
330
1F
100
AcDbEntity
  8
その他
  6
Continuous
 62
     2
370
   211
100
AcDbText
 10
537.1417327876683
 20
-210.2397419096718
 30
0.0
 40
12.192
  1
28
 41
1.0625
  7
ＭＳ ゴシック
100
AcDbText
  0
LINE
  5
17A
330
1F
100
AcDbEntity
  8
その他
  6
Continuous
 62
     7
370
     9
100
AcDbLine
 10
676.3311554151636
 20
-59.97920557381872
 30
0.0
 11
676.3311554151636
 21
-259.9792055738187
 31
0.0
  0
TEXT
  5
17B
330
1F
100
AcDbEntity
  8
その他
  6
Continuous
 62
     2
370
   211
100
AcDbText
 10
671.6751554151637
 20
-172.9792055738187
 30
0.0
 40
12.192
  1
200
 50
90.0
 41
1.083333333333333
  7
ＭＳ ゴシック
100
AcDbText
  0
LINE
  5
17C
330
1F
100
AcDbEntity
  8
寸法
  6
Continuous
 62
     7
370
     9
100
AcDbLine
 10
559.6418325883973
 20
-136.890748305698
 30
0.0
 11
553.5542182983098
 21
-128.9572149027856
 31
0.0
  0
LINE
  5
17D
330
1F
100
AcDbEntity
  8
寸法
  6
Continuous
 62
     7
370
     9
100
AcDbLine
 10
559.6418325883973
 20
-136.890748305698
 30
0.0
 11
555.8149982647464
 21
-127.6519529805853
 31
0.0
  0
LINE
  5
17E
330
1F
100
AcDbEntity
  8
寸法
  6
Continuous
 62
     7
370
     9
100
AcDbLine
 10
531.6416329869397
 20
-145.4865808313616
 30
0.0
 11
525.5540186968523
 21
-137.5530474284496
 31
0.0
  0
LINE
  5
17F
330
1F
100
AcDbEntity
  8
寸法
  6
Continuous
 62
     7
370
     9
100
AcDbLine
 10
531.6416329869397
 20
-145.4865808313616
 30
0.0
 11
527.8147986632888
 21
-136.2477855062489
 31
0.0
  0
LINE
  5
180
330
1F
100
AcDbEntity
  8
建具
  6
Continuous
 62
     4
370
     9
100
AcDbLine
 10
600.8415643636298
 20
-5.979093401099135
 30
0.0
 11
531.6416775261085
 21
-5.979093401099135
 31
0.0
  0
LINE
  5
181
330
1F
100
AcDbEntity
  8
建具
  6
Continuous
 62
     4
370
     9
100
AcDbLine
 10
604.8416765363494
 20
-9.979205573818717
 30
0.0
 11
604.8416765363494
 21
-59.97918495383351
 31
0.0
  0
LINE
  5
182
330
1F
100
AcDbEntity
  8
建具
  6
Continuous
 62
     4
370
     9
100
AcDbLine
 10
604.8416765363494
 20
-59.97918495383351
 30
0.0
 11
610.841597355606
 21
-59.97918495383351
 31
0.0
  0
LINE
  5
183
330
1F
100
AcDbEntity
  8
建具
  6
Continuous
 62
     4
370
     9
100
AcDbLine
 10
610.841597355606
 20
-59.97918495383351
 30
0.0
 11
610.841597355606
 21
-9.979205573818717
 31
0.0
  0
LINE
  5
184
330
1F
100
AcDbEntity
  8
建具
  6
Continuous
 62
     4
370
     9
100
AcDbLine
 10
580.8414983796769
 20
0.0208274181577508
 30
0.0
 11
580.8414983796769
 21
9.020708647042738
 31
0.0
  0
LINE
  5
185
330
1F
100
AcDbEntity
  8
建具
  6
Continuous
 62
     4
370
     9
100
AcDbLine
 10
594.6565585570419
 20
0.0208274181577508
 30
0.0
 11
580.8414983796769
 21
0.0208274181577508
 31
0.0
  0
LINE
  5
186
330
1F
100
AcDbEntity
  8
建具
  6
Continuous
 62
     4
370
     9
100
AcDbLine
 10
594.6570534366873
 20
9.020708647042738
 30
0.0
 11
580.8414983796769
 21
9.020708647042738
 31
0.0
  0
LINE
  5
187
330
1F
100
AcDbEntity
  8
建具
  6
Continuous
 62
     4
370
     9
100
AcDbLine
 10
599.315355537616
 20
0.6339832986475358
 30
0.0
 11
657.506273506366
 21
11.92738424353774
 31
0.0
  0
LINE
  5
188
330
1F
100
AcDbEntity
  8
建具
  6
Continuous
 62
     4
370
     9
100
AcDbLine
 10
596.9864519269744
 20
9.32753402711046
 30
0.0
 11
655.176875016079
 21
20.6208112520892
 31
0.0
  0
LINE
  5
189
330
1F
100
AcDbEntity
  8
建具
  6
JWW_CENTER2
 62
     4
370
     9
100
AcDbLine
 10
594.6565585570419
 20
4.520768032600245
 30
0.0
 11
577.0368636668394
 21
4.520768032600245
 31
0.0
  0
LINE
  5
18A
330
1F
100
AcDbEntity
  8
建具
  6
JWW_CENTER2
 62
     4
370
     9
100
AcDbLine
 10
598.1509037322952
 20
4.980758662878998
 30
0.0
 11
663.3176451807748
 21
18.14332002795481
 31
0.0
  0
LINE
  5
18B
330
1F
100
AcDbEntity
  8
建具
  6
Continuous
 62
     4
370
     9
100
AcDbLine
 10
600.8415643636298
 20
-313.9792558865827
 30
0.0
 11
531.6416775261085
 21
-313.9792558865827
 31
0.0
  0
LINE
  5
18C
330
1F
100
AcDbEntity
  8
建具
  6
Continuous
 62
     4
370
     9
100
AcDbLine
 10
531.6416775261085
 20
-313.9792558865827
 30
0.0
 11
531.6416775261085
 21
-319.9791767058396
 31
0.0
  0
LINE
  5
18D
330
1F
100
AcDbEntity
  8
建具
  6
Continuous
 62
     4
370
     9
100
AcDbLine
 10
531.6416775261085
 20
-319.9791767058396
 30
0.0
 11
600.8415643636298
 21
-319.9791767058396
 31
0.0
  0
LINE
  5
18E
330
1F
100
AcDbEntity
  8
建具
  6
Continuous
 62
     4
370
     9
100
AcDbLine
 10
604.8416765363494
 20
-309.9791437138631
 30
0.0
 11
604.8416765363494
 21
-259.9792261938039
 31
0.0
  0
LINE
  5
18F
330
1F
100
AcDbEntity
  8
建具
  6
Continuous
 62
     4
370
     9
100
AcDbLine
 10
604.8416765363494
 20
-259.9792261938039
 30
0.0
 11
610.841597355606
 21
-259.9792261938039
 31
0.0
  0
LINE
  5
190
330
1F
100
AcDbEntity
  8
建具
  6
Continuous
 62
     4
370
     9
100
AcDbLine
 10
610.841597355606
 20
-259.9792261938039
 30
0.0
 11
610.841597355606
 21
-309.9791437138631
 31
0.0
  0
LINE
  5
191
330
1F
100
AcDbEntity
  8
建具
  6
Continuous
 62
     4
370
     9
100
AcDbLine
 10
580.8414983796769
 20
-319.9791767058396
 30
0.0
 11
580.8414983796769
 21
-328.9790579347246
 31
0.0
  0
LINE
  5
192
330
1F
100
AcDbEntity
  8
建具
  6
Continuous
 62
     4
370
     9
100
AcDbLine
 10
594.6565585570419
 20
-319.9791767058396
 30
0.0
 11
580.8414983796769
 21
-319.9791767058396
 31
0.0
  0
LINE
  5
193
330
1F
100
AcDbEntity
  8
建具
  6
Continuous
 62
     4
370
     9
100
AcDbLine
 10
594.6570534366873
 20
-328.9790579347246
 30
0.0
 11
580.8414983796769
 21
-328.9790579347246
 31
0.0
  0
LINE
  5
194
330
1F
100
AcDbEntity
  8
建具
  6
Continuous
 62
     4
370
     9
100
AcDbLine
 10
599.315355537616
 20
-320.5923325863293
 30
0.0
 11
657.506273506366
 21
-331.8857953911752
 31
0.0
  0
LINE
  5
195
330
1F
100
AcDbEntity
  8
建具
  6
Continuous
 62
     4
370
     9
100
AcDbLine
 10
596.9864519269744
 20
-329.285883314792
 30
0.0
 11
655.176875016079
 21
-340.5792223997266
 31
0.0
  0
LINE
  5
196
330
1F
100
AcDbEntity
  8
建具
  6
JWW_CENTER2
 62
     4
370
     9
100
AcDbLine
 10
594.6565585570419
 20
-324.4791173202821
 30
0.0
 11
577.0368636668394
 21
-324.4791173202821
 31
0.0
  0
LINE
  5
197
330
1F
100
AcDbEntity
  8
建具
  6
JWW_CENTER2
 62
     4
370
     9
100
AcDbLine
 10
598.1509037322952
 20
-324.9391079505608
 30
0.0
 11
663.3176451807748
 21
-338.1017311755922
 31
0.0
  0
LINE
  5
198
330
1F
100
AcDbEntity
  8
建具
  6
Continuous
 62
     4
370
     9
100
AcDbLine
 10
531.6416775261085
 20
-5.979093401099135
 30
0.0
 11
531.6416775261085
 21
0.0208274181577508
 31
0.0
  0
LINE
  5
199
330
1F
100
AcDbEntity
  8
建具
  6
Continuous
 62
     4
370
     9
100
AcDbLine
 10
531.6416775261085
 20
0.0208274181577508
 30
0.0
 11
600.8415643636298
 21
0.0208274181577508
 31
0.0
  0
ARC
  5
19A
330
1F
100
AcDbEntity
  8
建具
  6
Continuous
 62
     4
370
     9
100
AcDbCircle
 10
600.8415643636298
 20
-9.979205573818717
 30
0.0
 40
3.999999809909511
100
AcDbArc
 50
0.0
 51
90.0
  0
ARC
  5
19B
330
1F
100
AcDbEntity
  8
建具
  6
Continuous
 62
     4
370
     9
100
AcDbCircle
 10
600.8415643636298
 20
-9.979205573818717
 30
0.0
 40
9.9999991623131
100
AcDbArc
 50
0.0
 51
90.0
  0
ARC
  5
19C
330
1F
100
AcDbEntity
  8
建具
  6
Continuous
 62
     4
370
     9
100
AcDbCircle
 10
594.6565585570419
 20
18.02083731575044
 30
0.0
 40
17.99999829885122
100
AcDbArc
 50
270.0
 51
285.0
  0
ARC
  5
19D
330
1F
100
AcDbEntity
  8
建具
  6
Continuous
 62
     4
370
     9
100
AcDbCircle
 10
656.3418217010452
 20
16.27415960776921
 30
0.0
 40
4.499999574712805
100
AcDbArc
 50
285.0001373291016
 51
104.9999084472657
  0
ARC
  5
19E
330
1F
100
AcDbEntity
  8
建具
  6
JWW_CENTER2
 62
     4
370
     9
100
AcDbCircle
 10
594.6565585570419
 20
18.02083731575044
 30
0.0
 40
13.50000065726203
100
AcDbArc
 50
270.0
 51
284.9999542236328
  0
ARC
  5
19F
330
1F
100
AcDbEntity
  8
建具
  6
Continuous
 62
     4
370
     9
100
AcDbCircle
 10
594.6570534366873
 20
18.02083731575044
 30
0.0
 40
8.99999914942561
100
AcDbArc
 50
270.0
 51
285.0000152587891
  0
ARC
  5
1A0
330
1F
100
AcDbEntity
  8
建具
  6
Continuous
 62
     4
370
     9
100
AcDbCircle
 10
600.8415643636298
 20
-309.9791437138631
 30
0.0
 40
3.999999809909511
100
AcDbArc
 50
270.0
 51
0.0
  0
ARC
  5
1A1
330
1F
100
AcDbEntity
  8
建具
  6
Continuous
 62
     4
370
     9
100
AcDbCircle
 10
600.8415643636298
 20
-309.9791437138631
 30
0.0
 40
9.9999991623131
100
AcDbArc
 50
270.0
 51
0.0
  0
ARC
  5
1A2
330
1F
100
AcDbEntity
  8
建具
  6
Continuous
 62
     4
370
     9
100
AcDbCircle
 10
594.6565585570419
 20
-337.9791866034323
 30
0.0
 40
17.99999829885122
100
AcDbArc
 50
74.99999999999999
 51
89.99999999999999
  0
ARC
  5
1A3
330
1F
100
AcDbEntity
  8
建具
  6
Continuous
 62
     4
370
     9
100
AcDbCircle
 10
656.3418217010452
 20
-336.2325707554064
 30
0.0
 40
4.499999574712805
100
AcDbArc
 50
255.0000915527343
 51
74.99986267089842
  0
ARC
  5
1A4
330
1F
100
AcDbEntity
  8
建具
  6
JWW_CENTER2
 62
     4
370
     9
100
AcDbCircle
 10
594.6565585570419
 20
-337.9791866034323
 30
0.0
 40
13.50000065726203
100
AcDbArc
 50
75.00004577636717
 51
90.0
  0
ARC
  5
1A5
330
1F
100
AcDbEntity
  8
建具
  6
Continuous
 62
     4
370
     9
100
AcDbCircle
 10
594.6570534366873
 20
-337.9791866034323
 30
0.0
 40
8.99999914942561
100
AcDbArc
 50
74.99998474121095
 51
90.00000000000001
  0
LINE
  5
1A6
330
1F
100
AcDbEntity
  8
寸法
  6
Continuous
 62
     7
370
     9
100
AcDbLine
 10
450.8995952931161
 20
178.7570609667387
 30
0.0
 11
554.0931268958691
 21
0.0206212183068146
 31
0.0
  0
TEXT
  5
1A7
330
1F
100
AcDbEntity
  8
寸法
  6
Continuous
 62
     7
370
     0
100
AcDbText
 10
266.2954704860953
 20
99.21031130538654
 30
0.0
 40
9.144
  1
モルタル止め：ｔ＝１.０
 41
1.152173913043478
  7
ＭＳ ゴシック
100
AcDbText
  0
TEXT
  5
1A8
330
1F
100
AcDbEntity
  8
寸法
  6
Continuous
 62
     7
370
     0
100
AcDbText
 10
299.2059665345681
 20
80.88915946426755
 30
0.0
 40
9.144
  1
ＳＵＳ４３０
 41
1.138888888888864
  7
ＭＳ ゴシック
100
AcDbText
  0
LINE
  5
1A9
330
1F
100
AcDbEntity
  8
寸法
  6
Continuous
 62
     7
370
     9
100
AcDbLine
 10
426.3783954662125
 20
93.92829558118615
 30
0.0
 11
559.6418325883973
 21
-136.890748305698
 31
0.0
  0
LINE
  5
1AA
330
1F
100
AcDbEntity
  8
寸法
  6
Continuous
 62
     7
370
     9
100
AcDbLine
 10
264.8999179628194
 20
93.92829558118615
 30
0.0
 11
426.3783954662125
 21
93.92829558118615
 31
0.0
  0
TEXT
  5
1AB
330
1F
100
AcDbEntity
  8
寸法
  6
Continuous
 62
     7
370
     0
100
AcDbText
 10
318.9722229676103
 20
48.03123205068913
 30
0.0
 40
9.144
  1
蓋：ＳＳ４００
 41
1.142857142857143
  7
ＭＳ ゴシック
100
AcDbText
  0
LINE
  5
1AC
330
1F
100
AcDbEntity
  8
寸法
  6
Continuous
 62
     7
370
     9
100
AcDbLine
 10
423.158526285419
 20
42.41167173858844
 30
0.0
 11
531.6416329869397
 21
-145.4865808313616
 31
0.0
  0
LINE
  5
1AD
330
1F
100
AcDbEntity
  8
寸法
  6
Continuous
 62
     7
370
     9
100
AcDbLine
 10
309.8148902361858
 20
42.41167173858844
 30
0.0
 11
423.158526285419
 21
42.41167173858844
 31
0.0
  0
LINE
  5
1AE
330
1F
100
AcDbEntity
  8
その他
  6
Continuous
 62
     7
370
     9
100
AcDbLine
 10
531.6416775261085
 20
84.64773340874012
 30
0.0
 11
610.8418447954285
 21
84.64773340874012
 31
0.0
  0
TEXT
  5
1AF
330
1F
100
AcDbEntity
  8
その他
  6
Continuous
 62
     2
370
   211
100
AcDbText
 10
553.7417611607685
 20
89.30373340874021
 30
0.0
 40
12.192
  1
79.2
 41
1.09375
  7
ＭＳ ゴシック
100
AcDbText
  0
LINE
  5
1B0
330
1F
100
AcDbEntity
  8
その他
  6
Continuous
 62
     7
370
     9
100
AcDbLine
 10
531.6416775261085
 20
54.75949498404611
 30
0.0
 11
604.8419239761719
 21
54.75949498404611
 31
0.0
  0
TEXT
  5
1B1
330
1F
100
AcDbEntity
  8
その他
  6
Continuous
 62
     2
370
   211
100
AcDbText
 10
550.7418007511402
 20
59.41549498404621
 30
0.0
 40
12.192
  1
73.2
 41
1.09375
  7
ＭＳ ゴシック
100
AcDbText
  0
TEXT
  5
1B2
330
1F
100
AcDbEntity
  8
F-5ﾚｲﾔ
  6
Continuous
 62
     2
370
     9
100
AcDbText
 10
63.34966572385582
 20
703.171871598609
 30
0.0
 40
12.192
  1
200mm
 41
1.1
  7
ＭＳ ゴシック
100
AcDbText
  0
TEXT
  5
1B3
330
1F
100
AcDbEntity
  8
F-Fﾚｲﾔ
  6
Continuous
 62
     2
370
     9
100
AcDbText
 10
63.34966572385588
 20
575.171871598609
 30
0.0
 40
12.192
  1
寸法 幅301×長さ598×高さ73.2
 41
1.120689655172414
  7
ＭＳ ゴシック
100
AcDbText
  0
TEXT
  5
1B4
330
1F
100
AcDbEntity
  8
F-Fﾚｲﾔ
  6
Continuous
 62
     2
370
     9
100
AcDbText
 10
63.34966572385582
 20
543.171871598609
 30
0.0
 40
12.192
  1
蓋質量　8.9kg
 41
1.115384615384615
  7
ＭＳ ゴシック
100
AcDbText
  0
TEXT
  5
1B5
330
1F
100
AcDbEntity
  8
F-Fﾚｲﾔ
  6
Continuous
 62
     2
370
     9
100
AcDbText
 10
63.34966572385582
 20
479.1718715986091
 30
0.0
 40
12.192
  1
寸法 幅320×長さ2000×高さ79.2
 41
1.120833333333333
  7
ＭＳ ゴシック
100
AcDbText
  0
TEXT
  5
1B6
330
1F
100
AcDbEntity
  8
F-Fﾚｲﾔ
  6
Continuous
 62
     2
370
     9
100
AcDbText
 10
63.34966572385588
 20
415.1718715986091
 30
0.0
 40
12.192
  1
蓋　：HESM-2-3060
 41
1.117647058823529
  7
ＭＳ ゴシック
100
AcDbText
  0
TEXT
  5
1B7
330
1F
100
AcDbEntity
  8
F-Fﾚｲﾔ
  6
Continuous
 62
     2
370
     9
100
AcDbText
 10
63.34966572385582
 20
383.1718715986091
 30
0.0
 40
12.192
  1
受枠：L-74Z
 41
1.113636363636364
  7
ＭＳ ゴシック
100
AcDbText
  0
TEXT
  5
1B8
330
1F
100
AcDbEntity
  8
寸法
  6
Continuous
 62
     7
370
     0
100
AcDbText
 10
304.27090600158
 20
29.44633245090085
 30
0.0
 40
9.144
  1
（溶融亜鉛めっき）
 41
1.148148148148148
  7
ＭＳ ゴシック
100
AcDbText
  0
LINE
  5
1B9
330
1F
100
AcDbEntity
  8
寸法
  6
Continuous
 62
     7
370
     9
100
AcDbLine
 10
250.580006575321
 20
178.7570609667387
 30
0.0
 11
450.8995952931161
 21
178.7570609667387
 31
0.0
  0
TEXT
  5
1BA
330
1F
100
AcDbEntity
  8
寸法
  6
Continuous
 62
     7
370
     0
100
AcDbText
 10
262.2709713873358
 20
164.9260281367928
 30
0.0
 40
9.144
  1
ＳＰＨＣ（溶融亜鉛めっき）
 50
0.00006301003343
 41
1.153846153846154
  7
ＭＳ ゴシック
100
AcDbText
  0
TEXT
  5
1BB
330
1F
100
AcDbEntity
  8
寸法
  6
Continuous
 62
     7
370
     0
100
AcDbText
 10
251.0564800233068
 20
183.1603682294926
 30
0.0
 40
9.144
  1
受枠：Ｌ－７４Ｚ　ｔ＝６．０
 41
1.154761904761905
  7
ＭＳ ゴシック
100
AcDbText
  0
TEXT
  5
1BC
330
1F
100
AcDbEntity
  8
寸法
  6
Continuous
 62
     7
370
     0
100
AcDbText
 10
730.9485921339834
 20
124.2767347899612
 30
0.0
 40
9.144
  1
ＳＳ４００（溶融亜鉛めっき）
 41
1.154761904761905
  7
ＭＳ ゴシック
100
AcDbText
  0
LINE
  5
1BD
330
1F
100
AcDbEntity
  8
寸法
  6
Continuous
 62
     7
370
     9
100
AcDbLine
 10
729.6282420857962
 20
137.0912316770527
 30
0.0
 11
922.1032464076635
 21
137.0912316770527
 31
0.0
  0
TEXT
  5
1BE
330
1F
100
AcDbEntity
  8
F-Fﾚｲﾔ
  6
Continuous
 62
     2
370
     9
100
AcDbText
 10
63.34966572385588
 20
511.171871598609
 30
0.0
 40
12.192
  1
スチール製 溶融亜鉛めっき
 41
1.115
  7
ＭＳ ゴシック
100
AcDbText
  0
TEXT
  5
1BF
330
1F
100
AcDbEntity
  8
F-4ﾚｲﾔ
  6
Continuous
 62
     2
370
     9
100
AcDbText
 10
121.5518978630822
 20
-777.8398842462343
 30
0.0
 40
12.192
  1
側溝用　ＨＥＳＭ－２－３０６０＋Ｌ－７４Ｚ
 41
1.119047619047619
  7
ＭＳ ゴシック
100
AcDbText
  0
LINE
  5
1C0
330
1F
100
AcDbEntity
  8
仕上
  6
JWW_CENTER1
 62
     3
370
     9
100
AcDbLine
 10
-147.8211236750289
 20
-9.479205573815534
 30
0.0
 11
178.4919982237252
 21
-9.479205573815534
 31
0.0
  0
LINE
  5
1C1
330
1F
100
AcDbEntity
  8
仕上
  6
Continuous
 62
     7
370
     9
100
AcDbLine
 10
-149.8210261719555
 20
-310.479801314644
 30
0.0
 11
-154.3211110084662
 21
-310.479801314644
 31
0.0
  0
LINE
  5
1C2
330
1F
100
AcDbEntity
  8
仕上
  6
Continuous
 62
     7
370
     9
100
AcDbLine
 10
-154.3211110084662
 20
-310.479801314644
 30
0.0
 11
-154.3211110084662
 21
-307.979801314644
 31
0.0
  0
LINE
  5
1C3
330
1F
100
AcDbEntity
  8
仕上
  6
Continuous
 62
     7
370
     9
100
AcDbLine
 10
-154.3211110084662
 20
-303.4797164781351
 30
0.0
 11
-154.3211110084662
 21
-297.4796820722161
 31
0.0
  0
LINE
  5
1C4
330
1F
100
AcDbEntity
  8
仕上
  6
Continuous
 62
     7
370
     9
100
AcDbLine
 10
-747.8210261719555
 20
-310.479801314644
 30
0.0
 11
-743.3209413354448
 21
-310.479801314644
 31
0.0
  0
LINE
  5
1C5
330
1F
100
AcDbEntity
  8
仕上
  6
Continuous
 62
     7
370
     9
100
AcDbLine
 10
-743.3209413354448
 20
-310.479801314644
 30
0.0
 11
-743.3209413354448
 21
-307.979801314644
 31
0.0
  0
LINE
  5
1C6
330
1F
100
AcDbEntity
  8
仕上
  6
Continuous
 62
     7
370
     9
100
AcDbLine
 10
-743.3209413354448
 20
-303.4797164781351
 30
0.0
 11
-743.3209413354448
 21
-297.4796820722161
 31
0.0
  0
LINE
  5
1C7
330
1F
100
AcDbEntity
  8
仕上
  6
Continuous
 62
     7
370
     9
100
AcDbLine
 10
-349.8209438098433
 20
-307.979801314644
 30
0.0
 11
-349.8209438098433
 21
-310.479801314644
 31
0.0
  0
LINE
  5
1C8
330
1F
100
AcDbEntity
  8
仕上
  6
Continuous
 62
     7
370
     9
100
AcDbLine
 10
-354.3210286463536
 20
-307.979801314644
 30
0.0
 11
-354.3210286463536
 21
-310.479801314644
 31
0.0
  0
LINE
  5
1C9
330
1F
100
AcDbEntity
  8
仕上
  6
Continuous
 62
     7
370
     9
100
AcDbLine
 10
-354.3210286463531
 20
-310.479801314644
 30
0.0
 11
-349.8209438098424
 21
-310.479801314644
 31
0.0
  0
LINE
  5
1CA
330
1F
100
AcDbEntity
  8
仕上
  6
Continuous
 62
     7
370
     9
100
AcDbLine
 10
-349.8209438098433
 20
-297.4796820722161
 30
0.0
 11
-349.8209438098433
 21
-303.4797164781351
 31
0.0
  0
LINE
  5
1CB
330
1F
100
AcDbEntity
  8
仕上
  6
Continuous
 62
     7
370
     9
100
AcDbLine
 10
-354.3210286463536
 20
-297.4796820722161
 30
0.0
 11
-354.3210286463536
 21
-303.4797164781351
 31
0.0
  0
LINE
  5
1CC
330
1F
100
AcDbEntity
  8
仕上
  6
Continuous
 62
     7
370
     9
100
AcDbLine
 10
-547.8211071790402
 20
-297.4796820722161
 30
0.0
 11
-547.8211071790402
 21
-303.4797164781351
 31
0.0
  0
LINE
  5
1CD
330
1F
100
AcDbEntity
  8
仕上
  6
Continuous
 62
     7
370
     9
100
AcDbLine
 10
-543.3210223425294
 20
-297.4796820722161
 30
0.0
 11
-543.3210223425294
 21
-303.4797164781351
 31
0.0
  0
LINE
  5
1CE
330
1F
100
AcDbEntity
  8
仕上
  6
Continuous
 62
     7
370
     9
100
AcDbLine
 10
-547.8211071790402
 20
-310.479801314644
 30
0.0
 11
-543.3210223425294
 21
-310.479801314644
 31
0.0
  0
LINE
  5
1CF
330
1F
100
AcDbEntity
  8
仕上
  6
Continuous
 62
     7
370
     9
100
AcDbLine
 10
-547.8211071790402
 20
-307.979801314644
 30
0.0
 11
-547.8211071790402
 21
-310.479801314644
 31
0.0
  0
LINE
  5
1D0
330
1F
100
AcDbEntity
  8
仕上
  6
Continuous
 62
     7
370
     9
100
AcDbLine
 10
-543.3210223425294
 20
-307.979801314644
 30
0.0
 11
-543.3210223425294
 21
-310.479801314644
 31
0.0
  0
LINE
  5
1D1
330
1F
100
AcDbEntity
  8
仕上
  6
Continuous
 62
     7
370
     9
100
AcDbLine
 10
-149.8210261719555
 20
-9.479205573815534
 30
0.0
 11
-154.3211110084662
 21
-9.479205573815534
 31
0.0
  0
LINE
  5
1D2
330
1F
100
AcDbEntity
  8
仕上
  6
Continuous
 62
     7
370
     9
100
AcDbLine
 10
-154.3211110084662
 20
-9.479205573815534
 30
0.0
 11
-154.3211110084662
 21
-11.97920557381553
 31
0.0
  0
LINE
  5
1D3
330
1F
100
AcDbEntity
  8
仕上
  6
Continuous
 62
     7
370
     9
100
AcDbLine
 10
-154.3211110084662
 20
-16.47929041032808
 30
0.0
 11
-154.3211110084662
 21
-22.47932481624343
 31
0.0
  0
LINE
  5
1D4
330
1F
100
AcDbEntity
  8
仕上
  6
Continuous
 62
     7
370
     9
100
AcDbLine
 10
-747.8210261719555
 20
-9.479205573815534
 30
0.0
 11
-743.3209413354448
 21
-9.479205573815534
 31
0.0
  0
LINE
  5
1D5
330
1F
100
AcDbEntity
  8
仕上
  6
Continuous
 62
     7
370
     9
100
AcDbLine
 10
-743.3209413354448
 20
-9.479205573815534
 30
0.0
 11
-743.3209413354448
 21
-11.97920557381553
 31
0.0
  0
LINE
  5
1D6
330
1F
100
AcDbEntity
  8
仕上
  6
Continuous
 62
     7
370
     9
100
AcDbLine
 10
-743.3209413354448
 20
-16.47929041032808
 30
0.0
 11
-743.3209413354448
 21
-22.47932481624343
 31
0.0
  0
LINE
  5
1D7
330
1F
100
AcDbEntity
  8
仕上
  6
Continuous
 62
     7
370
     9
100
AcDbLine
 10
-349.8209438098433
 20
-11.97920557381553
 30
0.0
 11
-349.8209438098433
 21
-9.479205573815534
 31
0.0
  0
LINE
  5
1D8
330
1F
100
AcDbEntity
  8
仕上
  6
Continuous
 62
     7
370
     9
100
AcDbLine
 10
-354.3210286463536
 20
-11.97920557381553
 30
0.0
 11
-354.3210286463536
 21
-9.479205573815534
 31
0.0
  0
LINE
  5
1D9
330
1F
100
AcDbEntity
  8
仕上
  6
Continuous
 62
     7
370
     9
100
AcDbLine
 10
-354.3210286463531
 20
-9.479205573815534
 30
0.0
 11
-349.8209438098424
 21
-9.479205573815534
 31
0.0
  0
LINE
  5
1DA
330
1F
100
AcDbEntity
  8
仕上
  6
Continuous
 62
     7
370
     9
100
AcDbLine
 10
-349.8209438098433
 20
-22.47932481624343
 30
0.0
 11
-349.8209438098433
 21
-16.47929041032808
 31
0.0
  0
LINE
  5
1DB
330
1F
100
AcDbEntity
  8
仕上
  6
Continuous
 62
     7
370
     9
100
AcDbLine
 10
-354.3210286463536
 20
-22.47932481624343
 30
0.0
 11
-354.3210286463536
 21
-16.47929041032808
 31
0.0
  0
LINE
  5
1DC
330
1F
100
AcDbEntity
  8
仕上
  6
Continuous
 62
     7
370
     9
100
AcDbLine
 10
-547.8211071790402
 20
-22.47932481624343
 30
0.0
 11
-547.8211071790402
 21
-16.47929041032808
 31
0.0
  0
LINE
  5
1DD
330
1F
100
AcDbEntity
  8
仕上
  6
Continuous
 62
     7
370
     9
100
AcDbLine
 10
-543.3210223425294
 20
-22.47932481624343
 30
0.0
 11
-543.3210223425294
 21
-16.47929041032808
 31
0.0
  0
LINE
  5
1DE
330
1F
100
AcDbEntity
  8
仕上
  6
Continuous
 62
     7
370
     9
100
AcDbLine
 10
-547.8211071790402
 20
-9.479205573815534
 30
0.0
 11
-543.3210223425294
 21
-9.479205573815534
 31
0.0
  0
LINE
  5
1DF
330
1F
100
AcDbEntity
  8
仕上
  6
Continuous
 62
     7
370
     9
100
AcDbLine
 10
-547.8211071790402
 20
-11.97920557381553
 30
0.0
 11
-547.8211071790402
 21
-9.479205573815534
 31
0.0
  0
LINE
  5
1E0
330
1F
100
AcDbEntity
  8
仕上
  6
Continuous
 62
     7
370
     9
100
AcDbLine
 10
-543.3210223425294
 20
-11.97920557381553
 30
0.0
 11
-543.3210223425294
 21
-9.479205573815534
 31
0.0
  0
LINE
  5
1E1
330
1F
100
AcDbEntity
  8
仕上
  6
JWW_CENTER2
 62
     7
370
     9
100
AcDbLine
 10
-287.3210261719555
 20
-128.4577204377031
 30
0.0
 11
-287.3210261719555
 21
-189.4865281130672
 31
0.0
  0
LINE
  5
1E2
330
1F
100
AcDbEntity
  8
仕上
  6
Continuous
 62
     3
370
     9
100
AcDbLine
 10
-272.3210058465415
 20
-168.3455288480156
 30
0.0
 11
-302.321046497369
 21
-168.3455288480156
 31
0.0
  0
LINE
  5
1E3
330
1F
100
AcDbEntity
  8
仕上
  6
Continuous
 62
     3
370
     9
100
AcDbLine
 10
-272.3210058465415
 20
-183.9340701991252
 30
0.0
 11
-302.321046497369
 21
-183.9340701991252
 31
0.0
  0
LINE
  5
1E4
330
1F
100
AcDbEntity
  8
仕上
  6
Continuous
 62
     3
370
     9
100
AcDbLine
 10
-272.3210058465415
 20
-184.4340701991252
 30
0.0
 11
-302.321046497369
 21
-184.4340701991252
 31
0.0
  0
LINE
  5
1E5
330
1F
100
AcDbEntity
  8
仕上
  6
Continuous
 62
     3
370
     9
100
AcDbLine
 10
-272.3210058465415
 20
-151.6134780404475
 30
0.0
 11
-302.321046497369
 21
-151.6134780404475
 31
0.0
  0
LINE
  5
1E6
330
1F
100
AcDbEntity
  8
仕上
  6
Continuous
 62
     3
370
     9
100
AcDbLine
 10
-272.3210058465415
 20
-135.5249366893379
 30
0.0
 11
-302.321046497369
 21
-135.5249366893379
 31
0.0
  0
LINE
  5
1E7
330
1F
100
AcDbEntity
  8
仕上
  6
Continuous
 62
     3
370
     9
100
AcDbLine
 10
-272.3210058465415
 20
-136.0249366893379
 30
0.0
 11
-302.321046497369
 21
-136.0249366893379
 31
0.0
  0
LINE
  5
1E8
330
1F
100
AcDbEntity
  8
仕上
  6
Continuous
 62
     3
370
     9
100
AcDbLine
 10
-272.3210058465415
 20
-135.5249366893379
 30
0.0
 11
-272.3210058465415
 21
-184.4340701991252
 31
0.0
  0
LINE
  5
1E9
330
1F
100
AcDbEntity
  8
仕上
  6
Continuous
 62
     3
370
     9
100
AcDbLine
 10
-302.321046497369
 20
-184.4340701991252
 30
0.0
 11
-302.321046497369
 21
-135.5249366893379
 31
0.0
  0
LINE
  5
1EA
330
1F
100
AcDbEntity
  8
仕上
  6
JWW_CENTER2
 62
     7
370
     9
100
AcDbLine
 10
-610.3210261719555
 20
-128.4577204377031
 30
0.0
 11
-610.3210261719555
 21
-189.4865281130672
 31
0.0
  0
LINE
  5
1EB
330
1F
100
AcDbEntity
  8
仕上
  6
Continuous
 62
     3
370
     9
100
AcDbLine
 10
-625.321046497369
 20
-168.3455288480156
 30
0.0
 11
-595.3210058465415
 21
-168.3455288480156
 31
0.0
  0
LINE
  5
1EC
330
1F
100
AcDbEntity
  8
仕上
  6
Continuous
 62
     3
370
     9
100
AcDbLine
 10
-625.321046497369
 20
-183.9340701991252
 30
0.0
 11
-595.3210058465415
 21
-183.9340701991252
 31
0.0
  0
LINE
  5
1ED
330
1F
100
AcDbEntity
  8
仕上
  6
Continuous
 62
     3
370
     9
100
AcDbLine
 10
-625.321046497369
 20
-184.4340701991252
 30
0.0
 11
-595.3210058465415
 21
-184.4340701991252
 31
0.0
  0
LINE
  5
1EE
330
1F
100
AcDbEntity
  8
仕上
  6
Continuous
 62
     3
370
     9
100
AcDbLine
 10
-625.321046497369
 20
-151.6134780404475
 30
0.0
 11
-595.3210058465415
 21
-151.6134780404475
 31
0.0
  0
LINE
  5
1EF
330
1F
100
AcDbEntity
  8
仕上
  6
Continuous
 62
     3
370
     9
100
AcDbLine
 10
-625.321046497369
 20
-135.5249366893379
 30
0.0
 11
-595.3210058465415
 21
-135.5249366893379
 31
0.0
  0
LINE
  5
1F0
330
1F
100
AcDbEntity
  8
仕上
  6
Continuous
 62
     3
370
     9
100
AcDbLine
 10
-625.321046497369
 20
-136.0249366893379
 30
0.0
 11
-595.3210058465415
 21
-136.0249366893379
 31
0.0
  0
LINE
  5
1F1
330
1F
100
AcDbEntity
  8
仕上
  6
Continuous
 62
     3
370
     9
100
AcDbLine
 10
-625.321046497369
 20
-135.5249366893379
 30
0.0
 11
-625.321046497369
 21
-184.4340701991252
 31
0.0
  0
LINE
  5
1F2
330
1F
100
AcDbEntity
  8
仕上
  6
Continuous
 62
     3
370
     9
100
AcDbLine
 10
-595.3210058465415
 20
-184.4340701991252
 30
0.0
 11
-595.3210058465415
 21
-135.5249366893379
 31
0.0
  0
LINE
  5
1F3
330
1F
100
AcDbEntity
  8
仕上
  6
JWW_DASHED1
 62
     2
370
     9
100
AcDbLine
 10
-349.8209438098592
 20
-22.47932481624343
 30
0.0
 11
-349.8209438098592
 21
-297.4796820722161
 31
0.0
  0
LINE
  5
1F4
330
1F
100
AcDbEntity
  8
仕上
  6
JWW_DASHED1
 62
     2
370
     9
100
AcDbLine
 10
-354.321028646324
 20
-297.4796820722161
 30
0.0
 11
-354.321028646324
 21
-22.47932481624343
 31
0.0
  0
LINE
  5
1F5
330
1F
100
AcDbEntity
  8
仕上
  6
JWW_DASHED1
 62
     2
370
     9
100
AcDbLine
 10
-543.3210223425563
 20
-22.47932481624343
 30
0.0
 11
-543.3210223425563
 21
-297.4796820722161
 31
0.0
  0
LINE
  5
1F6
330
1F
100
AcDbEntity
  8
仕上
  6
JWW_DASHED1
 62
     2
370
     9
100
AcDbLine
 10
-547.8211071790215
 20
-297.4796820722161
 30
0.0
 11
-547.8211071790215
 21
-22.47932481624343
 31
0.0
  0
LINE
  5
1F7
330
1F
100
AcDbEntity
  8
仕上
  6
Continuous
 62
     2
370
     9
100
AcDbLine
 10
-149.8210261719555
 20
-310.4798013146476
 30
0.0
 11
-747.8210261719555
 21
-310.4798013146476
 31
0.0
  0
LINE
  5
1F8
330
1F
100
AcDbEntity
  8
仕上
  6
Continuous
 62
     7
370
     9
100
AcDbLine
 10
-149.8210261719555
 20
-292.9795972357072
 30
0.0
 11
-747.8210261719555
 21
-292.9795972357072
 31
0.0
  0
LINE
  5
1F9
330
1F
100
AcDbEntity
  8
仕上
  6
Continuous
 62
     7
370
     9
100
AcDbLine
 10
-149.8210261719555
 20
-297.4796820722161
 30
0.0
 11
-747.8210261719555
 21
-297.4796820722161
 31
0.0
  0
LINE
  5
1FA
330
1F
100
AcDbEntity
  8
仕上
  6
Continuous
 62
     7
370
     9
100
AcDbLine
 10
-149.8210261719555
 20
-303.4797164781351
 30
0.0
 11
-747.8210261719555
 21
-303.4797164781351
 31
0.0
  0
LINE
  5
1FB
330
1F
100
AcDbEntity
  8
仕上
  6
Continuous
 62
     7
370
     9
100
AcDbLine
 10
-149.8210261719555
 20
-307.979801314644
 30
0.0
 11
-747.8210261719555
 21
-307.979801314644
 31
0.0
  0
LINE
  5
1FC
330
1F
100
AcDbEntity
  8
仕上
  6
JWW_DASHED1
 62
     7
370
     9
100
AcDbLine
 10
-154.3211110084662
 20
-282.9795486903688
 30
0.0
 11
-149.8210261719555
 21
-278.4798837945866
 31
0.0
  0
LINE
  5
1FD
330
1F
100
AcDbEntity
  8
仕上
  6
JWW_DASHED1
 62
     7
370
     9
100
AcDbLine
 10
-164.3211595538027
 20
-292.9795972357072
 30
0.0
 11
-168.821244390313
 21
-297.4796820722161
 31
0.0
  0
LINE
  5
1FE
330
1F
100
AcDbEntity
  8
仕上
  6
Continuous
 62
     7
370
     9
100
AcDbLine
 10
-164.3211595538027
 20
-292.9795972357072
 30
0.0
 11
-154.3211110084662
 21
-282.9795486903688
 31
0.0
  0
LINE
  5
1FF
330
1F
100
AcDbEntity
  8
仕上
  6
Continuous
 62
     2
370
     9
100
AcDbLine
 10
-149.8210261719555
 20
-9.479205573815534
 30
0.0
 11
-747.8210261719555
 21
-9.479205573815534
 31
0.0
  0
LINE
  5
200
330
1F
100
AcDbEntity
  8
仕上
  6
Continuous
 62
     7
370
     9
100
AcDbLine
 10
-149.8210261719555
 20
-26.97940965275598
 30
0.0
 11
-747.8210261719555
 21
-26.97940965275598
 31
0.0
  0
LINE
  5
201
330
1F
100
AcDbEntity
  8
仕上
  6
Continuous
 62
     7
370
     9
100
AcDbLine
 10
-149.8210261719555
 20
-11.97920557381553
 30
0.0
 11
-747.8210261719555
 21
-11.97920557381553
 31
0.0
  0
LINE
  5
202
330
1F
100
AcDbEntity
  8
仕上
  6
Continuous
 62
     7
370
     9
100
AcDbLine
 10
-149.8210261719555
 20
-16.47929041032808
 30
0.0
 11
-747.8210261719555
 21
-16.47929041032808
 31
0.0
  0
LINE
  5
203
330
1F
100
AcDbEntity
  8
仕上
  6
Continuous
 62
     7
370
     9
100
AcDbLine
 10
-149.8210261719555
 20
-9.479205573815534
 30
0.0
 11
-149.8210261719555
 21
-310.479801314644
 31
0.0
  0
LINE
  5
204
330
1F
100
AcDbEntity
  8
仕上
  6
Continuous
 62
     7
370
     9
100
AcDbLine
 10
-154.3211110084662
 20
-26.97940965275598
 30
0.0
 11
-154.3211110084662
 21
-292.9795972357072
 31
0.0
  0
LINE
  5
205
330
1F
100
AcDbEntity
  8
仕上
  6
Continuous
 62
     7
370
     9
100
AcDbLine
 10
-747.8210261719555
 20
-9.479205573815534
 30
0.0
 11
-747.8210261719555
 21
-310.479801314644
 31
0.0
  0
LINE
  5
206
330
1F
100
AcDbEntity
  8
仕上
  6
Continuous
 62
     7
370
     9
100
AcDbLine
 10
-733.3208927901078
 20
-26.97940965275598
 30
0.0
 11
-743.3209413354448
 21
-36.9794581980907
 31
0.0
  0
LINE
  5
207
330
1F
100
AcDbEntity
  8
仕上
  6
JWW_DASHED1
 62
     7
370
     9
100
AcDbLine
 10
-733.3208927901078
 20
-26.97940965275598
 30
0.0
 11
-728.8208079535975
 21
-22.47932481624343
 31
0.0
  0
LINE
  5
208
330
1F
100
AcDbEntity
  8
仕上
  6
JWW_DASHED1
 62
     7
370
     9
100
AcDbLine
 10
-743.3209413354448
 20
-36.9794581980907
 30
0.0
 11
-747.8210261719555
 21
-41.47912309387652
 31
0.0
  0
LINE
  5
209
330
1F
100
AcDbEntity
  8
仕上
  6
Continuous
 62
     7
370
     9
100
AcDbLine
 10
-743.3209413354448
 20
-26.97940965275598
 30
0.0
 11
-743.3209413354448
 21
-292.9795972357072
 31
0.0
  0
LINE
  5
20A
330
1F
100
AcDbEntity
  8
仕上
  6
Continuous
 62
     7
370
     9
100
AcDbLine
 10
-149.8210261719555
 20
-22.47932481624343
 30
0.0
 11
-747.8210261719555
 21
-22.47932481624343
 31
0.0
  0
LINE
  5
20B
330
1F
100
AcDbEntity
  8
仕上
  6
JWW_CENTER2
 62
     7
370
     9
100
AcDbLine
 10
-717.821031503694
 20
-35.4793271138999
 30
0.0
 11
-717.821031503694
 21
-49.4793271138999
 31
0.0
  0
LINE
  5
20C
330
1F
100
AcDbEntity
  8
仕上
  6
JWW_CENTER2
 62
     7
370
     9
100
AcDbLine
 10
-710.821031503694
 20
-42.4793271138999
 30
0.0
 11
-724.821031503694
 21
-42.4793271138999
 31
0.0
  0
CIRCLE
  5
20D
330
1F
100
AcDbEntity
  8
仕上
  6
Continuous
 62
     7
370
     9
100
AcDbCircle
 10
-717.821031503694
 20
-42.4793271138999
 30
0.0
 40
5.0
  0
LINE
  5
20E
330
1F
100
AcDbEntity
  8
仕上
  6
JWW_CENTER1
 62
     3
370
     9
100
AcDbLine
 10
-147.8211236750289
 20
-310.4798013146476
 30
0.0
 11
178.4919982237252
 21
-310.4798013146476
 31
0.0
  0
LINE
  5
20F
330
1F
100
AcDbEntity
  8
仕上
  6
JWW_CENTER1
 62
     3
370
     9
100
AcDbLine
 10
-147.8211236750289
 20
-9.479205573815534
 30
0.0
 11
-147.8211236750289
 21
-310.4798013146476
 31
0.0
  0
LINE
  5
210
330
1F
100
AcDbEntity
  8
その他
  6
Continuous
 62
     7
370
     9
100
AcDbLine
 10
-720.5813442668483
 20
-46.64834060027374
 30
0.0
 11
-726.6689585569353
 21
-54.58187400318616
 31
0.0
  0
LINE
  5
211
330
1F
100
AcDbEntity
  8
その他
  6
Continuous
 62
     7
370
     9
100
AcDbLine
 10
-720.5813442668483
 20
-46.64834060027374
 30
0.0
 11
-724.4081785904992
 21
-55.8871359253867
 31
0.0
  0
LINE
  5
212
330
1F
100
AcDbEntity
  8
その他
  6
Continuous
 62
     7
370
     9
100
AcDbLine
 10
-769.3602018640491
 20
-131.135800293792
 30
0.0
 11
-720.5813442668483
 21
-46.64834060027374
 31
0.0
  0
LINE
  5
213
330
1F
100
AcDbEntity
  8
その他
  6
Continuous
 62
     7
370
     9
100
AcDbLine
 10
-810.1767900389847
 20
-131.135800293792
 30
0.0
 11
-769.3602018640491
 21
-131.135800293792
 31
0.0
  0
TEXT
  5
214
330
1F
100
AcDbEntity
  8
その他
  6
Continuous
 62
     2
370
     9
100
AcDbText
 10
-808.7296753822717
 20
-125.8718675432861
 30
0.0
 40
12.192
  1
φ10
 41
1.09375
  7
ＭＳ ゴシック
100
AcDbText
  0
LINE
  5
215
330
1F
100
AcDbEntity
  8
通り芯
  6
JWW_CENTER2
 62
     7
370
     9
100
AcDbLine
 10
206.9374100346822
 20
-159.9792055738187
 30
0.0
 11
-769.8664445761983
 21
-159.9792055738187
 31
0.0
  0
ENDSEC
  0
SECTION
  2
OBJECTS
  0
DICTIONARY
  5
C
330
0
100
AcDbDictionary
281
     1
  3
ACAD_GROUP
350
D
  3
ACAD_LAYOUT
350
1A
  3
ACAD_MLEADERSTYLE
350
217
  3
ACAD_MLINESTYLE
350
17
  3
ACAD_PLOTSETTINGS
350
19
  3
ACAD_PLOTSTYLENAME
350
E
  3
ACAD_TABLESTYLE
350
216
  3
ACAD_VISUALSTYLE
350
2A
  0
DICTIONARY
  5
D
102
{ACAD_REACTORS
330
C
102
}
330
C
100
AcDbDictionary
281
     1
  0
DICTIONARY
  5
1A
102
{ACAD_REACTORS
330
C
102
}
330
C
100
AcDbDictionary
281
     1
  3
Layout1
350
1E
  3
Layout2
350
26
  3
Model
350
22
  0
DICTIONARY
  5
217
102
{ACAD_REACTORS
330
C
102
}
330
C
100
AcDbDictionary
281
     1
  0
DICTIONARY
  5
17
102
{ACAD_REACTORS
330
C
102
}
330
C
100
AcDbDictionary
281
     1
  3
Standard
350
18
  0
DICTIONARY
  5
19
102
{ACAD_REACTORS
330
C
102
}
330
C
100
AcDbDictionary
281
     1
  0
ACDBDICTIONARYWDFLT
  5
E
102
{ACAD_REACTORS
330
C
102
}
330
C
100
AcDbDictionary
281
     1
  3
Normal
350
F
100
AcDbDictionaryWithDefault
340
F
  0
DICTIONARY
  5
216
102
{ACAD_REACTORS
330
C
102
}
330
C
100
AcDbDictionary
281
     1
  0
DICTIONARY
  5
2A
102
{ACAD_REACTORS
330
C
102
}
330
C
100
AcDbDictionary
281
     1
  3
2dWireframe
350
2F
  3
3D Hidden
350
31
  3
3dWireframe
350
30
  3
Basic
350
32
  3
Brighten
350
36
  3
ColorChange
350
3A
  3
Conceptual
350
34
  3
Dim
350
35
  3
Facepattern
350
39
  3
Flat
350
2B
  3
FlatWithEdges
350
2C
  3
Gouraud
350
2D
  3
GouraudWithEdges
350
2E
  3
Linepattern
350
38
  3
Realistic
350
33
  3
Thicken
350
37
  0
LAYOUT
  5
1E
102
{ACAD_REACTORS
330
1A
102
}
330
1A
100
AcDbPlotSettings
  1

  2
none_device
  4

  6

 40
0.0
 41
0.0
 42
0.0
 43
0.0
 44
0.0
 45
0.0
 46
0.0
 47
0.0
 48
0.0
 49
0.0
140
0.0
141
0.0
142
1.0
143
1.0
 70
   688
 72
     0
 73
     0
 74
     5
  7

 75
    16
 76
     0
 77
     5
 78
   300
147
1.0
148
0.0
149
0.0
100
AcDbLayout
  1
Layout1
 70
     1
 71
     1
 10
0.0
 20
0.0
 11
420.0
 21
297.0
 12
0.0
 22
0.0
 32
0.0
 14
1.000000000000000E+20
 24
1.000000000000000E+20
 34
1.000000000000000E+20
 15
-1.000000000000000E+20
 25
-1.000000000000000E+20
 35
-1.000000000000000E+20
146
0.0
 13
0.0
 23
0.0
 33
0.0
 16
1.0
 26
0.0
 36
0.0
 17
0.0
 27
1.0
 37
0.0
 76
     0
330
1B
  0
LAYOUT
  5
26
102
{ACAD_REACTORS
330
1A
102
}
330
1A
100
AcDbPlotSettings
  1

  2
none_device
  4

  6

 40
0.0
 41
0.0
 42
0.0
 43
0.0
 44
0.0
 45
0.0
 46
0.0
 47
0.0
 48
0.0
 49
0.0
140
0.0
141
0.0
142
1.0
143
1.0
 70
   688
 72
     0
 73
     0
 74
     5
  7

 75
    16
 76
     0
 77
     5
 78
   300
147
1.0
148
0.0
149
0.0
100
AcDbLayout
  1
Layout2
 70
     1
 71
     2
 10
0.0
 20
0.0
 11
0.0
 21
0.0
 12
0.0
 22
0.0
 32
0.0
 14
0.0
 24
0.0
 34
0.0
 15
0.0
 25
0.0
 35
0.0
146
0.0
 13
0.0
 23
0.0
 33
0.0
 16
1.0
 26
0.0
 36
0.0
 17
0.0
 27
1.0
 37
0.0
 76
     0
330
23
  0
LAYOUT
  5
22
102
{ACAD_REACTORS
330
1A
102
}
330
1A
100
AcDbPlotSettings
  1

  2
none_device
  4

  6

 40
0.0
 41
0.0
 42
0.0
 43
0.0
 44
0.0
 45
0.0
 46
0.0
 47
0.0
 48
0.0
 49
0.0
140
0.0
141
0.0
142
1.0
143
1.0
 70
  1712
 72
     0
 73
     0
 74
     0
  7

 75
     0
 76
     0
 77
     5
 78
   300
147
1.0
148
0.0
149
0.0
100
AcDbLayout
  1
Model
 70
     1
 71
     0
 10
-1188.0
 20
-840.0
 11
1188.0
 21
840.0
 12
0.0
 22
0.0
 32
0.0
 14
-1188.0
 24
-840.0
 34
0.0
 15
1188.0
 25
840.0
 35
0.0
146
0.0
 13
0.0
 23
0.0
 33
0.0
 16
1.0
 26
0.0
 36
0.0
 17
0.0
 27
1.0
 37
0.0
 76
     0
330
1F
331
29
  0
MLINESTYLE
  5
18
102
{ACAD_REACTORS
330
17
102
}
330
17
100
AcDbMlineStyle
  2
Standard
 70
     0
  3

 62
   256
 51
90.0
 52
90.0
 71
     2
 49
0.5
 62
   256
  6
BYLAYER
 49
-0.5
 62
   256
  6
BYLAYER
  0
ACDBPLACEHOLDER
  5
F
102
{ACAD_REACTORS
330
E
102
}
330
E
  0
VISUALSTYLE
  5
2F
102
{ACAD_REACTORS
330
2A
102
}
330
2A
100
AcDbVisualStyle
  2
2dWireframe
 70
     4
 71
     0
 72
     2
 73
     0
 90
        0
 40
-0.6
 41
-30.0
 62
     5
 63
     7
421
 16777215
 74
     1
 91
        4
 64
     7
 65
   257
 75
     1
175
     1
 42
1.0
 92
        0
 66
   257
 43
1.0
 76
     1
 77
     6
 78
     2
 67
     7
 79
     5
170
     0
171
     0
290
     0
174
     0
 93
        1
 44
0.0
173
     0
291
     0
 45
0.0
  0
VISUALSTYLE
  5
31
102
{ACAD_REACTORS
330
2A
102
}
330
2A
100
AcDbVisualStyle
  2
3D Hidden
 70
     6
 71
     1
 72
     2
 73
     2
 90
        0
 40
-0.6
 41
-30.0
 62
     5
 63
     7
421
 16777215
 74
     2
 91
        2
 64
     7
 65
   257
 75
     2
175
     1
 42
40.0
 92
        0
 66
   257
 43
1.0
 76
     1
 77
     6
 78
     2
 67
     7
 79
     3
170
     0
171
     0
290
     0
174
     0
 93
        1
 44
0.0
173
     0
291
     0
 45
0.0
  0
VISUALSTYLE
  5
30
102
{ACAD_REACTORS
330
2A
102
}
330
2A
100
AcDbVisualStyle
  2
3dWireframe
 70
     5
 71
     0
 72
     2
 73
     0
 90
        0
 40
-0.6
 41
-30.0
 62
     5
 63
     7
421
 16777215
 74
     1
 91
        4
 64
     7
 65
   257
 75
     1
175
     1
 42
1.0
 92
        0
 66
   257
 43
1.0
 76
     1
 77
     6
 78
     2
 67
     7
 79
     5
170
     0
171
     0
290
     0
174
     0
 93
        1
 44
0.0
173
     0
291
     0
 45
0.0
  0
VISUALSTYLE
  5
32
102
{ACAD_REACTORS
330
2A
102
}
330
2A
100
AcDbVisualStyle
  2
Basic
 70
     7
 71
     1
 72
     0
 73
     1
 90
        0
 40
-0.6
 41
-30.0
 62
     5
 63
     7
421
 16777215
 74
     0
 91
        4
 64
     7
 65
   257
 75
     1
175
     1
 42
1.0
 92
        8
 66
     7
 43
1.0
 76
     1
 77
     6
 78
     2
 67
     7
 79
     5
170
     0
171
     0
290
     0
174
     0
 93
        1
 44
0.0
173
     0
291
     1
 45
0.0
  0
VISUALSTYLE
  5
36
102
{ACAD_REACTORS
330
2A
102
}
330
2A
100
AcDbVisualStyle
  2
Brighten
 70
    12
 71
     2
 72
     2
 73
     0
 90
        0
 40
-0.6
 41
-30.0
 62
     5
 63
     7
421
 16777215
 74
     1
 91
        4
 64
     7
 65
   257
 75
     1
175
     1
 42
1.0
 92
        8
 66
     7
 43
1.0
 76
     1
 77
     6
 78
     2
 67
     7
 79
     5
170
     0
171
     0
290
     0
174
     0
 93
        1
 44
50.0
173
     0
291
     1
 45
0.0
  0
VISUALSTYLE
  5
3A
102
{ACAD_REACTORS
330
2A
102
}
330
2A
100
AcDbVisualStyle
  2
ColorChange
 70
    16
 71
     2
 72
     2
 73
     3
 90
        0
 40
-0.6
 41
-30.0
 62
     5
 63
     8
421
  8421504
 74
     1
 91
        4
 64
     7
 65
   257
 75
     1
175
     1
 42
1.0
 92
        8
 66
     8
424
  8421504
 43
1.0
 76
     1
 77
     6
 78
     2
 67
     7
 79
     5
170
     0
171
     0
290
     0
174
     0
 93
        1
 44
0.0
173
     0
291
     1
 45
0.0
  0
VISUALSTYLE
  5
34
102
{ACAD_REACTORS
330
2A
102
}
330
2A
100
AcDbVisualStyle
  2
Conceptual
 70
     9
 71
     3
 72
     2
 73
     0
 90
        0
 40
-0.6
 41
-30.0
 62
     5
 63
     7
421
 16777215
 74
     2
 91
        2
 64
     7
 65
   257
 75
     1
175
     1
 42
40.0
 92
        8
 66
     7
 43
1.0
 76
     1
 77
     6
 78
     2
 67
     7
 79
     3
170
     0
171
     0
290
     0
174
     0
 93
        1
 44
0.0
173
     0
291
     0
 45
0.0
  0
VISUALSTYLE
  5
35
102
{ACAD_REACTORS
330
2A
102
}
330
2A
100
AcDbVisualStyle
  2
Dim
 70
    11
 71
     2
 72
     2
 73
     0
 90
        0
 40
-0.6
 41
-30.0
 62
     5
 63
     7
421
 16777215
 74
     1
 91
        4
 64
     7
 65
   257
 75
     1
175
     1
 42
1.0
 92
        8
 66
     7
 43
1.0
 76
     1
 77
     6
 78
     2
 67
     7
 79
     5
170
     0
171
     0
290
     0
174
     0
 93
        1
 44
-50.0
173
     0
291
     1
 45
0.0
  0
VISUALSTYLE
  5
39
102
{ACAD_REACTORS
330
2A
102
}
330
2A
100
AcDbVisualStyle
  2
Facepattern
 70
    15
 71
     2
 72
     2
 73
     0
 90
        0
 40
-0.6
 41
-30.0
 62
     5
 63
     7
421
 16777215
 74
     1
 91
        4
 64
     7
 65
   257
 75
     1
175
     1
 42
1.0
 92
        8
 66
     7
 43
1.0
 76
     1
 77
     6
 78
     2
 67
     7
 79
     5
170
     0
171
     0
290
     0
174
     0
 93
        1
 44
0.0
173
     0
291
     1
 45
0.0
  0
VISUALSTYLE
  5
2B
102
{ACAD_REACTORS
330
2A
102
}
330
2A
100
AcDbVisualStyle
  2
Flat
 70
     0
 71
     2
 72
     1
 73
     1
 90
        2
 40
-0.6
 41
30.0
 62
     5
 63
     7
421
 16777215
 74
     0
 91
        4
 64
     7
 65
   257
 75
     1
175
     1
 42
1.0
 92
        8
 66
     7
 43
1.0
 76
     1
 77
     6
 78
     2
 67
     7
 79
     5
170
     0
171
     0
290
     0
174
     0
 93
       13
 44
0.0
173
     0
291
     1
 45
0.0
  0
VISUALSTYLE
  5
2C
102
{ACAD_REACTORS
330
2A
102
}
330
2A
100
AcDbVisualStyle
  2
FlatWithEdges
 70
     1
 71
     2
 72
     1
 73
     1
 90
        2
 40
-0.6
 41
30.0
 62
     5
 63
     7
421
 16777215
 74
     1
 91
        4
 64
     7
 65
   257
 75
     1
175
     1
 42
1.0
 92
        0
 66
   257
 43
1.0
 76
     1
 77
     6
 78
     2
 67
     7
 79
     5
170
     0
171
     0
290
     0
174
     0
 93
       13
 44
0.0
173
     0
291
     1
 45
0.0
  0
VISUALSTYLE
  5
2D
102
{ACAD_REACTORS
330
2A
102
}
330
2A
100
AcDbVisualStyle
  2
Gouraud
 70
     2
 71
     2
 72
     2
 73
     1
 90
        2
 40
-0.6
 41
30.0
 62
     5
 63
     7
421
 16777215
 74
     0
 91
        4
 64
     7
 65
   257
 75
     1
175
     1
 42
1.0
 92
        0
 66
     7
 43
1.0
 76
     1
 77
     6
 78
     2
 67
     7
 79
     5
170
     0
171
     0
290
     0
174
     0
 93
       13
 44
0.0
173
     0
291
     1
 45
0.0
  0
VISUALSTYLE
  5
2E
102
{ACAD_REACTORS
330
2A
102
}
330
2A
100
AcDbVisualStyle
  2
GouraudWithEdges
 70
     3
 71
     2
 72
     2
 73
     1
 90
        2
 40
-0.6
 41
30.0
 62
     5
 63
     7
421
 16777215
 74
     1
 91
        4
 64
     7
 65
   257
 75
     1
175
     1
 42
1.0
 92
        0
 66
   257
 43
1.0
 76
     1
 77
     6
 78
     2
 67
     7
 79
     5
170
     0
171
     0
290
     0
174
     0
 93
       13
 44
0.0
173
     0
291
     1
 45
0.0
  0
VISUALSTYLE
  5
38
102
{ACAD_REACTORS
330
2A
102
}
330
2A
100
AcDbVisualStyle
  2
Linepattern
 70
    14
 71
     2
 72
     2
 73
     0
 90
        0
 40
-0.6
 41
-30.0
 62
     5
 63
     7
421
 16777215
 74
     1
 91
        4
 64
     7
 65
   257
 75
     7
175
     7
 42
1.0
 92
        8
 66
     7
 43
1.0
 76
     1
 77
     6
 78
     2
 67
     7
 79
     5
170
     0
171
     0
290
     0
174
     0
 93
        1
 44
0.0
173
     0
291
     1
 45
0.0
  0
VISUALSTYLE
  5
33
102
{ACAD_REACTORS
330
2A
102
}
330
2A
100
AcDbVisualStyle
  2
Realistic
 70
     8
 71
     2
 72
     2
 73
     0
 90
        0
 40
-0.6
 41
-30.0
 62
     5
 63
     7
421
 16777215
 74
     1
 91
        0
 64
     7
 65
   257
 75
     1
175
     1
 42
1.0
 92
        8
 66
     8
424
  7895160
 43
1.0
 76
     1
 77
     6
 78
     2
 67
     7
 79
     5
170
     0
171
     0
290
     0
174
     0
 93
       13
 44
0.0
173
     0
291
     0
 45
0.0
  0
VISUALSTYLE
  5
37
102
{ACAD_REACTORS
330
2A
102
}
330
2A
100
AcDbVisualStyle
  2
Thicken
 70
    13
 71
     2
 72
     2
 73
     0
 90
        0
 40
-0.6
 41
-30.0
 62
     5
 63
     7
421
 16777215
 74
     1
 91
        4
 64
     7
 65
   257
 75
     1
175
     1
 42
1.0
 92
       12
 66
     7
 43
1.0
 76
     1
 77
     6
 78
     2
 67
     7
 79
     5
170
     0
171
     0
290
     0
174
     0
 93
        1
 44
0.0
173
     0
291
     1
 45
0.0
  0
ENDSEC
  0
EOF
