  0
SECTION
  2
HEADER
  9
$ACADVER
  1
AC1021
  9
$ACADMAINTVER
 70
    25
  9
$DWGCODEPAGE
  3
ANSI_932
  9
$INSBASE
 10
0.0
 20
0.0
 30
0.0
  9
$EXTMIN
 10
-1188.0
 20
-840.0
 30
0.0
  9
$EXTMAX
 10
1188.0
 20
840.0
 30
0.0
  9
$LIMMIN
 10
-1188.0
 20
-840.0
  9
$LIMMAX
 10
1188.0
 20
840.0
  9
$ORTHOMODE
 70
     0
  9
$REGENMODE
 70
     1
  9
$FILLMODE
 70
     1
  9
$QTEXTMODE
 70
     0
  9
$MIRRTEXT
 70
     1
  9
$LTSCALE
 40
4.0
  9
$ATTMODE
 70
     1
  9
$TEXTSIZE
 40
2.5
  9
$TRACEWID
 40
1.0
  9
$TEXTSTYLE
  7
Standard
  9
$CLAYER
  8
0
  9
$CELTYPE
  6
ByLayer
  9
$CECOLOR
 62
   256
  9
$CELTSCALE
 40
1.0
  9
$DISPSILH
 70
     0
  9
$DIMSCALE
 40
1.0
  9
$DIMASZ
 40
2.5
  9
$DIMEXO
 40
0.625
  9
$DIMDLI
 40
3.75
  9
$DIMRND
 40
0.0
  9
$DIMDLE
 40
0.0
  9
$DIMEXE
 40
1.25
  9
$DIMTP
 40
0.0
  9
$DIMTM
 40
0.0
  9
$DIMTXT
 40
2.5
  9
$DIMCEN
 40
2.5
  9
$DIMTSZ
 40
0.0
  9
$DIMTOL
 70
     0
  9
$DIMLIM
 70
     0
  9
$DIMTIH
 70
     0
  9
$DIMTOH
 70
     0
  9
$DIMSE1
 70
     0
  9
$DIMSE2
 70
     0
  9
$DIMTAD
 70
     1
  9
$DIMZIN
 70
     8
  9
$DIMBLK
  1

  9
$DIMASO
 70
     1
  9
$DIMSHO
 70
     1
  9
$DIMPOST
  1

  9
$DIMAPOST
  1

  9
$DIMALT
 70
     0
  9
$DIMALTD
 70
     3
  9
$DIMALTF
 40
0.03937007874016
  9
$DIMLFAC
 40
1.0
  9
$DIMTOFL
 70
     1
  9
$DIMTVP
 40
0.0
  9
$DIMTIX
 70
     0
  9
$DIMSOXD
 70
     0
  9
$DIMSAH
 70
     0
  9
$DIMBLK1
  1

  9
$DIMBLK2
  1

  9
$DIMSTYLE
  2
ISO-25
  9
$DIMCLRD
 70
     0
  9
$DIMCLRE
 70
     0
  9
$DIMCLRT
 70
     0
  9
$DIMTFAC
 40
1.0
  9
$DIMGAP
 40
0.625
  9
$DIMJUST
 70
     0
  9
$DIMSD1
 70
     0
  9
$DIMSD2
 70
     0
  9
$DIMTOLJ
 70
     0
  9
$DIMTZIN
 70
     8
  9
$DIMALTZ
 70
     0
  9
$DIMALTTZ
 70
     0
  9
$DIMUPT
 70
     0
  9
$DIMDEC
 70
     2
  9
$DIMTDEC
 70
     2
  9
$DIMALTU
 70
     2
  9
$DIMALTTD
 70
     3
  9
$DIMTXSTY
  7
Standard
  9
$DIMAUNIT
 70
     0
  9
$DIMADEC
 70
     0
  9
$DIMALTRND
 40
0.0
  9
$DIMAZIN
 70
     0
  9
$DIMDSEP
 70
    44
  9
$DIMATFIT
 70
     3
  9
$DIMFRAC
 70
     0
  9
$DIMLDRBLK
  1

  9
$DIMLUNIT
 70
     2
  9
$DIMLWD
 70
    -2
  9
$DIMLWE
 70
    -2
  9
$DIMTMOVE
 70
     0
  9
$DIMFXL
 40
1.0
  9
$DIMFXLON
 70
     0
  9
$DIMJOGANG
 40
0.7853981633974483
  9
$DIMTFILL
 70
     0
  9
$DIMTFILLCLR
 70
     0
  9
$DIMARCSYM
 70
     0
  9
$DIMLTYPE
  6

  9
$DIMLTEX1
  6

  9
$DIMLTEX2
  6

  9
$LUNITS
 70
     2
  9
$LUPREC
 70
     4
  9
$SKETCHINC
 40
1.0
  9
$FILLETRAD
 40
10.0
  9
$AUNITS
 70
     0
  9
$AUPREC
 70
     0
  9
$MENU
  1
.
  9
$ELEVATION
 40
0.0
  9
$PELEVATION
 40
0.0
  9
$THICKNESS
 40
0.0
  9
$LIMCHECK
 70
     0
  9
$CHAMFERA
 40
10.0
  9
$CHAMFERB
 40
10.0
  9
$CHAMFERC
 40
20.0
  9
$CHAMFERD
 40
0.0
  9
$SKPOLY
 70
     0
  9
$TDCREATE
 40
2457722.42426485
  9
$TDUCREATE
 40
2457722.04926485
  9
$TDUPDATE
 40
2457722.424264861
  9
$TDUUPDATE
 40
2457722.049264861
  9
$TDINDWG
 40
0.0000000116
  9
$TDUSRTIMER
 40
0.0000000116
  9
$USRTIMER
 70
     1
  9
$ANGBASE
 50
0.0
  9
$ANGDIR
 70
     0
  9
$PDMODE
 70
     0
  9
$PDSIZE
 40
0.0
  9
$PLINEWID
 40
0.0
  9
$SPLFRAME
 70
     0
  9
$SPLINETYPE
 70
     6
  9
$SPLINESEGS
 70
     8
  9
$HANDSEED
  5
22F
  9
$SURFTAB1
 70
     6
  9
$SURFTAB2
 70
     6
  9
$SURFTYPE
 70
     6
  9
$SURFU
 70
     6
  9
$SURFV
 70
     6
  9
$UCSBASE
  2

  9
$UCSNAME
  2

  9
$UCSORG
 10
0.0
 20
0.0
 30
0.0
  9
$UCSXDIR
 10
1.0
 20
0.0
 30
0.0
  9
$UCSYDIR
 10
0.0
 20
1.0
 30
0.0
  9
$UCSORTHOREF
  2

  9
$UCSORTHOVIEW
 70
     0
  9
$UCSORGTOP
 10
0.0
 20
0.0
 30
0.0
  9
$UCSORGBOTTOM
 10
0.0
 20
0.0
 30
0.0
  9
$UCSORGLEFT
 10
0.0
 20
0.0
 30
0.0
  9
$UCSORGRIGHT
 10
0.0
 20
0.0
 30
0.0
  9
$UCSORGFRONT
 10
0.0
 20
0.0
 30
0.0
  9
$UCSORGBACK
 10
0.0
 20
0.0
 30
0.0
  9
$PUCSBASE
  2

  9
$PUCSNAME
  2

  9
$PUCSORG
 10
0.0
 20
0.0
 30
0.0
  9
$PUCSXDIR
 10
1.0
 20
0.0
 30
0.0
  9
$PUCSYDIR
 10
0.0
 20
1.0
 30
0.0
  9
$PUCSORTHOREF
  2

  9
$PUCSORTHOVIEW
 70
     0
  9
$PUCSORGTOP
 10
0.0
 20
0.0
 30
0.0
  9
$PUCSORGBOTTOM
 10
0.0
 20
0.0
 30
0.0
  9
$PUCSORGLEFT
 10
0.0
 20
0.0
 30
0.0
  9
$PUCSORGRIGHT
 10
0.0
 20
0.0
 30
0.0
  9
$PUCSORGFRONT
 10
0.0
 20
0.0
 30
0.0
  9
$PUCSORGBACK
 10
0.0
 20
0.0
 30
0.0
  9
$USERI1
 70
     0
  9
$USERI2
 70
     0
  9
$USERI3
 70
     0
  9
$USERI4
 70
     0
  9
$USERI5
 70
     0
  9
$USERR1
 40
0.0
  9
$USERR2
 40
0.0
  9
$USERR3
 40
0.0
  9
$USERR4
 40
0.0
  9
$USERR5
 40
0.0
  9
$WORLDVIEW
 70
     1
  9
$SHADEDGE
 70
     3
  9
$SHADEDIF
 70
    70
  9
$TILEMODE
 70
     1
  9
$MAXACTVP
 70
    64
  9
$PINSBASE
 10
0.0
 20
0.0
 30
0.0
  9
$PLIMCHECK
 70
     0
  9
$PEXTMIN
 10
1.000000000000000E+20
 20
1.000000000000000E+20
 30
1.000000000000000E+20
  9
$PEXTMAX
 10
-1.000000000000000E+20
 20
-1.000000000000000E+20
 30
-1.000000000000000E+20
  9
$PLIMMIN
 10
0.0
 20
0.0
  9
$PLIMMAX
 10
420.0
 20
297.0
  9
$UNITMODE
 70
     0
  9
$VISRETAIN
 70
     1
  9
$PLINEGEN
 70
     0
  9
$PSLTSCALE
 70
     1
  9
$TREEDEPTH
 70
  3020
  9
$CMLSTYLE
  2
Standard
  9
$CMLJUST
 70
     0
  9
$CMLSCALE
 40
20.0
  9
$PROXYGRAPHICS
 70
     1
  9
$MEASUREMENT
 70
     1
  9
$CELWEIGHT
370
    -1
  9
$ENDCAPS
280
     0
  9
$JOINSTYLE
280
     0
  9
$LWDISPLAY
290
     0
  9
$INSUNITS
 70
     4
  9
$HYPERLINKBASE
  1

  9
$STYLESHEET
  1

  9
$XEDIT
290
     1
  9
$CEPSNTYPE
380
     0
  9
$PSTYLEMODE
290
     1
  9
$FINGERPRINTGUID
  2
{8B5C25F7-25E0-44A5-8910-96E90DD8B925}
  9
$VERSIONGUID
  2
{FAEB1C32-E019-11D5-929B-00C0DF256EC4}
  9
$EXTNAMES
290
     1
  9
$PSVPSCALE
 40
0.0
  9
$OLESTARTUP
290
     0
  9
$SORTENTS
280
   127
  9
$INDEXCTL
280
     0
  9
$HIDETEXT
280
     1
  9
$XCLIPFRAME
290
     0
  9
$HALOGAP
280
     0
  9
$OBSCOLOR
 70
   257
  9
$OBSLTYPE
280
     0
  9
$INTERSECTIONDISPLAY
280
     0
  9
$INTERSECTIONCOLOR
 70
   257
  9
$DIMASSOC
280
     2
  9
$PROJECTNAME
  1

  9
$CAMERADISPLAY
290
     0
  9
$LENSLENGTH
 40
50.0
  9
$CAMERAHEIGHT
 40
0.0
  9
$STEPSPERSEC
 40
2.0
  9
$STEPSIZE
 40
6.0
  9
$3DDWFPREC
 40
2.0
  9
$PSOLWIDTH
 40
5.0
  9
$PSOLHEIGHT
 40
80.0
  9
$LOFTANG1
 40
1.570796326794897
  9
$LOFTANG2
 40
1.570796326794897
  9
$LOFTMAG1
 40
0.0
  9
$LOFTMAG2
 40
0.0
  9
$LOFTPARAM
 70
     7
  9
$LOFTNORMALS
280
     1
  9
$LATITUDE
 40
37.795
  9
$LONGITUDE
 40
-122.394
  9
$NORTHDIRECTION
 40
0.0
  9
$TIMEZONE
 70
 -8000
  9
$LIGHTGLYPHDISPLAY
280
     1
  9
$TILEMODELIGHTSYNCH
280
     1
  9
$SOLIDHIST
280
     1
  9
$SHOWHIST
280
     1
  9
$DWFFRAME
280
     2
  9
$DGNFRAME
280
     2
  9
$REALWORLDSCALE
290
     1
  9
$INTERFERECOLOR
 62
   256
  9
$CSHADOW
280
     0
  9
$SHADOWPLANELOCATION
 40
0.0
  0
ENDSEC
  0
SECTION
  2
CLASSES
  0
CLASS
  1
ACDBDICTIONARYWDFLT
  2
AcDbDictionaryWithDefault
  3
ObjectDBX Classes
 90
        0
 91
        4
280
     0
281
     0
  0
CLASS
  1
VISUALSTYLE
  2
AcDbVisualStyle
  3
ObjectDBX Classes
 90
     4095
 91
        4
280
     0
281
     0
  0
ENDSEC
  0
SECTION
  2
TABLES
  0
TABLE
  2
VPORT
  5
8
330
0
100
AcDbSymbolTable
 70
     1
  0
VPORT
  5
29
330
8
100
AcDbSymbolTableRecord
100
AcDbViewportTableRecord
  2
*Active
 70
     0
 10
0.0
 20
0.0
 11
1.0
 21
1.0
 12
0.0
 22
0.0
 13
0.0
 23
0.0
 14
10.0
 24
10.0
 15
10.0
 25
10.0
 16
0.0
 26
0.0
 36
1.0
 17
0.0
 27
0.0
 37
0.0
 40
1848.0
 41
1.414285714285714
 42
50.0
 43
0.0
 44
0.0
 50
0.0
 51
0.0
 71
     0
 72
 10000
 73
     1
 74
     3
 75
     0
 76
     0
 77
     0
 78
     0
281
     0
 65
     1
110
0.0
120
0.0
130
0.0
111
1.0
121
0.0
131
0.0
112
0.0
122
1.0
132
0.0
 79
     0
146
0.0
 60
     3
 61
     5
292
     1
282
     1
141
0.0
142
0.0
 63
   256
  0
ENDTAB
  0
TABLE
  2
LTYPE
  5
5
330
0
100
AcDbSymbolTable
 70
     6
  0
LTYPE
  5
14
330
5
100
AcDbSymbolTableRecord
100
AcDbLinetypeTableRecord
  2
ByBlock
 70
     0
  3

 72
    65
 73
     0
 40
0.0
  0
LTYPE
  5
15
330
5
100
AcDbSymbolTableRecord
100
AcDbLinetypeTableRecord
  2
ByLayer
 70
     0
  3

 72
    65
 73
     0
 40
0.0
  0
LTYPE
  5
16
330
5
100
AcDbSymbolTableRecord
100
AcDbLinetypeTableRecord
  2
Continuous
 70
     0
  3
Solid line
 72
    65
 73
     0
 40
0.0
  0
LTYPE
  5
3C
330
5
100
AcDbSymbolTableRecord
100
AcDbLinetypeTableRecord
  2
JWW_CENTER1
 70
     0
  3
-----  --  ----------  --  -----
 72
    65
 73
     4
 40
6.773333333333333
 49
4.233333333333333
 74
     0
 49
-0.8466666666666667
 74
     0
 49
0.8466666666666667
 74
     0
 49
-0.8466666666666667
 74
     0
  0
LTYPE
  5
3D
330
5
100
AcDbSymbolTableRecord
100
AcDbLinetypeTableRecord
  2
JWW_DASHED3
 70
     0
  3
---  ------  ------  ------  ---
 72
    65
 73
     2
 40
3.386666666666667
 49
2.54
 74
     0
 49
-0.8466666666666667
 74
     0
  0
LTYPE
  5
3E
330
5
100
AcDbSymbolTableRecord
100
AcDbLinetypeTableRecord
  2
JWW_CENTER2
 70
     0
  3
-------------  --  -------------
 72
    65
 73
     4
 40
13.54666666666667
 49
11.00666666666667
 74
     0
 49
-0.8466666666666667
 74
     0
 49
0.8466666666666667
 74
     0
 49
-0.8466666666666667
 74
     0
  0
LTYPE
  5
3F
330
5
100
AcDbSymbolTableRecord
100
AcDbLinetypeTableRecord
  2
JWW_DASHED1
 70
     0
  3
-  --  --  --  --  --  --  --  -
 72
    65
 73
     2
 40
1.693333333333333
 49
0.8466666666666667
 74
     0
 49
-0.8466666666666667
 74
     0
  0
LTYPE
  5
40
330
5
100
AcDbSymbolTableRecord
100
AcDbLinetypeTableRecord
  2
JWW_HOJO
 70
     0
  3
  -   -   -   -   -   -   -   - 
 72
    65
 73
     2
 40
1.693333333333333
 49
-1.27
 74
     0
 49
0.4233333333333333
 74
     0
  0
ENDTAB
  0
TABLE
  2
LAYER
  5
2
330
0
100
AcDbSymbolTable
 70
    12
  0
LAYER
  5
10
330
2
100
AcDbSymbolTableRecord
100
AcDbLayerTableRecord
  2
0
 70
     0
 62
     7
  6
Continuous
370
    -3
390
F
347
0
  0
LAYER
  5
41
330
2
100
AcDbSymbolTableRecord
100
AcDbLayerTableRecord
  2
通り芯
 70
     0
 62
     7
  6
Continuous
370
    -3
390
F
347
0
  0
LAYER
  5
42
330
2
100
AcDbSymbolTableRecord
100
AcDbLayerTableRecord
  2
仕上
 70
     0
 62
     7
  6
Continuous
370
    -3
390
F
347
0
  0
LAYER
  5
43
330
2
100
AcDbSymbolTableRecord
100
AcDbLayerTableRecord
  2
寸法
 70
     0
 62
     7
  6
Continuous
370
    -3
390
F
347
0
  0
LAYER
  5
44
330
2
100
AcDbSymbolTableRecord
100
AcDbLayerTableRecord
  2
F-Fﾚｲﾔ
 70
     0
 62
     7
  6
Continuous
370
    -3
390
F
347
0
  0
LAYER
  5
45
330
2
100
AcDbSymbolTableRecord
100
AcDbLayerTableRecord
  2
F-4ﾚｲﾔ
 70
     0
 62
     7
  6
Continuous
370
    -3
390
F
347
0
  0
LAYER
  5
46
330
2
100
AcDbSymbolTableRecord
100
AcDbLayerTableRecord
  2
F-5ﾚｲﾔ
 70
     0
 62
     7
  6
Continuous
370
    -3
390
F
347
0
  0
LAYER
  5
47
330
2
100
AcDbSymbolTableRecord
100
AcDbLayerTableRecord
  2
建具
 70
     0
 62
     7
  6
Continuous
370
    -3
390
F
347
0
  0
LAYER
  5
48
330
2
100
AcDbSymbolTableRecord
100
AcDbLayerTableRecord
  2
躯体
 70
     0
 62
     7
  6
Continuous
370
    -3
390
F
347
0
  0
LAYER
  5
49
330
2
100
AcDbSymbolTableRecord
100
AcDbLayerTableRecord
  2
その他
 70
     0
 62
     7
  6
Continuous
370
    -3
390
F
347
0
  0
LAYER
  5
4A
330
2
100
AcDbSymbolTableRecord
100
AcDbLayerTableRecord
  2
ハッチ
 70
     0
 62
     7
  6
Continuous
370
    -3
390
F
347
0
  0
LAYER
  5
4B
330
2
100
AcDbSymbolTableRecord
100
AcDbLayerTableRecord
  2
0-A
 70
     0
 62
     7
  6
Continuous
370
    -3
390
F
347
0
  0
ENDTAB
  0
TABLE
  2
STYLE
  5
3
330
0
100
AcDbSymbolTable
 70
     2
  0
STYLE
  5
11
330
3
100
AcDbSymbolTableRecord
100
AcDbTextStyleTableRecord
  2
Standard
 70
     0
 40
0.0
 41
1.0
 50
0.0
 71
     0
 42
2.5
  3
txt
  4

1001
ACAD
1000

1071
        0
  0
STYLE
  5
3B
330
3
100
AcDbSymbolTableRecord
100
AcDbTextStyleTableRecord
  2
ＭＳ ゴシック
 70
     0
 40
1.0
 41
1.0
 50
0.0
 71
     0
 42
10.0
  3

  4

1001
ACAD
1000
MS Gothic
1071
    32817
  0
ENDTAB
  0
TABLE
  2
VIEW
  5
6
330
0
100
AcDbSymbolTable
 70
     0
  0
ENDTAB
  0
TABLE
  2
UCS
  5
7
330
0
100
AcDbSymbolTable
 70
     0
  0
ENDTAB
  0
TABLE
  2
APPID
  5
9
330
0
100
AcDbSymbolTable
 70
     1
  0
APPID
  5
12
330
9
100
AcDbSymbolTableRecord
100
AcDbRegAppTableRecord
  2
ACAD
 70
     0
  0
ENDTAB
  0
TABLE
  2
DIMSTYLE
  5
A
330
0
100
AcDbSymbolTable
 70
     1
100
AcDbDimStyleTable
  0
DIMSTYLE
105
27
330
A
100
AcDbSymbolTableRecord
100
AcDbDimStyleTableRecord
  2
ISO-25
 70
     0
 41
2.5
 42
0.625
 43
3.75
 44
1.25
 73
     0
 74
     0
 77
     1
 78
     8
140
2.5
141
2.5
143
0.03937007874016
147
0.625
171
     3
172
     1
271
     2
272
     2
274
     3
278
    44
283
     0
284
     8
340
11
  0
ENDTAB
  0
TABLE
  2
BLOCK_RECORD
  5
1
330
0
100
AcDbSymbolTable
 70
     1
  0
BLOCK_RECORD
  5
1F
330
1
100
AcDbSymbolTableRecord
100
AcDbBlockTableRecord
  2
*Model_Space
340
22
 70
     0
280
     1
281
     0
  0
BLOCK_RECORD
  5
1B
330
1
100
AcDbSymbolTableRecord
100
AcDbBlockTableRecord
  2
*Paper_Space
340
1E
 70
     0
280
     1
281
     0
  0
BLOCK_RECORD
  5
23
330
1
100
AcDbSymbolTableRecord
100
AcDbBlockTableRecord
  2
*Paper_Space0
340
26
 70
     0
280
     1
281
     0
  0
ENDTAB
  0
ENDSEC
  0
SECTION
  2
BLOCKS
  0
BLOCK
  5
20
330
1F
100
AcDbEntity
  8
0
100
AcDbBlockBegin
  2
*Model_Space
 70
     0
 10
0.0
 20
0.0
 30
0.0
  3
*Model_Space
  1

  0
ENDBLK
  5
21
330
1F
100
AcDbEntity
  8
0
100
AcDbBlockEnd
  0
BLOCK
  5
1C
330
1B
100
AcDbEntity
 67
     1
  8
0
100
AcDbBlockBegin
  2
*Paper_Space
 70
     0
 10
0.0
 20
0.0
 30
0.0
  3
*Paper_Space
  1

  0
ENDBLK
  5
1D
330
1B
100
AcDbEntity
 67
     1
  8
0
100
AcDbBlockEnd
  0
BLOCK
  5
24
330
23
100
AcDbEntity
  8
0
100
AcDbBlockBegin
  2
*Paper_Space0
 70
     0
 10
0.0
 20
0.0
 30
0.0
  3
*Paper_Space0
  1

  0
ENDBLK
  5
25
330
23
100
AcDbEntity
  8
0
100
AcDbBlockEnd
  0
ENDSEC
  0
SECTION
  2
ENTITIES
  0
LINE
  5
4C
330
1F
100
AcDbEntity
  8
通り芯
  6
JWW_CENTER1
 62
     7
370
     9
100
AcDbLine
 10
446.6254345529987
 20
-135.8652263528078
 30
0.0
 11
514.8451811161899
 21
-135.8652263528078
 31
0.0
  0
LINE
  5
4D
330
1F
100
AcDbEntity
  8
仕上
  6
Continuous
 62
     3
370
     9
100
AcDbLine
 10
491.7043712461336
 20
-143.6332374051952
 30
0.0
 11
482.5703966499177
 21
-159.4537454808822
 31
0.0
  0
LINE
  5
4E
330
1F
100
AcDbEntity
  8
仕上
  6
Continuous
 62
     3
370
     9
100
AcDbLine
 10
491.7043712461336
 20
-143.6332374051952
 30
0.0
 11
491.7043712461336
 21
-128.0973390203315
 31
0.0
  0
LINE
  5
4F
330
1F
100
AcDbEntity
  8
仕上
  6
Continuous
 62
     3
370
     9
100
AcDbLine
 10
491.7043712461336
 20
-128.0973390203315
 30
0.0
 11
482.5703966499177
 21
-112.2768309446426
 31
0.0
  0
LINE
  5
50
330
1F
100
AcDbEntity
  8
仕上
  6
Continuous
 62
     3
370
     9
100
AcDbLine
 10
481.7043712461336
 20
-112.7768309446426
 30
0.0
 11
482.5703966499177
 21
-112.2768309446426
 31
0.0
  0
LINE
  5
51
330
1F
100
AcDbEntity
  8
仕上
  6
Continuous
 62
     3
370
     9
100
AcDbLine
 10
481.7043712461336
 20
-158.9537454808822
 30
0.0
 11
482.5703966499177
 21
-159.4537454808822
 31
0.0
  0
LINE
  5
52
330
1F
100
AcDbEntity
  8
仕上
  6
Continuous
 62
     3
370
     9
100
AcDbLine
 10
490.7043712461336
 20
-143.3652882127615
 30
0.0
 11
481.7043712461336
 21
-158.9537454808822
 31
0.0
  0
LINE
  5
53
330
1F
100
AcDbEntity
  8
仕上
  6
Continuous
 62
     3
370
     9
100
AcDbLine
 10
490.7043712461336
 20
-143.3652882127615
 30
0.0
 11
490.7043712461336
 21
-128.3652882127615
 31
0.0
  0
LINE
  5
54
330
1F
100
AcDbEntity
  8
仕上
  6
Continuous
 62
     3
370
     9
100
AcDbLine
 10
490.7043712461336
 20
-128.3652882127615
 30
0.0
 11
481.7043712461336
 21
-112.7768309446426
 31
0.0
  0
TEXT
  5
55
330
1F
100
AcDbEntity
  8
寸法
  6
Continuous
 62
     7
370
     0
100
AcDbText
 10
178.9976843026739
 20
139.5369814847718
 30
0.0
 40
9.144
  1
モルタル止め：ｔ＝１.０
 41
1.152173913043478
  7
ＭＳ ゴシック
100
AcDbText
  0
TEXT
  5
56
330
1F
100
AcDbEntity
  8
寸法
  6
Continuous
 62
     7
370
     0
100
AcDbText
 10
211.9081803511467
 20
121.2158296436528
 30
0.0
 40
9.144
  1
ＳＵＳ４３０
 41
1.138888888888864
  7
ＭＳ ゴシック
100
AcDbText
  0
LINE
  5
57
330
1F
100
AcDbEntity
  8
寸法
  6
Continuous
 62
     7
370
     9
100
AcDbLine
 10
177.602131779398
 20
134.2549657605716
 30
0.0
 11
339.0806092827911
 21
134.2549657605716
 31
0.0
  0
LINE
  5
58
330
1F
100
AcDbEntity
  8
寸法
  6
Continuous
 62
     7
370
     9
100
AcDbLine
 10
339.0806092827911
 20
134.2549657605716
 30
0.0
 11
481.7044836089435
 21
-112.7768309446426
 31
0.0
  0
LINE
  5
59
330
1F
100
AcDbEntity
  8
寸法
  6
Continuous
 62
     7
370
     9
100
AcDbLine
 10
481.7044836089435
 20
-112.7768309446426
 30
0.0
 11
475.6168693188561
 21
-104.8432975417302
 31
0.0
  0
LINE
  5
5A
330
1F
100
AcDbEntity
  8
寸法
  6
Continuous
 62
     7
370
     9
100
AcDbLine
 10
481.7044836089435
 20
-112.7768309446426
 30
0.0
 11
477.8776492852926
 21
-103.5380356195297
 31
0.0
  0
LINE
  5
5B
330
1F
100
AcDbEntity
  8
通り芯
  6
JWW_CENTER1
 62
     7
370
     9
100
AcDbLine
 10
166.8354166822737
 20
-135.8652263528078
 30
0.0
 11
-870.5438995115965
 21
-135.8652263528078
 31
0.0
  0
LINE
  5
5C
330
1F
100
AcDbEntity
  8
F-Fﾚｲﾔ
  6
Continuous
 62
     7
370
     9
100
AcDbLine
 10
-105.3797467629805
 20
760.915871598609
 30
0.0
 11
522.8790429449925
 21
760.915871598609
 31
0.0
  0
TEXT
  5
5D
330
1F
100
AcDbEntity
  8
F-Fﾚｲﾔ
  6
Continuous
 62
     2
370
     9
100
AcDbText
 10
-94.73285670451907
 20
739.171871598609
 30
0.0
 40
12.192
  1
名称
 41
1.0625
  7
ＭＳ ゴシック
100
AcDbText
  0
TEXT
  5
5E
330
1F
100
AcDbEntity
  8
F-4ﾚｲﾔ
  6
Continuous
 62
     2
370
     9
100
AcDbText
 10
-149.204441572291
 20
-759.0108394076666
 30
0.0
 40
12.192
  1
カラー舗装用みぞ蓋　タイル用　充填深さ２８ｍｍ　スチール製
 41
1.120689655172414
  7
ＭＳ ゴシック
100
AcDbText
  0
TEXT
  5
5F
330
1F
100
AcDbEntity
  8
F-5ﾚｲﾔ
  6
Continuous
 62
     2
370
     9
100
AcDbText
 10
63.34966572385582
 20
739.171871598609
 30
0.0
 40
12.192
  1
化粧用スリットみぞ蓋　タイル用　側溝用
 41
1.118421052631579
  7
ＭＳ ゴシック
100
AcDbText
  0
LINE
  5
60
330
1F
100
AcDbEntity
  8
F-Fﾚｲﾔ
  6
Continuous
 62
     7
370
     9
100
AcDbLine
 10
-105.3797467629805
 20
728.915871598609
 30
0.0
 11
522.8790429449925
 21
728.915871598609
 31
0.0
  0
LINE
  5
61
330
1F
100
AcDbEntity
  8
F-Fﾚｲﾔ
  6
Continuous
 62
     7
370
     9
100
AcDbLine
 10
-105.3797467629805
 20
724.915871598609
 30
0.0
 11
522.8790429449925
 21
724.915871598609
 31
0.0
  0
LINE
  5
62
330
1F
100
AcDbEntity
  8
F-Fﾚｲﾔ
  6
Continuous
 62
     7
370
     9
100
AcDbLine
 10
-105.3797467629805
 20
692.915871598609
 30
0.0
 11
522.8790429449925
 21
692.915871598609
 31
0.0
  0
LINE
  5
63
330
1F
100
AcDbEntity
  8
F-Fﾚｲﾔ
  6
Continuous
 62
     7
370
     9
100
AcDbLine
 10
-105.3797467629805
 20
532.915871598609
 30
0.0
 11
522.8790429449925
 21
532.915871598609
 31
0.0
  0
LINE
  5
64
330
1F
100
AcDbEntity
  8
F-Fﾚｲﾔ
  6
Continuous
 62
     7
370
     9
100
AcDbLine
 10
-105.3797467629805
 20
468.9158715986091
 30
0.0
 11
522.8790429449925
 21
468.9158715986091
 31
0.0
  0
TEXT
  5
65
330
1F
100
AcDbEntity
  8
F-Fﾚｲﾔ
  6
Continuous
 62
     2
370
     9
100
AcDbText
 10
-94.73285670451907
 20
671.171871598609
 30
0.0
 40
12.192
  1
蓋
  7
ＭＳ ゴシック
100
AcDbText
  0
TEXT
  5
66
330
1F
100
AcDbEntity
  8
F-Fﾚｲﾔ
  6
Continuous
 62
     2
370
     9
100
AcDbText
 10
-94.73285670451907
 20
511.171871598609
 30
0.0
 40
12.192
  1
受枠
 41
1.0625
  7
ＭＳ ゴシック
100
AcDbText
  0
TEXT
  5
67
330
1F
100
AcDbEntity
  8
F-Fﾚｲﾔ
  6
Continuous
 62
     2
370
     9
100
AcDbText
 10
-94.73285670451907
 20
447.1718715986091
 30
0.0
 40
12.192
  1
品番
 41
1.0625
  7
ＭＳ ゴシック
100
AcDbText
  0
TEXT
  5
68
330
1F
100
AcDbEntity
  8
F-5ﾚｲﾔ
  6
Continuous
 62
     2
370
     9
100
AcDbText
 10
63.34966572385582
 20
671.171871598609
 30
0.0
 40
12.192
  1
スチール製 溶融亜鉛めっき
 41
1.115
  7
ＭＳ ゴシック
100
AcDbText
  0
TEXT
  5
69
330
1F
100
AcDbEntity
  8
F-5ﾚｲﾔ
  6
Continuous
 62
     2
370
     9
100
AcDbText
 10
63.34966572385582
 20
607.171871598609
 30
0.0
 40
12.192
  1
目地すきま 6mm
 41
1.116071428571429
  7
ＭＳ ゴシック
100
AcDbText
  0
TEXT
  5
6A
330
1F
100
AcDbEntity
  8
F-Fﾚｲﾔ
  6
Continuous
 62
     2
370
     9
100
AcDbText
 10
63.34966572385582
 20
511.171871598609
 30
0.0
 40
12.192
  1
スチール製 溶融亜鉛めっき
 41
1.115
  7
ＭＳ ゴシック
100
AcDbText
  0
TEXT
  5
6B
330
1F
100
AcDbEntity
  8
F-Fﾚｲﾔ
  6
Continuous
 62
     2
370
     9
100
AcDbText
 10
63.34966572385582
 20
447.1718715986091
 30
0.0
 40
12.192
  1
カネソウ　カラー舗装用みぞ蓋
 41
1.116071428571429
  7
ＭＳ ゴシック
100
AcDbText
  0
LINE
  5
6C
330
1F
100
AcDbEntity
  8
F-Fﾚｲﾔ
  6
Continuous
 62
     7
370
     9
100
AcDbLine
 10
46.81570496624607
 20
660.915871598609
 30
0.0
 11
522.8790429449925
 21
660.915871598609
 31
0.0
  0
LINE
  5
6D
330
1F
100
AcDbEntity
  8
F-Fﾚｲﾔ
  6
Continuous
 62
     7
370
     9
100
AcDbLine
 10
46.81570496624607
 20
628.915871598609
 30
0.0
 11
522.8790429449925
 21
628.915871598609
 31
0.0
  0
LINE
  5
6E
330
1F
100
AcDbEntity
  8
F-Fﾚｲﾔ
  6
Continuous
 62
     7
370
     9
100
AcDbLine
 10
46.81570496624607
 20
596.915871598609
 30
0.0
 11
522.8790429449925
 21
596.915871598609
 31
0.0
  0
LINE
  5
6F
330
1F
100
AcDbEntity
  8
F-Fﾚｲﾔ
  6
Continuous
 62
     7
370
     9
100
AcDbLine
 10
46.81570496624607
 20
564.915871598609
 30
0.0
 11
522.8790429449925
 21
564.915871598609
 31
0.0
  0
LINE
  5
70
330
1F
100
AcDbEntity
  8
F-Fﾚｲﾔ
  6
Continuous
 62
     7
370
     9
100
AcDbLine
 10
46.81570496624607
 20
500.915871598609
 30
0.0
 11
522.8790429449925
 21
500.915871598609
 31
0.0
  0
TEXT
  5
71
330
1F
100
AcDbEntity
  8
F-Fﾚｲﾔ
  6
Continuous
 62
     2
370
     9
100
AcDbText
 10
-94.73285670451907
 20
703.171871598609
 30
0.0
 40
12.192
  1
みぞ幅
 41
1.083333333333333
  7
ＭＳ ゴシック
100
AcDbText
  0
LINE
  5
72
330
1F
100
AcDbEntity
  8
F-Fﾚｲﾔ
  6
Continuous
 62
     7
370
     9
100
AcDbLine
 10
522.8790429449925
 20
760.915871598609
 30
0.0
 11
522.8790429449925
 21
372.9158715986091
 31
0.0
  0
LINE
  5
73
330
1F
100
AcDbEntity
  8
F-Fﾚｲﾔ
  6
Continuous
 62
     7
370
     9
100
AcDbLine
 10
-105.3797467629805
 20
372.9158715986091
 30
0.0
 11
522.8790429449925
 21
372.9158715986091
 31
0.0
  0
LINE
  5
74
330
1F
100
AcDbEntity
  8
F-Fﾚｲﾔ
  6
Continuous
 62
     7
370
     9
100
AcDbLine
 10
-105.3797467629805
 20
760.915871598609
 30
0.0
 11
-105.3797467629805
 21
372.9158715986091
 31
0.0
  0
LINE
  5
75
330
1F
100
AcDbEntity
  8
F-Fﾚｲﾔ
  6
Continuous
 62
     7
370
     9
100
AcDbLine
 10
46.81570496624607
 20
760.915871598609
 30
0.0
 11
46.81570496624607
 21
372.9158715986091
 31
0.0
  0
TEXT
  5
76
330
1F
100
AcDbEntity
  8
F-5ﾚｲﾔ
  6
Continuous
 62
     2
370
     9
100
AcDbText
 10
63.34966572385588
 20
639.171871598609
 30
0.0
 40
12.192
  1
充填深さ 28mm
 41
1.115384615384615
  7
ＭＳ ゴシック
100
AcDbText
  0
TEXT
  5
77
330
1F
100
AcDbEntity
  8
F-Fﾚｲﾔ
  6
Continuous
 62
     2
370
     9
100
AcDbText
 10
63.34966572385582
 20
383.1718715986091
 30
0.0
 40
12.192
  1
受枠：L-46Z
 41
1.113636363636364
  7
ＭＳ ゴシック
100
AcDbText
  0
TEXT
  5
78
330
1F
100
AcDbEntity
  8
F-Fﾚｲﾔ
  6
Continuous
 62
     2
370
     9
100
AcDbText
 10
567.4905605859022
 20
739.1718930562811
 30
0.0
 40
12.192
  1
強度性能
 41
1.09375
  7
ＭＳ ゴシック
100
AcDbText
  0
LINE
  5
79
330
1F
100
AcDbEntity
  8
F-Fﾚｲﾔ
  6
Continuous
 62
     7
370
     9
100
AcDbLine
 10
556.8436705274418
 20
760.915871598609
 30
0.0
 11
556.8436705274418
 21
596.915871598609
 31
0.0
  0
TEXT
  5
7A
330
1F
100
AcDbEntity
  8
F-Fﾚｲﾔ
  6
Continuous
 62
     2
370
     9
100
AcDbText
 10
567.4905605859022
 20
703.171871598609
 30
0.0
 40
12.192
  1
強度
 41
1.0625
  7
ＭＳ ゴシック
100
AcDbText
  0
TEXT
  5
7B
330
1F
100
AcDbEntity
  8
F-Fﾚｲﾔ
  6
Continuous
 62
     2
370
     9
100
AcDbText
 10
567.4905605859022
 20
639.171871598609
 30
0.0
 40
12.192
  1
主な使用場所
 41
1.104166666666667
  7
ＭＳ ゴシック
100
AcDbText
  0
TEXT
  5
7C
330
1F
100
AcDbEntity
  8
F-Fﾚｲﾔ
  6
Continuous
 62
     2
370
     9
100
AcDbText
 10
567.4905605859022
 20
607.171871598609
 30
0.0
 40
12.192
  1
荷重
 41
1.0625
  7
ＭＳ ゴシック
100
AcDbText
  0
LINE
  5
7D
330
1F
100
AcDbEntity
  8
F-Fﾚｲﾔ
  6
Continuous
 62
     7
370
     9
100
AcDbLine
 10
709.0391222566683
 20
728.915871598609
 30
0.0
 11
709.0391222566683
 21
596.915871598609
 31
0.0
  0
TEXT
  5
7E
330
1F
100
AcDbEntity
  8
F-Fﾚｲﾔ
  6
Continuous
 62
     2
370
     9
100
AcDbText
 10
725.573083014278
 20
703.171871598609
 30
0.0
 40
12.192
  1
歩行用：5.0kN/㎡(等分布荷重）
 41
1.116379310344828
  7
ＭＳ ゴシック
100
AcDbText
  0
TEXT
  5
7F
330
1F
100
AcDbEntity
  8
F-Fﾚｲﾔ
  6
Continuous
 62
     2
370
     9
100
AcDbText
 10
725.573083014278
 20
671.171871598609
 30
0.0
 40
12.192
  1
　 　 　道路橋示方書　歩道等の群集荷重
 41
1.118421052631579
  7
ＭＳ ゴシック
100
AcDbText
  0
TEXT
  5
80
330
1F
100
AcDbEntity
  8
F-Fﾚｲﾔ
  6
Continuous
 62
     2
370
     9
100
AcDbText
 10
725.573083014278
 20
639.171871598609
 30
0.0
 40
12.192
  1
歩道、建物内、犬走り
 41
1.1125
  7
ＭＳ ゴシック
100
AcDbText
  0
TEXT
  5
81
330
1F
100
AcDbEntity
  8
F-Fﾚｲﾔ
  6
Continuous
 62
     2
370
     9
100
AcDbText
 10
725.573083014278
 20
607.171871598609
 30
0.0
 40
12.192
  1
5.0kN/㎡
 41
1.09375
  7
ＭＳ ゴシック
100
AcDbText
  0
LINE
  5
82
330
1F
100
AcDbEntity
  8
F-Fﾚｲﾔ
  6
Continuous
 62
     7
370
     9
100
AcDbLine
 10
556.8436705274418
 20
760.915871598609
 30
0.0
 11
1125.530347409443
 21
760.915871598609
 31
0.0
  0
LINE
  5
83
330
1F
100
AcDbEntity
  8
F-Fﾚｲﾔ
  6
Continuous
 62
     7
370
     9
100
AcDbLine
 10
556.8436705274418
 20
728.915871598609
 30
0.0
 11
1125.530347409443
 21
728.915871598609
 31
0.0
  0
LINE
  5
84
330
1F
100
AcDbEntity
  8
F-Fﾚｲﾔ
  6
Continuous
 62
     7
370
     9
100
AcDbLine
 10
556.8436705274418
 20
724.915871598609
 30
0.0
 11
1125.530347409443
 21
724.915871598609
 31
0.0
  0
LINE
  5
85
330
1F
100
AcDbEntity
  8
F-5ﾚｲﾔ
  6
Continuous
 62
     7
370
     9
100
AcDbLine
 10
556.8436705274418
 20
660.915871598609
 30
0.0
 11
1125.530347409443
 21
660.915871598609
 31
0.0
  0
LINE
  5
86
330
1F
100
AcDbEntity
  8
F-Fﾚｲﾔ
  6
Continuous
 62
     7
370
     9
100
AcDbLine
 10
556.8436705274418
 20
660.915871598609
 30
0.0
 11
1125.530347409443
 21
660.915871598609
 31
0.0
  0
LINE
  5
87
330
1F
100
AcDbEntity
  8
F-Fﾚｲﾔ
  6
Continuous
 62
     7
370
     9
100
AcDbLine
 10
556.8436705274418
 20
596.915871598609
 30
0.0
 11
1125.530347409443
 21
596.915871598609
 31
0.0
  0
LINE
  5
88
330
1F
100
AcDbEntity
  8
F-Fﾚｲﾔ
  6
Continuous
 62
     7
370
     9
100
AcDbLine
 10
1125.530347409443
 20
760.915871598609
 30
0.0
 11
1125.530347409443
 21
596.915871598609
 31
0.0
  0
LINE
  5
89
330
1F
100
AcDbEntity
  8
F-Fﾚｲﾔ
  6
Continuous
 62
     7
370
     9
100
AcDbLine
 10
556.8436705274418
 20
628.915871598609
 30
0.0
 11
1125.530347409443
 21
628.915871598609
 31
0.0
  0
LINE
  5
8A
330
1F
100
AcDbEntity
  8
建具
  6
JWW_CENTER1
 62
     4
370
     9
100
AcDbLine
 10
-542.3354891969852
 20
-350.3651999592271
 30
0.0
 11
-558.74266709632
 21
-350.3651999592271
 31
0.0
  0
LINE
  5
8B
330
1F
100
AcDbEntity
  8
建具
  6
Continuous
 62
     4
370
     9
100
AcDbLine
 10
-655.9985800832817
 20
-356.465333906651
 30
0.0
 11
-655.9985800832817
 21
-350.3651999592271
 31
0.0
  0
LINE
  5
8C
330
1F
100
AcDbEntity
  8
建具
  6
Continuous
 62
     4
370
     9
100
AcDbLine
 10
-555.9986213232519
 20
-366.4651194588048
 30
0.0
 11
-645.9985470913052
 21
-366.4651194588048
 31
0.0
  0
LINE
  5
8D
330
1F
100
AcDbEntity
  8
建具
  6
Continuous
 62
     4
370
     9
100
AcDbLine
 10
-545.9987120511873
 20
-356.465333906651
 30
0.0
 11
-545.9987120511873
 21
-350.3651999592271
 31
0.0
  0
LINE
  5
8E
330
1F
100
AcDbEntity
  8
建具
  6
Continuous
 62
     4
370
     9
100
AcDbLine
 10
-554.9985932800723
 20
-356.465333906651
 30
0.0
 11
-554.9985932800723
 21
-350.3651999592271
 31
0.0
  0
LINE
  5
8F
330
1F
100
AcDbEntity
  8
建具
  6
Continuous
 62
     4
370
     9
100
AcDbLine
 10
-645.9985470913052
 20
-357.4652382299196
 30
0.0
 11
-555.9984976033406
 21
-357.4652382299196
 31
0.0
  0
LINE
  5
90
330
1F
100
AcDbEntity
  8
建具
  6
Continuous
 62
     4
370
     9
100
AcDbLine
 10
-646.9985751344852
 20
-356.465333906651
 30
0.0
 11
-646.9985751344852
 21
-350.3651999592271
 31
0.0
  0
LINE
  5
91
330
1F
100
AcDbEntity
  8
建具
  6
JWW_CENTER1
 62
     4
370
     9
100
AcDbLine
 10
-651.4986394688392
 20
-342.2578341705866
 30
0.0
 11
-651.4986394688392
 21
-357.8554508302152
 31
0.0
  0
LINE
  5
92
330
1F
100
AcDbEntity
  8
建具
  6
JWW_CENTER1
 62
     4
370
     9
100
AcDbLine
 10
-643.3355997201061
 20
-350.3651999592271
 30
0.0
 11
-659.742592039574
 21
-350.3651999592271
 31
0.0
  0
LINE
  5
93
330
1F
100
AcDbEntity
  8
建具
  6
JWW_CENTER1
 62
     4
370
     9
100
AcDbLine
 10
-550.4984670857625
 20
-342.2578341705866
 30
0.0
 11
-550.4984670857625
 21
-357.8554508302152
 31
0.0
  0
LINE
  5
94
330
1F
100
AcDbEntity
  8
建具
  6
Continuous
 62
     4
370
     9
100
AcDbLine
 10
-155.9985079133335
 20
-356.465333906651
 30
0.0
 11
-155.9985079133335
 21
-350.3651999592271
 31
0.0
  0
LINE
  5
95
330
1F
100
AcDbEntity
  8
建具
  6
Continuous
 62
     4
370
     9
100
AcDbLine
 10
-55.99854915330388
 20
-366.4651194588048
 30
0.0
 11
-145.9984749213572
 21
-366.4651194588048
 31
0.0
  0
LINE
  5
96
330
1F
100
AcDbEntity
  8
建具
  6
Continuous
 62
     4
370
     9
100
AcDbLine
 10
-45.99851616132764
 20
-356.465333906651
 30
0.0
 11
-45.99851616132764
 21
-350.3651999592271
 31
0.0
  0
LINE
  5
97
330
1F
100
AcDbEntity
  8
建具
  6
Continuous
 62
     4
370
     9
100
AcDbLine
 10
-54.99852111012387
 20
-356.465333906651
 30
0.0
 11
-54.99852111012387
 21
-350.3651999592271
 31
0.0
  0
LINE
  5
98
330
1F
100
AcDbEntity
  8
建具
  6
Continuous
 62
     4
370
     9
100
AcDbLine
 10
-145.9984749213572
 20
-357.4652382299196
 30
0.0
 11
-55.99842543339264
 21
-357.4652382299196
 31
0.0
  0
LINE
  5
99
330
1F
100
AcDbEntity
  8
建具
  6
Continuous
 62
     4
370
     9
100
AcDbLine
 10
-146.9986266844485
 20
-356.465333906651
 30
0.0
 11
-146.9986266844485
 21
-350.3651999592271
 31
0.0
  0
LINE
  5
9A
330
1F
100
AcDbEntity
  8
建具
  6
JWW_CENTER1
 62
     4
370
     9
100
AcDbLine
 10
-151.498567298891
 20
-342.2578341705866
 30
0.0
 11
-151.498567298891
 21
-357.8554508302152
 31
0.0
  0
LINE
  5
9B
330
1F
100
AcDbEntity
  8
建具
  6
JWW_CENTER1
 62
     4
370
     9
100
AcDbLine
 10
-143.3355275501576
 20
-350.3651999592271
 30
0.0
 11
-159.7426435895368
 21
-350.3651999592271
 31
0.0
  0
LINE
  5
9C
330
1F
100
AcDbEntity
  8
建具
  6
JWW_CENTER1
 62
     4
370
     9
100
AcDbLine
 10
-50.49833305585889
 20
-342.2578341705866
 30
0.0
 11
-50.49833305585889
 21
-357.8554508302152
 31
0.0
  0
LINE
  5
9D
330
1F
100
AcDbEntity
  8
建具
  6
JWW_CENTER1
 62
     4
370
     9
100
AcDbLine
 10
-42.33566446685973
 20
-350.3651999592271
 30
0.0
 11
-58.74253306641594
 21
-350.3651999592271
 31
0.0
  0
LINE
  5
9E
330
1F
100
AcDbEntity
  8
建具
  6
Continuous
 62
     4
370
     9
100
AcDbLine
 10
-850.9984811073527
 20
-345.8652593447846
 30
0.0
 11
-850.9984811073527
 21
-285.865308832749
 31
0.0
  0
CIRCLE
  5
9F
330
1F
100
AcDbEntity
  8
建具
  6
Continuous
 62
     4
370
     9
100
AcDbCircle
 10
-651.4986394688392
 20
-350.3651999592271
 30
0.0
 40
4.500000057993709
  0
CIRCLE
  5
A0
330
1F
100
AcDbEntity
  8
建具
  6
Continuous
 62
     4
370
     9
100
AcDbCircle
 10
-550.4986526656298
 20
-350.3651999592271
 30
0.0
 40
4.500000057993709
  0
ARC
  5
A1
330
1F
100
AcDbEntity
  8
建具
  6
Continuous
 62
     4
370
     9
100
AcDbCircle
 10
-645.9985470913052
 20
-356.465333906651
 30
0.0
 40
9.9999991623131
100
AcDbArc
 50
180.0
 51
270.0
  0
ARC
  5
A2
330
1F
100
AcDbEntity
  8
建具
  6
Continuous
 62
     4
370
     9
100
AcDbCircle
 10
-555.9986213232519
 20
-356.465333906651
 30
0.0
 40
9.9999991623131
100
AcDbArc
 50
270.0
 51
0.0
  0
ARC
  5
A3
330
1F
100
AcDbEntity
  8
建具
  6
Continuous
 62
     4
370
     9
100
AcDbCircle
 10
-555.9984976033406
 20
-356.465333906651
 30
0.0
 40
0.9999999524773778
100
AcDbArc
 50
270.0
 51
0.0
  0
ARC
  5
A4
330
1F
100
AcDbEntity
  8
建具
  6
Continuous
 62
     4
370
     9
100
AcDbCircle
 10
-645.9985470913052
 20
-356.465333906651
 30
0.0
 40
0.9999999524773778
100
AcDbArc
 50
180.0
 51
270.0
  0
CIRCLE
  5
A5
330
1F
100
AcDbEntity
  8
建具
  6
Continuous
 62
     4
370
     9
100
AcDbCircle
 10
-151.498567298891
 20
-350.3651999592271
 30
0.0
 40
4.500000057993709
  0
CIRCLE
  5
A6
330
1F
100
AcDbEntity
  8
建具
  6
Continuous
 62
     4
370
     9
100
AcDbCircle
 10
-50.49858049568138
 20
-350.3651999592271
 30
0.0
 40
4.500000057993709
  0
ARC
  5
A7
330
1F
100
AcDbEntity
  8
建具
  6
Continuous
 62
     4
370
     9
100
AcDbCircle
 10
-145.9984749213572
 20
-356.465333906651
 30
0.0
 40
9.9999991623131
100
AcDbArc
 50
180.0
 51
270.0
  0
ARC
  5
A8
330
1F
100
AcDbEntity
  8
建具
  6
Continuous
 62
     4
370
     9
100
AcDbCircle
 10
-55.99854915330388
 20
-356.465333906651
 30
0.0
 40
9.9999991623131
100
AcDbArc
 50
270.0
 51
0.0
  0
ARC
  5
A9
330
1F
100
AcDbEntity
  8
建具
  6
Continuous
 62
     4
370
     9
100
AcDbCircle
 10
-55.99842543339264
 20
-356.465333906651
 30
0.0
 40
0.9999999524773778
100
AcDbArc
 50
270.0
 51
0.0
  0
ARC
  5
AA
330
1F
100
AcDbEntity
  8
建具
  6
Continuous
 62
     4
370
     9
100
AcDbCircle
 10
-145.9984749213572
 20
-356.465333906651
 30
0.0
 40
0.9999999524773778
100
AcDbArc
 50
180.0
 51
270.0
  0
LINE
  5
AB
330
1F
100
AcDbEntity
  8
躯体
  6
JWW_DASHED3
 62
     2
370
     9
100
AcDbLine
 10
-253.4985951064155
 20
-285.865308832749
 30
0.0
 11
-850.9984811073527
 21
-285.865308832749
 31
0.0
  0
LINE
  5
AC
330
1F
100
AcDbEntity
  8
建具
  6
Continuous
 62
     4
370
     9
100
AcDbLine
 10
77.81454328832706
 20
-345.8652593447846
 30
0.0
 11
-850.9984811073527
 21
-345.8652593447846
 31
0.0
  0
LINE
  5
AD
330
1F
100
AcDbEntity
  8
建具
  6
Continuous
 62
     4
370
     9
100
AcDbLine
 10
77.81454328832706
 20
-339.8653385255277
 30
0.0
 11
-850.9984811073527
 21
-339.8653385255277
 31
0.0
  0
LINE
  5
AE
330
1F
100
AcDbEntity
  8
躯体
  6
Continuous
 62
     2
370
     9
100
AcDbLine
 10
77.81454328832706
 20
-285.865308832749
 30
0.0
 11
-253.4985951064155
 21
-285.865308832749
 31
0.0
  0
LINE
  5
AF
330
1F
100
AcDbEntity
  8
仕上
  6
JWW_CENTER1
 62
     3
370
     9
100
AcDbLine
 10
-248.4985786104271
 20
-335.8651644928523
 30
0.0
 11
77.81454328832706
 21
-335.8651644928523
 31
0.0
  0
LINE
  5
B0
330
1F
100
AcDbEntity
  8
その他
  6
Continuous
 62
     7
370
     9
100
AcDbLine
 10
-848.4984811073527
 20
-473.8810192541054
 30
0.0
 11
-250.4984811073532
 21
-473.8810192541054
 31
0.0
  0
LWPOLYLINE
  5
B1
330
1F
100
AcDbEntity
  8
その他
  6
Continuous
 62
     7
370
     9
100
AcDbPolyline
 90
        4
 70
     1
 43
0.4
 10
-848.2984811073527
 20
-473.8810192541054
 42
0.4142135623731
 10
-848.4984811073527
 20
-473.6810192541054
 42
0.4142135623731
 10
-848.6984811073528
 20
-473.8810192541054
 42
0.4142135623731
 10
-848.4984811073527
 20
-474.0810192541053
 42
0.4142135623731
  0
LWPOLYLINE
  5
B2
330
1F
100
AcDbEntity
  8
その他
  6
Continuous
 62
     7
370
     9
100
AcDbPolyline
 90
        4
 70
     1
 43
0.4
 10
-250.2984811073532
 20
-473.8810192541054
 42
0.4142135623731
 10
-250.4984811073532
 20
-473.6810192541054
 42
0.4142135623731
 10
-250.6984811073532
 20
-473.8810192541054
 42
0.4142135623731
 10
-250.4984811073532
 20
-474.0810192541053
 42
0.4142135623731
  0
TEXT
  5
B3
330
1F
100
AcDbEntity
  8
その他
  6
Continuous
 62
     2
370
   211
100
AcDbText
 10
-562.498481107353
 20
-469.2250192541054
 30
0.0
 40
12.192
  1
598
 41
1.083333333333343
  7
ＭＳ ゴシック
100
AcDbText
  0
LINE
  5
B4
330
1F
100
AcDbEntity
  8
その他
  6
Continuous
 62
     7
370
     9
100
AcDbLine
 10
-250.4984811073532
 20
-473.8810192541054
 30
0.0
 11
-248.4985786104271
 21
-473.8810192541054
 31
0.0
  0
LWPOLYLINE
  5
B5
330
1F
100
AcDbEntity
  8
その他
  6
Continuous
 62
     7
370
     9
100
AcDbPolyline
 90
        4
 70
     1
 43
0.4
 10
-248.2985786104271
 20
-473.8810192541054
 42
0.4142135623731
 10
-248.4985786104271
 20
-473.6810192541054
 42
0.4142135623731
 10
-248.6985786104271
 20
-473.8810192541054
 42
0.4142135623731
 10
-248.4985786104271
 20
-474.0810192541053
 42
0.4142135623731
  0
LINE
  5
B6
330
1F
100
AcDbEntity
  8
その他
  6
Continuous
 62
     7
370
     9
100
AcDbLine
 10
-248.4985786104271
 20
-473.8810192541054
 30
0.0
 11
77.81454328832706
 21
-473.8810192541054
 31
0.0
  0
TEXT
  5
B7
330
1F
100
AcDbEntity
  8
その他
  6
Continuous
 62
     2
370
   211
100
AcDbText
 10
48.97337103908012
 20
-469.2250192541054
 30
0.0
 40
12.192
  1
598
 41
1.083333333333333
  7
ＭＳ ゴシック
100
AcDbText
  0
TEXT
  5
B8
330
1F
100
AcDbEntity
  8
その他
  6
Continuous
 62
     2
370
   211
100
AcDbText
 10
-243.231331655777
 20
-469.2250192541054
 30
0.0
 40
12.192
  1
2
  7
ＭＳ ゴシック
100
AcDbText
  0
LINE
  5
B9
330
1F
100
AcDbEntity
  8
その他
  6
Continuous
 62
     7
370
     9
100
AcDbLine
 10
-248.4985786104271
 20
-475.0810192541054
 30
0.0
 11
-248.4985786104271
 21
-355.3073098342012
 31
0.0
  0
LINE
  5
BA
330
1F
100
AcDbEntity
  8
その他
  6
Continuous
 62
     7
370
     9
100
AcDbLine
 10
-250.4984811073532
 20
-475.0810192541054
 30
0.0
 11
-250.4984811073532
 21
-355.3073098342012
 31
0.0
  0
LINE
  5
BB
330
1F
100
AcDbEntity
  8
その他
  6
Continuous
 62
     7
370
     9
100
AcDbLine
 10
-848.4984811073527
 20
-475.0810192541054
 30
0.0
 11
-848.4984811073527
 21
-355.3073098342012
 31
0.0
  0
LINE
  5
BC
330
1F
100
AcDbEntity
  8
その他
  6
Continuous
 62
     7
370
     9
100
AcDbLine
 10
-843.998396270842
 20
-437.2851510456774
 30
0.0
 11
-254.9985659438635
 21
-437.2851510456774
 31
0.0
  0
LWPOLYLINE
  5
BD
330
1F
100
AcDbEntity
  8
その他
  6
Continuous
 62
     7
370
     9
100
AcDbPolyline
 90
        4
 70
     1
 43
0.4
 10
-843.798396270842
 20
-437.2851510456774
 42
0.4142135623731
 10
-843.998396270842
 20
-437.0851510456774
 42
0.4142135623731
 10
-844.1983962708421
 20
-437.2851510456774
 42
0.4142135623731
 10
-843.998396270842
 20
-437.4851510456774
 42
0.4142135623731
  0
LWPOLYLINE
  5
BE
330
1F
100
AcDbEntity
  8
その他
  6
Continuous
 62
     7
370
     9
100
AcDbPolyline
 90
        4
 70
     1
 43
0.4
 10
-254.7985659438635
 20
-437.2851510456774
 42
0.4142135623731
 10
-254.9985659438635
 20
-437.0851510456774
 42
0.4142135623731
 10
-255.1985659438635
 20
-437.2851510456774
 42
0.4142135623731
 10
-254.9985659438635
 20
-437.4851510456774
 42
0.4142135623731
  0
TEXT
  5
BF
330
1F
100
AcDbEntity
  8
その他
  6
Continuous
 62
     2
370
   211
100
AcDbText
 10
-562.4984811073527
 20
-432.6291510456774
 30
0.0
 40
12.192
  1
589
 41
1.083333333333333
  7
ＭＳ ゴシック
100
AcDbText
  0
LINE
  5
C0
330
1F
100
AcDbEntity
  8
その他
  6
Continuous
 62
     7
370
     9
100
AcDbLine
 10
-254.9985659438635
 20
-438.4851510456773
 30
0.0
 11
-254.9985659438635
 21
-355.3073098342012
 31
0.0
  0
LINE
  5
C1
330
1F
100
AcDbEntity
  8
その他
  6
Continuous
 62
     7
370
     9
100
AcDbLine
 10
-843.998396270842
 20
-438.4851510456773
 30
0.0
 11
-843.998396270842
 21
-355.3073098342012
 31
0.0
  0
LINE
  5
C2
330
1F
100
AcDbEntity
  8
建具
  6
Continuous
 62
     4
370
     9
100
AcDbLine
 10
495.4054401481185
 20
-339.8653385255277
 30
0.0
 11
453.7053965987097
 21
-339.8653385255277
 31
0.0
  0
LINE
  5
C3
330
1F
100
AcDbEntity
  8
建具
  6
Continuous
 62
     4
370
     9
100
AcDbLine
 10
453.7053965987097
 20
-339.8653385255277
 30
0.0
 11
453.7053965987097
 21
-345.8652593447846
 31
0.0
  0
LINE
  5
C4
330
1F
100
AcDbEntity
  8
建具
  6
Continuous
 62
     4
370
     9
100
AcDbLine
 10
453.7053965987097
 20
-345.8652593447846
 30
0.0
 11
495.4054401481185
 21
-345.8652593447846
 31
0.0
  0
LINE
  5
C5
330
1F
100
AcDbEntity
  8
建具
  6
Continuous
 62
     4
370
     9
100
AcDbLine
 10
499.4055523208381
 20
-335.8651644928523
 30
0.0
 11
499.4055523208381
 21
-285.865308832749
 31
0.0
  0
LINE
  5
C6
330
1F
100
AcDbEntity
  8
建具
  6
Continuous
 62
     4
370
     9
100
AcDbLine
 10
499.4055523208381
 20
-285.865308832749
 30
0.0
 11
505.4054731400943
 21
-285.865308832749
 31
0.0
  0
LINE
  5
C7
330
1F
100
AcDbEntity
  8
建具
  6
Continuous
 62
     4
370
     9
100
AcDbLine
 10
505.4054731400943
 20
-285.865308832749
 30
0.0
 11
505.4054731400943
 21
-335.8651644928523
 31
0.0
  0
LINE
  5
C8
330
1F
100
AcDbEntity
  8
建具
  6
Continuous
 62
     4
370
     9
100
AcDbLine
 10
475.4053741641656
 20
-345.8652593447846
 30
0.0
 11
475.4053741641656
 21
-354.8651405736696
 31
0.0
  0
LINE
  5
C9
330
1F
100
AcDbEntity
  8
建具
  6
Continuous
 62
     4
370
     9
100
AcDbLine
 10
489.2204343415306
 20
-345.8652593447846
 30
0.0
 11
475.4053741641656
 21
-345.8652593447846
 31
0.0
  0
LINE
  5
CA
330
1F
100
AcDbEntity
  8
建具
  6
Continuous
 62
     4
370
     9
100
AcDbLine
 10
489.220929221176
 20
-354.8651405736696
 30
0.0
 11
475.4053741641656
 21
-354.8651405736696
 31
0.0
  0
LINE
  5
CB
330
1F
100
AcDbEntity
  8
建具
  6
Continuous
 62
     4
370
     9
100
AcDbLine
 10
493.8792313221047
 20
-346.4784152252741
 30
0.0
 11
552.0701492908547
 21
-357.7718780301202
 31
0.0
  0
LINE
  5
CC
330
1F
100
AcDbEntity
  8
建具
  6
Continuous
 62
     4
370
     9
100
AcDbLine
 10
491.5503277114631
 20
-355.1719659537371
 30
0.0
 11
549.7407508005676
 21
-366.4653050386717
 31
0.0
  0
LINE
  5
CD
330
1F
100
AcDbEntity
  8
建具
  6
JWW_CENTER2
 62
     4
370
     9
100
AcDbLine
 10
489.2204343415306
 20
-350.3651999592271
 30
0.0
 11
471.6007394513276
 21
-350.3651999592271
 31
0.0
  0
LINE
  5
CE
330
1F
100
AcDbEntity
  8
建具
  6
JWW_CENTER2
 62
     4
370
     9
100
AcDbLine
 10
492.7147795167839
 20
-350.8251905895056
 30
0.0
 11
557.8815209652635
 21
-363.9878138145375
 31
0.0
  0
ARC
  5
CF
330
1F
100
AcDbEntity
  8
建具
  6
Continuous
 62
     4
370
     9
100
AcDbCircle
 10
495.4054401481185
 20
-335.8651644928523
 30
0.0
 40
3.999999809909511
100
AcDbArc
 50
270.0
 51
0.0
  0
ARC
  5
D0
330
1F
100
AcDbEntity
  8
建具
  6
Continuous
 62
     4
370
     9
100
AcDbCircle
 10
495.4054401481185
 20
-335.8651644928523
 30
0.0
 40
9.9999991623131
100
AcDbArc
 50
270.0
 51
0.0
  0
ARC
  5
D1
330
1F
100
AcDbEntity
  8
建具
  6
Continuous
 62
     4
370
     9
100
AcDbCircle
 10
489.2204343415306
 20
-363.8652692423775
 30
0.0
 40
17.99999829885122
100
AcDbArc
 50
74.99999999999999
 51
89.99999999999999
  0
ARC
  5
D2
330
1F
100
AcDbEntity
  8
建具
  6
Continuous
 62
     4
370
     9
100
AcDbCircle
 10
550.9056974855339
 20
-362.1186533943517
 30
0.0
 40
4.499999574712805
100
AcDbArc
 50
255.0000915527343
 51
74.99986267089842
  0
ARC
  5
D3
330
1F
100
AcDbEntity
  8
建具
  6
JWW_CENTER2
 62
     4
370
     9
100
AcDbCircle
 10
489.2204343415306
 20
-363.8652692423775
 30
0.0
 40
13.50000065726203
100
AcDbArc
 50
75.00004577636717
 51
90.0
  0
ARC
  5
D4
330
1F
100
AcDbEntity
  8
建具
  6
Continuous
 62
     4
370
     9
100
AcDbCircle
 10
489.220929221176
 20
-363.8652692423775
 30
0.0
 40
8.99999914942561
100
AcDbArc
 50
74.99998474121095
 51
90.00000000000001
  0
LINE
  5
D5
330
1F
100
AcDbEntity
  8
その他
  6
Continuous
 62
     7
370
     9
100
AcDbLine
 10
425.4336494186423
 20
-339.8653385255277
 30
0.0
 11
425.4336494186423
 21
-333.8655860831778
 31
0.0
  0
LWPOLYLINE
  5
D6
330
1F
100
AcDbEntity
  8
その他
  6
Continuous
 62
     7
370
     9
100
AcDbPolyline
 90
        4
 70
     1
 43
0.4
 10
425.6336494186423
 20
-339.8653385255277
 42
0.4142135623731
 10
425.4336494186423
 20
-339.6653385255277
 42
0.4142135623731
 10
425.2336494186423
 20
-339.8653385255277
 42
0.4142135623731
 10
425.4336494186423
 20
-340.0653385255277
 42
0.4142135623731
  0
LWPOLYLINE
  5
D7
330
1F
100
AcDbEntity
  8
その他
  6
Continuous
 62
     7
370
     9
100
AcDbPolyline
 90
        4
 70
     1
 43
0.4
 10
425.6336494186423
 20
-333.8655860831778
 42
0.4142135623731
 10
425.4336494186423
 20
-333.6655860831779
 42
0.4142135623731
 10
425.2336494186423
 20
-333.8655860831778
 42
0.4142135623731
 10
425.4336494186423
 20
-334.0655860831778
 42
0.4142135623731
  0
LINE
  5
D8
330
1F
100
AcDbEntity
  8
その他
  6
Continuous
 62
     7
370
     9
100
AcDbLine
 10
424.2336494186425
 20
-339.8653385255277
 30
0.0
 11
445.7053965987097
 21
-339.8653385255277
 31
0.0
  0
LINE
  5
D9
330
1F
100
AcDbEntity
  8
その他
  6
Continuous
 62
     7
370
     9
100
AcDbLine
 10
424.2336494186425
 20
-333.8655860831778
 30
0.0
 11
445.704284007486
 21
-333.8655860831778
 31
0.0
  0
LINE
  5
DA
330
1F
100
AcDbEntity
  8
その他
  6
Continuous
 62
     7
370
     9
100
AcDbLine
 10
425.4336494186423
 20
-333.8655860831778
 30
0.0
 11
425.4336494186423
 21
-329.3656454687363
 31
0.0
  0
LWPOLYLINE
  5
DB
330
1F
100
AcDbEntity
  8
その他
  6
Continuous
 62
     7
370
     9
100
AcDbPolyline
 90
        4
 70
     1
 43
0.4
 10
425.6336494186423
 20
-329.3656454687363
 42
0.4142135623731
 10
425.4336494186423
 20
-329.1656454687363
 42
0.4142135623731
 10
425.2336494186423
 20
-329.3656454687363
 42
0.4142135623731
 10
425.4336494186423
 20
-329.5656454687362
 42
0.4142135623731
  0
LINE
  5
DC
330
1F
100
AcDbEntity
  8
その他
  6
Continuous
 62
     7
370
     9
100
AcDbLine
 10
424.2336494186425
 20
-329.3656454687363
 30
0.0
 11
445.704284007486
 21
-329.3656454687363
 31
0.0
  0
LINE
  5
DD
330
1F
100
AcDbEntity
  8
その他
  6
Continuous
 62
     7
370
     9
100
AcDbLine
 10
425.4336494186423
 20
-329.3656454687363
 30
0.0
 11
425.4336494186423
 21
-323.3654668407499
 31
0.0
  0
LWPOLYLINE
  5
DE
330
1F
100
AcDbEntity
  8
その他
  6
Continuous
 62
     7
370
     9
100
AcDbPolyline
 90
        4
 70
     1
 43
0.4
 10
425.6336494186423
 20
-323.3654668407499
 42
0.4142135623731
 10
425.4336494186423
 20
-323.16546684075
 42
0.4142135623731
 10
425.2336494186423
 20
-323.3654668407499
 42
0.4142135623731
 10
425.4336494186423
 20
-323.5654668407499
 42
0.4142135623731
  0
LINE
  5
DF
330
1F
100
AcDbEntity
  8
その他
  6
Continuous
 62
     7
370
     9
100
AcDbLine
 10
424.2336494186425
 20
-323.3654668407499
 30
0.0
 11
445.704284007486
 21
-323.3654668407499
 31
0.0
  0
TEXT
  5
E0
330
1F
100
AcDbEntity
  8
その他
  6
Continuous
 62
     2
370
   211
100
AcDbText
 10
401.4912089988346
 20
-370.8016471325473
 30
0.0
 40
12.192
  1
4.5
 50
90.0
 41
1.083333333333333
  7
ＭＳ ゴシック
100
AcDbText
  0
LINE
  5
E1
330
1F
100
AcDbEntity
  8
その他
  6
Continuous
 62
     7
370
     9
100
AcDbLine
 10
425.4336494186423
 20
-331.6156157759571
 30
0.0
 11
403.8618913913247
 21
-339.4319218105074
 31
0.0
  0
LINE
  5
E2
330
1F
100
AcDbEntity
  8
その他
  6
Continuous
 62
     7
370
     9
100
AcDbLine
 10
403.8618913913247
 20
-339.4319218105074
 30
0.0
 11
403.8618913913247
 21
-373.3205687912247
 31
0.0
  0
TEXT
  5
E3
330
1F
100
AcDbEntity
  8
その他
  6
Continuous
 62
     2
370
   211
100
AcDbText
 10
420.7776494186422
 20
-351.2073880213117
 30
0.0
 40
12.192
  1
6
 50
90.0
  7
ＭＳ ゴシック
100
AcDbText
  0
TEXT
  5
E4
330
1F
100
AcDbEntity
  8
その他
  6
Continuous
 62
     2
370
   211
100
AcDbText
 10
420.7776494186422
 20
-320.105523178095
 30
0.0
 40
12.192
  1
6
 50
90.0
  7
ＭＳ ゴシック
100
AcDbText
  0
LINE
  5
E5
330
1F
100
AcDbEntity
  8
その他
  6
Continuous
 62
     7
370
     9
100
AcDbLine
 10
425.4336494186423
 20
-323.3654668407499
 30
0.0
 11
425.4336494186423
 21
-310.6007683385876
 31
0.0
  0
LINE
  5
E6
330
1F
100
AcDbEntity
  8
その他
  6
Continuous
 62
     7
370
     9
100
AcDbLine
 10
425.4336494186423
 20
-339.8653385255277
 30
0.0
 11
425.4336494186423
 21
-352.0240485058806
 31
0.0
  0
LINE
  5
E7
330
1F
100
AcDbEntity
  8
その他
  6
Continuous
 62
     7
370
     9
100
AcDbLine
 10
324.9691857290591
 20
-345.8652593447846
 30
0.0
 11
324.9691857290591
 21
-339.8653385255277
 31
0.0
  0
LWPOLYLINE
  5
E8
330
1F
100
AcDbEntity
  8
その他
  6
Continuous
 62
     7
370
     9
100
AcDbPolyline
 90
        4
 70
     1
 43
0.4
 10
325.1691857290591
 20
-345.8652593447846
 42
0.4142135623731
 10
324.9691857290591
 20
-345.6652593447846
 42
0.4142135623731
 10
324.7691857290591
 20
-345.8652593447846
 42
0.4142135623731
 10
324.9691857290591
 20
-346.0652593447846
 42
0.4142135623731
  0
LWPOLYLINE
  5
E9
330
1F
100
AcDbEntity
  8
その他
  6
Continuous
 62
     7
370
     9
100
AcDbPolyline
 90
        4
 70
     1
 43
0.4
 10
325.1691857290591
 20
-339.8653385255277
 42
0.4142135623731
 10
324.9691857290591
 20
-339.6653385255277
 42
0.4142135623731
 10
324.7691857290591
 20
-339.8653385255277
 42
0.4142135623731
 10
324.9691857290591
 20
-340.0653385255277
 42
0.4142135623731
  0
LINE
  5
EA
330
1F
100
AcDbEntity
  8
その他
  6
Continuous
 62
     7
370
     9
100
AcDbLine
 10
324.9691857290591
 20
-339.8653385255277
 30
0.0
 11
324.9691857290591
 21
-336.3655860831778
 31
0.0
  0
LWPOLYLINE
  5
EB
330
1F
100
AcDbEntity
  8
その他
  6
Continuous
 62
     7
370
     9
100
AcDbPolyline
 90
        4
 70
     1
 43
0.4
 10
325.1691857290591
 20
-336.3655860831778
 42
0.4142135623731
 10
324.9691857290591
 20
-336.1655860831779
 42
0.4142135623731
 10
324.7691857290591
 20
-336.3655860831778
 42
0.4142135623731
 10
324.9691857290591
 20
-336.5655860831778
 42
0.4142135623731
  0
LWPOLYLINE
  5
EC
330
1F
100
AcDbEntity
  8
その他
  6
Continuous
 62
     7
370
     9
100
AcDbPolyline
 90
        4
 70
     1
 43
0.4
 10
295.211277750928
 20
-345.8652593447846
 42
0.4142135623731
 10
295.011277750928
 20
-345.6652593447846
 42
0.4142135623731
 10
294.811277750928
 20
-345.8652593447846
 42
0.4142135623731
 10
295.011277750928
 20
-346.0652593447846
 42
0.4142135623731
  0
LINE
  5
ED
330
1F
100
AcDbEntity
  8
その他
  6
Continuous
 62
     7
370
     9
100
AcDbLine
 10
323.7691857290592
 20
-336.3655860831778
 30
0.0
 11
386.2122711871543
 21
-336.3655860831778
 31
0.0
  0
LINE
  5
EE
330
1F
100
AcDbEntity
  8
その他
  6
Continuous
 62
     7
370
     9
100
AcDbLine
 10
323.7691857290592
 20
-339.8653385255277
 30
0.0
 11
386.2122711871543
 21
-339.8653385255277
 31
0.0
  0
LINE
  5
EF
330
1F
100
AcDbEntity
  8
その他
  6
Continuous
 62
     7
370
     9
100
AcDbLine
 10
293.8112777509282
 20
-345.8652593447846
 30
0.0
 11
386.2122711871543
 21
-345.8652593447846
 31
0.0
  0
LWPOLYLINE
  5
F0
330
1F
100
AcDbEntity
  8
その他
  6
Continuous
 62
     7
370
     9
100
AcDbPolyline
 90
        4
 70
     1
 43
0.4
 10
351.2952682681272
 20
-318.8655262263047
 42
0.4142135623731
 10
351.0952682681273
 20
-318.6655262263047
 42
0.4142135623731
 10
350.8952682681273
 20
-318.8655262263047
 42
0.4142135623731
 10
351.0952682681273
 20
-319.0655262263047
 42
0.4142135623731
  0
LINE
  5
F1
330
1F
100
AcDbEntity
  8
その他
  6
Continuous
 62
     7
370
     9
100
AcDbLine
 10
349.8952682681274
 20
-318.8655262263047
 30
0.0
 11
386.2122711871543
 21
-318.8655262263047
 31
0.0
  0
TEXT
  5
F2
330
1F
100
AcDbEntity
  8
その他
  6
Continuous
 62
     2
370
   211
100
AcDbText
 10
320.313185729059
 20
-358.8796400788751
 30
0.0
 40
12.192
  1
6
 50
90.0
  7
ＭＳ ゴシック
100
AcDbText
  0
TEXT
  5
F3
330
1F
100
AcDbEntity
  8
その他
  6
Continuous
 62
     2
370
   211
100
AcDbText
 10
320.313185729059
 20
-341.0439602362767
 30
0.0
 40
12.192
  1
3.5
 50
90.0
 41
1.083333333333333
  7
ＭＳ ゴシック
100
AcDbText
  0
LINE
  5
F4
330
1F
100
AcDbEntity
  8
その他
  6
Continuous
 62
     7
370
     9
100
AcDbLine
 10
324.9691857290591
 20
-345.8652593447846
 30
0.0
 11
324.9691857290591
 21
-363.7560572575808
 31
0.0
  0
LWPOLYLINE
  5
F5
330
1F
100
AcDbEntity
  8
その他
  6
Continuous
 62
     7
370
     9
100
AcDbPolyline
 90
        4
 70
     1
 43
0.4
 10
592.257847761842
 20
-285.865308832749
 42
0.4142135623731
 10
592.0578477618419
 20
-285.665308832749
 42
0.4142135623731
 10
591.8578477618419
 20
-285.865308832749
 42
0.4142135623731
 10
592.0578477618419
 20
-286.0653088327489
 42
0.4142135623731
  0
LINE
  5
F6
330
1F
100
AcDbEntity
  8
その他
  6
Continuous
 62
     7
370
     9
100
AcDbLine
 10
593.2578477618417
 20
-285.865308832749
 30
0.0
 11
513.4054731400943
 21
-285.865308832749
 31
0.0
  0
LINE
  5
F7
330
1F
100
AcDbEntity
  8
その他
  6
Continuous
 62
     7
370
     9
100
AcDbLine
 10
592.0578477618419
 20
-285.865308832749
 30
0.0
 11
592.0578477618419
 21
-345.8652593447846
 31
0.0
  0
LWPOLYLINE
  5
F8
330
1F
100
AcDbEntity
  8
その他
  6
Continuous
 62
     7
370
     9
100
AcDbPolyline
 90
        4
 70
     1
 43
0.4
 10
592.257847761842
 20
-345.8652593447846
 42
0.4142135623731
 10
592.0578477618419
 20
-345.6652593447846
 42
0.4142135623731
 10
591.8578477618419
 20
-345.8652593447846
 42
0.4142135623731
 10
592.0578477618419
 20
-346.0652593447846
 42
0.4142135623731
  0
TEXT
  5
F9
330
1F
100
AcDbEntity
  8
その他
  6
Continuous
 62
     2
370
   211
100
AcDbText
 10
587.4018477618419
 20
-324.3652840887668
 30
0.0
 40
12.192
  1
60
 50
90.0
 41
1.0625
  7
ＭＳ ゴシック
100
AcDbText
  0
LINE
  5
FA
330
1F
100
AcDbEntity
  8
その他
  6
Continuous
 62
     7
370
     9
100
AcDbLine
 10
593.2578477618417
 20
-345.8652593447846
 30
0.0
 11
513.4054731400943
 21
-345.8652593447846
 31
0.0
  0
LINE
  5
FB
330
1F
100
AcDbEntity
  8
建具
  6
Continuous
 62
     4
370
     9
100
AcDbLine
 10
-655.9985800832817
 20
84.73481934107951
 30
0.0
 11
-655.9985800832817
 21
78.63468539365556
 31
0.0
  0
LINE
  5
FC
330
1F
100
AcDbEntity
  8
建具
  6
Continuous
 62
     4
370
     9
100
AcDbLine
 10
-555.9986213232519
 20
94.73460489323327
 30
0.0
 11
-645.9985470913052
 21
94.73460489323327
 31
0.0
  0
LINE
  5
FD
330
1F
100
AcDbEntity
  8
建具
  6
Continuous
 62
     4
370
     9
100
AcDbLine
 10
-545.9987120511873
 20
84.73481934107951
 30
0.0
 11
-545.9987120511873
 21
78.63468539365556
 31
0.0
  0
LINE
  5
FE
330
1F
100
AcDbEntity
  8
建具
  6
Continuous
 62
     4
370
     9
100
AcDbLine
 10
-554.9985932800723
 20
84.73481934107951
 30
0.0
 11
-554.9985932800723
 21
78.63468539365556
 31
0.0
  0
LINE
  5
FF
330
1F
100
AcDbEntity
  8
建具
  6
Continuous
 62
     4
370
     9
100
AcDbLine
 10
-645.9985470913052
 20
85.73472366434805
 30
0.0
 11
-555.9984976033406
 21
85.73472366434805
 31
0.0
  0
LINE
  5
100
330
1F
100
AcDbEntity
  8
建具
  6
Continuous
 62
     4
370
     9
100
AcDbLine
 10
-646.9985751344852
 20
84.73481934107951
 30
0.0
 11
-646.9985751344852
 21
78.63468539365556
 31
0.0
  0
LINE
  5
101
330
1F
100
AcDbEntity
  8
建具
  6
JWW_CENTER1
 62
     4
370
     9
100
AcDbLine
 10
-651.4986394688392
 20
70.52731960501535
 30
0.0
 11
-651.4986394688392
 21
86.1249362646439
 31
0.0
  0
LINE
  5
102
330
1F
100
AcDbEntity
  8
建具
  6
JWW_CENTER1
 62
     4
370
     9
100
AcDbLine
 10
-643.3355997201061
 20
78.63468539365556
 30
0.0
 11
-659.742592039574
 21
78.63468539365556
 31
0.0
  0
LINE
  5
103
330
1F
100
AcDbEntity
  8
建具
  6
JWW_CENTER1
 62
     4
370
     9
100
AcDbLine
 10
-550.4984670857625
 20
70.52731960501535
 30
0.0
 11
-550.4984670857625
 21
86.1249362646439
 31
0.0
  0
LINE
  5
104
330
1F
100
AcDbEntity
  8
建具
  6
JWW_CENTER1
 62
     4
370
     9
100
AcDbLine
 10
-542.3354891969852
 20
78.63468539365556
 30
0.0
 11
-558.74266709632
 21
78.63468539365556
 31
0.0
  0
LINE
  5
105
330
1F
100
AcDbEntity
  8
建具
  6
Continuous
 62
     4
370
     9
100
AcDbLine
 10
-155.9985079133335
 20
84.73481934107951
 30
0.0
 11
-155.9985079133335
 21
78.63468539365556
 31
0.0
  0
LINE
  5
106
330
1F
100
AcDbEntity
  8
建具
  6
Continuous
 62
     4
370
     9
100
AcDbLine
 10
-55.99854915330388
 20
94.73460489323327
 30
0.0
 11
-145.9984749213572
 21
94.73460489323327
 31
0.0
  0
LINE
  5
107
330
1F
100
AcDbEntity
  8
建具
  6
Continuous
 62
     4
370
     9
100
AcDbLine
 10
-45.99851616132764
 20
84.73481934107951
 30
0.0
 11
-45.99851616132764
 21
78.63468539365556
 31
0.0
  0
LINE
  5
108
330
1F
100
AcDbEntity
  8
建具
  6
Continuous
 62
     4
370
     9
100
AcDbLine
 10
-54.99852111012387
 20
84.73481934107951
 30
0.0
 11
-54.99852111012387
 21
78.63468539365556
 31
0.0
  0
LINE
  5
109
330
1F
100
AcDbEntity
  8
建具
  6
Continuous
 62
     4
370
     9
100
AcDbLine
 10
-145.9984749213572
 20
85.73472366434805
 30
0.0
 11
-55.99842543339264
 21
85.73472366434805
 31
0.0
  0
LINE
  5
10A
330
1F
100
AcDbEntity
  8
建具
  6
Continuous
 62
     4
370
     9
100
AcDbLine
 10
-146.9986266844485
 20
84.73481934107951
 30
0.0
 11
-146.9986266844485
 21
78.63468539365556
 31
0.0
  0
LINE
  5
10B
330
1F
100
AcDbEntity
  8
建具
  6
JWW_CENTER1
 62
     4
370
     9
100
AcDbLine
 10
-151.498567298891
 20
70.52731960501535
 30
0.0
 11
-151.498567298891
 21
86.1249362646439
 31
0.0
  0
LINE
  5
10C
330
1F
100
AcDbEntity
  8
建具
  6
JWW_CENTER1
 62
     4
370
     9
100
AcDbLine
 10
-143.3355275501576
 20
78.63468539365556
 30
0.0
 11
-159.7426435895368
 21
78.63468539365556
 31
0.0
  0
LINE
  5
10D
330
1F
100
AcDbEntity
  8
建具
  6
JWW_CENTER1
 62
     4
370
     9
100
AcDbLine
 10
-50.49833305585889
 20
70.52731960501535
 30
0.0
 11
-50.49833305585889
 21
86.1249362646439
 31
0.0
  0
LINE
  5
10E
330
1F
100
AcDbEntity
  8
建具
  6
JWW_CENTER1
 62
     4
370
     9
100
AcDbLine
 10
-42.33566446685973
 20
78.63468539365556
 30
0.0
 11
-58.74253306641594
 21
78.63468539365556
 31
0.0
  0
LINE
  5
10F
330
1F
100
AcDbEntity
  8
建具
  6
Continuous
 62
     4
370
     9
100
AcDbLine
 10
-850.9984811073527
 20
74.13474477921284
 30
0.0
 11
-850.9984811073527
 21
14.13473240722203
 31
0.0
  0
CIRCLE
  5
110
330
1F
100
AcDbEntity
  8
建具
  6
Continuous
 62
     4
370
     9
100
AcDbCircle
 10
-651.4986394688392
 20
78.63468539365556
 30
0.0
 40
4.500000057993709
  0
CIRCLE
  5
111
330
1F
100
AcDbEntity
  8
建具
  6
Continuous
 62
     4
370
     9
100
AcDbCircle
 10
-550.4986526656298
 20
78.63468539365556
 30
0.0
 40
4.500000057993709
  0
ARC
  5
112
330
1F
100
AcDbEntity
  8
建具
  6
Continuous
 62
     4
370
     9
100
AcDbCircle
 10
-645.9985470913052
 20
84.73481934107951
 30
0.0
 40
9.9999991623131
100
AcDbArc
 50
90.0
 51
180.0
  0
ARC
  5
113
330
1F
100
AcDbEntity
  8
建具
  6
Continuous
 62
     4
370
     9
100
AcDbCircle
 10
-555.9986213232519
 20
84.73481934107951
 30
0.0
 40
9.9999991623131
100
AcDbArc
 50
0.0
 51
90.0
  0
ARC
  5
114
330
1F
100
AcDbEntity
  8
建具
  6
Continuous
 62
     4
370
     9
100
AcDbCircle
 10
-555.9984976033406
 20
84.73481934107951
 30
0.0
 40
0.9999999524773778
100
AcDbArc
 50
0.0
 51
90.0
  0
ARC
  5
115
330
1F
100
AcDbEntity
  8
建具
  6
Continuous
 62
     4
370
     9
100
AcDbCircle
 10
-645.9985470913052
 20
84.73481934107951
 30
0.0
 40
0.9999999524773778
100
AcDbArc
 50
90.0
 51
180.0
  0
CIRCLE
  5
116
330
1F
100
AcDbEntity
  8
建具
  6
Continuous
 62
     4
370
     9
100
AcDbCircle
 10
-151.498567298891
 20
78.63468539365556
 30
0.0
 40
4.500000057993709
  0
CIRCLE
  5
117
330
1F
100
AcDbEntity
  8
建具
  6
Continuous
 62
     4
370
     9
100
AcDbCircle
 10
-50.49858049568138
 20
78.63468539365556
 30
0.0
 40
4.500000057993709
  0
ARC
  5
118
330
1F
100
AcDbEntity
  8
建具
  6
Continuous
 62
     4
370
     9
100
AcDbCircle
 10
-145.9984749213572
 20
84.73481934107951
 30
0.0
 40
9.9999991623131
100
AcDbArc
 50
90.0
 51
180.0
  0
ARC
  5
119
330
1F
100
AcDbEntity
  8
建具
  6
Continuous
 62
     4
370
     9
100
AcDbCircle
 10
-55.99854915330388
 20
84.73481934107951
 30
0.0
 40
9.9999991623131
100
AcDbArc
 50
0.0
 51
90.0
  0
ARC
  5
11A
330
1F
100
AcDbEntity
  8
建具
  6
Continuous
 62
     4
370
     9
100
AcDbCircle
 10
-55.99842543339264
 20
84.73481934107951
 30
0.0
 40
0.9999999524773778
100
AcDbArc
 50
0.0
 51
90.0
  0
ARC
  5
11B
330
1F
100
AcDbEntity
  8
建具
  6
Continuous
 62
     4
370
     9
100
AcDbCircle
 10
-145.9984749213572
 20
84.73481934107951
 30
0.0
 40
0.9999999524773778
100
AcDbArc
 50
90.0
 51
180.0
  0
LINE
  5
11C
330
1F
100
AcDbEntity
  8
躯体
  6
JWW_DASHED3
 62
     2
370
     9
100
AcDbLine
 10
-253.4985951064155
 20
14.13473240722203
 30
0.0
 11
-850.9984811073527
 21
14.13473240722203
 31
0.0
  0
LINE
  5
11D
330
1F
100
AcDbEntity
  8
仕上
  6
JWW_CENTER1
 62
     3
370
     9
100
AcDbLine
 10
-248.4985786104271
 20
64.1347117872366
 30
0.0
 11
-248.4985786104271
 21
-335.8651644928523
 31
0.0
  0
LINE
  5
11E
330
1F
100
AcDbEntity
  8
建具
  6
Continuous
 62
     4
370
     9
100
AcDbLine
 10
77.81454328832706
 20
74.13474477921284
 30
0.0
 11
-850.9984811073527
 21
74.13474477921284
 31
0.0
  0
LINE
  5
11F
330
1F
100
AcDbEntity
  8
建具
  6
Continuous
 62
     4
370
     9
100
AcDbLine
 10
77.81454328832706
 20
68.1348239599564
 30
0.0
 11
-850.9984811073527
 21
68.1348239599564
 31
0.0
  0
LINE
  5
120
330
1F
100
AcDbEntity
  8
躯体
  6
Continuous
 62
     2
370
     9
100
AcDbLine
 10
77.81454328832706
 20
14.13473240722203
 30
0.0
 11
-253.4985951064155
 21
14.13473240722203
 31
0.0
  0
LINE
  5
121
330
1F
100
AcDbEntity
  8
仕上
  6
JWW_CENTER1
 62
     3
370
     9
100
AcDbLine
 10
-248.4985786104271
 20
64.1347117872366
 30
0.0
 11
77.81454328832706
 21
64.1347117872366
 31
0.0
  0
LINE
  5
122
330
1F
100
AcDbEntity
  8
その他
  6
Continuous
 62
     7
370
     9
100
AcDbLine
 10
-820.9984864390915
 20
27.30482295859997
 30
0.0
 11
-827.0861007291785
 21
19.37128955568755
 31
0.0
  0
LINE
  5
123
330
1F
100
AcDbEntity
  8
その他
  6
Continuous
 62
     7
370
     9
100
AcDbLine
 10
-820.9984864390915
 20
27.30482295859997
 30
0.0
 11
-824.8253207627424
 21
18.06602763348701
 31
0.0
  0
LINE
  5
124
330
1F
100
AcDbEntity
  8
その他
  6
Continuous
 62
     7
370
     9
100
AcDbLine
 10
-869.7773440362923
 20
-57.18263673491833
 30
0.0
 11
-820.9984864390915
 21
27.30482295859997
 31
0.0
  0
TEXT
  5
125
330
1F
100
AcDbEntity
  8
その他
  6
Continuous
 62
     2
370
     9
100
AcDbText
 10
-909.1468175545149
 20
-51.91870398441242
 30
0.0
 40
12.192
  1
φ10
 41
1.09375
  7
ＭＳ ゴシック
100
AcDbText
  0
LINE
  5
126
330
1F
100
AcDbEntity
  8
その他
  6
Continuous
 62
     7
370
     9
100
AcDbLine
 10
-910.5939322112279
 20
-57.18263673491833
 30
0.0
 11
-869.7773440362923
 21
-57.18263673491833
 31
0.0
  0
LINE
  5
127
330
1F
100
AcDbEntity
  8
その他
  6
Continuous
 62
     7
370
     9
100
AcDbLine
 10
-850.9984811073527
 20
188.3522769866418
 30
0.0
 11
77.81454328832706
 21
188.3522769866418
 31
0.0
  0
LWPOLYLINE
  5
128
330
1F
100
AcDbEntity
  8
その他
  6
Continuous
 62
     7
370
     9
100
AcDbPolyline
 90
        4
 70
     1
 43
0.4
 10
-850.7984811073527
 20
188.3522769866418
 42
0.4142135623731
 10
-850.9984811073527
 20
188.5522769866418
 42
0.4142135623731
 10
-851.1984811073528
 20
188.3522769866418
 42
0.4142135623731
 10
-850.9984811073527
 20
188.1522769866419
 42
0.4142135623731
  0
LINE
  5
129
330
1F
100
AcDbEntity
  8
その他
  6
Continuous
 62
     7
370
     9
100
AcDbLine
 10
-850.9984811073527
 20
189.5522769866419
 30
0.0
 11
-850.9984811073527
 21
82.13474477921284
 31
0.0
  0
LINE
  5
12A
330
1F
100
AcDbEntity
  8
その他
  6
Continuous
 62
     7
370
     9
100
AcDbLine
 10
-850.9984811073527
 20
150.5565442467899
 30
0.0
 11
-600.9985842072786
 21
150.5565442467899
 31
0.0
  0
LWPOLYLINE
  5
12B
330
1F
100
AcDbEntity
  8
その他
  6
Continuous
 62
     7
370
     9
100
AcDbPolyline
 90
        4
 70
     1
 43
0.4
 10
-850.7984811073527
 20
150.5565442467899
 42
0.4142135623731
 10
-850.9984811073527
 20
150.7565442467899
 42
0.4142135623731
 10
-851.1984811073528
 20
150.5565442467899
 42
0.4142135623731
 10
-850.9984811073527
 20
150.35654424679
 42
0.4142135623731
  0
LWPOLYLINE
  5
12C
330
1F
100
AcDbEntity
  8
その他
  6
Continuous
 62
     7
370
     9
100
AcDbPolyline
 90
        4
 70
     1
 43
0.4
 10
-600.7985842072785
 20
150.5565442467899
 42
0.4142135623731
 10
-600.9985842072786
 20
150.7565442467899
 42
0.4142135623731
 10
-601.1985842072786
 20
150.5565442467899
 42
0.4142135623731
 10
-600.9985842072786
 20
150.35654424679
 42
0.4142135623731
  0
LINE
  5
12D
330
1F
100
AcDbEntity
  8
その他
  6
Continuous
 62
     7
370
     9
100
AcDbLine
 10
-600.9985842072786
 20
151.7565442467899
 30
0.0
 11
-600.9985842072786
 21
102.7346048932333
 31
0.0
  0
TEXT
  5
12E
330
1F
100
AcDbEntity
  8
その他
  6
Continuous
 62
     2
370
   211
100
AcDbText
 10
-738.9985326573155
 20
155.2125442467899
 30
0.0
 40
12.192
  1
250
 41
1.083333333333333
  7
ＭＳ ゴシック
100
AcDbText
  0
LINE
  5
12F
330
1F
100
AcDbEntity
  8
その他
  6
Continuous
 62
     7
370
     9
100
AcDbLine
 10
-600.9985842072786
 20
150.5565442467899
 30
0.0
 11
-100.9985120373303
 21
150.5565442467899
 31
0.0
  0
LWPOLYLINE
  5
130
330
1F
100
AcDbEntity
  8
その他
  6
Continuous
 62
     7
370
     9
100
AcDbPolyline
 90
        4
 70
     1
 43
0.4
 10
-100.7985120373303
 20
150.5565442467899
 42
0.4142135623731
 10
-100.9985120373303
 20
150.7565442467899
 42
0.4142135623731
 10
-101.1985120373303
 20
150.5565442467899
 42
0.4142135623731
 10
-100.9985120373303
 20
150.35654424679
 42
0.4142135623731
  0
LINE
  5
131
330
1F
100
AcDbEntity
  8
その他
  6
Continuous
 62
     7
370
     9
100
AcDbLine
 10
-100.9985120373303
 20
151.7565442467899
 30
0.0
 11
-100.9985120373303
 21
102.7346048932333
 31
0.0
  0
TEXT
  5
132
330
1F
100
AcDbEntity
  8
その他
  6
Continuous
 62
     2
370
   211
100
AcDbText
 10
-363.9985481223043
 20
155.2125442467899
 30
0.0
 40
12.192
  1
500
 41
1.083333333333333
  7
ＭＳ ゴシック
100
AcDbText
  0
LINE
  5
133
330
1F
100
AcDbEntity
  8
その他
  6
Continuous
 62
     7
370
     9
100
AcDbLine
 10
-100.9985120373303
 20
150.5565442467899
 30
0.0
 11
77.81454328832706
 21
150.5565442467899
 31
0.0
  0
TEXT
  5
134
330
1F
100
AcDbEntity
  8
その他
  6
Continuous
 62
     2
370
   211
100
AcDbText
 10
-408.5919689095126
 20
193.0082769866418
 30
0.0
 40
12.192
  1
2000
 41
1.09375
  7
ＭＳ ゴシック
100
AcDbText
  0
TEXT
  5
135
330
1F
100
AcDbEntity
  8
その他
  6
Continuous
 62
     2
370
   211
100
AcDbText
 10
52.82454913187621
 20
155.2125442467899
 30
0.0
 40
12.192
  1
500
 41
1.083333333333333
  7
ＭＳ ゴシック
100
AcDbText
  0
LINE
  5
136
330
1F
100
AcDbEntity
  8
建具
  6
Continuous
 62
     4
370
     9
100
AcDbLine
 10
495.4054401481185
 20
68.13482395995638
 30
0.0
 11
453.7053965987097
 21
68.13482395995638
 31
0.0
  0
LINE
  5
137
330
1F
100
AcDbEntity
  8
建具
  6
Continuous
 62
     4
370
     9
100
AcDbLine
 10
499.4055523208381
 20
14.134732407222
 30
0.0
 11
505.4054731400943
 21
14.134732407222
 31
0.0
  0
LINE
  5
138
330
1F
100
AcDbEntity
  8
建具
  6
Continuous
 62
     4
370
     9
100
AcDbLine
 10
505.4054731400943
 20
14.134732407222
 30
0.0
 11
505.4054731400943
 21
64.13471178723657
 31
0.0
  0
LINE
  5
139
330
1F
100
AcDbEntity
  8
建具
  6
Continuous
 62
     4
370
     9
100
AcDbLine
 10
475.4053741641656
 20
74.13474477921281
 30
0.0
 11
475.4053741641656
 21
83.13462600809802
 31
0.0
  0
LINE
  5
13A
330
1F
100
AcDbEntity
  8
建具
  6
Continuous
 62
     4
370
     9
100
AcDbLine
 10
489.2204343415306
 20
74.13474477921281
 30
0.0
 11
475.4053741641656
 21
74.13474477921281
 31
0.0
  0
LINE
  5
13B
330
1F
100
AcDbEntity
  8
建具
  6
Continuous
 62
     4
370
     9
100
AcDbLine
 10
489.220929221176
 20
83.13462600809802
 30
0.0
 11
475.4053741641656
 21
83.13462600809802
 31
0.0
  0
LINE
  5
13C
330
1F
100
AcDbEntity
  8
建具
  6
Continuous
 62
     4
370
     9
100
AcDbLine
 10
493.8792313221047
 20
74.74790065970282
 30
0.0
 11
552.0701492908547
 21
86.04130160459303
 31
0.0
  0
LINE
  5
13D
330
1F
100
AcDbEntity
  8
建具
  6
Continuous
 62
     4
370
     9
100
AcDbLine
 10
491.5503277114631
 20
83.44145138816552
 30
0.0
 11
549.7407508005676
 21
94.73472861314448
 31
0.0
  0
LINE
  5
13E
330
1F
100
AcDbEntity
  8
建具
  6
JWW_CENTER2
 62
     4
370
     9
100
AcDbLine
 10
489.2204343415306
 20
78.63468539365553
 30
0.0
 11
471.6007394513276
 21
78.63468539365553
 31
0.0
  0
LINE
  5
13F
330
1F
100
AcDbEntity
  8
建具
  6
JWW_CENTER2
 62
     4
370
     9
100
AcDbLine
 10
492.7147795167839
 20
79.09467602393428
 30
0.0
 11
557.8815209652635
 21
92.25723738901033
 31
0.0
  0
LINE
  5
140
330
1F
100
AcDbEntity
  8
建具
  6
Continuous
 62
     4
370
     9
100
AcDbLine
 10
453.7053965987097
 20
68.13482395995638
 30
0.0
 11
453.7053965987097
 21
74.13474477921281
 31
0.0
  0
LINE
  5
141
330
1F
100
AcDbEntity
  8
建具
  6
Continuous
 62
     4
370
     9
100
AcDbLine
 10
453.7053965987097
 20
74.13474477921281
 30
0.0
 11
495.4054401481185
 21
74.13474477921281
 31
0.0
  0
ARC
  5
142
330
1F
100
AcDbEntity
  8
建具
  6
Continuous
 62
     4
370
     9
100
AcDbCircle
 10
495.4054401481185
 20
64.13471178723657
 30
0.0
 40
3.999999809909511
100
AcDbArc
 50
0.0
 51
90.0
  0
ARC
  5
143
330
1F
100
AcDbEntity
  8
建具
  6
Continuous
 62
     4
370
     9
100
AcDbCircle
 10
495.4054401481185
 20
64.13471178723657
 30
0.0
 40
9.9999991623131
100
AcDbArc
 50
0.0
 51
90.0
  0
ARC
  5
144
330
1F
100
AcDbEntity
  8
建具
  6
Continuous
 62
     4
370
     9
100
AcDbCircle
 10
489.2204343415306
 20
92.13475467680595
 30
0.0
 40
17.99999829885122
100
AcDbArc
 50
270.0
 51
285.0
  0
ARC
  5
145
330
1F
100
AcDbEntity
  8
建具
  6
Continuous
 62
     4
370
     9
100
AcDbCircle
 10
550.9056974855339
 20
90.38807696882449
 30
0.0
 40
4.499999574712805
100
AcDbArc
 50
285.0001373291016
 51
104.9999084472657
  0
ARC
  5
146
330
1F
100
AcDbEntity
  8
建具
  6
JWW_CENTER2
 62
     4
370
     9
100
AcDbCircle
 10
489.2204343415306
 20
92.13475467680595
 30
0.0
 40
13.50000065726203
100
AcDbArc
 50
270.0
 51
284.9999542236328
  0
ARC
  5
147
330
1F
100
AcDbEntity
  8
建具
  6
Continuous
 62
     4
370
     9
100
AcDbCircle
 10
489.220929221176
 20
92.13475467680595
 30
0.0
 40
8.99999914942561
100
AcDbArc
 50
270.0
 51
285.0000152587891
  0
LINE
  5
148
330
1F
100
AcDbEntity
  8
その他
  6
Continuous
 62
     7
370
     9
100
AcDbLine
 10
453.7053965987097
 20
161.9078313475891
 30
0.0
 11
505.4054731400943
 21
161.9078313475891
 31
0.0
  0
LWPOLYLINE
  5
149
330
1F
100
AcDbEntity
  8
その他
  6
Continuous
 62
     7
370
     9
100
AcDbPolyline
 90
        4
 70
     1
 43
0.4
 10
453.9053965987097
 20
161.9078313475891
 42
0.4142135623731
 10
453.7053965987097
 20
162.1078313475891
 42
0.4142135623731
 10
453.5053965987098
 20
161.9078313475891
 42
0.4142135623731
 10
453.7053965987097
 20
161.7078313475891
 42
0.4142135623731
  0
LWPOLYLINE
  5
14A
330
1F
100
AcDbEntity
  8
その他
  6
Continuous
 62
     7
370
     9
100
AcDbPolyline
 90
        4
 70
     1
 43
0.4
 10
505.6054731400943
 20
161.9078313475891
 42
0.4142135623731
 10
505.4054731400943
 20
162.1078313475891
 42
0.4142135623731
 10
505.2054731400943
 20
161.9078313475891
 42
0.4142135623731
 10
505.4054731400943
 20
161.7078313475891
 42
0.4142135623731
  0
LINE
  5
14B
330
1F
100
AcDbEntity
  8
その他
  6
Continuous
 62
     7
370
     9
100
AcDbLine
 10
453.7053965987097
 20
163.1078313475891
 30
0.0
 11
453.7053965987097
 21
82.13474477921281
 31
0.0
  0
TEXT
  5
14C
330
1F
100
AcDbEntity
  8
その他
  6
Continuous
 62
     2
370
   211
100
AcDbText
 10
462.0554348694022
 20
166.5638313475891
 30
0.0
 40
12.192
  1
51.7
 41
1.09375
  7
ＭＳ ゴシック
100
AcDbText
  0
LINE
  5
14D
330
1F
100
AcDbEntity
  8
その他
  6
Continuous
 62
     7
370
     9
100
AcDbLine
 10
453.7053965987097
 20
131.2532278350825
 30
0.0
 11
499.4055523208381
 21
131.2532278350825
 31
0.0
  0
LWPOLYLINE
  5
14E
330
1F
100
AcDbEntity
  8
その他
  6
Continuous
 62
     7
370
     9
100
AcDbPolyline
 90
        4
 70
     1
 43
0.4
 10
453.9053965987097
 20
131.2532278350825
 42
0.4142135623731
 10
453.7053965987097
 20
131.4532278350825
 42
0.4142135623731
 10
453.5053965987098
 20
131.2532278350825
 42
0.4142135623731
 10
453.7053965987097
 20
131.0532278350825
 42
0.4142135623731
  0
LWPOLYLINE
  5
14F
330
1F
100
AcDbEntity
  8
その他
  6
Continuous
 62
     7
370
     9
100
AcDbPolyline
 90
        4
 70
     1
 43
0.4
 10
499.6055523208381
 20
131.2532278350825
 42
0.4142135623731
 10
499.4055523208381
 20
131.4532278350825
 42
0.4142135623731
 10
499.2055523208381
 20
131.2532278350825
 42
0.4142135623731
 10
499.4055523208381
 20
131.0532278350825
 42
0.4142135623731
  0
TEXT
  5
150
330
1F
100
AcDbEntity
  8
その他
  6
Continuous
 62
     2
370
   211
100
AcDbText
 10
459.0554744597739
 20
135.9092278350825
 30
0.0
 40
12.192
  1
45.7
 41
1.09375
  7
ＭＳ ゴシック
100
AcDbText
  0
LINE
  5
151
330
1F
100
AcDbEntity
  8
その他
  6
Continuous
 62
     7
370
     9
100
AcDbLine
 10
499.4055523208381
 20
132.4532278350825
 30
0.0
 11
499.4055523208381
 21
97.34737849549178
 31
0.0
  0
LINE
  5
152
330
1F
100
AcDbEntity
  8
その他
  6
Continuous
 62
     7
370
     9
100
AcDbLine
 10
505.4054731400943
 20
163.1078313475891
 30
0.0
 11
505.4054731400943
 21
97.34737849549178
 31
0.0
  0
LWPOLYLINE
  5
153
330
1F
100
AcDbEntity
  8
その他
  6
Continuous
 62
     7
370
     9
100
AcDbPolyline
 90
        4
 70
     1
 43
0.4
 10
325.1691857290591
 20
64.63500965765093
 42
0.4142135623731
 10
324.9691857290591
 20
64.83500965765093
 42
0.4142135623731
 10
324.7691857290591
 20
64.63500965765093
 42
0.4142135623731
 10
324.9691857290591
 20
64.43500965765092
 42
0.4142135623731
  0
LINE
  5
154
330
1F
100
AcDbEntity
  8
その他
  6
Continuous
 62
     7
370
     9
100
AcDbLine
 10
324.9691857290591
 20
64.63500965765093
 30
0.0
 11
324.9691857290591
 21
68.1348239599564
 31
0.0
  0
LWPOLYLINE
  5
155
330
1F
100
AcDbEntity
  8
その他
  6
Continuous
 62
     7
370
     9
100
AcDbPolyline
 90
        4
 70
     1
 43
0.4
 10
325.1691857290591
 20
68.1348239599564
 42
0.4142135623731
 10
324.9691857290591
 20
68.33482395995641
 42
0.4142135623731
 10
324.7691857290591
 20
68.1348239599564
 42
0.4142135623731
 10
324.9691857290591
 20
67.9348239599564
 42
0.4142135623731
  0
LINE
  5
156
330
1F
100
AcDbEntity
  8
その他
  6
Continuous
 62
     7
370
     9
100
AcDbLine
 10
323.7691857290592
 20
68.1348239599564
 30
0.0
 11
445.7053965987097
 21
68.1348239599564
 31
0.0
  0
LINE
  5
157
330
1F
100
AcDbEntity
  8
その他
  6
Continuous
 62
     7
370
     9
100
AcDbLine
 10
324.9691857290591
 20
68.1348239599564
 30
0.0
 11
324.9691857290591
 21
74.13474477921284
 31
0.0
  0
LWPOLYLINE
  5
158
330
1F
100
AcDbEntity
  8
その他
  6
Continuous
 62
     7
370
     9
100
AcDbPolyline
 90
        4
 70
     1
 43
0.4
 10
325.1691857290591
 20
74.13474477921284
 42
0.4142135623731
 10
324.9691857290591
 20
74.33474477921284
 42
0.4142135623731
 10
324.7691857290591
 20
74.13474477921284
 42
0.4142135623731
 10
324.9691857290591
 20
73.93474477921283
 42
0.4142135623731
  0
LWPOLYLINE
  5
159
330
1F
100
AcDbEntity
  8
その他
  6
Continuous
 62
     7
370
     9
100
AcDbPolyline
 90
        4
 70
     1
 43
0.4
 10
295.211277750928
 20
74.13474477921282
 42
0.4142135623731
 10
295.011277750928
 20
74.33474477921283
 42
0.4142135623731
 10
294.811277750928
 20
74.13474477921282
 42
0.4142135623731
 10
295.011277750928
 20
73.93474477921282
 42
0.4142135623731
  0
LINE
  5
15A
330
1F
100
AcDbEntity
  8
その他
  6
Continuous
 62
     7
370
     9
100
AcDbLine
 10
293.8112777509282
 20
74.13474477921282
 30
0.0
 11
445.7053965987097
 21
74.13474477921282
 31
0.0
  0
LWPOLYLINE
  5
15B
330
1F
100
AcDbEntity
  8
その他
  6
Continuous
 62
     7
370
     9
100
AcDbPolyline
 90
        4
 70
     1
 43
0.4
 10
351.2952682681272
 20
47.13494980078141
 42
0.4142135623731
 10
351.0952682681273
 20
47.33494980078142
 42
0.4142135623731
 10
350.8952682681273
 20
47.13494980078141
 42
0.4142135623731
 10
351.0952682681273
 20
46.93494980078141
 42
0.4142135623731
  0
LINE
  5
15C
330
1F
100
AcDbEntity
  8
その他
  6
Continuous
 62
     7
370
     9
100
AcDbLine
 10
349.8952682681274
 20
47.13494980078141
 30
0.0
 11
445.704284007486
 21
47.13494980078141
 31
0.0
  0
TEXT
  5
15D
330
1F
100
AcDbEntity
  8
その他
  6
Continuous
 62
     2
370
   211
100
AcDbText
 10
320.313185729059
 20
39.02764458253435
 30
0.0
 40
12.192
  1
3.5
 50
90.0
 41
1.083333333333333
  7
ＭＳ ゴシック
100
AcDbText
  0
TEXT
  5
15E
330
1F
100
AcDbEntity
  8
その他
  6
Continuous
 62
     2
370
   211
100
AcDbText
 10
320.313185729059
 20
78.16617732883718
 30
0.0
 40
12.192
  1
6
 50
90.0
  7
ＭＳ ゴシック
100
AcDbText
  0
LINE
  5
15F
330
1F
100
AcDbEntity
  8
その他
  6
Continuous
 62
     7
370
     9
100
AcDbLine
 10
324.9691857290591
 20
74.13474477921284
 30
0.0
 11
324.9691857290591
 21
87.53331329735687
 31
0.0
  0
LINE
  5
160
330
1F
100
AcDbEntity
  8
その他
  6
Continuous
 62
     7
370
     9
100
AcDbLine
 10
592.0578477618419
 20
74.13474477921281
 30
0.0
 11
592.0578477618419
 21
14.134732407222
 31
0.0
  0
LWPOLYLINE
  5
161
330
1F
100
AcDbEntity
  8
その他
  6
Continuous
 62
     7
370
     9
100
AcDbPolyline
 90
        4
 70
     1
 43
0.4
 10
592.257847761842
 20
74.13474477921281
 42
0.4142135623731
 10
592.0578477618419
 20
74.33474477921281
 42
0.4142135623731
 10
591.8578477618419
 20
74.13474477921281
 42
0.4142135623731
 10
592.0578477618419
 20
73.9347447792128
 42
0.4142135623731
  0
LWPOLYLINE
  5
162
330
1F
100
AcDbEntity
  8
その他
  6
Continuous
 62
     7
370
     9
100
AcDbPolyline
 90
        4
 70
     1
 43
0.4
 10
592.257847761842
 20
14.134732407222
 42
0.4142135623731
 10
592.0578477618419
 20
14.334732407222
 42
0.4142135623731
 10
591.8578477618419
 20
14.134732407222
 42
0.4142135623731
 10
592.0578477618419
 20
13.934732407222
 42
0.4142135623731
  0
LINE
  5
163
330
1F
100
AcDbEntity
  8
その他
  6
Continuous
 62
     7
370
     9
100
AcDbLine
 10
593.2578477618417
 20
14.134732407222
 30
0.0
 11
513.4054731400943
 21
14.134732407222
 31
0.0
  0
TEXT
  5
164
330
1F
100
AcDbEntity
  8
その他
  6
Continuous
 62
     2
370
   211
100
AcDbText
 10
587.4018477618419
 20
35.63473859321741
 30
0.0
 40
12.192
  1
60
 50
90.0
 41
1.0625
  7
ＭＳ ゴシック
100
AcDbText
  0
LINE
  5
165
330
1F
100
AcDbEntity
  8
その他
  6
Continuous
 62
     7
370
     9
100
AcDbLine
 10
593.2578477618417
 20
74.13474477921281
 30
0.0
 11
513.4054731400943
 21
74.13474477921282
 31
0.0
  0
LINE
  5
166
330
1F
100
AcDbEntity
  8
建具
  6
Continuous
 62
     4
370
     9
100
AcDbLine
 10
499.405439958028
 20
64.13471178723657
 30
0.0
 11
499.405439958028
 21
14.134732407222
 31
0.0
  0
LINE
  5
167
330
1F
100
AcDbEntity
  8
その他
  6
Continuous
 62
     7
370
     9
100
AcDbLine
 10
323.7691857290592
 20
64.63500965765093
 30
0.0
 11
445.7053965987097
 21
64.63500965765091
 31
0.0
  0
LINE
  5
168
330
1F
100
AcDbEntity
  8
建具
  6
Continuous
 62
     4
370
     9
100
AcDbLine
 10
93.58314575909253
 20
-119.4192622628078
 30
0.0
 11
76.4599388730071
 21
-136.5425310088486
 31
0.0
  0
LINE
  5
169
330
1F
100
AcDbEntity
  8
建具
  6
Continuous
 62
     4
370
     9
100
AcDbLine
 10
60.6912175760267
 20
-152.3111904458738
 30
0.0
 11
76.4599388730071
 21
-136.5425310088486
 31
0.0
  0
LINE
  5
16A
330
1F
100
AcDbEntity
  8
建具
  6
Continuous
 62
     4
370
     9
100
AcDbLine
 10
77.81454328832706
 20
-366.4653050386717
 30
0.0
 11
77.81454328832706
 21
-152.3111904428079
 31
0.0
  0
LINE
  5
16B
330
1F
100
AcDbEntity
  8
建具
  6
Continuous
 62
     4
370
     9
100
AcDbLine
 10
60.6912175760267
 20
-152.3111904428079
 30
0.0
 11
77.81454328832706
 21
-152.3111904428079
 31
0.0
  0
LINE
  5
16C
330
1F
100
AcDbEntity
  8
建具
  6
Continuous
 62
     4
370
     9
100
AcDbLine
 10
93.58314575909253
 20
-119.4192622628078
 30
0.0
 11
77.81454328832706
 21
-119.4192622628078
 31
0.0
  0
LINE
  5
16D
330
1F
100
AcDbEntity
  8
建具
  6
Continuous
 62
     4
370
     9
100
AcDbLine
 10
77.81454328832706
 20
94.73472861314451
 30
0.0
 11
77.81454328832706
 21
-119.4192622628078
 31
0.0
  0
LINE
  5
16E
330
1F
100
AcDbEntity
  8
通り芯
  6
Continuous
 62
     7
370
     9
100
AcDbLine
 10
-250.4984811073527
 20
51.634890415223
 30
0.0
 11
-848.4984811073525
 21
51.634890415223
 31
0.0
  0
LINE
  5
16F
330
1F
100
AcDbEntity
  8
通り芯
  6
Continuous
 62
     7
370
     9
100
AcDbLine
 10
-843.9983962708418
 20
47.13480557871227
 30
0.0
 11
-843.9983962708418
 21
-318.8653820042371
 31
0.0
  0
LINE
  5
170
330
1F
100
AcDbEntity
  8
通り芯
  6
JWW_DASHED1
 62
     7
370
     9
100
AcDbLine
 10
-843.9983962708418
 20
37.13475703337573
 30
0.0
 11
-848.4984811073525
 21
32.63509213759355
 31
0.0
  0
LINE
  5
171
330
1F
100
AcDbEntity
  8
通り芯
  6
JWW_DASHED1
 62
     7
370
     9
100
AcDbLine
 10
-833.9983477255053
 20
47.13480557871227
 30
0.0
 11
-829.4982628889945
 21
51.634890415223
 31
0.0
  0
LINE
  5
172
330
1F
100
AcDbEntity
  8
通り芯
  6
Continuous
 62
     7
370
     9
100
AcDbLine
 10
-833.9983477255053
 20
47.13480557871227
 30
0.0
 11
-843.9983962708418
 21
37.13475703337573
 31
0.0
  0
LINE
  5
173
330
1F
100
AcDbEntity
  8
通り芯
  6
Continuous
 62
     7
370
     9
100
AcDbLine
 10
-848.4984811073525
 20
64.63500965765272
 30
0.0
 11
-848.4984811073525
 21
-336.3655860831775
 31
0.0
  0
LINE
  5
174
330
1F
100
AcDbEntity
  8
通り芯
  6
Continuous
 62
     7
370
     9
100
AcDbLine
 10
-254.9985659438635
 20
47.13480557871227
 30
0.0
 11
-254.9985659438635
 21
-318.8653820042371
 31
0.0
  0
LINE
  5
175
330
1F
100
AcDbEntity
  8
通り芯
  6
Continuous
 62
     7
370
     9
100
AcDbLine
 10
-250.4984811073527
 20
64.63500965765272
 30
0.0
 11
-250.4984811073527
 21
-336.3655860831775
 31
0.0
  0
LINE
  5
176
330
1F
100
AcDbEntity
  8
通り芯
  6
Continuous
 62
     7
370
     9
100
AcDbLine
 10
-250.4984811073527
 20
57.63492482114199
 30
0.0
 11
-848.4984811073525
 21
57.63492482114199
 31
0.0
  0
LINE
  5
177
330
1F
100
AcDbEntity
  8
通り芯
  6
Continuous
 62
     7
370
     9
100
AcDbLine
 10
-250.4984811073527
 20
62.13500965765272
 30
0.0
 11
-848.4984811073525
 21
62.13500965765272
 31
0.0
  0
LINE
  5
178
330
1F
100
AcDbEntity
  8
通り芯
  6
Continuous
 62
     7
370
     9
100
AcDbLine
 10
-250.4984811073527
 20
47.13480557871227
 30
0.0
 11
-848.4984811073525
 21
47.13480557871227
 31
0.0
  0
LINE
  5
179
330
1F
100
AcDbEntity
  8
通り芯
  6
JWW_HOJO
 62
     7
370
     9
100
AcDbLine
 10
-843.9983962708418
 20
65.13500965765272
 30
0.0
 11
-843.9983962708418
 21
68.14379342157301
 31
0.0
  0
LINE
  5
17A
330
1F
100
AcDbEntity
  8
通り芯
  6
Continuous
 62
     7
370
     9
100
AcDbLine
 10
-264.9986144892
 20
-318.8653820042371
 30
0.0
 11
-254.9985659438635
 21
-308.8653334588987
 31
0.0
  0
LINE
  5
17B
330
1F
100
AcDbEntity
  8
通り芯
  6
JWW_DASHED1
 62
     7
370
     9
100
AcDbLine
 10
-264.9986144892
 20
-318.8653820042371
 30
0.0
 11
-269.4986993257107
 21
-323.3654668407478
 31
0.0
  0
LINE
  5
17C
330
1F
100
AcDbEntity
  8
通り芯
  6
JWW_DASHED1
 62
     7
370
     9
100
AcDbLine
 10
-254.9985659438635
 20
-308.8653334588987
 30
0.0
 11
-250.4984811073527
 21
-304.3656685631183
 31
0.0
  0
LINE
  5
17D
330
1F
100
AcDbEntity
  8
通り芯
  6
Continuous
 62
     7
370
     9
100
AcDbLine
 10
-250.4984811073527
 20
-333.8655860831775
 30
0.0
 11
-848.4984811073525
 21
-333.8655860831775
 31
0.0
  0
LINE
  5
17E
330
1F
100
AcDbEntity
  8
通り芯
  6
Continuous
 62
     7
370
     9
100
AcDbLine
 10
-250.4984811073527
 20
-329.365501246665
 30
0.0
 11
-848.4984811073525
 21
-329.365501246665
 31
0.0
  0
LINE
  5
17F
330
1F
100
AcDbEntity
  8
通り芯
  6
Continuous
 62
     7
370
     9
100
AcDbLine
 10
-250.4984811073527
 20
-323.3654668407478
 30
0.0
 11
-848.4984811073525
 21
-323.3654668407478
 31
0.0
  0
LINE
  5
180
330
1F
100
AcDbEntity
  8
通り芯
  6
Continuous
 62
     7
370
     9
100
AcDbLine
 10
-250.4984811073527
 20
-318.8653820042371
 30
0.0
 11
-848.4984811073525
 21
-318.8653820042371
 31
0.0
  0
LINE
  5
181
330
1F
100
AcDbEntity
  8
仕上
  6
Continuous
 62
     3
370
     9
100
AcDbLine
 10
-695.9984607819385
 20
-160.3198549676552
 30
0.0
 11
-695.9984607819385
 21
-111.4107214578678
 31
0.0
  0
LINE
  5
182
330
1F
100
AcDbEntity
  8
仕上
  6
Continuous
 62
     3
370
     9
100
AcDbLine
 10
-725.9985014327665
 20
-111.4107214578678
 30
0.0
 11
-725.9985014327665
 21
-160.3198549676552
 31
0.0
  0
LINE
  5
183
330
1F
100
AcDbEntity
  8
仕上
  6
Continuous
 62
     3
370
     9
100
AcDbLine
 10
-725.9985014327665
 20
-111.9107214578678
 30
0.0
 11
-695.9984607819385
 21
-111.9107214578678
 31
0.0
  0
LINE
  5
184
330
1F
100
AcDbEntity
  8
仕上
  6
Continuous
 62
     3
370
     9
100
AcDbLine
 10
-725.9985014327665
 20
-111.4107214578678
 30
0.0
 11
-695.9984607819385
 21
-111.4107214578678
 31
0.0
  0
LINE
  5
185
330
1F
100
AcDbEntity
  8
仕上
  6
Continuous
 62
     3
370
     9
100
AcDbLine
 10
-725.9985014327665
 20
-127.4992628089774
 30
0.0
 11
-695.9984607819385
 21
-127.4992628089774
 31
0.0
  0
LINE
  5
186
330
1F
100
AcDbEntity
  8
仕上
  6
Continuous
 62
     3
370
     9
100
AcDbLine
 10
-725.9985014327665
 20
-160.3198549676552
 30
0.0
 11
-695.9984607819385
 21
-160.3198549676552
 31
0.0
  0
LINE
  5
187
330
1F
100
AcDbEntity
  8
仕上
  6
Continuous
 62
     3
370
     9
100
AcDbLine
 10
-725.9985014327665
 20
-159.8198549676552
 30
0.0
 11
-695.9984607819385
 21
-159.8198549676552
 31
0.0
  0
LINE
  5
188
330
1F
100
AcDbEntity
  8
仕上
  6
Continuous
 62
     3
370
     9
100
AcDbLine
 10
-725.9985014327665
 20
-144.2313136165456
 30
0.0
 11
-695.9984607819385
 21
-144.2313136165456
 31
0.0
  0
LINE
  5
189
330
1F
100
AcDbEntity
  8
通り芯
  6
JWW_CENTER2
 62
     7
370
     9
100
AcDbLine
 10
-710.9984811073525
 20
-104.343505206233
 30
0.0
 11
-710.9984811073525
 21
-165.3723128815971
 31
0.0
  0
LINE
  5
18A
330
1F
100
AcDbEntity
  8
仕上
  6
Continuous
 62
     3
370
     9
100
AcDbLine
 10
-372.9984607819397
 20
-111.4107214578678
 30
0.0
 11
-372.9984607819397
 21
-160.3198549676552
 31
0.0
  0
LINE
  5
18B
330
1F
100
AcDbEntity
  8
仕上
  6
Continuous
 62
     3
370
     9
100
AcDbLine
 10
-372.9984607819397
 20
-111.9107214578678
 30
0.0
 11
-402.9985014327667
 21
-111.9107214578678
 31
0.0
  0
LINE
  5
18C
330
1F
100
AcDbEntity
  8
仕上
  6
Continuous
 62
     3
370
     9
100
AcDbLine
 10
-372.9984607819397
 20
-111.4107214578678
 30
0.0
 11
-402.9985014327667
 21
-111.4107214578678
 31
0.0
  0
LINE
  5
18D
330
1F
100
AcDbEntity
  8
仕上
  6
Continuous
 62
     3
370
     9
100
AcDbLine
 10
-372.9984607819397
 20
-127.4992628089774
 30
0.0
 11
-402.9985014327667
 21
-127.4992628089774
 31
0.0
  0
LINE
  5
18E
330
1F
100
AcDbEntity
  8
仕上
  6
Continuous
 62
     3
370
     9
100
AcDbLine
 10
-372.9984607819397
 20
-160.3198549676552
 30
0.0
 11
-402.9985014327667
 21
-160.3198549676552
 31
0.0
  0
LINE
  5
18F
330
1F
100
AcDbEntity
  8
仕上
  6
Continuous
 62
     3
370
     9
100
AcDbLine
 10
-372.9984607819397
 20
-159.8198549676552
 30
0.0
 11
-402.9985014327667
 21
-159.8198549676552
 31
0.0
  0
LINE
  5
190
330
1F
100
AcDbEntity
  8
仕上
  6
Continuous
 62
     3
370
     9
100
AcDbLine
 10
-372.9984607819397
 20
-144.2313136165456
 30
0.0
 11
-402.9985014327667
 21
-144.2313136165456
 31
0.0
  0
LINE
  5
191
330
1F
100
AcDbEntity
  8
通り芯
  6
JWW_CENTER2
 62
     7
370
     9
100
AcDbLine
 10
-387.9984811073527
 20
-104.343505206233
 30
0.0
 11
-387.9984811073527
 21
-165.3723128815971
 31
0.0
  0
LINE
  5
192
330
1F
100
AcDbEntity
  8
ハッチ
  6
Continuous
 62
     2
370
     9
100
AcDbLine
 10
-655.7485196961859
 20
51.634890415223
 30
0.0
 11
-655.7485196961859
 21
57.63492482114199
 31
0.0
  0
LINE
  5
193
330
1F
100
AcDbEntity
  8
ハッチ
  6
Continuous
 62
     2
370
     9
100
AcDbLine
 10
-636.7485196961859
 20
57.63492482114199
 30
0.0
 11
-636.7485196961859
 21
51.634890415223
 31
0.0
  0
LINE
  5
194
330
1F
100
AcDbEntity
  8
ハッチ
  6
Continuous
 62
     2
370
     9
100
AcDbLine
 10
-829.4984811073525
 20
57.63492482114199
 30
0.0
 11
-829.4984811073525
 21
51.634890415223
 31
0.0
  0
LINE
  5
195
330
1F
100
AcDbEntity
  8
ハッチ
  6
JWW_DASHED1
 62
     2
370
     9
100
AcDbLine
 10
-655.7485196961859
 20
51.634890415223
 30
0.0
 11
-655.7485196961859
 21
-323.3654668407478
 31
0.0
  0
LINE
  5
196
330
1F
100
AcDbEntity
  8
ハッチ
  6
JWW_DASHED1
 62
     2
370
     9
100
AcDbLine
 10
-636.7485196961859
 20
-323.3654668407478
 30
0.0
 11
-636.7485196961859
 21
51.634890415223
 31
0.0
  0
LINE
  5
197
330
1F
100
AcDbEntity
  8
ハッチ
  6
JWW_DASHED1
 62
     2
370
     9
100
AcDbLine
 10
-829.4982628889945
 20
51.634890415223
 30
0.0
 11
-829.4982628889945
 21
-323.3654668407478
 31
0.0
  0
LINE
  5
198
330
1F
100
AcDbEntity
  8
ハッチ
  6
Continuous
 62
     2
370
     9
100
AcDbLine
 10
-443.2484425185203
 20
51.634890415223
 30
0.0
 11
-443.2484425185203
 21
57.63492482114199
 31
0.0
  0
LINE
  5
199
330
1F
100
AcDbEntity
  8
ハッチ
  6
Continuous
 62
     2
370
     9
100
AcDbLine
 10
-462.2484425185194
 20
57.63492482114199
 30
0.0
 11
-462.2484425185194
 21
51.634890415223
 31
0.0
  0
LINE
  5
19A
330
1F
100
AcDbEntity
  8
ハッチ
  6
Continuous
 62
     2
370
     9
100
AcDbLine
 10
-269.4984811073527
 20
57.63492482114199
 30
0.0
 11
-269.4984811073527
 21
51.634890415223
 31
0.0
  0
LINE
  5
19B
330
1F
100
AcDbEntity
  8
ハッチ
  6
JWW_DASHED1
 62
     2
370
     9
100
AcDbLine
 10
-443.2484425185203
 20
51.634890415223
 30
0.0
 11
-443.2484425185203
 21
-323.3654668407478
 31
0.0
  0
LINE
  5
19C
330
1F
100
AcDbEntity
  8
ハッチ
  6
JWW_DASHED1
 62
     2
370
     9
100
AcDbLine
 10
-462.2484425185194
 20
-323.3654668407478
 30
0.0
 11
-462.2484425185194
 21
51.634890415223
 31
0.0
  0
LINE
  5
19D
330
1F
100
AcDbEntity
  8
ハッチ
  6
JWW_DASHED1
 62
     2
370
     9
100
AcDbLine
 10
-269.4986993257107
 20
51.634890415223
 30
0.0
 11
-269.4986993257107
 21
-323.3654668407478
 31
0.0
  0
LINE
  5
19E
330
1F
100
AcDbEntity
  8
ハッチ
  6
JWW_DASHED1
 62
     2
370
     9
100
AcDbLine
 10
-269.4984811073527
 20
57.63492482114199
 30
0.0
 11
-269.4984811073527
 21
60.13500965765272
 31
0.0
  0
LINE
  5
19F
330
1F
100
AcDbEntity
  8
ハッチ
  6
JWW_DASHED1
 62
     2
370
     9
100
AcDbLine
 10
-269.4984811073527
 20
60.13500965765272
 30
0.0
 11
-250.4984811073527
 21
60.13500965765272
 31
0.0
  0
LINE
  5
1A0
330
1F
100
AcDbEntity
  8
ハッチ
  6
JWW_DASHED1
 62
     2
370
     9
100
AcDbLine
 10
-462.2484425185194
 20
57.63492482114199
 30
0.0
 11
-462.2484425185194
 21
60.13500965765272
 31
0.0
  0
LINE
  5
1A1
330
1F
100
AcDbEntity
  8
ハッチ
  6
JWW_DASHED1
 62
     2
370
     9
100
AcDbLine
 10
-462.2484425185194
 20
60.13500965765272
 30
0.0
 11
-443.2484425185203
 21
60.13500965765272
 31
0.0
  0
LINE
  5
1A2
330
1F
100
AcDbEntity
  8
ハッチ
  6
JWW_DASHED1
 62
     2
370
     9
100
AcDbLine
 10
-443.2484425185203
 20
57.63492482114199
 30
0.0
 11
-443.2484425185203
 21
60.13500965765272
 31
0.0
  0
LINE
  5
1A3
330
1F
100
AcDbEntity
  8
ハッチ
  6
JWW_DASHED1
 62
     2
370
     9
100
AcDbLine
 10
-655.7485196961859
 20
57.63492482114199
 30
0.0
 11
-655.7485196961859
 21
60.13500965765272
 31
0.0
  0
LINE
  5
1A4
330
1F
100
AcDbEntity
  8
ハッチ
  6
JWW_DASHED1
 62
     2
370
     9
100
AcDbLine
 10
-636.7485196961859
 20
60.13500965765272
 30
0.0
 11
-655.7485196961859
 21
60.13500965765272
 31
0.0
  0
LINE
  5
1A5
330
1F
100
AcDbEntity
  8
ハッチ
  6
JWW_DASHED1
 62
     2
370
     9
100
AcDbLine
 10
-636.7485196961859
 20
57.63492482114199
 30
0.0
 11
-636.7485196961859
 21
60.13500965765272
 31
0.0
  0
LINE
  5
1A6
330
1F
100
AcDbEntity
  8
ハッチ
  6
JWW_DASHED1
 62
     2
370
     9
100
AcDbLine
 10
-829.4984811073525
 20
57.63492482114199
 30
0.0
 11
-829.4984811073525
 21
60.13500965765272
 31
0.0
  0
LINE
  5
1A7
330
1F
100
AcDbEntity
  8
ハッチ
  6
JWW_DASHED1
 62
     2
370
     9
100
AcDbLine
 10
-829.4984811073525
 20
60.13500965765272
 30
0.0
 11
-848.4984811073525
 21
60.13500965765272
 31
0.0
  0
LINE
  5
1A8
330
1F
100
AcDbEntity
  8
ハッチ
  6
Continuous
 62
     2
370
     9
100
AcDbLine
 10
-655.7485196961859
 20
-323.3654668407478
 30
0.0
 11
-655.7485196961859
 21
-329.365501246665
 31
0.0
  0
LINE
  5
1A9
330
1F
100
AcDbEntity
  8
ハッチ
  6
Continuous
 62
     2
370
     9
100
AcDbLine
 10
-636.7485196961859
 20
-329.365501246665
 30
0.0
 11
-636.7485196961859
 21
-323.3654668407478
 31
0.0
  0
LINE
  5
1AA
330
1F
100
AcDbEntity
  8
ハッチ
  6
Continuous
 62
     2
370
     9
100
AcDbLine
 10
-829.4984811073525
 20
-329.365501246665
 30
0.0
 11
-829.4984811073525
 21
-323.3654668407478
 31
0.0
  0
LINE
  5
1AB
330
1F
100
AcDbEntity
  8
ハッチ
  6
Continuous
 62
     2
370
     9
100
AcDbLine
 10
-443.2484425185203
 20
-323.3654668407478
 30
0.0
 11
-443.2484425185203
 21
-329.365501246665
 31
0.0
  0
LINE
  5
1AC
330
1F
100
AcDbEntity
  8
ハッチ
  6
Continuous
 62
     2
370
     9
100
AcDbLine
 10
-462.2484425185194
 20
-329.365501246665
 30
0.0
 11
-462.2484425185194
 21
-323.3654668407478
 31
0.0
  0
LINE
  5
1AD
330
1F
100
AcDbEntity
  8
ハッチ
  6
Continuous
 62
     2
370
     9
100
AcDbLine
 10
-269.4984811073527
 20
-329.365501246665
 30
0.0
 11
-269.4984811073527
 21
-323.3654668407478
 31
0.0
  0
LINE
  5
1AE
330
1F
100
AcDbEntity
  8
ハッチ
  6
JWW_DASHED1
 62
     2
370
     9
100
AcDbLine
 10
-269.4984811073527
 20
-329.365501246665
 30
0.0
 11
-269.4984811073527
 21
-331.8655860831757
 31
0.0
  0
LINE
  5
1AF
330
1F
100
AcDbEntity
  8
ハッチ
  6
JWW_DASHED1
 62
     2
370
     9
100
AcDbLine
 10
-269.4984811073527
 20
-331.8655860831757
 30
0.0
 11
-250.4984811073527
 21
-331.8655860831757
 31
0.0
  0
LINE
  5
1B0
330
1F
100
AcDbEntity
  8
ハッチ
  6
JWW_DASHED1
 62
     2
370
     9
100
AcDbLine
 10
-462.2484425185194
 20
-329.365501246665
 30
0.0
 11
-462.2484425185194
 21
-331.8655860831757
 31
0.0
  0
LINE
  5
1B1
330
1F
100
AcDbEntity
  8
ハッチ
  6
JWW_DASHED1
 62
     2
370
     9
100
AcDbLine
 10
-462.2484425185194
 20
-331.8655860831757
 30
0.0
 11
-443.2484425185203
 21
-331.8655860831757
 31
0.0
  0
LINE
  5
1B2
330
1F
100
AcDbEntity
  8
ハッチ
  6
JWW_DASHED1
 62
     2
370
     9
100
AcDbLine
 10
-443.2484425185203
 20
-329.365501246665
 30
0.0
 11
-443.2484425185203
 21
-331.8655860831757
 31
0.0
  0
LINE
  5
1B3
330
1F
100
AcDbEntity
  8
ハッチ
  6
JWW_DASHED1
 62
     2
370
     9
100
AcDbLine
 10
-655.7485196961859
 20
-329.365501246665
 30
0.0
 11
-655.7485196961859
 21
-331.8655860831757
 31
0.0
  0
LINE
  5
1B4
330
1F
100
AcDbEntity
  8
ハッチ
  6
JWW_DASHED1
 62
     2
370
     9
100
AcDbLine
 10
-636.7485196961859
 20
-331.8655860831757
 30
0.0
 11
-655.7485196961859
 21
-331.8655860831757
 31
0.0
  0
LINE
  5
1B5
330
1F
100
AcDbEntity
  8
ハッチ
  6
JWW_DASHED1
 62
     2
370
     9
100
AcDbLine
 10
-636.7485196961859
 20
-329.365501246665
 30
0.0
 11
-636.7485196961859
 21
-331.8655860831757
 31
0.0
  0
LINE
  5
1B6
330
1F
100
AcDbEntity
  8
ハッチ
  6
JWW_DASHED1
 62
     2
370
     9
100
AcDbLine
 10
-829.4984811073525
 20
-329.365501246665
 30
0.0
 11
-829.4984811073525
 21
-331.8655860831757
 31
0.0
  0
LINE
  5
1B7
330
1F
100
AcDbEntity
  8
ハッチ
  6
JWW_DASHED1
 62
     2
370
     9
100
AcDbLine
 10
-829.4984811073525
 20
-331.8655860831757
 30
0.0
 11
-848.4984811073525
 21
-331.8655860831757
 31
0.0
  0
LINE
  5
1B8
330
1F
100
AcDbEntity
  8
0-A
  6
Continuous
 62
     7
370
     9
100
AcDbLine
 10
-643.9984772779269
 20
62.13500965765272
 30
0.0
 11
-643.9984772779269
 21
64.63500965765272
 31
0.0
  0
LINE
  5
1B9
330
1F
100
AcDbEntity
  8
0-A
  6
Continuous
 62
     7
370
     9
100
AcDbLine
 10
-648.4985621144376
 20
62.13500965765272
 30
0.0
 11
-648.4985621144376
 21
64.63500965765272
 31
0.0
  0
LINE
  5
1BA
330
1F
100
AcDbEntity
  8
0-A
  6
Continuous
 62
     7
370
     9
100
AcDbLine
 10
-648.4985621144376
 20
64.63500965765272
 30
0.0
 11
-643.9984772779269
 21
64.63500965765272
 31
0.0
  0
LINE
  5
1BB
330
1F
100
AcDbEntity
  8
0-A
  6
Continuous
 62
     7
370
     9
100
AcDbLine
 10
-643.9984772779269
 20
51.634890415223
 30
0.0
 11
-643.9984772779269
 21
57.63492482114199
 31
0.0
  0
LINE
  5
1BC
330
1F
100
AcDbEntity
  8
0-A
  6
Continuous
 62
     7
370
     9
100
AcDbLine
 10
-648.4985621144376
 20
51.634890415223
 30
0.0
 11
-648.4985621144376
 21
57.63492482114199
 31
0.0
  0
LINE
  5
1BD
330
1F
100
AcDbEntity
  8
0-A
  6
Continuous
 62
     7
370
     9
100
AcDbLine
 10
-454.9984835817513
 20
51.634890415223
 30
0.0
 11
-454.9984835817513
 21
57.63492482114199
 31
0.0
  0
LINE
  5
1BE
330
1F
100
AcDbEntity
  8
0-A
  6
Continuous
 62
     7
370
     9
100
AcDbLine
 10
-450.4983987452406
 20
51.634890415223
 30
0.0
 11
-450.4983987452406
 21
57.63492482114199
 31
0.0
  0
LINE
  5
1BF
330
1F
100
AcDbEntity
  8
0-A
  6
Continuous
 62
     7
370
     9
100
AcDbLine
 10
-454.9984835817504
 20
64.63500965765272
 30
0.0
 11
-450.4983987452397
 21
64.63500965765272
 31
0.0
  0
LINE
  5
1C0
330
1F
100
AcDbEntity
  8
0-A
  6
Continuous
 62
     7
370
     9
100
AcDbLine
 10
-454.9984835817513
 20
62.13500965765272
 30
0.0
 11
-454.9984835817513
 21
64.63500965765272
 31
0.0
  0
LINE
  5
1C1
330
1F
100
AcDbEntity
  8
0-A
  6
Continuous
 62
     7
370
     9
100
AcDbLine
 10
-450.4983987452406
 20
62.13500965765272
 30
0.0
 11
-450.4983987452406
 21
64.63500965765272
 31
0.0
  0
LINE
  5
1C2
330
1F
100
AcDbEntity
  8
0-A
  6
Continuous
 62
     7
370
     9
100
AcDbLine
 10
-843.9983962708418
 20
57.63492482114199
 30
0.0
 11
-843.9983962708418
 21
51.634890415223
 31
0.0
  0
LINE
  5
1C3
330
1F
100
AcDbEntity
  8
0-A
  6
Continuous
 62
     7
370
     9
100
AcDbLine
 10
-843.9983962708418
 20
64.63500965765272
 30
0.0
 11
-843.9983962708418
 21
62.13500965765272
 31
0.0
  0
LINE
  5
1C4
330
1F
100
AcDbEntity
  8
0-A
  6
Continuous
 62
     7
370
     9
100
AcDbLine
 10
-848.4984811073525
 20
64.63500965765272
 30
0.0
 11
-843.9983962708418
 21
64.63500965765272
 31
0.0
  0
LINE
  5
1C5
330
1F
100
AcDbEntity
  8
0-A
  6
Continuous
 62
     7
370
     9
100
AcDbLine
 10
-254.9985659438635
 20
57.63492482114199
 30
0.0
 11
-254.9985659438635
 21
51.634890415223
 31
0.0
  0
LINE
  5
1C6
330
1F
100
AcDbEntity
  8
0-A
  6
Continuous
 62
     7
370
     9
100
AcDbLine
 10
-254.9985659438635
 20
64.63500965765272
 30
0.0
 11
-254.9985659438635
 21
62.13500965765272
 31
0.0
  0
LINE
  5
1C7
330
1F
100
AcDbEntity
  8
0-A
  6
Continuous
 62
     7
370
     9
100
AcDbLine
 10
-250.4984811073527
 20
64.63500965765272
 30
0.0
 11
-254.9985659438635
 21
64.63500965765272
 31
0.0
  0
LINE
  5
1C8
330
1F
100
AcDbEntity
  8
0-A
  6
Continuous
 62
     7
370
     9
100
AcDbLine
 10
-643.9984772779269
 20
-333.8655860831775
 30
0.0
 11
-643.9984772779269
 21
-336.3655860831775
 31
0.0
  0
LINE
  5
1C9
330
1F
100
AcDbEntity
  8
0-A
  6
Continuous
 62
     7
370
     9
100
AcDbLine
 10
-648.4985621144376
 20
-333.8655860831775
 30
0.0
 11
-648.4985621144376
 21
-336.3655860831775
 31
0.0
  0
LINE
  5
1CA
330
1F
100
AcDbEntity
  8
0-A
  6
Continuous
 62
     7
370
     9
100
AcDbLine
 10
-648.4985621144376
 20
-336.3655860831775
 30
0.0
 11
-643.9984772779269
 21
-336.3655860831775
 31
0.0
  0
LINE
  5
1CB
330
1F
100
AcDbEntity
  8
0-A
  6
Continuous
 62
     7
370
     9
100
AcDbLine
 10
-643.9984772779269
 20
-323.3654668407478
 30
0.0
 11
-643.9984772779269
 21
-329.365501246665
 31
0.0
  0
LINE
  5
1CC
330
1F
100
AcDbEntity
  8
0-A
  6
Continuous
 62
     7
370
     9
100
AcDbLine
 10
-648.4985621144376
 20
-323.3654668407478
 30
0.0
 11
-648.4985621144376
 21
-329.365501246665
 31
0.0
  0
LINE
  5
1CD
330
1F
100
AcDbEntity
  8
0-A
  6
Continuous
 62
     7
370
     9
100
AcDbLine
 10
-454.9984835817513
 20
-323.3654668407478
 30
0.0
 11
-454.9984835817513
 21
-329.365501246665
 31
0.0
  0
LINE
  5
1CE
330
1F
100
AcDbEntity
  8
0-A
  6
Continuous
 62
     7
370
     9
100
AcDbLine
 10
-450.4983987452406
 20
-323.3654668407478
 30
0.0
 11
-450.4983987452406
 21
-329.365501246665
 31
0.0
  0
LINE
  5
1CF
330
1F
100
AcDbEntity
  8
0-A
  6
Continuous
 62
     7
370
     9
100
AcDbLine
 10
-454.9984835817504
 20
-336.3655860831775
 30
0.0
 11
-450.4983987452397
 21
-336.3655860831775
 31
0.0
  0
LINE
  5
1D0
330
1F
100
AcDbEntity
  8
0-A
  6
Continuous
 62
     7
370
     9
100
AcDbLine
 10
-454.9984835817513
 20
-333.8655860831775
 30
0.0
 11
-454.9984835817513
 21
-336.3655860831775
 31
0.0
  0
LINE
  5
1D1
330
1F
100
AcDbEntity
  8
0-A
  6
Continuous
 62
     7
370
     9
100
AcDbLine
 10
-450.4983987452406
 20
-333.8655860831775
 30
0.0
 11
-450.4983987452406
 21
-336.3655860831775
 31
0.0
  0
LINE
  5
1D2
330
1F
100
AcDbEntity
  8
0-A
  6
Continuous
 62
     7
370
     9
100
AcDbLine
 10
-843.9983962708418
 20
-329.365501246665
 30
0.0
 11
-843.9983962708418
 21
-323.3654668407478
 31
0.0
  0
LINE
  5
1D3
330
1F
100
AcDbEntity
  8
0-A
  6
Continuous
 62
     7
370
     9
100
AcDbLine
 10
-843.9983962708418
 20
-336.3655860831775
 30
0.0
 11
-843.9983962708418
 21
-333.8655860831775
 31
0.0
  0
LINE
  5
1D4
330
1F
100
AcDbEntity
  8
0-A
  6
Continuous
 62
     7
370
     9
100
AcDbLine
 10
-848.4984811073525
 20
-336.3655860831775
 30
0.0
 11
-843.9983962708418
 21
-336.3655860831775
 31
0.0
  0
LINE
  5
1D5
330
1F
100
AcDbEntity
  8
0-A
  6
Continuous
 62
     7
370
     9
100
AcDbLine
 10
-254.9985659438635
 20
-329.365501246665
 30
0.0
 11
-254.9985659438635
 21
-323.3654668407478
 31
0.0
  0
LINE
  5
1D6
330
1F
100
AcDbEntity
  8
0-A
  6
Continuous
 62
     7
370
     9
100
AcDbLine
 10
-254.9985659438635
 20
-336.3655860831775
 30
0.0
 11
-254.9985659438635
 21
-333.8655860831775
 31
0.0
  0
LINE
  5
1D7
330
1F
100
AcDbEntity
  8
0-A
  6
Continuous
 62
     7
370
     9
100
AcDbLine
 10
-250.4984811073527
 20
-336.3655860831775
 30
0.0
 11
-254.9985659438635
 21
-336.3655860831775
 31
0.0
  0
LINE
  5
1D8
330
1F
100
AcDbEntity
  8
仕上
  6
Continuous
 62
     3
370
     9
100
AcDbLine
 10
-402.9985014327667
 20
-160.3198549676552
 30
0.0
 11
-402.9985014327667
 21
-159.0031437500973
 31
0.0
  0
LINE
  5
1D9
330
1F
100
AcDbEntity
  8
仕上
  6
Continuous
 62
     3
370
     9
100
AcDbLine
 10
-402.9985014327667
 20
-159.0031437500973
 30
0.0
 11
-402.9985014327667
 21
-111.4107214578678
 31
0.0
  0
LINE
  5
1DA
330
1F
100
AcDbEntity
  8
通り芯
  6
JWW_CENTER2
 62
     7
370
     9
100
AcDbLine
 10
-818.4984864390915
 20
38.63488811756744
 30
0.0
 11
-818.4984864390915
 21
24.63488811756744
 31
0.0
  0
LINE
  5
1DB
330
1F
100
AcDbEntity
  8
通り芯
  6
JWW_CENTER2
 62
     7
370
     9
100
AcDbLine
 10
-811.4984864390915
 20
31.63488811756744
 30
0.0
 11
-825.4984864390915
 21
31.63488811756744
 31
0.0
  0
CIRCLE
  5
1DC
330
1F
100
AcDbEntity
  8
通り芯
  6
Continuous
 62
     7
370
     9
100
AcDbCircle
 10
-818.4984864390915
 20
31.63488811756744
 30
0.0
 40
5.0
  0
LINE
  5
1DD
330
1F
100
AcDbEntity
  8
通り芯
  6
Continuous
 62
     7
370
     9
100
AcDbLine
 10
453.7041716446765
 20
62.13500965765272
 30
0.0
 11
453.7041716446765
 21
57.63506904321113
 31
0.0
  0
LINE
  5
1DE
330
1F
100
AcDbEntity
  8
通り芯
  6
Continuous
 62
     7
370
     9
100
AcDbLine
 10
469.7042491758211
 20
57.63506904321113
 30
0.0
 11
453.7041716446765
 21
57.63506904321113
 31
0.0
  0
LINE
  5
1DF
330
1F
100
AcDbEntity
  8
通り芯
  6
Continuous
 62
     7
370
     9
100
AcDbLine
 10
469.7042491758211
 20
62.13500965765272
 30
0.0
 11
453.7041716446765
 21
62.13500965765272
 31
0.0
  0
LINE
  5
1E0
330
1F
100
AcDbEntity
  8
通り芯
  6
Continuous
 62
     7
370
     9
100
AcDbLine
 10
494.9043867523633
 20
51.634890415223
 30
0.0
 11
453.7041716446765
 21
51.634890415223
 31
0.0
  0
LINE
  5
1E1
330
1F
100
AcDbEntity
  8
通り芯
  6
Continuous
 62
     7
370
     9
100
AcDbLine
 10
491.7043712461336
 20
47.13494980078141
 30
0.0
 11
453.7041716446765
 21
47.13494980078141
 31
0.0
  0
LINE
  5
1E2
330
1F
100
AcDbEntity
  8
通り芯
  6
Continuous
 62
     7
370
     9
100
AcDbLine
 10
453.7041716446765
 20
-323.3654668407478
 30
0.0
 11
453.7041716446765
 21
51.634890415223
 31
0.0
  0
LINE
  5
1E3
330
1F
100
AcDbEntity
  8
通り芯
  6
Continuous
 62
     7
370
     9
100
AcDbLine
 10
453.7041716446765
 20
-333.8655860831775
 30
0.0
 11
453.7041716446765
 21
-329.3656454687323
 31
0.0
  0
LINE
  5
1E4
330
1F
100
AcDbEntity
  8
通り芯
  6
Continuous
 62
     7
370
     9
100
AcDbLine
 10
469.7042491758211
 20
-329.3656454687323
 30
0.0
 11
453.7041716446765
 21
-329.3656454687323
 31
0.0
  0
LINE
  5
1E5
330
1F
100
AcDbEntity
  8
通り芯
  6
Continuous
 62
     7
370
     9
100
AcDbLine
 10
469.7042491758211
 20
-333.8655860831775
 30
0.0
 11
453.7041716446765
 21
-333.8655860831775
 31
0.0
  0
LINE
  5
1E6
330
1F
100
AcDbEntity
  8
通り芯
  6
Continuous
 62
     7
370
     9
100
AcDbLine
 10
494.9043867523633
 20
-323.3654668407478
 30
0.0
 11
453.7041716446765
 21
-323.3654668407478
 31
0.0
  0
LINE
  5
1E7
330
1F
100
AcDbEntity
  8
通り芯
  6
Continuous
 62
     7
370
     9
100
AcDbLine
 10
491.7043712461336
 20
-318.8655262263044
 30
0.0
 11
453.7041716446765
 21
-318.8655262263044
 31
0.0
  0
LINE
  5
1E8
330
1F
100
AcDbEntity
  8
通り芯
  6
Continuous
 62
     7
370
     9
100
AcDbLine
 10
491.7043712461336
 20
-323.3654668407478
 30
0.0
 11
491.7043712461336
 21
51.634890415223
 31
0.0
  0
LINE
  5
1E9
330
1F
100
AcDbEntity
  8
ハッチ
  6
Continuous
 62
     2
370
     9
100
AcDbLine
 10
494.9043867523633
 20
60.13500965765272
 30
0.0
 11
494.9043867523633
 21
-331.8655860831757
 31
0.0
  0
LINE
  5
1EA
330
1F
100
AcDbEntity
  8
ハッチ
  6
Continuous
 62
     2
370
     9
100
AcDbLine
 10
499.4054399580282
 20
60.13500965765272
 30
0.0
 11
494.9043867523633
 21
60.13500965765272
 31
0.0
  0
LINE
  5
1EB
330
1F
100
AcDbEntity
  8
ハッチ
  6
Continuous
 62
     2
370
     9
100
AcDbLine
 10
499.4054399580282
 20
-331.8655860831757
 30
0.0
 11
494.9043867523633
 21
-331.8655860831757
 31
0.0
  0
LINE
  5
1EC
330
1F
100
AcDbEntity
  8
ハッチ
  6
Continuous
 62
     2
370
     9
100
AcDbLine
 10
499.4054399580282
 20
-331.8655860831757
 30
0.0
 11
499.4054399580282
 21
60.13500965765272
 31
0.0
  0
LINE
  5
1ED
330
1F
100
AcDbEntity
  8
0-A
  6
Continuous
 62
     7
370
     9
100
AcDbLine
 10
494.9043867523633
 20
58.63496299757136
 30
0.0
 11
475.9043488115904
 21
58.63496299757136
 31
0.0
  0
LINE
  5
1EE
330
1F
100
AcDbEntity
  8
0-A
  6
Continuous
 62
     7
370
     9
100
AcDbLine
 10
475.9043488115904
 20
58.63496299757136
 30
0.0
 11
475.9043488115904
 21
51.634890415223
 31
0.0
  0
LINE
  5
1EF
330
1F
100
AcDbEntity
  8
0-A
  6
Continuous
 62
     7
370
     9
100
AcDbLine
 10
462.7041765934737
 20
57.63506904321113
 30
0.0
 11
462.7041765934737
 21
51.634890415223
 31
0.0
  0
LINE
  5
1F0
330
1F
100
AcDbEntity
  8
0-A
  6
Continuous
 62
     7
370
     9
100
AcDbLine
 10
466.2041765934728
 20
64.63500965765272
 30
0.0
 11
466.2041765934728
 21
62.13500965765272
 31
0.0
  0
LINE
  5
1F1
330
1F
100
AcDbEntity
  8
0-A
  6
Continuous
 62
     7
370
     9
100
AcDbLine
 10
494.9043867523633
 20
64.63500965765272
 30
0.0
 11
466.2041765934728
 21
64.63500965765272
 31
0.0
  0
LINE
  5
1F2
330
1F
100
AcDbEntity
  8
0-A
  6
Continuous
 62
     7
370
     9
100
AcDbLine
 10
494.9033335466984
 20
64.63500965765272
 30
0.0
 11
494.9033335466984
 21
58.63496299757136
 31
0.0
  0
LINE
  5
1F3
330
1F
100
AcDbEntity
  8
通り芯
  6
Continuous
 62
     7
370
     9
100
AcDbLine
 10
469.7042491758211
 20
62.13500965765272
 30
0.0
 11
469.7042491758211
 21
57.63506904321113
 31
0.0
  0
LINE
  5
1F4
330
1F
100
AcDbEntity
  8
0-A
  6
Continuous
 62
     7
370
     9
100
AcDbLine
 10
494.9043867523633
 20
-330.3655394230962
 30
0.0
 11
475.9043488115904
 21
-330.3655394230962
 31
0.0
  0
LINE
  5
1F5
330
1F
100
AcDbEntity
  8
0-A
  6
Continuous
 62
     7
370
     9
100
AcDbLine
 10
475.9043488115904
 20
-330.3655394230962
 30
0.0
 11
475.9043488115904
 21
-323.3654668407478
 31
0.0
  0
LINE
  5
1F6
330
1F
100
AcDbEntity
  8
0-A
  6
Continuous
 62
     7
370
     9
100
AcDbLine
 10
462.7041765934737
 20
-329.3656454687359
 30
0.0
 11
462.7041765934737
 21
-323.3654668407478
 31
0.0
  0
LINE
  5
1F7
330
1F
100
AcDbEntity
  8
0-A
  6
Continuous
 62
     7
370
     9
100
AcDbLine
 10
466.2041765934728
 20
-336.3655860831775
 30
0.0
 11
466.2041765934728
 21
-333.8655860831775
 31
0.0
  0
LINE
  5
1F8
330
1F
100
AcDbEntity
  8
0-A
  6
Continuous
 62
     7
370
     9
100
AcDbLine
 10
494.9043867523633
 20
-336.3655860831775
 30
0.0
 11
466.2041765934728
 21
-336.3655860831775
 31
0.0
  0
LINE
  5
1F9
330
1F
100
AcDbEntity
  8
0-A
  6
Continuous
 62
     7
370
     9
100
AcDbLine
 10
494.9033335466984
 20
-336.3655860831775
 30
0.0
 11
494.9033335466984
 21
-330.3655394230962
 31
0.0
  0
LINE
  5
1FA
330
1F
100
AcDbEntity
  8
通り芯
  6
Continuous
 62
     7
370
     9
100
AcDbLine
 10
469.7042491758211
 20
-329.3656454687323
 30
0.0
 11
469.7042491758211
 21
-333.8655860831775
 31
0.0
  0
LINE
  5
1FB
330
1F
100
AcDbEntity
  8
その他
  6
Continuous
 62
     7
370
     9
100
AcDbLine
 10
592.0578477618419
 20
14.134732407222
 30
0.0
 11
592.0578477618419
 21
-285.865308832749
 31
0.0
  0
TEXT
  5
1FC
330
1F
100
AcDbEntity
  8
その他
  6
Continuous
 62
     2
370
   211
100
AcDbText
 10
587.4018477618419
 20
-148.8652882127635
 30
0.0
 40
12.192
  1
300
 50
90.0
 41
1.083333333333333
  7
ＭＳ ゴシック
100
AcDbText
  0
LINE
  5
1FD
330
1F
100
AcDbEntity
  8
その他
  6
Continuous
 62
     7
370
     9
100
AcDbLine
 10
351.0952682681273
 20
-318.8655262263047
 30
0.0
 11
351.0952682681273
 21
47.13494980078141
 31
0.0
  0
TEXT
  5
1FE
330
1F
100
AcDbEntity
  8
その他
  6
Continuous
 62
     2
370
   211
100
AcDbText
 10
346.4392682681272
 20
-148.8652882127616
 30
0.0
 40
12.192
  1
366
 50
90.0
 41
1.083333333333333
  7
ＭＳ ゴシック
100
AcDbText
  0
LINE
  5
1FF
330
1F
100
AcDbEntity
  8
その他
  6
Continuous
 62
     7
370
     9
100
AcDbLine
 10
324.9691857290591
 20
-336.3655860831778
 30
0.0
 11
324.9691857290591
 21
64.63500965765093
 31
0.0
  0
TEXT
  5
200
330
1F
100
AcDbEntity
  8
その他
  6
Continuous
 62
     2
370
   211
100
AcDbText
 10
320.313185729059
 20
-148.8652882127635
 30
0.0
 40
12.192
  1
401
 50
90.0
 41
1.083333333333333
  7
ＭＳ ゴシック
100
AcDbText
  0
LINE
  5
201
330
1F
100
AcDbEntity
  8
その他
  6
Continuous
 62
     7
370
     9
100
AcDbLine
 10
295.011277750928
 20
74.13474477921282
 30
0.0
 11
295.011277750928
 21
-345.8652593447846
 31
0.0
  0
TEXT
  5
202
330
1F
100
AcDbEntity
  8
その他
  6
Continuous
 62
     2
370
   211
100
AcDbText
 10
290.3552777509279
 20
-148.8652572827859
 30
0.0
 40
12.192
  1
420
 50
90.0
 41
1.083333333333333
  7
ＭＳ ゴシック
100
AcDbText
  0
LINE
  5
203
330
1F
100
AcDbEntity
  8
寸法
  6
Continuous
 62
     7
370
     9
100
AcDbLine
 10
624.1918704304621
 20
211.2052315180492
 30
0.0
 11
555.2051041090722
 21
91.71664719951941
 31
0.0
  0
LINE
  5
204
330
1F
100
AcDbEntity
  8
寸法
  6
Continuous
 62
     7
370
     9
100
AcDbLine
 10
555.2051041090722
 20
91.71664719951941
 30
0.0
 11
559.0319384327231
 21
100.9554425246324
 31
0.0
  0
LINE
  5
205
330
1F
100
AcDbEntity
  8
寸法
  6
Continuous
 62
     7
370
     9
100
AcDbLine
 10
555.2051041090722
 20
91.71664719951941
 30
0.0
 11
561.2927183991596
 21
99.65018060243182
 31
0.0
  0
LINE
  5
206
330
1F
100
AcDbEntity
  8
寸法
  6
Continuous
 62
     7
370
     9
100
AcDbLine
 10
469.1556588668768
 20
74.13462105930343
 30
0.0
 11
463.0680445767894
 21
82.0681544622158
 31
0.0
  0
LINE
  5
207
330
1F
100
AcDbEntity
  8
寸法
  6
Continuous
 62
     7
370
     9
100
AcDbLine
 10
469.1556588668768
 20
74.13462105930343
 30
0.0
 11
465.3288245432259
 21
83.37341638441634
 31
0.0
  0
TEXT
  5
208
330
1F
100
AcDbEntity
  8
寸法
  6
Continuous
 62
     7
370
     0
100
AcDbText
 10
626.4347745830796
 20
216.3568746310293
 30
0.0
 40
9.144
  1
アンカー：φ９
 50
359.9999409281058
 41
1.142857142857144
  7
ＭＳ ゴシック
100
AcDbText
  0
TEXT
  5
209
330
1F
100
AcDbEntity
  8
寸法
  6
Continuous
 62
     7
370
     0
100
AcDbText
 10
625.5122204786494
 20
198.3907346309579
 30
0.0
 40
9.144
  1
ＳＳ４００（溶融亜鉛めっき）
 41
1.154761904761905
  7
ＭＳ ゴシック
100
AcDbText
  0
LINE
  5
20A
330
1F
100
AcDbEntity
  8
寸法
  6
Continuous
 62
     7
370
     9
100
AcDbLine
 10
624.1918704304621
 20
211.2052315180492
 30
0.0
 11
820.2796664528544
 21
211.2052315180492
 31
0.0
  0
TEXT
  5
20B
330
1F
100
AcDbEntity
  8
寸法
  6
Continuous
 62
     7
370
     0
100
AcDbText
 10
231.6744367841889
 20
197.6378691768698
 30
0.0
 40
9.144
  1
蓋：ＳＳ４００
 41
1.142857142857143
  7
ＭＳ ゴシック
100
AcDbText
  0
TEXT
  5
20C
330
1F
100
AcDbEntity
  8
寸法
  6
Continuous
 62
     7
370
     0
100
AcDbText
 10
216.9731198181585
 20
179.0529695770816
 30
0.0
 40
9.144
  1
（溶融亜鉛めっき）
 41
1.148148148148148
  7
ＭＳ ゴシック
100
AcDbText
  0
LINE
  5
20D
330
1F
100
AcDbEntity
  8
寸法
  6
Continuous
 62
     7
370
     9
100
AcDbLine
 10
222.5171040527644
 20
192.0183088647691
 30
0.0
 11
335.8607401019976
 21
192.0183088647691
 31
0.0
  0
LINE
  5
20E
330
1F
100
AcDbEntity
  8
寸法
  6
Continuous
 62
     7
370
     9
100
AcDbLine
 10
335.8607401019976
 20
192.0183088647691
 30
0.0
 11
453.704284007486
 21
-12.09269652351125
 31
0.0
  0
LINE
  5
20F
330
1F
100
AcDbEntity
  8
寸法
  6
Continuous
 62
     7
370
     9
100
AcDbLine
 10
453.704284007486
 20
-12.09269652351125
 30
0.0
 11
447.6166697173985
 21
-4.159163120598862
 31
0.0
  0
LINE
  5
210
330
1F
100
AcDbEntity
  8
寸法
  6
Continuous
 62
     7
370
     9
100
AcDbLine
 10
453.704284007486
 20
-12.09269652351125
 30
0.0
 11
449.877449683835
 21
-2.853901198398319
 31
0.0
  0
TEXT
  5
211
330
1F
100
AcDbEntity
  8
寸法
  6
Continuous
 62
     7
370
     0
100
AcDbText
 10
197.0473780725041
 20
225.660769170903
 30
0.0
 40
9.144
  1
ＳＰＨＣ（溶融亜鉛めっき）
 50
0.0000630100334301
 41
1.153846153846152
  7
ＭＳ ゴシック
100
AcDbText
  0
TEXT
  5
212
330
1F
100
AcDbEntity
  8
寸法
  6
Continuous
 62
     7
370
     0
100
AcDbText
 10
185.8328867084751
 20
243.8951092636028
 30
0.0
 40
9.144
  1
受枠：Ｌ－４６Ｚ　ｔ＝６．０
 41
1.154761904761904
  7
ＭＳ ゴシック
100
AcDbText
  0
LINE
  5
213
330
1F
100
AcDbEntity
  8
寸法
  6
Continuous
 62
     7
370
     9
100
AcDbLine
 10
373.6866459378374
 20
239.4918020008488
 30
0.0
 11
469.1556588668768
 21
74.13462105930343
 31
0.0
  0
LINE
  5
214
330
1F
100
AcDbEntity
  8
寸法
  6
Continuous
 62
     7
370
     9
100
AcDbLine
 10
185.3564132604891
 20
239.4918020008488
 30
0.0
 11
373.6866459378374
 21
239.4918020008488
 31
0.0
  0
TEXT
  5
215
330
1F
100
AcDbEntity
  8
F-Fﾚｲﾔ
  6
Continuous
 62
     2
370
     9
100
AcDbText
 10
63.34966572385588
 20
415.1718715986091
 30
0.0
 40
12.192
  1
蓋　：HESM-M-4060
 41
1.117647058823529
  7
ＭＳ ゴシック
100
AcDbText
  0
TEXT
  5
216
330
1F
100
AcDbEntity
  8
F-Fﾚｲﾔ
  6
Continuous
 62
     2
370
     9
100
AcDbText
 10
63.34966572385588
 20
575.171871598609
 30
0.0
 40
12.192
  1
寸法 幅401×長さ598×高さ45.7
 41
1.120689655172414
  7
ＭＳ ゴシック
100
AcDbText
  0
TEXT
  5
217
330
1F
100
AcDbEntity
  8
F-Fﾚｲﾔ
  6
Continuous
 62
     2
370
     9
100
AcDbText
 10
63.34966572385582
 20
479.1718715986091
 30
0.0
 40
12.192
  1
寸法 幅420×長さ2000×高さ51.7
 41
1.120833333333334
  7
ＭＳ ゴシック
100
AcDbText
  0
TEXT
  5
218
330
1F
100
AcDbEntity
  8
F-Fﾚｲﾔ
  6
Continuous
 62
     2
370
     9
100
AcDbText
 10
63.34966572385582
 20
543.171871598609
 30
0.0
 40
12.192
  1
蓋質量　9.4kg
 41
1.115384615384615
  7
ＭＳ ゴシック
100
AcDbText
  0
TEXT
  5
219
330
1F
100
AcDbEntity
  8
F-4ﾚｲﾔ
  6
Continuous
 62
     2
370
     9
100
AcDbText
 10
121.5518978630822
 20
-777.8398842462344
 30
0.0
 40
12.192
  1
側溝用　ＨＥＳＭ－Ｍ－４０６０＋Ｌ－４６Ｚ
 41
1.119047619047619
  7
ＭＳ ゴシック
100
AcDbText
  0
LINE
  5
21A
330
1F
100
AcDbEntity
  8
その他
  6
Continuous
 62
     7
370
     9
100
AcDbLine
 10
453.704284007486
 20
-225.2261472863772
 30
0.0
 11
491.7044836089435
 21
-225.2261472863772
 31
0.0
  0
LWPOLYLINE
  5
21B
330
1F
100
AcDbEntity
  8
その他
  6
Continuous
 62
     7
370
     9
100
AcDbPolyline
 90
        4
 70
     1
 43
0.4
 10
453.904284007486
 20
-225.2261472863772
 42
0.4142135623731
 10
453.704284007486
 20
-225.0261472863772
 42
0.4142135623731
 10
453.504284007486
 20
-225.2261472863772
 42
0.4142135623731
 10
453.704284007486
 20
-225.4261472863772
 42
0.4142135623731
  0
LWPOLYLINE
  5
21C
330
1F
100
AcDbEntity
  8
その他
  6
Continuous
 62
     7
370
     9
100
AcDbPolyline
 90
        4
 70
     1
 43
0.4
 10
491.9044836089435
 20
-225.2261472863772
 42
0.4142135623731
 10
491.7044836089435
 20
-225.0261472863772
 42
0.4142135623731
 10
491.5044836089435
 20
-225.2261472863772
 42
0.4142135623731
 10
491.7044836089435
 20
-225.4261472863772
 42
0.4142135623731
  0
TEXT
  5
21D
330
1F
100
AcDbEntity
  8
その他
  6
Continuous
 62
     2
370
   211
100
AcDbText
 10
464.2043838082147
 20
-220.5701472863772
 30
0.0
 40
12.192
  1
38
 41
1.0625
  7
ＭＳ ゴシック
100
AcDbText
  0
LINE
  5
21E
330
1F
100
AcDbEntity
  8
その他
  6
Continuous
 62
     7
370
     9
100
AcDbLine
 10
491.7044836089435
 20
-225.2261472863772
 30
0.0
 11
494.9044991151727
 21
-225.2261472863772
 31
0.0
  0
LWPOLYLINE
  5
21F
330
1F
100
AcDbEntity
  8
その他
  6
Continuous
 62
     7
370
     9
100
AcDbPolyline
 90
        4
 70
     1
 43
0.4
 10
495.1044991151727
 20
-225.2261472863772
 42
0.4142135623731
 10
494.9044991151727
 20
-225.0261472863772
 42
0.4142135623731
 10
494.7044991151727
 20
-225.2261472863772
 42
0.4142135623731
 10
494.9044991151727
 20
-225.4261472863772
 42
0.4142135623731
  0
LINE
  5
220
330
1F
100
AcDbEntity
  8
その他
  6
Continuous
 62
     7
370
     9
100
AcDbLine
 10
494.9044991151727
 20
-225.2261472863772
 30
0.0
 11
499.4055523208381
 21
-225.2261472863772
 31
0.0
  0
LWPOLYLINE
  5
221
330
1F
100
AcDbEntity
  8
その他
  6
Continuous
 62
     7
370
     9
100
AcDbPolyline
 90
        4
 70
     1
 43
0.4
 10
499.6055523208381
 20
-225.2261472863772
 42
0.4142135623731
 10
499.4055523208381
 20
-225.0261472863772
 42
0.4142135623731
 10
499.2055523208381
 20
-225.2261472863772
 42
0.4142135623731
 10
499.4055523208381
 20
-225.4261472863772
 42
0.4142135623731
  0
TEXT
  5
222
330
1F
100
AcDbEntity
  8
その他
  6
Continuous
 62
     2
370
   211
100
AcDbText
 10
505.2458778051148
 20
-220.5701472863772
 30
0.0
 40
12.192
  1
4.5
 41
1.083333333333333
  7
ＭＳ ゴシック
100
AcDbText
  0
TEXT
  5
223
330
1F
100
AcDbEntity
  8
その他
  6
Continuous
 62
     2
370
   211
100
AcDbText
 10
505.3834966761025
 20
-201.1360532862375
 30
0.0
 40
12.192
  1
3.2
 41
1.083333333333333
  7
ＭＳ ゴシック
100
AcDbText
  0
LINE
  5
224
330
1F
100
AcDbEntity
  8
その他
  6
Continuous
 62
     7
370
     9
100
AcDbLine
 10
493.3044913620581
 20
-225.2261472863772
 30
0.0
 11
504.6216095773341
 21
-204.493004254139
 31
0.0
  0
LINE
  5
225
330
1F
100
AcDbEntity
  8
その他
  6
Continuous
 62
     7
370
     9
100
AcDbLine
 10
504.6216095773341
 20
-204.493004254139
 30
0.0
 11
536.6868065174646
 21
-204.493004254139
 31
0.0
  0
LINE
  5
226
330
1F
100
AcDbEntity
  8
その他
  6
Continuous
 62
     7
370
     9
100
AcDbLine
 10
499.4055523208381
 20
-225.2261472863772
 30
0.0
 11
535.8610932915384
 21
-225.2261472863772
 31
0.0
  0
LINE
  5
227
330
1F
100
AcDbEntity
  8
その他
  6
Continuous
 62
     7
370
     9
100
AcDbLine
 10
453.704284007486
 20
-193.8103393937199
 30
0.0
 11
481.7044836089435
 21
-193.8103393937199
 31
0.0
  0
LWPOLYLINE
  5
228
330
1F
100
AcDbEntity
  8
その他
  6
Continuous
 62
     7
370
     9
100
AcDbPolyline
 90
        4
 70
     1
 43
0.4
 10
453.904284007486
 20
-193.8103393937199
 42
0.4142135623731
 10
453.704284007486
 20
-193.6103393937199
 42
0.4142135623731
 10
453.504284007486
 20
-193.8103393937199
 42
0.4142135623731
 10
453.704284007486
 20
-194.0103393937199
 42
0.4142135623731
  0
LWPOLYLINE
  5
229
330
1F
100
AcDbEntity
  8
その他
  6
Continuous
 62
     7
370
     9
100
AcDbPolyline
 90
        4
 70
     1
 43
0.4
 10
481.9044836089435
 20
-193.8103393937199
 42
0.4142135623731
 10
481.7044836089435
 20
-193.6103393937199
 42
0.4142135623731
 10
481.5044836089435
 20
-193.8103393937199
 42
0.4142135623731
 10
481.7044836089435
 20
-194.0103393937199
 42
0.4142135623731
  0
LINE
  5
22A
330
1F
100
AcDbEntity
  8
その他
  6
Continuous
 62
     7
370
     9
100
AcDbLine
 10
481.7044836089435
 20
-195.0103393937199
 30
0.0
 11
481.7044836089435
 21
-173.4835721070651
 31
0.0
  0
TEXT
  5
22B
330
1F
100
AcDbEntity
  8
その他
  6
Continuous
 62
     2
370
   211
100
AcDbText
 10
459.2043838082147
 20
-189.1543393937199
 30
0.0
 40
12.192
  1
28
 41
1.0625
  7
ＭＳ ゴシック
100
AcDbText
  0
TEXT
  5
22C
330
1F
100
AcDbEntity
  8
F-5ﾚｲﾔ
  6
Continuous
 62
     2
370
     9
100
AcDbText
 10
63.34966572385582
 20
703.171871598609
 30
0.0
 40
12.192
  1
300mm
 41
1.1
  7
ＭＳ ゴシック
100
AcDbText
  0
ENDSEC
  0
SECTION
  2
OBJECTS
  0
DICTIONARY
  5
C
330
0
100
AcDbDictionary
281
     1
  3
ACAD_GROUP
350
D
  3
ACAD_LAYOUT
350
1A
  3
ACAD_MLEADERSTYLE
350
22E
  3
ACAD_MLINESTYLE
350
17
  3
ACAD_PLOTSETTINGS
350
19
  3
ACAD_PLOTSTYLENAME
350
E
  3
ACAD_TABLESTYLE
350
22D
  3
ACAD_VISUALSTYLE
350
2A
  0
DICTIONARY
  5
D
102
{ACAD_REACTORS
330
C
102
}
330
C
100
AcDbDictionary
281
     1
  0
DICTIONARY
  5
1A
102
{ACAD_REACTORS
330
C
102
}
330
C
100
AcDbDictionary
281
     1
  3
Layout1
350
1E
  3
Layout2
350
26
  3
Model
350
22
  0
DICTIONARY
  5
22E
102
{ACAD_REACTORS
330
C
102
}
330
C
100
AcDbDictionary
281
     1
  0
DICTIONARY
  5
17
102
{ACAD_REACTORS
330
C
102
}
330
C
100
AcDbDictionary
281
     1
  3
Standard
350
18
  0
DICTIONARY
  5
19
102
{ACAD_REACTORS
330
C
102
}
330
C
100
AcDbDictionary
281
     1
  0
ACDBDICTIONARYWDFLT
  5
E
102
{ACAD_REACTORS
330
C
102
}
330
C
100
AcDbDictionary
281
     1
  3
Normal
350
F
100
AcDbDictionaryWithDefault
340
F
  0
DICTIONARY
  5
22D
102
{ACAD_REACTORS
330
C
102
}
330
C
100
AcDbDictionary
281
     1
  0
DICTIONARY
  5
2A
102
{ACAD_REACTORS
330
C
102
}
330
C
100
AcDbDictionary
281
     1
  3
2dWireframe
350
2F
  3
3D Hidden
350
31
  3
3dWireframe
350
30
  3
Basic
350
32
  3
Brighten
350
36
  3
ColorChange
350
3A
  3
Conceptual
350
34
  3
Dim
350
35
  3
Facepattern
350
39
  3
Flat
350
2B
  3
FlatWithEdges
350
2C
  3
Gouraud
350
2D
  3
GouraudWithEdges
350
2E
  3
Linepattern
350
38
  3
Realistic
350
33
  3
Thicken
350
37
  0
LAYOUT
  5
1E
102
{ACAD_REACTORS
330
1A
102
}
330
1A
100
AcDbPlotSettings
  1

  2
none_device
  4

  6

 40
0.0
 41
0.0
 42
0.0
 43
0.0
 44
0.0
 45
0.0
 46
0.0
 47
0.0
 48
0.0
 49
0.0
140
0.0
141
0.0
142
1.0
143
1.0
 70
   688
 72
     0
 73
     0
 74
     5
  7

 75
    16
 76
     0
 77
     5
 78
   300
147
1.0
148
0.0
149
0.0
100
AcDbLayout
  1
Layout1
 70
     1
 71
     1
 10
0.0
 20
0.0
 11
420.0
 21
297.0
 12
0.0
 22
0.0
 32
0.0
 14
1.000000000000000E+20
 24
1.000000000000000E+20
 34
1.000000000000000E+20
 15
-1.000000000000000E+20
 25
-1.000000000000000E+20
 35
-1.000000000000000E+20
146
0.0
 13
0.0
 23
0.0
 33
0.0
 16
1.0
 26
0.0
 36
0.0
 17
0.0
 27
1.0
 37
0.0
 76
     0
330
1B
  0
LAYOUT
  5
26
102
{ACAD_REACTORS
330
1A
102
}
330
1A
100
AcDbPlotSettings
  1

  2
none_device
  4

  6

 40
0.0
 41
0.0
 42
0.0
 43
0.0
 44
0.0
 45
0.0
 46
0.0
 47
0.0
 48
0.0
 49
0.0
140
0.0
141
0.0
142
1.0
143
1.0
 70
   688
 72
     0
 73
     0
 74
     5
  7

 75
    16
 76
     0
 77
     5
 78
   300
147
1.0
148
0.0
149
0.0
100
AcDbLayout
  1
Layout2
 70
     1
 71
     2
 10
0.0
 20
0.0
 11
0.0
 21
0.0
 12
0.0
 22
0.0
 32
0.0
 14
0.0
 24
0.0
 34
0.0
 15
0.0
 25
0.0
 35
0.0
146
0.0
 13
0.0
 23
0.0
 33
0.0
 16
1.0
 26
0.0
 36
0.0
 17
0.0
 27
1.0
 37
0.0
 76
     0
330
23
  0
LAYOUT
  5
22
102
{ACAD_REACTORS
330
1A
102
}
330
1A
100
AcDbPlotSettings
  1

  2
none_device
  4

  6

 40
0.0
 41
0.0
 42
0.0
 43
0.0
 44
0.0
 45
0.0
 46
0.0
 47
0.0
 48
0.0
 49
0.0
140
0.0
141
0.0
142
1.0
143
1.0
 70
  1712
 72
     0
 73
     0
 74
     0
  7

 75
     0
 76
     0
 77
     5
 78
   300
147
1.0
148
0.0
149
0.0
100
AcDbLayout
  1
Model
 70
     1
 71
     0
 10
-1188.0
 20
-840.0
 11
1188.0
 21
840.0
 12
0.0
 22
0.0
 32
0.0
 14
-1188.0
 24
-840.0
 34
0.0
 15
1188.0
 25
840.0
 35
0.0
146
0.0
 13
0.0
 23
0.0
 33
0.0
 16
1.0
 26
0.0
 36
0.0
 17
0.0
 27
1.0
 37
0.0
 76
     0
330
1F
331
29
  0
MLINESTYLE
  5
18
102
{ACAD_REACTORS
330
17
102
}
330
17
100
AcDbMlineStyle
  2
Standard
 70
     0
  3

 62
   256
 51
90.0
 52
90.0
 71
     2
 49
0.5
 62
   256
  6
BYLAYER
 49
-0.5
 62
   256
  6
BYLAYER
  0
ACDBPLACEHOLDER
  5
F
102
{ACAD_REACTORS
330
E
102
}
330
E
  0
VISUALSTYLE
  5
2F
102
{ACAD_REACTORS
330
2A
102
}
330
2A
100
AcDbVisualStyle
  2
2dWireframe
 70
     4
 71
     0
 72
     2
 73
     0
 90
        0
 40
-0.6
 41
-30.0
 62
     5
 63
     7
421
 16777215
 74
     1
 91
        4
 64
     7
 65
   257
 75
     1
175
     1
 42
1.0
 92
        0
 66
   257
 43
1.0
 76
     1
 77
     6
 78
     2
 67
     7
 79
     5
170
     0
171
     0
290
     0
174
     0
 93
        1
 44
0.0
173
     0
291
     0
 45
0.0
  0
VISUALSTYLE
  5
31
102
{ACAD_REACTORS
330
2A
102
}
330
2A
100
AcDbVisualStyle
  2
3D Hidden
 70
     6
 71
     1
 72
     2
 73
     2
 90
        0
 40
-0.6
 41
-30.0
 62
     5
 63
     7
421
 16777215
 74
     2
 91
        2
 64
     7
 65
   257
 75
     2
175
     1
 42
40.0
 92
        0
 66
   257
 43
1.0
 76
     1
 77
     6
 78
     2
 67
     7
 79
     3
170
     0
171
     0
290
     0
174
     0
 93
        1
 44
0.0
173
     0
291
     0
 45
0.0
  0
VISUALSTYLE
  5
30
102
{ACAD_REACTORS
330
2A
102
}
330
2A
100
AcDbVisualStyle
  2
3dWireframe
 70
     5
 71
     0
 72
     2
 73
     0
 90
        0
 40
-0.6
 41
-30.0
 62
     5
 63
     7
421
 16777215
 74
     1
 91
        4
 64
     7
 65
   257
 75
     1
175
     1
 42
1.0
 92
        0
 66
   257
 43
1.0
 76
     1
 77
     6
 78
     2
 67
     7
 79
     5
170
     0
171
     0
290
     0
174
     0
 93
        1
 44
0.0
173
     0
291
     0
 45
0.0
  0
VISUALSTYLE
  5
32
102
{ACAD_REACTORS
330
2A
102
}
330
2A
100
AcDbVisualStyle
  2
Basic
 70
     7
 71
     1
 72
     0
 73
     1
 90
        0
 40
-0.6
 41
-30.0
 62
     5
 63
     7
421
 16777215
 74
     0
 91
        4
 64
     7
 65
   257
 75
     1
175
     1
 42
1.0
 92
        8
 66
     7
 43
1.0
 76
     1
 77
     6
 78
     2
 67
     7
 79
     5
170
     0
171
     0
290
     0
174
     0
 93
        1
 44
0.0
173
     0
291
     1
 45
0.0
  0
VISUALSTYLE
  5
36
102
{ACAD_REACTORS
330
2A
102
}
330
2A
100
AcDbVisualStyle
  2
Brighten
 70
    12
 71
     2
 72
     2
 73
     0
 90
        0
 40
-0.6
 41
-30.0
 62
     5
 63
     7
421
 16777215
 74
     1
 91
        4
 64
     7
 65
   257
 75
     1
175
     1
 42
1.0
 92
        8
 66
     7
 43
1.0
 76
     1
 77
     6
 78
     2
 67
     7
 79
     5
170
     0
171
     0
290
     0
174
     0
 93
        1
 44
50.0
173
     0
291
     1
 45
0.0
  0
VISUALSTYLE
  5
3A
102
{ACAD_REACTORS
330
2A
102
}
330
2A
100
AcDbVisualStyle
  2
ColorChange
 70
    16
 71
     2
 72
     2
 73
     3
 90
        0
 40
-0.6
 41
-30.0
 62
     5
 63
     8
421
  8421504
 74
     1
 91
        4
 64
     7
 65
   257
 75
     1
175
     1
 42
1.0
 92
        8
 66
     8
424
  8421504
 43
1.0
 76
     1
 77
     6
 78
     2
 67
     7
 79
     5
170
     0
171
     0
290
     0
174
     0
 93
        1
 44
0.0
173
     0
291
     1
 45
0.0
  0
VISUALSTYLE
  5
34
102
{ACAD_REACTORS
330
2A
102
}
330
2A
100
AcDbVisualStyle
  2
Conceptual
 70
     9
 71
     3
 72
     2
 73
     0
 90
        0
 40
-0.6
 41
-30.0
 62
     5
 63
     7
421
 16777215
 74
     2
 91
        2
 64
     7
 65
   257
 75
     1
175
     1
 42
40.0
 92
        8
 66
     7
 43
1.0
 76
     1
 77
     6
 78
     2
 67
     7
 79
     3
170
     0
171
     0
290
     0
174
     0
 93
        1
 44
0.0
173
     0
291
     0
 45
0.0
  0
VISUALSTYLE
  5
35
102
{ACAD_REACTORS
330
2A
102
}
330
2A
100
AcDbVisualStyle
  2
Dim
 70
    11
 71
     2
 72
     2
 73
     0
 90
        0
 40
-0.6
 41
-30.0
 62
     5
 63
     7
421
 16777215
 74
     1
 91
        4
 64
     7
 65
   257
 75
     1
175
     1
 42
1.0
 92
        8
 66
     7
 43
1.0
 76
     1
 77
     6
 78
     2
 67
     7
 79
     5
170
     0
171
     0
290
     0
174
     0
 93
        1
 44
-50.0
173
     0
291
     1
 45
0.0
  0
VISUALSTYLE
  5
39
102
{ACAD_REACTORS
330
2A
102
}
330
2A
100
AcDbVisualStyle
  2
Facepattern
 70
    15
 71
     2
 72
     2
 73
     0
 90
        0
 40
-0.6
 41
-30.0
 62
     5
 63
     7
421
 16777215
 74
     1
 91
        4
 64
     7
 65
   257
 75
     1
175
     1
 42
1.0
 92
        8
 66
     7
 43
1.0
 76
     1
 77
     6
 78
     2
 67
     7
 79
     5
170
     0
171
     0
290
     0
174
     0
 93
        1
 44
0.0
173
     0
291
     1
 45
0.0
  0
VISUALSTYLE
  5
2B
102
{ACAD_REACTORS
330
2A
102
}
330
2A
100
AcDbVisualStyle
  2
Flat
 70
     0
 71
     2
 72
     1
 73
     1
 90
        2
 40
-0.6
 41
30.0
 62
     5
 63
     7
421
 16777215
 74
     0
 91
        4
 64
     7
 65
   257
 75
     1
175
     1
 42
1.0
 92
        8
 66
     7
 43
1.0
 76
     1
 77
     6
 78
     2
 67
     7
 79
     5
170
     0
171
     0
290
     0
174
     0
 93
       13
 44
0.0
173
     0
291
     1
 45
0.0
  0
VISUALSTYLE
  5
2C
102
{ACAD_REACTORS
330
2A
102
}
330
2A
100
AcDbVisualStyle
  2
FlatWithEdges
 70
     1
 71
     2
 72
     1
 73
     1
 90
        2
 40
-0.6
 41
30.0
 62
     5
 63
     7
421
 16777215
 74
     1
 91
        4
 64
     7
 65
   257
 75
     1
175
     1
 42
1.0
 92
        0
 66
   257
 43
1.0
 76
     1
 77
     6
 78
     2
 67
     7
 79
     5
170
     0
171
     0
290
     0
174
     0
 93
       13
 44
0.0
173
     0
291
     1
 45
0.0
  0
VISUALSTYLE
  5
2D
102
{ACAD_REACTORS
330
2A
102
}
330
2A
100
AcDbVisualStyle
  2
Gouraud
 70
     2
 71
     2
 72
     2
 73
     1
 90
        2
 40
-0.6
 41
30.0
 62
     5
 63
     7
421
 16777215
 74
     0
 91
        4
 64
     7
 65
   257
 75
     1
175
     1
 42
1.0
 92
        0
 66
     7
 43
1.0
 76
     1
 77
     6
 78
     2
 67
     7
 79
     5
170
     0
171
     0
290
     0
174
     0
 93
       13
 44
0.0
173
     0
291
     1
 45
0.0
  0
VISUALSTYLE
  5
2E
102
{ACAD_REACTORS
330
2A
102
}
330
2A
100
AcDbVisualStyle
  2
GouraudWithEdges
 70
     3
 71
     2
 72
     2
 73
     1
 90
        2
 40
-0.6
 41
30.0
 62
     5
 63
     7
421
 16777215
 74
     1
 91
        4
 64
     7
 65
   257
 75
     1
175
     1
 42
1.0
 92
        0
 66
   257
 43
1.0
 76
     1
 77
     6
 78
     2
 67
     7
 79
     5
170
     0
171
     0
290
     0
174
     0
 93
       13
 44
0.0
173
     0
291
     1
 45
0.0
  0
VISUALSTYLE
  5
38
102
{ACAD_REACTORS
330
2A
102
}
330
2A
100
AcDbVisualStyle
  2
Linepattern
 70
    14
 71
     2
 72
     2
 73
     0
 90
        0
 40
-0.6
 41
-30.0
 62
     5
 63
     7
421
 16777215
 74
     1
 91
        4
 64
     7
 65
   257
 75
     7
175
     7
 42
1.0
 92
        8
 66
     7
 43
1.0
 76
     1
 77
     6
 78
     2
 67
     7
 79
     5
170
     0
171
     0
290
     0
174
     0
 93
        1
 44
0.0
173
     0
291
     1
 45
0.0
  0
VISUALSTYLE
  5
33
102
{ACAD_REACTORS
330
2A
102
}
330
2A
100
AcDbVisualStyle
  2
Realistic
 70
     8
 71
     2
 72
     2
 73
     0
 90
        0
 40
-0.6
 41
-30.0
 62
     5
 63
     7
421
 16777215
 74
     1
 91
        0
 64
     7
 65
   257
 75
     1
175
     1
 42
1.0
 92
        8
 66
     8
424
  7895160
 43
1.0
 76
     1
 77
     6
 78
     2
 67
     7
 79
     5
170
     0
171
     0
290
     0
174
     0
 93
       13
 44
0.0
173
     0
291
     0
 45
0.0
  0
VISUALSTYLE
  5
37
102
{ACAD_REACTORS
330
2A
102
}
330
2A
100
AcDbVisualStyle
  2
Thicken
 70
    13
 71
     2
 72
     2
 73
     0
 90
        0
 40
-0.6
 41
-30.0
 62
     5
 63
     7
421
 16777215
 74
     1
 91
        4
 64
     7
 65
   257
 75
     1
175
     1
 42
1.0
 92
       12
 66
     7
 43
1.0
 76
     1
 77
     6
 78
     2
 67
     7
 79
     5
170
     0
171
     0
290
     0
174
     0
 93
        1
 44
0.0
173
     0
291
     1
 45
0.0
  0
ENDSEC
  0
EOF
