  0
SECTION
  2
HEADER
  9
$ACADVER
  1
AC1021
  9
$ACADMAINTVER
 70
    25
  9
$DWGCODEPAGE
  3
ANSI_932
  9
$INSBASE
 10
0.0
 20
0.0
 30
0.0
  9
$EXTMIN
 10
-1188.0
 20
-840.0
 30
0.0
  9
$EXTMAX
 10
1188.0
 20
840.0
 30
0.0
  9
$LIMMIN
 10
-1188.0
 20
-840.0
  9
$LIMMAX
 10
1188.0
 20
840.0
  9
$ORTHOMODE
 70
     0
  9
$REGENMODE
 70
     1
  9
$FILLMODE
 70
     1
  9
$QTEXTMODE
 70
     0
  9
$MIRRTEXT
 70
     1
  9
$LTSCALE
 40
4.0
  9
$ATTMODE
 70
     1
  9
$TEXTSIZE
 40
2.5
  9
$TRACEWID
 40
1.0
  9
$TEXTSTYLE
  7
Standard
  9
$CLAYER
  8
0
  9
$CELTYPE
  6
ByLayer
  9
$CECOLOR
 62
   256
  9
$CELTSCALE
 40
1.0
  9
$DISPSILH
 70
     0
  9
$DIMSCALE
 40
1.0
  9
$DIMASZ
 40
2.5
  9
$DIMEXO
 40
0.625
  9
$DIMDLI
 40
3.75
  9
$DIMRND
 40
0.0
  9
$DIMDLE
 40
0.0
  9
$DIMEXE
 40
1.25
  9
$DIMTP
 40
0.0
  9
$DIMTM
 40
0.0
  9
$DIMTXT
 40
2.5
  9
$DIMCEN
 40
2.5
  9
$DIMTSZ
 40
0.0
  9
$DIMTOL
 70
     0
  9
$DIMLIM
 70
     0
  9
$DIMTIH
 70
     0
  9
$DIMTOH
 70
     0
  9
$DIMSE1
 70
     0
  9
$DIMSE2
 70
     0
  9
$DIMTAD
 70
     1
  9
$DIMZIN
 70
     8
  9
$DIMBLK
  1

  9
$DIMASO
 70
     1
  9
$DIMSHO
 70
     1
  9
$DIMPOST
  1

  9
$DIMAPOST
  1

  9
$DIMALT
 70
     0
  9
$DIMALTD
 70
     3
  9
$DIMALTF
 40
0.03937007874016
  9
$DIMLFAC
 40
1.0
  9
$DIMTOFL
 70
     1
  9
$DIMTVP
 40
0.0
  9
$DIMTIX
 70
     0
  9
$DIMSOXD
 70
     0
  9
$DIMSAH
 70
     0
  9
$DIMBLK1
  1

  9
$DIMBLK2
  1

  9
$DIMSTYLE
  2
ISO-25
  9
$DIMCLRD
 70
     0
  9
$DIMCLRE
 70
     0
  9
$DIMCLRT
 70
     0
  9
$DIMTFAC
 40
1.0
  9
$DIMGAP
 40
0.625
  9
$DIMJUST
 70
     0
  9
$DIMSD1
 70
     0
  9
$DIMSD2
 70
     0
  9
$DIMTOLJ
 70
     0
  9
$DIMTZIN
 70
     8
  9
$DIMALTZ
 70
     0
  9
$DIMALTTZ
 70
     0
  9
$DIMUPT
 70
     0
  9
$DIMDEC
 70
     2
  9
$DIMTDEC
 70
     2
  9
$DIMALTU
 70
     2
  9
$DIMALTTD
 70
     3
  9
$DIMTXSTY
  7
Standard
  9
$DIMAUNIT
 70
     0
  9
$DIMADEC
 70
     0
  9
$DIMALTRND
 40
0.0
  9
$DIMAZIN
 70
     0
  9
$DIMDSEP
 70
    44
  9
$DIMATFIT
 70
     3
  9
$DIMFRAC
 70
     0
  9
$DIMLDRBLK
  1

  9
$DIMLUNIT
 70
     2
  9
$DIMLWD
 70
    -2
  9
$DIMLWE
 70
    -2
  9
$DIMTMOVE
 70
     0
  9
$DIMFXL
 40
1.0
  9
$DIMFXLON
 70
     0
  9
$DIMJOGANG
 40
0.7853981633974483
  9
$DIMTFILL
 70
     0
  9
$DIMTFILLCLR
 70
     0
  9
$DIMARCSYM
 70
     0
  9
$DIMLTYPE
  6

  9
$DIMLTEX1
  6

  9
$DIMLTEX2
  6

  9
$LUNITS
 70
     2
  9
$LUPREC
 70
     4
  9
$SKETCHINC
 40
1.0
  9
$FILLETRAD
 40
10.0
  9
$AUNITS
 70
     0
  9
$AUPREC
 70
     0
  9
$MENU
  1
.
  9
$ELEVATION
 40
0.0
  9
$PELEVATION
 40
0.0
  9
$THICKNESS
 40
0.0
  9
$LIMCHECK
 70
     0
  9
$CHAMFERA
 40
10.0
  9
$CHAMFERB
 40
10.0
  9
$CHAMFERC
 40
20.0
  9
$CHAMFERD
 40
0.0
  9
$SKPOLY
 70
     0
  9
$TDCREATE
 40
2457715.362907095
  9
$TDUCREATE
 40
2457714.987907095
  9
$TDUPDATE
 40
2457715.362907107
  9
$TDUUPDATE
 40
2457714.987907107
  9
$TDINDWG
 40
0.0000000116
  9
$TDUSRTIMER
 40
0.0000000116
  9
$USRTIMER
 70
     1
  9
$ANGBASE
 50
0.0
  9
$ANGDIR
 70
     0
  9
$PDMODE
 70
     0
  9
$PDSIZE
 40
0.0
  9
$PLINEWID
 40
0.0
  9
$SPLFRAME
 70
     0
  9
$SPLINETYPE
 70
     6
  9
$SPLINESEGS
 70
     8
  9
$HANDSEED
  5
25D
  9
$SURFTAB1
 70
     6
  9
$SURFTAB2
 70
     6
  9
$SURFTYPE
 70
     6
  9
$SURFU
 70
     6
  9
$SURFV
 70
     6
  9
$UCSBASE
  2

  9
$UCSNAME
  2

  9
$UCSORG
 10
0.0
 20
0.0
 30
0.0
  9
$UCSXDIR
 10
1.0
 20
0.0
 30
0.0
  9
$UCSYDIR
 10
0.0
 20
1.0
 30
0.0
  9
$UCSORTHOREF
  2

  9
$UCSORTHOVIEW
 70
     0
  9
$UCSORGTOP
 10
0.0
 20
0.0
 30
0.0
  9
$UCSORGBOTTOM
 10
0.0
 20
0.0
 30
0.0
  9
$UCSORGLEFT
 10
0.0
 20
0.0
 30
0.0
  9
$UCSORGRIGHT
 10
0.0
 20
0.0
 30
0.0
  9
$UCSORGFRONT
 10
0.0
 20
0.0
 30
0.0
  9
$UCSORGBACK
 10
0.0
 20
0.0
 30
0.0
  9
$PUCSBASE
  2

  9
$PUCSNAME
  2

  9
$PUCSORG
 10
0.0
 20
0.0
 30
0.0
  9
$PUCSXDIR
 10
1.0
 20
0.0
 30
0.0
  9
$PUCSYDIR
 10
0.0
 20
1.0
 30
0.0
  9
$PUCSORTHOREF
  2

  9
$PUCSORTHOVIEW
 70
     0
  9
$PUCSORGTOP
 10
0.0
 20
0.0
 30
0.0
  9
$PUCSORGBOTTOM
 10
0.0
 20
0.0
 30
0.0
  9
$PUCSORGLEFT
 10
0.0
 20
0.0
 30
0.0
  9
$PUCSORGRIGHT
 10
0.0
 20
0.0
 30
0.0
  9
$PUCSORGFRONT
 10
0.0
 20
0.0
 30
0.0
  9
$PUCSORGBACK
 10
0.0
 20
0.0
 30
0.0
  9
$USERI1
 70
     0
  9
$USERI2
 70
     0
  9
$USERI3
 70
     0
  9
$USERI4
 70
     0
  9
$USERI5
 70
     0
  9
$USERR1
 40
0.0
  9
$USERR2
 40
0.0
  9
$USERR3
 40
0.0
  9
$USERR4
 40
0.0
  9
$USERR5
 40
0.0
  9
$WORLDVIEW
 70
     1
  9
$SHADEDGE
 70
     3
  9
$SHADEDIF
 70
    70
  9
$TILEMODE
 70
     1
  9
$MAXACTVP
 70
    64
  9
$PINSBASE
 10
0.0
 20
0.0
 30
0.0
  9
$PLIMCHECK
 70
     0
  9
$PEXTMIN
 10
1.000000000000000E+20
 20
1.000000000000000E+20
 30
1.000000000000000E+20
  9
$PEXTMAX
 10
-1.000000000000000E+20
 20
-1.000000000000000E+20
 30
-1.000000000000000E+20
  9
$PLIMMIN
 10
0.0
 20
0.0
  9
$PLIMMAX
 10
420.0
 20
297.0
  9
$UNITMODE
 70
     0
  9
$VISRETAIN
 70
     1
  9
$PLINEGEN
 70
     0
  9
$PSLTSCALE
 70
     1
  9
$TREEDEPTH
 70
  3020
  9
$CMLSTYLE
  2
Standard
  9
$CMLJUST
 70
     0
  9
$CMLSCALE
 40
20.0
  9
$PROXYGRAPHICS
 70
     1
  9
$MEASUREMENT
 70
     1
  9
$CELWEIGHT
370
    -1
  9
$ENDCAPS
280
     0
  9
$JOINSTYLE
280
     0
  9
$LWDISPLAY
290
     0
  9
$INSUNITS
 70
     4
  9
$HYPERLINKBASE
  1

  9
$STYLESHEET
  1

  9
$XEDIT
290
     1
  9
$CEPSNTYPE
380
     0
  9
$PSTYLEMODE
290
     1
  9
$FINGERPRINTGUID
  2
{80400643-71C4-4F86-84AF-AE3CD08E9E47}
  9
$VERSIONGUID
  2
{FAEB1C32-E019-11D5-929B-00C0DF256EC4}
  9
$EXTNAMES
290
     1
  9
$PSVPSCALE
 40
0.0
  9
$OLESTARTUP
290
     0
  9
$SORTENTS
280
   127
  9
$INDEXCTL
280
     0
  9
$HIDETEXT
280
     1
  9
$XCLIPFRAME
290
     0
  9
$HALOGAP
280
     0
  9
$OBSCOLOR
 70
   257
  9
$OBSLTYPE
280
     0
  9
$INTERSECTIONDISPLAY
280
     0
  9
$INTERSECTIONCOLOR
 70
   257
  9
$DIMASSOC
280
     2
  9
$PROJECTNAME
  1

  9
$CAMERADISPLAY
290
     0
  9
$LENSLENGTH
 40
50.0
  9
$CAMERAHEIGHT
 40
0.0
  9
$STEPSPERSEC
 40
2.0
  9
$STEPSIZE
 40
6.0
  9
$3DDWFPREC
 40
2.0
  9
$PSOLWIDTH
 40
5.0
  9
$PSOLHEIGHT
 40
80.0
  9
$LOFTANG1
 40
1.570796326794897
  9
$LOFTANG2
 40
1.570796326794897
  9
$LOFTMAG1
 40
0.0
  9
$LOFTMAG2
 40
0.0
  9
$LOFTPARAM
 70
     7
  9
$LOFTNORMALS
280
     1
  9
$LATITUDE
 40
37.795
  9
$LONGITUDE
 40
-122.394
  9
$NORTHDIRECTION
 40
0.0
  9
$TIMEZONE
 70
 -8000
  9
$LIGHTGLYPHDISPLAY
280
     1
  9
$TILEMODELIGHTSYNCH
280
     1
  9
$SOLIDHIST
280
     1
  9
$SHOWHIST
280
     1
  9
$DWFFRAME
280
     2
  9
$DGNFRAME
280
     2
  9
$REALWORLDSCALE
290
     1
  9
$INTERFERECOLOR
 62
   256
  9
$CSHADOW
280
     0
  9
$SHADOWPLANELOCATION
 40
0.0
  0
ENDSEC
  0
SECTION
  2
CLASSES
  0
CLASS
  1
ACDBDICTIONARYWDFLT
  2
AcDbDictionaryWithDefault
  3
ObjectDBX Classes
 90
        0
 91
        4
280
     0
281
     0
  0
CLASS
  1
VISUALSTYLE
  2
AcDbVisualStyle
  3
ObjectDBX Classes
 90
     4095
 91
        4
280
     0
281
     0
  0
ENDSEC
  0
SECTION
  2
TABLES
  0
TABLE
  2
VPORT
  5
8
330
0
100
AcDbSymbolTable
 70
     1
  0
VPORT
  5
29
330
8
100
AcDbSymbolTableRecord
100
AcDbViewportTableRecord
  2
*Active
 70
     0
 10
0.0
 20
0.0
 11
1.0
 21
1.0
 12
0.0
 22
0.0
 13
0.0
 23
0.0
 14
10.0
 24
10.0
 15
10.0
 25
10.0
 16
0.0
 26
0.0
 36
1.0
 17
0.0
 27
0.0
 37
0.0
 40
1848.0
 41
1.414285714285714
 42
50.0
 43
0.0
 44
0.0
 50
0.0
 51
0.0
 71
     0
 72
 10000
 73
     1
 74
     3
 75
     0
 76
     0
 77
     0
 78
     0
281
     0
 65
     1
110
0.0
120
0.0
130
0.0
111
1.0
121
0.0
131
0.0
112
0.0
122
1.0
132
0.0
 79
     0
146
0.0
 60
     3
 61
     5
292
     1
282
     1
141
0.0
142
0.0
 63
   256
  0
ENDTAB
  0
TABLE
  2
LTYPE
  5
5
330
0
100
AcDbSymbolTable
 70
     5
  0
LTYPE
  5
14
330
5
100
AcDbSymbolTableRecord
100
AcDbLinetypeTableRecord
  2
ByBlock
 70
     0
  3

 72
    65
 73
     0
 40
0.0
  0
LTYPE
  5
15
330
5
100
AcDbSymbolTableRecord
100
AcDbLinetypeTableRecord
  2
ByLayer
 70
     0
  3

 72
    65
 73
     0
 40
0.0
  0
LTYPE
  5
16
330
5
100
AcDbSymbolTableRecord
100
AcDbLinetypeTableRecord
  2
Continuous
 70
     0
  3
Solid line
 72
    65
 73
     0
 40
0.0
  0
LTYPE
  5
3C
330
5
100
AcDbSymbolTableRecord
100
AcDbLinetypeTableRecord
  2
JWW_CENTER1
 70
     0
  3
-----  --  ----------  --  -----
 72
    65
 73
     4
 40
6.773333333333333
 49
4.233333333333333
 74
     0
 49
-0.8466666666666667
 74
     0
 49
0.8466666666666667
 74
     0
 49
-0.8466666666666667
 74
     0
  0
LTYPE
  5
3D
330
5
100
AcDbSymbolTableRecord
100
AcDbLinetypeTableRecord
  2
JWW_CENTER2
 70
     0
  3
-------------  --  -------------
 72
    65
 73
     4
 40
13.54666666666667
 49
11.00666666666667
 74
     0
 49
-0.8466666666666667
 74
     0
 49
0.8466666666666667
 74
     0
 49
-0.8466666666666667
 74
     0
  0
LTYPE
  5
3E
330
5
100
AcDbSymbolTableRecord
100
AcDbLinetypeTableRecord
  2
JWW_DASHED1
 70
     0
  3
-  --  --  --  --  --  --  --  -
 72
    65
 73
     2
 40
1.693333333333333
 49
0.8466666666666667
 74
     0
 49
-0.8466666666666667
 74
     0
  0
LTYPE
  5
3F
330
5
100
AcDbSymbolTableRecord
100
AcDbLinetypeTableRecord
  2
JWW_DASHED3
 70
     0
  3
---  ------  ------  ------  ---
 72
    65
 73
     2
 40
3.386666666666667
 49
2.54
 74
     0
 49
-0.8466666666666667
 74
     0
  0
ENDTAB
  0
TABLE
  2
LAYER
  5
2
330
0
100
AcDbSymbolTable
 70
    10
  0
LAYER
  5
10
330
2
100
AcDbSymbolTableRecord
100
AcDbLayerTableRecord
  2
0
 70
     0
 62
     7
  6
Continuous
370
    -3
390
F
347
0
  0
LAYER
  5
40
330
2
100
AcDbSymbolTableRecord
100
AcDbLayerTableRecord
  2
建具
 70
     0
 62
     7
  6
Continuous
370
    -3
390
F
347
0
  0
LAYER
  5
41
330
2
100
AcDbSymbolTableRecord
100
AcDbLayerTableRecord
  2
通り芯
 70
     0
 62
     7
  6
Continuous
370
    -3
390
F
347
0
  0
LAYER
  5
42
330
2
100
AcDbSymbolTableRecord
100
AcDbLayerTableRecord
  2
仕上
 70
     0
 62
     7
  6
Continuous
370
    -3
390
F
347
0
  0
LAYER
  5
43
330
2
100
AcDbSymbolTableRecord
100
AcDbLayerTableRecord
  2
躯体
 70
     0
 62
     7
  6
Continuous
370
    -3
390
F
347
0
  0
LAYER
  5
44
330
2
100
AcDbSymbolTableRecord
100
AcDbLayerTableRecord
  2
その他
 70
     0
 62
     7
  6
Continuous
370
    -3
390
F
347
0
  0
LAYER
  5
45
330
2
100
AcDbSymbolTableRecord
100
AcDbLayerTableRecord
  2
寸法
 70
     0
 62
     7
  6
Continuous
370
    -3
390
F
347
0
  0
LAYER
  5
46
330
2
100
AcDbSymbolTableRecord
100
AcDbLayerTableRecord
  2
F-Fﾚｲﾔ
 70
     0
 62
     7
  6
Continuous
370
    -3
390
F
347
0
  0
LAYER
  5
47
330
2
100
AcDbSymbolTableRecord
100
AcDbLayerTableRecord
  2
F-5ﾚｲﾔ
 70
     0
 62
     7
  6
Continuous
370
    -3
390
F
347
0
  0
LAYER
  5
48
330
2
100
AcDbSymbolTableRecord
100
AcDbLayerTableRecord
  2
F-4ﾚｲﾔ
 70
     0
 62
     7
  6
Continuous
370
    -3
390
F
347
0
  0
ENDTAB
  0
TABLE
  2
STYLE
  5
3
330
0
100
AcDbSymbolTable
 70
     2
  0
STYLE
  5
11
330
3
100
AcDbSymbolTableRecord
100
AcDbTextStyleTableRecord
  2
Standard
 70
     0
 40
0.0
 41
1.0
 50
0.0
 71
     0
 42
2.5
  3
txt
  4

1001
ACAD
1000

1071
        0
  0
STYLE
  5
3B
330
3
100
AcDbSymbolTableRecord
100
AcDbTextStyleTableRecord
  2
ＭＳ ゴシック
 70
     0
 40
1.0
 41
1.0
 50
0.0
 71
     0
 42
10.0
  3

  4

1001
ACAD
1000
MS Gothic
1071
    32817
  0
ENDTAB
  0
TABLE
  2
VIEW
  5
6
330
0
100
AcDbSymbolTable
 70
     0
  0
ENDTAB
  0
TABLE
  2
UCS
  5
7
330
0
100
AcDbSymbolTable
 70
     0
  0
ENDTAB
  0
TABLE
  2
APPID
  5
9
330
0
100
AcDbSymbolTable
 70
     1
  0
APPID
  5
12
330
9
100
AcDbSymbolTableRecord
100
AcDbRegAppTableRecord
  2
ACAD
 70
     0
  0
ENDTAB
  0
TABLE
  2
DIMSTYLE
  5
A
330
0
100
AcDbSymbolTable
 70
     1
100
AcDbDimStyleTable
  0
DIMSTYLE
105
27
330
A
100
AcDbSymbolTableRecord
100
AcDbDimStyleTableRecord
  2
ISO-25
 70
     0
 41
2.5
 42
0.625
 43
3.75
 44
1.25
 73
     0
 74
     0
 77
     1
 78
     8
140
2.5
141
2.5
143
0.03937007874016
147
0.625
171
     3
172
     1
271
     2
272
     2
274
     3
278
    44
283
     0
284
     8
340
11
  0
ENDTAB
  0
TABLE
  2
BLOCK_RECORD
  5
1
330
0
100
AcDbSymbolTable
 70
     1
  0
BLOCK_RECORD
  5
1F
330
1
100
AcDbSymbolTableRecord
100
AcDbBlockTableRecord
  2
*Model_Space
340
22
 70
     0
280
     1
281
     0
  0
BLOCK_RECORD
  5
1B
330
1
100
AcDbSymbolTableRecord
100
AcDbBlockTableRecord
  2
*Paper_Space
340
1E
 70
     0
280
     1
281
     0
  0
BLOCK_RECORD
  5
23
330
1
100
AcDbSymbolTableRecord
100
AcDbBlockTableRecord
  2
*Paper_Space0
340
26
 70
     0
280
     1
281
     0
  0
ENDTAB
  0
ENDSEC
  0
SECTION
  2
BLOCKS
  0
BLOCK
  5
20
330
1F
100
AcDbEntity
  8
0
100
AcDbBlockBegin
  2
*Model_Space
 70
     0
 10
0.0
 20
0.0
 30
0.0
  3
*Model_Space
  1

  0
ENDBLK
  5
21
330
1F
100
AcDbEntity
  8
0
100
AcDbBlockEnd
  0
BLOCK
  5
1C
330
1B
100
AcDbEntity
 67
     1
  8
0
100
AcDbBlockBegin
  2
*Paper_Space
 70
     0
 10
0.0
 20
0.0
 30
0.0
  3
*Paper_Space
  1

  0
ENDBLK
  5
1D
330
1B
100
AcDbEntity
 67
     1
  8
0
100
AcDbBlockEnd
  0
BLOCK
  5
24
330
23
100
AcDbEntity
  8
0
100
AcDbBlockBegin
  2
*Paper_Space0
 70
     0
 10
0.0
 20
0.0
 30
0.0
  3
*Paper_Space0
  1

  0
ENDBLK
  5
25
330
23
100
AcDbEntity
  8
0
100
AcDbBlockEnd
  0
ENDSEC
  0
SECTION
  2
ENTITIES
  0
LINE
  5
49
330
1F
100
AcDbEntity
  8
建具
  6
Continuous
 62
     4
370
     9
100
AcDbLine
 10
-956.114646624119
 20
-362.2717667731657
 30
0.0
 11
-956.114646624119
 21
357.7281342509052
 31
0.0
  0
LINE
  5
4A
330
1F
100
AcDbEntity
  8
建具
  6
Continuous
 62
     4
370
     9
100
AcDbLine
 10
-956.114646624119
 20
357.7281342509052
 30
0.0
 11
-236.1147146700702
 21
357.7281342509052
 31
0.0
  0
LINE
  5
4B
330
1F
100
AcDbEntity
  8
建具
  6
Continuous
 62
     4
370
     9
100
AcDbLine
 10
-236.1147146700702
 20
357.7281342509052
 30
0.0
 11
-236.1147146700702
 21
-362.2717667731657
 31
0.0
  0
LINE
  5
4C
330
1F
100
AcDbEntity
  8
建具
  6
Continuous
 62
     4
370
     9
100
AcDbLine
 10
-950.1146330149287
 20
-356.2717840939533
 30
0.0
 11
-950.1146330149287
 21
351.7282134316486
 31
0.0
  0
LINE
  5
4D
330
1F
100
AcDbEntity
  8
建具
  6
Continuous
 62
     4
370
     9
100
AcDbLine
 10
-242.1146973492824
 20
351.7282134316486
 30
0.0
 11
-242.1146973492824
 21
-356.2717840939533
 31
0.0
  0
LINE
  5
4E
330
1F
100
AcDbEntity
  8
建具
  6
Continuous
 62
     4
370
     9
100
AcDbLine
 10
-401.114516718212
 20
368.328332532683
 30
0.0
 11
-401.114516718212
 21
362.2281985852591
 31
0.0
  0
LINE
  5
4F
330
1F
100
AcDbEntity
  8
建具
  6
Continuous
 62
     4
370
     9
100
AcDbLine
 10
-301.1146816780939
 20
378.3282418047481
 30
0.0
 11
-391.1144837262356
 21
378.3282418047481
 31
0.0
  0
LINE
  5
50
330
1F
100
AcDbEntity
  8
建具
  6
Continuous
 62
     4
370
     9
100
AcDbLine
 10
-291.1147724060285
 20
368.328332532683
 30
0.0
 11
-291.1147724060285
 21
362.2281985852591
 31
0.0
  0
LINE
  5
51
330
1F
100
AcDbEntity
  8
建具
  6
Continuous
 62
     4
370
     9
100
AcDbLine
 10
-300.1146536349139
 20
368.328332532683
 30
0.0
 11
-300.1146536349139
 21
362.2281985852591
 31
0.0
  0
LINE
  5
52
330
1F
100
AcDbEntity
  8
建具
  6
Continuous
 62
     4
370
     9
100
AcDbLine
 10
-391.1144837262356
 20
369.328360575863
 30
0.0
 11
-301.1145579581827
 21
369.328360575863
 31
0.0
  0
LINE
  5
53
330
1F
100
AcDbEntity
  8
建具
  6
Continuous
 62
     4
370
     9
100
AcDbLine
 10
-392.1145117694153
 20
368.328332532683
 30
0.0
 11
-392.1145117694153
 21
362.2281985852591
 31
0.0
  0
LINE
  5
54
330
1F
100
AcDbEntity
  8
建具
  6
JWW_CENTER1
 62
     4
370
     9
100
AcDbLine
 10
-396.6146998236808
 20
354.120832796619
 30
0.0
 11
-396.6146998236808
 21
369.7184494562473
 31
0.0
  0
LINE
  5
55
330
1F
100
AcDbEntity
  8
建具
  6
JWW_CENTER1
 62
     4
370
     9
100
AcDbLine
 10
-388.4515363550362
 20
362.2281985852591
 30
0.0
 11
-404.8586523944153
 21
362.2281985852591
 31
0.0
  0
LINE
  5
56
330
1F
100
AcDbEntity
  8
建具
  6
JWW_CENTER1
 62
     4
370
     9
100
AcDbLine
 10
-295.6144655806489
 20
354.120832796619
 30
0.0
 11
-295.6144655806489
 21
369.7184494562473
 31
0.0
  0
LINE
  5
57
330
1F
100
AcDbEntity
  8
建具
  6
JWW_CENTER1
 62
     4
370
     9
100
AcDbLine
 10
-287.4514258319156
 20
362.2281985852591
 30
0.0
 11
-303.8587893111177
 21
362.2281985852591
 31
0.0
  0
LINE
  5
58
330
1F
100
AcDbEntity
  8
建具
  6
Continuous
 62
     4
370
     9
100
AcDbLine
 10
-901.114465168249
 20
368.328332532683
 30
0.0
 11
-901.114465168249
 21
362.2281985852591
 31
0.0
  0
LINE
  5
59
330
1F
100
AcDbEntity
  8
建具
  6
Continuous
 62
     4
370
     9
100
AcDbLine
 10
-801.1146301281307
 20
378.3282418047481
 30
0.0
 11
-891.1144321762728
 21
378.3282418047481
 31
0.0
  0
LINE
  5
5A
330
1F
100
AcDbEntity
  8
建具
  6
Continuous
 62
     4
370
     9
100
AcDbLine
 10
-791.1147208560659
 20
368.328332532683
 30
0.0
 11
-791.1147208560659
 21
362.2281985852591
 31
0.0
  0
LINE
  5
5B
330
1F
100
AcDbEntity
  8
建具
  6
Continuous
 62
     4
370
     9
100
AcDbLine
 10
-800.1146020849507
 20
368.328332532683
 30
0.0
 11
-800.1146020849507
 21
362.2281985852591
 31
0.0
  0
LINE
  5
5C
330
1F
100
AcDbEntity
  8
建具
  6
Continuous
 62
     4
370
     9
100
AcDbLine
 10
-891.1144321762728
 20
369.328360575863
 30
0.0
 11
-801.1145064082194
 21
369.328360575863
 31
0.0
  0
LINE
  5
5D
330
1F
100
AcDbEntity
  8
建具
  6
Continuous
 62
     4
370
     9
100
AcDbLine
 10
-892.1144602194523
 20
368.328332532683
 30
0.0
 11
-892.1144602194523
 21
362.2281985852591
 31
0.0
  0
LINE
  5
5E
330
1F
100
AcDbEntity
  8
建具
  6
JWW_CENTER1
 62
     4
370
     9
100
AcDbLine
 10
-896.6146482737178
 20
354.120832796619
 30
0.0
 11
-896.6146482737178
 21
369.7184494562473
 31
0.0
  0
LINE
  5
5F
330
1F
100
AcDbEntity
  8
建具
  6
JWW_CENTER1
 62
     4
370
     9
100
AcDbLine
 10
-888.4514848050732
 20
362.2281985852591
 30
0.0
 11
-904.8586008444523
 21
362.2281985852591
 31
0.0
  0
LINE
  5
60
330
1F
100
AcDbEntity
  8
建具
  6
JWW_CENTER1
 62
     4
370
     9
100
AcDbLine
 10
-795.6144140306857
 20
354.120832796619
 30
0.0
 11
-795.6144140306857
 21
369.7184494562473
 31
0.0
  0
LINE
  5
61
330
1F
100
AcDbEntity
  8
建具
  6
JWW_CENTER1
 62
     4
370
     9
100
AcDbLine
 10
-787.4513742819523
 20
362.2281985852591
 30
0.0
 11
-803.8587377611544
 21
362.2281985852591
 31
0.0
  0
LINE
  5
62
330
1F
100
AcDbEntity
  8
建具
  6
Continuous
 62
     4
370
     9
100
AcDbLine
 10
-401.114516718212
 20
-372.8719650549438
 30
0.0
 11
-401.114516718212
 21
-366.7718311075197
 31
0.0
  0
LINE
  5
63
330
1F
100
AcDbEntity
  8
建具
  6
Continuous
 62
     4
370
     9
100
AcDbLine
 10
-301.1146816780939
 20
-382.8718743270086
 30
0.0
 11
-391.1144837262356
 21
-382.8718743270086
 31
0.0
  0
LINE
  5
64
330
1F
100
AcDbEntity
  8
建具
  6
Continuous
 62
     4
370
     9
100
AcDbLine
 10
-291.1147724060285
 20
-372.8719650549438
 30
0.0
 11
-291.1147724060285
 21
-366.7718311075197
 31
0.0
  0
LINE
  5
65
330
1F
100
AcDbEntity
  8
建具
  6
Continuous
 62
     4
370
     9
100
AcDbLine
 10
-300.1146536349139
 20
-372.8719650549438
 30
0.0
 11
-300.1146536349139
 21
-366.7718311075197
 31
0.0
  0
LINE
  5
66
330
1F
100
AcDbEntity
  8
建具
  6
Continuous
 62
     4
370
     9
100
AcDbLine
 10
-391.1144837262356
 20
-373.8719930981235
 30
0.0
 11
-301.1145579581827
 21
-373.8719930981235
 31
0.0
  0
LINE
  5
67
330
1F
100
AcDbEntity
  8
建具
  6
Continuous
 62
     4
370
     9
100
AcDbLine
 10
-392.1145117694153
 20
-372.8719650549438
 30
0.0
 11
-392.1145117694153
 21
-366.7718311075197
 31
0.0
  0
LINE
  5
68
330
1F
100
AcDbEntity
  8
建具
  6
JWW_CENTER1
 62
     4
370
     9
100
AcDbLine
 10
-396.6146998236808
 20
-358.6644653188795
 30
0.0
 11
-396.6146998236808
 21
-374.2620819785078
 31
0.0
  0
LINE
  5
69
330
1F
100
AcDbEntity
  8
建具
  6
JWW_CENTER1
 62
     4
370
     9
100
AcDbLine
 10
-388.4515363550362
 20
-366.7718311075197
 30
0.0
 11
-404.8586523944153
 21
-366.7718311075197
 31
0.0
  0
LINE
  5
6A
330
1F
100
AcDbEntity
  8
建具
  6
JWW_CENTER1
 62
     4
370
     9
100
AcDbLine
 10
-295.6144655806489
 20
-358.6644653188795
 30
0.0
 11
-295.6144655806489
 21
-374.2620819785078
 31
0.0
  0
LINE
  5
6B
330
1F
100
AcDbEntity
  8
建具
  6
JWW_CENTER1
 62
     4
370
     9
100
AcDbLine
 10
-287.4514258319156
 20
-366.7718311075197
 30
0.0
 11
-303.8587893111177
 21
-366.7718311075197
 31
0.0
  0
LINE
  5
6C
330
1F
100
AcDbEntity
  8
建具
  6
Continuous
 62
     4
370
     9
100
AcDbLine
 10
-901.114465168249
 20
-372.8719650549438
 30
0.0
 11
-901.114465168249
 21
-366.7718311075197
 31
0.0
  0
LINE
  5
6D
330
1F
100
AcDbEntity
  8
建具
  6
Continuous
 62
     4
370
     9
100
AcDbLine
 10
-801.1146301281307
 20
-382.8718743270086
 30
0.0
 11
-891.1144321762728
 21
-382.8718743270086
 31
0.0
  0
LINE
  5
6E
330
1F
100
AcDbEntity
  8
建具
  6
Continuous
 62
     4
370
     9
100
AcDbLine
 10
-791.1147208560659
 20
-372.8719650549438
 30
0.0
 11
-791.1147208560659
 21
-366.7718311075197
 31
0.0
  0
LINE
  5
6F
330
1F
100
AcDbEntity
  8
建具
  6
Continuous
 62
     4
370
     9
100
AcDbLine
 10
-800.1146020849507
 20
-372.8719650549438
 30
0.0
 11
-800.1146020849507
 21
-366.7718311075197
 31
0.0
  0
LINE
  5
70
330
1F
100
AcDbEntity
  8
建具
  6
Continuous
 62
     4
370
     9
100
AcDbLine
 10
-891.1144321762728
 20
-373.8719930981235
 30
0.0
 11
-801.1145064082194
 21
-373.8719930981235
 31
0.0
  0
LINE
  5
71
330
1F
100
AcDbEntity
  8
建具
  6
Continuous
 62
     4
370
     9
100
AcDbLine
 10
-892.1144602194523
 20
-372.8719650549438
 30
0.0
 11
-892.1144602194523
 21
-366.7718311075197
 31
0.0
  0
LINE
  5
72
330
1F
100
AcDbEntity
  8
建具
  6
JWW_CENTER1
 62
     4
370
     9
100
AcDbLine
 10
-896.6146482737178
 20
-358.6644653188795
 30
0.0
 11
-896.6146482737178
 21
-374.2620819785078
 31
0.0
  0
LINE
  5
73
330
1F
100
AcDbEntity
  8
建具
  6
JWW_CENTER1
 62
     4
370
     9
100
AcDbLine
 10
-888.4514848050732
 20
-366.7718311075197
 30
0.0
 11
-904.8586008444523
 21
-366.7718311075197
 31
0.0
  0
LINE
  5
74
330
1F
100
AcDbEntity
  8
建具
  6
JWW_CENTER1
 62
     4
370
     9
100
AcDbLine
 10
-795.6144140306857
 20
-358.6644653188795
 30
0.0
 11
-795.6144140306857
 21
-374.2620819785078
 31
0.0
  0
LINE
  5
75
330
1F
100
AcDbEntity
  8
建具
  6
JWW_CENTER1
 62
     4
370
     9
100
AcDbLine
 10
-787.4513742819523
 20
-366.7718311075197
 30
0.0
 11
-803.8587377611544
 21
-366.7718311075197
 31
0.0
  0
CIRCLE
  5
76
330
1F
100
AcDbEntity
  8
建具
  6
Continuous
 62
     4
370
     9
100
AcDbCircle
 10
-396.6146998236808
 20
362.2281985852591
 30
0.0
 40
4.500000057993709
  0
CIRCLE
  5
77
330
1F
100
AcDbEntity
  8
建具
  6
Continuous
 62
     4
370
     9
100
AcDbCircle
 10
-295.614713020471
 20
362.2281985852591
 30
0.0
 40
4.500000057993709
  0
ARC
  5
78
330
1F
100
AcDbEntity
  8
建具
  6
Continuous
 62
     4
370
     9
100
AcDbCircle
 10
-391.1144837262356
 20
368.328332532683
 30
0.0
 40
9.9999991623131
100
AcDbArc
 50
90.0
 51
180.0
  0
ARC
  5
79
330
1F
100
AcDbEntity
  8
建具
  6
Continuous
 62
     4
370
     9
100
AcDbCircle
 10
-301.1146816780939
 20
368.328332532683
 30
0.0
 40
9.9999991623131
100
AcDbArc
 50
0.0
 51
90.0
  0
ARC
  5
7A
330
1F
100
AcDbEntity
  8
建具
  6
Continuous
 62
     4
370
     9
100
AcDbCircle
 10
-301.1145579581827
 20
368.328332532683
 30
0.0
 40
0.9999999524773778
100
AcDbArc
 50
0.0
 51
90.0
  0
ARC
  5
7B
330
1F
100
AcDbEntity
  8
建具
  6
Continuous
 62
     4
370
     9
100
AcDbCircle
 10
-391.1144837262356
 20
368.328332532683
 30
0.0
 40
0.9999999524773778
100
AcDbArc
 50
90.0
 51
180.0
  0
CIRCLE
  5
7C
330
1F
100
AcDbEntity
  8
建具
  6
Continuous
 62
     4
370
     9
100
AcDbCircle
 10
-896.6146482737178
 20
362.2281985852591
 30
0.0
 40
4.500000057993709
  0
CIRCLE
  5
7D
330
1F
100
AcDbEntity
  8
建具
  6
Continuous
 62
     4
370
     9
100
AcDbCircle
 10
-795.6146614705082
 20
362.2281985852591
 30
0.0
 40
4.500000057993709
  0
ARC
  5
7E
330
1F
100
AcDbEntity
  8
建具
  6
Continuous
 62
     4
370
     9
100
AcDbCircle
 10
-891.1144321762728
 20
368.328332532683
 30
0.0
 40
9.9999991623131
100
AcDbArc
 50
90.0
 51
180.0
  0
ARC
  5
7F
330
1F
100
AcDbEntity
  8
建具
  6
Continuous
 62
     4
370
     9
100
AcDbCircle
 10
-801.1146301281307
 20
368.328332532683
 30
0.0
 40
9.9999991623131
100
AcDbArc
 50
0.0
 51
90.0
  0
ARC
  5
80
330
1F
100
AcDbEntity
  8
建具
  6
Continuous
 62
     4
370
     9
100
AcDbCircle
 10
-801.1145064082194
 20
368.328332532683
 30
0.0
 40
0.9999999524773778
100
AcDbArc
 50
0.0
 51
90.0
  0
ARC
  5
81
330
1F
100
AcDbEntity
  8
建具
  6
Continuous
 62
     4
370
     9
100
AcDbCircle
 10
-891.1144321762728
 20
368.328332532683
 30
0.0
 40
0.9999999524773778
100
AcDbArc
 50
90.0
 51
180.0
  0
CIRCLE
  5
82
330
1F
100
AcDbEntity
  8
建具
  6
Continuous
 62
     4
370
     9
100
AcDbCircle
 10
-396.6146998236808
 20
-366.7718311075197
 30
0.0
 40
4.500000057993709
  0
CIRCLE
  5
83
330
1F
100
AcDbEntity
  8
建具
  6
Continuous
 62
     4
370
     9
100
AcDbCircle
 10
-295.614713020471
 20
-366.7718311075197
 30
0.0
 40
4.500000057993709
  0
ARC
  5
84
330
1F
100
AcDbEntity
  8
建具
  6
Continuous
 62
     4
370
     9
100
AcDbCircle
 10
-391.1144837262356
 20
-372.8719650549438
 30
0.0
 40
9.9999991623131
100
AcDbArc
 50
180.0
 51
270.0
  0
ARC
  5
85
330
1F
100
AcDbEntity
  8
建具
  6
Continuous
 62
     4
370
     9
100
AcDbCircle
 10
-301.1146816780939
 20
-372.8719650549438
 30
0.0
 40
9.9999991623131
100
AcDbArc
 50
270.0
 51
0.0
  0
ARC
  5
86
330
1F
100
AcDbEntity
  8
建具
  6
Continuous
 62
     4
370
     9
100
AcDbCircle
 10
-301.1145579581827
 20
-372.8719650549438
 30
0.0
 40
0.9999999524773778
100
AcDbArc
 50
270.0
 51
0.0
  0
ARC
  5
87
330
1F
100
AcDbEntity
  8
建具
  6
Continuous
 62
     4
370
     9
100
AcDbCircle
 10
-391.1144837262356
 20
-372.8719650549438
 30
0.0
 40
0.9999999524773778
100
AcDbArc
 50
180.0
 51
270.0
  0
CIRCLE
  5
88
330
1F
100
AcDbEntity
  8
建具
  6
Continuous
 62
     4
370
     9
100
AcDbCircle
 10
-896.6146482737178
 20
-366.7718311075197
 30
0.0
 40
4.500000057993709
  0
CIRCLE
  5
89
330
1F
100
AcDbEntity
  8
建具
  6
Continuous
 62
     4
370
     9
100
AcDbCircle
 10
-795.6146614705082
 20
-366.7718311075197
 30
0.0
 40
4.500000057993709
  0
ARC
  5
8A
330
1F
100
AcDbEntity
  8
建具
  6
Continuous
 62
     4
370
     9
100
AcDbCircle
 10
-891.1144321762728
 20
-372.8719650549438
 30
0.0
 40
9.9999991623131
100
AcDbArc
 50
180.0
 51
270.0
  0
ARC
  5
8B
330
1F
100
AcDbEntity
  8
建具
  6
Continuous
 62
     4
370
     9
100
AcDbCircle
 10
-801.1146301281307
 20
-372.8719650549438
 30
0.0
 40
9.9999991623131
100
AcDbArc
 50
270.0
 51
0.0
  0
ARC
  5
8C
330
1F
100
AcDbEntity
  8
建具
  6
Continuous
 62
     4
370
     9
100
AcDbCircle
 10
-801.1145064082194
 20
-372.8719650549438
 30
0.0
 40
0.9999999524773778
100
AcDbArc
 50
270.0
 51
0.0
  0
ARC
  5
8D
330
1F
100
AcDbEntity
  8
建具
  6
Continuous
 62
     4
370
     9
100
AcDbCircle
 10
-891.1144321762728
 20
-372.8719650549438
 30
0.0
 40
0.9999999524773778
100
AcDbArc
 50
180.0
 51
270.0
  0
LINE
  5
8E
330
1F
100
AcDbEntity
  8
建具
  6
Continuous
 62
     4
370
     9
100
AcDbLine
 10
-950.1146330149287
 20
351.7282134316486
 30
0.0
 11
-242.1146973492824
 21
351.7282134316486
 31
0.0
  0
LINE
  5
8F
330
1F
100
AcDbEntity
  8
建具
  6
Continuous
 62
     4
370
     9
100
AcDbLine
 10
-236.1147146700702
 20
-362.2717667731657
 30
0.0
 11
-956.114646624119
 21
-362.2717667731657
 31
0.0
  0
LINE
  5
90
330
1F
100
AcDbEntity
  8
建具
  6
Continuous
 62
     4
370
     9
100
AcDbLine
 10
-242.1146973492824
 20
-356.2717840939533
 30
0.0
 11
-950.1146330149287
 21
-356.2717840939533
 31
0.0
  0
LINE
  5
91
330
1F
100
AcDbEntity
  8
通り芯
  6
JWW_CENTER2
 62
     7
370
     9
100
AcDbLine
 10
-766.1146651821051
 20
179.2499976753775
 30
0.0
 11
-766.1146651821051
 21
118.221190000013
 31
0.0
  0
LINE
  5
92
330
1F
100
AcDbEntity
  8
通り芯
  6
JWW_CENTER2
 62
     7
370
     9
100
AcDbLine
 10
-749.1146448566916
 20
147.7282146688481
 30
0.0
 11
-783.1146855075195
 21
147.7282146688481
 31
0.0
  0
LINE
  5
93
330
1F
100
AcDbEntity
  8
通り芯
  6
JWW_CENTER2
 62
     7
370
     9
100
AcDbLine
 10
-409.1146448566921
 20
147.7282146688481
 30
0.0
 11
-443.11468550752
 21
147.7282146688481
 31
0.0
  0
LINE
  5
94
330
1F
100
AcDbEntity
  8
通り芯
  6
JWW_CENTER2
 62
     7
370
     9
100
AcDbLine
 10
-426.1146651821058
 20
179.2499976753775
 30
0.0
 11
-426.1146651821058
 21
118.221190000013
 31
0.0
  0
LINE
  5
95
330
1F
100
AcDbEntity
  8
通り芯
  6
JWW_CENTER2
 62
     7
370
     9
100
AcDbLine
 10
-976.6288963733044
 20
-2.271785331152358
 30
0.0
 11
-222.4682739813135
 21
-2.271785331152358
 31
0.0
  0
LINE
  5
96
330
1F
100
AcDbEntity
  8
通り芯
  6
JWW_CENTER2
 62
     7
370
     9
100
AcDbLine
 10
-766.1146651821051
 20
-183.7935683376827
 30
0.0
 11
-766.1146651821051
 21
-122.7647606623177
 31
0.0
  0
LINE
  5
97
330
1F
100
AcDbEntity
  8
通り芯
  6
JWW_CENTER2
 62
     7
370
     9
100
AcDbLine
 10
-749.1146448566916
 20
-152.2717853311528
 30
0.0
 11
-783.1146855075195
 21
-152.2717853311528
 31
0.0
  0
LINE
  5
98
330
1F
100
AcDbEntity
  8
通り芯
  6
JWW_CENTER2
 62
     7
370
     9
100
AcDbLine
 10
-409.1146448566921
 20
-152.2717853311528
 30
0.0
 11
-443.11468550752
 21
-152.2717853311528
 31
0.0
  0
LINE
  5
99
330
1F
100
AcDbEntity
  8
通り芯
  6
JWW_CENTER2
 62
     7
370
     9
100
AcDbLine
 10
-426.1146651821058
 20
-183.7935683376827
 30
0.0
 11
-426.1146651821058
 21
-122.7647606623177
 31
0.0
  0
LINE
  5
9A
330
1F
100
AcDbEntity
  8
通り芯
  6
JWW_CENTER2
 62
     7
370
     9
100
AcDbLine
 10
-596.1146651821058
 20
354.5281656100819
 30
0.0
 11
-596.1146651821058
 21
-362.0950230755011
 31
0.0
  0
LINE
  5
9B
330
1F
100
AcDbEntity
  8
仕上
  6
Continuous
 62
     7
370
     9
100
AcDbLine
 10
-932.1145318002576
 20
330.7283084603246
 30
0.0
 11
-942.1145803455953
 21
320.7282599149871
 31
0.0
  0
LINE
  5
9C
330
1F
100
AcDbEntity
  8
仕上
  6
JWW_DASHED1
 62
     7
370
     9
100
AcDbLine
 10
-932.1145318002576
 20
330.7283084603246
 30
0.0
 11
-927.6144469637476
 21
335.2283932968335
 31
0.0
  0
LINE
  5
9D
330
1F
100
AcDbEntity
  8
仕上
  6
JWW_DASHED1
 62
     7
370
     9
100
AcDbLine
 10
-942.1145803455953
 20
320.7282599149871
 30
0.0
 11
-946.6146651821051
 21
316.228595019204
 31
0.0
  0
LINE
  5
9E
330
1F
100
AcDbEntity
  8
仕上
  6
Continuous
 62
     2
370
     9
100
AcDbLine
 10
-251.6147115476152
 20
341.2284277027516
 30
0.0
 11
-251.6147115476152
 21
335.2283932968335
 31
0.0
  0
LINE
  5
9F
330
1F
100
AcDbEntity
  8
仕上
  6
Continuous
 62
     2
370
     9
100
AcDbLine
 10
-245.6146651821056
 20
348.2285125392632
 30
0.0
 11
-946.6146651821051
 21
348.2285125392632
 31
0.0
  0
LINE
  5
A0
330
1F
100
AcDbEntity
  8
仕上
  6
Continuous
 62
     7
370
     9
100
AcDbLine
 10
-245.6146651821056
 20
330.7283084603246
 30
0.0
 11
-946.6146651821051
 21
330.7283084603246
 31
0.0
  0
LINE
  5
A1
330
1F
100
AcDbEntity
  8
仕上
  6
Continuous
 62
     7
370
     9
100
AcDbLine
 10
-245.6146651821056
 20
345.7285125392632
 30
0.0
 11
-946.6146651821051
 21
345.7285125392632
 31
0.0
  0
LINE
  5
A2
330
1F
100
AcDbEntity
  8
仕上
  6
Continuous
 62
     7
370
     9
100
AcDbLine
 10
-245.6146651821056
 20
341.2284277027516
 30
0.0
 11
-946.6146651821051
 21
341.2284277027516
 31
0.0
  0
LINE
  5
A3
330
1F
100
AcDbEntity
  8
仕上
  6
Continuous
 62
     7
370
     9
100
AcDbLine
 10
-245.6146651821056
 20
335.2283932968335
 30
0.0
 11
-946.6146651821051
 21
335.2283932968335
 31
0.0
  0
LINE
  5
A4
330
1F
100
AcDbEntity
  8
仕上
  6
Continuous
 62
     7
370
     9
100
AcDbLine
 10
-942.1145803455953
 20
-345.7719983650554
 30
0.0
 11
-942.1145803455953
 21
-339.7719639591378
 31
0.0
  0
LINE
  5
A5
330
1F
100
AcDbEntity
  8
仕上
  6
Continuous
 62
     7
370
     9
100
AcDbLine
 10
-942.1145803455953
 20
-352.7720832015666
 30
0.0
 11
-942.1145803455953
 21
-350.2720832015666
 31
0.0
  0
LINE
  5
A6
330
1F
100
AcDbEntity
  8
仕上
  6
Continuous
 62
     7
370
     9
100
AcDbLine
 10
-946.6146651821051
 20
-352.7720832015666
 30
0.0
 11
-942.1145803455953
 21
-352.7720832015666
 31
0.0
  0
LINE
  5
A7
330
1F
100
AcDbEntity
  8
仕上
  6
Continuous
 62
     2
370
     9
100
AcDbLine
 10
-251.6147115476152
 20
-326.7717921062886
 30
0.0
 11
-251.6147115476152
 21
-335.2718791226266
 31
0.0
  0
LINE
  5
A8
330
1F
100
AcDbEntity
  8
仕上
  6
JWW_DASHED1
 62
     2
370
     9
100
AcDbLine
 10
-251.6147115476152
 20
-335.2718791226266
 30
0.0
 11
-251.6147115476152
 21
-339.7719639591378
 31
0.0
  0
LINE
  5
A9
330
1F
100
AcDbEntity
  8
仕上
  6
Continuous
 62
     2
370
     9
100
AcDbLine
 10
-251.6147115476152
 20
-345.7719983650554
 30
0.0
 11
-251.6147115476152
 21
-339.7719639591378
 31
0.0
  0
LINE
  5
AA
330
1F
100
AcDbEntity
  8
仕上
  6
JWW_DASHED1
 62
     7
370
     9
100
AcDbLine
 10
-250.1147500186163
 20
-325.2718305772896
 30
0.0
 11
-245.6146651821056
 21
-320.7721656815079
 31
0.0
  0
LINE
  5
AB
330
1F
100
AcDbEntity
  8
仕上
  6
JWW_DASHED1
 62
     7
370
     9
100
AcDbLine
 10
-260.1147985639533
 20
-335.2718791226266
 30
0.0
 11
-264.614883400464
 21
-339.7719639591378
 31
0.0
  0
LINE
  5
AC
330
1F
100
AcDbEntity
  8
仕上
  6
Continuous
 62
     7
370
     9
100
AcDbLine
 10
-260.1147985639533
 20
-335.2718791226266
 30
0.0
 11
-250.1147500186163
 21
-325.2718305772896
 31
0.0
  0
LINE
  5
AD
330
1F
100
AcDbEntity
  8
仕上
  6
Continuous
 62
     7
370
     9
100
AcDbLine
 10
-250.1147500186163
 20
-345.7719983650554
 30
0.0
 11
-250.1147500186163
 21
-339.7719639591378
 31
0.0
  0
LINE
  5
AE
330
1F
100
AcDbEntity
  8
仕上
  6
Continuous
 62
     7
370
     9
100
AcDbLine
 10
-250.1147500186163
 20
-352.7720832015666
 30
0.0
 11
-250.1147500186163
 21
-350.2720832015666
 31
0.0
  0
LINE
  5
AF
330
1F
100
AcDbEntity
  8
仕上
  6
Continuous
 62
     7
370
     9
100
AcDbLine
 10
-245.6146651821056
 20
-352.7720832015666
 30
0.0
 11
-250.1147500186163
 21
-352.7720832015666
 31
0.0
  0
LINE
  5
B0
330
1F
100
AcDbEntity
  8
仕上
  6
Continuous
 62
     2
370
     9
100
AcDbLine
 10
-245.6146651821056
 20
-352.7720832015672
 30
0.0
 11
-946.6146651821051
 21
-352.7720832015672
 31
0.0
  0
LINE
  5
B1
330
1F
100
AcDbEntity
  8
仕上
  6
Continuous
 62
     7
370
     9
100
AcDbLine
 10
-245.6146651821056
 20
-339.7719639591378
 30
0.0
 11
-946.6146651821051
 21
-339.7719639591378
 31
0.0
  0
LINE
  5
B2
330
1F
100
AcDbEntity
  8
仕上
  6
Continuous
 62
     7
370
     9
100
AcDbLine
 10
-245.6146651821056
 20
-345.7719983650554
 30
0.0
 11
-946.6146651821051
 21
-345.7719983650554
 31
0.0
  0
LINE
  5
B3
330
1F
100
AcDbEntity
  8
仕上
  6
Continuous
 62
     7
370
     9
100
AcDbLine
 10
-245.6146651821056
 20
-350.2720832015666
 30
0.0
 11
-946.6146651821051
 21
-350.2720832015666
 31
0.0
  0
LINE
  5
B4
330
1F
100
AcDbEntity
  8
仕上
  6
Continuous
 62
     7
370
     9
100
AcDbLine
 10
-946.6146651821051
 20
-352.7720832015666
 30
0.0
 11
-946.6146651821051
 21
348.2285125392632
 31
0.0
  0
LINE
  5
B5
330
1F
100
AcDbEntity
  8
仕上
  6
Continuous
 62
     7
370
     9
100
AcDbLine
 10
-942.1145803455953
 20
-335.2718791226266
 30
0.0
 11
-942.1145803455953
 21
330.7283084603246
 31
0.0
  0
LINE
  5
B6
330
1F
100
AcDbEntity
  8
仕上
  6
Continuous
 62
     7
370
     9
100
AcDbLine
 10
-245.6146651821056
 20
-352.7720832015666
 30
0.0
 11
-245.6146651821056
 21
348.2285125392632
 31
0.0
  0
LINE
  5
B7
330
1F
100
AcDbEntity
  8
仕上
  6
Continuous
 62
     7
370
     9
100
AcDbLine
 10
-250.1147500186163
 20
-335.2718791226266
 30
0.0
 11
-250.1147500186163
 21
330.7283084603246
 31
0.0
  0
LINE
  5
B8
330
1F
100
AcDbEntity
  8
仕上
  6
Continuous
 62
     3
370
     9
100
AcDbLine
 10
-751.114644856692
 20
123.2736479139544
 30
0.0
 11
-751.114644856692
 21
172.1827814237418
 31
0.0
  0
LINE
  5
B9
330
1F
100
AcDbEntity
  8
仕上
  6
Continuous
 62
     3
370
     9
100
AcDbLine
 10
-781.1146855075195
 20
172.1827814237418
 30
0.0
 11
-781.1146855075195
 21
123.2736479139544
 31
0.0
  0
LINE
  5
BA
330
1F
100
AcDbEntity
  8
仕上
  6
Continuous
 62
     3
370
     9
100
AcDbLine
 10
-781.1146855075195
 20
171.6827814237427
 30
0.0
 11
-751.114644856692
 21
171.6827814237427
 31
0.0
  0
LINE
  5
BB
330
1F
100
AcDbEntity
  8
仕上
  6
Continuous
 62
     3
370
     9
100
AcDbLine
 10
-781.1146855075195
 20
172.1827814237418
 30
0.0
 11
-751.114644856692
 21
172.1827814237418
 31
0.0
  0
LINE
  5
BC
330
1F
100
AcDbEntity
  8
仕上
  6
Continuous
 62
     3
370
     9
100
AcDbLine
 10
-781.1146855075195
 20
156.0942400726322
 30
0.0
 11
-751.114644856692
 21
156.0942400726322
 31
0.0
  0
LINE
  5
BD
330
1F
100
AcDbEntity
  8
仕上
  6
Continuous
 62
     3
370
     9
100
AcDbLine
 10
-781.1146855075195
 20
123.2736479139544
 30
0.0
 11
-751.114644856692
 21
123.2736479139544
 31
0.0
  0
LINE
  5
BE
330
1F
100
AcDbEntity
  8
仕上
  6
Continuous
 62
     3
370
     9
100
AcDbLine
 10
-781.1146855075195
 20
123.7736479139535
 30
0.0
 11
-751.114644856692
 21
123.7736479139535
 31
0.0
  0
LINE
  5
BF
330
1F
100
AcDbEntity
  8
仕上
  6
Continuous
 62
     3
370
     9
100
AcDbLine
 10
-781.1146855075195
 20
139.362189265064
 30
0.0
 11
-751.114644856692
 21
139.362189265064
 31
0.0
  0
LINE
  5
C0
330
1F
100
AcDbEntity
  8
仕上
  6
Continuous
 62
     3
370
     9
100
AcDbLine
 10
-441.1146855075195
 20
123.2736479139544
 30
0.0
 11
-441.1146855075195
 21
172.1827814237418
 31
0.0
  0
LINE
  5
C1
330
1F
100
AcDbEntity
  8
仕上
  6
Continuous
 62
     3
370
     9
100
AcDbLine
 10
-411.1146448566921
 20
172.1827814237418
 30
0.0
 11
-411.1146448566921
 21
123.2736479139544
 31
0.0
  0
LINE
  5
C2
330
1F
100
AcDbEntity
  8
仕上
  6
Continuous
 62
     3
370
     9
100
AcDbLine
 10
-411.1146448566921
 20
171.6827814237427
 30
0.0
 11
-441.1146855075195
 21
171.6827814237427
 31
0.0
  0
LINE
  5
C3
330
1F
100
AcDbEntity
  8
仕上
  6
Continuous
 62
     3
370
     9
100
AcDbLine
 10
-411.1146448566921
 20
172.1827814237418
 30
0.0
 11
-441.1146855075195
 21
172.1827814237418
 31
0.0
  0
LINE
  5
C4
330
1F
100
AcDbEntity
  8
仕上
  6
Continuous
 62
     3
370
     9
100
AcDbLine
 10
-411.1146448566921
 20
156.0942400726322
 30
0.0
 11
-441.1146855075195
 21
156.0942400726322
 31
0.0
  0
LINE
  5
C5
330
1F
100
AcDbEntity
  8
仕上
  6
Continuous
 62
     3
370
     9
100
AcDbLine
 10
-411.1146448566921
 20
123.2736479139544
 30
0.0
 11
-441.1146855075195
 21
123.2736479139544
 31
0.0
  0
LINE
  5
C6
330
1F
100
AcDbEntity
  8
仕上
  6
Continuous
 62
     3
370
     9
100
AcDbLine
 10
-411.1146448566921
 20
123.7736479139535
 30
0.0
 11
-441.1146855075195
 21
123.7736479139535
 31
0.0
  0
LINE
  5
C7
330
1F
100
AcDbEntity
  8
仕上
  6
Continuous
 62
     3
370
     9
100
AcDbLine
 10
-411.1146448566921
 20
139.362189265064
 30
0.0
 11
-441.1146855075195
 21
139.362189265064
 31
0.0
  0
LINE
  5
C8
330
1F
100
AcDbEntity
  8
仕上
  6
Continuous
 62
     3
370
     9
100
AcDbLine
 10
-751.114644856692
 20
-127.8172185762592
 30
0.0
 11
-751.114644856692
 21
-176.7263520860465
 31
0.0
  0
LINE
  5
C9
330
1F
100
AcDbEntity
  8
仕上
  6
Continuous
 62
     3
370
     9
100
AcDbLine
 10
-781.1146855075195
 20
-176.7263520860465
 30
0.0
 11
-781.1146855075195
 21
-127.8172185762592
 31
0.0
  0
LINE
  5
CA
330
1F
100
AcDbEntity
  8
仕上
  6
Continuous
 62
     3
370
     9
100
AcDbLine
 10
-781.1146855075195
 20
-176.226352086047
 30
0.0
 11
-751.114644856692
 21
-176.226352086047
 31
0.0
  0
LINE
  5
CB
330
1F
100
AcDbEntity
  8
仕上
  6
Continuous
 62
     3
370
     9
100
AcDbLine
 10
-781.1146855075195
 20
-176.7263520860465
 30
0.0
 11
-751.114644856692
 21
-176.7263520860465
 31
0.0
  0
LINE
  5
CC
330
1F
100
AcDbEntity
  8
仕上
  6
Continuous
 62
     3
370
     9
100
AcDbLine
 10
-781.1146855075195
 20
-160.6378107349369
 30
0.0
 11
-751.114644856692
 21
-160.6378107349369
 31
0.0
  0
LINE
  5
CD
330
1F
100
AcDbEntity
  8
仕上
  6
Continuous
 62
     3
370
     9
100
AcDbLine
 10
-781.1146855075195
 20
-127.8172185762592
 30
0.0
 11
-751.114644856692
 21
-127.8172185762592
 31
0.0
  0
LINE
  5
CE
330
1F
100
AcDbEntity
  8
仕上
  6
Continuous
 62
     3
370
     9
100
AcDbLine
 10
-781.1146855075195
 20
-128.3172185762587
 30
0.0
 11
-751.114644856692
 21
-128.3172185762587
 31
0.0
  0
LINE
  5
CF
330
1F
100
AcDbEntity
  8
仕上
  6
Continuous
 62
     3
370
     9
100
AcDbLine
 10
-781.1146855075195
 20
-143.9057599273688
 30
0.0
 11
-751.114644856692
 21
-143.9057599273688
 31
0.0
  0
LINE
  5
D0
330
1F
100
AcDbEntity
  8
仕上
  6
Continuous
 62
     3
370
     9
100
AcDbLine
 10
-441.1146855075195
 20
-127.8172185762592
 30
0.0
 11
-441.1146855075195
 21
-176.7263520860465
 31
0.0
  0
LINE
  5
D1
330
1F
100
AcDbEntity
  8
仕上
  6
Continuous
 62
     3
370
     9
100
AcDbLine
 10
-411.1146448566921
 20
-176.7263520860465
 30
0.0
 11
-411.1146448566921
 21
-127.8172185762592
 31
0.0
  0
LINE
  5
D2
330
1F
100
AcDbEntity
  8
仕上
  6
Continuous
 62
     3
370
     9
100
AcDbLine
 10
-411.1146448566921
 20
-176.226352086047
 30
0.0
 11
-441.1146855075195
 21
-176.226352086047
 31
0.0
  0
LINE
  5
D3
330
1F
100
AcDbEntity
  8
仕上
  6
Continuous
 62
     3
370
     9
100
AcDbLine
 10
-411.1146448566921
 20
-176.7263520860465
 30
0.0
 11
-441.1146855075195
 21
-176.7263520860465
 31
0.0
  0
LINE
  5
D4
330
1F
100
AcDbEntity
  8
仕上
  6
Continuous
 62
     3
370
     9
100
AcDbLine
 10
-411.1146448566921
 20
-160.6378107349369
 30
0.0
 11
-441.1146855075195
 21
-160.6378107349369
 31
0.0
  0
LINE
  5
D5
330
1F
100
AcDbEntity
  8
仕上
  6
Continuous
 62
     3
370
     9
100
AcDbLine
 10
-411.1146448566921
 20
-127.8172185762592
 30
0.0
 11
-441.1146855075195
 21
-127.8172185762592
 31
0.0
  0
LINE
  5
D6
330
1F
100
AcDbEntity
  8
仕上
  6
Continuous
 62
     3
370
     9
100
AcDbLine
 10
-411.1146448566921
 20
-128.3172185762587
 30
0.0
 11
-441.1146855075195
 21
-128.3172185762587
 31
0.0
  0
LINE
  5
D7
330
1F
100
AcDbEntity
  8
仕上
  6
Continuous
 62
     3
370
     9
100
AcDbLine
 10
-411.1146448566921
 20
-143.9057599273688
 30
0.0
 11
-441.1146855075195
 21
-143.9057599273688
 31
0.0
  0
LINE
  5
D8
330
1F
100
AcDbEntity
  8
仕上
  6
Continuous
 62
     2
370
     9
100
AcDbLine
 10
-809.1146551077701
 20
335.2283932968335
 30
0.0
 11
-809.1146551077701
 21
341.2284277027516
 31
0.0
  0
LINE
  5
D9
330
1F
100
AcDbEntity
  8
仕上
  6
Continuous
 62
     2
370
     9
100
AcDbLine
 10
-803.1144670535047
 20
335.2283932968335
 30
0.0
 11
-803.1144670535047
 21
341.2284277027516
 31
0.0
  0
LINE
  5
DA
330
1F
100
AcDbEntity
  8
仕上
  6
Continuous
 62
     2
370
     9
100
AcDbLine
 10
-809.1146551077701
 20
-339.7719639591378
 30
0.0
 11
-809.1146551077701
 21
-345.7719983650554
 31
0.0
  0
LINE
  5
DB
330
1F
100
AcDbEntity
  8
仕上
  6
Continuous
 62
     2
370
     9
100
AcDbLine
 10
-803.1144670535047
 20
-339.7719639591378
 30
0.0
 11
-803.1144670535047
 21
-345.7719983650554
 31
0.0
  0
LINE
  5
DC
330
1F
100
AcDbEntity
  8
仕上
  6
JWW_DASHED1
 62
     2
370
     9
100
AcDbLine
 10
-809.1146551077701
 20
-339.7719639591378
 30
0.0
 11
-809.1146551077701
 21
335.2283932968335
 31
0.0
  0
LINE
  5
DD
330
1F
100
AcDbEntity
  8
仕上
  6
JWW_DASHED1
 62
     2
370
     9
100
AcDbLine
 10
-803.1144670535047
 20
335.2283932968335
 30
0.0
 11
-803.1144670535047
 21
-339.7719639591378
 31
0.0
  0
LINE
  5
DE
330
1F
100
AcDbEntity
  8
仕上
  6
Continuous
 62
     2
370
     9
100
AcDbLine
 10
-669.1146551077701
 20
335.2283932968335
 30
0.0
 11
-669.1146551077701
 21
341.2284277027516
 31
0.0
  0
LINE
  5
DF
330
1F
100
AcDbEntity
  8
仕上
  6
Continuous
 62
     2
370
     9
100
AcDbLine
 10
-663.1144670535047
 20
335.2283932968335
 30
0.0
 11
-663.1144670535047
 21
341.2284277027516
 31
0.0
  0
LINE
  5
E0
330
1F
100
AcDbEntity
  8
仕上
  6
Continuous
 62
     2
370
     9
100
AcDbLine
 10
-669.1146551077701
 20
-339.7719639591378
 30
0.0
 11
-669.1146551077701
 21
-345.7719983650554
 31
0.0
  0
LINE
  5
E1
330
1F
100
AcDbEntity
  8
仕上
  6
Continuous
 62
     2
370
     9
100
AcDbLine
 10
-663.1144670535047
 20
-339.7719639591378
 30
0.0
 11
-663.1144670535047
 21
-345.7719983650554
 31
0.0
  0
LINE
  5
E2
330
1F
100
AcDbEntity
  8
仕上
  6
JWW_DASHED1
 62
     2
370
     9
100
AcDbLine
 10
-669.1146551077701
 20
-339.7719639591378
 30
0.0
 11
-669.1146551077701
 21
335.2283932968335
 31
0.0
  0
LINE
  5
E3
330
1F
100
AcDbEntity
  8
仕上
  6
JWW_DASHED1
 62
     2
370
     9
100
AcDbLine
 10
-663.1144670535047
 20
335.2283932968335
 30
0.0
 11
-663.1144670535047
 21
-339.7719639591378
 31
0.0
  0
LINE
  5
E4
330
1F
100
AcDbEntity
  8
仕上
  6
Continuous
 62
     2
370
     9
100
AcDbLine
 10
-529.1146551077701
 20
335.2283932968335
 30
0.0
 11
-529.1146551077701
 21
341.2284277027516
 31
0.0
  0
LINE
  5
E5
330
1F
100
AcDbEntity
  8
仕上
  6
Continuous
 62
     2
370
     9
100
AcDbLine
 10
-523.1144670535047
 20
335.2283932968335
 30
0.0
 11
-523.1144670535047
 21
341.2284277027516
 31
0.0
  0
LINE
  5
E6
330
1F
100
AcDbEntity
  8
仕上
  6
Continuous
 62
     2
370
     9
100
AcDbLine
 10
-529.1146551077701
 20
-339.7719639591378
 30
0.0
 11
-529.1146551077701
 21
-345.7719983650554
 31
0.0
  0
LINE
  5
E7
330
1F
100
AcDbEntity
  8
仕上
  6
Continuous
 62
     2
370
     9
100
AcDbLine
 10
-523.1144670535047
 20
-339.7719639591378
 30
0.0
 11
-523.1144670535047
 21
-345.7719983650554
 31
0.0
  0
LINE
  5
E8
330
1F
100
AcDbEntity
  8
仕上
  6
JWW_DASHED1
 62
     2
370
     9
100
AcDbLine
 10
-529.1146551077701
 20
-339.7719639591378
 30
0.0
 11
-529.1146551077701
 21
335.2283932968335
 31
0.0
  0
LINE
  5
E9
330
1F
100
AcDbEntity
  8
仕上
  6
JWW_DASHED1
 62
     2
370
     9
100
AcDbLine
 10
-523.1144670535047
 20
335.2283932968335
 30
0.0
 11
-523.1144670535047
 21
-339.7719639591378
 31
0.0
  0
LINE
  5
EA
330
1F
100
AcDbEntity
  8
仕上
  6
Continuous
 62
     2
370
     9
100
AcDbLine
 10
-389.1146551077701
 20
335.2283932968335
 30
0.0
 11
-389.1146551077701
 21
341.2284277027516
 31
0.0
  0
LINE
  5
EB
330
1F
100
AcDbEntity
  8
仕上
  6
Continuous
 62
     2
370
     9
100
AcDbLine
 10
-383.1144670535047
 20
335.2283932968335
 30
0.0
 11
-383.1144670535047
 21
341.2284277027516
 31
0.0
  0
LINE
  5
EC
330
1F
100
AcDbEntity
  8
仕上
  6
Continuous
 62
     2
370
     9
100
AcDbLine
 10
-389.1146551077701
 20
-339.7719639591378
 30
0.0
 11
-389.1146551077701
 21
-345.7719983650554
 31
0.0
  0
LINE
  5
ED
330
1F
100
AcDbEntity
  8
仕上
  6
Continuous
 62
     2
370
     9
100
AcDbLine
 10
-383.1144670535047
 20
-339.7719639591378
 30
0.0
 11
-383.1144670535047
 21
-345.7719983650554
 31
0.0
  0
LINE
  5
EE
330
1F
100
AcDbEntity
  8
仕上
  6
JWW_DASHED1
 62
     2
370
     9
100
AcDbLine
 10
-389.1146551077701
 20
-339.7719639591378
 30
0.0
 11
-389.1146551077701
 21
335.2283932968335
 31
0.0
  0
LINE
  5
EF
330
1F
100
AcDbEntity
  8
仕上
  6
JWW_DASHED1
 62
     2
370
     9
100
AcDbLine
 10
-383.1144670535047
 20
335.2283932968335
 30
0.0
 11
-383.1144670535047
 21
-339.7719639591378
 31
0.0
  0
LINE
  5
F0
330
1F
100
AcDbEntity
  8
仕上
  6
Continuous
 62
     7
370
     9
100
AcDbLine
 10
-803.8645186623818
 20
-350.2720832015666
 30
0.0
 11
-803.8645186623818
 21
-352.7720832015666
 31
0.0
  0
LINE
  5
F1
330
1F
100
AcDbEntity
  8
仕上
  6
Continuous
 62
     7
370
     9
100
AcDbLine
 10
-808.364603498893
 20
-350.2720832015666
 30
0.0
 11
-808.364603498893
 21
-352.7720832015666
 31
0.0
  0
LINE
  5
F2
330
1F
100
AcDbEntity
  8
仕上
  6
Continuous
 62
     7
370
     9
100
AcDbLine
 10
-808.364603498893
 20
-352.7720832015666
 30
0.0
 11
-803.8645186623818
 21
-352.7720832015666
 31
0.0
  0
LINE
  5
F3
330
1F
100
AcDbEntity
  8
仕上
  6
Continuous
 62
     7
370
     9
100
AcDbLine
 10
-803.8645186623818
 20
-339.7719639591378
 30
0.0
 11
-803.8645186623818
 21
-345.7719983650554
 31
0.0
  0
LINE
  5
F4
330
1F
100
AcDbEntity
  8
仕上
  6
Continuous
 62
     7
370
     9
100
AcDbLine
 10
-808.364603498893
 20
-339.7719639591378
 30
0.0
 11
-808.364603498893
 21
-345.7719983650554
 31
0.0
  0
LINE
  5
F5
330
1F
100
AcDbEntity
  8
仕上
  6
Continuous
 62
     7
370
     9
100
AcDbLine
 10
-663.8645186623818
 20
-350.2720832015666
 30
0.0
 11
-663.8645186623818
 21
-352.7720832015666
 31
0.0
  0
LINE
  5
F6
330
1F
100
AcDbEntity
  8
仕上
  6
Continuous
 62
     7
370
     9
100
AcDbLine
 10
-668.364603498893
 20
-350.2720832015666
 30
0.0
 11
-668.364603498893
 21
-352.7720832015666
 31
0.0
  0
LINE
  5
F7
330
1F
100
AcDbEntity
  8
仕上
  6
Continuous
 62
     7
370
     9
100
AcDbLine
 10
-668.364603498893
 20
-352.7720832015666
 30
0.0
 11
-663.8645186623818
 21
-352.7720832015666
 31
0.0
  0
LINE
  5
F8
330
1F
100
AcDbEntity
  8
仕上
  6
Continuous
 62
     7
370
     9
100
AcDbLine
 10
-663.8645186623818
 20
-339.7719639591378
 30
0.0
 11
-663.8645186623818
 21
-345.7719983650554
 31
0.0
  0
LINE
  5
F9
330
1F
100
AcDbEntity
  8
仕上
  6
Continuous
 62
     7
370
     9
100
AcDbLine
 10
-668.364603498893
 20
-339.7719639591378
 30
0.0
 11
-668.364603498893
 21
-345.7719983650554
 31
0.0
  0
LINE
  5
FA
330
1F
100
AcDbEntity
  8
仕上
  6
Continuous
 62
     7
370
     9
100
AcDbLine
 10
-523.8645186623818
 20
-350.2720832015666
 30
0.0
 11
-523.8645186623818
 21
-352.7720832015666
 31
0.0
  0
LINE
  5
FB
330
1F
100
AcDbEntity
  8
仕上
  6
Continuous
 62
     7
370
     9
100
AcDbLine
 10
-528.364603498893
 20
-350.2720832015666
 30
0.0
 11
-528.364603498893
 21
-352.7720832015666
 31
0.0
  0
LINE
  5
FC
330
1F
100
AcDbEntity
  8
仕上
  6
Continuous
 62
     7
370
     9
100
AcDbLine
 10
-528.364603498893
 20
-352.7720832015666
 30
0.0
 11
-523.8645186623818
 21
-352.7720832015666
 31
0.0
  0
LINE
  5
FD
330
1F
100
AcDbEntity
  8
仕上
  6
Continuous
 62
     7
370
     9
100
AcDbLine
 10
-523.8645186623818
 20
-339.7719639591378
 30
0.0
 11
-523.8645186623818
 21
-345.7719983650554
 31
0.0
  0
LINE
  5
FE
330
1F
100
AcDbEntity
  8
仕上
  6
Continuous
 62
     7
370
     9
100
AcDbLine
 10
-528.364603498893
 20
-339.7719639591378
 30
0.0
 11
-528.364603498893
 21
-345.7719983650554
 31
0.0
  0
LINE
  5
FF
330
1F
100
AcDbEntity
  8
仕上
  6
Continuous
 62
     7
370
     9
100
AcDbLine
 10
-383.8645186623818
 20
-350.2720832015666
 30
0.0
 11
-383.8645186623818
 21
-352.7720832015666
 31
0.0
  0
LINE
  5
100
330
1F
100
AcDbEntity
  8
仕上
  6
Continuous
 62
     7
370
     9
100
AcDbLine
 10
-388.364603498893
 20
-350.2720832015666
 30
0.0
 11
-388.364603498893
 21
-352.7720832015666
 31
0.0
  0
LINE
  5
101
330
1F
100
AcDbEntity
  8
仕上
  6
Continuous
 62
     7
370
     9
100
AcDbLine
 10
-388.364603498893
 20
-352.7720832015666
 30
0.0
 11
-383.8645186623818
 21
-352.7720832015666
 31
0.0
  0
LINE
  5
102
330
1F
100
AcDbEntity
  8
仕上
  6
Continuous
 62
     7
370
     9
100
AcDbLine
 10
-383.8645186623818
 20
-339.7719639591378
 30
0.0
 11
-383.8645186623818
 21
-345.7719983650554
 31
0.0
  0
LINE
  5
103
330
1F
100
AcDbEntity
  8
仕上
  6
Continuous
 62
     7
370
     9
100
AcDbLine
 10
-388.364603498893
 20
-339.7719639591378
 30
0.0
 11
-388.364603498893
 21
-345.7719983650554
 31
0.0
  0
LINE
  5
104
330
1F
100
AcDbEntity
  8
仕上
  6
Continuous
 62
     7
370
     9
100
AcDbLine
 10
-942.1145803455953
 20
341.2284277027507
 30
0.0
 11
-942.1145803455953
 21
335.2283932968335
 31
0.0
  0
LINE
  5
105
330
1F
100
AcDbEntity
  8
仕上
  6
Continuous
 62
     7
370
     9
100
AcDbLine
 10
-942.1145803455953
 20
348.2285125392614
 30
0.0
 11
-942.1145803455953
 21
345.7285125392614
 31
0.0
  0
LINE
  5
106
330
1F
100
AcDbEntity
  8
仕上
  6
Continuous
 62
     7
370
     9
100
AcDbLine
 10
-946.6146651821051
 20
348.2285125392614
 30
0.0
 11
-942.1145803455953
 21
348.2285125392614
 31
0.0
  0
LINE
  5
107
330
1F
100
AcDbEntity
  8
仕上
  6
Continuous
 62
     7
370
     9
100
AcDbLine
 10
-250.1147500186163
 20
341.2284277027507
 30
0.0
 11
-250.1147500186163
 21
335.2283932968335
 31
0.0
  0
LINE
  5
108
330
1F
100
AcDbEntity
  8
仕上
  6
Continuous
 62
     7
370
     9
100
AcDbLine
 10
-250.1147500186163
 20
348.2285125392614
 30
0.0
 11
-250.1147500186163
 21
345.7285125392614
 31
0.0
  0
LINE
  5
109
330
1F
100
AcDbEntity
  8
仕上
  6
Continuous
 62
     7
370
     9
100
AcDbLine
 10
-245.6146651821056
 20
348.2285125392614
 30
0.0
 11
-250.1147500186163
 21
348.2285125392614
 31
0.0
  0
LINE
  5
10A
330
1F
100
AcDbEntity
  8
仕上
  6
Continuous
 62
     7
370
     9
100
AcDbLine
 10
-803.8645186623818
 20
345.7285125392614
 30
0.0
 11
-803.8645186623818
 21
348.2285125392614
 31
0.0
  0
LINE
  5
10B
330
1F
100
AcDbEntity
  8
仕上
  6
Continuous
 62
     7
370
     9
100
AcDbLine
 10
-808.364603498893
 20
345.7285125392614
 30
0.0
 11
-808.364603498893
 21
348.2285125392614
 31
0.0
  0
LINE
  5
10C
330
1F
100
AcDbEntity
  8
仕上
  6
Continuous
 62
     7
370
     9
100
AcDbLine
 10
-808.364603498893
 20
348.2285125392614
 30
0.0
 11
-803.8645186623818
 21
348.2285125392614
 31
0.0
  0
LINE
  5
10D
330
1F
100
AcDbEntity
  8
仕上
  6
Continuous
 62
     7
370
     9
100
AcDbLine
 10
-803.8645186623818
 20
335.2283932968335
 30
0.0
 11
-803.8645186623818
 21
341.2284277027507
 31
0.0
  0
LINE
  5
10E
330
1F
100
AcDbEntity
  8
仕上
  6
Continuous
 62
     7
370
     9
100
AcDbLine
 10
-808.364603498893
 20
335.2283932968335
 30
0.0
 11
-808.364603498893
 21
341.2284277027507
 31
0.0
  0
LINE
  5
10F
330
1F
100
AcDbEntity
  8
仕上
  6
Continuous
 62
     7
370
     9
100
AcDbLine
 10
-663.8645186623818
 20
345.7285125392614
 30
0.0
 11
-663.8645186623818
 21
348.2285125392614
 31
0.0
  0
LINE
  5
110
330
1F
100
AcDbEntity
  8
仕上
  6
Continuous
 62
     7
370
     9
100
AcDbLine
 10
-668.364603498893
 20
345.7285125392614
 30
0.0
 11
-668.364603498893
 21
348.2285125392614
 31
0.0
  0
LINE
  5
111
330
1F
100
AcDbEntity
  8
仕上
  6
Continuous
 62
     7
370
     9
100
AcDbLine
 10
-668.364603498893
 20
348.2285125392614
 30
0.0
 11
-663.8645186623818
 21
348.2285125392614
 31
0.0
  0
LINE
  5
112
330
1F
100
AcDbEntity
  8
仕上
  6
Continuous
 62
     7
370
     9
100
AcDbLine
 10
-663.8645186623818
 20
335.2283932968335
 30
0.0
 11
-663.8645186623818
 21
341.2284277027507
 31
0.0
  0
LINE
  5
113
330
1F
100
AcDbEntity
  8
仕上
  6
Continuous
 62
     7
370
     9
100
AcDbLine
 10
-668.364603498893
 20
335.2283932968335
 30
0.0
 11
-668.364603498893
 21
341.2284277027507
 31
0.0
  0
LINE
  5
114
330
1F
100
AcDbEntity
  8
仕上
  6
Continuous
 62
     7
370
     9
100
AcDbLine
 10
-523.8645186623818
 20
345.7285125392614
 30
0.0
 11
-523.8645186623818
 21
348.2285125392614
 31
0.0
  0
LINE
  5
115
330
1F
100
AcDbEntity
  8
仕上
  6
Continuous
 62
     7
370
     9
100
AcDbLine
 10
-528.364603498893
 20
345.7285125392614
 30
0.0
 11
-528.364603498893
 21
348.2285125392614
 31
0.0
  0
LINE
  5
116
330
1F
100
AcDbEntity
  8
仕上
  6
Continuous
 62
     7
370
     9
100
AcDbLine
 10
-528.364603498893
 20
348.2285125392614
 30
0.0
 11
-523.8645186623818
 21
348.2285125392614
 31
0.0
  0
LINE
  5
117
330
1F
100
AcDbEntity
  8
仕上
  6
Continuous
 62
     7
370
     9
100
AcDbLine
 10
-523.8645186623818
 20
335.2283932968335
 30
0.0
 11
-523.8645186623818
 21
341.2284277027507
 31
0.0
  0
LINE
  5
118
330
1F
100
AcDbEntity
  8
仕上
  6
Continuous
 62
     7
370
     9
100
AcDbLine
 10
-528.364603498893
 20
335.2283932968335
 30
0.0
 11
-528.364603498893
 21
341.2284277027507
 31
0.0
  0
LINE
  5
119
330
1F
100
AcDbEntity
  8
仕上
  6
Continuous
 62
     7
370
     9
100
AcDbLine
 10
-383.8645186623818
 20
345.7285125392614
 30
0.0
 11
-383.8645186623818
 21
348.2285125392614
 31
0.0
  0
LINE
  5
11A
330
1F
100
AcDbEntity
  8
仕上
  6
Continuous
 62
     7
370
     9
100
AcDbLine
 10
-388.364603498893
 20
345.7285125392614
 30
0.0
 11
-388.364603498893
 21
348.2285125392614
 31
0.0
  0
LINE
  5
11B
330
1F
100
AcDbEntity
  8
仕上
  6
Continuous
 62
     7
370
     9
100
AcDbLine
 10
-388.364603498893
 20
348.2285125392614
 30
0.0
 11
-383.8645186623818
 21
348.2285125392614
 31
0.0
  0
LINE
  5
11C
330
1F
100
AcDbEntity
  8
仕上
  6
Continuous
 62
     7
370
     9
100
AcDbLine
 10
-383.8645186623818
 20
335.2283932968335
 30
0.0
 11
-383.8645186623818
 21
341.2284277027507
 31
0.0
  0
LINE
  5
11D
330
1F
100
AcDbEntity
  8
仕上
  6
Continuous
 62
     7
370
     9
100
AcDbLine
 10
-388.364603498893
 20
335.2283932968335
 30
0.0
 11
-388.364603498893
 21
341.2284277027507
 31
0.0
  0
LINE
  5
11E
330
1F
100
AcDbEntity
  8
躯体
  6
JWW_DASHED3
 62
     2
370
     9
100
AcDbLine
 10
-896.1146651821056
 20
-302.2717853311524
 30
0.0
 11
-896.1146651821056
 21
297.7282146688477
 31
0.0
  0
LINE
  5
11F
330
1F
100
AcDbEntity
  8
躯体
  6
JWW_DASHED3
 62
     2
370
     9
100
AcDbLine
 10
-896.1146651821056
 20
297.7282146688477
 30
0.0
 11
-296.114665182106
 21
297.7282146688477
 31
0.0
  0
LINE
  5
120
330
1F
100
AcDbEntity
  8
躯体
  6
JWW_DASHED3
 62
     2
370
     9
100
AcDbLine
 10
-296.114665182106
 20
297.7282146688477
 30
0.0
 11
-296.114665182106
 21
-302.2717853311524
 31
0.0
  0
LINE
  5
121
330
1F
100
AcDbEntity
  8
躯体
  6
JWW_DASHED3
 62
     2
370
     9
100
AcDbLine
 10
-296.114665182106
 20
-302.2717853311524
 30
0.0
 11
-896.1146651821056
 21
-302.2717853311524
 31
0.0
  0
LINE
  5
122
330
1F
100
AcDbEntity
  8
その他
  6
Continuous
 62
     7
370
     9
100
AcDbLine
 10
-250.1147500186163
 20
417.9302920124638
 30
0.0
 11
-942.1145803455953
 21
417.9302920124638
 31
0.0
  0
LWPOLYLINE
  5
123
330
1F
100
AcDbEntity
  8
その他
  6
Continuous
 62
     7
370
     9
100
AcDbPolyline
 90
        4
 70
     1
 43
0.4
 10
-249.9147500186163
 20
417.9302920124638
 42
0.4142135623731
 10
-250.1147500186163
 20
418.1302920124638
 42
0.4142135623731
 10
-250.3147500186163
 20
417.9302920124638
 42
0.4142135623731
 10
-250.1147500186163
 20
417.7302920124638
 42
0.4142135623731
  0
LWPOLYLINE
  5
124
330
1F
100
AcDbEntity
  8
その他
  6
Continuous
 62
     7
370
     9
100
AcDbPolyline
 90
        4
 70
     1
 43
0.4
 10
-941.9145803455953
 20
417.9302920124638
 42
0.4142135623731
 10
-942.1145803455953
 20
418.1302920124638
 42
0.4142135623731
 10
-942.3145803455953
 20
417.9302920124638
 42
0.4142135623731
 10
-942.1145803455953
 20
417.7302920124638
 42
0.4142135623731
  0
TEXT
  5
125
330
1F
100
AcDbEntity
  8
その他
  6
Continuous
 62
     2
370
   211
100
AcDbText
 10
-609.1146651821058
 20
425.1862920124638
 30
0.0
 40
12.192
  1
692
 41
1.083333333333333
  7
ＭＳ ゴシック
100
AcDbText
  0
LINE
  5
126
330
1F
100
AcDbEntity
  8
その他
  6
Continuous
 62
     7
370
     9
100
AcDbLine
 10
-942.1145803455953
 20
419.4302920124638
 30
0.0
 11
-942.1145803455953
 21
373.2256618900583
 31
0.0
  0
LINE
  5
127
330
1F
100
AcDbEntity
  8
その他
  6
Continuous
 62
     7
370
     9
100
AcDbLine
 10
-250.1147500186163
 20
419.4302920124638
 30
0.0
 11
-250.1147500186163
 21
373.2256618900583
 31
0.0
  0
LINE
  5
128
330
1F
100
AcDbEntity
  8
その他
  6
Continuous
 62
     7
370
     9
100
AcDbLine
 10
-946.6146651821051
 20
459.9882675456922
 30
0.0
 11
-245.6146651821056
 21
459.9882675456922
 31
0.0
  0
LWPOLYLINE
  5
129
330
1F
100
AcDbEntity
  8
その他
  6
Continuous
 62
     7
370
     9
100
AcDbPolyline
 90
        4
 70
     1
 43
0.4
 10
-946.4146651821051
 20
459.9882675456922
 42
0.4142135623731
 10
-946.6146651821051
 20
460.1882675456922
 42
0.4142135623731
 10
-946.8146651821052
 20
459.9882675456922
 42
0.4142135623731
 10
-946.6146651821051
 20
459.7882675456922
 42
0.4142135623731
  0
LWPOLYLINE
  5
12A
330
1F
100
AcDbEntity
  8
その他
  6
Continuous
 62
     7
370
     9
100
AcDbPolyline
 90
        4
 70
     1
 43
0.4
 10
-245.4146651821056
 20
459.9882675456922
 42
0.4142135623731
 10
-245.6146651821056
 20
460.1882675456922
 42
0.4142135623731
 10
-245.8146651821056
 20
459.9882675456922
 42
0.4142135623731
 10
-245.6146651821056
 20
459.7882675456922
 42
0.4142135623731
  0
TEXT
  5
12B
330
1F
100
AcDbEntity
  8
その他
  6
Continuous
 62
     2
370
   211
100
AcDbText
 10
-609.1146651821056
 20
467.2442675456922
 30
0.0
 40
12.192
  1
701
 41
1.083333333333333
  7
ＭＳ ゴシック
100
AcDbText
  0
LINE
  5
12C
330
1F
100
AcDbEntity
  8
その他
  6
Continuous
 62
     7
370
     9
100
AcDbLine
 10
-946.6146651821051
 20
461.4882675456922
 30
0.0
 11
-946.6146651821051
 21
373.2256618900583
 31
0.0
  0
LINE
  5
12D
330
1F
100
AcDbEntity
  8
その他
  6
Continuous
 62
     7
370
     9
100
AcDbLine
 10
-245.6146651821056
 20
461.4882675456922
 30
0.0
 11
-245.6146651821056
 21
373.2256618900583
 31
0.0
  0
LINE
  5
12E
330
1F
100
AcDbEntity
  8
その他
  6
Continuous
 62
     7
370
     9
100
AcDbLine
 10
-956.114646624119
 20
-432.8141598534842
 30
0.0
 11
-846.1145311522017
 21
-432.8141598534842
 31
0.0
  0
LWPOLYLINE
  5
12F
330
1F
100
AcDbEntity
  8
その他
  6
Continuous
 62
     7
370
     9
100
AcDbPolyline
 90
        4
 70
     1
 43
0.4
 10
-955.914646624119
 20
-432.8141598534842
 42
0.4142135623731
 10
-956.114646624119
 20
-432.6141598534842
 42
0.4142135623731
 10
-956.3146466241191
 20
-432.8141598534842
 42
0.4142135623731
 10
-956.114646624119
 20
-433.0141598534842
 42
0.4142135623731
  0
LWPOLYLINE
  5
130
330
1F
100
AcDbEntity
  8
その他
  6
Continuous
 62
     7
370
     9
100
AcDbPolyline
 90
        4
 70
     1
 43
0.4
 10
-845.9145311522017
 20
-432.8141598534842
 42
0.4142135623731
 10
-846.1145311522017
 20
-432.6141598534842
 42
0.4142135623731
 10
-846.3145311522018
 20
-432.8141598534842
 42
0.4142135623731
 10
-846.1145311522017
 20
-433.0141598534842
 42
0.4142135623731
  0
LINE
  5
131
330
1F
100
AcDbEntity
  8
その他
  6
Continuous
 62
     7
370
     9
100
AcDbLine
 10
-956.114646624119
 20
-434.3141598534842
 30
0.0
 11
-956.114646624119
 21
-372.2717667731657
 31
0.0
  0
LINE
  5
132
330
1F
100
AcDbEntity
  8
その他
  6
Continuous
 62
     7
370
     9
100
AcDbLine
 10
-846.1145311522017
 20
-434.3141598534842
 30
0.0
 11
-846.1145311522017
 21
-392.8718743270086
 31
0.0
  0
TEXT
  5
133
330
1F
100
AcDbEntity
  8
その他
  6
Continuous
 62
     2
370
   211
100
AcDbText
 10
-914.1145888881603
 20
-425.5581598534842
 30
0.0
 40
12.192
  1
110
 41
1.083333333333333
  7
ＭＳ ゴシック
100
AcDbText
  0
LINE
  5
134
330
1F
100
AcDbEntity
  8
その他
  6
Continuous
 62
     7
370
     9
100
AcDbLine
 10
-846.1145311522017
 20
-432.8141598534842
 30
0.0
 11
-346.1145827021647
 21
-432.8141598534842
 31
0.0
  0
LWPOLYLINE
  5
135
330
1F
100
AcDbEntity
  8
その他
  6
Continuous
 62
     7
370
     9
100
AcDbPolyline
 90
        4
 70
     1
 43
0.4
 10
-345.9145827021648
 20
-432.8141598534842
 42
0.4142135623731
 10
-346.1145827021647
 20
-432.6141598534842
 42
0.4142135623731
 10
-346.3145827021647
 20
-432.8141598534842
 42
0.4142135623731
 10
-346.1145827021647
 20
-433.0141598534842
 42
0.4142135623731
  0
LINE
  5
136
330
1F
100
AcDbEntity
  8
その他
  6
Continuous
 62
     7
370
     9
100
AcDbLine
 10
-346.1145827021647
 20
-434.3141598534842
 30
0.0
 11
-346.1145827021647
 21
-392.8718743270086
 31
0.0
  0
TEXT
  5
137
330
1F
100
AcDbEntity
  8
その他
  6
Continuous
 62
     2
370
   211
100
AcDbText
 10
-609.1145569271831
 20
-425.5581598534842
 30
0.0
 40
12.192
  1
500
 41
1.083333333333333
  7
ＭＳ ゴシック
100
AcDbText
  0
LINE
  5
138
330
1F
100
AcDbEntity
  8
その他
  6
Continuous
 62
     7
370
     9
100
AcDbLine
 10
-346.1145827021647
 20
-432.8141598534842
 30
0.0
 11
-236.1147146700702
 21
-432.8141598534842
 31
0.0
  0
LWPOLYLINE
  5
139
330
1F
100
AcDbEntity
  8
その他
  6
Continuous
 62
     7
370
     9
100
AcDbPolyline
 90
        4
 70
     1
 43
0.4
 10
-235.9147146700702
 20
-432.8141598534842
 42
0.4142135623731
 10
-236.1147146700702
 20
-432.6141598534842
 42
0.4142135623731
 10
-236.3147146700701
 20
-432.8141598534842
 42
0.4142135623731
 10
-236.1147146700702
 20
-433.0141598534842
 42
0.4142135623731
  0
LINE
  5
13A
330
1F
100
AcDbEntity
  8
その他
  6
Continuous
 62
     7
370
     9
100
AcDbLine
 10
-236.1147146700702
 20
-434.3141598534842
 30
0.0
 11
-236.1147146700702
 21
-372.2717667731657
 31
0.0
  0
TEXT
  5
13B
330
1F
100
AcDbEntity
  8
その他
  6
Continuous
 62
     2
370
   211
100
AcDbText
 10
-304.1146486861172
 20
-425.5581598534842
 30
0.0
 40
12.192
  1
110
 41
1.083333333333333
  7
ＭＳ ゴシック
100
AcDbText
  0
CIRCLE
  5
13C
330
1F
100
AcDbEntity
  8
仕上
  6
Continuous
 62
     7
370
     9
100
AcDbCircle
 10
-916.6146651821051
 20
315.2283932968335
 30
0.0
 40
5.0
  0
LINE
  5
13D
330
1F
100
AcDbEntity
  8
通り芯
  6
JWW_CENTER2
 62
     7
370
     9
100
AcDbLine
 10
-916.6146651821051
 20
322.2283932968335
 30
0.0
 11
-916.6146651821051
 21
308.2283932968335
 31
0.0
  0
LINE
  5
13E
330
1F
100
AcDbEntity
  8
通り芯
  6
JWW_CENTER2
 62
     7
370
     9
100
AcDbLine
 10
-909.6146651821051
 20
315.2283932968335
 30
0.0
 11
-923.6146651821051
 21
315.2283932968335
 31
0.0
  0
LINE
  5
13F
330
1F
100
AcDbEntity
  8
その他
  6
Continuous
 62
     7
370
     9
100
AcDbLine
 10
-919.1146651821051
 20
310.8982662779113
 30
0.0
 11
-925.2022794721923
 21
302.9647328749988
 31
0.0
  0
LINE
  5
140
330
1F
100
AcDbEntity
  8
その他
  6
Continuous
 62
     7
370
     9
100
AcDbLine
 10
-919.1146651821051
 20
310.8982662779113
 30
0.0
 11
-922.941499505756
 21
301.6594709527983
 31
0.0
  0
LINE
  5
141
330
1F
100
AcDbEntity
  8
その他
  6
Continuous
 62
     7
370
     9
100
AcDbLine
 10
-965.6946594596209
 20
230.2193495729866
 30
0.0
 11
-919.1146651821051
 21
310.8982662779113
 31
0.0
  0
LINE
  5
142
330
1F
100
AcDbEntity
  8
その他
  6
Continuous
 62
     7
370
     9
100
AcDbLine
 10
-1006.511247634557
 20
230.2193495729866
 30
0.0
 11
-965.6946594596209
 21
230.2193495729866
 31
0.0
  0
TEXT
  5
143
330
1F
100
AcDbEntity
  8
その他
  6
Continuous
 62
     2
370
     9
100
AcDbText
 10
-1005.064132977844
 20
235.4832823234926
 30
0.0
 40
12.192
  1
φ10
 41
1.09375
  7
ＭＳ ゴシック
100
AcDbText
  0
LINE
  5
144
330
1F
100
AcDbEntity
  8
建具
  6
Continuous
 62
     4
370
     9
100
AcDbLine
 10
186.7422138232979
 20
351.7282134316486
 30
0.0
 11
105.5423616273521
 21
351.7282134316486
 31
0.0
  0
LINE
  5
145
330
1F
100
AcDbEntity
  8
建具
  6
Continuous
 62
     4
370
     9
100
AcDbLine
 10
190.7423259960175
 20
297.7280600189584
 30
0.0
 11
196.7422468152742
 21
297.7280600189584
 31
0.0
  0
LINE
  5
146
330
1F
100
AcDbEntity
  8
建具
  6
Continuous
 62
     4
370
     9
100
AcDbLine
 10
196.7422468152742
 20
297.7280600189584
 30
0.0
 11
196.7422468152742
 21
347.7281012589289
 31
0.0
  0
LINE
  5
147
330
1F
100
AcDbEntity
  8
建具
  6
Continuous
 62
     4
370
     9
100
AcDbLine
 10
166.7421478393454
 20
357.7281342509052
 30
0.0
 11
166.7421478393454
 21
366.7280154797903
 31
0.0
  0
LINE
  5
148
330
1F
100
AcDbEntity
  8
建具
  6
Continuous
 62
     4
370
     9
100
AcDbLine
 10
180.55720801671
 20
357.7281342509052
 30
0.0
 11
166.7421478393454
 21
357.7281342509052
 31
0.0
  0
LINE
  5
149
330
1F
100
AcDbEntity
  8
建具
  6
Continuous
 62
     4
370
     9
100
AcDbLine
 10
180.5577028963554
 20
366.7280154797903
 30
0.0
 11
166.7421478393454
 21
366.7280154797903
 31
0.0
  0
LINE
  5
14A
330
1F
100
AcDbEntity
  8
建具
  6
Continuous
 62
     4
370
     9
100
AcDbLine
 10
185.2160049972846
 20
358.3412901313952
 30
0.0
 11
243.4069229660346
 21
369.634567356374
 31
0.0
  0
LINE
  5
14B
330
1F
100
AcDbEntity
  8
建具
  6
Continuous
 62
     4
370
     9
100
AcDbLine
 10
182.8871013866425
 20
367.0348408598579
 30
0.0
 11
241.0775244757471
 21
378.3282418047481
 31
0.0
  0
LINE
  5
14C
330
1F
100
AcDbEntity
  8
建具
  6
JWW_CENTER2
 62
     4
370
     9
100
AcDbLine
 10
180.55720801671
 20
362.2279511454365
 30
0.0
 11
162.9375131265075
 21
362.2279511454365
 31
0.0
  0
LINE
  5
14D
330
1F
100
AcDbEntity
  8
建具
  6
JWW_CENTER2
 62
     4
370
     9
100
AcDbLine
 10
184.0515531919638
 20
362.6879417757152
 30
0.0
 11
249.2182946404434
 21
375.8506268607026
 31
0.0
  0
LINE
  5
14E
330
1F
100
AcDbEntity
  8
建具
  6
Continuous
 62
     4
370
     9
100
AcDbLine
 10
186.7422138232979
 20
-356.2719078138647
 30
0.0
 11
105.5423616273521
 21
-356.2719078138647
 31
0.0
  0
LINE
  5
14F
330
1F
100
AcDbEntity
  8
建具
  6
Continuous
 62
     4
370
     9
100
AcDbLine
 10
105.5423616273521
 20
-356.2719078138647
 30
0.0
 11
105.5423616273521
 21
-362.2717667731657
 31
0.0
  0
LINE
  5
150
330
1F
100
AcDbEntity
  8
建具
  6
Continuous
 62
     4
370
     9
100
AcDbLine
 10
105.5423616273521
 20
-362.2717667731657
 30
0.0
 11
186.7422138232979
 21
-362.2717667731657
 31
0.0
  0
LINE
  5
151
330
1F
100
AcDbEntity
  8
建具
  6
Continuous
 62
     4
370
     9
100
AcDbLine
 10
190.7423259960175
 20
-302.2718781210858
 30
0.0
 11
196.7422468152742
 21
-302.2718781210858
 31
0.0
  0
LINE
  5
152
330
1F
100
AcDbEntity
  8
建具
  6
Continuous
 62
     4
370
     9
100
AcDbLine
 10
196.7422468152742
 20
-302.2718781210858
 30
0.0
 11
196.7422468152742
 21
-352.2717337811895
 31
0.0
  0
LINE
  5
153
330
1F
100
AcDbEntity
  8
建具
  6
Continuous
 62
     4
370
     9
100
AcDbLine
 10
166.7421478393454
 20
-362.2717667731657
 30
0.0
 11
166.7421478393454
 21
-371.2716480020509
 31
0.0
  0
LINE
  5
154
330
1F
100
AcDbEntity
  8
建具
  6
Continuous
 62
     4
370
     9
100
AcDbLine
 10
180.55720801671
 20
-362.2717667731657
 30
0.0
 11
166.7421478393454
 21
-362.2717667731657
 31
0.0
  0
LINE
  5
155
330
1F
100
AcDbEntity
  8
建具
  6
Continuous
 62
     4
370
     9
100
AcDbLine
 10
180.5577028963554
 20
-371.2716480020509
 30
0.0
 11
166.7421478393454
 21
-371.2716480020509
 31
0.0
  0
LINE
  5
156
330
1F
100
AcDbEntity
  8
建具
  6
Continuous
 62
     4
370
     9
100
AcDbLine
 10
185.2160049972846
 20
-362.8849226536557
 30
0.0
 11
243.4069229660346
 21
-374.1784473184572
 31
0.0
  0
LINE
  5
157
330
1F
100
AcDbEntity
  8
建具
  6
Continuous
 62
     4
370
     9
100
AcDbLine
 10
182.8871013866425
 20
-371.5784733821185
 30
0.0
 11
241.0775244757471
 21
-382.8718743270086
 31
0.0
  0
LINE
  5
158
330
1F
100
AcDbEntity
  8
建具
  6
JWW_CENTER2
 62
     4
370
     9
100
AcDbLine
 10
180.55720801671
 20
-366.7717073876083
 30
0.0
 11
162.9375131265075
 21
-366.7717073876083
 31
0.0
  0
LINE
  5
159
330
1F
100
AcDbEntity
  8
建具
  6
JWW_CENTER2
 62
     4
370
     9
100
AcDbLine
 10
184.0515531919638
 20
-367.2318217377984
 30
0.0
 11
249.2182946404434
 21
-380.3943831028745
 31
0.0
  0
LINE
  5
15A
330
1F
100
AcDbEntity
  8
建具
  6
Continuous
 62
     4
370
     9
100
AcDbLine
 10
105.5423616273521
 20
357.7281342509052
 30
0.0
 11
186.7422138232979
 21
357.7281342509052
 31
0.0
  0
LINE
  5
15B
330
1F
100
AcDbEntity
  8
建具
  6
Continuous
 62
     4
370
     9
100
AcDbLine
 10
190.7423259960175
 20
-352.2717337811895
 30
0.0
 11
190.7423259960175
 21
-302.2718781210858
 31
0.0
  0
LINE
  5
15C
330
1F
100
AcDbEntity
  8
建具
  6
Continuous
 62
     4
370
     9
100
AcDbLine
 10
190.7423259960175
 20
347.7281012589289
 30
0.0
 11
190.7423259960175
 21
297.7280600189584
 31
0.0
  0
LINE
  5
15D
330
1F
100
AcDbEntity
  8
建具
  6
Continuous
 62
     4
370
     9
100
AcDbLine
 10
105.5423616273521
 20
351.7282134316486
 30
0.0
 11
105.5423616273521
 21
357.7281342509052
 31
0.0
  0
ARC
  5
15E
330
1F
100
AcDbEntity
  8
建具
  6
Continuous
 62
     4
370
     9
100
AcDbCircle
 10
186.7422138232979
 20
347.7281012589289
 30
0.0
 40
3.999999809909511
100
AcDbArc
 50
0.0
 51
90.0
  0
ARC
  5
15F
330
1F
100
AcDbEntity
  8
建具
  6
Continuous
 62
     4
370
     9
100
AcDbCircle
 10
186.7422138232979
 20
347.7281012589289
 30
0.0
 40
9.9999991623131
100
AcDbArc
 50
0.0
 51
90.0
  0
ARC
  5
160
330
1F
100
AcDbEntity
  8
建具
  6
Continuous
 62
     4
370
     9
100
AcDbCircle
 10
180.55720801671
 20
375.7281441484981
 30
0.0
 40
17.99999829885122
100
AcDbArc
 50
270.0
 51
285.0
  0
ARC
  5
161
330
1F
100
AcDbEntity
  8
建具
  6
Continuous
 62
     4
370
     9
100
AcDbCircle
 10
242.2424711607138
 20
373.9814664405168
 30
0.0
 40
4.499999574712805
100
AcDbArc
 50
285.0001373291016
 51
104.9999084472657
  0
ARC
  5
162
330
1F
100
AcDbEntity
  8
建具
  6
JWW_CENTER2
 62
     4
370
     9
100
AcDbCircle
 10
180.55720801671
 20
375.7281441484981
 30
0.0
 40
13.50000065726203
100
AcDbArc
 50
270.0
 51
284.9999542236328
  0
ARC
  5
163
330
1F
100
AcDbEntity
  8
建具
  6
Continuous
 62
     4
370
     9
100
AcDbCircle
 10
180.5577028963554
 20
375.7281441484981
 30
0.0
 40
8.99999914942561
100
AcDbArc
 50
270.0
 51
285.0000152587891
  0
ARC
  5
164
330
1F
100
AcDbEntity
  8
建具
  6
Continuous
 62
     4
370
     9
100
AcDbCircle
 10
186.7422138232979
 20
-352.2717337811895
 30
0.0
 40
3.999999809909511
100
AcDbArc
 50
270.0
 51
0.0
  0
ARC
  5
165
330
1F
100
AcDbEntity
  8
建具
  6
Continuous
 62
     4
370
     9
100
AcDbCircle
 10
186.7422138232979
 20
-352.2717337811895
 30
0.0
 40
9.9999991623131
100
AcDbArc
 50
270.0
 51
0.0
  0
ARC
  5
166
330
1F
100
AcDbEntity
  8
建具
  6
Continuous
 62
     4
370
     9
100
AcDbCircle
 10
180.55720801671
 20
-380.27190039067
 30
0.0
 40
17.99999829885122
100
AcDbArc
 50
74.99999999999999
 51
89.99999999999999
  0
ARC
  5
167
330
1F
100
AcDbEntity
  8
建具
  6
Continuous
 62
     4
370
     9
100
AcDbCircle
 10
242.2424711607138
 20
-378.5252226826885
 30
0.0
 40
4.499999574712805
100
AcDbArc
 50
255.0000915527343
 51
74.99986267089842
  0
ARC
  5
168
330
1F
100
AcDbEntity
  8
建具
  6
JWW_CENTER2
 62
     4
370
     9
100
AcDbCircle
 10
180.55720801671
 20
-380.27190039067
 30
0.0
 40
13.50000065726203
100
AcDbArc
 50
75.00004577636717
 51
90.0
  0
ARC
  5
169
330
1F
100
AcDbEntity
  8
建具
  6
Continuous
 62
     4
370
     9
100
AcDbCircle
 10
180.5577028963554
 20
-380.27190039067
 30
0.0
 40
8.99999914942561
100
AcDbArc
 50
74.99998474121095
 51
90.00000000000001
  0
LINE
  5
16A
330
1F
100
AcDbEntity
  8
仕上
  6
Continuous
 62
     7
370
     9
100
AcDbLine
 10
146.7422501144726
 20
348.2283888193505
 30
0.0
 11
118.0420399555821
 21
348.2283888193505
 31
0.0
  0
LINE
  5
16B
330
1F
100
AcDbEntity
  8
仕上
  6
Continuous
 62
     7
370
     9
100
AcDbLine
 10
118.0420399555821
 20
348.2283888193505
 30
0.0
 11
118.0420399555821
 21
345.7283888193505
 31
0.0
  0
LINE
  5
16C
330
1F
100
AcDbEntity
  8
仕上
  6
Continuous
 62
     7
370
     9
100
AcDbLine
 10
114.542039955583
 20
341.2284482049062
 30
0.0
 11
114.542039955583
 21
335.2282695769208
 31
0.0
  0
LINE
  5
16D
330
1F
100
AcDbEntity
  8
仕上
  6
Continuous
 62
     7
370
     9
100
AcDbLine
 10
127.7422121736996
 20
342.2283421592691
 30
0.0
 11
127.7422121736996
 21
335.2282695769208
 31
0.0
  0
LINE
  5
16E
330
1F
100
AcDbEntity
  8
仕上
  6
Continuous
 62
     7
370
     9
100
AcDbLine
 10
146.7422501144726
 20
335.2282695769208
 30
0.0
 11
105.5420350067849
 21
335.2282695769208
 31
0.0
  0
LINE
  5
16F
330
1F
100
AcDbEntity
  8
仕上
  6
Continuous
 62
     7
370
     9
100
AcDbLine
 10
143.5422346082434
 20
330.7283289624792
 30
0.0
 11
105.5420350067849
 21
330.7283289624792
 31
0.0
  0
LINE
  5
170
330
1F
100
AcDbEntity
  8
仕上
  6
Continuous
 62
     7
370
     9
100
AcDbLine
 10
121.5421125379309
 20
345.7283888193505
 30
0.0
 11
121.5421125379309
 21
341.2284482049089
 31
0.0
  0
LINE
  5
171
330
1F
100
AcDbEntity
  8
仕上
  6
Continuous
 62
     7
370
     9
100
AcDbLine
 10
105.5420350067849
 20
345.7283888193505
 30
0.0
 11
105.5420350067849
 21
341.2284482049089
 31
0.0
  0
LINE
  5
172
330
1F
100
AcDbEntity
  8
仕上
  6
Continuous
 62
     7
370
     9
100
AcDbLine
 10
121.5421125379309
 20
341.2284482049089
 30
0.0
 11
105.5420350067849
 21
341.2284482049089
 31
0.0
  0
LINE
  5
173
330
1F
100
AcDbEntity
  8
仕上
  6
Continuous
 62
     7
370
     9
100
AcDbLine
 10
121.5421125379309
 20
345.7283888193505
 30
0.0
 11
105.5420350067849
 21
345.7283888193505
 31
0.0
  0
LINE
  5
174
330
1F
100
AcDbEntity
  8
仕上
  6
Continuous
 62
     7
370
     9
100
AcDbLine
 10
146.7422501144726
 20
348.2283888193505
 30
0.0
 11
146.7422501144726
 21
343.7283888193496
 31
0.0
  0
LINE
  5
175
330
1F
100
AcDbEntity
  8
仕上
  6
Continuous
 62
     2
370
     9
100
AcDbLine
 10
190.7423259960175
 20
343.7281503344929
 30
0.0
 11
146.7422501144726
 21
343.7281503344929
 31
0.0
  0
LINE
  5
176
330
1F
100
AcDbEntity
  8
仕上
  6
Continuous
 62
     2
370
     9
100
AcDbLine
 10
184.7422814568487
 20
348.2283888193505
 30
0.0
 11
184.7422814568487
 21
343.7281503344929
 31
0.0
  0
LINE
  5
177
330
1F
100
AcDbEntity
  8
仕上
  6
Continuous
 62
     2
370
     9
100
AcDbLine
 10
146.7422501144726
 20
348.2283888193505
 30
0.0
 11
184.7422814568487
 21
348.2283888193505
 31
0.0
  0
LINE
  5
178
330
1F
100
AcDbEntity
  8
仕上
  6
Continuous
 62
     7
370
     9
100
AcDbLine
 10
146.7422501144726
 20
342.2283421592691
 30
0.0
 11
127.7422121736996
 21
342.2283421592691
 31
0.0
  0
LINE
  5
179
330
1F
100
AcDbEntity
  8
仕上
  6
Continuous
 62
     7
370
     9
100
AcDbLine
 10
105.5420350067849
 20
335.2282695769208
 30
0.0
 11
105.5420350067849
 21
-339.7720876790505
 31
0.0
  0
LINE
  5
17A
330
1F
100
AcDbEntity
  8
仕上
  6
Continuous
 62
     7
370
     9
100
AcDbLine
 10
146.7422501144726
 20
-352.7722069214793
 30
0.0
 11
118.0420399555821
 21
-352.7722069214793
 31
0.0
  0
LINE
  5
17B
330
1F
100
AcDbEntity
  8
仕上
  6
Continuous
 62
     7
370
     9
100
AcDbLine
 10
118.0420399555821
 20
-352.7722069214793
 30
0.0
 11
118.0420399555821
 21
-350.2722069214793
 31
0.0
  0
LINE
  5
17C
330
1F
100
AcDbEntity
  8
仕上
  6
Continuous
 62
     7
370
     9
100
AcDbLine
 10
114.542039955583
 20
-345.7722663070355
 30
0.0
 11
114.542039955583
 21
-339.7720876790505
 31
0.0
  0
LINE
  5
17D
330
1F
100
AcDbEntity
  8
仕上
  6
Continuous
 62
     7
370
     9
100
AcDbLine
 10
127.7422121736996
 20
-346.7721602613984
 30
0.0
 11
127.7422121736996
 21
-339.7720876790505
 31
0.0
  0
LINE
  5
17E
330
1F
100
AcDbEntity
  8
仕上
  6
Continuous
 62
     7
370
     9
100
AcDbLine
 10
146.7422501144726
 20
-339.7720876790505
 30
0.0
 11
105.5420350067849
 21
-339.7720876790505
 31
0.0
  0
LINE
  5
17F
330
1F
100
AcDbEntity
  8
仕上
  6
Continuous
 62
     7
370
     9
100
AcDbLine
 10
143.5422346082434
 20
-335.2721470646067
 30
0.0
 11
105.5420350067849
 21
-335.2721470646067
 31
0.0
  0
LINE
  5
180
330
1F
100
AcDbEntity
  8
仕上
  6
Continuous
 62
     7
370
     9
100
AcDbLine
 10
121.5421125379309
 20
-350.2722069214793
 30
0.0
 11
121.5421125379309
 21
-345.7722663070355
 31
0.0
  0
LINE
  5
181
330
1F
100
AcDbEntity
  8
仕上
  6
Continuous
 62
     7
370
     9
100
AcDbLine
 10
105.5420350067849
 20
-350.2722069214793
 30
0.0
 11
105.5420350067849
 21
-345.7722663070355
 31
0.0
  0
LINE
  5
182
330
1F
100
AcDbEntity
  8
仕上
  6
Continuous
 62
     7
370
     9
100
AcDbLine
 10
121.5421125379309
 20
-345.7722663070355
 30
0.0
 11
105.5420350067849
 21
-345.7722663070355
 31
0.0
  0
LINE
  5
183
330
1F
100
AcDbEntity
  8
仕上
  6
Continuous
 62
     7
370
     9
100
AcDbLine
 10
121.5421125379309
 20
-350.2722069214793
 30
0.0
 11
105.5420350067849
 21
-350.2722069214793
 31
0.0
  0
LINE
  5
184
330
1F
100
AcDbEntity
  8
仕上
  6
Continuous
 62
     7
370
     9
100
AcDbLine
 10
146.7422501144726
 20
-352.7722069214793
 30
0.0
 11
146.7422501144726
 21
-348.2722069214789
 31
0.0
  0
LINE
  5
185
330
1F
100
AcDbEntity
  8
仕上
  6
Continuous
 62
     7
370
     9
100
AcDbLine
 10
143.5422346082434
 20
-339.7720876790505
 30
0.0
 11
143.5422346082434
 21
335.2282695769208
 31
0.0
  0
LINE
  5
186
330
1F
100
AcDbEntity
  8
仕上
  6
Continuous
 62
     2
370
     9
100
AcDbLine
 10
146.7422501144726
 20
-352.7722069214793
 30
0.0
 11
146.7422501144726
 21
348.2283888193505
 31
0.0
  0
LINE
  5
187
330
1F
100
AcDbEntity
  8
仕上
  6
Continuous
 62
     3
370
     9
100
AcDbLine
 10
142.542234608242
 20
-159.7719090510647
 30
0.0
 11
133.5422346082434
 21
-175.3603663191849
 31
0.0
  0
LINE
  5
188
330
1F
100
AcDbEntity
  8
仕上
  6
Continuous
 62
     3
370
     9
100
AcDbLine
 10
142.542234608242
 20
-144.7719090510647
 30
0.0
 11
142.542234608242
 21
-159.7719090510647
 31
0.0
  0
LINE
  5
189
330
1F
100
AcDbEntity
  8
仕上
  6
Continuous
 62
     3
370
     9
100
AcDbLine
 10
142.542234608242
 20
-144.7719090510647
 30
0.0
 11
133.5422346082434
 21
-129.1834517829444
 31
0.0
  0
LINE
  5
18A
330
1F
100
AcDbEntity
  8
仕上
  6
Continuous
 62
     3
370
     9
100
AcDbLine
 10
133.5422346082434
 20
-129.1834517829444
 30
0.0
 11
134.4082600120275
 21
-128.6834517829449
 31
0.0
  0
LINE
  5
18B
330
1F
100
AcDbEntity
  8
仕上
  6
Continuous
 62
     3
370
     9
100
AcDbLine
 10
133.5422346082434
 20
-175.3603663191849
 30
0.0
 11
134.4082600120275
 21
-175.8603663191844
 31
0.0
  0
LINE
  5
18C
330
1F
100
AcDbEntity
  8
仕上
  6
Continuous
 62
     3
370
     9
100
AcDbLine
 10
143.5422346082434
 20
-160.039858243496
 30
0.0
 11
134.4082600120275
 21
-175.8603663191844
 31
0.0
  0
LINE
  5
18D
330
1F
100
AcDbEntity
  8
仕上
  6
Continuous
 62
     3
370
     9
100
AcDbLine
 10
143.5422346082434
 20
-144.5039598586337
 30
0.0
 11
143.5422346082434
 21
-160.039858243496
 31
0.0
  0
LINE
  5
18E
330
1F
100
AcDbEntity
  8
仕上
  6
Continuous
 62
     3
370
     9
100
AcDbLine
 10
143.5422346082434
 20
-144.5039598586337
 30
0.0
 11
134.4082600120275
 21
-128.6834517829449
 31
0.0
  0
LINE
  5
18F
330
1F
100
AcDbEntity
  8
仕上
  6
Continuous
 62
     3
370
     9
100
AcDbLine
 10
142.542234608242
 20
155.2280909489354
 30
0.0
 11
133.5422346082434
 21
170.8165482170552
 31
0.0
  0
LINE
  5
190
330
1F
100
AcDbEntity
  8
仕上
  6
Continuous
 62
     3
370
     9
100
AcDbLine
 10
142.542234608242
 20
140.2280909489354
 30
0.0
 11
142.542234608242
 21
155.2280909489354
 31
0.0
  0
LINE
  5
191
330
1F
100
AcDbEntity
  8
仕上
  6
Continuous
 62
     3
370
     9
100
AcDbLine
 10
142.542234608242
 20
140.2280909489354
 30
0.0
 11
133.5422346082434
 21
124.6396336808156
 31
0.0
  0
LINE
  5
192
330
1F
100
AcDbEntity
  8
仕上
  6
Continuous
 62
     3
370
     9
100
AcDbLine
 10
133.5422346082434
 20
124.6396336808156
 30
0.0
 11
134.4082600120275
 21
124.1396336808156
 31
0.0
  0
LINE
  5
193
330
1F
100
AcDbEntity
  8
仕上
  6
Continuous
 62
     3
370
     9
100
AcDbLine
 10
133.5422346082434
 20
170.8165482170552
 30
0.0
 11
134.4082600120275
 21
171.3165482170552
 31
0.0
  0
LINE
  5
194
330
1F
100
AcDbEntity
  8
仕上
  6
Continuous
 62
     3
370
     9
100
AcDbLine
 10
143.5422346082434
 20
155.4960401413663
 30
0.0
 11
134.4082600120275
 21
171.3165482170552
 31
0.0
  0
LINE
  5
195
330
1F
100
AcDbEntity
  8
仕上
  6
Continuous
 62
     3
370
     9
100
AcDbLine
 10
143.5422346082434
 20
139.9601417565045
 30
0.0
 11
143.5422346082434
 21
155.4960401413663
 31
0.0
  0
LINE
  5
196
330
1F
100
AcDbEntity
  8
仕上
  6
Continuous
 62
     3
370
     9
100
AcDbLine
 10
143.5422346082434
 20
139.9601417565045
 30
0.0
 11
134.4082600120275
 21
124.1396336808156
 31
0.0
  0
LINE
  5
197
330
1F
100
AcDbEntity
  8
仕上
  6
Continuous
 62
     2
370
     9
100
AcDbLine
 10
190.7423259960175
 20
-348.2719684366203
 30
0.0
 11
146.7422501144726
 21
-348.2719684366203
 31
0.0
  0
LINE
  5
198
330
1F
100
AcDbEntity
  8
仕上
  6
Continuous
 62
     2
370
     9
100
AcDbLine
 10
184.7422814568487
 20
-352.7722069214793
 30
0.0
 11
184.7422814568487
 21
-348.2719684366203
 31
0.0
  0
LINE
  5
199
330
1F
100
AcDbEntity
  8
仕上
  6
Continuous
 62
     2
370
     9
100
AcDbLine
 10
146.7422501144726
 20
-352.7722069214793
 30
0.0
 11
184.7422814568487
 21
-352.7722069214793
 31
0.0
  0
LINE
  5
19A
330
1F
100
AcDbEntity
  8
仕上
  6
Continuous
 62
     2
370
     9
100
AcDbLine
 10
190.7423259960175
 20
-348.2719684366203
 30
0.0
 11
190.7423259960175
 21
343.7281503344929
 31
0.0
  0
LINE
  5
19B
330
1F
100
AcDbEntity
  8
仕上
  6
Continuous
 62
     7
370
     9
100
AcDbLine
 10
146.7422501144726
 20
-346.7721602613984
 30
0.0
 11
127.7422121736996
 21
-346.7721602613984
 31
0.0
  0
LINE
  5
19C
330
1F
100
AcDbEntity
  8
通り芯
  6
JWW_CENTER2
 62
     7
370
     9
100
AcDbLine
 10
98.46318555229814
 20
-2.271909051064625
 30
0.0
 11
214.5915325679618
 21
-2.271909051064625
 31
0.0
  0
LINE
  5
19D
330
1F
100
AcDbEntity
  8
通り芯
  6
JWW_CENTER2
 62
     7
370
     9
100
AcDbLine
 10
129.1585259002556
 20
-152.2719090510647
 30
0.0
 11
150.4321097071017
 21
-152.2719090510647
 31
0.0
  0
LINE
  5
19E
330
1F
100
AcDbEntity
  8
通り芯
  6
JWW_CENTER2
 62
     7
370
     9
100
AcDbLine
 10
129.1585259002556
 20
147.7280909489354
 30
0.0
 11
150.4321097071017
 21
147.7280909489354
 31
0.0
  0
LINE
  5
19F
330
1F
100
AcDbEntity
  8
その他
  6
Continuous
 62
     7
370
     9
100
AcDbLine
 10
-117.7815597173179
 20
357.7281342509052
 30
0.0
 11
-117.7815597173183
 21
-362.2717667731657
 31
0.0
  0
LWPOLYLINE
  5
1A0
330
1F
100
AcDbEntity
  8
その他
  6
Continuous
 62
     7
370
     9
100
AcDbPolyline
 90
        4
 70
     1
 43
0.4
 10
-117.5815597173179
 20
357.7281342509052
 42
0.4142135623731
 10
-117.7815597173179
 20
357.9281342509052
 42
0.4142135623731
 10
-117.9815597173179
 20
357.7281342509052
 42
0.4142135623731
 10
-117.7815597173179
 20
357.5281342509052
 42
0.4142135623731
  0
LWPOLYLINE
  5
1A1
330
1F
100
AcDbEntity
  8
その他
  6
Continuous
 62
     7
370
     9
100
AcDbPolyline
 90
        4
 70
     1
 43
0.4
 10
-117.5815597173183
 20
-362.2717667731657
 42
0.4142135623731
 10
-117.7815597173183
 20
-362.0717667731657
 42
0.4142135623731
 10
-117.9815597173183
 20
-362.2717667731657
 42
0.4142135623731
 10
-117.7815597173183
 20
-362.4717667731657
 42
0.4142135623731
  0
LINE
  5
1A2
330
1F
100
AcDbEntity
  8
その他
  6
Continuous
 62
     7
370
     9
100
AcDbLine
 10
-119.2815597173179
 20
357.7281342509052
 30
0.0
 11
95.54236162735211
 21
357.7281342509052
 31
0.0
  0
LINE
  5
1A3
330
1F
100
AcDbEntity
  8
その他
  6
Continuous
 62
     7
370
     9
100
AcDbLine
 10
-75.61696539732188
 20
-362.2717667731657
 30
0.0
 11
-75.61696539732188
 21
-356.2719078138647
 31
0.0
  0
LWPOLYLINE
  5
1A4
330
1F
100
AcDbEntity
  8
その他
  6
Continuous
 62
     7
370
     9
100
AcDbPolyline
 90
        4
 70
     1
 43
0.4
 10
-75.41696539732187
 20
-362.2717667731657
 42
0.4142135623731
 10
-75.61696539732188
 20
-362.0717667731657
 42
0.4142135623731
 10
-75.81696539732188
 20
-362.2717667731657
 42
0.4142135623731
 10
-75.61696539732188
 20
-362.4717667731657
 42
0.4142135623731
  0
LWPOLYLINE
  5
1A5
330
1F
100
AcDbEntity
  8
その他
  6
Continuous
 62
     7
370
     9
100
AcDbPolyline
 90
        4
 70
     1
 43
0.4
 10
-75.41696539732187
 20
-356.2719078138647
 42
0.4142135623731
 10
-75.61696539732188
 20
-356.0719078138647
 42
0.4142135623731
 10
-75.81696539732188
 20
-356.2719078138647
 42
0.4142135623731
 10
-75.61696539732188
 20
-356.4719078138647
 42
0.4142135623731
  0
LINE
  5
1A6
330
1F
100
AcDbEntity
  8
その他
  6
Continuous
 62
     7
370
     9
100
AcDbLine
 10
-75.61696539732188
 20
-356.2719078138647
 30
0.0
 11
-75.61696539732188
 21
-352.7722069214793
 31
0.0
  0
LWPOLYLINE
  5
1A7
330
1F
100
AcDbEntity
  8
その他
  6
Continuous
 62
     7
370
     9
100
AcDbPolyline
 90
        4
 70
     1
 43
0.4
 10
-75.41696539732187
 20
-352.7722069214793
 42
0.4142135623731
 10
-75.61696539732188
 20
-352.5722069214793
 42
0.4142135623731
 10
-75.81696539732188
 20
-352.7722069214793
 42
0.4142135623731
 10
-75.61696539732188
 20
-352.9722069214793
 42
0.4142135623731
  0
LINE
  5
1A8
330
1F
100
AcDbEntity
  8
その他
  6
Continuous
 62
     7
370
     9
100
AcDbLine
 10
-75.61696539732188
 20
-352.7722069214793
 30
0.0
 11
-75.61696539732188
 21
348.2283888193505
 31
0.0
  0
LWPOLYLINE
  5
1A9
330
1F
100
AcDbEntity
  8
その他
  6
Continuous
 62
     7
370
     9
100
AcDbPolyline
 90
        4
 70
     1
 43
0.4
 10
-75.41696539732187
 20
348.2283888193505
 42
0.4142135623731
 10
-75.61696539732188
 20
348.4283888193505
 42
0.4142135623731
 10
-75.81696539732188
 20
348.2283888193505
 42
0.4142135623731
 10
-75.61696539732188
 20
348.0283888193505
 42
0.4142135623731
  0
TEXT
  5
1AA
330
1F
100
AcDbEntity
  8
その他
  6
Continuous
 62
     2
370
   211
100
AcDbText
 10
-82.87296539732188
 20
-15.27190905106443
 30
0.0
 40
12.192
  1
701
 50
90.0
 41
1.083333333333333
  7
ＭＳ ゴシック
100
AcDbText
  0
LINE
  5
1AB
330
1F
100
AcDbEntity
  8
その他
  6
Continuous
 62
     7
370
     9
100
AcDbLine
 10
-75.61696539732188
 20
348.2283888193505
 30
0.0
 11
-75.61696539732188
 21
351.7282134316484
 31
0.0
  0
LWPOLYLINE
  5
1AC
330
1F
100
AcDbEntity
  8
その他
  6
Continuous
 62
     7
370
     9
100
AcDbPolyline
 90
        4
 70
     1
 43
0.4
 10
-75.41696539732187
 20
351.7282134316484
 42
0.4142135623731
 10
-75.61696539732188
 20
351.9282134316484
 42
0.4142135623731
 10
-75.81696539732188
 20
351.7282134316484
 42
0.4142135623731
 10
-75.61696539732188
 20
351.5282134316485
 42
0.4142135623731
  0
LINE
  5
1AD
330
1F
100
AcDbEntity
  8
その他
  6
Continuous
 62
     7
370
     9
100
AcDbLine
 10
-77.11696539732188
 20
351.7282134316484
 30
0.0
 11
95.54236162735211
 21
351.7282134316484
 31
0.0
  0
LINE
  5
1AE
330
1F
100
AcDbEntity
  8
その他
  6
Continuous
 62
     7
370
     9
100
AcDbLine
 10
-75.61696539732188
 20
351.7282134316484
 30
0.0
 11
-75.61696539732188
 21
357.7281342509051
 31
0.0
  0
LWPOLYLINE
  5
1AF
330
1F
100
AcDbEntity
  8
その他
  6
Continuous
 62
     7
370
     9
100
AcDbPolyline
 90
        4
 70
     1
 43
0.4
 10
-75.41696539732187
 20
357.7281342509051
 42
0.4142135623731
 10
-75.61696539732188
 20
357.9281342509051
 42
0.4142135623731
 10
-75.81696539732188
 20
357.7281342509051
 42
0.4142135623731
 10
-75.61696539732188
 20
357.5281342509051
 42
0.4142135623731
  0
TEXT
  5
1B0
330
1F
100
AcDbEntity
  8
その他
  6
Continuous
 62
     2
370
   211
100
AcDbText
 10
-82.87296539732188
 20
315.8314805879476
 30
0.0
 40
12.192
  1
3.5
 50
90.0
 41
1.083333333333324
  7
ＭＳ ゴシック
100
AcDbText
  0
TEXT
  5
1B1
330
1F
100
AcDbEntity
  8
その他
  6
Continuous
 62
     2
370
   211
100
AcDbText
 10
-82.87296539732188
 20
362.4616406236424
 30
0.0
 40
12.192
  1
6
 50
90.0
  7
ＭＳ ゴシック
100
AcDbText
  0
LINE
  5
1B2
330
1F
100
AcDbEntity
  8
その他
  6
Continuous
 62
     7
370
     9
100
AcDbLine
 10
-75.61696539732188
 20
357.7281342509051
 30
0.0
 11
-75.61696539732188
 21
376.6970441533514
 31
0.0
  0
TEXT
  5
1B3
330
1F
100
AcDbEntity
  8
その他
  6
Continuous
 62
     2
370
   211
100
AcDbText
 10
-82.87296539732188
 20
-350.0530163236914
 30
0.0
 40
12.192
  1
3.5
 50
90.0
 41
1.083333333333333
  7
ＭＳ ゴシック
100
AcDbText
  0
TEXT
  5
1B4
330
1F
100
AcDbEntity
  8
その他
  6
Continuous
 62
     2
370
   211
100
AcDbText
 10
-82.87296539732188
 20
-377.1779699579586
 30
0.0
 40
12.192
  1
6
 50
90.0
  7
ＭＳ ゴシック
100
AcDbText
  0
LINE
  5
1B5
330
1F
100
AcDbEntity
  8
その他
  6
Continuous
 62
     7
370
     9
100
AcDbLine
 10
-75.61696539732188
 20
-362.2717667731657
 30
0.0
 11
-75.61696539732188
 21
-388.9826371729505
 31
0.0
  0
LINE
  5
1B6
330
1F
100
AcDbEntity
  8
その他
  6
Continuous
 62
     7
370
     9
100
AcDbLine
 10
-22.69484907712135
 20
-335.2721470646067
 30
0.0
 11
-22.69484907712135
 21
330.7283289624792
 31
0.0
  0
LWPOLYLINE
  5
1B7
330
1F
100
AcDbEntity
  8
その他
  6
Continuous
 62
     7
370
     9
100
AcDbPolyline
 90
        4
 70
     1
 43
0.4
 10
-22.49484907712135
 20
-335.2721470646067
 42
0.4142135623731
 10
-22.69484907712135
 20
-335.0721470646067
 42
0.4142135623731
 10
-22.89484907712135
 20
-335.2721470646067
 42
0.4142135623731
 10
-22.69484907712135
 20
-335.4721470646066
 42
0.4142135623731
  0
LWPOLYLINE
  5
1B8
330
1F
100
AcDbEntity
  8
その他
  6
Continuous
 62
     7
370
     9
100
AcDbPolyline
 90
        4
 70
     1
 43
0.4
 10
-22.49484907712135
 20
330.7283289624792
 42
0.4142135623731
 10
-22.69484907712135
 20
330.9283289624792
 42
0.4142135623731
 10
-22.89484907712135
 20
330.7283289624792
 42
0.4142135623731
 10
-22.69484907712135
 20
330.5283289624792
 42
0.4142135623731
  0
LINE
  5
1B9
330
1F
100
AcDbEntity
  8
その他
  6
Continuous
 62
     7
370
     9
100
AcDbLine
 10
-24.19484907712135
 20
330.7283289624792
 30
0.0
 11
95.54203500678491
 21
330.7283289624792
 31
0.0
  0
TEXT
  5
1BA
330
1F
100
AcDbEntity
  8
その他
  6
Continuous
 62
     2
370
   211
100
AcDbText
 10
-29.95084907712135
 20
-15.27190905106372
 30
0.0
 40
12.192
  1
666
 50
90.0
 41
1.083333333333333
  7
ＭＳ ゴシック
100
AcDbText
  0
LINE
  5
1BB
330
1F
100
AcDbEntity
  8
その他
  6
Continuous
 62
     7
370
     9
100
AcDbLine
 10
-77.11696539732188
 20
-356.2719078138647
 30
0.0
 11
5.248680596051742
 21
-356.2719078138647
 31
0.0
  0
LINE
  5
1BC
330
1F
100
AcDbEntity
  8
その他
  6
Continuous
 62
     7
370
     9
100
AcDbLine
 10
-24.19484907712135
 20
-335.2721470646067
 30
0.0
 11
5.248680596051742
 21
-335.2721470646067
 31
0.0
  0
LWPOLYLINE
  5
1BD
330
1F
100
AcDbEntity
  8
その他
  6
Continuous
 62
     7
370
     9
100
AcDbPolyline
 90
        4
 70
     1
 43
0.4
 10
60.94062326202298
 20
-350.2722069214793
 42
0.4142135623731
 10
60.74062326202298
 20
-350.0722069214793
 42
0.4142135623731
 10
60.54062326202298
 20
-350.2722069214793
 42
0.4142135623731
 10
60.74062326202298
 20
-350.4722069214793
 42
0.4142135623731
  0
LINE
  5
1BE
330
1F
100
AcDbEntity
  8
その他
  6
Continuous
 62
     7
370
     9
100
AcDbLine
 10
59.24062326202298
 20
-350.2722069214793
 30
0.0
 11
95.54203500678491
 21
-350.2722069214793
 31
0.0
  0
LINE
  5
1BF
330
1F
100
AcDbEntity
  8
その他
  6
Continuous
 62
     7
370
     9
100
AcDbLine
 10
60.74062326202298
 20
-350.2722069214793
 30
0.0
 11
60.74062326202298
 21
-345.7722663070355
 31
0.0
  0
LWPOLYLINE
  5
1C0
330
1F
100
AcDbEntity
  8
その他
  6
Continuous
 62
     7
370
     9
100
AcDbPolyline
 90
        4
 70
     1
 43
0.4
 10
60.94062326202298
 20
-345.7722663070355
 42
0.4142135623731
 10
60.74062326202298
 20
-345.5722663070355
 42
0.4142135623731
 10
60.54062326202298
 20
-345.7722663070355
 42
0.4142135623731
 10
60.74062326202298
 20
-345.9722663070355
 42
0.4142135623731
  0
LINE
  5
1C1
330
1F
100
AcDbEntity
  8
その他
  6
Continuous
 62
     7
370
     9
100
AcDbLine
 10
59.24062326202298
 20
-345.7722663070355
 30
0.0
 11
95.54203500678491
 21
-345.7722663070355
 31
0.0
  0
LINE
  5
1C2
330
1F
100
AcDbEntity
  8
その他
  6
Continuous
 62
     7
370
     9
100
AcDbLine
 10
60.74062326202298
 20
-345.7722663070355
 30
0.0
 11
60.74062326202298
 21
-339.7720876790505
 31
0.0
  0
LWPOLYLINE
  5
1C3
330
1F
100
AcDbEntity
  8
その他
  6
Continuous
 62
     7
370
     9
100
AcDbPolyline
 90
        4
 70
     1
 43
0.4
 10
60.94062326202298
 20
-339.7720876790505
 42
0.4142135623731
 10
60.74062326202298
 20
-339.5720876790505
 42
0.4142135623731
 10
60.54062326202298
 20
-339.7720876790505
 42
0.4142135623731
 10
60.74062326202298
 20
-339.9720876790505
 42
0.4142135623731
  0
LINE
  5
1C4
330
1F
100
AcDbEntity
  8
その他
  6
Continuous
 62
     7
370
     9
100
AcDbLine
 10
59.24062326202298
 20
-339.7720876790505
 30
0.0
 11
95.54203500678491
 21
-339.7720876790505
 31
0.0
  0
LINE
  5
1C5
330
1F
100
AcDbEntity
  8
その他
  6
Continuous
 62
     7
370
     9
100
AcDbLine
 10
60.74062326202298
 20
-339.7720876790505
 30
0.0
 11
60.74062326202298
 21
-321.9915447694046
 31
0.0
  0
LINE
  5
1C6
330
1F
100
AcDbEntity
  8
その他
  6
Continuous
 62
     7
370
     9
100
AcDbLine
 10
-77.11696539732188
 20
-352.7722069214793
 30
0.0
 11
5.248680596051742
 21
-352.7722069214793
 31
0.0
  0
LINE
  5
1C7
330
1F
100
AcDbEntity
  8
その他
  6
Continuous
 62
     7
370
     9
100
AcDbLine
 10
-119.2815597173183
 20
-362.2717667731657
 30
0.0
 11
5.248680596051742
 21
-362.2717667731657
 31
0.0
  0
TEXT
  5
1C8
330
1F
100
AcDbEntity
  8
その他
  6
Continuous
 62
     2
370
   211
100
AcDbText
 10
53.48462326202298
 20
-330.8583788006879
 30
0.0
 40
12.192
  1
6
 50
90.0
  7
ＭＳ ゴシック
100
AcDbText
  0
LINE
  5
1C9
330
1F
100
AcDbEntity
  8
その他
  6
Continuous
 62
     7
370
     9
100
AcDbLine
 10
257.5003678308859
 20
357.7281342509052
 30
0.0
 11
257.5003678308859
 21
297.7280600189584
 31
0.0
  0
LWPOLYLINE
  5
1CA
330
1F
100
AcDbEntity
  8
その他
  6
Continuous
 62
     7
370
     9
100
AcDbPolyline
 90
        4
 70
     1
 43
0.4
 10
257.7003678308859
 20
357.7281342509052
 42
0.4142135623731
 10
257.5003678308859
 20
357.9281342509052
 42
0.4142135623731
 10
257.3003678308859
 20
357.7281342509052
 42
0.4142135623731
 10
257.5003678308859
 20
357.5281342509052
 42
0.4142135623731
  0
LWPOLYLINE
  5
1CB
330
1F
100
AcDbEntity
  8
その他
  6
Continuous
 62
     7
370
     9
100
AcDbPolyline
 90
        4
 70
     1
 43
0.4
 10
257.7003678308859
 20
297.7280600189584
 42
0.4142135623731
 10
257.5003678308859
 20
297.9280600189584
 42
0.4142135623731
 10
257.3003678308859
 20
297.7280600189584
 42
0.4142135623731
 10
257.5003678308859
 20
297.5280600189585
 42
0.4142135623731
  0
LINE
  5
1CC
330
1F
100
AcDbEntity
  8
その他
  6
Continuous
 62
     7
370
     9
100
AcDbLine
 10
259.0003678308859
 20
297.7280600189584
 30
0.0
 11
206.7422468152742
 21
297.7280600189584
 31
0.0
  0
TEXT
  5
1CD
330
1F
100
AcDbEntity
  8
その他
  6
Continuous
 62
     2
370
   211
100
AcDbText
 10
250.2443678308859
 20
319.2280971349319
 30
0.0
 40
12.192
  1
60
 50
90.0
 41
1.062499999999986
  7
ＭＳ ゴシック
100
AcDbText
  0
LINE
  5
1CE
330
1F
100
AcDbEntity
  8
その他
  6
Continuous
 62
     7
370
     9
100
AcDbLine
 10
257.5003678308859
 20
297.7280600189584
 30
0.0
 11
257.5003678308859
 21
-302.2718781210858
 31
0.0
  0
LWPOLYLINE
  5
1CF
330
1F
100
AcDbEntity
  8
その他
  6
Continuous
 62
     7
370
     9
100
AcDbPolyline
 90
        4
 70
     1
 43
0.4
 10
257.7003678308859
 20
-302.2718781210858
 42
0.4142135623731
 10
257.5003678308859
 20
-302.0718781210858
 42
0.4142135623731
 10
257.3003678308859
 20
-302.2718781210858
 42
0.4142135623731
 10
257.5003678308859
 20
-302.4718781210858
 42
0.4142135623731
  0
LINE
  5
1D0
330
1F
100
AcDbEntity
  8
その他
  6
Continuous
 62
     7
370
     9
100
AcDbLine
 10
259.0003678308859
 20
-302.2718781210858
 30
0.0
 11
206.7422468152742
 21
-302.2718781210858
 31
0.0
  0
LINE
  5
1D1
330
1F
100
AcDbEntity
  8
その他
  6
Continuous
 62
     7
370
     9
100
AcDbLine
 10
257.5003678308859
 20
-302.2718781210858
 30
0.0
 11
257.5003678308859
 21
-362.2717667731657
 31
0.0
  0
LWPOLYLINE
  5
1D2
330
1F
100
AcDbEntity
  8
その他
  6
Continuous
 62
     7
370
     9
100
AcDbPolyline
 90
        4
 70
     1
 43
0.4
 10
257.7003678308859
 20
-362.2717667731657
 42
0.4142135623731
 10
257.5003678308859
 20
-362.0717667731657
 42
0.4142135623731
 10
257.3003678308859
 20
-362.2717667731657
 42
0.4142135623731
 10
257.5003678308859
 20
-362.4717667731657
 42
0.4142135623731
  0
TEXT
  5
1D3
330
1F
100
AcDbEntity
  8
その他
  6
Continuous
 62
     2
370
   211
100
AcDbText
 10
250.2443678308859
 20
-340.7718224471258
 30
0.0
 40
12.192
  1
60
 50
90.0
 41
1.0625
  7
ＭＳ ゴシック
100
AcDbText
  0
LINE
  5
1D4
330
1F
100
AcDbEntity
  8
その他
  6
Continuous
 62
     7
370
     9
100
AcDbLine
 10
259.0003678308859
 20
-362.2717667731657
 30
0.0
 11
206.7422468152742
 21
-362.2717667731657
 31
0.0
  0
LINE
  5
1D5
330
1F
100
AcDbEntity
  8
その他
  6
Continuous
 62
     7
370
     9
100
AcDbLine
 10
259.0003678308859
 20
357.7281342509052
 30
0.0
 11
206.7422468152742
 21
357.7281342509052
 31
0.0
  0
TEXT
  5
1D6
330
1F
100
AcDbEntity
  8
その他
  6
Continuous
 62
     2
370
   211
100
AcDbText
 10
-125.0375597173183
 20
-24.27181626113025
 30
0.0
 40
12.192
  1
□720
 50
90.0
 41
1.1
  7
ＭＳ ゴシック
100
AcDbText
  0
TEXT
  5
1D7
330
1F
100
AcDbEntity
  8
その他
  6
Continuous
 62
     2
370
   211
100
AcDbText
 10
250.2443678308859
 20
-24.27190905106372
 30
0.0
 40
12.192
  1
□600
 50
90.0
 41
1.1
  7
ＭＳ ゴシック
100
AcDbText
  0
LINE
  5
1D8
330
1F
100
AcDbEntity
  8
その他
  6
Continuous
 62
     7
370
     9
100
AcDbLine
 10
105.5420350067849
 20
92.69072825950667
 30
0.0
 11
133.5422346082434
 21
92.69072825950667
 31
0.0
  0
LWPOLYLINE
  5
1D9
330
1F
100
AcDbEntity
  8
その他
  6
Continuous
 62
     7
370
     9
100
AcDbPolyline
 90
        4
 70
     1
 43
0.4
 10
105.7420350067849
 20
92.69072825950667
 42
0.4142135623731
 10
105.5420350067849
 20
92.89072825950667
 42
0.4142135623731
 10
105.3420350067849
 20
92.69072825950667
 42
0.4142135623731
 10
105.5420350067849
 20
92.49072825950667
 42
0.4142135623731
  0
LWPOLYLINE
  5
1DA
330
1F
100
AcDbEntity
  8
その他
  6
Continuous
 62
     7
370
     9
100
AcDbPolyline
 90
        4
 70
     1
 43
0.4
 10
133.7422346082434
 20
92.69072825950667
 42
0.4142135623731
 10
133.5422346082434
 20
92.89072825950667
 42
0.4142135623731
 10
133.3422346082434
 20
92.69072825950667
 42
0.4142135623731
 10
133.5422346082434
 20
92.49072825950667
 42
0.4142135623731
  0
LINE
  5
1DB
330
1F
100
AcDbEntity
  8
その他
  6
Continuous
 62
     7
370
     9
100
AcDbLine
 10
133.5422346082434
 20
91.19072825950667
 30
0.0
 11
133.5422346082434
 21
114.6396336808156
 31
0.0
  0
TEXT
  5
1DC
330
1F
100
AcDbEntity
  8
その他
  6
Continuous
 62
     2
370
   211
100
AcDbText
 10
111.0421348075139
 20
99.94672825950668
 30
0.0
 40
12.192
  1
28
 41
1.0625
  7
ＭＳ ゴシック
100
AcDbText
  0
LINE
  5
1DD
330
1F
100
AcDbEntity
  8
その他
  6
Continuous
 62
     7
370
     9
100
AcDbLine
 10
105.5420350067849
 20
44.14782181346024
 30
0.0
 11
143.5422346082434
 21
44.14782181346024
 31
0.0
  0
LWPOLYLINE
  5
1DE
330
1F
100
AcDbEntity
  8
その他
  6
Continuous
 62
     7
370
     9
100
AcDbPolyline
 90
        4
 70
     1
 43
0.4
 10
105.7420350067849
 20
44.14782181346024
 42
0.4142135623731
 10
105.5420350067849
 20
44.34782181346024
 42
0.4142135623731
 10
105.3420350067849
 20
44.14782181346024
 42
0.4142135623731
 10
105.5420350067849
 20
43.94782181346024
 42
0.4142135623731
  0
LWPOLYLINE
  5
1DF
330
1F
100
AcDbEntity
  8
その他
  6
Continuous
 62
     7
370
     9
100
AcDbPolyline
 90
        4
 70
     1
 43
0.4
 10
143.7422346082434
 20
44.14782181346024
 42
0.4142135623731
 10
143.5422346082434
 20
44.34782181346024
 42
0.4142135623731
 10
143.3422346082434
 20
44.14782181346024
 42
0.4142135623731
 10
143.5422346082434
 20
43.94782181346024
 42
0.4142135623731
  0
TEXT
  5
1E0
330
1F
100
AcDbEntity
  8
その他
  6
Continuous
 62
     2
370
   211
100
AcDbText
 10
116.0421348075139
 20
51.40382181346027
 30
0.0
 40
12.192
  1
38
 41
1.0625
  7
ＭＳ ゴシック
100
AcDbText
  0
LINE
  5
1E1
330
1F
100
AcDbEntity
  8
その他
  6
Continuous
 62
     7
370
     9
100
AcDbLine
 10
143.5422346082434
 20
44.14782181346024
 30
0.0
 11
146.7422501144726
 21
44.14782181346024
 31
0.0
  0
LWPOLYLINE
  5
1E2
330
1F
100
AcDbEntity
  8
その他
  6
Continuous
 62
     7
370
     9
100
AcDbPolyline
 90
        4
 70
     1
 43
0.4
 10
146.9422501144726
 20
44.14782181346024
 42
0.4142135623731
 10
146.7422501144726
 20
44.34782181346024
 42
0.4142135623731
 10
146.5422501144726
 20
44.14782181346024
 42
0.4142135623731
 10
146.7422501144726
 20
43.94782181346024
 42
0.4142135623731
  0
LINE
  5
1E3
330
1F
100
AcDbEntity
  8
その他
  6
Continuous
 62
     7
370
     9
100
AcDbLine
 10
146.7422501144726
 20
44.14782181346024
 30
0.0
 11
190.7423259960175
 21
44.14782181346024
 31
0.0
  0
LWPOLYLINE
  5
1E4
330
1F
100
AcDbEntity
  8
その他
  6
Continuous
 62
     7
370
     9
100
AcDbPolyline
 90
        4
 70
     1
 43
0.4
 10
190.9423259960175
 20
44.14782181346024
 42
0.4142135623731
 10
190.7423259960175
 20
44.34782181346024
 42
0.4142135623731
 10
190.5423259960175
 20
44.14782181346024
 42
0.4142135623731
 10
190.7423259960175
 20
43.94782181346024
 42
0.4142135623731
  0
TEXT
  5
1E5
330
1F
100
AcDbEntity
  8
その他
  6
Continuous
 62
     2
370
   211
100
AcDbText
 10
160.242288055245
 20
51.40382181346027
 30
0.0
 40
12.192
  1
44
 41
1.0625
  7
ＭＳ ゴシック
100
AcDbText
  0
TEXT
  5
1E6
330
1F
100
AcDbEntity
  8
その他
  6
Continuous
 62
     2
370
   211
100
AcDbText
 10
155.8060806267532
 20
77.30378472087395
 30
0.0
 40
12.192
  1
3.2
 41
1.083333333333333
  7
ＭＳ ゴシック
100
AcDbText
  0
LINE
  5
1E7
330
1F
100
AcDbEntity
  8
その他
  6
Continuous
 62
     7
370
     9
100
AcDbLine
 10
145.1422423613577
 20
44.14782181346024
 30
0.0
 11
150.6098076850482
 21
70.10426998030403
 31
0.0
  0
LINE
  5
1E8
330
1F
100
AcDbEntity
  8
その他
  6
Continuous
 62
     7
370
     9
100
AcDbLine
 10
150.6098076850482
 20
70.10426998030403
 30
0.0
 11
187.2699458176009
 21
70.10426998030403
 31
0.0
  0
LINE
  5
1E9
330
1F
100
AcDbEntity
  8
その他
  6
Continuous
 62
     7
370
     9
100
AcDbLine
 10
105.5423616273521
 20
481.8618433486633
 30
0.0
 11
196.7422468152742
 21
481.8618433486633
 31
0.0
  0
LWPOLYLINE
  5
1EA
330
1F
100
AcDbEntity
  8
その他
  6
Continuous
 62
     7
370
     9
100
AcDbPolyline
 90
        4
 70
     1
 43
0.4
 10
105.7423616273521
 20
481.8618433486633
 42
0.4142135623731
 10
105.5423616273521
 20
482.0618433486633
 42
0.4142135623731
 10
105.3423616273521
 20
481.8618433486633
 42
0.4142135623731
 10
105.5423616273521
 20
481.6618433486634
 42
0.4142135623731
  0
LWPOLYLINE
  5
1EB
330
1F
100
AcDbEntity
  8
その他
  6
Continuous
 62
     7
370
     9
100
AcDbPolyline
 90
        4
 70
     1
 43
0.4
 10
196.9422468152742
 20
481.8618433486633
 42
0.4142135623731
 10
196.7422468152742
 20
482.0618433486633
 42
0.4142135623731
 10
196.5422468152742
 20
481.8618433486633
 42
0.4142135623731
 10
196.7422468152742
 20
481.6618433486634
 42
0.4142135623731
  0
LINE
  5
1EC
330
1F
100
AcDbEntity
  8
その他
  6
Continuous
 62
     7
370
     9
100
AcDbLine
 10
105.5423616273521
 20
483.3618433486633
 30
0.0
 11
105.5423616273521
 21
367.7281342509052
 31
0.0
  0
TEXT
  5
1ED
330
1F
100
AcDbEntity
  8
その他
  6
Continuous
 62
     2
370
   211
100
AcDbText
 10
133.6423042213134
 20
489.1178433486632
 30
0.0
 40
12.192
  1
91.2
 41
1.09375
  7
ＭＳ ゴシック
100
AcDbText
  0
LINE
  5
1EE
330
1F
100
AcDbEntity
  8
その他
  6
Continuous
 62
     7
370
     9
100
AcDbLine
 10
105.5423616273521
 20
443.5919705923616
 30
0.0
 11
190.7423259960175
 21
443.5919705923616
 31
0.0
  0
LWPOLYLINE
  5
1EF
330
1F
100
AcDbEntity
  8
その他
  6
Continuous
 62
     7
370
     9
100
AcDbPolyline
 90
        4
 70
     1
 43
0.4
 10
105.7423616273521
 20
443.5919705923616
 42
0.4142135623731
 10
105.5423616273521
 20
443.7919705923616
 42
0.4142135623731
 10
105.3423616273521
 20
443.5919705923616
 42
0.4142135623731
 10
105.5423616273521
 20
443.3919705923616
 42
0.4142135623731
  0
LWPOLYLINE
  5
1F0
330
1F
100
AcDbEntity
  8
その他
  6
Continuous
 62
     7
370
     9
100
AcDbPolyline
 90
        4
 70
     1
 43
0.4
 10
190.9423259960175
 20
443.5919705923616
 42
0.4142135623731
 10
190.7423259960175
 20
443.7919705923616
 42
0.4142135623731
 10
190.5423259960175
 20
443.5919705923616
 42
0.4142135623731
 10
190.7423259960175
 20
443.3919705923616
 42
0.4142135623731
  0
TEXT
  5
1F1
330
1F
100
AcDbEntity
  8
その他
  6
Continuous
 62
     2
370
   211
100
AcDbText
 10
130.6423438116846
 20
450.8479705923615
 30
0.0
 40
12.192
  1
85.2
 41
1.09375
  7
ＭＳ ゴシック
100
AcDbText
  0
LINE
  5
1F2
330
1F
100
AcDbEntity
  8
その他
  6
Continuous
 62
     7
370
     9
100
AcDbLine
 10
190.7423259960175
 20
445.0919705923616
 30
0.0
 11
190.7423259960175
 21
382.2924398942146
 31
0.0
  0
LINE
  5
1F3
330
1F
100
AcDbEntity
  8
その他
  6
Continuous
 62
     7
370
     9
100
AcDbLine
 10
196.7422468152742
 20
483.3618433486633
 30
0.0
 11
196.7422468152742
 21
382.2924398942146
 31
0.0
  0
LINE
  5
1F4
330
1F
100
AcDbEntity
  8
その他
  6
Continuous
 62
     7
370
     9
100
AcDbLine
 10
-77.11696539732188
 20
348.2283888193505
 30
0.0
 11
95.54236162735211
 21
348.2283888193505
 31
0.0
  0
LINE
  5
1F5
330
1F
100
AcDbEntity
  8
寸法
  6
Continuous
 62
     7
370
     9
100
AcDbLine
 10
315.5286455835528
 20
494.7986162070444
 30
0.0
 11
246.5418792621624
 21
375.3100318885145
 31
0.0
  0
LINE
  5
1F6
330
1F
100
AcDbEntity
  8
寸法
  6
Continuous
 62
     7
370
     9
100
AcDbLine
 10
246.5418792621624
 20
375.3100318885145
 30
0.0
 11
250.3687135858134
 21
384.5488272136275
 31
0.0
  0
LINE
  5
1F7
330
1F
100
AcDbEntity
  8
寸法
  6
Continuous
 62
     7
370
     9
100
AcDbLine
 10
246.5418792621624
 20
375.3100318885145
 30
0.0
 11
252.6294935522494
 21
383.2435652914269
 31
0.0
  0
LINE
  5
1F8
330
1F
100
AcDbEntity
  8
寸法
  6
Continuous
 62
     7
370
     9
100
AcDbLine
 10
125.5991001012683
 20
357.7606230559384
 30
0.0
 11
119.5114858111811
 21
365.6941564588508
 31
0.0
  0
LINE
  5
1F9
330
1F
100
AcDbEntity
  8
寸法
  6
Continuous
 62
     7
370
     9
100
AcDbLine
 10
125.5991001012683
 20
357.7606230559384
 30
0.0
 11
121.7722657776174
 21
366.9994183810513
 31
0.0
  0
LINE
  5
1FA
330
1F
100
AcDbEntity
  8
寸法
  6
Continuous
 62
     7
370
     9
100
AcDbLine
 10
105.5420350067848
 20
149.5155224410142
 30
0.0
 11
99.45442071669734
 21
157.4490558439266
 31
0.0
  0
LINE
  5
1FB
330
1F
100
AcDbEntity
  8
寸法
  6
Continuous
 62
     7
370
     9
100
AcDbLine
 10
105.5420350067848
 20
149.5155224410142
 30
0.0
 11
101.7152006831339
 21
158.7543177661271
 31
0.0
  0
LINE
  5
1FC
330
1F
100
AcDbEntity
  8
寸法
  6
Continuous
 62
     7
370
     9
100
AcDbLine
 10
133.5422346082434
 20
170.8165482170552
 30
0.0
 11
127.4546203181559
 21
178.7500816199676
 31
0.0
  0
LINE
  5
1FD
330
1F
100
AcDbEntity
  8
寸法
  6
Continuous
 62
     7
370
     9
100
AcDbLine
 10
133.5422346082434
 20
170.8165482170552
 30
0.0
 11
129.7154002845924
 21
180.0553435421681
 31
0.0
  0
LINE
  5
1FE
330
1F
100
AcDbEntity
  8
寸法
  6
Continuous
 62
     7
370
     9
100
AcDbLine
 10
-59.93287425359016
 20
436.1264726578326
 30
0.0
 11
105.5420350067848
 21
149.5155224410142
 31
0.0
  0
TEXT
  5
1FF
330
1F
100
AcDbEntity
  8
寸法
  6
Continuous
 62
     7
370
     9
100
AcDbText
 10
-182.0211630998049
 20
420.3591385678833
 30
0.0
 40
9.144
  1
（溶融亜鉛めっき）
 41
1.148148148148148
  7
ＭＳ ゴシック
100
AcDbText
  0
TEXT
  5
200
330
1F
100
AcDbEntity
  8
寸法
  6
Continuous
 62
     7
370
     9
100
AcDbText
 10
-165.1518003382632
 20
444.5610925018166
 30
0.0
 40
9.144
  1
蓋：ＳＳ４００
 41
1.142857142857143
  7
ＭＳ ゴシック
100
AcDbText
  0
LINE
  5
201
330
1F
100
AcDbEntity
  8
寸法
  6
Continuous
 62
     7
370
     9
100
AcDbLine
 10
-182.0926019957772
 20
436.1264726578326
 30
0.0
 11
-59.93287425359016
 21
436.1264726578326
 31
0.0
  0
LINE
  5
202
330
1F
100
AcDbEntity
  8
寸法
  6
Continuous
 62
     7
370
     9
100
AcDbLine
 10
-9.051189073199723
 20
590.9817651599582
 30
0.0
 11
125.5991001012683
 21
357.7606230559384
 31
0.0
  0
LINE
  5
203
330
1F
100
AcDbEntity
  8
寸法
  6
Continuous
 62
     7
370
     9
100
AcDbLine
 10
-65.17896161924595
 20
515.0117566239304
 30
0.0
 11
133.5422346082434
 21
170.8165482170552
 31
0.0
  0
TEXT
  5
204
330
1F
100
AcDbEntity
  8
寸法
  6
Continuous
 62
     7
370
     9
100
AcDbText
 10
-230.6591486786661
 20
521.569880332497
 30
0.0
 40
9.144
  1
モルタル止め：ｔ＝１.０
 41
1.152173913043478
  7
ＭＳ ゴシック
100
AcDbText
  0
TEXT
  5
205
330
1F
100
AcDbEntity
  8
寸法
  6
Continuous
 62
     7
370
     9
100
AcDbText
 10
-186.0123117411113
 20
500.0559510510551
 30
0.0
 40
9.144
  1
ＳＵＳ４３０
 41
1.138888888888889
  7
ＭＳ ゴシック
100
AcDbText
  0
LINE
  5
206
330
1F
100
AcDbEntity
  8
寸法
  6
Continuous
 62
     7
370
     9
100
AcDbLine
 10
-230.2330745063292
 20
515.0117566239304
 30
0.0
 11
-65.17896161924595
 21
515.0117566239304
 31
0.0
  0
TEXT
  5
207
330
1F
100
AcDbEntity
  8
寸法
  6
Continuous
 62
     7
370
     9
100
AcDbText
 10
-204.0115218391977
 20
597.6773731768012
 30
0.0
 40
9.144
  1
受枠：Ｌ－８６Ｚ　ｔ＝６.０
 41
1.154320987654321
  7
ＭＳ ゴシック
100
AcDbText
  0
TEXT
  5
208
330
1F
100
AcDbEntity
  8
寸法
  6
Continuous
 62
     7
370
     9
100
AcDbText
 10
-192.3793390786911
 20
576.2768922280995
 30
0.0
 40
9.144
  1
ＳＰＨＣ（溶融亜鉛めっき）
 41
1.153846153846154
  7
ＭＳ ゴシック
100
AcDbText
  0
LINE
  5
209
330
1F
100
AcDbEntity
  8
寸法
  6
Continuous
 62
     7
370
     9
100
AcDbLine
 10
-210.1346268399977
 20
590.9817651599582
 30
0.0
 11
-9.051189073199723
 21
590.9817651599582
 31
0.0
  0
TEXT
  5
20A
330
1F
100
AcDbEntity
  8
寸法
  6
Continuous
 62
     7
370
     9
100
AcDbText
 10
321.6901865959787
 20
480.4802576143845
 30
0.0
 40
9.144
  1
ＳＳ４００（溶融亜鉛めっき）
 41
1.154761904761905
  7
ＭＳ ゴシック
100
AcDbText
  0
TEXT
  5
20B
330
1F
100
AcDbEntity
  8
寸法
  6
Continuous
 62
     7
370
     9
100
AcDbText
 10
322.8643604795727
 20
500.9183551170144
 30
0.0
 40
9.144
  1
アンカー：φ９
 41
1.142857142857143
  7
ＭＳ ゴシック
100
AcDbText
  0
LINE
  5
20C
330
1F
100
AcDbEntity
  8
寸法
  6
Continuous
 62
     7
370
     9
100
AcDbLine
 10
315.5286455835528
 20
494.7986162070444
 30
0.0
 11
513.9191768712701
 21
494.7986162070444
 31
0.0
  0
LINE
  5
20D
330
1F
100
AcDbEntity
  8
F-Fﾚｲﾔ
  6
Continuous
 62
     7
370
     9
100
AcDbLine
 10
1106.868899729236
 20
774.8481721216771
 30
0.0
 11
1106.868899729236
 21
418.8481721216771
 31
0.0
  0
LINE
  5
20E
330
1F
100
AcDbEntity
  8
F-Fﾚｲﾔ
  6
Continuous
 62
     7
370
     9
100
AcDbLine
 10
538.1822228472341
 20
418.8481721216771
 30
0.0
 11
1106.868899729236
 21
418.8481721216771
 31
0.0
  0
LINE
  5
20F
330
1F
100
AcDbEntity
  8
F-Fﾚｲﾔ
  6
Continuous
 62
     7
370
     9
100
AcDbLine
 10
538.1822228472341
 20
774.8481721216771
 30
0.0
 11
538.1822228472341
 21
418.8481721216771
 31
0.0
  0
LINE
  5
210
330
1F
100
AcDbEntity
  8
F-Fﾚｲﾔ
  6
Continuous
 62
     7
370
     9
100
AcDbLine
 10
538.1822228472341
 20
774.8481721216771
 30
0.0
 11
1106.868899729236
 21
774.8481721216771
 31
0.0
  0
LINE
  5
211
330
1F
100
AcDbEntity
  8
F-Fﾚｲﾔ
  6
Continuous
 62
     7
370
     9
100
AcDbLine
 10
538.1822228472341
 20
742.8481721216771
 30
0.0
 11
1106.868899729236
 21
742.8481721216771
 31
0.0
  0
TEXT
  5
212
330
1F
100
AcDbEntity
  8
F-Fﾚｲﾔ
  6
Continuous
 62
     2
370
     9
100
AcDbText
 10
548.8291129056955
 20
753.104172121677
 30
0.0
 40
12.192
  1
名称
 41
1.0625
  7
ＭＳ ゴシック
100
AcDbText
  0
LINE
  5
213
330
1F
100
AcDbEntity
  8
F-Fﾚｲﾔ
  6
Continuous
 62
     7
370
     9
100
AcDbLine
 10
538.1822228472341
 20
738.8481721216771
 30
0.0
 11
1106.868899729236
 21
738.8481721216771
 31
0.0
  0
LINE
  5
214
330
1F
100
AcDbEntity
  8
F-Fﾚｲﾔ
  6
Continuous
 62
     7
370
     9
100
AcDbLine
 10
538.1822228472341
 20
706.8481721216771
 30
0.0
 11
1106.868899729236
 21
706.8481721216771
 31
0.0
  0
LINE
  5
215
330
1F
100
AcDbEntity
  8
F-Fﾚｲﾔ
  6
Continuous
 62
     7
370
     9
100
AcDbLine
 10
538.1822228472341
 20
546.8481721216771
 30
0.0
 11
1106.868899729236
 21
546.8481721216771
 31
0.0
  0
LINE
  5
216
330
1F
100
AcDbEntity
  8
F-Fﾚｲﾔ
  6
Continuous
 62
     7
370
     9
100
AcDbLine
 10
538.1822228472341
 20
482.8481721216771
 30
0.0
 11
1106.868899729236
 21
482.8481721216771
 31
0.0
  0
TEXT
  5
217
330
1F
100
AcDbEntity
  8
F-Fﾚｲﾔ
  6
Continuous
 62
     2
370
     9
100
AcDbText
 10
548.8291129056955
 20
717.104172121677
 30
0.0
 40
12.192
  1
適用桝
 41
1.083333333333333
  7
ＭＳ ゴシック
100
AcDbText
  0
TEXT
  5
218
330
1F
100
AcDbEntity
  8
F-Fﾚｲﾔ
  6
Continuous
 62
     2
370
     9
100
AcDbText
 10
548.8291129056955
 20
685.104172121677
 30
0.0
 40
12.192
  1
蓋
  7
ＭＳ ゴシック
100
AcDbText
  0
TEXT
  5
219
330
1F
100
AcDbEntity
  8
F-Fﾚｲﾔ
  6
Continuous
 62
     2
370
     9
100
AcDbText
 10
548.8291129056955
 20
525.104172121677
 30
0.0
 40
12.192
  1
受枠
 41
1.0625
  7
ＭＳ ゴシック
100
AcDbText
  0
TEXT
  5
21A
330
1F
100
AcDbEntity
  8
F-Fﾚｲﾔ
  6
Continuous
 62
     2
370
     9
100
AcDbText
 10
548.8291129056955
 20
461.104172121677
 30
0.0
 40
12.192
  1
品番
 41
1.0625
  7
ＭＳ ゴシック
100
AcDbText
  0
LINE
  5
21B
330
1F
100
AcDbEntity
  8
F-Fﾚｲﾔ
  6
Continuous
 62
     7
370
     9
100
AcDbLine
 10
690.3776745764607
 20
774.8481721216771
 30
0.0
 11
690.3776745764607
 21
418.8481721216771
 31
0.0
  0
TEXT
  5
21C
330
1F
100
AcDbEntity
  8
F-5ﾚｲﾔ
  6
Continuous
 62
     2
370
     9
100
AcDbText
 10
706.9116353340704
 20
685.104172121677
 30
0.0
 40
12.192
  1
スチール製 溶融亜鉛めっき
 41
1.115
  7
ＭＳ ゴシック
100
AcDbText
  0
TEXT
  5
21D
330
1F
100
AcDbEntity
  8
F-5ﾚｲﾔ
  6
Continuous
 62
     2
370
     9
100
AcDbText
 10
706.9116353340704
 20
653.104172121677
 30
0.0
 40
12.192
  1
充填深さ 28mm
 41
1.115384615384615
  7
ＭＳ ゴシック
100
AcDbText
  0
TEXT
  5
21E
330
1F
100
AcDbEntity
  8
F-5ﾚｲﾔ
  6
Continuous
 62
     2
370
     9
100
AcDbText
 10
706.9116353340704
 20
621.104172121677
 30
0.0
 40
12.192
  1
目地すきま 6mm
 41
1.116071428571429
  7
ＭＳ ゴシック
100
AcDbText
  0
TEXT
  5
21F
330
1F
100
AcDbEntity
  8
F-Fﾚｲﾔ
  6
Continuous
 62
     2
370
     9
100
AcDbText
 10
706.9116353340704
 20
461.104172121677
 30
0.0
 40
12.192
  1
カネソウ　カラー舗装用みぞ蓋
 41
1.116071428571429
  7
ＭＳ ゴシック
100
AcDbText
  0
LINE
  5
220
330
1F
100
AcDbEntity
  8
F-Fﾚｲﾔ
  6
Continuous
 62
     7
370
     9
100
AcDbLine
 10
690.3776745764607
 20
674.8481721216771
 30
0.0
 11
1106.868899729236
 21
674.8481721216771
 31
0.0
  0
LINE
  5
221
330
1F
100
AcDbEntity
  8
F-Fﾚｲﾔ
  6
Continuous
 62
     7
370
     9
100
AcDbLine
 10
690.3776745764607
 20
642.8481721216771
 30
0.0
 11
1106.868899729236
 21
642.8481721216771
 31
0.0
  0
LINE
  5
222
330
1F
100
AcDbEntity
  8
F-Fﾚｲﾔ
  6
Continuous
 62
     7
370
     9
100
AcDbLine
 10
690.3776745764607
 20
610.8481721216771
 30
0.0
 11
1106.868899729236
 21
610.8481721216771
 31
0.0
  0
LINE
  5
223
330
1F
100
AcDbEntity
  8
F-Fﾚｲﾔ
  6
Continuous
 62
     7
370
     9
100
AcDbLine
 10
690.3776745764607
 20
578.8481721216771
 30
0.0
 11
1106.868899729236
 21
578.8481721216771
 31
0.0
  0
LINE
  5
224
330
1F
100
AcDbEntity
  8
F-Fﾚｲﾔ
  6
Continuous
 62
     7
370
     9
100
AcDbLine
 10
690.3776745764607
 20
514.8481721216771
 30
0.0
 11
1106.868899729236
 21
514.8481721216771
 31
0.0
  0
TEXT
  5
225
330
1F
100
AcDbEntity
  8
F-Fﾚｲﾔ
  6
Continuous
 62
     2
370
     9
100
AcDbText
 10
548.8291129056946
 20
344.7838905571317
 30
0.0
 40
12.192
  1
強度性能
 41
1.09375
  7
ＭＳ ゴシック
100
AcDbText
  0
TEXT
  5
226
330
1F
100
AcDbEntity
  8
F-Fﾚｲﾔ
  6
Continuous
 62
     2
370
     9
100
AcDbText
 10
548.8291129056946
 20
308.7838690994596
 30
0.0
 40
12.192
  1
強度
 41
1.0625
  7
ＭＳ ゴシック
100
AcDbText
  0
TEXT
  5
227
330
1F
100
AcDbEntity
  8
F-Fﾚｲﾔ
  6
Continuous
 62
     2
370
     9
100
AcDbText
 10
548.8291129056946
 20
244.7838690994596
 30
0.0
 40
12.192
  1
主な使用場所
 41
1.104166666666667
  7
ＭＳ ゴシック
100
AcDbText
  0
LINE
  5
228
330
1F
100
AcDbEntity
  8
F-Fﾚｲﾔ
  6
Continuous
 62
     7
370
     9
100
AcDbLine
 10
538.1822228472341
 20
366.5278690994596
 30
0.0
 11
1106.868899729236
 21
366.5278690994596
 31
0.0
  0
LINE
  5
229
330
1F
100
AcDbEntity
  8
F-Fﾚｲﾔ
  6
Continuous
 62
     7
370
     9
100
AcDbLine
 10
538.1822228472341
 20
334.5278690994596
 30
0.0
 11
1106.868899729236
 21
334.5278690994596
 31
0.0
  0
LINE
  5
22A
330
1F
100
AcDbEntity
  8
F-Fﾚｲﾔ
  6
Continuous
 62
     7
370
     9
100
AcDbLine
 10
538.1822228472341
 20
330.5278690994596
 30
0.0
 11
1106.868899729236
 21
330.5278690994596
 31
0.0
  0
LINE
  5
22B
330
1F
100
AcDbEntity
  8
F-5ﾚｲﾔ
  6
Continuous
 62
     7
370
     9
100
AcDbLine
 10
538.1822228472341
 20
266.5278690994596
 30
0.0
 11
1106.868899729236
 21
266.5278690994596
 31
0.0
  0
LINE
  5
22C
330
1F
100
AcDbEntity
  8
F-Fﾚｲﾔ
  6
Continuous
 62
     7
370
     9
100
AcDbLine
 10
538.1822228472341
 20
266.5278690994596
 30
0.0
 11
1106.868899729236
 21
266.5278690994596
 31
0.0
  0
TEXT
  5
22D
330
1F
100
AcDbEntity
  8
F-5ﾚｲﾔ
  6
Continuous
 62
     2
370
     9
100
AcDbText
 10
706.9116353340704
 20
753.104172121677
 30
0.0
 40
12.192
  1
化粧用スリットみぞ蓋　タイル用　集水桝用
 41
1.11875
  7
ＭＳ ゴシック
100
AcDbText
  0
TEXT
  5
22E
330
1F
100
AcDbEntity
  8
F-Fﾚｲﾔ
  6
Continuous
 62
     2
370
     9
100
AcDbText
 10
706.9116353340704
 20
308.7838690994596
 30
0.0
 40
12.192
  1
T-2：後輪1輪荷重7.8kN(800kgf)
 41
1.120689655172414
  7
ＭＳ ゴシック
100
AcDbText
  0
TEXT
  5
22F
330
1F
100
AcDbEntity
  8
F-Fﾚｲﾔ
  6
Continuous
 62
     2
370
     9
100
AcDbText
 10
706.9116353340704
 20
276.7838690994596
 30
0.0
 40
12.192
  1
 　　総重量2トンまでの車両が通行可能
 41
1.118055555555556
  7
ＭＳ ゴシック
100
AcDbText
  0
TEXT
  5
230
330
1F
100
AcDbEntity
  8
F-Fﾚｲﾔ
  6
Continuous
 62
     2
370
     9
100
AcDbText
 10
706.9116353340704
 20
244.7838690994596
 30
0.0
 40
12.192
  1
建物内、建物敷地内、公園敷地内、
 41
1.1171875
  7
ＭＳ ゴシック
100
AcDbText
  0
LINE
  5
231
330
1F
100
AcDbEntity
  8
F-Fﾚｲﾔ
  6
Continuous
 62
     7
370
     9
100
AcDbLine
 10
538.1822228472341
 20
170.5278690994596
 30
0.0
 11
1106.868899729236
 21
170.5278690994596
 31
0.0
  0
LINE
  5
232
330
1F
100
AcDbEntity
  8
F-Fﾚｲﾔ
  6
Continuous
 62
     7
370
     9
100
AcDbLine
 10
538.1822228472341
 20
202.5278690994596
 30
0.0
 11
1106.868899729236
 21
202.5278690994596
 31
0.0
  0
TEXT
  5
233
330
1F
100
AcDbEntity
  8
F-Fﾚｲﾔ
  6
Continuous
 62
     2
370
     9
100
AcDbText
 10
706.9116353340704
 20
212.7838690994596
 30
0.0
 40
12.192
  1
車道以外で車両の乗り入れる可能性のある場所
 41
1.119047619047619
  7
ＭＳ ゴシック
100
AcDbText
  0
LINE
  5
234
330
1F
100
AcDbEntity
  8
F-Fﾚｲﾔ
  6
Continuous
 62
     7
370
     9
100
AcDbLine
 10
538.1822228472341
 20
138.5278690994596
 30
0.0
 11
1106.868899729236
 21
138.5278690994596
 31
0.0
  0
LINE
  5
235
330
1F
100
AcDbEntity
  8
F-Fﾚｲﾔ
  6
Continuous
 62
     7
370
     9
100
AcDbLine
 10
538.1822228472341
 20
74.52786909945956
 30
0.0
 11
1106.868899729236
 21
74.52786909945956
 31
0.0
  0
TEXT
  5
236
330
1F
100
AcDbEntity
  8
F-Fﾚｲﾔ
  6
Continuous
 62
     2
370
     9
100
AcDbText
 10
548.8291129056946
 20
148.7838690994596
 30
0.0
 40
12.192
  1
衝撃係数
 41
1.09375
  7
ＭＳ ゴシック
100
AcDbText
  0
TEXT
  5
237
330
1F
100
AcDbEntity
  8
F-Fﾚｲﾔ
  6
Continuous
 62
     2
370
     9
100
AcDbText
 10
548.8291129056946
 20
180.7838690994596
 30
0.0
 40
12.192
  1
車両進行方向
 41
1.104166666666667
  7
ＭＳ ゴシック
100
AcDbText
  0
TEXT
  5
238
330
1F
100
AcDbEntity
  8
F-Fﾚｲﾔ
  6
Continuous
 62
     2
370
     9
100
AcDbText
 10
548.8291129056946
 20
116.7838690994596
 30
0.0
 40
12.192
  1
衝撃を考慮した
 41
1.107142857142857
  7
ＭＳ ゴシック
100
AcDbText
  0
TEXT
  5
239
330
1F
100
AcDbEntity
  8
F-Fﾚｲﾔ
  6
Continuous
 62
     2
370
     9
100
AcDbText
 10
548.8291129056946
 20
84.78386909945957
 30
0.0
 40
12.192
  1
後輪1輪荷重
 41
1.102272727272727
  7
ＭＳ ゴシック
100
AcDbText
  0
LINE
  5
23A
330
1F
100
AcDbEntity
  8
F-Fﾚｲﾔ
  6
Continuous
 62
     7
370
     9
100
AcDbLine
 10
538.1822228472341
 20
42.52786909945956
 30
0.0
 11
1106.868899729236
 21
42.52786909945956
 31
0.0
  0
TEXT
  5
23B
330
1F
100
AcDbEntity
  8
F-Fﾚｲﾔ
  6
Continuous
 62
     2
370
     9
100
AcDbText
 10
548.8291129056946
 20
52.78386909945957
 30
0.0
 40
12.192
  1
後輪接地面積
 41
1.104166666666667
  7
ＭＳ ゴシック
100
AcDbText
  0
LINE
  5
23C
330
1F
100
AcDbEntity
  8
F-Fﾚｲﾔ
  6
Continuous
 62
     7
370
     9
100
AcDbLine
 10
690.3776745764607
 20
334.5278690994596
 30
0.0
 11
690.3776745764607
 21
42.52786909945956
 31
0.0
  0
LINE
  5
23D
330
1F
100
AcDbEntity
  8
F-Fﾚｲﾔ
  6
Continuous
 62
     7
370
     9
100
AcDbLine
 10
538.1822228472341
 20
366.5278690994596
 30
0.0
 11
538.1822228472341
 21
42.52786909945956
 31
0.0
  0
LINE
  5
23E
330
1F
100
AcDbEntity
  8
F-Fﾚｲﾔ
  6
Continuous
 62
     7
370
     9
100
AcDbLine
 10
1106.868899729236
 20
366.5278690994596
 30
0.0
 11
1106.868899729236
 21
42.52786909945956
 31
0.0
  0
TEXT
  5
23F
330
1F
100
AcDbEntity
  8
F-Fﾚｲﾔ
  6
Continuous
 62
     2
370
     9
100
AcDbText
 10
706.9116353340704
 20
180.7838690994596
 30
0.0
 40
12.192
  1
横断方向、縦断方向
 41
1.111111111111111
  7
ＭＳ ゴシック
100
AcDbText
  0
TEXT
  5
240
330
1F
100
AcDbEntity
  8
F-Fﾚｲﾔ
  6
Continuous
 62
     2
370
     9
100
AcDbText
 10
706.9116353340704
 20
148.7838690994596
 30
0.0
 40
12.192
  1
0.1
 41
1.083333333333333
  7
ＭＳ ゴシック
100
AcDbText
  0
TEXT
  5
241
330
1F
100
AcDbEntity
  8
F-Fﾚｲﾔ
  6
Continuous
 62
     2
370
     9
100
AcDbText
 10
706.9116353340704
 20
52.78386909945957
 30
0.0
 40
12.192
  1
200×160 mm
 41
1.113636363636364
  7
ＭＳ ゴシック
100
AcDbText
  0
TEXT
  5
242
330
1F
100
AcDbEntity
  8
F-Fﾚｲﾔ
  6
Continuous
 62
     2
370
     9
100
AcDbText
 10
706.9116353340704
 20
100.7838690994596
 30
0.0
 40
12.192
  1
8.6kN
 41
1.1
  7
ＭＳ ゴシック
100
AcDbText
  0
TEXT
  5
243
330
1F
100
AcDbEntity
  8
F-5ﾚｲﾔ
  6
Continuous
 62
     2
370
     9
100
AcDbText
 10
706.9116353340704
 20
717.104172121677
 30
0.0
 40
12.192
  1
桝内径　600mm
 41
1.115384615384615
  7
ＭＳ ゴシック
100
AcDbText
  0
TEXT
  5
244
330
1F
100
AcDbEntity
  8
F-Fﾚｲﾔ
  6
Continuous
 62
     2
370
     9
100
AcDbText
 10
706.9116353340704
 20
589.104172121677
 30
0.0
 40
12.192
  1
寸法 幅701×長さ701×高さ85.2
 41
1.120689655172414
  7
ＭＳ ゴシック
100
AcDbText
  0
TEXT
  5
245
330
1F
100
AcDbEntity
  8
F-Fﾚｲﾔ
  6
Continuous
 62
     2
370
     9
100
AcDbText
 10
706.9116353340704
 20
557.104172121677
 30
0.0
 40
12.192
  1
蓋質量　27.1kg
 41
1.116071428571429
  7
ＭＳ ゴシック
100
AcDbText
  0
TEXT
  5
246
330
1F
100
AcDbEntity
  8
F-Fﾚｲﾔ
  6
Continuous
 62
     2
370
     9
100
AcDbText
 10
706.9116353340704
 20
525.104172121677
 30
0.0
 40
12.192
  1
スチール製 溶融亜鉛めっき
 41
1.115
  7
ＭＳ ゴシック
100
AcDbText
  0
TEXT
  5
247
330
1F
100
AcDbEntity
  8
F-Fﾚｲﾔ
  6
Continuous
 62
     2
370
     9
100
AcDbText
 10
706.9116353340704
 20
429.1041721216772
 30
0.0
 40
12.192
  1
集水桝用：HESW-2-600-Z
 41
1.119318181818182
  7
ＭＳ ゴシック
100
AcDbText
  0
LINE
  5
248
330
1F
100
AcDbEntity
  8
その他
  6
Continuous
 62
     7
370
     9
100
AcDbLine
 10
60.74062326202298
 20
-348.0222366142574
 30
0.0
 11
35.13957105107207
 21
-356.7430548426905
 31
0.0
  0
LINE
  5
249
330
1F
100
AcDbEntity
  8
その他
  6
Continuous
 62
     7
370
     9
100
AcDbLine
 10
35.13957105107207
 20
-356.7430548426905
 30
0.0
 11
35.13957105107207
 21
-389.9244937363877
 31
0.0
  0
TEXT
  5
24A
330
1F
100
AcDbEntity
  8
その他
  6
Continuous
 62
     2
370
   211
100
AcDbText
 10
26.26760475336005
 20
-388.2069200335382
 30
0.0
 40
12.192
  1
4.5
 50
90.0
 41
1.083333333333343
  7
ＭＳ ゴシック
100
AcDbText
  0
LWPOLYLINE
  5
24B
330
1F
100
AcDbEntity
  8
その他
  6
Continuous
 62
     7
370
     9
100
AcDbPolyline
 90
        4
 70
     1
 43
0.4
 10
60.94062326202298
 20
-356.2719078138647
 42
0.4142135623731
 10
60.74062326202298
 20
-356.0719078138647
 42
0.4142135623731
 10
60.54062326202298
 20
-356.2719078138647
 42
0.4142135623731
 10
60.74062326202298
 20
-356.4719078138647
 42
0.4142135623731
  0
LINE
  5
24C
330
1F
100
AcDbEntity
  8
その他
  6
Continuous
 62
     7
370
     9
100
AcDbLine
 10
59.24062326202298
 20
-356.2719078138647
 30
0.0
 11
95.54203500678491
 21
-356.2719078138647
 31
0.0
  0
LINE
  5
24D
330
1F
100
AcDbEntity
  8
その他
  6
Continuous
 62
     7
370
     9
100
AcDbLine
 10
60.74062326202298
 20
-356.2719078138647
 30
0.0
 11
60.74062326202298
 21
-350.2722069214793
 31
0.0
  0
TEXT
  5
24E
330
1F
100
AcDbEntity
  8
その他
  6
Continuous
 62
     2
370
   211
100
AcDbText
 10
53.48462326202298
 20
-368.1610785879014
 30
0.0
 40
12.192
  1
6
 50
90.0
  7
ＭＳ ゴシック
100
AcDbText
  0
LINE
  5
24F
330
1F
100
AcDbEntity
  8
その他
  6
Continuous
 62
     7
370
     9
100
AcDbLine
 10
60.74062326202298
 20
-356.2719078138647
 30
0.0
 11
60.74062326202298
 21
-370.4887942759151
 31
0.0
  0
TEXT
  5
250
330
1F
100
AcDbEntity
  8
F-Fﾚｲﾔ
  6
Continuous
 62
     2
370
     9
100
AcDbText
 10
706.9116353340704
 20
493.104172121677
 30
0.0
 40
12.192
  1
寸法 幅720×長さ720×高さ91.2
 41
1.120689655172414
  7
ＭＳ ゴシック
100
AcDbText
  0
TEXT
  5
251
330
1F
100
AcDbEntity
  8
F-4ﾚｲﾔ
  6
Continuous
 62
     2
370
     9
100
AcDbText
 10
-145.8083711549243
 20
-759.0108394076666
 30
0.0
 40
12.192
  1
カラー舗装用みぞ蓋　タイル用　充填深さ２８ｍｍ　スチール製
 41
1.120689655172414
  7
ＭＳ ゴシック
100
AcDbText
  0
TEXT
  5
252
330
1F
100
AcDbEntity
  8
F-4ﾚｲﾔ
  6
Continuous
 62
     2
370
     9
100
AcDbText
 10
165.0388504523683
 20
-777.8398842462342
 30
0.0
 40
12.192
  1
集水桝用　ＨＥＳＷ－２－６００－Ｚ
 41
1.117647058823529
  7
ＭＳ ゴシック
100
AcDbText
  0
LINE
  5
253
330
1F
100
AcDbEntity
  8
仕上
  6
JWW_DASHED1
 62
     2
370
     9
100
AcDbLine
 10
-940.6146651821052
 20
335.2283932968335
 30
0.0
 11
-940.6146651821052
 21
330.7283084603246
 31
0.0
  0
LINE
  5
254
330
1F
100
AcDbEntity
  8
仕上
  6
JWW_DASHED1
 62
     2
370
     9
100
AcDbLine
 10
-940.6146651821052
 20
341.2284277027516
 30
0.0
 11
-940.6146651821052
 21
345.7285125392632
 31
0.0
  0
LINE
  5
255
330
1F
100
AcDbEntity
  8
仕上
  6
Continuous
 62
     2
370
     9
100
AcDbLine
 10
-940.6146651821052
 20
335.2283932968335
 30
0.0
 11
-940.6146651821052
 21
341.2284277027516
 31
0.0
  0
LINE
  5
256
330
1F
100
AcDbEntity
  8
仕上
  6
Continuous
 62
     2
370
     9
100
AcDbLine
 10
-940.6146651821052
 20
-339.7719639591378
 30
0.0
 11
-940.6146651821052
 21
-345.7719983650554
 31
0.0
  0
LINE
  5
257
330
1F
100
AcDbEntity
  8
仕上
  6
Continuous
 62
     7
370
     9
100
AcDbLine
 10
-245.6146651821056
 20
-335.2718791226266
 30
0.0
 11
-946.6146651821051
 21
-335.2718791226266
 31
0.0
  0
LINE
  5
258
330
1F
100
AcDbEntity
  8
仕上
  6
Continuous
 62
     2
370
     9
100
AcDbLine
 10
-940.6146651821052
 20
330.7283084603246
 30
0.0
 11
-940.6146651821052
 21
322.2281750784771
 31
0.0
  0
LINE
  5
259
330
1F
100
AcDbEntity
  8
仕上
  6
JWW_DASHED1
 62
     2
370
     9
100
AcDbLine
 10
-940.6146651821052
 20
322.2281750784771
 30
0.0
 11
-940.6146651821052
 21
-339.7719639591378
 31
0.0
  0
LINE
  5
25A
330
1F
100
AcDbEntity
  8
仕上
  6
JWW_DASHED1
 62
     2
370
     9
100
AcDbLine
 10
-251.6147115476152
 20
335.2283932968335
 30
0.0
 11
-251.6147115476152
 21
-326.7717921062886
 31
0.0
  0
ENDSEC
  0
SECTION
  2
OBJECTS
  0
DICTIONARY
  5
C
330
0
100
AcDbDictionary
281
     1
  3
ACAD_GROUP
350
D
  3
ACAD_LAYOUT
350
1A
  3
ACAD_MLEADERSTYLE
350
25C
  3
ACAD_MLINESTYLE
350
17
  3
ACAD_PLOTSETTINGS
350
19
  3
ACAD_PLOTSTYLENAME
350
E
  3
ACAD_TABLESTYLE
350
25B
  3
ACAD_VISUALSTYLE
350
2A
  0
DICTIONARY
  5
D
102
{ACAD_REACTORS
330
C
102
}
330
C
100
AcDbDictionary
281
     1
  0
DICTIONARY
  5
1A
102
{ACAD_REACTORS
330
C
102
}
330
C
100
AcDbDictionary
281
     1
  3
Layout1
350
1E
  3
Layout2
350
26
  3
Model
350
22
  0
DICTIONARY
  5
25C
102
{ACAD_REACTORS
330
C
102
}
330
C
100
AcDbDictionary
281
     1
  0
DICTIONARY
  5
17
102
{ACAD_REACTORS
330
C
102
}
330
C
100
AcDbDictionary
281
     1
  3
Standard
350
18
  0
DICTIONARY
  5
19
102
{ACAD_REACTORS
330
C
102
}
330
C
100
AcDbDictionary
281
     1
  0
ACDBDICTIONARYWDFLT
  5
E
102
{ACAD_REACTORS
330
C
102
}
330
C
100
AcDbDictionary
281
     1
  3
Normal
350
F
100
AcDbDictionaryWithDefault
340
F
  0
DICTIONARY
  5
25B
102
{ACAD_REACTORS
330
C
102
}
330
C
100
AcDbDictionary
281
     1
  0
DICTIONARY
  5
2A
102
{ACAD_REACTORS
330
C
102
}
330
C
100
AcDbDictionary
281
     1
  3
2dWireframe
350
2F
  3
3D Hidden
350
31
  3
3dWireframe
350
30
  3
Basic
350
32
  3
Brighten
350
36
  3
ColorChange
350
3A
  3
Conceptual
350
34
  3
Dim
350
35
  3
Facepattern
350
39
  3
Flat
350
2B
  3
FlatWithEdges
350
2C
  3
Gouraud
350
2D
  3
GouraudWithEdges
350
2E
  3
Linepattern
350
38
  3
Realistic
350
33
  3
Thicken
350
37
  0
LAYOUT
  5
1E
102
{ACAD_REACTORS
330
1A
102
}
330
1A
100
AcDbPlotSettings
  1

  2
none_device
  4

  6

 40
0.0
 41
0.0
 42
0.0
 43
0.0
 44
0.0
 45
0.0
 46
0.0
 47
0.0
 48
0.0
 49
0.0
140
0.0
141
0.0
142
1.0
143
1.0
 70
   688
 72
     0
 73
     0
 74
     5
  7

 75
    16
 76
     0
 77
     5
 78
   300
147
1.0
148
0.0
149
0.0
100
AcDbLayout
  1
Layout1
 70
     1
 71
     1
 10
0.0
 20
0.0
 11
420.0
 21
297.0
 12
0.0
 22
0.0
 32
0.0
 14
1.000000000000000E+20
 24
1.000000000000000E+20
 34
1.000000000000000E+20
 15
-1.000000000000000E+20
 25
-1.000000000000000E+20
 35
-1.000000000000000E+20
146
0.0
 13
0.0
 23
0.0
 33
0.0
 16
1.0
 26
0.0
 36
0.0
 17
0.0
 27
1.0
 37
0.0
 76
     0
330
1B
  0
LAYOUT
  5
26
102
{ACAD_REACTORS
330
1A
102
}
330
1A
100
AcDbPlotSettings
  1

  2
none_device
  4

  6

 40
0.0
 41
0.0
 42
0.0
 43
0.0
 44
0.0
 45
0.0
 46
0.0
 47
0.0
 48
0.0
 49
0.0
140
0.0
141
0.0
142
1.0
143
1.0
 70
   688
 72
     0
 73
     0
 74
     5
  7

 75
    16
 76
     0
 77
     5
 78
   300
147
1.0
148
0.0
149
0.0
100
AcDbLayout
  1
Layout2
 70
     1
 71
     2
 10
0.0
 20
0.0
 11
0.0
 21
0.0
 12
0.0
 22
0.0
 32
0.0
 14
0.0
 24
0.0
 34
0.0
 15
0.0
 25
0.0
 35
0.0
146
0.0
 13
0.0
 23
0.0
 33
0.0
 16
1.0
 26
0.0
 36
0.0
 17
0.0
 27
1.0
 37
0.0
 76
     0
330
23
  0
LAYOUT
  5
22
102
{ACAD_REACTORS
330
1A
102
}
330
1A
100
AcDbPlotSettings
  1

  2
none_device
  4

  6

 40
0.0
 41
0.0
 42
0.0
 43
0.0
 44
0.0
 45
0.0
 46
0.0
 47
0.0
 48
0.0
 49
0.0
140
0.0
141
0.0
142
1.0
143
1.0
 70
  1712
 72
     0
 73
     0
 74
     0
  7

 75
     0
 76
     0
 77
     5
 78
   300
147
1.0
148
0.0
149
0.0
100
AcDbLayout
  1
Model
 70
     1
 71
     0
 10
-1188.0
 20
-840.0
 11
1188.0
 21
840.0
 12
0.0
 22
0.0
 32
0.0
 14
-1188.0
 24
-840.0
 34
0.0
 15
1188.0
 25
840.0
 35
0.0
146
0.0
 13
0.0
 23
0.0
 33
0.0
 16
1.0
 26
0.0
 36
0.0
 17
0.0
 27
1.0
 37
0.0
 76
     0
330
1F
331
29
  0
MLINESTYLE
  5
18
102
{ACAD_REACTORS
330
17
102
}
330
17
100
AcDbMlineStyle
  2
Standard
 70
     0
  3

 62
   256
 51
90.0
 52
90.0
 71
     2
 49
0.5
 62
   256
  6
BYLAYER
 49
-0.5
 62
   256
  6
BYLAYER
  0
ACDBPLACEHOLDER
  5
F
102
{ACAD_REACTORS
330
E
102
}
330
E
  0
VISUALSTYLE
  5
2F
102
{ACAD_REACTORS
330
2A
102
}
330
2A
100
AcDbVisualStyle
  2
2dWireframe
 70
     4
 71
     0
 72
     2
 73
     0
 90
        0
 40
-0.6
 41
-30.0
 62
     5
 63
     7
421
 16777215
 74
     1
 91
        4
 64
     7
 65
   257
 75
     1
175
     1
 42
1.0
 92
        0
 66
   257
 43
1.0
 76
     1
 77
     6
 78
     2
 67
     7
 79
     5
170
     0
171
     0
290
     0
174
     0
 93
        1
 44
0.0
173
     0
291
     0
 45
0.0
  0
VISUALSTYLE
  5
31
102
{ACAD_REACTORS
330
2A
102
}
330
2A
100
AcDbVisualStyle
  2
3D Hidden
 70
     6
 71
     1
 72
     2
 73
     2
 90
        0
 40
-0.6
 41
-30.0
 62
     5
 63
     7
421
 16777215
 74
     2
 91
        2
 64
     7
 65
   257
 75
     2
175
     1
 42
40.0
 92
        0
 66
   257
 43
1.0
 76
     1
 77
     6
 78
     2
 67
     7
 79
     3
170
     0
171
     0
290
     0
174
     0
 93
        1
 44
0.0
173
     0
291
     0
 45
0.0
  0
VISUALSTYLE
  5
30
102
{ACAD_REACTORS
330
2A
102
}
330
2A
100
AcDbVisualStyle
  2
3dWireframe
 70
     5
 71
     0
 72
     2
 73
     0
 90
        0
 40
-0.6
 41
-30.0
 62
     5
 63
     7
421
 16777215
 74
     1
 91
        4
 64
     7
 65
   257
 75
     1
175
     1
 42
1.0
 92
        0
 66
   257
 43
1.0
 76
     1
 77
     6
 78
     2
 67
     7
 79
     5
170
     0
171
     0
290
     0
174
     0
 93
        1
 44
0.0
173
     0
291
     0
 45
0.0
  0
VISUALSTYLE
  5
32
102
{ACAD_REACTORS
330
2A
102
}
330
2A
100
AcDbVisualStyle
  2
Basic
 70
     7
 71
     1
 72
     0
 73
     1
 90
        0
 40
-0.6
 41
-30.0
 62
     5
 63
     7
421
 16777215
 74
     0
 91
        4
 64
     7
 65
   257
 75
     1
175
     1
 42
1.0
 92
        8
 66
     7
 43
1.0
 76
     1
 77
     6
 78
     2
 67
     7
 79
     5
170
     0
171
     0
290
     0
174
     0
 93
        1
 44
0.0
173
     0
291
     1
 45
0.0
  0
VISUALSTYLE
  5
36
102
{ACAD_REACTORS
330
2A
102
}
330
2A
100
AcDbVisualStyle
  2
Brighten
 70
    12
 71
     2
 72
     2
 73
     0
 90
        0
 40
-0.6
 41
-30.0
 62
     5
 63
     7
421
 16777215
 74
     1
 91
        4
 64
     7
 65
   257
 75
     1
175
     1
 42
1.0
 92
        8
 66
     7
 43
1.0
 76
     1
 77
     6
 78
     2
 67
     7
 79
     5
170
     0
171
     0
290
     0
174
     0
 93
        1
 44
50.0
173
     0
291
     1
 45
0.0
  0
VISUALSTYLE
  5
3A
102
{ACAD_REACTORS
330
2A
102
}
330
2A
100
AcDbVisualStyle
  2
ColorChange
 70
    16
 71
     2
 72
     2
 73
     3
 90
        0
 40
-0.6
 41
-30.0
 62
     5
 63
     8
421
  8421504
 74
     1
 91
        4
 64
     7
 65
   257
 75
     1
175
     1
 42
1.0
 92
        8
 66
     8
424
  8421504
 43
1.0
 76
     1
 77
     6
 78
     2
 67
     7
 79
     5
170
     0
171
     0
290
     0
174
     0
 93
        1
 44
0.0
173
     0
291
     1
 45
0.0
  0
VISUALSTYLE
  5
34
102
{ACAD_REACTORS
330
2A
102
}
330
2A
100
AcDbVisualStyle
  2
Conceptual
 70
     9
 71
     3
 72
     2
 73
     0
 90
        0
 40
-0.6
 41
-30.0
 62
     5
 63
     7
421
 16777215
 74
     2
 91
        2
 64
     7
 65
   257
 75
     1
175
     1
 42
40.0
 92
        8
 66
     7
 43
1.0
 76
     1
 77
     6
 78
     2
 67
     7
 79
     3
170
     0
171
     0
290
     0
174
     0
 93
        1
 44
0.0
173
     0
291
     0
 45
0.0
  0
VISUALSTYLE
  5
35
102
{ACAD_REACTORS
330
2A
102
}
330
2A
100
AcDbVisualStyle
  2
Dim
 70
    11
 71
     2
 72
     2
 73
     0
 90
        0
 40
-0.6
 41
-30.0
 62
     5
 63
     7
421
 16777215
 74
     1
 91
        4
 64
     7
 65
   257
 75
     1
175
     1
 42
1.0
 92
        8
 66
     7
 43
1.0
 76
     1
 77
     6
 78
     2
 67
     7
 79
     5
170
     0
171
     0
290
     0
174
     0
 93
        1
 44
-50.0
173
     0
291
     1
 45
0.0
  0
VISUALSTYLE
  5
39
102
{ACAD_REACTORS
330
2A
102
}
330
2A
100
AcDbVisualStyle
  2
Facepattern
 70
    15
 71
     2
 72
     2
 73
     0
 90
        0
 40
-0.6
 41
-30.0
 62
     5
 63
     7
421
 16777215
 74
     1
 91
        4
 64
     7
 65
   257
 75
     1
175
     1
 42
1.0
 92
        8
 66
     7
 43
1.0
 76
     1
 77
     6
 78
     2
 67
     7
 79
     5
170
     0
171
     0
290
     0
174
     0
 93
        1
 44
0.0
173
     0
291
     1
 45
0.0
  0
VISUALSTYLE
  5
2B
102
{ACAD_REACTORS
330
2A
102
}
330
2A
100
AcDbVisualStyle
  2
Flat
 70
     0
 71
     2
 72
     1
 73
     1
 90
        2
 40
-0.6
 41
30.0
 62
     5
 63
     7
421
 16777215
 74
     0
 91
        4
 64
     7
 65
   257
 75
     1
175
     1
 42
1.0
 92
        8
 66
     7
 43
1.0
 76
     1
 77
     6
 78
     2
 67
     7
 79
     5
170
     0
171
     0
290
     0
174
     0
 93
       13
 44
0.0
173
     0
291
     1
 45
0.0
  0
VISUALSTYLE
  5
2C
102
{ACAD_REACTORS
330
2A
102
}
330
2A
100
AcDbVisualStyle
  2
FlatWithEdges
 70
     1
 71
     2
 72
     1
 73
     1
 90
        2
 40
-0.6
 41
30.0
 62
     5
 63
     7
421
 16777215
 74
     1
 91
        4
 64
     7
 65
   257
 75
     1
175
     1
 42
1.0
 92
        0
 66
   257
 43
1.0
 76
     1
 77
     6
 78
     2
 67
     7
 79
     5
170
     0
171
     0
290
     0
174
     0
 93
       13
 44
0.0
173
     0
291
     1
 45
0.0
  0
VISUALSTYLE
  5
2D
102
{ACAD_REACTORS
330
2A
102
}
330
2A
100
AcDbVisualStyle
  2
Gouraud
 70
     2
 71
     2
 72
     2
 73
     1
 90
        2
 40
-0.6
 41
30.0
 62
     5
 63
     7
421
 16777215
 74
     0
 91
        4
 64
     7
 65
   257
 75
     1
175
     1
 42
1.0
 92
        0
 66
     7
 43
1.0
 76
     1
 77
     6
 78
     2
 67
     7
 79
     5
170
     0
171
     0
290
     0
174
     0
 93
       13
 44
0.0
173
     0
291
     1
 45
0.0
  0
VISUALSTYLE
  5
2E
102
{ACAD_REACTORS
330
2A
102
}
330
2A
100
AcDbVisualStyle
  2
GouraudWithEdges
 70
     3
 71
     2
 72
     2
 73
     1
 90
        2
 40
-0.6
 41
30.0
 62
     5
 63
     7
421
 16777215
 74
     1
 91
        4
 64
     7
 65
   257
 75
     1
175
     1
 42
1.0
 92
        0
 66
   257
 43
1.0
 76
     1
 77
     6
 78
     2
 67
     7
 79
     5
170
     0
171
     0
290
     0
174
     0
 93
       13
 44
0.0
173
     0
291
     1
 45
0.0
  0
VISUALSTYLE
  5
38
102
{ACAD_REACTORS
330
2A
102
}
330
2A
100
AcDbVisualStyle
  2
Linepattern
 70
    14
 71
     2
 72
     2
 73
     0
 90
        0
 40
-0.6
 41
-30.0
 62
     5
 63
     7
421
 16777215
 74
     1
 91
        4
 64
     7
 65
   257
 75
     7
175
     7
 42
1.0
 92
        8
 66
     7
 43
1.0
 76
     1
 77
     6
 78
     2
 67
     7
 79
     5
170
     0
171
     0
290
     0
174
     0
 93
        1
 44
0.0
173
     0
291
     1
 45
0.0
  0
VISUALSTYLE
  5
33
102
{ACAD_REACTORS
330
2A
102
}
330
2A
100
AcDbVisualStyle
  2
Realistic
 70
     8
 71
     2
 72
     2
 73
     0
 90
        0
 40
-0.6
 41
-30.0
 62
     5
 63
     7
421
 16777215
 74
     1
 91
        0
 64
     7
 65
   257
 75
     1
175
     1
 42
1.0
 92
        8
 66
     8
424
  7895160
 43
1.0
 76
     1
 77
     6
 78
     2
 67
     7
 79
     5
170
     0
171
     0
290
     0
174
     0
 93
       13
 44
0.0
173
     0
291
     0
 45
0.0
  0
VISUALSTYLE
  5
37
102
{ACAD_REACTORS
330
2A
102
}
330
2A
100
AcDbVisualStyle
  2
Thicken
 70
    13
 71
     2
 72
     2
 73
     0
 90
        0
 40
-0.6
 41
-30.0
 62
     5
 63
     7
421
 16777215
 74
     1
 91
        4
 64
     7
 65
   257
 75
     1
175
     1
 42
1.0
 92
       12
 66
     7
 43
1.0
 76
     1
 77
     6
 78
     2
 67
     7
 79
     5
170
     0
171
     0
290
     0
174
     0
 93
        1
 44
0.0
173
     0
291
     1
 45
0.0
  0
ENDSEC
  0
EOF
