  0
SECTION
  2
HEADER
  9
$ACADVER
  1
AC1021
  9
$ACADMAINTVER
 70
    25
  9
$DWGCODEPAGE
  3
ANSI_932
  9
$INSBASE
 10
0.0
 20
0.0
 30
0.0
  9
$EXTMIN
 10
-1188.0
 20
-840.0
 30
0.0
  9
$EXTMAX
 10
1188.0
 20
840.0
 30
0.0
  9
$LIMMIN
 10
-1188.0
 20
-840.0
  9
$LIMMAX
 10
1188.0
 20
840.0
  9
$ORTHOMODE
 70
     0
  9
$REGENMODE
 70
     1
  9
$FILLMODE
 70
     1
  9
$QTEXTMODE
 70
     0
  9
$MIRRTEXT
 70
     1
  9
$LTSCALE
 40
4.0
  9
$ATTMODE
 70
     1
  9
$TEXTSIZE
 40
2.5
  9
$TRACEWID
 40
1.0
  9
$TEXTSTYLE
  7
Standard
  9
$CLAYER
  8
0
  9
$CELTYPE
  6
ByLayer
  9
$CECOLOR
 62
   256
  9
$CELTSCALE
 40
1.0
  9
$DISPSILH
 70
     0
  9
$DIMSCALE
 40
1.0
  9
$DIMASZ
 40
2.5
  9
$DIMEXO
 40
0.625
  9
$DIMDLI
 40
3.75
  9
$DIMRND
 40
0.0
  9
$DIMDLE
 40
0.0
  9
$DIMEXE
 40
1.25
  9
$DIMTP
 40
0.0
  9
$DIMTM
 40
0.0
  9
$DIMTXT
 40
2.5
  9
$DIMCEN
 40
2.5
  9
$DIMTSZ
 40
0.0
  9
$DIMTOL
 70
     0
  9
$DIMLIM
 70
     0
  9
$DIMTIH
 70
     0
  9
$DIMTOH
 70
     0
  9
$DIMSE1
 70
     0
  9
$DIMSE2
 70
     0
  9
$DIMTAD
 70
     1
  9
$DIMZIN
 70
     8
  9
$DIMBLK
  1

  9
$DIMASO
 70
     1
  9
$DIMSHO
 70
     1
  9
$DIMPOST
  1

  9
$DIMAPOST
  1

  9
$DIMALT
 70
     0
  9
$DIMALTD
 70
     3
  9
$DIMALTF
 40
0.03937007874016
  9
$DIMLFAC
 40
1.0
  9
$DIMTOFL
 70
     1
  9
$DIMTVP
 40
0.0
  9
$DIMTIX
 70
     0
  9
$DIMSOXD
 70
     0
  9
$DIMSAH
 70
     0
  9
$DIMBLK1
  1

  9
$DIMBLK2
  1

  9
$DIMSTYLE
  2
ISO-25
  9
$DIMCLRD
 70
     0
  9
$DIMCLRE
 70
     0
  9
$DIMCLRT
 70
     0
  9
$DIMTFAC
 40
1.0
  9
$DIMGAP
 40
0.625
  9
$DIMJUST
 70
     0
  9
$DIMSD1
 70
     0
  9
$DIMSD2
 70
     0
  9
$DIMTOLJ
 70
     0
  9
$DIMTZIN
 70
     8
  9
$DIMALTZ
 70
     0
  9
$DIMALTTZ
 70
     0
  9
$DIMUPT
 70
     0
  9
$DIMDEC
 70
     2
  9
$DIMTDEC
 70
     2
  9
$DIMALTU
 70
     2
  9
$DIMALTTD
 70
     3
  9
$DIMTXSTY
  7
Standard
  9
$DIMAUNIT
 70
     0
  9
$DIMADEC
 70
     0
  9
$DIMALTRND
 40
0.0
  9
$DIMAZIN
 70
     0
  9
$DIMDSEP
 70
    44
  9
$DIMATFIT
 70
     3
  9
$DIMFRAC
 70
     0
  9
$DIMLDRBLK
  1

  9
$DIMLUNIT
 70
     2
  9
$DIMLWD
 70
    -2
  9
$DIMLWE
 70
    -2
  9
$DIMTMOVE
 70
     0
  9
$DIMFXL
 40
1.0
  9
$DIMFXLON
 70
     0
  9
$DIMJOGANG
 40
0.7853981633974483
  9
$DIMTFILL
 70
     0
  9
$DIMTFILLCLR
 70
     0
  9
$DIMARCSYM
 70
     0
  9
$DIMLTYPE
  6

  9
$DIMLTEX1
  6

  9
$DIMLTEX2
  6

  9
$LUNITS
 70
     2
  9
$LUPREC
 70
     4
  9
$SKETCHINC
 40
1.0
  9
$FILLETRAD
 40
10.0
  9
$AUNITS
 70
     0
  9
$AUPREC
 70
     0
  9
$MENU
  1
.
  9
$ELEVATION
 40
0.0
  9
$PELEVATION
 40
0.0
  9
$THICKNESS
 40
0.0
  9
$LIMCHECK
 70
     0
  9
$CHAMFERA
 40
10.0
  9
$CHAMFERB
 40
10.0
  9
$CHAMFERC
 40
20.0
  9
$CHAMFERD
 40
0.0
  9
$SKPOLY
 70
     0
  9
$TDCREATE
 40
2457836.640574329
  9
$TDUCREATE
 40
2457836.265574329
  9
$TDUPDATE
 40
2457836.64057434
  9
$TDUUPDATE
 40
2457836.26557434
  9
$TDINDWG
 40
0.0000000116
  9
$TDUSRTIMER
 40
0.0000000116
  9
$USRTIMER
 70
     1
  9
$ANGBASE
 50
0.0
  9
$ANGDIR
 70
     0
  9
$PDMODE
 70
     0
  9
$PDSIZE
 40
0.0
  9
$PLINEWID
 40
0.0
  9
$SPLFRAME
 70
     0
  9
$SPLINETYPE
 70
     6
  9
$SPLINESEGS
 70
     8
  9
$HANDSEED
  5
1FF
  9
$SURFTAB1
 70
     6
  9
$SURFTAB2
 70
     6
  9
$SURFTYPE
 70
     6
  9
$SURFU
 70
     6
  9
$SURFV
 70
     6
  9
$UCSBASE
  2

  9
$UCSNAME
  2

  9
$UCSORG
 10
0.0
 20
0.0
 30
0.0
  9
$UCSXDIR
 10
1.0
 20
0.0
 30
0.0
  9
$UCSYDIR
 10
0.0
 20
1.0
 30
0.0
  9
$UCSORTHOREF
  2

  9
$UCSORTHOVIEW
 70
     0
  9
$UCSORGTOP
 10
0.0
 20
0.0
 30
0.0
  9
$UCSORGBOTTOM
 10
0.0
 20
0.0
 30
0.0
  9
$UCSORGLEFT
 10
0.0
 20
0.0
 30
0.0
  9
$UCSORGRIGHT
 10
0.0
 20
0.0
 30
0.0
  9
$UCSORGFRONT
 10
0.0
 20
0.0
 30
0.0
  9
$UCSORGBACK
 10
0.0
 20
0.0
 30
0.0
  9
$PUCSBASE
  2

  9
$PUCSNAME
  2

  9
$PUCSORG
 10
0.0
 20
0.0
 30
0.0
  9
$PUCSXDIR
 10
1.0
 20
0.0
 30
0.0
  9
$PUCSYDIR
 10
0.0
 20
1.0
 30
0.0
  9
$PUCSORTHOREF
  2

  9
$PUCSORTHOVIEW
 70
     0
  9
$PUCSORGTOP
 10
0.0
 20
0.0
 30
0.0
  9
$PUCSORGBOTTOM
 10
0.0
 20
0.0
 30
0.0
  9
$PUCSORGLEFT
 10
0.0
 20
0.0
 30
0.0
  9
$PUCSORGRIGHT
 10
0.0
 20
0.0
 30
0.0
  9
$PUCSORGFRONT
 10
0.0
 20
0.0
 30
0.0
  9
$PUCSORGBACK
 10
0.0
 20
0.0
 30
0.0
  9
$USERI1
 70
     0
  9
$USERI2
 70
     0
  9
$USERI3
 70
     0
  9
$USERI4
 70
     0
  9
$USERI5
 70
     0
  9
$USERR1
 40
0.0
  9
$USERR2
 40
0.0
  9
$USERR3
 40
0.0
  9
$USERR4
 40
0.0
  9
$USERR5
 40
0.0
  9
$WORLDVIEW
 70
     1
  9
$SHADEDGE
 70
     3
  9
$SHADEDIF
 70
    70
  9
$TILEMODE
 70
     1
  9
$MAXACTVP
 70
    64
  9
$PINSBASE
 10
0.0
 20
0.0
 30
0.0
  9
$PLIMCHECK
 70
     0
  9
$PEXTMIN
 10
1.000000000000000E+20
 20
1.000000000000000E+20
 30
1.000000000000000E+20
  9
$PEXTMAX
 10
-1.000000000000000E+20
 20
-1.000000000000000E+20
 30
-1.000000000000000E+20
  9
$PLIMMIN
 10
0.0
 20
0.0
  9
$PLIMMAX
 10
420.0
 20
297.0
  9
$UNITMODE
 70
     0
  9
$VISRETAIN
 70
     1
  9
$PLINEGEN
 70
     0
  9
$PSLTSCALE
 70
     1
  9
$TREEDEPTH
 70
  3020
  9
$CMLSTYLE
  2
Standard
  9
$CMLJUST
 70
     0
  9
$CMLSCALE
 40
20.0
  9
$PROXYGRAPHICS
 70
     1
  9
$MEASUREMENT
 70
     1
  9
$CELWEIGHT
370
    -1
  9
$ENDCAPS
280
     0
  9
$JOINSTYLE
280
     0
  9
$LWDISPLAY
290
     0
  9
$INSUNITS
 70
     4
  9
$HYPERLINKBASE
  1

  9
$STYLESHEET
  1

  9
$XEDIT
290
     1
  9
$CEPSNTYPE
380
     0
  9
$PSTYLEMODE
290
     1
  9
$FINGERPRINTGUID
  2
{0C153461-9425-46EA-87DF-030E132C1D49}
  9
$VERSIONGUID
  2
{FAEB1C32-E019-11D5-929B-00C0DF256EC4}
  9
$EXTNAMES
290
     1
  9
$PSVPSCALE
 40
0.0
  9
$OLESTARTUP
290
     0
  9
$SORTENTS
280
   127
  9
$INDEXCTL
280
     0
  9
$HIDETEXT
280
     1
  9
$XCLIPFRAME
290
     0
  9
$HALOGAP
280
     0
  9
$OBSCOLOR
 70
   257
  9
$OBSLTYPE
280
     0
  9
$INTERSECTIONDISPLAY
280
     0
  9
$INTERSECTIONCOLOR
 70
   257
  9
$DIMASSOC
280
     2
  9
$PROJECTNAME
  1

  9
$CAMERADISPLAY
290
     0
  9
$LENSLENGTH
 40
50.0
  9
$CAMERAHEIGHT
 40
0.0
  9
$STEPSPERSEC
 40
2.0
  9
$STEPSIZE
 40
6.0
  9
$3DDWFPREC
 40
2.0
  9
$PSOLWIDTH
 40
5.0
  9
$PSOLHEIGHT
 40
80.0
  9
$LOFTANG1
 40
1.570796326794897
  9
$LOFTANG2
 40
1.570796326794897
  9
$LOFTMAG1
 40
0.0
  9
$LOFTMAG2
 40
0.0
  9
$LOFTPARAM
 70
     7
  9
$LOFTNORMALS
280
     1
  9
$LATITUDE
 40
37.795
  9
$LONGITUDE
 40
-122.394
  9
$NORTHDIRECTION
 40
0.0
  9
$TIMEZONE
 70
 -8000
  9
$LIGHTGLYPHDISPLAY
280
     1
  9
$TILEMODELIGHTSYNCH
280
     1
  9
$SOLIDHIST
280
     1
  9
$SHOWHIST
280
     1
  9
$DWFFRAME
280
     2
  9
$DGNFRAME
280
     2
  9
$REALWORLDSCALE
290
     1
  9
$INTERFERECOLOR
 62
   256
  9
$CSHADOW
280
     0
  9
$SHADOWPLANELOCATION
 40
0.0
  0
ENDSEC
  0
SECTION
  2
CLASSES
  0
CLASS
  1
ACDBDICTIONARYWDFLT
  2
AcDbDictionaryWithDefault
  3
ObjectDBX Classes
 90
        0
 91
        4
280
     0
281
     0
  0
CLASS
  1
VISUALSTYLE
  2
AcDbVisualStyle
  3
ObjectDBX Classes
 90
     4095
 91
        4
280
     0
281
     0
  0
ENDSEC
  0
SECTION
  2
TABLES
  0
TABLE
  2
VPORT
  5
8
330
0
100
AcDbSymbolTable
 70
     1
  0
VPORT
  5
29
330
8
100
AcDbSymbolTableRecord
100
AcDbViewportTableRecord
  2
*Active
 70
     0
 10
0.0
 20
0.0
 11
1.0
 21
1.0
 12
0.0
 22
0.0
 13
0.0
 23
0.0
 14
10.0
 24
10.0
 15
10.0
 25
10.0
 16
0.0
 26
0.0
 36
1.0
 17
0.0
 27
0.0
 37
0.0
 40
1848.0
 41
1.414285714285714
 42
50.0
 43
0.0
 44
0.0
 50
0.0
 51
0.0
 71
     0
 72
 10000
 73
     1
 74
     3
 75
     0
 76
     0
 77
     0
 78
     0
281
     0
 65
     1
110
0.0
120
0.0
130
0.0
111
1.0
121
0.0
131
0.0
112
0.0
122
1.0
132
0.0
 79
     0
146
0.0
 60
     3
 61
     5
292
     1
282
     1
141
0.0
142
0.0
 63
   256
  0
ENDTAB
  0
TABLE
  2
LTYPE
  5
5
330
0
100
AcDbSymbolTable
 70
     5
  0
LTYPE
  5
14
330
5
100
AcDbSymbolTableRecord
100
AcDbLinetypeTableRecord
  2
ByBlock
 70
     0
  3

 72
    65
 73
     0
 40
0.0
  0
LTYPE
  5
15
330
5
100
AcDbSymbolTableRecord
100
AcDbLinetypeTableRecord
  2
ByLayer
 70
     0
  3

 72
    65
 73
     0
 40
0.0
  0
LTYPE
  5
16
330
5
100
AcDbSymbolTableRecord
100
AcDbLinetypeTableRecord
  2
Continuous
 70
     0
  3
Solid line
 72
    65
 73
     0
 40
0.0
  0
LTYPE
  5
3C
330
5
100
AcDbSymbolTableRecord
100
AcDbLinetypeTableRecord
  2
JWW_CENTER1
 70
     0
  3
-----  --  ----------  --  -----
 72
    65
 73
     4
 40
6.773333333333333
 49
4.233333333333333
 74
     0
 49
-0.8466666666666667
 74
     0
 49
0.8466666666666667
 74
     0
 49
-0.8466666666666667
 74
     0
  0
LTYPE
  5
3D
330
5
100
AcDbSymbolTableRecord
100
AcDbLinetypeTableRecord
  2
JWW_DASHED3
 70
     0
  3
---  ------  ------  ------  ---
 72
    65
 73
     2
 40
3.386666666666667
 49
2.54
 74
     0
 49
-0.8466666666666667
 74
     0
  0
LTYPE
  5
3E
330
5
100
AcDbSymbolTableRecord
100
AcDbLinetypeTableRecord
  2
JWW_DASHED1
 70
     0
  3
-  --  --  --  --  --  --  --  -
 72
    65
 73
     2
 40
1.693333333333333
 49
0.8466666666666667
 74
     0
 49
-0.8466666666666667
 74
     0
  0
LTYPE
  5
3F
330
5
100
AcDbSymbolTableRecord
100
AcDbLinetypeTableRecord
  2
JWW_CENTER2
 70
     0
  3
-------------  --  -------------
 72
    65
 73
     4
 40
13.54666666666667
 49
11.00666666666667
 74
     0
 49
-0.8466666666666667
 74
     0
 49
0.8466666666666667
 74
     0
 49
-0.8466666666666667
 74
     0
  0
ENDTAB
  0
TABLE
  2
LAYER
  5
2
330
0
100
AcDbSymbolTable
 70
    10
  0
LAYER
  5
10
330
2
100
AcDbSymbolTableRecord
100
AcDbLayerTableRecord
  2
0
 70
     0
 62
     7
  6
Continuous
370
    -3
390
F
347
0
  0
LAYER
  5
40
330
2
100
AcDbSymbolTableRecord
100
AcDbLayerTableRecord
  2
F-4ﾚｲﾔ
 70
     0
 62
     7
  6
Continuous
370
    -3
390
F
347
0
  0
LAYER
  5
41
330
2
100
AcDbSymbolTableRecord
100
AcDbLayerTableRecord
  2
F-Fﾚｲﾔ
 70
     0
 62
     7
  6
Continuous
370
    -3
390
F
347
0
  0
LAYER
  5
42
330
2
100
AcDbSymbolTableRecord
100
AcDbLayerTableRecord
  2
F-5ﾚｲﾔ
 70
     0
 62
     7
  6
Continuous
370
    -3
390
F
347
0
  0
LAYER
  5
43
330
2
100
AcDbSymbolTableRecord
100
AcDbLayerTableRecord
  2
建具
 70
     0
 62
     7
  6
Continuous
370
    -3
390
F
347
0
  0
LAYER
  5
44
330
2
100
AcDbSymbolTableRecord
100
AcDbLayerTableRecord
  2
躯体
 70
     0
 62
     7
  6
Continuous
370
    -3
390
F
347
0
  0
LAYER
  5
45
330
2
100
AcDbSymbolTableRecord
100
AcDbLayerTableRecord
  2
仕上
 70
     0
 62
     7
  6
Continuous
370
    -3
390
F
347
0
  0
LAYER
  5
46
330
2
100
AcDbSymbolTableRecord
100
AcDbLayerTableRecord
  2
その他
 70
     0
 62
     7
  6
Continuous
370
    -3
390
F
347
0
  0
LAYER
  5
47
330
2
100
AcDbSymbolTableRecord
100
AcDbLayerTableRecord
  2
通り芯
 70
     0
 62
     7
  6
Continuous
370
    -3
390
F
347
0
  0
LAYER
  5
48
330
2
100
AcDbSymbolTableRecord
100
AcDbLayerTableRecord
  2
寸法
 70
     0
 62
     7
  6
Continuous
370
    -3
390
F
347
0
  0
ENDTAB
  0
TABLE
  2
STYLE
  5
3
330
0
100
AcDbSymbolTable
 70
     2
  0
STYLE
  5
11
330
3
100
AcDbSymbolTableRecord
100
AcDbTextStyleTableRecord
  2
Standard
 70
     0
 40
0.0
 41
1.0
 50
0.0
 71
     0
 42
2.5
  3
txt
  4

1001
ACAD
1000

1071
        0
  0
STYLE
  5
3B
330
3
100
AcDbSymbolTableRecord
100
AcDbTextStyleTableRecord
  2
ＭＳ ゴシック
 70
     0
 40
1.0
 41
1.0
 50
0.0
 71
     0
 42
10.0
  3

  4

1001
ACAD
1000
MS Gothic
1071
    32817
  0
ENDTAB
  0
TABLE
  2
VIEW
  5
6
330
0
100
AcDbSymbolTable
 70
     0
  0
ENDTAB
  0
TABLE
  2
UCS
  5
7
330
0
100
AcDbSymbolTable
 70
     0
  0
ENDTAB
  0
TABLE
  2
APPID
  5
9
330
0
100
AcDbSymbolTable
 70
     1
  0
APPID
  5
12
330
9
100
AcDbSymbolTableRecord
100
AcDbRegAppTableRecord
  2
ACAD
 70
     0
  0
ENDTAB
  0
TABLE
  2
DIMSTYLE
  5
A
330
0
100
AcDbSymbolTable
 70
     1
100
AcDbDimStyleTable
  0
DIMSTYLE
105
27
330
A
100
AcDbSymbolTableRecord
100
AcDbDimStyleTableRecord
  2
ISO-25
 70
     0
 41
2.5
 42
0.625
 43
3.75
 44
1.25
 73
     0
 74
     0
 77
     1
 78
     8
140
2.5
141
2.5
143
0.03937007874016
147
0.625
171
     3
172
     1
271
     2
272
     2
274
     3
278
    44
283
     0
284
     8
340
11
  0
ENDTAB
  0
TABLE
  2
BLOCK_RECORD
  5
1
330
0
100
AcDbSymbolTable
 70
     1
  0
BLOCK_RECORD
  5
1F
330
1
100
AcDbSymbolTableRecord
100
AcDbBlockTableRecord
  2
*Model_Space
340
22
 70
     0
280
     1
281
     0
  0
BLOCK_RECORD
  5
1B
330
1
100
AcDbSymbolTableRecord
100
AcDbBlockTableRecord
  2
*Paper_Space
340
1E
 70
     0
280
     1
281
     0
  0
BLOCK_RECORD
  5
23
330
1
100
AcDbSymbolTableRecord
100
AcDbBlockTableRecord
  2
*Paper_Space0
340
26
 70
     0
280
     1
281
     0
  0
ENDTAB
  0
ENDSEC
  0
SECTION
  2
BLOCKS
  0
BLOCK
  5
20
330
1F
100
AcDbEntity
  8
0
100
AcDbBlockBegin
  2
*Model_Space
 70
     0
 10
0.0
 20
0.0
 30
0.0
  3
*Model_Space
  1

  0
ENDBLK
  5
21
330
1F
100
AcDbEntity
  8
0
100
AcDbBlockEnd
  0
BLOCK
  5
1C
330
1B
100
AcDbEntity
 67
     1
  8
0
100
AcDbBlockBegin
  2
*Paper_Space
 70
     0
 10
0.0
 20
0.0
 30
0.0
  3
*Paper_Space
  1

  0
ENDBLK
  5
1D
330
1B
100
AcDbEntity
 67
     1
  8
0
100
AcDbBlockEnd
  0
BLOCK
  5
24
330
23
100
AcDbEntity
  8
0
100
AcDbBlockBegin
  2
*Paper_Space0
 70
     0
 10
0.0
 20
0.0
 30
0.0
  3
*Paper_Space0
  1

  0
ENDBLK
  5
25
330
23
100
AcDbEntity
  8
0
100
AcDbBlockEnd
  0
ENDSEC
  0
SECTION
  2
ENTITIES
  0
TEXT
  5
49
330
1F
100
AcDbEntity
  8
F-4ﾚｲﾔ
  6
Continuous
 62
     2
370
     9
100
AcDbText
 10
-183.2969419300666
 20
-759.0108394076666
 30
0.0
 40
12.192
  1
カラー舗装用みぞ蓋　インターロッキングブロック用　充填深さ６５ｍｍ　スチール製
 41
1.121794871794872
  7
ＭＳ ゴシック
100
AcDbText
  0
TEXT
  5
4A
330
1F
100
AcDbEntity
  8
F-Fﾚｲﾔ
  6
Continuous
 62
     2
370
     9
100
AcDbText
 10
491.3927701200099
 20
739.1718930562811
 30
0.0
 40
12.192
  1
強度性能
 41
1.093749999999999
  7
ＭＳ ゴシック
100
AcDbText
  0
TEXT
  5
4B
330
1F
100
AcDbEntity
  8
F-Fﾚｲﾔ
  6
Continuous
 62
     2
370
     9
100
AcDbText
 10
491.3927701200099
 20
703.171871598609
 30
0.0
 40
12.192
  1
強度
 41
1.062499999999998
  7
ＭＳ ゴシック
100
AcDbText
  0
TEXT
  5
4C
330
1F
100
AcDbEntity
  8
F-Fﾚｲﾔ
  6
Continuous
 62
     2
370
     9
100
AcDbText
 10
491.3927701200099
 20
639.171871598609
 30
0.0
 40
12.192
  1
主な使用場所
 41
1.104166666666666
  7
ＭＳ ゴシック
100
AcDbText
  0
TEXT
  5
4D
330
1F
100
AcDbEntity
  8
F-Fﾚｲﾔ
  6
Continuous
 62
     2
370
     9
100
AcDbText
 10
649.4752925483856
 20
703.171871598609
 30
0.0
 40
12.192
  1
T-2：後輪1輪荷重7.8kN(800kgf)
 41
1.120689655172414
  7
ＭＳ ゴシック
100
AcDbText
  0
TEXT
  5
4E
330
1F
100
AcDbEntity
  8
F-Fﾚｲﾔ
  6
Continuous
 62
     2
370
     9
100
AcDbText
 10
649.4752925483856
 20
671.171871598609
 30
0.0
 40
12.192
  1
 　　総重量2トンまでの車両が通行可能
 41
1.118055555555556
  7
ＭＳ ゴシック
100
AcDbText
  0
TEXT
  5
4F
330
1F
100
AcDbEntity
  8
F-Fﾚｲﾔ
  6
Continuous
 62
     2
370
     9
100
AcDbText
 10
649.4752925483856
 20
639.171871598609
 30
0.0
 40
12.192
  1
建物内、建物敷地内、公園敷地内、
 41
1.1171875
  7
ＭＳ ゴシック
100
AcDbText
  0
TEXT
  5
50
330
1F
100
AcDbEntity
  8
F-Fﾚｲﾔ
  6
Continuous
 62
     2
370
     9
100
AcDbText
 10
649.4752925483856
 20
607.171871598609
 30
0.0
 40
12.192
  1
車道以外で車両の乗り入れる可能性のある場所
 41
1.119047619047619
  7
ＭＳ ゴシック
100
AcDbText
  0
TEXT
  5
51
330
1F
100
AcDbEntity
  8
F-Fﾚｲﾔ
  6
Continuous
 62
     2
370
     9
100
AcDbText
 10
491.3927701200099
 20
543.171871598609
 30
0.0
 40
12.192
  1
衝撃係数
 41
1.093749999999999
  7
ＭＳ ゴシック
100
AcDbText
  0
TEXT
  5
52
330
1F
100
AcDbEntity
  8
F-Fﾚｲﾔ
  6
Continuous
 62
     2
370
     9
100
AcDbText
 10
491.3927701200099
 20
575.171871598609
 30
0.0
 40
12.192
  1
車両進行方向
 41
1.104166666666666
  7
ＭＳ ゴシック
100
AcDbText
  0
TEXT
  5
53
330
1F
100
AcDbEntity
  8
F-Fﾚｲﾔ
  6
Continuous
 62
     2
370
     9
100
AcDbText
 10
491.3927701200099
 20
511.171871598609
 30
0.0
 40
12.192
  1
衝撃を考慮した
 41
1.107142857142857
  7
ＭＳ ゴシック
100
AcDbText
  0
TEXT
  5
54
330
1F
100
AcDbEntity
  8
F-Fﾚｲﾔ
  6
Continuous
 62
     2
370
     9
100
AcDbText
 10
491.3927701200099
 20
479.171871598609
 30
0.0
 40
12.192
  1
後輪1輪荷重
 41
1.102272727272727
  7
ＭＳ ゴシック
100
AcDbText
  0
TEXT
  5
55
330
1F
100
AcDbEntity
  8
F-Fﾚｲﾔ
  6
Continuous
 62
     2
370
     9
100
AcDbText
 10
491.3927701200099
 20
447.171871598609
 30
0.0
 40
12.192
  1
後輪接地面積
 41
1.104166666666666
  7
ＭＳ ゴシック
100
AcDbText
  0
LINE
  5
56
330
1F
100
AcDbEntity
  8
F-Fﾚｲﾔ
  6
Continuous
 62
     7
370
     9
100
AcDbLine
 10
632.9413317907758
 20
728.915871598609
 30
0.0
 11
632.9413317907758
 21
436.915871598609
 31
0.0
  0
LINE
  5
57
330
1F
100
AcDbEntity
  8
F-Fﾚｲﾔ
  6
Continuous
 62
     7
370
     9
100
AcDbLine
 10
480.7458800615494
 20
760.915871598609
 30
0.0
 11
480.7458800615494
 21
436.915871598609
 31
0.0
  0
TEXT
  5
58
330
1F
100
AcDbEntity
  8
F-Fﾚｲﾔ
  6
Continuous
 62
     2
370
     9
100
AcDbText
 10
649.4752925483856
 20
575.171871598609
 30
0.0
 40
12.192
  1
横断方向、縦断方向
 41
1.111111111111111
  7
ＭＳ ゴシック
100
AcDbText
  0
TEXT
  5
59
330
1F
100
AcDbEntity
  8
F-Fﾚｲﾔ
  6
Continuous
 62
     2
370
     9
100
AcDbText
 10
649.4752925483856
 20
543.171871598609
 30
0.0
 40
12.192
  1
0.1
 41
1.083333333333333
  7
ＭＳ ゴシック
100
AcDbText
  0
TEXT
  5
5A
330
1F
100
AcDbEntity
  8
F-Fﾚｲﾔ
  6
Continuous
 62
     2
370
     9
100
AcDbText
 10
649.4752925483856
 20
447.171871598609
 30
0.0
 40
12.192
  1
200×160 mm
 41
1.113636363636364
  7
ＭＳ ゴシック
100
AcDbText
  0
TEXT
  5
5B
330
1F
100
AcDbEntity
  8
F-Fﾚｲﾔ
  6
Continuous
 62
     2
370
     9
100
AcDbText
 10
649.4752925483856
 20
495.171871598609
 30
0.0
 40
12.192
  1
8.6kN
 41
1.1
  7
ＭＳ ゴシック
100
AcDbText
  0
LINE
  5
5C
330
1F
100
AcDbEntity
  8
F-Fﾚｲﾔ
  6
Continuous
 62
     7
370
     9
100
AcDbLine
 10
480.7458800615494
 20
760.915871598609
 30
0.0
 11
1118.974571055161
 21
760.915871598609
 31
0.0
  0
LINE
  5
5D
330
1F
100
AcDbEntity
  8
F-Fﾚｲﾔ
  6
Continuous
 62
     7
370
     9
100
AcDbLine
 10
480.7458800615494
 20
728.915871598609
 30
0.0
 11
1118.974571055161
 21
728.915871598609
 31
0.0
  0
LINE
  5
5E
330
1F
100
AcDbEntity
  8
F-Fﾚｲﾔ
  6
Continuous
 62
     7
370
     9
100
AcDbLine
 10
480.7458800615494
 20
724.915871598609
 30
0.0
 11
1118.974571055161
 21
724.915871598609
 31
0.0
  0
LINE
  5
5F
330
1F
100
AcDbEntity
  8
F-Fﾚｲﾔ
  6
Continuous
 62
     7
370
     9
100
AcDbLine
 10
480.7458800615494
 20
660.915871598609
 30
0.0
 11
1118.974571055161
 21
660.915871598609
 31
0.0
  0
LINE
  5
60
330
1F
100
AcDbEntity
  8
F-Fﾚｲﾔ
  6
Continuous
 62
     7
370
     9
100
AcDbLine
 10
480.7458800615494
 20
660.915871598609
 30
0.0
 11
1118.974571055161
 21
660.915871598609
 31
0.0
  0
LINE
  5
61
330
1F
100
AcDbEntity
  8
F-Fﾚｲﾔ
  6
Continuous
 62
     7
370
     9
100
AcDbLine
 10
480.7458800615494
 20
564.915871598609
 30
0.0
 11
1118.974571055161
 21
564.915871598609
 31
0.0
  0
LINE
  5
62
330
1F
100
AcDbEntity
  8
F-Fﾚｲﾔ
  6
Continuous
 62
     7
370
     9
100
AcDbLine
 10
480.7458800615494
 20
596.915871598609
 30
0.0
 11
1118.974571055161
 21
596.915871598609
 31
0.0
  0
LINE
  5
63
330
1F
100
AcDbEntity
  8
F-Fﾚｲﾔ
  6
Continuous
 62
     7
370
     9
100
AcDbLine
 10
480.7458800615494
 20
532.915871598609
 30
0.0
 11
1118.974571055161
 21
532.915871598609
 31
0.0
  0
LINE
  5
64
330
1F
100
AcDbEntity
  8
F-Fﾚｲﾔ
  6
Continuous
 62
     7
370
     9
100
AcDbLine
 10
480.7458800615494
 20
468.915871598609
 30
0.0
 11
1118.974571055161
 21
468.915871598609
 31
0.0
  0
LINE
  5
65
330
1F
100
AcDbEntity
  8
F-Fﾚｲﾔ
  6
Continuous
 62
     7
370
     9
100
AcDbLine
 10
480.7458800615494
 20
436.915871598609
 30
0.0
 11
1118.974571055161
 21
436.915871598609
 31
0.0
  0
LINE
  5
66
330
1F
100
AcDbEntity
  8
F-Fﾚｲﾔ
  6
Continuous
 62
     7
370
     9
100
AcDbLine
 10
1118.974571055161
 20
760.915871598609
 30
0.0
 11
1118.974571055161
 21
436.915871598609
 31
0.0
  0
LINE
  5
67
330
1F
100
AcDbEntity
  8
F-Fﾚｲﾔ
  6
Continuous
 62
     7
370
     9
100
AcDbLine
 10
-189.0903100499126
 20
760.915871598609
 30
0.0
 11
439.1684796580604
 21
760.915871598609
 31
0.0
  0
TEXT
  5
68
330
1F
100
AcDbEntity
  8
F-Fﾚｲﾔ
  6
Continuous
 62
     2
370
     9
100
AcDbText
 10
-178.4434199914512
 20
739.171871598609
 30
0.0
 40
12.192
  1
名称
 41
1.0625
  7
ＭＳ ゴシック
100
AcDbText
  0
TEXT
  5
69
330
1F
100
AcDbEntity
  8
F-5ﾚｲﾔ
  6
Continuous
 62
     2
370
     9
100
AcDbText
 10
-20.36089756307631
 20
739.171871598609
 30
0.0
 40
12.192
  1
化粧用スリットみぞ蓋　インターロッキングブロック用
 41
1.12
  7
ＭＳ ゴシック
100
AcDbText
  0
LINE
  5
6A
330
1F
100
AcDbEntity
  8
F-Fﾚｲﾔ
  6
Continuous
 62
     7
370
     9
100
AcDbLine
 10
-189.0903100499126
 20
696.915871598609
 30
0.0
 11
439.1684796580604
 21
696.915871598609
 31
0.0
  0
LINE
  5
6B
330
1F
100
AcDbEntity
  8
F-Fﾚｲﾔ
  6
Continuous
 62
     7
370
     9
100
AcDbLine
 10
-189.0903100499126
 20
692.915871598609
 30
0.0
 11
439.1684796580604
 21
692.915871598609
 31
0.0
  0
LINE
  5
6C
330
1F
100
AcDbEntity
  8
F-Fﾚｲﾔ
  6
Continuous
 62
     7
370
     9
100
AcDbLine
 10
-189.0903100499126
 20
660.915871598609
 30
0.0
 11
439.1684796580604
 21
660.915871598609
 31
0.0
  0
LINE
  5
6D
330
1F
100
AcDbEntity
  8
F-Fﾚｲﾔ
  6
Continuous
 62
     7
370
     9
100
AcDbLine
 10
-189.0903100499126
 20
500.915871598609
 30
0.0
 11
439.1684796580604
 21
500.915871598609
 31
0.0
  0
LINE
  5
6E
330
1F
100
AcDbEntity
  8
F-Fﾚｲﾔ
  6
Continuous
 62
     7
370
     9
100
AcDbLine
 10
-189.0903100499126
 20
436.915871598609
 30
0.0
 11
439.1684796580604
 21
436.915871598609
 31
0.0
  0
TEXT
  5
6F
330
1F
100
AcDbEntity
  8
F-Fﾚｲﾔ
  6
Continuous
 62
     2
370
     9
100
AcDbText
 10
-178.4434199914512
 20
639.171871598609
 30
0.0
 40
12.192
  1
蓋
  7
ＭＳ ゴシック
100
AcDbText
  0
TEXT
  5
70
330
1F
100
AcDbEntity
  8
F-Fﾚｲﾔ
  6
Continuous
 62
     2
370
     9
100
AcDbText
 10
-178.4434199914512
 20
479.171871598609
 30
0.0
 40
12.192
  1
受枠
 41
1.0625
  7
ＭＳ ゴシック
100
AcDbText
  0
TEXT
  5
71
330
1F
100
AcDbEntity
  8
F-Fﾚｲﾔ
  6
Continuous
 62
     2
370
     9
100
AcDbText
 10
-178.4434199914512
 20
415.1718715986091
 30
0.0
 40
12.192
  1
品番
 41
1.0625
  7
ＭＳ ゴシック
100
AcDbText
  0
TEXT
  5
72
330
1F
100
AcDbEntity
  8
F-5ﾚｲﾔ
  6
Continuous
 62
     2
370
     9
100
AcDbText
 10
-20.36089756307631
 20
639.171871598609
 30
0.0
 40
12.192
  1
スチール製 溶融亜鉛めっき
 41
1.115
  7
ＭＳ ゴシック
100
AcDbText
  0
TEXT
  5
73
330
1F
100
AcDbEntity
  8
F-5ﾚｲﾔ
  6
Continuous
 62
     2
370
     9
100
AcDbText
 10
-20.36089756307631
 20
575.171871598609
 30
0.0
 40
12.192
  1
目地すきま 6mm
 41
1.116071428571429
  7
ＭＳ ゴシック
100
AcDbText
  0
TEXT
  5
74
330
1F
100
AcDbEntity
  8
F-Fﾚｲﾔ
  6
Continuous
 62
     2
370
     9
100
AcDbText
 10
-20.36089756307631
 20
479.171871598609
 30
0.0
 40
12.192
  1
スチール製 溶融亜鉛めっき
 41
1.115
  7
ＭＳ ゴシック
100
AcDbText
  0
TEXT
  5
75
330
1F
100
AcDbEntity
  8
F-Fﾚｲﾔ
  6
Continuous
 62
     2
370
     9
100
AcDbText
 10
-20.36089756307631
 20
415.1718715986091
 30
0.0
 40
12.192
  1
カネソウ　カラー舗装用みぞ蓋
 41
1.116071428571429
  7
ＭＳ ゴシック
100
AcDbText
  0
LINE
  5
76
330
1F
100
AcDbEntity
  8
F-Fﾚｲﾔ
  6
Continuous
 62
     7
370
     9
100
AcDbLine
 10
-36.89485832068606
 20
628.915871598609
 30
0.0
 11
439.1684796580604
 21
628.915871598609
 31
0.0
  0
LINE
  5
77
330
1F
100
AcDbEntity
  8
F-Fﾚｲﾔ
  6
Continuous
 62
     7
370
     9
100
AcDbLine
 10
-36.89485832068606
 20
596.915871598609
 30
0.0
 11
439.1684796580604
 21
596.915871598609
 31
0.0
  0
LINE
  5
78
330
1F
100
AcDbEntity
  8
F-Fﾚｲﾔ
  6
Continuous
 62
     7
370
     9
100
AcDbLine
 10
-36.89485832068606
 20
564.915871598609
 30
0.0
 11
439.1684796580604
 21
564.915871598609
 31
0.0
  0
LINE
  5
79
330
1F
100
AcDbEntity
  8
F-Fﾚｲﾔ
  6
Continuous
 62
     7
370
     9
100
AcDbLine
 10
-36.89485832068606
 20
532.915871598609
 30
0.0
 11
439.1684796580604
 21
532.915871598609
 31
0.0
  0
LINE
  5
7A
330
1F
100
AcDbEntity
  8
F-Fﾚｲﾔ
  6
Continuous
 62
     7
370
     9
100
AcDbLine
 10
-36.89485832068606
 20
468.915871598609
 30
0.0
 11
439.1684796580604
 21
468.915871598609
 31
0.0
  0
TEXT
  5
7B
330
1F
100
AcDbEntity
  8
F-Fﾚｲﾔ
  6
Continuous
 62
     2
370
     9
100
AcDbText
 10
-178.4434199914512
 20
671.171871598609
 30
0.0
 40
12.192
  1
みぞ幅
 41
1.083333333333333
  7
ＭＳ ゴシック
100
AcDbText
  0
TEXT
  5
7C
330
1F
100
AcDbEntity
  8
F-5ﾚｲﾔ
  6
Continuous
 62
     2
370
     9
100
AcDbText
 10
-20.36089756307631
 20
607.171871598609
 30
0.0
 40
12.192
  1
充填深さ 65mm
 41
1.115384615384615
  7
ＭＳ ゴシック
100
AcDbText
  0
LINE
  5
7D
330
1F
100
AcDbEntity
  8
F-Fﾚｲﾔ
  6
Continuous
 62
     7
370
     9
100
AcDbLine
 10
439.1684796580604
 20
760.915871598609
 30
0.0
 11
439.1684796580604
 21
340.915871598609
 31
0.0
  0
LINE
  5
7E
330
1F
100
AcDbEntity
  8
F-Fﾚｲﾔ
  6
Continuous
 62
     7
370
     9
100
AcDbLine
 10
-189.0903100499126
 20
340.915871598609
 30
0.0
 11
439.1684796580604
 21
340.915871598609
 31
0.0
  0
LINE
  5
7F
330
1F
100
AcDbEntity
  8
F-Fﾚｲﾔ
  6
Continuous
 62
     7
370
     9
100
AcDbLine
 10
-189.0903100499126
 20
760.915871598609
 30
0.0
 11
-189.0903100499126
 21
340.915871598609
 31
0.0
  0
LINE
  5
80
330
1F
100
AcDbEntity
  8
F-Fﾚｲﾔ
  6
Continuous
 62
     7
370
     9
100
AcDbLine
 10
-36.89485832068606
 20
760.915871598609
 30
0.0
 11
-36.89485832068606
 21
340.915871598609
 31
0.0
  0
TEXT
  5
81
330
1F
100
AcDbEntity
  8
F-5ﾚｲﾔ
  6
Continuous
 62
     2
370
     9
100
AcDbText
 10
-20.36089756307631
 20
707.171871598609
 30
0.0
 40
12.192
  1
側溝用
 41
1.083333333333333
  7
ＭＳ ゴシック
100
AcDbText
  0
LINE
  5
82
330
1F
100
AcDbEntity
  8
建具
  6
Continuous
 62
     4
370
     9
100
AcDbLine
 10
-893.6594123754021
 20
-72.83867371846247
 30
0.0
 11
-893.6594123754021
 21
-132.8386242304979
 31
0.0
  0
LINE
  5
83
330
1F
100
AcDbEntity
  8
建具
  6
Continuous
 62
     4
370
     9
100
AcDbLine
 10
35.15374870132382
 20
-72.83867371846247
 30
0.0
 11
-893.6594123754021
 21
-72.83867371846247
 31
0.0
  0
LINE
  5
84
330
1F
100
AcDbEntity
  8
建具
  6
Continuous
 62
     4
370
     9
100
AcDbLine
 10
35.15374870132382
 20
-78.83859453771913
 30
0.0
 11
-893.6594123754021
 21
-78.83859453771913
 31
0.0
  0
LINE
  5
85
330
1F
100
AcDbEntity
  8
建具
  6
Continuous
 62
     4
370
     9
100
AcDbLine
 10
-668.6594123754021
 20
-32.8386654704683
 30
0.0
 11
-618.6594020654097
 21
-32.8386654704683
 31
0.0
  0
LINE
  5
86
330
1F
100
AcDbEntity
  8
建具
  6
Continuous
 62
     4
370
     9
100
AcDbLine
 10
-668.6594123754021
 20
-72.83867371846247
 30
0.0
 11
-668.6594123754021
 21
-32.8386654704683
 31
0.0
  0
LINE
  5
87
330
1F
100
AcDbEntity
  8
建具
  6
Continuous
 62
     4
370
     9
100
AcDbLine
 10
-618.6594020654097
 20
-32.8386654704683
 30
0.0
 11
-618.6594020654097
 21
-72.83867371846247
 31
0.0
  0
LINE
  5
88
330
1F
100
AcDbEntity
  8
建具
  6
JWW_CENTER1
 62
     4
370
     9
100
AcDbLine
 10
-643.6594226853949
 20
-50.83867536806122
 30
0.0
 11
-643.6594226853949
 21
-37.01879011415497
 31
0.0
  0
LINE
  5
89
330
1F
100
AcDbEntity
  8
建具
  6
JWW_CENTER1
 62
     4
370
     9
100
AcDbLine
 10
-643.6594226853949
 20
-50.83867536806122
 30
0.0
 11
-628.1875054556654
 21
-50.83867536806122
 31
0.0
  0
LINE
  5
8A
330
1F
100
AcDbEntity
  8
建具
  6
JWW_CENTER1
 62
     4
370
     9
100
AcDbLine
 10
-643.6594226853949
 20
-50.83867536806122
 30
0.0
 11
-643.6594226853949
 21
-64.65856062196747
 31
0.0
  0
LINE
  5
8B
330
1F
100
AcDbEntity
  8
建具
  6
JWW_CENTER1
 62
     4
370
     9
100
AcDbLine
 10
-643.6594226853949
 20
-50.83867536806122
 30
0.0
 11
-659.131339915125
 21
-50.83867536806122
 31
0.0
  0
LINE
  5
8C
330
1F
100
AcDbEntity
  8
建具
  6
Continuous
 62
     4
370
     9
100
AcDbLine
 10
-168.6594639253653
 20
-32.8386654704683
 30
0.0
 11
-118.6594226853949
 21
-32.8386654704683
 31
0.0
  0
LINE
  5
8D
330
1F
100
AcDbEntity
  8
建具
  6
Continuous
 62
     4
370
     9
100
AcDbLine
 10
-168.6594639253653
 20
-72.83867371846247
 30
0.0
 11
-168.6594639253653
 21
-32.8386654704683
 31
0.0
  0
LINE
  5
8E
330
1F
100
AcDbEntity
  8
建具
  6
Continuous
 62
     4
370
     9
100
AcDbLine
 10
-118.6594226853949
 20
-32.8386654704683
 30
0.0
 11
-118.6594226853949
 21
-72.83867371846247
 31
0.0
  0
LINE
  5
8F
330
1F
100
AcDbEntity
  8
建具
  6
JWW_CENTER1
 62
     4
370
     9
100
AcDbLine
 10
-143.6594433053806
 20
-50.83867536806122
 30
0.0
 11
-143.6594433053806
 21
-37.01879011415497
 31
0.0
  0
LINE
  5
90
330
1F
100
AcDbEntity
  8
建具
  6
JWW_CENTER1
 62
     4
370
     9
100
AcDbLine
 10
-143.6594433053806
 20
-50.83867536806122
 30
0.0
 11
-128.1874642156954
 21
-50.83867536806122
 31
0.0
  0
LINE
  5
91
330
1F
100
AcDbEntity
  8
建具
  6
JWW_CENTER1
 62
     4
370
     9
100
AcDbLine
 10
-143.6594433053806
 20
-50.83867536806122
 30
0.0
 11
-143.6594433053806
 21
-64.65856062196747
 31
0.0
  0
LINE
  5
92
330
1F
100
AcDbEntity
  8
建具
  6
JWW_CENTER1
 62
     4
370
     9
100
AcDbLine
 10
-143.6594433053806
 20
-50.83867536806122
 30
0.0
 11
-159.1313605351097
 21
-50.83867536806122
 31
0.0
  0
CIRCLE
  5
93
330
1F
100
AcDbEntity
  8
建具
  6
Continuous
 62
     4
370
     9
100
AcDbCircle
 10
-643.6594226853949
 20
-50.83867536806122
 30
0.0
 40
7.999999619819023
  0
CIRCLE
  5
94
330
1F
100
AcDbEntity
  8
建具
  6
Continuous
 62
     4
370
     9
100
AcDbCircle
 10
-143.6594433053806
 20
-50.83867536806122
 30
0.0
 40
7.999999619819023
  0
LINE
  5
95
330
1F
100
AcDbEntity
  8
躯体
  6
JWW_DASHED3
 62
     2
370
     9
100
AcDbLine
 10
-293.6594123754048
 20
-132.8386654704674
 30
0.0
 11
-893.6594123754021
 21
-132.8386654704674
 31
0.0
  0
LINE
  5
96
330
1F
100
AcDbEntity
  8
躯体
  6
Continuous
 62
     2
370
     9
100
AcDbLine
 10
35.1537404533301
 20
-132.8386448504808
 30
0.0
 11
-293.6594123754048
 21
-132.8386448504808
 31
0.0
  0
LINE
  5
97
330
1F
100
AcDbEntity
  8
仕上
  6
JWW_CENTER1
 62
     3
370
     9
100
AcDbLine
 10
-291.6594123754039
 20
-82.3383160500947
 30
0.0
 11
34.65370952335024
 21
-82.3383160500947
 31
0.0
  0
LINE
  5
98
330
1F
100
AcDbEntity
  8
その他
  6
Continuous
 62
     7
370
     9
100
AcDbLine
 10
-893.6594123754023
 20
57.74576813930048
 30
0.0
 11
35.15374870132428
 21
57.74576813930048
 31
0.0
  0
LWPOLYLINE
  5
99
330
1F
100
AcDbEntity
  8
その他
  6
Continuous
 62
     7
370
     9
100
AcDbPolyline
 90
        4
 70
     1
 43
0.4
 10
-893.4594123754023
 20
57.74576813930048
 42
0.4142135623731
 10
-893.6594123754023
 20
57.94576813930048
 42
0.4142135623731
 10
-893.8594123754024
 20
57.74576813930048
 42
0.4142135623731
 10
-893.6594123754023
 20
57.54576813930048
 42
0.4142135623731
  0
LINE
  5
9A
330
1F
100
AcDbEntity
  8
その他
  6
Continuous
 62
     7
370
     9
100
AcDbLine
 10
-893.6594123754023
 20
58.94576813930075
 30
0.0
 11
-893.6594123754023
 21
-64.83890065612434
 31
0.0
  0
LINE
  5
9B
330
1F
100
AcDbEntity
  8
その他
  6
Continuous
 62
     7
370
     9
100
AcDbLine
 10
-893.6594123754023
 20
21.18057388703869
 30
0.0
 11
-643.6594226853949
 21
21.18057388703869
 31
0.0
  0
LWPOLYLINE
  5
9C
330
1F
100
AcDbEntity
  8
その他
  6
Continuous
 62
     7
370
     9
100
AcDbPolyline
 90
        4
 70
     1
 43
0.4
 10
-893.4594123754023
 20
21.18057388703869
 42
0.4142135623731
 10
-893.6594123754023
 20
21.38057388703869
 42
0.4142135623731
 10
-893.8594123754024
 20
21.18057388703869
 42
0.4142135623731
 10
-893.6594123754023
 20
20.98057388703869
 42
0.4142135623731
  0
LWPOLYLINE
  5
9D
330
1F
100
AcDbEntity
  8
その他
  6
Continuous
 62
     7
370
     9
100
AcDbPolyline
 90
        4
 70
     1
 43
0.4
 10
-643.4594226853949
 20
21.18057388703869
 42
0.4142135623731
 10
-643.6594226853949
 20
21.38057388703869
 42
0.4142135623731
 10
-643.859422685395
 20
21.18057388703869
 42
0.4142135623731
 10
-643.6594226853949
 20
20.98057388703869
 42
0.4142135623731
  0
TEXT
  5
9E
330
1F
100
AcDbEntity
  8
その他
  6
Continuous
 62
     2
370
   211
100
AcDbText
 10
-781.6594175303985
 20
25.83657388703878
 30
0.0
 40
12.192
  1
250
 41
1.083333333333333
  7
ＭＳ ゴシック
100
AcDbText
  0
LINE
  5
9F
330
1F
100
AcDbEntity
  8
その他
  6
Continuous
 62
     7
370
     9
100
AcDbLine
 10
-643.6594226853949
 20
21.18057388703869
 30
0.0
 11
-143.6594433053801
 21
21.18057388703869
 31
0.0
  0
LWPOLYLINE
  5
A0
330
1F
100
AcDbEntity
  8
その他
  6
Continuous
 62
     7
370
     9
100
AcDbPolyline
 90
        4
 70
     1
 43
0.4
 10
-143.4594433053801
 20
21.18057388703869
 42
0.4142135623731
 10
-143.6594433053801
 20
21.38057388703869
 42
0.4142135623731
 10
-143.8594433053801
 20
21.18057388703869
 42
0.4142135623731
 10
-143.6594433053801
 20
20.98057388703869
 42
0.4142135623731
  0
LINE
  5
A1
330
1F
100
AcDbEntity
  8
その他
  6
Continuous
 62
     7
370
     9
100
AcDbLine
 10
-143.6594433053801
 20
22.38057388703851
 30
0.0
 11
-143.6594433053801
 21
-29.01901705181683
 31
0.0
  0
TEXT
  5
A2
330
1F
100
AcDbEntity
  8
その他
  6
Continuous
 62
     2
370
   211
100
AcDbText
 10
-406.6594329953873
 20
25.83657388703878
 30
0.0
 40
12.192
  1
500
 41
1.083333333333333
  7
ＭＳ ゴシック
100
AcDbText
  0
LINE
  5
A3
330
1F
100
AcDbEntity
  8
その他
  6
Continuous
 62
     7
370
     9
100
AcDbLine
 10
-143.6594433053801
 20
21.18057388703869
 30
0.0
 11
35.15374870132428
 21
21.18057388703869
 31
0.0
  0
TEXT
  5
A4
330
1F
100
AcDbEntity
  8
その他
  6
Continuous
 62
     2
370
   211
100
AcDbText
 10
-451.2528318370391
 20
62.40176813930057
 30
0.0
 40
12.192
  1
2000
 41
1.09375
  7
ＭＳ ゴシック
100
AcDbText
  0
LINE
  5
A5
330
1F
100
AcDbEntity
  8
その他
  6
Continuous
 62
     7
370
     9
100
AcDbLine
 10
-643.6594226853949
 20
22.38057388703851
 30
0.0
 11
-643.6594226853949
 21
-21.63367478380462
 31
0.0
  0
LINE
  5
A6
330
1F
100
AcDbEntity
  8
その他
  6
Continuous
 62
     7
370
     9
100
AcDbLine
 10
-864.1594177071413
 20
-119.6685955390736
 30
0.0
 11
-870.2470319972283
 21
-127.6021289419861
 31
0.0
  0
LINE
  5
A7
330
1F
100
AcDbEntity
  8
その他
  6
Continuous
 62
     7
370
     9
100
AcDbLine
 10
-864.1594177071413
 20
-119.6685955390736
 30
0.0
 11
-867.9862520307922
 21
-128.9073908641864
 31
0.0
  0
LINE
  5
A8
330
1F
100
AcDbEntity
  8
その他
  6
Continuous
 62
     7
370
     9
100
AcDbLine
 10
-912.9382753043421
 20
-204.1560552325919
 30
0.0
 11
-864.1594177071413
 21
-119.6685955390736
 31
0.0
  0
TEXT
  5
A9
330
1F
100
AcDbEntity
  8
その他
  6
Continuous
 62
     2
370
     9
100
AcDbText
 10
-952.3077488225647
 20
-198.8921224820856
 30
0.0
 40
12.192
  1
φ10
 41
1.09375
  7
ＭＳ ゴシック
100
AcDbText
  0
LINE
  5
AA
330
1F
100
AcDbEntity
  8
その他
  6
Continuous
 62
     7
370
     9
100
AcDbLine
 10
-953.7548634792777
 20
-204.1560552325919
 30
0.0
 11
-912.9382753043421
 21
-204.1560552325919
 31
0.0
  0
TEXT
  5
AB
330
1F
100
AcDbEntity
  8
その他
  6
Continuous
 62
     2
370
     9
100
AcDbText
 10
-216.2051165835901
 20
-10.04572529808999
 30
0.0
 40
12.192
  1
φ16
 41
1.09375
  7
ＭＳ ゴシック
100
AcDbText
  0
LINE
  5
AC
330
1F
100
AcDbEntity
  8
その他
  6
Continuous
 62
     7
370
     9
100
AcDbLine
 10
-149.3162972860446
 20
-45.18182138739724
 30
0.0
 11
-179.6564298309795
 21
-14.8416888424623
 31
0.0
  0
LINE
  5
AD
330
1F
100
AcDbEntity
  8
その他
  6
Continuous
 62
     7
370
     9
100
AcDbLine
 10
-149.3162972860446
 20
-45.18182138739724
 30
0.0
 11
-159.2332140396848
 21
-37.57230352478848
 31
0.0
  0
LINE
  5
AE
330
1F
100
AcDbEntity
  8
その他
  6
Continuous
 62
     7
370
     9
100
AcDbLine
 10
-149.3162972860446
 20
-45.18182138739724
 30
0.0
 11
-156.9258151486538
 21
-35.26490463375706
 31
0.0
  0
LINE
  5
AF
330
1F
100
AcDbEntity
  8
その他
  6
Continuous
 62
     7
370
     9
100
AcDbLine
 10
-219.3530002402731
 20
-14.8416888424623
 30
0.0
 11
-179.6564298309795
 21
-14.8416888424623
 31
0.0
  0
TEXT
  5
B0
330
1F
100
AcDbEntity
  8
その他
  6
Continuous
 62
     2
370
   211
100
AcDbText
 10
10.01707153504185
 20
25.83657388703878
 30
0.0
 40
12.192
  1
500
 41
1.083333333333333
  7
ＭＳ ゴシック
100
AcDbText
  0
LINE
  5
B1
330
1F
100
AcDbEntity
  8
建具
  6
Continuous
 62
     4
370
     9
100
AcDbLine
 10
-893.6594123754021
 20
-342.8386366024891
 30
0.0
 11
-893.6594123754021
 21
-282.8386860904537
 31
0.0
  0
LINE
  5
B2
330
1F
100
AcDbEntity
  8
建具
  6
Continuous
 62
     4
370
     9
100
AcDbLine
 10
35.15374870132382
 20
-342.8386366024891
 30
0.0
 11
-893.6594123754021
 21
-342.8386366024891
 31
0.0
  0
LINE
  5
B3
330
1F
100
AcDbEntity
  8
建具
  6
Continuous
 62
     4
370
     9
100
AcDbLine
 10
35.15374870132382
 20
-336.8387157832325
 30
0.0
 11
-893.6594123754021
 21
-336.8387157832325
 31
0.0
  0
LINE
  5
B4
330
1F
100
AcDbEntity
  8
建具
  6
Continuous
 62
     4
370
     9
100
AcDbLine
 10
-668.6593814454245
 20
-382.8386448504833
 30
0.0
 11
-618.6594020654097
 21
-382.8386448504833
 31
0.0
  0
LINE
  5
B5
330
1F
100
AcDbEntity
  8
建具
  6
Continuous
 62
     4
370
     9
100
AcDbLine
 10
-668.6593814454245
 20
-342.8386366024891
 30
0.0
 11
-668.6593814454245
 21
-382.8386448504833
 31
0.0
  0
LINE
  5
B6
330
1F
100
AcDbEntity
  8
建具
  6
Continuous
 62
     4
370
     9
100
AcDbLine
 10
-618.6594020654097
 20
-382.8386448504833
 30
0.0
 11
-618.6594020654097
 21
-342.8386366024891
 31
0.0
  0
LINE
  5
B7
330
1F
100
AcDbEntity
  8
建具
  6
JWW_CENTER1
 62
     4
370
     9
100
AcDbLine
 10
-643.6594226853949
 20
-364.8386349528904
 30
0.0
 11
-643.6594226853949
 21
-378.6585202067967
 31
0.0
  0
LINE
  5
B8
330
1F
100
AcDbEntity
  8
建具
  6
JWW_CENTER1
 62
     4
370
     9
100
AcDbLine
 10
-643.6594226853949
 20
-364.8386349528904
 30
0.0
 11
-628.1875054556654
 21
-364.8386349528904
 31
0.0
  0
LINE
  5
B9
330
1F
100
AcDbEntity
  8
建具
  6
JWW_CENTER1
 62
     4
370
     9
100
AcDbLine
 10
-643.6594226853949
 20
-364.8386349528904
 30
0.0
 11
-643.6594226853949
 21
-351.0187496989842
 31
0.0
  0
LINE
  5
BA
330
1F
100
AcDbEntity
  8
建具
  6
JWW_CENTER1
 62
     4
370
     9
100
AcDbLine
 10
-643.6594226853949
 20
-364.8386349528904
 30
0.0
 11
-659.131339915125
 21
-364.8386349528904
 31
0.0
  0
LINE
  5
BB
330
1F
100
AcDbEntity
  8
建具
  6
Continuous
 62
     4
370
     9
100
AcDbLine
 10
-168.6594639253653
 20
-382.8386448504833
 30
0.0
 11
-118.6594226853949
 21
-382.8386448504833
 31
0.0
  0
LINE
  5
BC
330
1F
100
AcDbEntity
  8
建具
  6
Continuous
 62
     4
370
     9
100
AcDbLine
 10
-168.6594639253653
 20
-342.8386366024891
 30
0.0
 11
-168.6594639253653
 21
-382.8386448504833
 31
0.0
  0
LINE
  5
BD
330
1F
100
AcDbEntity
  8
建具
  6
Continuous
 62
     4
370
     9
100
AcDbLine
 10
-118.6594226853949
 20
-382.8386448504833
 30
0.0
 11
-118.6594226853949
 21
-342.8386366024891
 31
0.0
  0
LINE
  5
BE
330
1F
100
AcDbEntity
  8
建具
  6
JWW_CENTER1
 62
     4
370
     9
100
AcDbLine
 10
-143.6594433053806
 20
-364.8386349528904
 30
0.0
 11
-143.6594433053806
 21
-378.6585202067967
 31
0.0
  0
LINE
  5
BF
330
1F
100
AcDbEntity
  8
建具
  6
JWW_CENTER1
 62
     4
370
     9
100
AcDbLine
 10
-143.6594433053806
 20
-364.8386349528904
 30
0.0
 11
-128.1874642156954
 21
-364.8386349528904
 31
0.0
  0
LINE
  5
C0
330
1F
100
AcDbEntity
  8
建具
  6
JWW_CENTER1
 62
     4
370
     9
100
AcDbLine
 10
-143.6594433053806
 20
-364.8386349528904
 30
0.0
 11
-143.6594433053806
 21
-351.0187496989842
 31
0.0
  0
LINE
  5
C1
330
1F
100
AcDbEntity
  8
建具
  6
JWW_CENTER1
 62
     4
370
     9
100
AcDbLine
 10
-143.6594433053806
 20
-364.8386349528904
 30
0.0
 11
-159.1313605351097
 21
-364.8386349528904
 31
0.0
  0
CIRCLE
  5
C2
330
1F
100
AcDbEntity
  8
建具
  6
Continuous
 62
     4
370
     9
100
AcDbCircle
 10
-643.6594226853949
 20
-364.8386349528904
 30
0.0
 40
7.999999619819023
  0
CIRCLE
  5
C3
330
1F
100
AcDbEntity
  8
建具
  6
Continuous
 62
     4
370
     9
100
AcDbCircle
 10
-143.6594433053806
 20
-364.8386349528904
 30
0.0
 40
7.999999619819023
  0
LINE
  5
C4
330
1F
100
AcDbEntity
  8
躯体
  6
Continuous
 62
     2
370
     9
100
AcDbLine
 10
35.1537404533301
 20
-282.8387067104367
 30
0.0
 11
-293.6594123754048
 21
-282.8387067104367
 31
0.0
  0
LINE
  5
C5
330
1F
100
AcDbEntity
  8
躯体
  6
JWW_DASHED3
 62
     2
370
     9
100
AcDbLine
 10
-293.6594123754048
 20
-282.8386860904537
 30
0.0
 11
-893.6594123754021
 21
-282.8386860904537
 31
0.0
  0
LINE
  5
C6
330
1F
100
AcDbEntity
  8
仕上
  6
JWW_CENTER1
 62
     3
370
     9
100
AcDbLine
 10
-291.6594123754039
 20
-82.3383160500947
 30
0.0
 11
-291.6594123754039
 21
-333.3389324109086
 31
0.0
  0
LINE
  5
C7
330
1F
100
AcDbEntity
  8
仕上
  6
JWW_CENTER1
 62
     3
370
     9
100
AcDbLine
 10
-291.6594123754039
 20
-333.3389324109086
 30
0.0
 11
34.65370952335024
 21
-333.3389324109086
 31
0.0
  0
LINE
  5
C8
330
1F
100
AcDbEntity
  8
その他
  6
Continuous
 62
     7
370
     9
100
AcDbLine
 10
-891.6594123754023
 20
-505.5323238453619
 30
0.0
 11
-293.6594123754026
 21
-505.5323238453619
 31
0.0
  0
LWPOLYLINE
  5
C9
330
1F
100
AcDbEntity
  8
その他
  6
Continuous
 62
     7
370
     9
100
AcDbPolyline
 90
        4
 70
     1
 43
0.4
 10
-891.4594123754023
 20
-505.5323238453619
 42
0.4142135623731
 10
-891.6594123754023
 20
-505.3323238453619
 42
0.4142135623731
 10
-891.8594123754024
 20
-505.5323238453619
 42
0.4142135623731
 10
-891.6594123754023
 20
-505.7323238453619
 42
0.4142135623731
  0
LWPOLYLINE
  5
CA
330
1F
100
AcDbEntity
  8
その他
  6
Continuous
 62
     7
370
     9
100
AcDbPolyline
 90
        4
 70
     1
 43
0.4
 10
-293.4594123754026
 20
-505.5323238453619
 42
0.4142135623731
 10
-293.6594123754026
 20
-505.3323238453619
 42
0.4142135623731
 10
-293.8594123754025
 20
-505.5323238453619
 42
0.4142135623731
 10
-293.6594123754026
 20
-505.7323238453619
 42
0.4142135623731
  0
TEXT
  5
CB
330
1F
100
AcDbEntity
  8
その他
  6
Continuous
 62
     2
370
   211
100
AcDbText
 10
-605.6594123754021
 20
-500.8763238453619
 30
0.0
 40
12.192
  1
598
 41
1.083333333333333
  7
ＭＳ ゴシック
100
AcDbText
  0
LINE
  5
CC
330
1F
100
AcDbEntity
  8
その他
  6
Continuous
 62
     7
370
     9
100
AcDbLine
 10
-293.6594123754026
 20
-505.5323238453619
 30
0.0
 11
-291.659381445425
 21
-505.5323238453619
 31
0.0
  0
LWPOLYLINE
  5
CD
330
1F
100
AcDbEntity
  8
その他
  6
Continuous
 62
     7
370
     9
100
AcDbPolyline
 90
        4
 70
     1
 43
0.4
 10
-291.459381445425
 20
-505.5323238453619
 42
0.4142135623731
 10
-291.659381445425
 20
-505.3323238453619
 42
0.4142135623731
 10
-291.859381445425
 20
-505.5323238453619
 42
0.4142135623731
 10
-291.659381445425
 20
-505.7323238453619
 42
0.4142135623731
  0
LINE
  5
CE
330
1F
100
AcDbEntity
  8
その他
  6
Continuous
 62
     7
370
     9
100
AcDbLine
 10
-291.659381445425
 20
-505.5323238453619
 30
0.0
 11
34.65374045332965
 21
-505.5323238453619
 31
0.0
  0
TEXT
  5
CF
330
1F
100
AcDbEntity
  8
その他
  6
Continuous
 62
     2
370
   211
100
AcDbText
 10
4.463932188945819
 20
-500.8763238453619
 30
0.0
 40
12.192
  1
598
 41
1.083333333333333
  7
ＭＳ ゴシック
100
AcDbText
  0
LINE
  5
D0
330
1F
100
AcDbEntity
  8
その他
  6
Continuous
 62
     7
370
     9
100
AcDbLine
 10
-291.659381445425
 20
-506.7323238453617
 30
0.0
 11
-291.659381445425
 21
-353.5812860593054
 31
0.0
  0
LINE
  5
D1
330
1F
100
AcDbEntity
  8
その他
  6
Continuous
 62
     7
370
     9
100
AcDbLine
 10
-293.6594123754026
 20
-506.7323238453617
 30
0.0
 11
-293.6594123754026
 21
-353.5812860593054
 31
0.0
  0
LINE
  5
D2
330
1F
100
AcDbEntity
  8
その他
  6
Continuous
 62
     7
370
     9
100
AcDbLine
 10
-891.6594123754023
 20
-506.7323238453617
 30
0.0
 11
-891.6594123754023
 21
-353.5812860593054
 31
0.0
  0
LINE
  5
D3
330
1F
100
AcDbEntity
  8
その他
  6
Continuous
 62
     7
370
     9
100
AcDbLine
 10
-887.1593275388916
 20
-465.1384973419025
 30
0.0
 11
-298.1594972119133
 21
-465.1384973419025
 31
0.0
  0
LWPOLYLINE
  5
D4
330
1F
100
AcDbEntity
  8
その他
  6
Continuous
 62
     7
370
     9
100
AcDbPolyline
 90
        4
 70
     1
 43
0.4
 10
-886.9593275388916
 20
-465.1384973419025
 42
0.4142135623731
 10
-887.1593275388916
 20
-464.9384973419025
 42
0.4142135623731
 10
-887.3593275388916
 20
-465.1384973419025
 42
0.4142135623731
 10
-887.1593275388916
 20
-465.3384973419025
 42
0.4142135623731
  0
LWPOLYLINE
  5
D5
330
1F
100
AcDbEntity
  8
その他
  6
Continuous
 62
     7
370
     9
100
AcDbPolyline
 90
        4
 70
     1
 43
0.4
 10
-297.9594972119133
 20
-465.1384973419025
 42
0.4142135623731
 10
-298.1594972119133
 20
-464.9384973419025
 42
0.4142135623731
 10
-298.3594972119133
 20
-465.1384973419025
 42
0.4142135623731
 10
-298.1594972119133
 20
-465.3384973419025
 42
0.4142135623731
  0
TEXT
  5
D6
330
1F
100
AcDbEntity
  8
その他
  6
Continuous
 62
     2
370
   211
100
AcDbText
 10
-605.6594123754021
 20
-460.4824973419024
 30
0.0
 40
12.192
  1
589
 41
1.083333333333333
  7
ＭＳ ゴシック
100
AcDbText
  0
LINE
  5
D7
330
1F
100
AcDbEntity
  8
その他
  6
Continuous
 62
     7
370
     9
100
AcDbLine
 10
-298.1594972119133
 20
-466.3384973419028
 30
0.0
 11
-298.1594972119133
 21
-353.5812860593054
 31
0.0
  0
LINE
  5
D8
330
1F
100
AcDbEntity
  8
その他
  6
Continuous
 62
     7
370
     9
100
AcDbLine
 10
-887.1593275388916
 20
-466.3384973419028
 30
0.0
 11
-887.1593275388916
 21
-353.5812860593054
 31
0.0
  0
TEXT
  5
D9
330
1F
100
AcDbEntity
  8
その他
  6
Continuous
 62
     2
370
   211
100
AcDbText
 10
-289.691620769619
 20
-500.8763238453619
 30
0.0
 40
12.192
  1
2
  7
ＭＳ ゴシック
100
AcDbText
  0
LINE
  5
DA
330
1F
100
AcDbEntity
  8
仕上
  6
Continuous
 62
     7
370
     9
100
AcDbLine
 10
-887.1593275388914
 20
-99.8385304390224
 30
0.0
 11
-887.1593275388914
 21
-315.8387180219736
 31
0.0
  0
LINE
  5
DB
330
1F
100
AcDbEntity
  8
仕上
  6
JWW_DASHED1
 62
     7
370
     9
100
AcDbLine
 10
-887.1593275388914
 20
-109.8385789843608
 30
0.0
 11
-891.6594123754021
 21
-114.338243880143
 31
0.0
  0
LINE
  5
DC
330
1F
100
AcDbEntity
  8
仕上
  6
JWW_DASHED1
 62
     7
370
     9
100
AcDbLine
 10
-877.1592789935548
 20
-99.8385304390224
 30
0.0
 11
-872.6591941570441
 21
-95.3384456025135
 31
0.0
  0
LINE
  5
DD
330
1F
100
AcDbEntity
  8
仕上
  6
Continuous
 62
     7
370
     9
100
AcDbLine
 10
-877.1592789935548
 20
-99.8385304390224
 30
0.0
 11
-887.1593275388914
 21
-109.8385789843608
 31
0.0
  0
LINE
  5
DE
330
1F
100
AcDbEntity
  8
仕上
  6
Continuous
 62
     7
370
     9
100
AcDbLine
 10
-891.6594123754021
 20
-82.33832636008378
 30
0.0
 11
-891.6594123754021
 21
-333.338922100914
 31
0.0
  0
LINE
  5
DF
330
1F
100
AcDbEntity
  8
仕上
  6
Continuous
 62
     7
370
     9
100
AcDbLine
 10
-293.6594123754039
 20
-84.83832636008378
 30
0.0
 11
-891.6594123754021
 21
-84.83832636008378
 31
0.0
  0
LINE
  5
E0
330
1F
100
AcDbEntity
  8
仕上
  6
Continuous
 62
     7
370
     9
100
AcDbLine
 10
-293.6594123754039
 20
-99.8385304390224
 30
0.0
 11
-891.6594123754021
 21
-99.8385304390224
 31
0.0
  0
LINE
  5
E1
330
1F
100
AcDbEntity
  8
仕上
  6
Continuous
 62
     2
370
     9
100
AcDbLine
 10
-293.6594123754039
 20
-82.33832636008378
 30
0.0
 11
-891.6594123754021
 21
-82.33832636008378
 31
0.0
  0
LINE
  5
E2
330
1F
100
AcDbEntity
  8
仕上
  6
Continuous
 62
     7
370
     9
100
AcDbLine
 10
-298.1594972119128
 20
-315.8387180219736
 30
0.0
 11
-298.1594972119128
 21
-99.8385304390224
 31
0.0
  0
LINE
  5
E3
330
1F
100
AcDbEntity
  8
仕上
  6
Continuous
 62
     7
370
     9
100
AcDbLine
 10
-308.1595457572494
 20
-315.8387180219736
 30
0.0
 11
-298.1594972119128
 21
-305.8386694766371
 31
0.0
  0
LINE
  5
E4
330
1F
100
AcDbEntity
  8
仕上
  6
JWW_DASHED1
 62
     7
370
     9
100
AcDbLine
 10
-308.1595457572494
 20
-315.8387180219736
 30
0.0
 11
-312.6596305937601
 21
-320.3388028584843
 31
0.0
  0
LINE
  5
E5
330
1F
100
AcDbEntity
  8
仕上
  6
JWW_DASHED1
 62
     7
370
     9
100
AcDbLine
 10
-298.1594972119128
 20
-305.8386694766371
 30
0.0
 11
-293.6594123754039
 21
-301.3390045808549
 31
0.0
  0
LINE
  5
E6
330
1F
100
AcDbEntity
  8
仕上
  6
Continuous
 62
     7
370
     9
100
AcDbLine
 10
-293.6594123754039
 20
-333.338922100914
 30
0.0
 11
-293.6594123754039
 21
-82.33832636008378
 31
0.0
  0
LINE
  5
E7
330
1F
100
AcDbEntity
  8
仕上
  6
Continuous
 62
     7
370
     9
100
AcDbLine
 10
-293.6594123754039
 20
-330.838922100914
 30
0.0
 11
-891.6594123754021
 21
-330.838922100914
 31
0.0
  0
LINE
  5
E8
330
1F
100
AcDbEntity
  8
仕上
  6
Continuous
 62
     7
370
     9
100
AcDbLine
 10
-293.6594123754039
 20
-315.8387180219736
 30
0.0
 11
-891.6594123754021
 21
-315.8387180219736
 31
0.0
  0
LINE
  5
E9
330
1F
100
AcDbEntity
  8
仕上
  6
Continuous
 62
     2
370
     9
100
AcDbLine
 10
-293.6594123754039
 20
-333.338922100914
 30
0.0
 11
-891.6594123754021
 21
-333.338922100914
 31
0.0
  0
LINE
  5
EA
330
1F
100
AcDbEntity
  8
仕上
  6
Continuous
 62
     7
370
     9
100
AcDbLine
 10
-293.6594123754039
 20
-95.3384456025135
 30
0.0
 11
-891.6594123754021
 21
-95.3384456025135
 31
0.0
  0
LINE
  5
EB
330
1F
100
AcDbEntity
  8
仕上
  6
Continuous
 62
     7
370
     9
100
AcDbLine
 10
-293.6594123754039
 20
-89.3384111965945
 30
0.0
 11
-891.6594123754021
 21
-89.3384111965945
 31
0.0
  0
LINE
  5
EC
330
1F
100
AcDbEntity
  8
仕上
  6
Continuous
 62
     7
370
     9
100
AcDbLine
 10
-293.6594123754039
 20
-326.3388372644015
 30
0.0
 11
-891.6594123754021
 21
-326.3388372644015
 31
0.0
  0
LINE
  5
ED
330
1F
100
AcDbEntity
  8
仕上
  6
Continuous
 62
     7
370
     9
100
AcDbLine
 10
-293.6594123754039
 20
-320.3388028584843
 30
0.0
 11
-891.6594123754021
 21
-320.3388028584843
 31
0.0
  0
LINE
  5
EE
330
1F
100
AcDbEntity
  8
仕上
  6
JWW_DASHED1
 62
     2
370
     9
100
AcDbLine
 10
-691.659493382469
 20
-320.3388028584843
 30
0.0
 11
-691.659493382469
 21
-95.3384456025135
 31
0.0
  0
LINE
  5
EF
330
1F
100
AcDbEntity
  8
仕上
  6
JWW_DASHED1
 62
     2
370
     9
100
AcDbLine
 10
-687.1594085460038
 20
-95.3384456025135
 30
0.0
 11
-687.1594085460038
 21
-320.3388028584843
 31
0.0
  0
LINE
  5
F0
330
1F
100
AcDbEntity
  8
仕上
  6
JWW_DASHED1
 62
     2
370
     9
100
AcDbLine
 10
-498.1594148497697
 20
-320.3388028584843
 30
0.0
 11
-498.1594148497697
 21
-95.3384456025135
 31
0.0
  0
LINE
  5
F1
330
1F
100
AcDbEntity
  8
仕上
  6
JWW_DASHED1
 62
     2
370
     9
100
AcDbLine
 10
-493.6593300133063
 20
-95.3384456025135
 30
0.0
 11
-493.6593300133063
 21
-320.3388028584843
 31
0.0
  0
LINE
  5
F2
330
1F
100
AcDbEntity
  8
仕上
  6
Continuous
 62
     3
370
     9
100
AcDbLine
 10
-739.159392049989
 20
-232.2931909853917
 30
0.0
 11
-739.159392049989
 21
-183.3840574756043
 31
0.0
  0
LINE
  5
F3
330
1F
100
AcDbEntity
  8
仕上
  6
Continuous
 62
     3
370
     9
100
AcDbLine
 10
-769.159432700817
 20
-183.3840574756043
 30
0.0
 11
-769.159432700817
 21
-232.2931909853917
 31
0.0
  0
LINE
  5
F4
330
1F
100
AcDbEntity
  8
仕上
  6
Continuous
 62
     3
370
     9
100
AcDbLine
 10
-769.159432700817
 20
-183.8840574756043
 30
0.0
 11
-739.159392049989
 21
-183.8840574756043
 31
0.0
  0
LINE
  5
F5
330
1F
100
AcDbEntity
  8
仕上
  6
Continuous
 62
     3
370
     9
100
AcDbLine
 10
-769.159432700817
 20
-183.3840574756043
 30
0.0
 11
-739.159392049989
 21
-183.3840574756043
 31
0.0
  0
LINE
  5
F6
330
1F
100
AcDbEntity
  8
仕上
  6
Continuous
 62
     3
370
     9
100
AcDbLine
 10
-769.159432700817
 20
-199.4725988267139
 30
0.0
 11
-739.159392049989
 21
-199.4725988267139
 31
0.0
  0
LINE
  5
F7
330
1F
100
AcDbEntity
  8
仕上
  6
Continuous
 62
     3
370
     9
100
AcDbLine
 10
-769.159432700817
 20
-232.2931909853917
 30
0.0
 11
-739.159392049989
 21
-232.2931909853917
 31
0.0
  0
LINE
  5
F8
330
1F
100
AcDbEntity
  8
仕上
  6
Continuous
 62
     3
370
     9
100
AcDbLine
 10
-769.159432700817
 20
-231.7931909853935
 30
0.0
 11
-739.159392049989
 21
-231.7931909853935
 31
0.0
  0
LINE
  5
F9
330
1F
100
AcDbEntity
  8
仕上
  6
Continuous
 62
     3
370
     9
100
AcDbLine
 10
-769.159432700817
 20
-216.2046496342821
 30
0.0
 11
-739.159392049989
 21
-216.2046496342821
 31
0.0
  0
LINE
  5
FA
330
1F
100
AcDbEntity
  8
仕上
  6
Continuous
 62
     3
370
     9
100
AcDbLine
 10
-446.1594327008152
 20
-232.2931909853917
 30
0.0
 11
-446.1594327008152
 21
-183.3840574756043
 31
0.0
  0
LINE
  5
FB
330
1F
100
AcDbEntity
  8
仕上
  6
Continuous
 62
     3
370
     9
100
AcDbLine
 10
-416.159392049989
 20
-183.3840574756043
 30
0.0
 11
-416.159392049989
 21
-232.2931909853917
 31
0.0
  0
LINE
  5
FC
330
1F
100
AcDbEntity
  8
仕上
  6
Continuous
 62
     3
370
     9
100
AcDbLine
 10
-416.159392049989
 20
-183.8840574756043
 30
0.0
 11
-446.1594327008152
 21
-183.8840574756043
 31
0.0
  0
LINE
  5
FD
330
1F
100
AcDbEntity
  8
仕上
  6
Continuous
 62
     3
370
     9
100
AcDbLine
 10
-416.159392049989
 20
-183.3840574756043
 30
0.0
 11
-446.1594327008152
 21
-183.3840574756043
 31
0.0
  0
LINE
  5
FE
330
1F
100
AcDbEntity
  8
仕上
  6
Continuous
 62
     3
370
     9
100
AcDbLine
 10
-416.159392049989
 20
-199.4725988267139
 30
0.0
 11
-446.1594327008152
 21
-199.4725988267139
 31
0.0
  0
LINE
  5
FF
330
1F
100
AcDbEntity
  8
仕上
  6
Continuous
 62
     3
370
     9
100
AcDbLine
 10
-416.159392049989
 20
-232.2931909853917
 30
0.0
 11
-446.1594327008152
 21
-232.2931909853917
 31
0.0
  0
LINE
  5
100
330
1F
100
AcDbEntity
  8
仕上
  6
Continuous
 62
     3
370
     9
100
AcDbLine
 10
-416.159392049989
 20
-231.7931909853935
 30
0.0
 11
-446.1594327008152
 21
-231.7931909853935
 31
0.0
  0
LINE
  5
101
330
1F
100
AcDbEntity
  8
仕上
  6
Continuous
 62
     3
370
     9
100
AcDbLine
 10
-416.159392049989
 20
-216.2046496342821
 30
0.0
 11
-446.1594327008152
 21
-216.2046496342821
 31
0.0
  0
LINE
  5
102
330
1F
100
AcDbEntity
  8
仕上
  6
Continuous
 62
     7
370
     9
100
AcDbLine
 10
-687.1594085459765
 20
-84.83832636008378
 30
0.0
 11
-687.1594085459765
 21
-82.33832636008378
 31
0.0
  0
LINE
  5
103
330
1F
100
AcDbEntity
  8
仕上
  6
Continuous
 62
     7
370
     9
100
AcDbLine
 10
-691.6594933824872
 20
-84.83832636008378
 30
0.0
 11
-691.6594933824872
 21
-82.33832636008378
 31
0.0
  0
LINE
  5
104
330
1F
100
AcDbEntity
  8
仕上
  6
Continuous
 62
     7
370
     9
100
AcDbLine
 10
-691.6594933824872
 20
-82.33832636008378
 30
0.0
 11
-687.1594085459765
 21
-82.33832636008378
 31
0.0
  0
LINE
  5
105
330
1F
100
AcDbEntity
  8
仕上
  6
Continuous
 62
     7
370
     9
100
AcDbLine
 10
-687.1594085459765
 20
-95.3384456025135
 30
0.0
 11
-687.1594085459765
 21
-89.3384111965945
 31
0.0
  0
LINE
  5
106
330
1F
100
AcDbEntity
  8
仕上
  6
Continuous
 62
     7
370
     9
100
AcDbLine
 10
-691.6594933824872
 20
-95.3384456025135
 30
0.0
 11
-691.6594933824872
 21
-89.3384111965945
 31
0.0
  0
LINE
  5
107
330
1F
100
AcDbEntity
  8
仕上
  6
Continuous
 62
     7
370
     9
100
AcDbLine
 10
-498.1594148498007
 20
-95.3384456025135
 30
0.0
 11
-498.1594148498007
 21
-89.3384111965945
 31
0.0
  0
LINE
  5
108
330
1F
100
AcDbEntity
  8
仕上
  6
Continuous
 62
     7
370
     9
100
AcDbLine
 10
-493.6593300132899
 20
-95.3384456025135
 30
0.0
 11
-493.6593300132899
 21
-89.3384111965945
 31
0.0
  0
LINE
  5
109
330
1F
100
AcDbEntity
  8
仕上
  6
Continuous
 62
     7
370
     9
100
AcDbLine
 10
-498.1594148498007
 20
-82.33832636008378
 30
0.0
 11
-493.6593300132899
 21
-82.33832636008378
 31
0.0
  0
LINE
  5
10A
330
1F
100
AcDbEntity
  8
仕上
  6
Continuous
 62
     7
370
     9
100
AcDbLine
 10
-498.1594148498007
 20
-84.83832636008378
 30
0.0
 11
-498.1594148498007
 21
-82.33832636008378
 31
0.0
  0
LINE
  5
10B
330
1F
100
AcDbEntity
  8
仕上
  6
Continuous
 62
     7
370
     9
100
AcDbLine
 10
-493.6593300132899
 20
-84.83832636008378
 30
0.0
 11
-493.6593300132899
 21
-82.33832636008378
 31
0.0
  0
LINE
  5
10C
330
1F
100
AcDbEntity
  8
仕上
  6
Continuous
 62
     7
370
     9
100
AcDbLine
 10
-887.1593275388914
 20
-89.3384111965945
 30
0.0
 11
-887.1593275388914
 21
-95.3384456025135
 31
0.0
  0
LINE
  5
10D
330
1F
100
AcDbEntity
  8
仕上
  6
Continuous
 62
     7
370
     9
100
AcDbLine
 10
-887.1593275388914
 20
-82.33832636008378
 30
0.0
 11
-887.1593275388914
 21
-84.83832636008378
 31
0.0
  0
LINE
  5
10E
330
1F
100
AcDbEntity
  8
仕上
  6
Continuous
 62
     7
370
     9
100
AcDbLine
 10
-891.6594123754021
 20
-82.33832636008378
 30
0.0
 11
-887.1593275388914
 21
-82.33832636008378
 31
0.0
  0
LINE
  5
10F
330
1F
100
AcDbEntity
  8
仕上
  6
Continuous
 62
     7
370
     9
100
AcDbLine
 10
-298.1594972119128
 20
-89.3384111965945
 30
0.0
 11
-298.1594972119128
 21
-95.3384456025135
 31
0.0
  0
LINE
  5
110
330
1F
100
AcDbEntity
  8
仕上
  6
Continuous
 62
     7
370
     9
100
AcDbLine
 10
-298.1594972119128
 20
-82.33832636008378
 30
0.0
 11
-298.1594972119128
 21
-84.83832636008378
 31
0.0
  0
LINE
  5
111
330
1F
100
AcDbEntity
  8
仕上
  6
Continuous
 62
     7
370
     9
100
AcDbLine
 10
-293.6594123754039
 20
-82.33832636008378
 30
0.0
 11
-298.1594972119128
 21
-82.33832636008378
 31
0.0
  0
LINE
  5
112
330
1F
100
AcDbEntity
  8
仕上
  6
Continuous
 62
     7
370
     9
100
AcDbLine
 10
-687.1594085459765
 20
-330.838922100914
 30
0.0
 11
-687.1594085459765
 21
-333.338922100914
 31
0.0
  0
LINE
  5
113
330
1F
100
AcDbEntity
  8
仕上
  6
Continuous
 62
     7
370
     9
100
AcDbLine
 10
-691.6594933824872
 20
-330.838922100914
 30
0.0
 11
-691.6594933824872
 21
-333.338922100914
 31
0.0
  0
LINE
  5
114
330
1F
100
AcDbEntity
  8
仕上
  6
Continuous
 62
     7
370
     9
100
AcDbLine
 10
-691.6594933824872
 20
-333.338922100914
 30
0.0
 11
-687.1594085459765
 21
-333.338922100914
 31
0.0
  0
LINE
  5
115
330
1F
100
AcDbEntity
  8
仕上
  6
Continuous
 62
     7
370
     9
100
AcDbLine
 10
-687.1594085459765
 20
-320.3388028584843
 30
0.0
 11
-687.1594085459765
 21
-326.3388372644015
 31
0.0
  0
LINE
  5
116
330
1F
100
AcDbEntity
  8
仕上
  6
Continuous
 62
     7
370
     9
100
AcDbLine
 10
-691.6594933824872
 20
-320.3388028584843
 30
0.0
 11
-691.6594933824872
 21
-326.3388372644015
 31
0.0
  0
LINE
  5
117
330
1F
100
AcDbEntity
  8
仕上
  6
Continuous
 62
     7
370
     9
100
AcDbLine
 10
-498.1594148498007
 20
-320.3388028584843
 30
0.0
 11
-498.1594148498007
 21
-326.3388372644015
 31
0.0
  0
LINE
  5
118
330
1F
100
AcDbEntity
  8
仕上
  6
Continuous
 62
     7
370
     9
100
AcDbLine
 10
-493.6593300132899
 20
-320.3388028584843
 30
0.0
 11
-493.6593300132899
 21
-326.3388372644015
 31
0.0
  0
LINE
  5
119
330
1F
100
AcDbEntity
  8
仕上
  6
Continuous
 62
     7
370
     9
100
AcDbLine
 10
-498.1594148498007
 20
-333.338922100914
 30
0.0
 11
-493.6593300132899
 21
-333.338922100914
 31
0.0
  0
LINE
  5
11A
330
1F
100
AcDbEntity
  8
仕上
  6
Continuous
 62
     7
370
     9
100
AcDbLine
 10
-498.1594148498007
 20
-330.838922100914
 30
0.0
 11
-498.1594148498007
 21
-333.338922100914
 31
0.0
  0
LINE
  5
11B
330
1F
100
AcDbEntity
  8
仕上
  6
Continuous
 62
     7
370
     9
100
AcDbLine
 10
-493.6593300132899
 20
-330.838922100914
 30
0.0
 11
-493.6593300132899
 21
-333.338922100914
 31
0.0
  0
LINE
  5
11C
330
1F
100
AcDbEntity
  8
仕上
  6
Continuous
 62
     7
370
     9
100
AcDbLine
 10
-887.1593275388914
 20
-326.3388372644015
 30
0.0
 11
-887.1593275388914
 21
-320.3388028584843
 31
0.0
  0
LINE
  5
11D
330
1F
100
AcDbEntity
  8
仕上
  6
Continuous
 62
     7
370
     9
100
AcDbLine
 10
-887.1593275388914
 20
-333.338922100914
 30
0.0
 11
-887.1593275388914
 21
-330.838922100914
 31
0.0
  0
LINE
  5
11E
330
1F
100
AcDbEntity
  8
仕上
  6
Continuous
 62
     7
370
     9
100
AcDbLine
 10
-891.6594123754021
 20
-333.338922100914
 30
0.0
 11
-887.1593275388914
 21
-333.338922100914
 31
0.0
  0
LINE
  5
11F
330
1F
100
AcDbEntity
  8
仕上
  6
Continuous
 62
     7
370
     9
100
AcDbLine
 10
-298.1594972119128
 20
-326.3388372644015
 30
0.0
 11
-298.1594972119128
 21
-320.3388028584843
 31
0.0
  0
LINE
  5
120
330
1F
100
AcDbEntity
  8
仕上
  6
Continuous
 62
     7
370
     9
100
AcDbLine
 10
-298.1594972119128
 20
-333.338922100914
 30
0.0
 11
-298.1594972119128
 21
-330.838922100914
 31
0.0
  0
LINE
  5
121
330
1F
100
AcDbEntity
  8
仕上
  6
Continuous
 62
     7
370
     9
100
AcDbLine
 10
-293.6594123754039
 20
-333.338922100914
 30
0.0
 11
-298.1594972119128
 21
-333.338922100914
 31
0.0
  0
LINE
  5
122
330
1F
100
AcDbEntity
  8
仕上
  6
JWW_CENTER2
 62
     7
370
     9
100
AcDbLine
 10
-861.6594177071411
 20
-108.3384479001681
 30
0.0
 11
-861.6594177071411
 21
-122.3384479001681
 31
0.0
  0
LINE
  5
123
330
1F
100
AcDbEntity
  8
仕上
  6
JWW_CENTER2
 62
     7
370
     9
100
AcDbLine
 10
-854.6594177071411
 20
-115.3384479001681
 30
0.0
 11
-868.6594177071411
 21
-115.3384479001681
 31
0.0
  0
CIRCLE
  5
124
330
1F
100
AcDbEntity
  8
仕上
  6
Continuous
 62
     7
370
     9
100
AcDbCircle
 10
-861.6594177071411
 20
-115.3384479001681
 30
0.0
 40
5.0
  0
LINE
  5
125
330
1F
100
AcDbEntity
  8
通り芯
  6
JWW_CENTER2
 62
     7
370
     9
100
AcDbLine
 10
-592.6594123754021
 20
-76.03867328926503
 30
0.0
 11
-592.6594123754021
 21
-342.6618619748472
 31
0.0
  0
LINE
  5
126
330
1F
100
AcDbEntity
  8
通り芯
  6
JWW_CENTER2
 62
     7
370
     9
100
AcDbLine
 10
-431.1594123754021
 20
-176.3168412239695
 30
0.0
 11
-431.1594123754021
 21
-237.3456488993336
 31
0.0
  0
LINE
  5
127
330
1F
100
AcDbEntity
  8
通り芯
  6
JWW_CENTER2
 62
     7
370
     9
100
AcDbLine
 10
-754.1594123754021
 20
-176.3168412239695
 30
0.0
 11
-754.1594123754021
 21
-237.3456488993336
 31
0.0
  0
LINE
  5
128
330
1F
100
AcDbEntity
  8
建具
  6
Continuous
 62
     4
370
     9
100
AcDbLine
 10
686.8875699143659
 20
-78.83859453771925
 30
0.0
 11
587.6877078208267
 21
-78.83859453771925
 31
0.0
  0
LINE
  5
129
330
1F
100
AcDbEntity
  8
建具
  6
Continuous
 62
     4
370
     9
100
AcDbLine
 10
690.8876820870842
 20
-82.83870671043891
 30
0.0
 11
690.8876820870842
 21
-132.838624230498
 31
0.0
  0
LINE
  5
12A
330
1F
100
AcDbEntity
  8
建具
  6
Continuous
 62
     4
370
     9
100
AcDbLine
 10
690.8876820870842
 20
-132.838624230498
 30
0.0
 11
696.8876029063408
 21
-132.838624230498
 31
0.0
  0
LINE
  5
12B
330
1F
100
AcDbEntity
  8
建具
  6
Continuous
 62
     4
370
     9
100
AcDbLine
 10
587.6877078208267
 20
-78.83859453771925
 30
0.0
 11
587.6877078208267
 21
-72.83867371846247
 31
0.0
  0
LINE
  5
12C
330
1F
100
AcDbEntity
  8
建具
  6
Continuous
 62
     4
370
     9
100
AcDbLine
 10
587.6877078208267
 20
-72.83867371846247
 30
0.0
 11
686.8875699143659
 21
-72.83867371846247
 31
0.0
  0
LINE
  5
12D
330
1F
100
AcDbEntity
  8
建具
  6
Continuous
 62
     4
370
     9
100
AcDbLine
 10
696.8876029063408
 20
-132.838624230498
 30
0.0
 11
702.8876474455096
 21
-132.838624230498
 31
0.0
  0
LINE
  5
12E
330
1F
100
AcDbEntity
  8
建具
  6
Continuous
 62
     4
370
     9
100
AcDbLine
 10
696.8876029063408
 20
-32.83866547046847
 30
0.0
 11
702.8876474455096
 21
-32.83866547046847
 31
0.0
  0
LINE
  5
12F
330
1F
100
AcDbEntity
  8
建具
  6
JWW_CENTER1
 62
     4
370
     9
100
AcDbLine
 10
687.960592705223
 20
-50.83867536806133
 30
0.0
 11
713.898719552773
 21
-50.83867536806133
 31
0.0
  0
LINE
  5
130
330
1F
100
AcDbEntity
  8
建具
  6
Continuous
 62
     4
370
     9
100
AcDbLine
 10
696.8876029063408
 20
-42.83869846244477
 30
0.0
 11
702.8876474455096
 21
-42.83869846244477
 31
0.0
  0
LINE
  5
131
330
1F
100
AcDbEntity
  8
建具
  6
Continuous
 62
     4
370
     9
100
AcDbLine
 10
696.8876029063408
 20
-132.838624230498
 30
0.0
 11
696.8876029063408
 21
-32.83866547046847
 31
0.0
  0
LINE
  5
132
330
1F
100
AcDbEntity
  8
建具
  6
Continuous
 62
     4
370
     9
100
AcDbLine
 10
702.8876474455096
 20
-132.838624230498
 30
0.0
 11
702.8876474455096
 21
-32.83866547046847
 31
0.0
  0
LINE
  5
133
330
1F
100
AcDbEntity
  8
建具
  6
Continuous
 62
     4
370
     9
100
AcDbLine
 10
696.8876029063408
 20
-58.83865227367784
 30
0.0
 11
702.8876474455096
 21
-58.83865227367784
 31
0.0
  0
LINE
  5
134
330
1F
100
AcDbEntity
  8
建具
  6
Continuous
 62
     4
370
     9
100
AcDbLine
 10
686.8875699143659
 20
-336.8387157832324
 30
0.0
 11
587.6877078208267
 21
-336.8387157832324
 31
0.0
  0
LINE
  5
135
330
1F
100
AcDbEntity
  8
建具
  6
Continuous
 62
     4
370
     9
100
AcDbLine
 10
690.8876820870842
 20
-332.8386036105127
 30
0.0
 11
690.8876820870842
 21
-282.8386860904536
 31
0.0
  0
LINE
  5
136
330
1F
100
AcDbEntity
  8
建具
  6
Continuous
 62
     4
370
     9
100
AcDbLine
 10
690.8876820870842
 20
-282.8386860904536
 30
0.0
 11
696.8876029063408
 21
-282.8386860904536
 31
0.0
  0
LINE
  5
137
330
1F
100
AcDbEntity
  8
建具
  6
Continuous
 62
     4
370
     9
100
AcDbLine
 10
587.6877078208267
 20
-336.8387157832324
 30
0.0
 11
587.6877078208267
 21
-342.8386366024891
 31
0.0
  0
LINE
  5
138
330
1F
100
AcDbEntity
  8
建具
  6
Continuous
 62
     4
370
     9
100
AcDbLine
 10
587.6877078208267
 20
-342.8386366024891
 30
0.0
 11
686.8875699143659
 21
-342.8386366024891
 31
0.0
  0
LINE
  5
139
330
1F
100
AcDbEntity
  8
建具
  6
Continuous
 62
     4
370
     9
100
AcDbLine
 10
696.8876029063408
 20
-282.8386860904536
 30
0.0
 11
702.8876474455096
 21
-282.8386860904536
 31
0.0
  0
LINE
  5
13A
330
1F
100
AcDbEntity
  8
建具
  6
Continuous
 62
     4
370
     9
100
AcDbLine
 10
696.8876029063408
 20
-382.8386448504831
 30
0.0
 11
702.8876474455096
 21
-382.8386448504831
 31
0.0
  0
LINE
  5
13B
330
1F
100
AcDbEntity
  8
建具
  6
JWW_CENTER1
 62
     4
370
     9
100
AcDbLine
 10
687.960592705223
 20
-364.8386349528903
 30
0.0
 11
713.898719552773
 21
-364.8386349528903
 31
0.0
  0
LINE
  5
13C
330
1F
100
AcDbEntity
  8
建具
  6
Continuous
 62
     4
370
     9
100
AcDbLine
 10
696.8876029063408
 20
-372.8386118585069
 30
0.0
 11
702.8876474455096
 21
-372.8386118585069
 31
0.0
  0
LINE
  5
13D
330
1F
100
AcDbEntity
  8
建具
  6
Continuous
 62
     4
370
     9
100
AcDbLine
 10
696.8876029063408
 20
-282.8386860904536
 30
0.0
 11
696.8876029063408
 21
-382.8386448504831
 31
0.0
  0
LINE
  5
13E
330
1F
100
AcDbEntity
  8
建具
  6
Continuous
 62
     4
370
     9
100
AcDbLine
 10
702.8876474455096
 20
-282.8386860904536
 30
0.0
 11
702.8876474455096
 21
-382.8386448504831
 31
0.0
  0
LINE
  5
13F
330
1F
100
AcDbEntity
  8
建具
  6
Continuous
 62
     4
370
     9
100
AcDbLine
 10
696.8876029063408
 20
-356.8386580472738
 30
0.0
 11
702.8876474455096
 21
-356.8386580472738
 31
0.0
  0
ARC
  5
140
330
1F
100
AcDbEntity
  8
建具
  6
Continuous
 62
     4
370
     9
100
AcDbCircle
 10
686.8875699143659
 20
-82.83870671043891
 30
0.0
 40
3.999999809909511
100
AcDbArc
 50
0.0
 51
90.0
  0
ARC
  5
141
330
1F
100
AcDbEntity
  8
建具
  6
Continuous
 62
     4
370
     9
100
AcDbCircle
 10
686.8875699143659
 20
-82.83870671043891
 30
0.0
 40
9.9999991623131
100
AcDbArc
 50
0.0
 51
90.0
  0
ARC
  5
142
330
1F
100
AcDbEntity
  8
建具
  6
Continuous
 62
     4
370
     9
100
AcDbCircle
 10
686.8875699143659
 20
-332.8386036105127
 30
0.0
 40
3.999999809909511
100
AcDbArc
 50
270.0
 51
0.0
  0
ARC
  5
143
330
1F
100
AcDbEntity
  8
建具
  6
Continuous
 62
     4
370
     9
100
AcDbCircle
 10
686.8875699143659
 20
-332.8386036105127
 30
0.0
 40
9.9999991623131
100
AcDbArc
 50
270.0
 51
0.0
  0
LINE
  5
144
330
1F
100
AcDbEntity
  8
仕上
  6
Continuous
 62
     7
370
     9
100
AcDbLine
 10
587.6873910978516
 20
-320.3388337884621
 30
0.0
 11
587.6873910978516
 21
-95.33847653249131
 31
0.0
  0
LINE
  5
145
330
1F
100
AcDbEntity
  8
仕上
  6
Continuous
 62
     7
370
     9
100
AcDbLine
 10
587.6873910978516
 20
-84.8383572900616
 30
0.0
 11
587.6873910978516
 21
-89.33829790450318
 31
0.0
  0
LINE
  5
146
330
1F
100
AcDbEntity
  8
仕上
  6
Continuous
 62
     7
370
     9
100
AcDbLine
 10
603.6874686289971
 20
-89.33829790450318
 30
0.0
 11
587.6873910978516
 21
-89.33829790450318
 31
0.0
  0
LINE
  5
147
330
1F
100
AcDbEntity
  8
仕上
  6
Continuous
 62
     7
370
     9
100
AcDbLine
 10
603.6874686289971
 20
-84.8383572900616
 30
0.0
 11
587.6873910978516
 21
-84.8383572900616
 31
0.0
  0
LINE
  5
148
330
1F
100
AcDbEntity
  8
仕上
  6
Continuous
 62
     7
370
     9
100
AcDbLine
 10
603.6874686289971
 20
-84.8383572900616
 30
0.0
 11
603.6874686289971
 21
-89.33829790450318
 31
0.0
  0
LINE
  5
149
330
1F
100
AcDbEntity
  8
仕上
  6
Continuous
 62
     7
370
     9
100
AcDbLine
 10
587.6873910978516
 20
-330.8389530308918
 30
0.0
 11
587.6873910978516
 21
-326.3390124164503
 31
0.0
  0
LINE
  5
14A
330
1F
100
AcDbEntity
  8
仕上
  6
Continuous
 62
     7
370
     9
100
AcDbLine
 10
603.6874686289971
 20
-326.3390124164503
 30
0.0
 11
587.6873910978516
 21
-326.3390124164503
 31
0.0
  0
LINE
  5
14B
330
1F
100
AcDbEntity
  8
仕上
  6
Continuous
 62
     7
370
     9
100
AcDbLine
 10
603.6874686289971
 20
-330.8389530308918
 30
0.0
 11
587.6873910978516
 21
-330.8389530308918
 31
0.0
  0
LINE
  5
14C
330
1F
100
AcDbEntity
  8
仕上
  6
Continuous
 62
     7
370
     9
100
AcDbLine
 10
603.6874686289971
 20
-330.8389530308918
 30
0.0
 11
603.6874686289971
 21
-326.3390124164503
 31
0.0
  0
LINE
  5
14D
330
1F
100
AcDbEntity
  8
仕上
  6
Continuous
 62
     7
370
     9
100
AcDbLine
 10
665.8876062055383
 20
-95.33847653249131
 30
0.0
 11
587.6873910978516
 21
-95.33847653249131
 31
0.0
  0
LINE
  5
14E
330
1F
100
AcDbEntity
  8
仕上
  6
Continuous
 62
     7
370
     9
100
AcDbLine
 10
662.6875906993096
 20
-99.8384171469329
 30
0.0
 11
587.6873910978516
 21
-99.8384171469329
 31
0.0
  0
LINE
  5
14F
330
1F
100
AcDbEntity
  8
仕上
  6
Continuous
 62
     7
370
     9
100
AcDbLine
 10
665.8876062055383
 20
-320.3388337884621
 30
0.0
 11
587.6873910978516
 21
-320.3388337884621
 31
0.0
  0
LINE
  5
150
330
1F
100
AcDbEntity
  8
仕上
  6
Continuous
 62
     7
370
     9
100
AcDbLine
 10
662.6875906993096
 20
-315.8388931740187
 30
0.0
 11
587.6873910978516
 21
-315.8388931740187
 31
0.0
  0
LINE
  5
151
330
1F
100
AcDbEntity
  8
仕上
  6
Continuous
 62
     7
370
     9
100
AcDbLine
 10
662.6875906993096
 20
-320.3388337884621
 30
0.0
 11
662.6875906993096
 21
-95.33847653249131
 31
0.0
  0
LINE
  5
152
330
1F
100
AcDbEntity
  8
仕上
  6
Continuous
 62
     2
370
     9
100
AcDbLine
 10
665.8876062055383
 20
-82.3383572900616
 30
0.0
 11
665.8876062055383
 21
-333.3389530308918
 31
0.0
  0
LINE
  5
153
330
1F
100
AcDbEntity
  8
仕上
  6
Continuous
 62
     2
370
     9
100
AcDbLine
 10
665.8876062055383
 20
-82.3383572900616
 30
0.0
 11
684.8876375479153
 21
-82.3383572900616
 31
0.0
  0
LINE
  5
154
330
1F
100
AcDbEntity
  8
仕上
  6
Continuous
 62
     2
370
     9
100
AcDbLine
 10
684.8876375479153
 20
-82.3383572900616
 30
0.0
 11
684.8876375479153
 21
-86.83859577491921
 31
0.0
  0
LINE
  5
155
330
1F
100
AcDbEntity
  8
仕上
  6
Continuous
 62
     2
370
     9
100
AcDbLine
 10
690.8876820870842
 20
-86.83859577491921
 30
0.0
 11
665.8876062055383
 21
-86.83859577491921
 31
0.0
  0
LINE
  5
156
330
1F
100
AcDbEntity
  8
仕上
  6
Continuous
 62
     2
370
     9
100
AcDbLine
 10
665.8876062055383
 20
-333.3389530308918
 30
0.0
 11
684.8876375479153
 21
-333.3389530308918
 31
0.0
  0
LINE
  5
157
330
1F
100
AcDbEntity
  8
仕上
  6
Continuous
 62
     2
370
     9
100
AcDbLine
 10
684.8876375479153
 20
-333.3389530308918
 30
0.0
 11
684.8876375479153
 21
-328.8387145460324
 31
0.0
  0
LINE
  5
158
330
1F
100
AcDbEntity
  8
仕上
  6
Continuous
 62
     2
370
     9
100
AcDbLine
 10
690.8876820870842
 20
-328.8387145460324
 30
0.0
 11
665.8876062055383
 21
-328.8387145460324
 31
0.0
  0
LINE
  5
159
330
1F
100
AcDbEntity
  8
仕上
  6
Continuous
 62
     2
370
     9
100
AcDbLine
 10
690.8876820870842
 20
-328.8387145460324
 30
0.0
 11
690.8876820870842
 21
-86.83859577491921
 31
0.0
  0
LINE
  5
15A
330
1F
100
AcDbEntity
  8
仕上
  6
Continuous
 62
     3
370
     9
100
AcDbLine
 10
662.6875906993096
 20
-215.6066043529077
 30
0.0
 11
653.5536161030918
 21
-231.4271124285965
 31
0.0
  0
LINE
  5
15B
330
1F
100
AcDbEntity
  8
仕上
  6
Continuous
 62
     3
370
     9
100
AcDbLine
 10
662.6875906993096
 20
-215.6066043529077
 30
0.0
 11
662.6875906993096
 21
-200.0707059680458
 31
0.0
  0
LINE
  5
15C
330
1F
100
AcDbEntity
  8
仕上
  6
Continuous
 62
     3
370
     9
100
AcDbLine
 10
662.6875906993096
 20
-200.0707059680458
 30
0.0
 11
653.5536161030918
 21
-184.2501978923569
 31
0.0
  0
LINE
  5
15D
330
1F
100
AcDbEntity
  8
仕上
  6
Continuous
 62
     3
370
     9
100
AcDbLine
 10
652.6875906993096
 20
-184.7501978923569
 30
0.0
 11
653.5536161030918
 21
-184.2501978923569
 31
0.0
  0
LINE
  5
15E
330
1F
100
AcDbEntity
  8
仕上
  6
Continuous
 62
     3
370
     9
100
AcDbLine
 10
652.6875906993096
 20
-230.9271124285965
 30
0.0
 11
653.5536161030918
 21
-231.4271124285965
 31
0.0
  0
LINE
  5
15F
330
1F
100
AcDbEntity
  8
仕上
  6
Continuous
 62
     3
370
     9
100
AcDbLine
 10
661.6875906993096
 20
-215.3386551604758
 30
0.0
 11
652.6875906993096
 21
-230.9271124285965
 31
0.0
  0
LINE
  5
160
330
1F
100
AcDbEntity
  8
仕上
  6
Continuous
 62
     3
370
     9
100
AcDbLine
 10
661.6875906993096
 20
-215.3386551604758
 30
0.0
 11
661.6875906993096
 21
-200.3386551604758
 31
0.0
  0
LINE
  5
161
330
1F
100
AcDbEntity
  8
仕上
  6
Continuous
 62
     3
370
     9
100
AcDbLine
 10
661.6875906993096
 20
-200.3386551604758
 30
0.0
 11
652.6875906993096
 21
-184.7501978923569
 31
0.0
  0
LINE
  5
162
330
1F
100
AcDbEntity
  8
仕上
  6
Continuous
 62
     7
370
     9
100
AcDbLine
 10
609.8875682647663
 20
-88.33840395014295
 30
0.0
 11
609.8875682647663
 21
-95.33847653249131
 31
0.0
  0
LINE
  5
163
330
1F
100
AcDbEntity
  8
仕上
  6
Continuous
 62
     7
370
     9
100
AcDbLine
 10
596.6873960466487
 20
-89.338297904505
 30
0.0
 11
596.6873960466487
 21
-95.33847653249131
 31
0.0
  0
LINE
  5
164
330
1F
100
AcDbEntity
  8
仕上
  6
Continuous
 62
     7
370
     9
100
AcDbLine
 10
639.8875682647663
 20
-88.33840395014295
 30
0.0
 11
639.8875682647663
 21
-95.33847653249131
 31
0.0
  0
LINE
  5
165
330
1F
100
AcDbEntity
  8
仕上
  6
Continuous
 62
     7
370
     9
100
AcDbLine
 10
639.8875682647663
 20
-88.33840395014295
 30
0.0
 11
609.8875682647663
 21
-88.33840395014295
 31
0.0
  0
LINE
  5
166
330
1F
100
AcDbEntity
  8
仕上
  6
Continuous
 62
     7
370
     9
100
AcDbLine
 10
600.1873960466487
 20
-82.3383572900616
 30
0.0
 11
600.1873960466487
 21
-84.8383572900616
 31
0.0
  0
LINE
  5
167
330
1F
100
AcDbEntity
  8
仕上
  6
Continuous
 62
     7
370
     9
100
AcDbLine
 10
665.8876062055383
 20
-82.3383572900616
 30
0.0
 11
600.1873960466487
 21
-82.3383572900616
 31
0.0
  0
LINE
  5
168
330
1F
100
AcDbEntity
  8
仕上
  6
Continuous
 62
     7
370
     9
100
AcDbLine
 10
665.8876062055383
 20
-82.3383572900616
 30
0.0
 11
665.8876062055383
 21
-86.8383572900616
 31
0.0
  0
LINE
  5
169
330
1F
100
AcDbEntity
  8
仕上
  6
Continuous
 62
     7
370
     9
100
AcDbLine
 10
609.8875682647663
 20
-327.3389063708123
 30
0.0
 11
609.8875682647663
 21
-320.3388337884639
 31
0.0
  0
LINE
  5
16A
330
1F
100
AcDbEntity
  8
仕上
  6
Continuous
 62
     7
370
     9
100
AcDbLine
 10
596.6873960466487
 20
-326.3390124164503
 30
0.0
 11
596.6873960466487
 21
-320.3388337884639
 31
0.0
  0
LINE
  5
16B
330
1F
100
AcDbEntity
  8
仕上
  6
Continuous
 62
     7
370
     9
100
AcDbLine
 10
639.8875682647663
 20
-327.3389063708123
 30
0.0
 11
639.8875682647663
 21
-320.3388337884639
 31
0.0
  0
LINE
  5
16C
330
1F
100
AcDbEntity
  8
仕上
  6
Continuous
 62
     7
370
     9
100
AcDbLine
 10
639.8875682647663
 20
-327.3389063708123
 30
0.0
 11
609.8875682647663
 21
-327.3389063708123
 31
0.0
  0
LINE
  5
16D
330
1F
100
AcDbEntity
  8
仕上
  6
Continuous
 62
     7
370
     9
100
AcDbLine
 10
600.1873960466487
 20
-333.3389530308937
 30
0.0
 11
600.1873960466487
 21
-330.8389530308937
 31
0.0
  0
LINE
  5
16E
330
1F
100
AcDbEntity
  8
仕上
  6
Continuous
 62
     7
370
     9
100
AcDbLine
 10
665.8876062055383
 20
-333.3389530308937
 30
0.0
 11
600.1873960466487
 21
-333.3389530308937
 31
0.0
  0
LINE
  5
16F
330
1F
100
AcDbEntity
  8
仕上
  6
Continuous
 62
     7
370
     9
100
AcDbLine
 10
665.8876062055383
 20
-333.3389530308937
 30
0.0
 11
665.8876062055383
 21
-328.8389530308937
 31
0.0
  0
LINE
  5
170
330
1F
100
AcDbEntity
  8
通り芯
  6
JWW_CENTER2
 62
     7
370
     9
100
AcDbLine
 10
580.6085416433648
 20
-207.8386551604758
 30
0.0
 11
709.9945976197828
 21
-207.8386551604758
 31
0.0
  0
LINE
  5
171
330
1F
100
AcDbEntity
  8
建具
  6
Continuous
 62
     4
370
     9
100
AcDbLine
 10
52.27695558740925
 20
-190.7154688943735
 30
0.0
 11
35.15374870132382
 21
-207.8386757804587
 31
0.0
  0
LINE
  5
172
330
1F
100
AcDbEntity
  8
建具
  6
Continuous
 62
     4
370
     9
100
AcDbLine
 10
35.15374870132382
 20
-207.8386757804587
 30
0.0
 11
18.03054181523839
 21
-224.9618826665439
 31
0.0
  0
LINE
  5
173
330
1F
100
AcDbEntity
  8
建具
  6
Continuous
 62
     4
370
     9
100
AcDbLine
 10
18.03054181523839
 20
-224.9618826665439
 30
0.0
 11
35.15374870132382
 21
-224.9618826665439
 31
0.0
  0
LINE
  5
174
330
1F
100
AcDbEntity
  8
建具
  6
Continuous
 62
     4
370
     9
100
AcDbLine
 10
35.15374870132382
 20
-52.2386898845308
 30
0.0
 11
35.15374870132382
 21
-190.7154688943735
 31
0.0
  0
LINE
  5
175
330
1F
100
AcDbEntity
  8
建具
  6
Continuous
 62
     4
370
     9
100
AcDbLine
 10
52.27695558740925
 20
-190.7154688943735
 30
0.0
 11
35.15374870132382
 21
-190.7154688943735
 31
0.0
  0
LINE
  5
176
330
1F
100
AcDbEntity
  8
建具
  6
Continuous
 62
     4
370
     9
100
AcDbLine
 10
35.15374870132382
 20
-363.4386822963764
 30
0.0
 11
35.15374870132382
 21
-224.9618826665439
 31
0.0
  0
LINE
  5
177
330
1F
100
AcDbEntity
  8
通り芯
  6
JWW_CENTER2
 62
     7
370
     9
100
AcDbLine
 10
61.02450621559819
 20
-207.838624230498
 30
0.0
 11
-913.7048307796467
 21
-207.838624230498
 31
0.0
  0
LWPOLYLINE
  5
178
330
1F
100
AcDbEntity
  8
その他
  6
Continuous
 62
     7
370
     9
100
AcDbPolyline
 90
        4
 70
     1
 43
0.4
 10
817.1917431053532
 20
-364.8386349528903
 42
0.4142135623731
 10
816.9917431053532
 20
-364.6386349528903
 42
0.4142135623731
 10
816.7917431053531
 20
-364.8386349528903
 42
0.4142135623731
 10
816.9917431053532
 20
-365.0386349528903
 42
0.4142135623731
  0
LINE
  5
179
330
1F
100
AcDbEntity
  8
その他
  6
Continuous
 62
     7
370
     9
100
AcDbLine
 10
818.191743105353
 20
-364.8386349528903
 30
0.0
 11
721.898719552773
 21
-364.8386349528903
 31
0.0
  0
LWPOLYLINE
  5
17A
330
1F
100
AcDbEntity
  8
その他
  6
Continuous
 62
     7
370
     9
100
AcDbPolyline
 90
        4
 70
     1
 43
0.4
 10
778.9405456599031
 20
-282.8386860904536
 42
0.4142135623731
 10
778.7405456599031
 20
-282.6386860904536
 42
0.4142135623731
 10
778.540545659903
 20
-282.8386860904536
 42
0.4142135623731
 10
778.7405456599031
 20
-283.0386860904536
 42
0.4142135623731
  0
LINE
  5
17B
330
1F
100
AcDbEntity
  8
その他
  6
Continuous
 62
     7
370
     9
100
AcDbLine
 10
779.9405456599029
 20
-282.8386860904536
 30
0.0
 11
710.8876474455096
 21
-282.8386860904536
 31
0.0
  0
LINE
  5
17C
330
1F
100
AcDbEntity
  8
その他
  6
Continuous
 62
     7
370
     9
100
AcDbLine
 10
778.7405456599031
 20
-282.8386860904536
 30
0.0
 11
778.7405456599031
 21
-342.838636602489
 31
0.0
  0
LWPOLYLINE
  5
17D
330
1F
100
AcDbEntity
  8
その他
  6
Continuous
 62
     7
370
     9
100
AcDbPolyline
 90
        4
 70
     1
 43
0.4
 10
778.9405456599031
 20
-342.838636602489
 42
0.4142135623731
 10
778.7405456599031
 20
-342.638636602489
 42
0.4142135623731
 10
778.540545659903
 20
-342.838636602489
 42
0.4142135623731
 10
778.7405456599031
 20
-343.038636602489
 42
0.4142135623731
  0
TEXT
  5
17E
330
1F
100
AcDbEntity
  8
その他
  6
Continuous
 62
     2
370
   211
100
AcDbText
 10
774.0845456599035
 20
-321.3386613464711
 30
0.0
 40
12.192
  1
60
 50
90.0
 41
1.0625
  7
ＭＳ ゴシック
100
AcDbText
  0
LINE
  5
17F
330
1F
100
AcDbEntity
  8
その他
  6
Continuous
 62
     7
370
     9
100
AcDbLine
 10
779.9405456599029
 20
-342.838636602489
 30
0.0
 11
710.8876474455096
 21
-342.838636602489
 31
0.0
  0
LWPOLYLINE
  5
180
330
1F
100
AcDbEntity
  8
その他
  6
Continuous
 62
     7
370
     9
100
AcDbPolyline
 90
        4
 70
     1
 43
0.4
 10
817.1917431053532
 20
-50.83867536806133
 42
0.4142135623731
 10
816.9917431053532
 20
-50.63867536806133
 42
0.4142135623731
 10
816.7917431053531
 20
-50.83867536806133
 42
0.4142135623731
 10
816.9917431053532
 20
-51.03867536806133
 42
0.4142135623731
  0
LINE
  5
181
330
1F
100
AcDbEntity
  8
その他
  6
Continuous
 62
     7
370
     9
100
AcDbLine
 10
818.191743105353
 20
-50.83867536806133
 30
0.0
 11
721.898719552773
 21
-50.83867536806133
 31
0.0
  0
LINE
  5
182
330
1F
100
AcDbEntity
  8
その他
  6
Continuous
 62
     7
370
     9
100
AcDbLine
 10
778.7405456599031
 20
-72.83867371846236
 30
0.0
 11
778.7405456599031
 21
-132.838624230498
 31
0.0
  0
LWPOLYLINE
  5
183
330
1F
100
AcDbEntity
  8
その他
  6
Continuous
 62
     7
370
     9
100
AcDbPolyline
 90
        4
 70
     1
 43
0.4
 10
778.9405456599031
 20
-72.83867371846236
 42
0.4142135623731
 10
778.7405456599031
 20
-72.63867371846236
 42
0.4142135623731
 10
778.540545659903
 20
-72.83867371846236
 42
0.4142135623731
 10
778.7405456599031
 20
-73.03867371846236
 42
0.4142135623731
  0
LWPOLYLINE
  5
184
330
1F
100
AcDbEntity
  8
その他
  6
Continuous
 62
     7
370
     9
100
AcDbPolyline
 90
        4
 70
     1
 43
0.4
 10
778.9405456599031
 20
-132.838624230498
 42
0.4142135623731
 10
778.7405456599031
 20
-132.638624230498
 42
0.4142135623731
 10
778.540545659903
 20
-132.838624230498
 42
0.4142135623731
 10
778.7405456599031
 20
-133.038624230498
 42
0.4142135623731
  0
LINE
  5
185
330
1F
100
AcDbEntity
  8
その他
  6
Continuous
 62
     7
370
     9
100
AcDbLine
 10
779.9405456599029
 20
-132.838624230498
 30
0.0
 11
710.8876474455096
 21
-132.838624230498
 31
0.0
  0
TEXT
  5
186
330
1F
100
AcDbEntity
  8
その他
  6
Continuous
 62
     2
370
   211
100
AcDbText
 10
774.0845456599035
 20
-111.3386489744801
 30
0.0
 40
12.192
  1
60
 50
90.0
 41
1.0625
  7
ＭＳ ゴシック
100
AcDbText
  0
LINE
  5
187
330
1F
100
AcDbEntity
  8
その他
  6
Continuous
 62
     7
370
     9
100
AcDbLine
 10
779.9405456599029
 20
-72.83867371846236
 30
0.0
 11
710.8876474455096
 21
-72.83867371846236
 31
0.0
  0
LINE
  5
188
330
1F
100
AcDbEntity
  8
その他
  6
Continuous
 62
     7
370
     9
100
AcDbLine
 10
558.1758500854239
 20
-336.8387157832325
 30
0.0
 11
558.1758500854239
 21
-330.8389427208975
 31
0.0
  0
LWPOLYLINE
  5
189
330
1F
100
AcDbEntity
  8
その他
  6
Continuous
 62
     7
370
     9
100
AcDbPolyline
 90
        4
 70
     1
 43
0.4
 10
558.375850085424
 20
-336.8387157832325
 42
0.4142135623731
 10
558.1758500854239
 20
-336.6387157832325
 42
0.4142135623731
 10
557.9758500854239
 20
-336.8387157832325
 42
0.4142135623731
 10
558.1758500854239
 20
-337.0387157832325
 42
0.4142135623731
  0
LWPOLYLINE
  5
18A
330
1F
100
AcDbEntity
  8
その他
  6
Continuous
 62
     7
370
     9
100
AcDbPolyline
 90
        4
 70
     1
 43
0.4
 10
558.375850085424
 20
-330.8389427208975
 42
0.4142135623731
 10
558.1758500854239
 20
-330.6389427208975
 42
0.4142135623731
 10
557.9758500854239
 20
-330.8389427208975
 42
0.4142135623731
 10
558.1758500854239
 20
-331.0389427208975
 42
0.4142135623731
  0
LINE
  5
18B
330
1F
100
AcDbEntity
  8
その他
  6
Continuous
 62
     7
370
     9
100
AcDbLine
 10
556.9758500854241
 20
-336.8387157832325
 30
0.0
 11
579.6877078208267
 21
-336.8387157832325
 31
0.0
  0
LINE
  5
18C
330
1F
100
AcDbEntity
  8
その他
  6
Continuous
 62
     7
370
     9
100
AcDbLine
 10
556.9758500854241
 20
-330.8389427208975
 30
0.0
 11
579.6863956281472
 21
-330.8389427208975
 31
0.0
  0
LINE
  5
18D
330
1F
100
AcDbEntity
  8
その他
  6
Continuous
 62
     7
370
     9
100
AcDbLine
 10
558.1758500854239
 20
-330.8389427208975
 30
0.0
 11
558.1758500854239
 21
-326.3390021064541
 31
0.0
  0
LWPOLYLINE
  5
18E
330
1F
100
AcDbEntity
  8
その他
  6
Continuous
 62
     7
370
     9
100
AcDbPolyline
 90
        4
 70
     1
 43
0.4
 10
558.375850085424
 20
-326.3390021064541
 42
0.4142135623731
 10
558.1758500854239
 20
-326.1390021064541
 42
0.4142135623731
 10
557.9758500854239
 20
-326.3390021064541
 42
0.4142135623731
 10
558.1758500854239
 20
-326.5390021064541
 42
0.4142135623731
  0
LINE
  5
18F
330
1F
100
AcDbEntity
  8
その他
  6
Continuous
 62
     7
370
     9
100
AcDbLine
 10
556.9758500854241
 20
-326.3390021064541
 30
0.0
 11
579.6863956281472
 21
-326.3390021064541
 31
0.0
  0
LINE
  5
190
330
1F
100
AcDbEntity
  8
その他
  6
Continuous
 62
     7
370
     9
100
AcDbLine
 10
558.1758500854239
 20
-326.3390021064541
 30
0.0
 11
558.1758500854239
 21
-320.3388234784696
 31
0.0
  0
LWPOLYLINE
  5
191
330
1F
100
AcDbEntity
  8
その他
  6
Continuous
 62
     7
370
     9
100
AcDbPolyline
 90
        4
 70
     1
 43
0.4
 10
558.375850085424
 20
-320.3388234784696
 42
0.4142135623731
 10
558.1758500854239
 20
-320.1388234784696
 42
0.4142135623731
 10
557.9758500854239
 20
-320.3388234784696
 42
0.4142135623731
 10
558.1758500854239
 20
-320.5388234784696
 42
0.4142135623731
  0
LINE
  5
192
330
1F
100
AcDbEntity
  8
その他
  6
Continuous
 62
     7
370
     9
100
AcDbLine
 10
556.9758500854241
 20
-320.3388234784696
 30
0.0
 11
579.6863956281472
 21
-320.3388234784696
 31
0.0
  0
TEXT
  5
193
330
1F
100
AcDbEntity
  8
その他
  6
Continuous
 62
     2
370
   211
100
AcDbText
 10
553.5198500854239
 20
-314.2317502542086
 30
0.0
 40
12.192
  1
6
 50
90.0
 41
1.000000000000028
  7
ＭＳ ゴシック
100
AcDbText
  0
TEXT
  5
194
330
1F
100
AcDbEntity
  8
その他
  6
Continuous
 62
     2
370
   211
100
AcDbText
 10
553.5198500854239
 20
-350.9491531280777
 30
0.0
 40
12.192
  1
6
 50
90.0
  7
ＭＳ ゴシック
100
AcDbText
  0
LINE
  5
195
330
1F
100
AcDbEntity
  8
その他
  6
Continuous
 62
     7
370
     9
100
AcDbLine
 10
558.1758500854239
 20
-328.5889724136758
 30
0.0
 11
537.569144390905
 21
-339.8721026875359
 31
0.0
  0
TEXT
  5
196
330
1F
100
AcDbEntity
  8
その他
  6
Continuous
 62
     2
370
   211
100
AcDbText
 10
532.9402510079002
 20
-367.2759818194617
 30
0.0
 40
12.192
  1
4.5
 50
90.0
 41
1.083333333333333
  7
ＭＳ ゴシック
100
AcDbText
  0
LINE
  5
197
330
1F
100
AcDbEntity
  8
その他
  6
Continuous
 62
     7
370
     9
100
AcDbLine
 10
537.569144390905
 20
-339.8721026875359
 30
0.0
 11
537.569144390905
 21
-368.7631203683353
 31
0.0
  0
LWPOLYLINE
  5
198
330
1F
100
AcDbEntity
  8
その他
  6
Continuous
 62
     7
370
     9
100
AcDbPolyline
 90
        4
 70
     1
 43
0.4
 10
482.9115960495894
 20
-315.8388828640244
 42
0.4142135623731
 10
482.7115960495894
 20
-315.6388828640244
 42
0.4142135623731
 10
482.5115960495894
 20
-315.8388828640244
 42
0.4142135623731
 10
482.7115960495894
 20
-316.0388828640244
 42
0.4142135623731
  0
LINE
  5
199
330
1F
100
AcDbEntity
  8
その他
  6
Continuous
 62
     7
370
     9
100
AcDbLine
 10
481.5115960495896
 20
-315.8388828640244
 30
0.0
 11
514.2148779371178
 21
-315.8388828640244
 31
0.0
  0
LWPOLYLINE
  5
19A
330
1F
100
AcDbEntity
  8
その他
  6
Continuous
 62
     7
370
     9
100
AcDbPolyline
 90
        4
 70
     1
 43
0.4
 10
454.5071255865761
 20
-333.3389427208975
 42
0.4142135623731
 10
454.3071255865761
 20
-333.1389427208975
 42
0.4142135623731
 10
454.1071255865762
 20
-333.3389427208975
 42
0.4142135623731
 10
454.3071255865761
 20
-333.5389427208975
 42
0.4142135623731
  0
LINE
  5
19B
330
1F
100
AcDbEntity
  8
その他
  6
Continuous
 62
     7
370
     9
100
AcDbLine
 10
454.3071255865761
 20
-333.3389427208975
 30
0.0
 11
454.3071255865761
 21
-336.8387157832325
 31
0.0
  0
LWPOLYLINE
  5
19C
330
1F
100
AcDbEntity
  8
その他
  6
Continuous
 62
     7
370
     9
100
AcDbPolyline
 90
        4
 70
     1
 43
0.4
 10
454.5071255865761
 20
-336.8387157832325
 42
0.4142135623731
 10
454.3071255865761
 20
-336.6387157832325
 42
0.4142135623731
 10
454.1071255865762
 20
-336.8387157832325
 42
0.4142135623731
 10
454.3071255865761
 20
-337.0387157832325
 42
0.4142135623731
  0
LINE
  5
19D
330
1F
100
AcDbEntity
  8
その他
  6
Continuous
 62
     7
370
     9
100
AcDbLine
 10
454.3071255865761
 20
-336.8387157832325
 30
0.0
 11
454.3071255865761
 21
-342.8386366024891
 31
0.0
  0
LWPOLYLINE
  5
19E
330
1F
100
AcDbEntity
  8
その他
  6
Continuous
 62
     7
370
     9
100
AcDbPolyline
 90
        4
 70
     1
 43
0.4
 10
454.5071255865761
 20
-342.8386366024891
 42
0.4142135623731
 10
454.3071255865761
 20
-342.6386366024892
 42
0.4142135623731
 10
454.1071255865762
 20
-342.8386366024891
 42
0.4142135623731
 10
454.3071255865761
 20
-343.0386366024891
 42
0.4142135623731
  0
LINE
  5
19F
330
1F
100
AcDbEntity
  8
その他
  6
Continuous
 62
     7
370
     9
100
AcDbLine
 10
453.1071255865763
 20
-333.3389427208975
 30
0.0
 11
514.2148779371178
 21
-333.3389427208975
 31
0.0
  0
LINE
  5
1A0
330
1F
100
AcDbEntity
  8
その他
  6
Continuous
 62
     7
370
     9
100
AcDbLine
 10
453.1071255865763
 20
-336.8387157832325
 30
0.0
 11
514.2148779371178
 21
-336.8387157832325
 31
0.0
  0
LWPOLYLINE
  5
1A1
330
1F
100
AcDbEntity
  8
その他
  6
Continuous
 62
     7
370
     9
100
AcDbPolyline
 90
        4
 70
     1
 43
0.4
 10
421.2085625211163
 20
-342.8386366024891
 42
0.4142135623731
 10
421.0085625211163
 20
-342.6386366024892
 42
0.4142135623731
 10
420.8085625211164
 20
-342.8386366024891
 42
0.4142135623731
 10
421.0085625211163
 20
-343.0386366024891
 42
0.4142135623731
  0
LINE
  5
1A2
330
1F
100
AcDbEntity
  8
その他
  6
Continuous
 62
     7
370
     9
100
AcDbLine
 10
419.8085625211165
 20
-342.8386366024891
 30
0.0
 11
514.2148779371178
 21
-342.8386366024891
 31
0.0
  0
TEXT
  5
1A3
330
1F
100
AcDbEntity
  8
その他
  6
Continuous
 62
     2
370
   211
100
AcDbText
 10
449.6511255865761
 20
-355.8928371207452
 30
0.0
 40
12.192
  1
6
 50
90.0
  7
ＭＳ ゴシック
100
AcDbText
  0
TEXT
  5
1A4
330
1F
100
AcDbEntity
  8
その他
  6
Continuous
 62
     2
370
   211
100
AcDbText
 10
449.6511255865761
 20
-335.4756199248371
 30
0.0
 40
12.192
  1
3.5
 50
90.0
 41
1.083333333333333
  7
ＭＳ ゴシック
100
AcDbText
  0
LINE
  5
1A5
330
1F
100
AcDbEntity
  8
その他
  6
Continuous
 62
     7
370
     9
100
AcDbLine
 10
454.3071255865761
 20
-342.8386366024891
 30
0.0
 11
454.3071255865761
 21
-366.1313075443353
 31
0.0
  0
LWPOLYLINE
  5
1A6
330
1F
100
AcDbEntity
  8
その他
  6
Continuous
 62
     7
370
     9
100
AcDbPolyline
 90
        4
 70
     1
 43
0.4
 10
587.8877078208268
 20
14.69509075652206
 42
0.4142135623731
 10
587.6877078208267
 20
14.89509075652206
 42
0.4142135623731
 10
587.4877078208267
 20
14.69509075652206
 42
0.4142135623731
 10
587.6877078208267
 20
14.49509075652206
 42
0.4142135623731
  0
LWPOLYLINE
  5
1A7
330
1F
100
AcDbEntity
  8
その他
  6
Continuous
 62
     7
370
     9
100
AcDbPolyline
 90
        4
 70
     1
 43
0.4
 10
587.8877078208268
 20
46.48093429031667
 42
0.4142135623731
 10
587.6877078208267
 20
46.68093429031667
 42
0.4142135623731
 10
587.4877078208267
 20
46.48093429031667
 42
0.4142135623731
 10
587.6877078208267
 20
46.28093429031667
 42
0.4142135623731
  0
LINE
  5
1A8
330
1F
100
AcDbEntity
  8
その他
  6
Continuous
 62
     7
370
     9
100
AcDbLine
 10
587.6877078208267
 20
47.68093429031671
 30
0.0
 11
587.6877078208267
 21
-64.83867371846247
 31
0.0
  0
LWPOLYLINE
  5
1A9
330
1F
100
AcDbEntity
  8
その他
  6
Continuous
 62
     7
370
     9
100
AcDbPolyline
 90
        4
 70
     1
 43
0.4
 10
691.0876820870842
 20
14.69509075652206
 42
0.4142135623731
 10
690.8876820870842
 20
14.89509075652206
 42
0.4142135623731
 10
690.6876820870841
 20
14.69509075652206
 42
0.4142135623731
 10
690.8876820870842
 20
14.49509075652206
 42
0.4142135623731
  0
LWPOLYLINE
  5
1AA
330
1F
100
AcDbEntity
  8
その他
  6
Continuous
 62
     7
370
     9
100
AcDbPolyline
 90
        4
 70
     1
 43
0.4
 10
697.0876029063418
 20
46.48093429031667
 42
0.4142135623731
 10
696.8876029063417
 20
46.68093429031667
 42
0.4142135623731
 10
696.6876029063417
 20
46.48093429031667
 42
0.4142135623731
 10
696.8876029063417
 20
46.28093429031667
 42
0.4142135623731
  0
LINE
  5
1AB
330
1F
100
AcDbEntity
  8
その他
  6
Continuous
 62
     7
370
     9
100
AcDbLine
 10
696.8876029063417
 20
47.68093429031671
 30
0.0
 11
696.8876029063417
 21
-24.8386654704683
 31
0.0
  0
LINE
  5
1AC
330
1F
100
AcDbEntity
  8
その他
  6
Continuous
 62
     7
370
     9
100
AcDbLine
 10
696.8876029063417
 20
46.48093429031667
 30
0.0
 11
702.8876474455096
 21
46.48093429031667
 31
0.0
  0
LWPOLYLINE
  5
1AD
330
1F
100
AcDbEntity
  8
その他
  6
Continuous
 62
     7
370
     9
100
AcDbPolyline
 90
        4
 70
     1
 43
0.4
 10
703.0876474455097
 20
46.48093429031667
 42
0.4142135623731
 10
702.8876474455096
 20
46.68093429031667
 42
0.4142135623731
 10
702.6876474455096
 20
46.48093429031667
 42
0.4142135623731
 10
702.8876474455096
 20
46.28093429031667
 42
0.4142135623731
  0
LINE
  5
1AE
330
1F
100
AcDbEntity
  8
その他
  6
Continuous
 62
     7
370
     9
100
AcDbLine
 10
702.8876474455096
 20
47.68093429031671
 30
0.0
 11
702.8876474455096
 21
-24.8386654704683
 31
0.0
  0
LINE
  5
1AF
330
1F
100
AcDbEntity
  8
その他
  6
Continuous
 62
     7
370
     9
100
AcDbLine
 10
690.8876820870842
 20
15.89509075652211
 30
0.0
 11
690.8876820870842
 21
-64.83867371846247
 31
0.0
  0
TEXT
  5
1B0
330
1F
100
AcDbEntity
  8
その他
  6
Continuous
 62
     2
370
   211
100
AcDbText
 10
695.8876251759261
 20
51.13693429031676
 30
0.0
 40
12.192
  1
6
  7
ＭＳ ゴシック
100
AcDbText
  0
LWPOLYLINE
  5
1B1
330
1F
100
AcDbEntity
  8
その他
  6
Continuous
 62
     7
370
     9
100
AcDbPolyline
 90
        4
 70
     1
 43
0.4
 10
482.9115960495894
 20
-99.8384171469329
 42
0.4142135623731
 10
482.7115960495894
 20
-99.6384171469329
 42
0.4142135623731
 10
482.5115960495894
 20
-99.8384171469329
 42
0.4142135623731
 10
482.7115960495894
 20
-100.0384171469329
 42
0.4142135623731
  0
LINE
  5
1B2
330
1F
100
AcDbEntity
  8
その他
  6
Continuous
 62
     7
370
     9
100
AcDbLine
 10
481.5115960495896
 20
-99.8384171469329
 30
0.0
 11
579.6863956281472
 21
-99.8384171469329
 31
0.0
  0
LINE
  5
1B3
330
1F
100
AcDbEntity
  8
その他
  6
Continuous
 62
     7
370
     9
100
AcDbLine
 10
454.3071255865761
 20
-72.83868401069094
 30
0.0
 11
454.3071255865761
 21
-78.838584227728
 31
0.0
  0
LWPOLYLINE
  5
1B4
330
1F
100
AcDbEntity
  8
その他
  6
Continuous
 62
     7
370
     9
100
AcDbPolyline
 90
        4
 70
     1
 43
0.4
 10
454.5071255865761
 20
-72.83868401069094
 42
0.4142135623731
 10
454.3071255865761
 20
-72.63868401069094
 42
0.4142135623731
 10
454.1071255865762
 20
-72.83868401069094
 42
0.4142135623731
 10
454.3071255865761
 20
-73.03868401069094
 42
0.4142135623731
  0
LWPOLYLINE
  5
1B5
330
1F
100
AcDbEntity
  8
その他
  6
Continuous
 62
     7
370
     9
100
AcDbPolyline
 90
        4
 70
     1
 43
0.4
 10
454.5071255865761
 20
-78.838584227728
 42
0.4142135623731
 10
454.3071255865761
 20
-78.638584227728
 42
0.4142135623731
 10
454.1071255865762
 20
-78.838584227728
 42
0.4142135623731
 10
454.3071255865761
 20
-79.03858422772801
 42
0.4142135623731
  0
LINE
  5
1B6
330
1F
100
AcDbEntity
  8
その他
  6
Continuous
 62
     7
370
     9
100
AcDbLine
 10
453.1071255865763
 20
-78.838584227728
 30
0.0
 11
579.6877078208267
 21
-78.838584227728
 31
0.0
  0
LINE
  5
1B7
330
1F
100
AcDbEntity
  8
その他
  6
Continuous
 62
     7
370
     9
100
AcDbLine
 10
454.3071255865761
 20
-78.838584227728
 30
0.0
 11
454.3071255865761
 21
-82.33835729006341
 31
0.0
  0
LWPOLYLINE
  5
1B8
330
1F
100
AcDbEntity
  8
その他
  6
Continuous
 62
     7
370
     9
100
AcDbPolyline
 90
        4
 70
     1
 43
0.4
 10
454.5071255865761
 20
-82.33835729006341
 42
0.4142135623731
 10
454.3071255865761
 20
-82.13835729006341
 42
0.4142135623731
 10
454.1071255865762
 20
-82.33835729006341
 42
0.4142135623731
 10
454.3071255865761
 20
-82.53835729006342
 42
0.4142135623731
  0
LWPOLYLINE
  5
1B9
330
1F
100
AcDbEntity
  8
その他
  6
Continuous
 62
     7
370
     9
100
AcDbPolyline
 90
        4
 70
     1
 43
0.4
 10
421.2085625211163
 20
-72.83866340847135
 42
0.4142135623731
 10
421.0085625211163
 20
-72.63866340847134
 42
0.4142135623731
 10
420.8085625211164
 20
-72.83866340847135
 42
0.4142135623731
 10
421.0085625211163
 20
-73.03866340847135
 42
0.4142135623731
  0
LINE
  5
1BA
330
1F
100
AcDbEntity
  8
その他
  6
Continuous
 62
     7
370
     9
100
AcDbLine
 10
419.8085625211165
 20
-72.83866340847135
 30
0.0
 11
579.6877078208267
 21
-72.83866340847135
 31
0.0
  0
TEXT
  5
1BB
330
1F
100
AcDbEntity
  8
その他
  6
Continuous
 62
     2
370
   211
100
AcDbText
 10
449.6511255865761
 20
-69.62186641246672
 30
0.0
 40
12.192
  1
6
 50
90.0
  7
ＭＳ ゴシック
100
AcDbText
  0
TEXT
  5
1BC
330
1F
100
AcDbEntity
  8
その他
  6
Continuous
 62
     2
370
   211
100
AcDbText
 10
449.6511255865761
 20
-105.2182545621918
 30
0.0
 40
12.192
  1
3.5
 50
90.0
 41
1.083333333333333
  7
ＭＳ ゴシック
100
AcDbText
  0
LINE
  5
1BD
330
1F
100
AcDbEntity
  8
その他
  6
Continuous
 62
     7
370
     9
100
AcDbLine
 10
453.1071255865763
 20
-82.33835729006341
 30
0.0
 11
579.6877078208267
 21
-82.33835729006341
 31
0.0
  0
LINE
  5
1BE
330
1F
100
AcDbEntity
  8
その他
  6
Continuous
 62
     7
370
     9
100
AcDbLine
 10
587.6877078208267
 20
46.48093429031667
 30
0.0
 11
696.8876029063417
 21
46.48093429031667
 31
0.0
  0
TEXT
  5
1BF
330
1F
100
AcDbEntity
  8
その他
  6
Continuous
 62
     2
370
   211
100
AcDbText
 10
620.2876553635842
 20
51.13693429031676
 30
0.0
 40
12.192
  1
109.2
 41
1.1
  7
ＭＳ ゴシック
100
AcDbText
  0
LINE
  5
1C0
330
1F
100
AcDbEntity
  8
その他
  6
Continuous
 62
     7
370
     9
100
AcDbLine
 10
587.6877078208267
 20
14.69509075652206
 30
0.0
 11
690.8876820870842
 21
14.69509075652206
 31
0.0
  0
TEXT
  5
1C1
330
1F
100
AcDbEntity
  8
その他
  6
Continuous
 62
     2
370
   211
100
AcDbText
 10
617.2876949539555
 20
19.35109075652193
 30
0.0
 40
12.192
  1
103.2
 41
1.1
  7
ＭＳ ゴシック
100
AcDbText
  0
LINE
  5
1C2
330
1F
100
AcDbEntity
  8
その他
  6
Continuous
 62
     7
370
     9
100
AcDbLine
 10
482.7115960495894
 20
-315.8388828640244
 30
0.0
 11
482.7115960495894
 21
-99.8384171469329
 31
0.0
  0
TEXT
  5
1C3
330
1F
100
AcDbEntity
  8
その他
  6
Continuous
 62
     2
370
   211
100
AcDbText
 10
478.0555960495893
 20
-220.8386500054787
 30
0.0
 40
12.192
  1
216
 50
90.0
 41
1.083333333333333
  7
ＭＳ ゴシック
100
AcDbText
  0
LINE
  5
1C4
330
1F
100
AcDbEntity
  8
その他
  6
Continuous
 62
     7
370
     9
100
AcDbLine
 10
454.3071255865761
 20
-82.33835729006341
 30
0.0
 11
454.3071255865761
 21
-333.3389427208975
 31
0.0
  0
TEXT
  5
1C5
330
1F
100
AcDbEntity
  8
その他
  6
Continuous
 62
     2
370
   211
100
AcDbText
 10
449.6511255865761
 20
-220.8386500054805
 30
0.0
 40
12.192
  1
251
 50
90.0
 41
1.083333333333333
  7
ＭＳ ゴシック
100
AcDbText
  0
LINE
  5
1C6
330
1F
100
AcDbEntity
  8
その他
  6
Continuous
 62
     7
370
     9
100
AcDbLine
 10
421.0085625211163
 20
-72.83866340847135
 30
0.0
 11
421.0085625211163
 21
-342.8386366024891
 31
0.0
  0
TEXT
  5
1C7
330
1F
100
AcDbEntity
  8
その他
  6
Continuous
 62
     2
370
   211
100
AcDbText
 10
416.3525625211163
 20
-220.8386500054802
 30
0.0
 40
12.192
  1
270
 50
90.0
 41
1.083333333333333
  7
ＭＳ ゴシック
100
AcDbText
  0
LINE
  5
1C8
330
1F
100
AcDbEntity
  8
その他
  6
Continuous
 62
     7
370
     9
100
AcDbLine
 10
778.7405456599031
 20
-132.838624230498
 30
0.0
 11
778.7405456599031
 21
-282.8386860904536
 31
0.0
  0
TEXT
  5
1C9
330
1F
100
AcDbEntity
  8
その他
  6
Continuous
 62
     2
370
   211
100
AcDbText
 10
774.0845456599035
 20
-220.8386551604758
 30
0.0
 40
12.192
  1
150
 50
90.0
 41
1.083333333333333
  7
ＭＳ ゴシック
100
AcDbText
  0
LINE
  5
1CA
330
1F
100
AcDbEntity
  8
その他
  6
Continuous
 62
     7
370
     9
100
AcDbLine
 10
816.9917431053532
 20
-50.83867536806133
 30
0.0
 11
816.9917431053532
 21
-364.8386349528903
 31
0.0
  0
TEXT
  5
1CB
330
1F
100
AcDbEntity
  8
その他
  6
Continuous
 62
     2
370
   211
100
AcDbText
 10
812.3357431053527
 20
-220.8386551604758
 30
0.0
 40
12.192
  1
314
 50
90.0
 41
1.083333333333333
  7
ＭＳ ゴシック
100
AcDbText
  0
LINE
  5
1CC
330
1F
100
AcDbEntity
  8
その他
  6
Continuous
 62
     7
370
     9
100
AcDbLine
 10
587.6873910978516
 20
-276.8240402433312
 30
0.0
 11
662.6875906993118
 21
-276.8240402433312
 31
0.0
  0
LWPOLYLINE
  5
1CD
330
1F
100
AcDbEntity
  8
その他
  6
Continuous
 62
     7
370
     9
100
AcDbPolyline
 90
        4
 70
     1
 43
0.4
 10
587.8873910978516
 20
-276.8240402433312
 42
0.4142135623731
 10
587.6873910978516
 20
-276.6240402433312
 42
0.4142135623731
 10
587.4873910978515
 20
-276.8240402433312
 42
0.4142135623731
 10
587.6873910978516
 20
-277.0240402433312
 42
0.4142135623731
  0
LWPOLYLINE
  5
1CE
330
1F
100
AcDbEntity
  8
その他
  6
Continuous
 62
     7
370
     9
100
AcDbPolyline
 90
        4
 70
     1
 43
0.4
 10
662.8875906993119
 20
-276.8240402433312
 42
0.4142135623731
 10
662.6875906993118
 20
-276.6240402433312
 42
0.4142135623731
 10
662.4875906993118
 20
-276.8240402433312
 42
0.4142135623731
 10
662.6875906993118
 20
-277.0240402433312
 42
0.4142135623731
  0
TEXT
  5
1CF
330
1F
100
AcDbEntity
  8
その他
  6
Continuous
 62
     2
370
   211
100
AcDbText
 10
616.6874908985815
 20
-272.1680402433313
 30
0.0
 40
12.192
  1
75
 41
1.0625
  7
ＭＳ ゴシック
100
AcDbText
  0
LINE
  5
1D0
330
1F
100
AcDbEntity
  8
その他
  6
Continuous
 62
     7
370
     9
100
AcDbLine
 10
662.6875906993118
 20
-276.8240402433312
 30
0.0
 11
665.8876062055406
 21
-276.8240402433312
 31
0.0
  0
LWPOLYLINE
  5
1D1
330
1F
100
AcDbEntity
  8
その他
  6
Continuous
 62
     7
370
     9
100
AcDbPolyline
 90
        4
 70
     1
 43
0.4
 10
666.0876062055406
 20
-276.8240402433312
 42
0.4142135623731
 10
665.8876062055406
 20
-276.6240402433312
 42
0.4142135623731
 10
665.6876062055405
 20
-276.8240402433312
 42
0.4142135623731
 10
665.8876062055406
 20
-277.0240402433312
 42
0.4142135623731
  0
LINE
  5
1D2
330
1F
100
AcDbEntity
  8
その他
  6
Continuous
 62
     7
370
     9
100
AcDbLine
 10
587.6873910978516
 20
-255.448681218516
 30
0.0
 11
652.6875906993118
 21
-255.448681218516
 31
0.0
  0
LWPOLYLINE
  5
1D3
330
1F
100
AcDbEntity
  8
その他
  6
Continuous
 62
     7
370
     9
100
AcDbPolyline
 90
        4
 70
     1
 43
0.4
 10
587.8873910978516
 20
-255.448681218516
 42
0.4142135623731
 10
587.6873910978516
 20
-255.248681218516
 42
0.4142135623731
 10
587.4873910978515
 20
-255.448681218516
 42
0.4142135623731
 10
587.6873910978516
 20
-255.6486812185159
 42
0.4142135623731
  0
LWPOLYLINE
  5
1D4
330
1F
100
AcDbEntity
  8
その他
  6
Continuous
 62
     7
370
     9
100
AcDbPolyline
 90
        4
 70
     1
 43
0.4
 10
652.8875906993119
 20
-255.448681218516
 42
0.4142135623731
 10
652.6875906993118
 20
-255.248681218516
 42
0.4142135623731
 10
652.4875906993118
 20
-255.448681218516
 42
0.4142135623731
 10
652.6875906993118
 20
-255.6486812185159
 42
0.4142135623731
  0
TEXT
  5
1D5
330
1F
100
AcDbEntity
  8
その他
  6
Continuous
 62
     2
370
   211
100
AcDbText
 10
611.6874908985815
 20
-250.7926812185159
 30
0.0
 40
12.192
  1
65
 41
1.0625
  7
ＭＳ ゴシック
100
AcDbText
  0
LINE
  5
1D6
330
1F
100
AcDbEntity
  8
その他
  6
Continuous
 62
     7
370
     9
100
AcDbLine
 10
652.6875906993118
 20
-256.648681218516
 30
0.0
 11
652.6875906993118
 21
-238.9271124285929
 31
0.0
  0
LWPOLYLINE
  5
1D7
330
1F
100
AcDbEntity
  8
その他
  6
Continuous
 62
     7
370
     9
100
AcDbPolyline
 90
        4
 70
     1
 43
0.4
 10
691.0876820870842
 20
-276.8240402433312
 42
0.4142135623731
 10
690.8876820870842
 20
-276.6240402433312
 42
0.4142135623731
 10
690.6876820870841
 20
-276.8240402433312
 42
0.4142135623731
 10
690.8876820870842
 20
-277.0240402433312
 42
0.4142135623731
  0
LINE
  5
1D8
330
1F
100
AcDbEntity
  8
その他
  6
Continuous
 62
     7
370
     9
100
AcDbLine
 10
664.2875984524262
 20
-276.8240402433312
 30
0.0
 11
695.0015596372245
 21
-249.4766442748266
 31
0.0
  0
LINE
  5
1D9
330
1F
100
AcDbEntity
  8
その他
  6
Continuous
 62
     7
370
     9
100
AcDbLine
 10
695.0015596372245
 20
-249.4766442748266
 30
0.0
 11
724.5531020258081
 21
-249.4766442748266
 31
0.0
  0
TEXT
  5
1DA
330
1F
100
AcDbEntity
  8
その他
  6
Continuous
 62
     2
370
   211
100
AcDbText
 10
696.7773308315163
 20
-244.174074279842
 30
0.0
 40
12.192
  1
3.2
 41
1.083333333333333
  7
ＭＳ ゴシック
100
AcDbText
  0
LINE
  5
1DB
330
1F
100
AcDbEntity
  8
その他
  6
Continuous
 62
     7
370
     9
100
AcDbLine
 10
690.8876820870842
 20
-276.8240402433312
 30
0.0
 11
713.2047830269594
 21
-276.8240402433312
 31
0.0
  0
LINE
  5
1DC
330
1F
100
AcDbEntity
  8
寸法
  6
Continuous
 62
     7
370
     9
100
AcDbLine
 10
702.8876474455096
 20
-32.83866547046847
 30
0.0
 11
708.9752617355966
 21
-24.90513206755605
 31
0.0
  0
LINE
  5
1DD
330
1F
100
AcDbEntity
  8
寸法
  6
Continuous
 62
     7
370
     9
100
AcDbLine
 10
702.8876474455096
 20
-32.83866547046847
 30
0.0
 11
706.7144817691601
 21
-23.59987014535528
 31
0.0
  0
LINE
  5
1DE
330
1F
100
AcDbEntity
  8
寸法
  6
Continuous
 62
     7
370
     9
100
AcDbLine
 10
736.1163302413293
 20
24.71510140048161
 30
0.0
 11
702.8876474455096
 21
-32.83866547046847
 31
0.0
  0
TEXT
  5
1DF
330
1F
100
AcDbEntity
  8
寸法
  6
Continuous
 62
     7
370
     0
100
AcDbText
 10
735.6470093466983
 20
9.795315827260929
 30
0.0
 40
9.144
  1
ＳＳ４００（溶融亜鉛めっき）
 41
1.154761904761905
  7
ＭＳ ゴシック
100
AcDbText
  0
LINE
  5
1E0
330
1F
100
AcDbEntity
  8
寸法
  6
Continuous
 62
     7
370
     9
100
AcDbLine
 10
736.1163302413293
 20
24.71510140048161
 30
0.0
 11
921.6679779470173
 21
24.71510140048161
 31
0.0
  0
TEXT
  5
1E1
330
1F
100
AcDbEntity
  8
寸法
  6
Continuous
 62
     7
370
     0
100
AcDbText
 10
737.7037685947894
 20
31.3762827598677
 30
0.0
 40
9.144
  1
アンカー：ｔ＝６.０
 41
1.149122807017544
  7
ＭＳ ゴシック
100
AcDbText
  0
LINE
  5
1E2
330
1F
100
AcDbEntity
  8
寸法
  6
Continuous
 62
     7
370
     9
100
AcDbLine
 10
630.7670298915887
 20
-72.83867371846247
 30
0.0
 11
626.9401955679377
 21
-63.59987839334951
 31
0.0
  0
LINE
  5
1E3
330
1F
100
AcDbEntity
  8
寸法
  6
Continuous
 62
     7
370
     9
100
AcDbLine
 10
630.7670298915887
 20
-72.83867371846247
 30
0.0
 11
624.6794156015012
 21
-64.90514031555006
 31
0.0
  0
LINE
  5
1E4
330
1F
100
AcDbEntity
  8
寸法
  6
Continuous
 62
     7
370
     9
100
AcDbLine
 10
526.5214910588975
 20
107.7198960021525
 30
0.0
 11
630.7670298915887
 21
-72.83867371846247
 31
0.0
  0
LINE
  5
1E5
330
1F
100
AcDbEntity
  8
寸法
  6
Continuous
 62
     7
370
     9
100
AcDbLine
 10
587.6863956281463
 20
-207.8388717881468
 30
0.0
 11
583.8595613044959
 21
-198.6000764630336
 31
0.0
  0
LINE
  5
1E6
330
1F
100
AcDbEntity
  8
寸法
  6
Continuous
 62
     7
370
     9
100
AcDbLine
 10
587.6863956281463
 20
-207.8388717881468
 30
0.0
 11
581.5987813380593
 21
-199.9053383852344
 31
0.0
  0
LINE
  5
1E7
330
1F
100
AcDbEntity
  8
寸法
  6
Continuous
 62
     7
370
     9
100
AcDbLine
 10
471.7804759697515
 20
-7.083930041808912
 30
0.0
 11
587.6863956281463
 21
-207.8388717881468
 31
0.0
  0
TEXT
  5
1E8
330
1F
100
AcDbEntity
  8
寸法
  6
Continuous
 62
     7
370
     0
100
AcDbText
 10
363.4008275540391
 20
-1.437926336877929
 30
0.0
 40
9.144
  1
蓋：ＳＳ４００
 41
1.142857142857143
  7
ＭＳ ゴシック
100
AcDbText
  0
TEXT
  5
1E9
330
1F
100
AcDbEntity
  8
寸法
  6
Continuous
 62
     7
370
     0
100
AcDbText
 10
350.234216805824
 20
-22.85126413175829
 30
0.0
 40
9.144
  1
（溶融亜鉛めっき）
 41
1.148148148148148
  7
ＭＳ ゴシック
100
AcDbText
  0
LINE
  5
1EA
330
1F
100
AcDbEntity
  8
寸法
  6
Continuous
 62
     7
370
     9
100
AcDbLine
 10
356.5915509186225
 20
-7.083930041808912
 30
0.0
 11
471.7804759697515
 21
-7.083930041808912
 31
0.0
  0
LINE
  5
1EB
330
1F
100
AcDbEntity
  8
寸法
  6
Continuous
 62
     7
370
     9
100
AcDbLine
 10
321.2758442316881
 20
107.7198960021525
 30
0.0
 11
526.5214910588975
 21
107.7198960021525
 31
0.0
  0
TEXT
  5
1EC
330
1F
100
AcDbEntity
  8
寸法
  6
Continuous
 62
     7
370
     0
100
AcDbText
 10
322.1319944542593
 20
91.82438808407812
 30
0.0
 40
9.144
  1
ＳＰＨＣ（溶融亜鉛めっき）
 41
1.153846153846154
  7
ＭＳ ゴシック
100
AcDbText
  0
LINE
  5
1ED
330
1F
100
AcDbEntity
  8
寸法
  6
Continuous
 62
     7
370
     9
100
AcDbLine
 10
652.6865952296062
 20
-184.7501978923569
 30
0.0
 11
648.8597609059557
 21
-175.5114025672437
 31
0.0
  0
LINE
  5
1EE
330
1F
100
AcDbEntity
  8
寸法
  6
Continuous
 62
     7
370
     9
100
AcDbLine
 10
652.6865952296062
 20
-184.7501978923569
 30
0.0
 11
646.5989809395192
 21
-176.8166644894445
 31
0.0
  0
TEXT
  5
1EF
330
1F
100
AcDbEntity
  8
寸法
  6
Continuous
 62
     7
370
     0
100
AcDbText
 10
396.966090290503
 20
31.98898491804027
 30
0.0
 40
9.144
  1
ＳＵＳ４３０
 41
1.138888888888889
  7
ＭＳ ゴシック
100
AcDbText
  0
TEXT
  5
1F0
330
1F
100
AcDbEntity
  8
寸法
  6
Continuous
 62
     7
370
     0
100
AcDbText
 10
357.7596165820755
 20
56.00909100455907
 30
0.0
 40
9.144
  1
モルタル止め：ｔ＝１.０
 41
1.152173913043478
  7
ＭＳ ゴシック
100
AcDbText
  0
LINE
  5
1F1
330
1F
100
AcDbEntity
  8
寸法
  6
Continuous
 62
     7
370
     9
100
AcDbLine
 10
517.7099235599189
 20
49.03625527608517
 30
0.0
 11
652.6865952296062
 21
-184.7501978923569
 31
0.0
  0
LINE
  5
1F2
330
1F
100
AcDbEntity
  8
寸法
  6
Continuous
 62
     7
370
     9
100
AcDbLine
 10
351.0619608608745
 20
49.03625527608517
 30
0.0
 11
517.7099235599189
 21
49.03625527608517
 31
0.0
  0
TEXT
  5
1F3
330
1F
100
AcDbEntity
  8
F-5ﾚｲﾔ
  6
Continuous
 62
     2
370
     9
100
AcDbText
 10
-20.36089756307631
 20
671.171871598609
 30
0.0
 40
12.192
  1
150mm
 41
1.1
  7
ＭＳ ゴシック
100
AcDbText
  0
TEXT
  5
1F4
330
1F
100
AcDbEntity
  8
F-Fﾚｲﾔ
  6
Continuous
 62
     2
370
     9
100
AcDbText
 10
-20.36089756307631
 20
543.171871598609
 30
0.0
 40
12.192
  1
寸法 幅251×長さ598×高さ103.2
 41
1.120833333333333
  7
ＭＳ ゴシック
100
AcDbText
  0
TEXT
  5
1F5
330
1F
100
AcDbEntity
  8
寸法
  6
Continuous
 62
     7
370
     0
100
AcDbText
 10
323.5720942219959
 20
116.3052180962192
 30
0.0
 40
9.144
  1
受枠：Ｌ－１０４Ｚ，ｔ＝６.０
 41
1.155172413793103
  7
ＭＳ ゴシック
100
AcDbText
  0
TEXT
  5
1F6
330
1F
100
AcDbEntity
  8
F-Fﾚｲﾔ
  6
Continuous
 62
     2
370
     9
100
AcDbText
 10
-20.36089756307631
 20
351.1718715986091
 30
0.0
 40
12.192
  1
受枠：L-104Z
 41
1.114583333333333
  7
ＭＳ ゴシック
100
AcDbText
  0
TEXT
  5
1F7
330
1F
100
AcDbEntity
  8
F-4ﾚｲﾔ
  6
Continuous
 62
     2
370
     9
100
AcDbText
 10
121.3889131298138
 20
-777.8398842462342
 30
0.0
 40
12.192
  1
側溝用　ＨＩＳＭ－２－２５６０＋Ｌ－１０４Ｚ
 41
1.119318181818182
  7
ＭＳ ゴシック
100
AcDbText
  0
TEXT
  5
1F8
330
1F
100
AcDbEntity
  8
F-Fﾚｲﾔ
  6
Continuous
 62
     2
370
     9
100
AcDbText
 10
-20.36089756307626
 20
383.1718715986091
 30
0.0
 40
12.192
  1
蓋　：HISM-2-2560
 41
1.117647058823529
  7
ＭＳ ゴシック
100
AcDbText
  0
TEXT
  5
1F9
330
1F
100
AcDbEntity
  8
F-Fﾚｲﾔ
  6
Continuous
 62
     2
370
     9
100
AcDbText
 10
-20.36089756307631
 20
511.171871598609
 30
0.0
 40
12.192
  1
蓋質量　10.4kg
 41
1.116071428571429
  7
ＭＳ ゴシック
100
AcDbText
  0
TEXT
  5
1FA
330
1F
100
AcDbEntity
  8
F-Fﾚｲﾔ
  6
Continuous
 62
     2
370
     9
100
AcDbText
 10
-20.36089756307631
 20
447.1718715986091
 30
0.0
 40
12.192
  1
寸法 幅270×長さ2000×高さ109.2
 41
1.120967741935484
  7
ＭＳ ゴシック
100
AcDbText
  0
LINE
  5
1FB
330
1F
100
AcDbEntity
  8
その他
  6
Continuous
 62
     7
370
     9
100
AcDbLine
 10
665.8876062055406
 20
-276.8240402433312
 30
0.0
 11
690.8876820870842
 21
-276.8240402433312
 31
0.0
  0
TEXT
  5
1FC
330
1F
100
AcDbEntity
  8
その他
  6
Continuous
 62
     2
370
   211
100
AcDbText
 10
695.1340160900886
 20
-272.1680402433313
 30
0.0
 40
12.192
  1
25
 41
1.0625
  7
ＭＳ ゴシック
100
AcDbText
  0
ENDSEC
  0
SECTION
  2
OBJECTS
  0
DICTIONARY
  5
C
330
0
100
AcDbDictionary
281
     1
  3
ACAD_GROUP
350
D
  3
ACAD_LAYOUT
350
1A
  3
ACAD_MLEADERSTYLE
350
1FE
  3
ACAD_MLINESTYLE
350
17
  3
ACAD_PLOTSETTINGS
350
19
  3
ACAD_PLOTSTYLENAME
350
E
  3
ACAD_TABLESTYLE
350
1FD
  3
ACAD_VISUALSTYLE
350
2A
  0
DICTIONARY
  5
D
102
{ACAD_REACTORS
330
C
102
}
330
C
100
AcDbDictionary
281
     1
  0
DICTIONARY
  5
1A
102
{ACAD_REACTORS
330
C
102
}
330
C
100
AcDbDictionary
281
     1
  3
Layout1
350
1E
  3
Layout2
350
26
  3
Model
350
22
  0
DICTIONARY
  5
1FE
102
{ACAD_REACTORS
330
C
102
}
330
C
100
AcDbDictionary
281
     1
  0
DICTIONARY
  5
17
102
{ACAD_REACTORS
330
C
102
}
330
C
100
AcDbDictionary
281
     1
  3
Standard
350
18
  0
DICTIONARY
  5
19
102
{ACAD_REACTORS
330
C
102
}
330
C
100
AcDbDictionary
281
     1
  0
ACDBDICTIONARYWDFLT
  5
E
102
{ACAD_REACTORS
330
C
102
}
330
C
100
AcDbDictionary
281
     1
  3
Normal
350
F
100
AcDbDictionaryWithDefault
340
F
  0
DICTIONARY
  5
1FD
102
{ACAD_REACTORS
330
C
102
}
330
C
100
AcDbDictionary
281
     1
  0
DICTIONARY
  5
2A
102
{ACAD_REACTORS
330
C
102
}
330
C
100
AcDbDictionary
281
     1
  3
2dWireframe
350
2F
  3
3D Hidden
350
31
  3
3dWireframe
350
30
  3
Basic
350
32
  3
Brighten
350
36
  3
ColorChange
350
3A
  3
Conceptual
350
34
  3
Dim
350
35
  3
Facepattern
350
39
  3
Flat
350
2B
  3
FlatWithEdges
350
2C
  3
Gouraud
350
2D
  3
GouraudWithEdges
350
2E
  3
Linepattern
350
38
  3
Realistic
350
33
  3
Thicken
350
37
  0
LAYOUT
  5
1E
102
{ACAD_REACTORS
330
1A
102
}
330
1A
100
AcDbPlotSettings
  1

  2
none_device
  4

  6

 40
0.0
 41
0.0
 42
0.0
 43
0.0
 44
0.0
 45
0.0
 46
0.0
 47
0.0
 48
0.0
 49
0.0
140
0.0
141
0.0
142
1.0
143
1.0
 70
   688
 72
     0
 73
     0
 74
     5
  7

 75
    16
 76
     0
 77
     5
 78
   300
147
1.0
148
0.0
149
0.0
100
AcDbLayout
  1
Layout1
 70
     1
 71
     1
 10
0.0
 20
0.0
 11
420.0
 21
297.0
 12
0.0
 22
0.0
 32
0.0
 14
1.000000000000000E+20
 24
1.000000000000000E+20
 34
1.000000000000000E+20
 15
-1.000000000000000E+20
 25
-1.000000000000000E+20
 35
-1.000000000000000E+20
146
0.0
 13
0.0
 23
0.0
 33
0.0
 16
1.0
 26
0.0
 36
0.0
 17
0.0
 27
1.0
 37
0.0
 76
     0
330
1B
  0
LAYOUT
  5
26
102
{ACAD_REACTORS
330
1A
102
}
330
1A
100
AcDbPlotSettings
  1

  2
none_device
  4

  6

 40
0.0
 41
0.0
 42
0.0
 43
0.0
 44
0.0
 45
0.0
 46
0.0
 47
0.0
 48
0.0
 49
0.0
140
0.0
141
0.0
142
1.0
143
1.0
 70
   688
 72
     0
 73
     0
 74
     5
  7

 75
    16
 76
     0
 77
     5
 78
   300
147
1.0
148
0.0
149
0.0
100
AcDbLayout
  1
Layout2
 70
     1
 71
     2
 10
0.0
 20
0.0
 11
0.0
 21
0.0
 12
0.0
 22
0.0
 32
0.0
 14
0.0
 24
0.0
 34
0.0
 15
0.0
 25
0.0
 35
0.0
146
0.0
 13
0.0
 23
0.0
 33
0.0
 16
1.0
 26
0.0
 36
0.0
 17
0.0
 27
1.0
 37
0.0
 76
     0
330
23
  0
LAYOUT
  5
22
102
{ACAD_REACTORS
330
1A
102
}
330
1A
100
AcDbPlotSettings
  1

  2
none_device
  4

  6

 40
0.0
 41
0.0
 42
0.0
 43
0.0
 44
0.0
 45
0.0
 46
0.0
 47
0.0
 48
0.0
 49
0.0
140
0.0
141
0.0
142
1.0
143
1.0
 70
  1712
 72
     0
 73
     0
 74
     0
  7

 75
     0
 76
     0
 77
     5
 78
   300
147
1.0
148
0.0
149
0.0
100
AcDbLayout
  1
Model
 70
     1
 71
     0
 10
-1188.0
 20
-840.0
 11
1188.0
 21
840.0
 12
0.0
 22
0.0
 32
0.0
 14
-1188.0
 24
-840.0
 34
0.0
 15
1188.0
 25
840.0
 35
0.0
146
0.0
 13
0.0
 23
0.0
 33
0.0
 16
1.0
 26
0.0
 36
0.0
 17
0.0
 27
1.0
 37
0.0
 76
     0
330
1F
331
29
  0
MLINESTYLE
  5
18
102
{ACAD_REACTORS
330
17
102
}
330
17
100
AcDbMlineStyle
  2
Standard
 70
     0
  3

 62
   256
 51
90.0
 52
90.0
 71
     2
 49
0.5
 62
   256
  6
BYLAYER
 49
-0.5
 62
   256
  6
BYLAYER
  0
ACDBPLACEHOLDER
  5
F
102
{ACAD_REACTORS
330
E
102
}
330
E
  0
VISUALSTYLE
  5
2F
102
{ACAD_REACTORS
330
2A
102
}
330
2A
100
AcDbVisualStyle
  2
2dWireframe
 70
     4
 71
     0
 72
     2
 73
     0
 90
        0
 40
-0.6
 41
-30.0
 62
     5
 63
     7
421
 16777215
 74
     1
 91
        4
 64
     7
 65
   257
 75
     1
175
     1
 42
1.0
 92
        0
 66
   257
 43
1.0
 76
     1
 77
     6
 78
     2
 67
     7
 79
     5
170
     0
171
     0
290
     0
174
     0
 93
        1
 44
0.0
173
     0
291
     0
 45
0.0
  0
VISUALSTYLE
  5
31
102
{ACAD_REACTORS
330
2A
102
}
330
2A
100
AcDbVisualStyle
  2
3D Hidden
 70
     6
 71
     1
 72
     2
 73
     2
 90
        0
 40
-0.6
 41
-30.0
 62
     5
 63
     7
421
 16777215
 74
     2
 91
        2
 64
     7
 65
   257
 75
     2
175
     1
 42
40.0
 92
        0
 66
   257
 43
1.0
 76
     1
 77
     6
 78
     2
 67
     7
 79
     3
170
     0
171
     0
290
     0
174
     0
 93
        1
 44
0.0
173
     0
291
     0
 45
0.0
  0
VISUALSTYLE
  5
30
102
{ACAD_REACTORS
330
2A
102
}
330
2A
100
AcDbVisualStyle
  2
3dWireframe
 70
     5
 71
     0
 72
     2
 73
     0
 90
        0
 40
-0.6
 41
-30.0
 62
     5
 63
     7
421
 16777215
 74
     1
 91
        4
 64
     7
 65
   257
 75
     1
175
     1
 42
1.0
 92
        0
 66
   257
 43
1.0
 76
     1
 77
     6
 78
     2
 67
     7
 79
     5
170
     0
171
     0
290
     0
174
     0
 93
        1
 44
0.0
173
     0
291
     0
 45
0.0
  0
VISUALSTYLE
  5
32
102
{ACAD_REACTORS
330
2A
102
}
330
2A
100
AcDbVisualStyle
  2
Basic
 70
     7
 71
     1
 72
     0
 73
     1
 90
        0
 40
-0.6
 41
-30.0
 62
     5
 63
     7
421
 16777215
 74
     0
 91
        4
 64
     7
 65
   257
 75
     1
175
     1
 42
1.0
 92
        8
 66
     7
 43
1.0
 76
     1
 77
     6
 78
     2
 67
     7
 79
     5
170
     0
171
     0
290
     0
174
     0
 93
        1
 44
0.0
173
     0
291
     1
 45
0.0
  0
VISUALSTYLE
  5
36
102
{ACAD_REACTORS
330
2A
102
}
330
2A
100
AcDbVisualStyle
  2
Brighten
 70
    12
 71
     2
 72
     2
 73
     0
 90
        0
 40
-0.6
 41
-30.0
 62
     5
 63
     7
421
 16777215
 74
     1
 91
        4
 64
     7
 65
   257
 75
     1
175
     1
 42
1.0
 92
        8
 66
     7
 43
1.0
 76
     1
 77
     6
 78
     2
 67
     7
 79
     5
170
     0
171
     0
290
     0
174
     0
 93
        1
 44
50.0
173
     0
291
     1
 45
0.0
  0
VISUALSTYLE
  5
3A
102
{ACAD_REACTORS
330
2A
102
}
330
2A
100
AcDbVisualStyle
  2
ColorChange
 70
    16
 71
     2
 72
     2
 73
     3
 90
        0
 40
-0.6
 41
-30.0
 62
     5
 63
     8
421
  8421504
 74
     1
 91
        4
 64
     7
 65
   257
 75
     1
175
     1
 42
1.0
 92
        8
 66
     8
424
  8421504
 43
1.0
 76
     1
 77
     6
 78
     2
 67
     7
 79
     5
170
     0
171
     0
290
     0
174
     0
 93
        1
 44
0.0
173
     0
291
     1
 45
0.0
  0
VISUALSTYLE
  5
34
102
{ACAD_REACTORS
330
2A
102
}
330
2A
100
AcDbVisualStyle
  2
Conceptual
 70
     9
 71
     3
 72
     2
 73
     0
 90
        0
 40
-0.6
 41
-30.0
 62
     5
 63
     7
421
 16777215
 74
     2
 91
        2
 64
     7
 65
   257
 75
     1
175
     1
 42
40.0
 92
        8
 66
     7
 43
1.0
 76
     1
 77
     6
 78
     2
 67
     7
 79
     3
170
     0
171
     0
290
     0
174
     0
 93
        1
 44
0.0
173
     0
291
     0
 45
0.0
  0
VISUALSTYLE
  5
35
102
{ACAD_REACTORS
330
2A
102
}
330
2A
100
AcDbVisualStyle
  2
Dim
 70
    11
 71
     2
 72
     2
 73
     0
 90
        0
 40
-0.6
 41
-30.0
 62
     5
 63
     7
421
 16777215
 74
     1
 91
        4
 64
     7
 65
   257
 75
     1
175
     1
 42
1.0
 92
        8
 66
     7
 43
1.0
 76
     1
 77
     6
 78
     2
 67
     7
 79
     5
170
     0
171
     0
290
     0
174
     0
 93
        1
 44
-50.0
173
     0
291
     1
 45
0.0
  0
VISUALSTYLE
  5
39
102
{ACAD_REACTORS
330
2A
102
}
330
2A
100
AcDbVisualStyle
  2
Facepattern
 70
    15
 71
     2
 72
     2
 73
     0
 90
        0
 40
-0.6
 41
-30.0
 62
     5
 63
     7
421
 16777215
 74
     1
 91
        4
 64
     7
 65
   257
 75
     1
175
     1
 42
1.0
 92
        8
 66
     7
 43
1.0
 76
     1
 77
     6
 78
     2
 67
     7
 79
     5
170
     0
171
     0
290
     0
174
     0
 93
        1
 44
0.0
173
     0
291
     1
 45
0.0
  0
VISUALSTYLE
  5
2B
102
{ACAD_REACTORS
330
2A
102
}
330
2A
100
AcDbVisualStyle
  2
Flat
 70
     0
 71
     2
 72
     1
 73
     1
 90
        2
 40
-0.6
 41
30.0
 62
     5
 63
     7
421
 16777215
 74
     0
 91
        4
 64
     7
 65
   257
 75
     1
175
     1
 42
1.0
 92
        8
 66
     7
 43
1.0
 76
     1
 77
     6
 78
     2
 67
     7
 79
     5
170
     0
171
     0
290
     0
174
     0
 93
       13
 44
0.0
173
     0
291
     1
 45
0.0
  0
VISUALSTYLE
  5
2C
102
{ACAD_REACTORS
330
2A
102
}
330
2A
100
AcDbVisualStyle
  2
FlatWithEdges
 70
     1
 71
     2
 72
     1
 73
     1
 90
        2
 40
-0.6
 41
30.0
 62
     5
 63
     7
421
 16777215
 74
     1
 91
        4
 64
     7
 65
   257
 75
     1
175
     1
 42
1.0
 92
        0
 66
   257
 43
1.0
 76
     1
 77
     6
 78
     2
 67
     7
 79
     5
170
     0
171
     0
290
     0
174
     0
 93
       13
 44
0.0
173
     0
291
     1
 45
0.0
  0
VISUALSTYLE
  5
2D
102
{ACAD_REACTORS
330
2A
102
}
330
2A
100
AcDbVisualStyle
  2
Gouraud
 70
     2
 71
     2
 72
     2
 73
     1
 90
        2
 40
-0.6
 41
30.0
 62
     5
 63
     7
421
 16777215
 74
     0
 91
        4
 64
     7
 65
   257
 75
     1
175
     1
 42
1.0
 92
        0
 66
     7
 43
1.0
 76
     1
 77
     6
 78
     2
 67
     7
 79
     5
170
     0
171
     0
290
     0
174
     0
 93
       13
 44
0.0
173
     0
291
     1
 45
0.0
  0
VISUALSTYLE
  5
2E
102
{ACAD_REACTORS
330
2A
102
}
330
2A
100
AcDbVisualStyle
  2
GouraudWithEdges
 70
     3
 71
     2
 72
     2
 73
     1
 90
        2
 40
-0.6
 41
30.0
 62
     5
 63
     7
421
 16777215
 74
     1
 91
        4
 64
     7
 65
   257
 75
     1
175
     1
 42
1.0
 92
        0
 66
   257
 43
1.0
 76
     1
 77
     6
 78
     2
 67
     7
 79
     5
170
     0
171
     0
290
     0
174
     0
 93
       13
 44
0.0
173
     0
291
     1
 45
0.0
  0
VISUALSTYLE
  5
38
102
{ACAD_REACTORS
330
2A
102
}
330
2A
100
AcDbVisualStyle
  2
Linepattern
 70
    14
 71
     2
 72
     2
 73
     0
 90
        0
 40
-0.6
 41
-30.0
 62
     5
 63
     7
421
 16777215
 74
     1
 91
        4
 64
     7
 65
   257
 75
     7
175
     7
 42
1.0
 92
        8
 66
     7
 43
1.0
 76
     1
 77
     6
 78
     2
 67
     7
 79
     5
170
     0
171
     0
290
     0
174
     0
 93
        1
 44
0.0
173
     0
291
     1
 45
0.0
  0
VISUALSTYLE
  5
33
102
{ACAD_REACTORS
330
2A
102
}
330
2A
100
AcDbVisualStyle
  2
Realistic
 70
     8
 71
     2
 72
     2
 73
     0
 90
        0
 40
-0.6
 41
-30.0
 62
     5
 63
     7
421
 16777215
 74
     1
 91
        0
 64
     7
 65
   257
 75
     1
175
     1
 42
1.0
 92
        8
 66
     8
424
  7895160
 43
1.0
 76
     1
 77
     6
 78
     2
 67
     7
 79
     5
170
     0
171
     0
290
     0
174
     0
 93
       13
 44
0.0
173
     0
291
     0
 45
0.0
  0
VISUALSTYLE
  5
37
102
{ACAD_REACTORS
330
2A
102
}
330
2A
100
AcDbVisualStyle
  2
Thicken
 70
    13
 71
     2
 72
     2
 73
     0
 90
        0
 40
-0.6
 41
-30.0
 62
     5
 63
     7
421
 16777215
 74
     1
 91
        4
 64
     7
 65
   257
 75
     1
175
     1
 42
1.0
 92
       12
 66
     7
 43
1.0
 76
     1
 77
     6
 78
     2
 67
     7
 79
     5
170
     0
171
     0
290
     0
174
     0
 93
        1
 44
0.0
173
     0
291
     1
 45
0.0
  0
ENDSEC
  0
EOF
