  0
SECTION
  2
HEADER
  9
$ACADVER
  1
AC1021
  9
$ACADMAINTVER
 70
    25
  9
$DWGCODEPAGE
  3
ANSI_932
  9
$INSBASE
 10
0.0
 20
0.0
 30
0.0
  9
$EXTMIN
 10
-1188.0
 20
-840.0
 30
0.0
  9
$EXTMAX
 10
1188.0
 20
840.0
 30
0.0
  9
$LIMMIN
 10
-1188.0
 20
-840.0
  9
$LIMMAX
 10
1188.0
 20
840.0
  9
$ORTHOMODE
 70
     0
  9
$REGENMODE
 70
     1
  9
$FILLMODE
 70
     1
  9
$QTEXTMODE
 70
     0
  9
$MIRRTEXT
 70
     1
  9
$LTSCALE
 40
4.0
  9
$ATTMODE
 70
     1
  9
$TEXTSIZE
 40
2.5
  9
$TRACEWID
 40
1.0
  9
$TEXTSTYLE
  7
Standard
  9
$CLAYER
  8
0
  9
$CELTYPE
  6
ByLayer
  9
$CECOLOR
 62
   256
  9
$CELTSCALE
 40
1.0
  9
$DISPSILH
 70
     0
  9
$DIMSCALE
 40
1.0
  9
$DIMASZ
 40
2.5
  9
$DIMEXO
 40
0.625
  9
$DIMDLI
 40
3.75
  9
$DIMRND
 40
0.0
  9
$DIMDLE
 40
0.0
  9
$DIMEXE
 40
1.25
  9
$DIMTP
 40
0.0
  9
$DIMTM
 40
0.0
  9
$DIMTXT
 40
2.5
  9
$DIMCEN
 40
2.5
  9
$DIMTSZ
 40
0.0
  9
$DIMTOL
 70
     0
  9
$DIMLIM
 70
     0
  9
$DIMTIH
 70
     0
  9
$DIMTOH
 70
     0
  9
$DIMSE1
 70
     0
  9
$DIMSE2
 70
     0
  9
$DIMTAD
 70
     1
  9
$DIMZIN
 70
     8
  9
$DIMBLK
  1

  9
$DIMASO
 70
     1
  9
$DIMSHO
 70
     1
  9
$DIMPOST
  1

  9
$DIMAPOST
  1

  9
$DIMALT
 70
     0
  9
$DIMALTD
 70
     3
  9
$DIMALTF
 40
0.03937007874016
  9
$DIMLFAC
 40
1.0
  9
$DIMTOFL
 70
     1
  9
$DIMTVP
 40
0.0
  9
$DIMTIX
 70
     0
  9
$DIMSOXD
 70
     0
  9
$DIMSAH
 70
     0
  9
$DIMBLK1
  1

  9
$DIMBLK2
  1

  9
$DIMSTYLE
  2
ISO-25
  9
$DIMCLRD
 70
     0
  9
$DIMCLRE
 70
     0
  9
$DIMCLRT
 70
     0
  9
$DIMTFAC
 40
1.0
  9
$DIMGAP
 40
0.625
  9
$DIMJUST
 70
     0
  9
$DIMSD1
 70
     0
  9
$DIMSD2
 70
     0
  9
$DIMTOLJ
 70
     0
  9
$DIMTZIN
 70
     8
  9
$DIMALTZ
 70
     0
  9
$DIMALTTZ
 70
     0
  9
$DIMUPT
 70
     0
  9
$DIMDEC
 70
     2
  9
$DIMTDEC
 70
     2
  9
$DIMALTU
 70
     2
  9
$DIMALTTD
 70
     3
  9
$DIMTXSTY
  7
Standard
  9
$DIMAUNIT
 70
     0
  9
$DIMADEC
 70
     0
  9
$DIMALTRND
 40
0.0
  9
$DIMAZIN
 70
     0
  9
$DIMDSEP
 70
    44
  9
$DIMATFIT
 70
     3
  9
$DIMFRAC
 70
     0
  9
$DIMLDRBLK
  1

  9
$DIMLUNIT
 70
     2
  9
$DIMLWD
 70
    -2
  9
$DIMLWE
 70
    -2
  9
$DIMTMOVE
 70
     0
  9
$DIMFXL
 40
1.0
  9
$DIMFXLON
 70
     0
  9
$DIMJOGANG
 40
0.7853981633974483
  9
$DIMTFILL
 70
     0
  9
$DIMTFILLCLR
 70
     0
  9
$DIMARCSYM
 70
     0
  9
$DIMLTYPE
  6

  9
$DIMLTEX1
  6

  9
$DIMLTEX2
  6

  9
$LUNITS
 70
     2
  9
$LUPREC
 70
     4
  9
$SKETCHINC
 40
1.0
  9
$FILLETRAD
 40
10.0
  9
$AUNITS
 70
     0
  9
$AUPREC
 70
     0
  9
$MENU
  1
.
  9
$ELEVATION
 40
0.0
  9
$PELEVATION
 40
0.0
  9
$THICKNESS
 40
0.0
  9
$LIMCHECK
 70
     0
  9
$CHAMFERA
 40
10.0
  9
$CHAMFERB
 40
10.0
  9
$CHAMFERC
 40
20.0
  9
$CHAMFERD
 40
0.0
  9
$SKPOLY
 70
     0
  9
$TDCREATE
 40
2457749.702372824
  9
$TDUCREATE
 40
2457749.327372824
  9
$TDUPDATE
 40
2457749.702372835
  9
$TDUUPDATE
 40
2457749.327372835
  9
$TDINDWG
 40
0.0000000116
  9
$TDUSRTIMER
 40
0.0000000116
  9
$USRTIMER
 70
     1
  9
$ANGBASE
 50
0.0
  9
$ANGDIR
 70
     0
  9
$PDMODE
 70
     0
  9
$PDSIZE
 40
0.0
  9
$PLINEWID
 40
0.0
  9
$SPLFRAME
 70
     0
  9
$SPLINETYPE
 70
     6
  9
$SPLINESEGS
 70
     8
  9
$HANDSEED
  5
210
  9
$SURFTAB1
 70
     6
  9
$SURFTAB2
 70
     6
  9
$SURFTYPE
 70
     6
  9
$SURFU
 70
     6
  9
$SURFV
 70
     6
  9
$UCSBASE
  2

  9
$UCSNAME
  2

  9
$UCSORG
 10
0.0
 20
0.0
 30
0.0
  9
$UCSXDIR
 10
1.0
 20
0.0
 30
0.0
  9
$UCSYDIR
 10
0.0
 20
1.0
 30
0.0
  9
$UCSORTHOREF
  2

  9
$UCSORTHOVIEW
 70
     0
  9
$UCSORGTOP
 10
0.0
 20
0.0
 30
0.0
  9
$UCSORGBOTTOM
 10
0.0
 20
0.0
 30
0.0
  9
$UCSORGLEFT
 10
0.0
 20
0.0
 30
0.0
  9
$UCSORGRIGHT
 10
0.0
 20
0.0
 30
0.0
  9
$UCSORGFRONT
 10
0.0
 20
0.0
 30
0.0
  9
$UCSORGBACK
 10
0.0
 20
0.0
 30
0.0
  9
$PUCSBASE
  2

  9
$PUCSNAME
  2

  9
$PUCSORG
 10
0.0
 20
0.0
 30
0.0
  9
$PUCSXDIR
 10
1.0
 20
0.0
 30
0.0
  9
$PUCSYDIR
 10
0.0
 20
1.0
 30
0.0
  9
$PUCSORTHOREF
  2

  9
$PUCSORTHOVIEW
 70
     0
  9
$PUCSORGTOP
 10
0.0
 20
0.0
 30
0.0
  9
$PUCSORGBOTTOM
 10
0.0
 20
0.0
 30
0.0
  9
$PUCSORGLEFT
 10
0.0
 20
0.0
 30
0.0
  9
$PUCSORGRIGHT
 10
0.0
 20
0.0
 30
0.0
  9
$PUCSORGFRONT
 10
0.0
 20
0.0
 30
0.0
  9
$PUCSORGBACK
 10
0.0
 20
0.0
 30
0.0
  9
$USERI1
 70
     0
  9
$USERI2
 70
     0
  9
$USERI3
 70
     0
  9
$USERI4
 70
     0
  9
$USERI5
 70
     0
  9
$USERR1
 40
0.0
  9
$USERR2
 40
0.0
  9
$USERR3
 40
0.0
  9
$USERR4
 40
0.0
  9
$USERR5
 40
0.0
  9
$WORLDVIEW
 70
     1
  9
$SHADEDGE
 70
     3
  9
$SHADEDIF
 70
    70
  9
$TILEMODE
 70
     1
  9
$MAXACTVP
 70
    64
  9
$PINSBASE
 10
0.0
 20
0.0
 30
0.0
  9
$PLIMCHECK
 70
     0
  9
$PEXTMIN
 10
1.000000000000000E+20
 20
1.000000000000000E+20
 30
1.000000000000000E+20
  9
$PEXTMAX
 10
-1.000000000000000E+20
 20
-1.000000000000000E+20
 30
-1.000000000000000E+20
  9
$PLIMMIN
 10
0.0
 20
0.0
  9
$PLIMMAX
 10
420.0
 20
297.0
  9
$UNITMODE
 70
     0
  9
$VISRETAIN
 70
     1
  9
$PLINEGEN
 70
     0
  9
$PSLTSCALE
 70
     1
  9
$TREEDEPTH
 70
  3020
  9
$CMLSTYLE
  2
Standard
  9
$CMLJUST
 70
     0
  9
$CMLSCALE
 40
20.0
  9
$PROXYGRAPHICS
 70
     1
  9
$MEASUREMENT
 70
     1
  9
$CELWEIGHT
370
    -1
  9
$ENDCAPS
280
     0
  9
$JOINSTYLE
280
     0
  9
$LWDISPLAY
290
     0
  9
$INSUNITS
 70
     4
  9
$HYPERLINKBASE
  1

  9
$STYLESHEET
  1

  9
$XEDIT
290
     1
  9
$CEPSNTYPE
380
     0
  9
$PSTYLEMODE
290
     1
  9
$FINGERPRINTGUID
  2
{7BCE937A-7380-499C-AAD4-3AA5DCE69472}
  9
$VERSIONGUID
  2
{FAEB1C32-E019-11D5-929B-00C0DF256EC4}
  9
$EXTNAMES
290
     1
  9
$PSVPSCALE
 40
0.0
  9
$OLESTARTUP
290
     0
  9
$SORTENTS
280
   127
  9
$INDEXCTL
280
     0
  9
$HIDETEXT
280
     1
  9
$XCLIPFRAME
290
     0
  9
$HALOGAP
280
     0
  9
$OBSCOLOR
 70
   257
  9
$OBSLTYPE
280
     0
  9
$INTERSECTIONDISPLAY
280
     0
  9
$INTERSECTIONCOLOR
 70
   257
  9
$DIMASSOC
280
     2
  9
$PROJECTNAME
  1

  9
$CAMERADISPLAY
290
     0
  9
$LENSLENGTH
 40
50.0
  9
$CAMERAHEIGHT
 40
0.0
  9
$STEPSPERSEC
 40
2.0
  9
$STEPSIZE
 40
6.0
  9
$3DDWFPREC
 40
2.0
  9
$PSOLWIDTH
 40
5.0
  9
$PSOLHEIGHT
 40
80.0
  9
$LOFTANG1
 40
1.570796326794897
  9
$LOFTANG2
 40
1.570796326794897
  9
$LOFTMAG1
 40
0.0
  9
$LOFTMAG2
 40
0.0
  9
$LOFTPARAM
 70
     7
  9
$LOFTNORMALS
280
     1
  9
$LATITUDE
 40
37.795
  9
$LONGITUDE
 40
-122.394
  9
$NORTHDIRECTION
 40
0.0
  9
$TIMEZONE
 70
 -8000
  9
$LIGHTGLYPHDISPLAY
280
     1
  9
$TILEMODELIGHTSYNCH
280
     1
  9
$SOLIDHIST
280
     1
  9
$SHOWHIST
280
     1
  9
$DWFFRAME
280
     2
  9
$DGNFRAME
280
     2
  9
$REALWORLDSCALE
290
     1
  9
$INTERFERECOLOR
 62
   256
  9
$CSHADOW
280
     0
  9
$SHADOWPLANELOCATION
 40
0.0
  0
ENDSEC
  0
SECTION
  2
CLASSES
  0
CLASS
  1
ACDBDICTIONARYWDFLT
  2
AcDbDictionaryWithDefault
  3
ObjectDBX Classes
 90
        0
 91
        4
280
     0
281
     0
  0
CLASS
  1
VISUALSTYLE
  2
AcDbVisualStyle
  3
ObjectDBX Classes
 90
     4095
 91
        4
280
     0
281
     0
  0
ENDSEC
  0
SECTION
  2
TABLES
  0
TABLE
  2
VPORT
  5
8
330
0
100
AcDbSymbolTable
 70
     1
  0
VPORT
  5
29
330
8
100
AcDbSymbolTableRecord
100
AcDbViewportTableRecord
  2
*Active
 70
     0
 10
0.0
 20
0.0
 11
1.0
 21
1.0
 12
0.0
 22
0.0
 13
0.0
 23
0.0
 14
10.0
 24
10.0
 15
10.0
 25
10.0
 16
0.0
 26
0.0
 36
1.0
 17
0.0
 27
0.0
 37
0.0
 40
1848.0
 41
1.414285714285714
 42
50.0
 43
0.0
 44
0.0
 50
0.0
 51
0.0
 71
     0
 72
 10000
 73
     1
 74
     3
 75
     0
 76
     0
 77
     0
 78
     0
281
     0
 65
     1
110
0.0
120
0.0
130
0.0
111
1.0
121
0.0
131
0.0
112
0.0
122
1.0
132
0.0
 79
     0
146
0.0
 60
     3
 61
     5
292
     1
282
     1
141
0.0
142
0.0
 63
   256
  0
ENDTAB
  0
TABLE
  2
LTYPE
  5
5
330
0
100
AcDbSymbolTable
 70
     5
  0
LTYPE
  5
14
330
5
100
AcDbSymbolTableRecord
100
AcDbLinetypeTableRecord
  2
ByBlock
 70
     0
  3

 72
    65
 73
     0
 40
0.0
  0
LTYPE
  5
15
330
5
100
AcDbSymbolTableRecord
100
AcDbLinetypeTableRecord
  2
ByLayer
 70
     0
  3

 72
    65
 73
     0
 40
0.0
  0
LTYPE
  5
16
330
5
100
AcDbSymbolTableRecord
100
AcDbLinetypeTableRecord
  2
Continuous
 70
     0
  3
Solid line
 72
    65
 73
     0
 40
0.0
  0
LTYPE
  5
3C
330
5
100
AcDbSymbolTableRecord
100
AcDbLinetypeTableRecord
  2
JWW_CENTER1
 70
     0
  3
-----  --  ----------  --  -----
 72
    65
 73
     4
 40
6.773333333333333
 49
4.233333333333333
 74
     0
 49
-0.8466666666666667
 74
     0
 49
0.8466666666666667
 74
     0
 49
-0.8466666666666667
 74
     0
  0
LTYPE
  5
3D
330
5
100
AcDbSymbolTableRecord
100
AcDbLinetypeTableRecord
  2
JWW_DASHED1
 70
     0
  3
-  --  --  --  --  --  --  --  -
 72
    65
 73
     2
 40
1.693333333333333
 49
0.8466666666666667
 74
     0
 49
-0.8466666666666667
 74
     0
  0
LTYPE
  5
3E
330
5
100
AcDbSymbolTableRecord
100
AcDbLinetypeTableRecord
  2
JWW_CENTER2
 70
     0
  3
-------------  --  -------------
 72
    65
 73
     4
 40
13.54666666666667
 49
11.00666666666667
 74
     0
 49
-0.8466666666666667
 74
     0
 49
0.8466666666666667
 74
     0
 49
-0.8466666666666667
 74
     0
  0
LTYPE
  5
3F
330
5
100
AcDbSymbolTableRecord
100
AcDbLinetypeTableRecord
  2
JWW_DASHED3
 70
     0
  3
---  ------  ------  ------  ---
 72
    65
 73
     2
 40
3.386666666666667
 49
2.54
 74
     0
 49
-0.8466666666666667
 74
     0
  0
ENDTAB
  0
TABLE
  2
LAYER
  5
2
330
0
100
AcDbSymbolTable
 70
    10
  0
LAYER
  5
10
330
2
100
AcDbSymbolTableRecord
100
AcDbLayerTableRecord
  2
0
 70
     0
 62
     7
  6
Continuous
370
    -3
390
F
347
0
  0
LAYER
  5
40
330
2
100
AcDbSymbolTableRecord
100
AcDbLayerTableRecord
  2
F-4ﾚｲﾔ
 70
     0
 62
     7
  6
Continuous
370
    -3
390
F
347
0
  0
LAYER
  5
41
330
2
100
AcDbSymbolTableRecord
100
AcDbLayerTableRecord
  2
F-Fﾚｲﾔ
 70
     0
 62
     7
  6
Continuous
370
    -3
390
F
347
0
  0
LAYER
  5
42
330
2
100
AcDbSymbolTableRecord
100
AcDbLayerTableRecord
  2
F-5ﾚｲﾔ
 70
     0
 62
     7
  6
Continuous
370
    -3
390
F
347
0
  0
LAYER
  5
43
330
2
100
AcDbSymbolTableRecord
100
AcDbLayerTableRecord
  2
仕上
 70
     0
 62
     7
  6
Continuous
370
    -3
390
F
347
0
  0
LAYER
  5
44
330
2
100
AcDbSymbolTableRecord
100
AcDbLayerTableRecord
  2
建具
 70
     0
 62
     7
  6
Continuous
370
    -3
390
F
347
0
  0
LAYER
  5
45
330
2
100
AcDbSymbolTableRecord
100
AcDbLayerTableRecord
  2
通り芯
 70
     0
 62
     7
  6
Continuous
370
    -3
390
F
347
0
  0
LAYER
  5
46
330
2
100
AcDbSymbolTableRecord
100
AcDbLayerTableRecord
  2
躯体
 70
     0
 62
     7
  6
Continuous
370
    -3
390
F
347
0
  0
LAYER
  5
47
330
2
100
AcDbSymbolTableRecord
100
AcDbLayerTableRecord
  2
その他
 70
     0
 62
     7
  6
Continuous
370
    -3
390
F
347
0
  0
LAYER
  5
48
330
2
100
AcDbSymbolTableRecord
100
AcDbLayerTableRecord
  2
寸法
 70
     0
 62
     7
  6
Continuous
370
    -3
390
F
347
0
  0
ENDTAB
  0
TABLE
  2
STYLE
  5
3
330
0
100
AcDbSymbolTable
 70
     2
  0
STYLE
  5
11
330
3
100
AcDbSymbolTableRecord
100
AcDbTextStyleTableRecord
  2
Standard
 70
     0
 40
0.0
 41
1.0
 50
0.0
 71
     0
 42
2.5
  3
txt
  4

1001
ACAD
1000

1071
        0
  0
STYLE
  5
3B
330
3
100
AcDbSymbolTableRecord
100
AcDbTextStyleTableRecord
  2
ＭＳ ゴシック
 70
     0
 40
1.0
 41
1.0
 50
0.0
 71
     0
 42
10.0
  3

  4

1001
ACAD
1000
MS Gothic
1071
    32817
  0
ENDTAB
  0
TABLE
  2
VIEW
  5
6
330
0
100
AcDbSymbolTable
 70
     0
  0
ENDTAB
  0
TABLE
  2
UCS
  5
7
330
0
100
AcDbSymbolTable
 70
     0
  0
ENDTAB
  0
TABLE
  2
APPID
  5
9
330
0
100
AcDbSymbolTable
 70
     1
  0
APPID
  5
12
330
9
100
AcDbSymbolTableRecord
100
AcDbRegAppTableRecord
  2
ACAD
 70
     0
  0
ENDTAB
  0
TABLE
  2
DIMSTYLE
  5
A
330
0
100
AcDbSymbolTable
 70
     1
100
AcDbDimStyleTable
  0
DIMSTYLE
105
27
330
A
100
AcDbSymbolTableRecord
100
AcDbDimStyleTableRecord
  2
ISO-25
 70
     0
 41
2.5
 42
0.625
 43
3.75
 44
1.25
 73
     0
 74
     0
 77
     1
 78
     8
140
2.5
141
2.5
143
0.03937007874016
147
0.625
171
     3
172
     1
271
     2
272
     2
274
     3
278
    44
283
     0
284
     8
340
11
  0
ENDTAB
  0
TABLE
  2
BLOCK_RECORD
  5
1
330
0
100
AcDbSymbolTable
 70
     1
  0
BLOCK_RECORD
  5
1F
330
1
100
AcDbSymbolTableRecord
100
AcDbBlockTableRecord
  2
*Model_Space
340
22
 70
     0
280
     1
281
     0
  0
BLOCK_RECORD
  5
1B
330
1
100
AcDbSymbolTableRecord
100
AcDbBlockTableRecord
  2
*Paper_Space
340
1E
 70
     0
280
     1
281
     0
  0
BLOCK_RECORD
  5
23
330
1
100
AcDbSymbolTableRecord
100
AcDbBlockTableRecord
  2
*Paper_Space0
340
26
 70
     0
280
     1
281
     0
  0
ENDTAB
  0
ENDSEC
  0
SECTION
  2
BLOCKS
  0
BLOCK
  5
20
330
1F
100
AcDbEntity
  8
0
100
AcDbBlockBegin
  2
*Model_Space
 70
     0
 10
0.0
 20
0.0
 30
0.0
  3
*Model_Space
  1

  0
ENDBLK
  5
21
330
1F
100
AcDbEntity
  8
0
100
AcDbBlockEnd
  0
BLOCK
  5
1C
330
1B
100
AcDbEntity
 67
     1
  8
0
100
AcDbBlockBegin
  2
*Paper_Space
 70
     0
 10
0.0
 20
0.0
 30
0.0
  3
*Paper_Space
  1

  0
ENDBLK
  5
1D
330
1B
100
AcDbEntity
 67
     1
  8
0
100
AcDbBlockEnd
  0
BLOCK
  5
24
330
23
100
AcDbEntity
  8
0
100
AcDbBlockBegin
  2
*Paper_Space0
 70
     0
 10
0.0
 20
0.0
 30
0.0
  3
*Paper_Space0
  1

  0
ENDBLK
  5
25
330
23
100
AcDbEntity
  8
0
100
AcDbBlockEnd
  0
ENDSEC
  0
SECTION
  2
ENTITIES
  0
TEXT
  5
49
330
1F
100
AcDbEntity
  8
F-4ﾚｲﾔ
  6
Continuous
 62
     2
370
     9
100
AcDbText
 10
-183.2969419300666
 20
-759.0108394076666
 30
0.0
 40
12.192
  1
カラー舗装用みぞ蓋　インターロッキングブロック用　充填深さ６５ｍｍ　スチール製
 41
1.121794871794872
  7
ＭＳ ゴシック
100
AcDbText
  0
LINE
  5
4A
330
1F
100
AcDbEntity
  8
F-Fﾚｲﾔ
  6
Continuous
 62
     7
370
     9
100
AcDbLine
 10
-105.3797467629805
 20
760.915871598609
 30
0.0
 11
522.8790429449925
 21
760.915871598609
 31
0.0
  0
TEXT
  5
4B
330
1F
100
AcDbEntity
  8
F-Fﾚｲﾔ
  6
Continuous
 62
     2
370
     9
100
AcDbText
 10
-94.73285670451907
 20
739.171871598609
 30
0.0
 40
12.192
  1
名称
 41
1.0625
  7
ＭＳ ゴシック
100
AcDbText
  0
TEXT
  5
4C
330
1F
100
AcDbEntity
  8
F-5ﾚｲﾔ
  6
Continuous
 62
     2
370
     9
100
AcDbText
 10
63.34966572385582
 20
739.171871598609
 30
0.0
 40
12.192
  1
化粧用スリットみぞ蓋　インターロッキングブロック用
 41
1.12
  7
ＭＳ ゴシック
100
AcDbText
  0
LINE
  5
4D
330
1F
100
AcDbEntity
  8
F-Fﾚｲﾔ
  6
Continuous
 62
     7
370
     9
100
AcDbLine
 10
-105.3797467629805
 20
696.915871598609
 30
0.0
 11
522.8790429449925
 21
696.915871598609
 31
0.0
  0
LINE
  5
4E
330
1F
100
AcDbEntity
  8
F-Fﾚｲﾔ
  6
Continuous
 62
     7
370
     9
100
AcDbLine
 10
-105.3797467629805
 20
692.915871598609
 30
0.0
 11
522.8790429449925
 21
692.915871598609
 31
0.0
  0
LINE
  5
4F
330
1F
100
AcDbEntity
  8
F-Fﾚｲﾔ
  6
Continuous
 62
     7
370
     9
100
AcDbLine
 10
-105.3797467629805
 20
660.915871598609
 30
0.0
 11
522.8790429449925
 21
660.915871598609
 31
0.0
  0
LINE
  5
50
330
1F
100
AcDbEntity
  8
F-Fﾚｲﾔ
  6
Continuous
 62
     7
370
     9
100
AcDbLine
 10
-105.3797467629805
 20
500.915871598609
 30
0.0
 11
522.8790429449925
 21
500.915871598609
 31
0.0
  0
LINE
  5
51
330
1F
100
AcDbEntity
  8
F-Fﾚｲﾔ
  6
Continuous
 62
     7
370
     9
100
AcDbLine
 10
-105.3797467629805
 20
436.915871598609
 30
0.0
 11
522.8790429449925
 21
436.915871598609
 31
0.0
  0
TEXT
  5
52
330
1F
100
AcDbEntity
  8
F-Fﾚｲﾔ
  6
Continuous
 62
     2
370
     9
100
AcDbText
 10
-94.73285670451907
 20
639.171871598609
 30
0.0
 40
12.192
  1
蓋
  7
ＭＳ ゴシック
100
AcDbText
  0
TEXT
  5
53
330
1F
100
AcDbEntity
  8
F-Fﾚｲﾔ
  6
Continuous
 62
     2
370
     9
100
AcDbText
 10
-94.73285670451907
 20
479.171871598609
 30
0.0
 40
12.192
  1
受枠
 41
1.0625
  7
ＭＳ ゴシック
100
AcDbText
  0
TEXT
  5
54
330
1F
100
AcDbEntity
  8
F-Fﾚｲﾔ
  6
Continuous
 62
     2
370
     9
100
AcDbText
 10
-94.73285670451907
 20
415.1718715986091
 30
0.0
 40
12.192
  1
品番
 41
1.0625
  7
ＭＳ ゴシック
100
AcDbText
  0
TEXT
  5
55
330
1F
100
AcDbEntity
  8
F-5ﾚｲﾔ
  6
Continuous
 62
     2
370
     9
100
AcDbText
 10
63.34966572385582
 20
639.171871598609
 30
0.0
 40
12.192
  1
スチール製 溶融亜鉛めっき
 41
1.115
  7
ＭＳ ゴシック
100
AcDbText
  0
TEXT
  5
56
330
1F
100
AcDbEntity
  8
F-5ﾚｲﾔ
  6
Continuous
 62
     2
370
     9
100
AcDbText
 10
63.34966572385582
 20
575.171871598609
 30
0.0
 40
12.192
  1
目地すきま 6mm
 41
1.116071428571429
  7
ＭＳ ゴシック
100
AcDbText
  0
TEXT
  5
57
330
1F
100
AcDbEntity
  8
F-Fﾚｲﾔ
  6
Continuous
 62
     2
370
     9
100
AcDbText
 10
63.34966572385582
 20
479.171871598609
 30
0.0
 40
12.192
  1
スチール製 溶融亜鉛めっき
 41
1.115
  7
ＭＳ ゴシック
100
AcDbText
  0
TEXT
  5
58
330
1F
100
AcDbEntity
  8
F-Fﾚｲﾔ
  6
Continuous
 62
     2
370
     9
100
AcDbText
 10
63.34966572385582
 20
415.1718715986091
 30
0.0
 40
12.192
  1
カネソウ　カラー舗装用みぞ蓋
 41
1.116071428571429
  7
ＭＳ ゴシック
100
AcDbText
  0
LINE
  5
59
330
1F
100
AcDbEntity
  8
F-Fﾚｲﾔ
  6
Continuous
 62
     7
370
     9
100
AcDbLine
 10
46.81570496624607
 20
628.915871598609
 30
0.0
 11
522.8790429449925
 21
628.915871598609
 31
0.0
  0
LINE
  5
5A
330
1F
100
AcDbEntity
  8
F-Fﾚｲﾔ
  6
Continuous
 62
     7
370
     9
100
AcDbLine
 10
46.81570496624607
 20
596.915871598609
 30
0.0
 11
522.8790429449925
 21
596.915871598609
 31
0.0
  0
LINE
  5
5B
330
1F
100
AcDbEntity
  8
F-Fﾚｲﾔ
  6
Continuous
 62
     7
370
     9
100
AcDbLine
 10
46.81570496624607
 20
564.915871598609
 30
0.0
 11
522.8790429449925
 21
564.915871598609
 31
0.0
  0
LINE
  5
5C
330
1F
100
AcDbEntity
  8
F-Fﾚｲﾔ
  6
Continuous
 62
     7
370
     9
100
AcDbLine
 10
46.81570496624607
 20
532.915871598609
 30
0.0
 11
522.8790429449925
 21
532.915871598609
 31
0.0
  0
LINE
  5
5D
330
1F
100
AcDbEntity
  8
F-Fﾚｲﾔ
  6
Continuous
 62
     7
370
     9
100
AcDbLine
 10
46.81570496624607
 20
468.915871598609
 30
0.0
 11
522.8790429449925
 21
468.915871598609
 31
0.0
  0
TEXT
  5
5E
330
1F
100
AcDbEntity
  8
F-Fﾚｲﾔ
  6
Continuous
 62
     2
370
     9
100
AcDbText
 10
-94.73285670451907
 20
671.171871598609
 30
0.0
 40
12.192
  1
みぞ幅
 41
1.083333333333333
  7
ＭＳ ゴシック
100
AcDbText
  0
TEXT
  5
5F
330
1F
100
AcDbEntity
  8
F-5ﾚｲﾔ
  6
Continuous
 62
     2
370
     9
100
AcDbText
 10
63.34966572385582
 20
607.171871598609
 30
0.0
 40
12.192
  1
充填深さ 65mm
 41
1.115384615384615
  7
ＭＳ ゴシック
100
AcDbText
  0
LINE
  5
60
330
1F
100
AcDbEntity
  8
F-Fﾚｲﾔ
  6
Continuous
 62
     7
370
     9
100
AcDbLine
 10
522.8790429449925
 20
760.915871598609
 30
0.0
 11
522.8790429449925
 21
340.915871598609
 31
0.0
  0
LINE
  5
61
330
1F
100
AcDbEntity
  8
F-Fﾚｲﾔ
  6
Continuous
 62
     7
370
     9
100
AcDbLine
 10
-105.3797467629805
 20
340.915871598609
 30
0.0
 11
522.8790429449925
 21
340.915871598609
 31
0.0
  0
LINE
  5
62
330
1F
100
AcDbEntity
  8
F-Fﾚｲﾔ
  6
Continuous
 62
     7
370
     9
100
AcDbLine
 10
-105.3797467629805
 20
760.915871598609
 30
0.0
 11
-105.3797467629805
 21
340.915871598609
 31
0.0
  0
LINE
  5
63
330
1F
100
AcDbEntity
  8
F-Fﾚｲﾔ
  6
Continuous
 62
     7
370
     9
100
AcDbLine
 10
46.81570496624607
 20
760.915871598609
 30
0.0
 11
46.81570496624607
 21
340.915871598609
 31
0.0
  0
TEXT
  5
64
330
1F
100
AcDbEntity
  8
F-5ﾚｲﾔ
  6
Continuous
 62
     2
370
     9
100
AcDbText
 10
63.34966572385582
 20
707.171871598609
 30
0.0
 40
12.192
  1
側溝用
 41
1.083333333333333
  7
ＭＳ ゴシック
100
AcDbText
  0
TEXT
  5
65
330
1F
100
AcDbEntity
  8
F-Fﾚｲﾔ
  6
Continuous
 62
     2
370
     9
100
AcDbText
 10
63.34966572385582
 20
351.1718715986091
 30
0.0
 40
12.192
  1
受枠：L-83Z
 41
1.113636363636364
  7
ＭＳ ゴシック
100
AcDbText
  0
TEXT
  5
66
330
1F
100
AcDbEntity
  8
F-Fﾚｲﾔ
  6
Continuous
 62
     2
370
     9
100
AcDbText
 10
564.967229099232
 20
739.1718930562811
 30
0.0
 40
12.192
  1
強度性能
 41
1.09375
  7
ＭＳ ゴシック
100
AcDbText
  0
LINE
  5
67
330
1F
100
AcDbEntity
  8
F-Fﾚｲﾔ
  6
Continuous
 62
     7
370
     9
100
AcDbLine
 10
554.3203390407715
 20
760.915871598609
 30
0.0
 11
554.3203390407715
 21
596.9158715986089
 31
0.0
  0
TEXT
  5
68
330
1F
100
AcDbEntity
  8
F-Fﾚｲﾔ
  6
Continuous
 62
     2
370
     9
100
AcDbText
 10
564.967229099232
 20
703.171871598609
 30
0.0
 40
12.192
  1
強度
 41
1.0625
  7
ＭＳ ゴシック
100
AcDbText
  0
TEXT
  5
69
330
1F
100
AcDbEntity
  8
F-Fﾚｲﾔ
  6
Continuous
 62
     2
370
     9
100
AcDbText
 10
564.967229099232
 20
639.1718715986088
 30
0.0
 40
12.192
  1
主な使用場所
 41
1.104166666666667
  7
ＭＳ ゴシック
100
AcDbText
  0
TEXT
  5
6A
330
1F
100
AcDbEntity
  8
F-Fﾚｲﾔ
  6
Continuous
 62
     2
370
     9
100
AcDbText
 10
564.967229099232
 20
607.1718715986088
 30
0.0
 40
12.192
  1
荷重
 41
1.0625
  7
ＭＳ ゴシック
100
AcDbText
  0
LINE
  5
6B
330
1F
100
AcDbEntity
  8
F-Fﾚｲﾔ
  6
Continuous
 62
     7
370
     9
100
AcDbLine
 10
706.515790769998
 20
728.915871598609
 30
0.0
 11
706.515790769998
 21
596.9158715986089
 31
0.0
  0
TEXT
  5
6C
330
1F
100
AcDbEntity
  8
F-Fﾚｲﾔ
  6
Continuous
 62
     2
370
     9
100
AcDbText
 10
723.0497515276078
 20
703.171871598609
 30
0.0
 40
12.192
  1
歩行用：5.0kN/㎡(等分布荷重）
 41
1.116379310344828
  7
ＭＳ ゴシック
100
AcDbText
  0
TEXT
  5
6D
330
1F
100
AcDbEntity
  8
F-Fﾚｲﾔ
  6
Continuous
 62
     2
370
     9
100
AcDbText
 10
723.0497515276078
 20
671.1718715986088
 30
0.0
 40
12.192
  1
　 　 　道路橋示方書　歩道等の群集荷重
 41
1.118421052631579
  7
ＭＳ ゴシック
100
AcDbText
  0
TEXT
  5
6E
330
1F
100
AcDbEntity
  8
F-Fﾚｲﾔ
  6
Continuous
 62
     2
370
     9
100
AcDbText
 10
723.0497515276078
 20
639.1718715986088
 30
0.0
 40
12.192
  1
歩道、建物内、犬走り
 41
1.1125
  7
ＭＳ ゴシック
100
AcDbText
  0
TEXT
  5
6F
330
1F
100
AcDbEntity
  8
F-Fﾚｲﾔ
  6
Continuous
 62
     2
370
     9
100
AcDbText
 10
723.0497515276078
 20
607.1718715986088
 30
0.0
 40
12.192
  1
5.0kN/㎡
 41
1.09375
  7
ＭＳ ゴシック
100
AcDbText
  0
LINE
  5
70
330
1F
100
AcDbEntity
  8
F-Fﾚｲﾔ
  6
Continuous
 62
     7
370
     9
100
AcDbLine
 10
554.3203390407715
 20
760.915871598609
 30
0.0
 11
1123.007015922773
 21
760.915871598609
 31
0.0
  0
LINE
  5
71
330
1F
100
AcDbEntity
  8
F-Fﾚｲﾔ
  6
Continuous
 62
     7
370
     9
100
AcDbLine
 10
554.3203390407715
 20
728.915871598609
 30
0.0
 11
1123.007015922773
 21
728.915871598609
 31
0.0
  0
LINE
  5
72
330
1F
100
AcDbEntity
  8
F-Fﾚｲﾔ
  6
Continuous
 62
     7
370
     9
100
AcDbLine
 10
554.3203390407715
 20
724.915871598609
 30
0.0
 11
1123.007015922773
 21
724.915871598609
 31
0.0
  0
LINE
  5
73
330
1F
100
AcDbEntity
  8
F-5ﾚｲﾔ
  6
Continuous
 62
     7
370
     9
100
AcDbLine
 10
554.3203390407715
 20
660.9158715986089
 30
0.0
 11
1123.007015922773
 21
660.9158715986089
 31
0.0
  0
LINE
  5
74
330
1F
100
AcDbEntity
  8
F-Fﾚｲﾔ
  6
Continuous
 62
     7
370
     9
100
AcDbLine
 10
554.3203390407715
 20
660.9158715986089
 30
0.0
 11
1123.007015922773
 21
660.9158715986089
 31
0.0
  0
LINE
  5
75
330
1F
100
AcDbEntity
  8
F-Fﾚｲﾔ
  6
Continuous
 62
     7
370
     9
100
AcDbLine
 10
554.3203390407715
 20
596.9158715986089
 30
0.0
 11
1123.007015922773
 21
596.9158715986089
 31
0.0
  0
LINE
  5
76
330
1F
100
AcDbEntity
  8
F-Fﾚｲﾔ
  6
Continuous
 62
     7
370
     9
100
AcDbLine
 10
1123.007015922773
 20
760.915871598609
 30
0.0
 11
1123.007015922773
 21
596.9158715986089
 31
0.0
  0
LINE
  5
77
330
1F
100
AcDbEntity
  8
F-Fﾚｲﾔ
  6
Continuous
 62
     7
370
     9
100
AcDbLine
 10
554.3203390407715
 20
628.9158715986089
 30
0.0
 11
1123.007015922773
 21
628.9158715986089
 31
0.0
  0
LINE
  5
78
330
1F
100
AcDbEntity
  8
仕上
  6
Continuous
 62
     7
370
     9
100
AcDbLine
 10
-240.2700018137228
 20
-31.26987171262135
 30
0.0
 11
-244.7700866502317
 21
-31.26987171262135
 31
0.0
  0
LINE
  5
79
330
1F
100
AcDbEntity
  8
建具
  6
Continuous
 62
     4
370
     9
100
AcDbLine
 10
-840.2700018137205
 20
-21.77019845101495
 30
0.0
 11
-840.2700018137205
 21
-81.77014896305036
 31
0.0
  0
LINE
  5
7A
330
1F
100
AcDbEntity
  8
建具
  6
Continuous
 62
     4
370
     9
100
AcDbLine
 10
88.54315926300542
 20
-21.77019845101495
 30
0.0
 11
-840.2700018137205
 21
-21.77019845101495
 31
0.0
  0
LINE
  5
7B
330
1F
100
AcDbEntity
  8
建具
  6
Continuous
 62
     4
370
     9
100
AcDbLine
 10
88.54315926300542
 20
-27.77011927027161
 30
0.0
 11
-840.2700018137205
 21
-27.77011927027161
 31
0.0
  0
LINE
  5
7C
330
1F
100
AcDbEntity
  8
建具
  6
Continuous
 62
     4
370
     9
100
AcDbLine
 10
-615.2700018137205
 20
18.22980979697923
 30
0.0
 11
-565.2699915037281
 21
18.22980979697923
 31
0.0
  0
LINE
  5
7D
330
1F
100
AcDbEntity
  8
建具
  6
Continuous
 62
     4
370
     9
100
AcDbLine
 10
-615.2700018137205
 20
-21.77019845101495
 30
0.0
 11
-615.2700018137205
 21
18.22980979697923
 31
0.0
  0
LINE
  5
7E
330
1F
100
AcDbEntity
  8
建具
  6
Continuous
 62
     4
370
     9
100
AcDbLine
 10
-565.2699915037281
 20
18.22980979697923
 30
0.0
 11
-565.2699915037281
 21
-21.77019845101495
 31
0.0
  0
LINE
  5
7F
330
1F
100
AcDbEntity
  8
建具
  6
JWW_CENTER1
 62
     4
370
     9
100
AcDbLine
 10
-590.2700121237133
 20
0.2297998993863075
 30
0.0
 11
-590.2700121237133
 21
14.04968515329256
 31
0.0
  0
LINE
  5
80
330
1F
100
AcDbEntity
  8
建具
  6
JWW_CENTER1
 62
     4
370
     9
100
AcDbLine
 10
-590.2700121237133
 20
0.2297998993863075
 30
0.0
 11
-574.7980948939837
 21
0.2297998993863075
 31
0.0
  0
LINE
  5
81
330
1F
100
AcDbEntity
  8
建具
  6
JWW_CENTER1
 62
     4
370
     9
100
AcDbLine
 10
-590.2700121237133
 20
0.2297998993863075
 30
0.0
 11
-590.2700121237133
 21
-13.59008535451994
 31
0.0
  0
LINE
  5
82
330
1F
100
AcDbEntity
  8
建具
  6
JWW_CENTER1
 62
     4
370
     9
100
AcDbLine
 10
-590.2700121237133
 20
0.2297998993863075
 30
0.0
 11
-605.7419293534433
 21
0.2297998993863075
 31
0.0
  0
LINE
  5
83
330
1F
100
AcDbEntity
  8
建具
  6
Continuous
 62
     4
370
     9
100
AcDbLine
 10
-115.2700533636837
 20
18.22980979697923
 30
0.0
 11
-65.27001212371333
 21
18.22980979697923
 31
0.0
  0
LINE
  5
84
330
1F
100
AcDbEntity
  8
建具
  6
Continuous
 62
     4
370
     9
100
AcDbLine
 10
-115.2700533636837
 20
-21.77019845101495
 30
0.0
 11
-115.2700533636837
 21
18.22980979697923
 31
0.0
  0
LINE
  5
85
330
1F
100
AcDbEntity
  8
建具
  6
Continuous
 62
     4
370
     9
100
AcDbLine
 10
-65.27001212371333
 20
18.22980979697923
 30
0.0
 11
-65.27001212371333
 21
-21.77019845101495
 31
0.0
  0
LINE
  5
86
330
1F
100
AcDbEntity
  8
建具
  6
JWW_CENTER1
 62
     4
370
     9
100
AcDbLine
 10
-90.27003274369854
 20
0.2297998993863075
 30
0.0
 11
-90.27003274369854
 21
14.04968515329256
 31
0.0
  0
LINE
  5
87
330
1F
100
AcDbEntity
  8
建具
  6
JWW_CENTER1
 62
     4
370
     9
100
AcDbLine
 10
-90.27003274369854
 20
0.2297998993863075
 30
0.0
 11
-74.79805365401334
 21
0.2297998993863075
 31
0.0
  0
LINE
  5
88
330
1F
100
AcDbEntity
  8
建具
  6
JWW_CENTER1
 62
     4
370
     9
100
AcDbLine
 10
-90.27003274369854
 20
0.2297998993863075
 30
0.0
 11
-90.27003274369854
 21
-13.59008535451994
 31
0.0
  0
LINE
  5
89
330
1F
100
AcDbEntity
  8
建具
  6
JWW_CENTER1
 62
     4
370
     9
100
AcDbLine
 10
-90.27003274369854
 20
0.2297998993863075
 30
0.0
 11
-105.7419499734281
 21
0.2297998993863075
 31
0.0
  0
LINE
  5
8A
330
1F
100
AcDbEntity
  8
建具
  6
Continuous
 62
     4
370
     9
100
AcDbLine
 10
-840.2700018137205
 20
-341.7701407150562
 30
0.0
 11
-840.2700018137205
 21
-281.7701902030208
 31
0.0
  0
LINE
  5
8B
330
1F
100
AcDbEntity
  8
建具
  6
Continuous
 62
     4
370
     9
100
AcDbLine
 10
88.54315926300542
 20
-341.7701407150562
 30
0.0
 11
-840.2700018137205
 21
-341.7701407150562
 31
0.0
  0
LINE
  5
8C
330
1F
100
AcDbEntity
  8
建具
  6
Continuous
 62
     4
370
     9
100
AcDbLine
 10
88.54315926300542
 20
-335.7702198957995
 30
0.0
 11
-840.2700018137205
 21
-335.7702198957995
 31
0.0
  0
LINE
  5
8D
330
1F
100
AcDbEntity
  8
建具
  6
Continuous
 62
     4
370
     9
100
AcDbLine
 10
-615.2699708837429
 20
-381.7701489630504
 30
0.0
 11
-565.2699915037281
 21
-381.7701489630504
 31
0.0
  0
LINE
  5
8E
330
1F
100
AcDbEntity
  8
建具
  6
Continuous
 62
     4
370
     9
100
AcDbLine
 10
-615.2699708837429
 20
-341.7701407150562
 30
0.0
 11
-615.2699708837429
 21
-381.7701489630504
 31
0.0
  0
LINE
  5
8F
330
1F
100
AcDbEntity
  8
建具
  6
Continuous
 62
     4
370
     9
100
AcDbLine
 10
-565.2699915037281
 20
-381.7701489630504
 30
0.0
 11
-565.2699915037281
 21
-341.7701407150562
 31
0.0
  0
LINE
  5
90
330
1F
100
AcDbEntity
  8
建具
  6
JWW_CENTER1
 62
     4
370
     9
100
AcDbLine
 10
-590.2700121237133
 20
-363.7701390654574
 30
0.0
 11
-590.2700121237133
 21
-377.5900243193637
 31
0.0
  0
LINE
  5
91
330
1F
100
AcDbEntity
  8
建具
  6
JWW_CENTER1
 62
     4
370
     9
100
AcDbLine
 10
-590.2700121237133
 20
-363.7701390654574
 30
0.0
 11
-574.7980948939837
 21
-363.7701390654574
 31
0.0
  0
LINE
  5
92
330
1F
100
AcDbEntity
  8
建具
  6
JWW_CENTER1
 62
     4
370
     9
100
AcDbLine
 10
-590.2700121237133
 20
-363.7701390654574
 30
0.0
 11
-590.2700121237133
 21
-349.9502538115512
 31
0.0
  0
LINE
  5
93
330
1F
100
AcDbEntity
  8
建具
  6
JWW_CENTER1
 62
     4
370
     9
100
AcDbLine
 10
-590.2700121237133
 20
-363.7701390654574
 30
0.0
 11
-605.7419293534433
 21
-363.7701390654574
 31
0.0
  0
LINE
  5
94
330
1F
100
AcDbEntity
  8
建具
  6
Continuous
 62
     4
370
     9
100
AcDbLine
 10
-115.2700533636837
 20
-381.7701489630504
 30
0.0
 11
-65.27001212371333
 21
-381.7701489630504
 31
0.0
  0
LINE
  5
95
330
1F
100
AcDbEntity
  8
建具
  6
Continuous
 62
     4
370
     9
100
AcDbLine
 10
-115.2700533636837
 20
-341.7701407150562
 30
0.0
 11
-115.2700533636837
 21
-381.7701489630504
 31
0.0
  0
LINE
  5
96
330
1F
100
AcDbEntity
  8
建具
  6
Continuous
 62
     4
370
     9
100
AcDbLine
 10
-65.27001212371333
 20
-381.7701489630504
 30
0.0
 11
-65.27001212371333
 21
-341.7701407150562
 31
0.0
  0
LINE
  5
97
330
1F
100
AcDbEntity
  8
建具
  6
JWW_CENTER1
 62
     4
370
     9
100
AcDbLine
 10
-90.27003274369854
 20
-363.7701390654574
 30
0.0
 11
-90.27003274369854
 21
-377.5900243193637
 31
0.0
  0
LINE
  5
98
330
1F
100
AcDbEntity
  8
建具
  6
JWW_CENTER1
 62
     4
370
     9
100
AcDbLine
 10
-90.27003274369854
 20
-363.7701390654574
 30
0.0
 11
-74.79805365401334
 21
-363.7701390654574
 31
0.0
  0
LINE
  5
99
330
1F
100
AcDbEntity
  8
建具
  6
JWW_CENTER1
 62
     4
370
     9
100
AcDbLine
 10
-90.27003274369854
 20
-363.7701390654574
 30
0.0
 11
-90.27003274369854
 21
-349.9502538115512
 31
0.0
  0
LINE
  5
9A
330
1F
100
AcDbEntity
  8
建具
  6
JWW_CENTER1
 62
     4
370
     9
100
AcDbLine
 10
-90.27003274369854
 20
-363.7701390654574
 30
0.0
 11
-105.7419499734281
 21
-363.7701390654574
 31
0.0
  0
LINE
  5
9B
330
1F
100
AcDbEntity
  8
建具
  6
Continuous
 62
     4
370
     9
100
AcDbLine
 10
535.4447178039688
 20
-27.77011927027161
 30
0.0
 11
456.7448738560167
 21
-27.77011927027161
 31
0.0
  0
LINE
  5
9C
330
1F
100
AcDbEntity
  8
建具
  6
Continuous
 62
     4
370
     9
100
AcDbLine
 10
539.444829976688
 20
-31.77023144299119
 30
0.0
 11
539.444829976688
 21
-81.77014896305036
 31
0.0
  0
LINE
  5
9D
330
1F
100
AcDbEntity
  8
建具
  6
Continuous
 62
     4
370
     9
100
AcDbLine
 10
539.444829976688
 20
-81.77014896305036
 30
0.0
 11
545.4447507959446
 21
-81.77014896305036
 31
0.0
  0
LINE
  5
9E
330
1F
100
AcDbEntity
  8
建具
  6
Continuous
 62
     4
370
     9
100
AcDbLine
 10
456.7448738560167
 20
-27.77011927027161
 30
0.0
 11
456.7448738560167
 21
-21.77019845101495
 31
0.0
  0
LINE
  5
9F
330
1F
100
AcDbEntity
  8
建具
  6
Continuous
 62
     4
370
     9
100
AcDbLine
 10
456.7448738560167
 20
-21.77019845101495
 30
0.0
 11
535.4447178039688
 21
-21.77019845101495
 31
0.0
  0
LINE
  5
A0
330
1F
100
AcDbEntity
  8
建具
  6
Continuous
 62
     4
370
     9
100
AcDbLine
 10
545.4447507959446
 20
-81.77014896305036
 30
0.0
 11
551.4447953351125
 21
-81.77014896305036
 31
0.0
  0
LINE
  5
A1
330
1F
100
AcDbEntity
  8
建具
  6
Continuous
 62
     4
370
     9
100
AcDbLine
 10
545.4447507959446
 20
18.22980979697923
 30
0.0
 11
551.4447953351125
 21
18.22980979697923
 31
0.0
  0
LINE
  5
A2
330
1F
100
AcDbEntity
  8
建具
  6
JWW_CENTER1
 62
     4
370
     9
100
AcDbLine
 10
536.5177405948259
 20
0.2297998993863075
 30
0.0
 11
562.4558674423758
 21
0.2297998993863075
 31
0.0
  0
LINE
  5
A3
330
1F
100
AcDbEntity
  8
建具
  6
Continuous
 62
     4
370
     9
100
AcDbLine
 10
545.4447507959446
 20
8.229776805002984
 30
0.0
 11
551.4447953351125
 21
8.229776805002984
 31
0.0
  0
LINE
  5
A4
330
1F
100
AcDbEntity
  8
建具
  6
Continuous
 62
     4
370
     9
100
AcDbLine
 10
545.4447507959446
 20
-81.77014896305036
 30
0.0
 11
545.4447507959446
 21
18.22980979697923
 31
0.0
  0
LINE
  5
A5
330
1F
100
AcDbEntity
  8
建具
  6
Continuous
 62
     4
370
     9
100
AcDbLine
 10
551.4447953351125
 20
-81.77014896305036
 30
0.0
 11
551.4447953351125
 21
18.22980979697923
 31
0.0
  0
LINE
  5
A6
330
1F
100
AcDbEntity
  8
建具
  6
Continuous
 62
     4
370
     9
100
AcDbLine
 10
545.4447507959446
 20
-7.770177006230142
 30
0.0
 11
551.4447953351125
 21
-7.770177006230142
 31
0.0
  0
LINE
  5
A7
330
1F
100
AcDbEntity
  8
建具
  6
Continuous
 62
     4
370
     9
100
AcDbLine
 10
535.4447178039688
 20
-335.7702198957995
 30
0.0
 11
456.7448738560167
 21
-335.7702198957995
 31
0.0
  0
LINE
  5
A8
330
1F
100
AcDbEntity
  8
建具
  6
Continuous
 62
     4
370
     9
100
AcDbLine
 10
539.444829976688
 20
-331.7701077230799
 30
0.0
 11
539.444829976688
 21
-281.7701902030208
 31
0.0
  0
LINE
  5
A9
330
1F
100
AcDbEntity
  8
建具
  6
Continuous
 62
     4
370
     9
100
AcDbLine
 10
539.444829976688
 20
-281.7701902030208
 30
0.0
 11
545.4447507959446
 21
-281.7701902030208
 31
0.0
  0
LINE
  5
AA
330
1F
100
AcDbEntity
  8
建具
  6
Continuous
 62
     4
370
     9
100
AcDbLine
 10
456.7448738560167
 20
-335.7702198957995
 30
0.0
 11
456.7448738560167
 21
-341.7701407150562
 31
0.0
  0
LINE
  5
AB
330
1F
100
AcDbEntity
  8
建具
  6
Continuous
 62
     4
370
     9
100
AcDbLine
 10
456.7448738560167
 20
-341.7701407150562
 30
0.0
 11
535.4447178039688
 21
-341.7701407150562
 31
0.0
  0
LINE
  5
AC
330
1F
100
AcDbEntity
  8
建具
  6
Continuous
 62
     4
370
     9
100
AcDbLine
 10
545.4447507959446
 20
-281.7701902030208
 30
0.0
 11
551.4447953351125
 21
-281.7701902030208
 31
0.0
  0
LINE
  5
AD
330
1F
100
AcDbEntity
  8
建具
  6
Continuous
 62
     4
370
     9
100
AcDbLine
 10
545.4447507959446
 20
-381.7701489630504
 30
0.0
 11
551.4447953351125
 21
-381.7701489630504
 31
0.0
  0
LINE
  5
AE
330
1F
100
AcDbEntity
  8
建具
  6
JWW_CENTER1
 62
     4
370
     9
100
AcDbLine
 10
536.5177405948259
 20
-363.7701390654574
 30
0.0
 11
562.4558674423758
 21
-363.7701390654574
 31
0.0
  0
LINE
  5
AF
330
1F
100
AcDbEntity
  8
建具
  6
Continuous
 62
     4
370
     9
100
AcDbLine
 10
545.4447507959446
 20
-371.7701159710741
 30
0.0
 11
551.4447953351125
 21
-371.7701159710741
 31
0.0
  0
LINE
  5
B0
330
1F
100
AcDbEntity
  8
建具
  6
Continuous
 62
     4
370
     9
100
AcDbLine
 10
545.4447507959446
 20
-281.7701902030208
 30
0.0
 11
545.4447507959446
 21
-381.7701489630504
 31
0.0
  0
LINE
  5
B1
330
1F
100
AcDbEntity
  8
建具
  6
Continuous
 62
     4
370
     9
100
AcDbLine
 10
551.4447953351125
 20
-281.7701902030208
 30
0.0
 11
551.4447953351125
 21
-381.7701489630504
 31
0.0
  0
LINE
  5
B2
330
1F
100
AcDbEntity
  8
建具
  6
Continuous
 62
     4
370
     9
100
AcDbLine
 10
545.4447507959446
 20
-355.7701621598408
 30
0.0
 11
551.4447953351125
 21
-355.7701621598408
 31
0.0
  0
CIRCLE
  5
B3
330
1F
100
AcDbEntity
  8
建具
  6
Continuous
 62
     4
370
     9
100
AcDbCircle
 10
-590.2700121237133
 20
0.2297998993863075
 30
0.0
 40
7.999999619819023
  0
CIRCLE
  5
B4
330
1F
100
AcDbEntity
  8
建具
  6
Continuous
 62
     4
370
     9
100
AcDbCircle
 10
-90.27003274369854
 20
0.2297998993863075
 30
0.0
 40
7.999999619819023
  0
CIRCLE
  5
B5
330
1F
100
AcDbEntity
  8
建具
  6
Continuous
 62
     4
370
     9
100
AcDbCircle
 10
-590.2700121237133
 20
-363.7701390654574
 30
0.0
 40
7.999999619819023
  0
CIRCLE
  5
B6
330
1F
100
AcDbEntity
  8
建具
  6
Continuous
 62
     4
370
     9
100
AcDbCircle
 10
-90.27003274369854
 20
-363.7701390654574
 30
0.0
 40
7.999999619819023
  0
ARC
  5
B7
330
1F
100
AcDbEntity
  8
建具
  6
Continuous
 62
     4
370
     9
100
AcDbCircle
 10
535.4447178039688
 20
-31.77023144299119
 30
0.0
 40
3.999999809909511
100
AcDbArc
 50
0.0
 51
90.0
  0
ARC
  5
B8
330
1F
100
AcDbEntity
  8
建具
  6
Continuous
 62
     4
370
     9
100
AcDbCircle
 10
535.4447178039688
 20
-31.77023144299119
 30
0.0
 40
9.9999991623131
100
AcDbArc
 50
0.0
 51
90.0
  0
ARC
  5
B9
330
1F
100
AcDbEntity
  8
建具
  6
Continuous
 62
     4
370
     9
100
AcDbCircle
 10
535.4447178039688
 20
-331.7701077230799
 30
0.0
 40
3.999999809909511
100
AcDbArc
 50
270.0
 51
0.0
  0
ARC
  5
BA
330
1F
100
AcDbEntity
  8
建具
  6
Continuous
 62
     4
370
     9
100
AcDbCircle
 10
535.4447178039688
 20
-331.7701077230799
 30
0.0
 40
9.9999991623131
100
AcDbArc
 50
270.0
 51
0.0
  0
LINE
  5
BB
330
1F
100
AcDbEntity
  8
建具
  6
Continuous
 62
     4
370
     9
100
AcDbLine
 10
105.6663661490908
 20
-165.3242054915027
 30
0.0
 11
88.54315926300542
 21
-182.4474123775879
 31
0.0
  0
LINE
  5
BC
330
1F
100
AcDbEntity
  8
建具
  6
Continuous
 62
     4
370
     9
100
AcDbLine
 10
88.54315926300542
 20
-182.4474123775879
 30
0.0
 11
71.41995237692
 21
-199.5706192636731
 31
0.0
  0
LINE
  5
BD
330
1F
100
AcDbEntity
  8
建具
  6
Continuous
 62
     4
370
     9
100
AcDbLine
 10
88.54315926300542
 20
-362.3701864089435
 30
0.0
 11
88.54315926300542
 21
-199.5706192636731
 31
0.0
  0
LINE
  5
BE
330
1F
100
AcDbEntity
  8
建具
  6
Continuous
 62
     4
370
     9
100
AcDbLine
 10
71.41995237692
 20
-199.5706192636731
 30
0.0
 11
88.54315926300542
 21
-199.5706192636731
 31
0.0
  0
LINE
  5
BF
330
1F
100
AcDbEntity
  8
建具
  6
Continuous
 62
     4
370
     9
100
AcDbLine
 10
88.54315926300542
 20
-1.170214617083275
 30
0.0
 11
88.54315926300542
 21
-165.3242054915027
 31
0.0
  0
LINE
  5
C0
330
1F
100
AcDbEntity
  8
建具
  6
Continuous
 62
     4
370
     9
100
AcDbLine
 10
105.6663661490908
 20
-165.3242054915027
 30
0.0
 11
88.54315926300542
 21
-165.3242054915027
 31
0.0
  0
LINE
  5
C1
330
1F
100
AcDbEntity
  8
仕上
  6
Continuous
 62
     7
370
     9
100
AcDbLine
 10
-240.2700018137228
 20
-44.26999095504925
 30
0.0
 11
-838.2700018137205
 21
-44.26999095504925
 31
0.0
  0
LINE
  5
C2
330
1F
100
AcDbEntity
  8
仕上
  6
Continuous
 62
     7
370
     9
100
AcDbLine
 10
-833.7699169772097
 20
-48.77007579155816
 30
0.0
 11
-833.7699169772097
 21
-314.7702633745093
 31
0.0
  0
LINE
  5
C3
330
1F
100
AcDbEntity
  8
仕上
  6
JWW_DASHED1
 62
     7
370
     9
100
AcDbLine
 10
-833.7699169772097
 20
-58.77012433689652
 30
0.0
 11
-838.2700018137205
 21
-63.2697892326787
 31
0.0
  0
LINE
  5
C4
330
1F
100
AcDbEntity
  8
仕上
  6
JWW_DASHED1
 62
     7
370
     9
100
AcDbLine
 10
-823.7698684318732
 20
-48.77007579155816
 30
0.0
 11
-819.2697835953625
 21
-44.26999095504925
 31
0.0
  0
LINE
  5
C5
330
1F
100
AcDbEntity
  8
仕上
  6
Continuous
 62
     7
370
     9
100
AcDbLine
 10
-823.7698684318732
 20
-48.77007579155816
 30
0.0
 11
-833.7699169772097
 21
-58.77012433689652
 31
0.0
  0
LINE
  5
C6
330
1F
100
AcDbEntity
  8
仕上
  6
Continuous
 62
     7
370
     9
100
AcDbLine
 10
-838.2700018137205
 20
-31.26987171262135
 30
0.0
 11
-838.2700018137205
 21
-332.2704674534498
 31
0.0
  0
LINE
  5
C7
330
1F
100
AcDbEntity
  8
仕上
  6
Continuous
 62
     7
370
     9
100
AcDbLine
 10
-244.7700866502317
 20
-48.77007579155816
 30
0.0
 11
-244.7700866502317
 21
-314.7702633745093
 31
0.0
  0
LINE
  5
C8
330
1F
100
AcDbEntity
  8
仕上
  6
Continuous
 62
     7
370
     9
100
AcDbLine
 10
-240.2700018137228
 20
-31.26987171262135
 30
0.0
 11
-240.2700018137228
 21
-332.2704674534498
 31
0.0
  0
LINE
  5
C9
330
1F
100
AcDbEntity
  8
仕上
  6
Continuous
 62
     7
370
     9
100
AcDbLine
 10
-240.2700018137228
 20
-38.26995654913208
 30
0.0
 11
-838.2700018137205
 21
-38.26995654913208
 31
0.0
  0
LINE
  5
CA
330
1F
100
AcDbEntity
  8
仕上
  6
Continuous
 62
     7
370
     9
100
AcDbLine
 10
-240.2700018137228
 20
-33.76987171262135
 30
0.0
 11
-838.2700018137205
 21
-33.76987171262135
 31
0.0
  0
LINE
  5
CB
330
1F
100
AcDbEntity
  8
仕上
  6
Continuous
 62
     7
370
     9
100
AcDbLine
 10
-240.2700018137228
 20
-48.77007579155816
 30
0.0
 11
-838.2700018137205
 21
-48.77007579155816
 31
0.0
  0
LINE
  5
CC
330
1F
100
AcDbEntity
  8
仕上
  6
Continuous
 62
     7
370
     9
100
AcDbLine
 10
-254.77013519557
 20
-314.7702633745093
 30
0.0
 11
-244.7700866502317
 21
-304.7702148291728
 31
0.0
  0
LINE
  5
CD
330
1F
100
AcDbEntity
  8
仕上
  6
JWW_DASHED1
 62
     7
370
     9
100
AcDbLine
 10
-254.77013519557
 20
-314.7702633745093
 30
0.0
 11
-259.270220032079
 21
-319.2703482110219
 31
0.0
  0
LINE
  5
CE
330
1F
100
AcDbEntity
  8
仕上
  6
JWW_DASHED1
 62
     7
370
     9
100
AcDbLine
 10
-244.7700866502317
 20
-304.7702148291728
 30
0.0
 11
-240.2700018137228
 21
-300.2705499333906
 31
0.0
  0
LINE
  5
CF
330
1F
100
AcDbEntity
  8
仕上
  6
Continuous
 62
     7
370
     9
100
AcDbLine
 10
-240.2700018137228
 20
-329.7704674534498
 30
0.0
 11
-838.2700018137205
 21
-329.7704674534498
 31
0.0
  0
LINE
  5
D0
330
1F
100
AcDbEntity
  8
仕上
  6
Continuous
 62
     7
370
     9
100
AcDbLine
 10
-240.2700018137228
 20
-325.2703826169391
 30
0.0
 11
-838.2700018137205
 21
-325.2703826169391
 31
0.0
  0
LINE
  5
D1
330
1F
100
AcDbEntity
  8
仕上
  6
Continuous
 62
     7
370
     9
100
AcDbLine
 10
-240.2700018137228
 20
-319.2703482110219
 30
0.0
 11
-838.2700018137205
 21
-319.2703482110219
 31
0.0
  0
LINE
  5
D2
330
1F
100
AcDbEntity
  8
仕上
  6
Continuous
 62
     7
370
     9
100
AcDbLine
 10
-240.2700018137228
 20
-314.7702633745093
 30
0.0
 11
-838.2700018137205
 21
-314.7702633745093
 31
0.0
  0
LINE
  5
D3
330
1F
100
AcDbEntity
  8
仕上
  6
Continuous
 62
     3
370
     9
100
AcDbLine
 10
-685.7699814883074
 20
-206.2247363379292
 30
0.0
 11
-685.7699814883074
 21
-157.3156028281419
 31
0.0
  0
LINE
  5
D4
330
1F
100
AcDbEntity
  8
仕上
  6
Continuous
 62
     3
370
     9
100
AcDbLine
 10
-715.7700221391353
 20
-157.3156028281419
 30
0.0
 11
-715.7700221391353
 21
-206.2247363379292
 31
0.0
  0
LINE
  5
D5
330
1F
100
AcDbEntity
  8
仕上
  6
Continuous
 62
     3
370
     9
100
AcDbLine
 10
-715.7700221391353
 20
-157.8156028281401
 30
0.0
 11
-685.7699814883074
 21
-157.8156028281401
 31
0.0
  0
LINE
  5
D6
330
1F
100
AcDbEntity
  8
仕上
  6
Continuous
 62
     3
370
     9
100
AcDbLine
 10
-715.7700221391353
 20
-157.3156028281419
 30
0.0
 11
-685.7699814883074
 21
-157.3156028281419
 31
0.0
  0
LINE
  5
D7
330
1F
100
AcDbEntity
  8
仕上
  6
Continuous
 62
     3
370
     9
100
AcDbLine
 10
-715.7700221391353
 20
-173.4041441792515
 30
0.0
 11
-685.7699814883074
 21
-173.4041441792515
 31
0.0
  0
LINE
  5
D8
330
1F
100
AcDbEntity
  8
仕上
  6
Continuous
 62
     3
370
     9
100
AcDbLine
 10
-715.7700221391353
 20
-206.2247363379292
 30
0.0
 11
-685.7699814883074
 21
-206.2247363379292
 31
0.0
  0
LINE
  5
D9
330
1F
100
AcDbEntity
  8
仕上
  6
Continuous
 62
     3
370
     9
100
AcDbLine
 10
-715.7700221391353
 20
-205.7247363379292
 30
0.0
 11
-685.7699814883074
 21
-205.7247363379292
 31
0.0
  0
LINE
  5
DA
330
1F
100
AcDbEntity
  8
仕上
  6
Continuous
 62
     3
370
     9
100
AcDbLine
 10
-715.7700221391353
 20
-190.1361949868196
 30
0.0
 11
-685.7699814883074
 21
-190.1361949868196
 31
0.0
  0
LINE
  5
DB
330
1F
100
AcDbEntity
  8
仕上
  6
Continuous
 62
     3
370
     9
100
AcDbLine
 10
-392.7700221391358
 20
-206.2247363379292
 30
0.0
 11
-392.7700221391358
 21
-157.3156028281419
 31
0.0
  0
LINE
  5
DC
330
1F
100
AcDbEntity
  8
仕上
  6
Continuous
 62
     3
370
     9
100
AcDbLine
 10
-362.7699814883079
 20
-157.3156028281419
 30
0.0
 11
-362.7699814883079
 21
-206.2247363379292
 31
0.0
  0
LINE
  5
DD
330
1F
100
AcDbEntity
  8
仕上
  6
Continuous
 62
     3
370
     9
100
AcDbLine
 10
-362.7699814883079
 20
-157.8156028281401
 30
0.0
 11
-392.7700221391358
 21
-157.8156028281401
 31
0.0
  0
LINE
  5
DE
330
1F
100
AcDbEntity
  8
仕上
  6
Continuous
 62
     3
370
     9
100
AcDbLine
 10
-362.7699814883079
 20
-157.3156028281419
 30
0.0
 11
-392.7700221391358
 21
-157.3156028281419
 31
0.0
  0
LINE
  5
DF
330
1F
100
AcDbEntity
  8
仕上
  6
Continuous
 62
     3
370
     9
100
AcDbLine
 10
-362.7699814883079
 20
-173.4041441792515
 30
0.0
 11
-392.7700221391358
 21
-173.4041441792515
 31
0.0
  0
LINE
  5
E0
330
1F
100
AcDbEntity
  8
仕上
  6
Continuous
 62
     3
370
     9
100
AcDbLine
 10
-362.7699814883079
 20
-206.2247363379292
 30
0.0
 11
-392.7700221391358
 21
-206.2247363379292
 31
0.0
  0
LINE
  5
E1
330
1F
100
AcDbEntity
  8
仕上
  6
Continuous
 62
     3
370
     9
100
AcDbLine
 10
-362.7699814883079
 20
-205.7247363379292
 30
0.0
 11
-392.7700221391358
 21
-205.7247363379292
 31
0.0
  0
LINE
  5
E2
330
1F
100
AcDbEntity
  8
仕上
  6
Continuous
 62
     3
370
     9
100
AcDbLine
 10
-362.7699814883079
 20
-190.1361949868196
 30
0.0
 11
-392.7700221391358
 21
-190.1361949868196
 31
0.0
  0
LINE
  5
E3
330
1F
100
AcDbEntity
  8
仕上
  6
Continuous
 62
     2
370
     9
100
AcDbLine
 10
-645.5200404025547
 20
-44.26999095504925
 30
0.0
 11
-645.5200404025547
 21
-38.26995654913208
 31
0.0
  0
LINE
  5
E4
330
1F
100
AcDbEntity
  8
仕上
  6
Continuous
 62
     2
370
     9
100
AcDbLine
 10
-626.5200404025547
 20
-38.26995654913208
 30
0.0
 11
-626.5200404025547
 21
-44.26999095504925
 31
0.0
  0
LINE
  5
E5
330
1F
100
AcDbEntity
  8
仕上
  6
Continuous
 62
     2
370
     9
100
AcDbLine
 10
-819.2700018137223
 20
-38.26995654913208
 30
0.0
 11
-819.2700018137223
 21
-44.26999095504925
 31
0.0
  0
LINE
  5
E6
330
1F
100
AcDbEntity
  8
仕上
  6
Continuous
 62
     2
370
     9
100
AcDbLine
 10
-433.0199632248885
 20
-44.26999095504925
 30
0.0
 11
-433.0199632248885
 21
-38.26995654913208
 31
0.0
  0
LINE
  5
E7
330
1F
100
AcDbEntity
  8
仕上
  6
Continuous
 62
     2
370
     9
100
AcDbLine
 10
-452.0199632248903
 20
-38.26995654913208
 30
0.0
 11
-452.0199632248903
 21
-44.26999095504925
 31
0.0
  0
LINE
  5
E8
330
1F
100
AcDbEntity
  8
仕上
  6
Continuous
 62
     2
370
     9
100
AcDbLine
 10
-259.2700018137228
 20
-38.26995654913208
 30
0.0
 11
-259.2700018137228
 21
-44.26999095504925
 31
0.0
  0
LINE
  5
E9
330
1F
100
AcDbEntity
  8
仕上
  6
JWW_DASHED1
 62
     2
370
     9
100
AcDbLine
 10
-259.2700018137228
 20
-38.26995654913208
 30
0.0
 11
-259.2700018137228
 21
-35.76987171262135
 31
0.0
  0
LINE
  5
EA
330
1F
100
AcDbEntity
  8
仕上
  6
JWW_DASHED1
 62
     2
370
     9
100
AcDbLine
 10
-259.2700018137228
 20
-35.76987171262135
 30
0.0
 11
-240.2700018137228
 21
-35.76987171262135
 31
0.0
  0
LINE
  5
EB
330
1F
100
AcDbEntity
  8
仕上
  6
JWW_DASHED1
 62
     2
370
     9
100
AcDbLine
 10
-452.0199632248903
 20
-38.26995654913208
 30
0.0
 11
-452.0199632248903
 21
-35.76987171262135
 31
0.0
  0
LINE
  5
EC
330
1F
100
AcDbEntity
  8
仕上
  6
JWW_DASHED1
 62
     2
370
     9
100
AcDbLine
 10
-452.0199632248903
 20
-35.76987171262135
 30
0.0
 11
-433.0199632248885
 21
-35.76987171262135
 31
0.0
  0
LINE
  5
ED
330
1F
100
AcDbEntity
  8
仕上
  6
JWW_DASHED1
 62
     2
370
     9
100
AcDbLine
 10
-433.0199632248885
 20
-38.26995654913208
 30
0.0
 11
-433.0199632248885
 21
-35.76987171262135
 31
0.0
  0
LINE
  5
EE
330
1F
100
AcDbEntity
  8
仕上
  6
JWW_DASHED1
 62
     2
370
     9
100
AcDbLine
 10
-645.5200404025547
 20
-38.26995654913208
 30
0.0
 11
-645.5200404025547
 21
-35.76987171262135
 31
0.0
  0
LINE
  5
EF
330
1F
100
AcDbEntity
  8
仕上
  6
JWW_DASHED1
 62
     2
370
     9
100
AcDbLine
 10
-626.5200404025547
 20
-35.76987171262135
 30
0.0
 11
-645.5200404025547
 21
-35.76987171262135
 31
0.0
  0
LINE
  5
F0
330
1F
100
AcDbEntity
  8
仕上
  6
JWW_DASHED1
 62
     2
370
     9
100
AcDbLine
 10
-626.5200404025547
 20
-38.26995654913208
 30
0.0
 11
-626.5200404025547
 21
-35.76987171262135
 31
0.0
  0
LINE
  5
F1
330
1F
100
AcDbEntity
  8
仕上
  6
JWW_DASHED1
 62
     2
370
     9
100
AcDbLine
 10
-819.2700018137223
 20
-38.26995654913208
 30
0.0
 11
-819.2700018137223
 21
-35.76987171262135
 31
0.0
  0
LINE
  5
F2
330
1F
100
AcDbEntity
  8
仕上
  6
JWW_DASHED1
 62
     2
370
     9
100
AcDbLine
 10
-819.2700018137223
 20
-35.76987171262135
 30
0.0
 11
-838.2700018137205
 21
-35.76987171262135
 31
0.0
  0
LINE
  5
F3
330
1F
100
AcDbEntity
  8
仕上
  6
JWW_DASHED1
 62
     2
370
     9
100
AcDbLine
 10
-645.5200404025547
 20
-44.26999095504925
 30
0.0
 11
-645.5200404025547
 21
-319.2703482110219
 31
0.0
  0
LINE
  5
F4
330
1F
100
AcDbEntity
  8
仕上
  6
JWW_DASHED1
 62
     2
370
     9
100
AcDbLine
 10
-626.5200404025547
 20
-319.2703482110219
 30
0.0
 11
-626.5200404025547
 21
-44.26999095504925
 31
0.0
  0
LINE
  5
F5
330
1F
100
AcDbEntity
  8
仕上
  6
JWW_DASHED1
 62
     2
370
     9
100
AcDbLine
 10
-819.2697835953643
 20
-44.26999095504925
 30
0.0
 11
-819.2697835953643
 21
-319.2703482110219
 31
0.0
  0
LINE
  5
F6
330
1F
100
AcDbEntity
  8
仕上
  6
JWW_DASHED1
 62
     2
370
     9
100
AcDbLine
 10
-433.0199632248885
 20
-44.26999095504925
 30
0.0
 11
-433.0199632248885
 21
-319.2703482110219
 31
0.0
  0
LINE
  5
F7
330
1F
100
AcDbEntity
  8
仕上
  6
JWW_DASHED1
 62
     2
370
     9
100
AcDbLine
 10
-452.0199632248903
 20
-319.2703482110219
 30
0.0
 11
-452.0199632248903
 21
-44.26999095504925
 31
0.0
  0
LINE
  5
F8
330
1F
100
AcDbEntity
  8
仕上
  6
JWW_DASHED1
 62
     2
370
     9
100
AcDbLine
 10
-259.270220032079
 20
-44.26999095504925
 30
0.0
 11
-259.270220032079
 21
-319.2703482110219
 31
0.0
  0
LINE
  5
F9
330
1F
100
AcDbEntity
  8
仕上
  6
Continuous
 62
     2
370
     9
100
AcDbLine
 10
-645.5200404025547
 20
-319.2703482110219
 30
0.0
 11
-645.5200404025547
 21
-325.2703826169391
 31
0.0
  0
LINE
  5
FA
330
1F
100
AcDbEntity
  8
仕上
  6
Continuous
 62
     2
370
     9
100
AcDbLine
 10
-626.5200404025547
 20
-325.2703826169391
 30
0.0
 11
-626.5200404025547
 21
-319.2703482110219
 31
0.0
  0
LINE
  5
FB
330
1F
100
AcDbEntity
  8
仕上
  6
Continuous
 62
     2
370
     9
100
AcDbLine
 10
-819.2700018137223
 20
-325.2703826169391
 30
0.0
 11
-819.2700018137223
 21
-319.2703482110219
 31
0.0
  0
LINE
  5
FC
330
1F
100
AcDbEntity
  8
仕上
  6
Continuous
 62
     2
370
     9
100
AcDbLine
 10
-433.0199632248885
 20
-319.2703482110219
 30
0.0
 11
-433.0199632248885
 21
-325.2703826169391
 31
0.0
  0
LINE
  5
FD
330
1F
100
AcDbEntity
  8
仕上
  6
Continuous
 62
     2
370
     9
100
AcDbLine
 10
-452.0199632248903
 20
-325.2703826169391
 30
0.0
 11
-452.0199632248903
 21
-319.2703482110219
 31
0.0
  0
LINE
  5
FE
330
1F
100
AcDbEntity
  8
仕上
  6
Continuous
 62
     2
370
     9
100
AcDbLine
 10
-259.2700018137228
 20
-325.2703826169391
 30
0.0
 11
-259.2700018137228
 21
-319.2703482110219
 31
0.0
  0
LINE
  5
FF
330
1F
100
AcDbEntity
  8
仕上
  6
JWW_DASHED1
 62
     2
370
     9
100
AcDbLine
 10
-259.2700018137228
 20
-325.2703826169391
 30
0.0
 11
-259.2700018137228
 21
-327.7704674534498
 31
0.0
  0
LINE
  5
100
330
1F
100
AcDbEntity
  8
仕上
  6
JWW_DASHED1
 62
     2
370
     9
100
AcDbLine
 10
-259.2700018137228
 20
-327.7704674534498
 30
0.0
 11
-240.2700018137228
 21
-327.7704674534498
 31
0.0
  0
LINE
  5
101
330
1F
100
AcDbEntity
  8
仕上
  6
JWW_DASHED1
 62
     2
370
     9
100
AcDbLine
 10
-452.0199632248903
 20
-325.2703826169391
 30
0.0
 11
-452.0199632248903
 21
-327.7704674534498
 31
0.0
  0
LINE
  5
102
330
1F
100
AcDbEntity
  8
仕上
  6
JWW_DASHED1
 62
     2
370
     9
100
AcDbLine
 10
-452.0199632248903
 20
-327.7704674534498
 30
0.0
 11
-433.0199632248885
 21
-327.7704674534498
 31
0.0
  0
LINE
  5
103
330
1F
100
AcDbEntity
  8
仕上
  6
JWW_DASHED1
 62
     2
370
     9
100
AcDbLine
 10
-433.0199632248885
 20
-325.2703826169391
 30
0.0
 11
-433.0199632248885
 21
-327.7704674534498
 31
0.0
  0
LINE
  5
104
330
1F
100
AcDbEntity
  8
仕上
  6
JWW_DASHED1
 62
     2
370
     9
100
AcDbLine
 10
-645.5200404025547
 20
-325.2703826169391
 30
0.0
 11
-645.5200404025547
 21
-327.7704674534498
 31
0.0
  0
LINE
  5
105
330
1F
100
AcDbEntity
  8
仕上
  6
JWW_DASHED1
 62
     2
370
     9
100
AcDbLine
 10
-626.5200404025547
 20
-327.7704674534498
 30
0.0
 11
-645.5200404025547
 21
-327.7704674534498
 31
0.0
  0
LINE
  5
106
330
1F
100
AcDbEntity
  8
仕上
  6
JWW_DASHED1
 62
     2
370
     9
100
AcDbLine
 10
-626.5200404025547
 20
-325.2703826169391
 30
0.0
 11
-626.5200404025547
 21
-327.7704674534498
 31
0.0
  0
LINE
  5
107
330
1F
100
AcDbEntity
  8
仕上
  6
JWW_DASHED1
 62
     2
370
     9
100
AcDbLine
 10
-819.2700018137223
 20
-325.2703826169391
 30
0.0
 11
-819.2700018137223
 21
-327.7704674534498
 31
0.0
  0
LINE
  5
108
330
1F
100
AcDbEntity
  8
仕上
  6
JWW_DASHED1
 62
     2
370
     9
100
AcDbLine
 10
-819.2700018137223
 20
-327.7704674534498
 30
0.0
 11
-838.2700018137205
 21
-327.7704674534498
 31
0.0
  0
LINE
  5
109
330
1F
100
AcDbEntity
  8
仕上
  6
Continuous
 62
     7
370
     9
100
AcDbLine
 10
-633.7699979842967
 20
-33.76987171262135
 30
0.0
 11
-633.7699979842967
 21
-31.26987171262135
 31
0.0
  0
LINE
  5
10A
330
1F
100
AcDbEntity
  8
仕上
  6
Continuous
 62
     7
370
     9
100
AcDbLine
 10
-638.2700828208056
 20
-33.76987171262135
 30
0.0
 11
-638.2700828208056
 21
-31.26987171262135
 31
0.0
  0
LINE
  5
10B
330
1F
100
AcDbEntity
  8
仕上
  6
Continuous
 62
     7
370
     9
100
AcDbLine
 10
-638.2700828208056
 20
-31.26987171262135
 30
0.0
 11
-633.7699979842967
 21
-31.26987171262135
 31
0.0
  0
LINE
  5
10C
330
1F
100
AcDbEntity
  8
仕上
  6
Continuous
 62
     7
370
     9
100
AcDbLine
 10
-633.7699979842967
 20
-44.26999095504925
 30
0.0
 11
-633.7699979842967
 21
-38.26995654913208
 31
0.0
  0
LINE
  5
10D
330
1F
100
AcDbEntity
  8
仕上
  6
Continuous
 62
     7
370
     9
100
AcDbLine
 10
-638.2700828208056
 20
-44.26999095504925
 30
0.0
 11
-638.2700828208056
 21
-38.26995654913208
 31
0.0
  0
LINE
  5
10E
330
1F
100
AcDbEntity
  8
仕上
  6
Continuous
 62
     7
370
     9
100
AcDbLine
 10
-444.7700042881195
 20
-44.26999095504925
 30
0.0
 11
-444.7700042881195
 21
-38.26995654913208
 31
0.0
  0
LINE
  5
10F
330
1F
100
AcDbEntity
  8
仕上
  6
Continuous
 62
     7
370
     9
100
AcDbLine
 10
-440.2699194516106
 20
-44.26999095504925
 30
0.0
 11
-440.2699194516106
 21
-38.26995654913208
 31
0.0
  0
LINE
  5
110
330
1F
100
AcDbEntity
  8
仕上
  6
Continuous
 62
     7
370
     9
100
AcDbLine
 10
-444.7700042881195
 20
-31.26987171262135
 30
0.0
 11
-440.2699194516088
 21
-31.26987171262135
 31
0.0
  0
LINE
  5
111
330
1F
100
AcDbEntity
  8
仕上
  6
Continuous
 62
     7
370
     9
100
AcDbLine
 10
-444.7700042881195
 20
-33.76987171262135
 30
0.0
 11
-444.7700042881195
 21
-31.26987171262135
 31
0.0
  0
LINE
  5
112
330
1F
100
AcDbEntity
  8
仕上
  6
Continuous
 62
     7
370
     9
100
AcDbLine
 10
-440.2699194516106
 20
-33.76987171262135
 30
0.0
 11
-440.2699194516106
 21
-31.26987171262135
 31
0.0
  0
LINE
  5
113
330
1F
100
AcDbEntity
  8
仕上
  6
Continuous
 62
     7
370
     9
100
AcDbLine
 10
-833.7699169772097
 20
-38.26995654913208
 30
0.0
 11
-833.7699169772097
 21
-44.26999095504925
 31
0.0
  0
LINE
  5
114
330
1F
100
AcDbEntity
  8
仕上
  6
Continuous
 62
     7
370
     9
100
AcDbLine
 10
-833.7699169772097
 20
-31.26987171262135
 30
0.0
 11
-833.7699169772097
 21
-33.76987171262135
 31
0.0
  0
LINE
  5
115
330
1F
100
AcDbEntity
  8
仕上
  6
Continuous
 62
     7
370
     9
100
AcDbLine
 10
-838.2700018137205
 20
-31.26987171262135
 30
0.0
 11
-833.7699169772097
 21
-31.26987171262135
 31
0.0
  0
LINE
  5
116
330
1F
100
AcDbEntity
  8
仕上
  6
Continuous
 62
     7
370
     9
100
AcDbLine
 10
-244.7700866502317
 20
-38.26995654913208
 30
0.0
 11
-244.7700866502317
 21
-44.26999095504925
 31
0.0
  0
LINE
  5
117
330
1F
100
AcDbEntity
  8
仕上
  6
Continuous
 62
     7
370
     9
100
AcDbLine
 10
-244.7700866502317
 20
-31.26987171262135
 30
0.0
 11
-244.7700866502317
 21
-33.76987171262135
 31
0.0
  0
LINE
  5
118
330
1F
100
AcDbEntity
  8
仕上
  6
Continuous
 62
     7
370
     9
100
AcDbLine
 10
-633.7699979842967
 20
-329.7704674534498
 30
0.0
 11
-633.7699979842967
 21
-332.2704674534498
 31
0.0
  0
LINE
  5
119
330
1F
100
AcDbEntity
  8
仕上
  6
Continuous
 62
     7
370
     9
100
AcDbLine
 10
-638.2700828208056
 20
-329.7704674534498
 30
0.0
 11
-638.2700828208056
 21
-332.2704674534498
 31
0.0
  0
LINE
  5
11A
330
1F
100
AcDbEntity
  8
仕上
  6
Continuous
 62
     7
370
     9
100
AcDbLine
 10
-638.2700828208056
 20
-332.2704674534498
 30
0.0
 11
-633.7699979842967
 21
-332.2704674534498
 31
0.0
  0
LINE
  5
11B
330
1F
100
AcDbEntity
  8
仕上
  6
Continuous
 62
     7
370
     9
100
AcDbLine
 10
-633.7699979842967
 20
-319.2703482110219
 30
0.0
 11
-633.7699979842967
 21
-325.2703826169391
 31
0.0
  0
LINE
  5
11C
330
1F
100
AcDbEntity
  8
仕上
  6
Continuous
 62
     7
370
     9
100
AcDbLine
 10
-638.2700828208056
 20
-319.2703482110219
 30
0.0
 11
-638.2700828208056
 21
-325.2703826169391
 31
0.0
  0
LINE
  5
11D
330
1F
100
AcDbEntity
  8
仕上
  6
Continuous
 62
     7
370
     9
100
AcDbLine
 10
-444.7700042881195
 20
-319.2703482110219
 30
0.0
 11
-444.7700042881195
 21
-325.2703826169391
 31
0.0
  0
LINE
  5
11E
330
1F
100
AcDbEntity
  8
仕上
  6
Continuous
 62
     7
370
     9
100
AcDbLine
 10
-440.2699194516106
 20
-319.2703482110219
 30
0.0
 11
-440.2699194516106
 21
-325.2703826169391
 31
0.0
  0
LINE
  5
11F
330
1F
100
AcDbEntity
  8
仕上
  6
Continuous
 62
     7
370
     9
100
AcDbLine
 10
-444.7700042881195
 20
-332.2704674534498
 30
0.0
 11
-440.2699194516088
 21
-332.2704674534498
 31
0.0
  0
LINE
  5
120
330
1F
100
AcDbEntity
  8
仕上
  6
Continuous
 62
     7
370
     9
100
AcDbLine
 10
-444.7700042881195
 20
-329.7704674534498
 30
0.0
 11
-444.7700042881195
 21
-332.2704674534498
 31
0.0
  0
LINE
  5
121
330
1F
100
AcDbEntity
  8
仕上
  6
Continuous
 62
     7
370
     9
100
AcDbLine
 10
-440.2699194516106
 20
-329.7704674534498
 30
0.0
 11
-440.2699194516106
 21
-332.2704674534498
 31
0.0
  0
LINE
  5
122
330
1F
100
AcDbEntity
  8
仕上
  6
Continuous
 62
     7
370
     9
100
AcDbLine
 10
-833.7699169772097
 20
-325.2703826169391
 30
0.0
 11
-833.7699169772097
 21
-319.2703482110219
 31
0.0
  0
LINE
  5
123
330
1F
100
AcDbEntity
  8
仕上
  6
Continuous
 62
     7
370
     9
100
AcDbLine
 10
-833.7699169772097
 20
-332.2704674534498
 30
0.0
 11
-833.7699169772097
 21
-329.7704674534498
 31
0.0
  0
LINE
  5
124
330
1F
100
AcDbEntity
  8
仕上
  6
Continuous
 62
     7
370
     9
100
AcDbLine
 10
-838.2700018137205
 20
-332.2704674534498
 30
0.0
 11
-833.7699169772097
 21
-332.2704674534498
 31
0.0
  0
LINE
  5
125
330
1F
100
AcDbEntity
  8
仕上
  6
Continuous
 62
     7
370
     9
100
AcDbLine
 10
-244.7700866502317
 20
-325.2703826169391
 30
0.0
 11
-244.7700866502317
 21
-319.2703482110219
 31
0.0
  0
LINE
  5
126
330
1F
100
AcDbEntity
  8
仕上
  6
Continuous
 62
     7
370
     9
100
AcDbLine
 10
-244.7700866502317
 20
-332.2704674534498
 30
0.0
 11
-244.7700866502317
 21
-329.7704674534498
 31
0.0
  0
LINE
  5
127
330
1F
100
AcDbEntity
  8
仕上
  6
Continuous
 62
     7
370
     9
100
AcDbLine
 10
-240.2700018137228
 20
-332.2704674534498
 30
0.0
 11
-244.7700866502317
 21
-332.2704674534498
 31
0.0
  0
CIRCLE
  5
128
330
1F
100
AcDbEntity
  8
仕上
  6
Continuous
 62
     7
370
     9
100
AcDbCircle
 10
-808.2700071454594
 20
-64.2699932527039
 30
0.0
 40
5.0
  0
LINE
  5
129
330
1F
100
AcDbEntity
  8
通り芯
  6
JWW_CENTER2
 62
     7
370
     9
100
AcDbLine
 10
-700.7700018137205
 20
-150.2483865765053
 30
0.0
 11
-700.7700018137205
 21
-211.2771942518693
 31
0.0
  0
LINE
  5
12A
330
1F
100
AcDbEntity
  8
通り芯
  6
JWW_CENTER2
 62
     7
370
     9
100
AcDbLine
 10
-377.7700018137228
 20
-150.2483865765053
 30
0.0
 11
-377.7700018137228
 21
-211.2771942518693
 31
0.0
  0
LINE
  5
12B
330
1F
100
AcDbEntity
  8
通り芯
  6
JWW_CENTER2
 62
     7
370
     9
100
AcDbLine
 10
-801.2700071454594
 20
-64.2699932527039
 30
0.0
 11
-815.2700071454594
 21
-64.2699932527039
 31
0.0
  0
LINE
  5
12C
330
1F
100
AcDbEntity
  8
通り芯
  6
JWW_CENTER2
 62
     7
370
     9
100
AcDbLine
 10
-808.2700071454594
 20
-57.2699932527039
 30
0.0
 11
-808.2700071454594
 21
-71.2699932527039
 31
0.0
  0
LINE
  5
12D
330
1F
100
AcDbEntity
  8
躯体
  6
JWW_DASHED3
 62
     2
370
     9
100
AcDbLine
 10
-240.2700018137228
 20
-81.77019020301987
 30
0.0
 11
-840.2700018137205
 21
-81.77019020301987
 31
0.0
  0
LINE
  5
12E
330
1F
100
AcDbEntity
  8
躯体
  6
Continuous
 62
     2
370
     9
100
AcDbLine
 10
88.54315101501216
 20
-281.7702108230037
 30
0.0
 11
-240.2700018137228
 21
-281.7702108230037
 31
0.0
  0
LINE
  5
12F
330
1F
100
AcDbEntity
  8
躯体
  6
JWW_DASHED3
 62
     2
370
     9
100
AcDbLine
 10
-240.2700018137228
 20
-281.7701902030208
 30
0.0
 11
-840.2700018137205
 21
-281.7701902030208
 31
0.0
  0
LINE
  5
130
330
1F
100
AcDbEntity
  8
躯体
  6
Continuous
 62
     2
370
     9
100
AcDbLine
 10
88.54315101501216
 20
-81.7701695830333
 30
0.0
 11
-240.2700018137228
 21
-81.7701695830333
 31
0.0
  0
LINE
  5
131
330
1F
100
AcDbEntity
  8
仕上
  6
JWW_CENTER1
 62
     3
370
     9
100
AcDbLine
 10
-238.2700018137228
 20
-332.2704674534498
 30
0.0
 11
88.04312008503139
 21
-332.2704674534498
 31
0.0
  0
LINE
  5
132
330
1F
100
AcDbEntity
  8
仕上
  6
JWW_CENTER1
 62
     3
370
     9
100
AcDbLine
 10
-238.2700018137228
 20
-31.26987171262135
 30
0.0
 11
88.04312008503139
 21
-31.26987171262135
 31
0.0
  0
LINE
  5
133
330
1F
100
AcDbEntity
  8
仕上
  6
JWW_CENTER1
 62
     3
370
     9
100
AcDbLine
 10
-238.2700018137228
 20
-31.26987171262135
 30
0.0
 11
-238.2700018137228
 21
-332.2704674534498
 31
0.0
  0
LINE
  5
134
330
1F
100
AcDbEntity
  8
仕上
  6
Continuous
 62
     7
370
     9
100
AcDbLine
 10
456.7435616633372
 20
-33.76987171262135
 30
0.0
 11
456.7435616633372
 21
-38.26981232706294
 31
0.0
  0
LINE
  5
135
330
1F
100
AcDbEntity
  8
仕上
  6
Continuous
 62
     7
370
     9
100
AcDbLine
 10
472.7436391944827
 20
-38.26981232706294
 30
0.0
 11
456.7435616633372
 21
-38.26981232706294
 31
0.0
  0
LINE
  5
136
330
1F
100
AcDbEntity
  8
仕上
  6
Continuous
 62
     7
370
     9
100
AcDbLine
 10
472.7436391944827
 20
-33.76987171262135
 30
0.0
 11
456.7435616633372
 21
-33.76987171262135
 31
0.0
  0
LINE
  5
137
330
1F
100
AcDbEntity
  8
仕上
  6
Continuous
 62
     7
370
     9
100
AcDbLine
 10
456.7435616633372
 20
-319.2703482110219
 30
0.0
 11
456.7435616633372
 21
-44.26999095504925
 31
0.0
  0
LINE
  5
138
330
1F
100
AcDbEntity
  8
仕上
  6
Continuous
 62
     7
370
     9
100
AcDbLine
 10
456.7435616633372
 20
-329.7704674534498
 30
0.0
 11
456.7435616633372
 21
-325.2705268390064
 31
0.0
  0
LINE
  5
139
330
1F
100
AcDbEntity
  8
仕上
  6
Continuous
 62
     7
370
     9
100
AcDbLine
 10
472.7436391944827
 20
-325.2705268390064
 30
0.0
 11
456.7435616633372
 21
-325.2705268390064
 31
0.0
  0
LINE
  5
13A
330
1F
100
AcDbEntity
  8
仕上
  6
Continuous
 62
     7
370
     9
100
AcDbLine
 10
472.7436391944827
 20
-329.7704674534498
 30
0.0
 11
456.7435616633372
 21
-329.7704674534498
 31
0.0
  0
LINE
  5
13B
330
1F
100
AcDbEntity
  8
仕上
  6
Continuous
 62
     7
370
     9
100
AcDbLine
 10
472.7436391944809
 20
-33.76987171262135
 30
0.0
 11
472.7436391944809
 21
-38.26981232706294
 31
0.0
  0
LINE
  5
13C
330
1F
100
AcDbEntity
  8
仕上
  6
Continuous
 62
     7
370
     9
100
AcDbLine
 10
472.7436391944827
 20
-329.7704674534498
 30
0.0
 11
472.7436391944827
 21
-325.2705268390064
 31
0.0
  0
LINE
  5
13D
330
1F
100
AcDbEntity
  8
仕上
  6
Continuous
 62
     7
370
     9
100
AcDbLine
 10
534.943776771024
 20
-44.26999095504925
 30
0.0
 11
456.7435616633372
 21
-44.26999095504925
 31
0.0
  0
LINE
  5
13E
330
1F
100
AcDbEntity
  8
仕上
  6
Continuous
 62
     7
370
     9
100
AcDbLine
 10
531.7437612647952
 20
-48.76993156949084
 30
0.0
 11
456.7435616633372
 21
-48.76993156949084
 31
0.0
  0
LINE
  5
13F
330
1F
100
AcDbEntity
  8
仕上
  6
Continuous
 62
     7
370
     9
100
AcDbLine
 10
534.943776771024
 20
-319.2703482110219
 30
0.0
 11
456.7435616633372
 21
-319.2703482110219
 31
0.0
  0
LINE
  5
140
330
1F
100
AcDbEntity
  8
仕上
  6
Continuous
 62
     7
370
     9
100
AcDbLine
 10
531.7437612647952
 20
-314.7704075965767
 30
0.0
 11
456.7435616633372
 21
-314.7704075965767
 31
0.0
  0
LINE
  5
141
330
1F
100
AcDbEntity
  8
仕上
  6
Continuous
 62
     7
370
     9
100
AcDbLine
 10
531.7437612647952
 20
-319.2703482110219
 30
0.0
 11
531.7437612647952
 21
-44.26999095504925
 31
0.0
  0
LINE
  5
142
330
1F
100
AcDbEntity
  8
仕上
  6
Continuous
 62
     2
370
     9
100
AcDbLine
 10
534.943776771024
 20
-35.76987171262135
 30
0.0
 11
534.943776771024
 21
-327.7704674534498
 31
0.0
  0
LINE
  5
143
330
1F
100
AcDbEntity
  8
仕上
  6
Continuous
 62
     2
370
     9
100
AcDbLine
 10
539.444829976688
 20
-35.76987171262135
 30
0.0
 11
534.943776771024
 21
-35.76987171262135
 31
0.0
  0
LINE
  5
144
330
1F
100
AcDbEntity
  8
仕上
  6
Continuous
 62
     2
370
     9
100
AcDbLine
 10
539.444829976688
 20
-327.7704674534498
 30
0.0
 11
534.943776771024
 21
-327.7704674534498
 31
0.0
  0
LINE
  5
145
330
1F
100
AcDbEntity
  8
仕上
  6
Continuous
 62
     2
370
     9
100
AcDbLine
 10
539.444829976688
 20
-35.76987171262135
 30
0.0
 11
539.444829976688
 21
-327.7704674534498
 31
0.0
  0
LINE
  5
146
330
1F
100
AcDbEntity
  8
仕上
  6
Continuous
 62
     3
370
     9
100
AcDbLine
 10
531.7437612647952
 20
-189.5381187754674
 30
0.0
 11
522.6097866685775
 21
-205.3586268511544
 31
0.0
  0
LINE
  5
147
330
1F
100
AcDbEntity
  8
仕上
  6
Continuous
 62
     3
370
     9
100
AcDbLine
 10
531.7437612647952
 20
-189.5381187754674
 30
0.0
 11
531.7437612647952
 21
-174.0022203906037
 31
0.0
  0
LINE
  5
148
330
1F
100
AcDbEntity
  8
仕上
  6
Continuous
 62
     3
370
     9
100
AcDbLine
 10
531.7437612647952
 20
-174.0022203906037
 30
0.0
 11
522.6097866685775
 21
-158.1817123149149
 31
0.0
  0
LINE
  5
149
330
1F
100
AcDbEntity
  8
仕上
  6
Continuous
 62
     3
370
     9
100
AcDbLine
 10
521.7437612647952
 20
-158.6817123149149
 30
0.0
 11
522.6097866685775
 21
-158.1817123149149
 31
0.0
  0
LINE
  5
14A
330
1F
100
AcDbEntity
  8
仕上
  6
Continuous
 62
     3
370
     9
100
AcDbLine
 10
521.7437612647952
 20
-204.8586268511563
 30
0.0
 11
522.6097866685775
 21
-205.3586268511544
 31
0.0
  0
LINE
  5
14B
330
1F
100
AcDbEntity
  8
仕上
  6
Continuous
 62
     3
370
     9
100
AcDbLine
 10
530.7437612647952
 20
-189.2701695830356
 30
0.0
 11
521.7437612647952
 21
-204.8586268511563
 31
0.0
  0
LINE
  5
14C
330
1F
100
AcDbEntity
  8
仕上
  6
Continuous
 62
     3
370
     9
100
AcDbLine
 10
530.7437612647952
 20
-189.2701695830356
 30
0.0
 11
530.7437612647952
 21
-174.2701695830356
 31
0.0
  0
LINE
  5
14D
330
1F
100
AcDbEntity
  8
仕上
  6
Continuous
 62
     3
370
     9
100
AcDbLine
 10
530.7437612647952
 20
-174.2701695830356
 30
0.0
 11
521.7437612647952
 21
-158.6817123149149
 31
0.0
  0
LINE
  5
14E
330
1F
100
AcDbEntity
  8
仕上
  6
Continuous
 62
     7
370
     9
100
AcDbLine
 10
478.9437388302519
 20
-37.26991837270089
 30
0.0
 11
478.9437388302519
 21
-44.26999095504925
 31
0.0
  0
LINE
  5
14F
330
1F
100
AcDbEntity
  8
仕上
  6
Continuous
 62
     7
370
     9
100
AcDbLine
 10
465.7435666121343
 20
-38.26981232706476
 30
0.0
 11
465.7435666121343
 21
-44.26999095504925
 31
0.0
  0
LINE
  5
150
330
1F
100
AcDbEntity
  8
仕上
  6
Continuous
 62
     7
370
     9
100
AcDbLine
 10
508.9437388302519
 20
-37.26991837270089
 30
0.0
 11
508.9437388302519
 21
-44.26999095504925
 31
0.0
  0
LINE
  5
151
330
1F
100
AcDbEntity
  8
仕上
  6
Continuous
 62
     7
370
     9
100
AcDbLine
 10
508.9437388302519
 20
-37.26991837270089
 30
0.0
 11
478.9437388302519
 21
-37.26991837270089
 31
0.0
  0
LINE
  5
152
330
1F
100
AcDbEntity
  8
仕上
  6
Continuous
 62
     7
370
     9
100
AcDbLine
 10
469.2435666121343
 20
-31.26987171262135
 30
0.0
 11
469.2435666121343
 21
-33.76987171262135
 31
0.0
  0
LINE
  5
153
330
1F
100
AcDbEntity
  8
仕上
  6
Continuous
 62
     7
370
     9
100
AcDbLine
 10
534.943776771024
 20
-31.26987171262135
 30
0.0
 11
469.2435666121343
 21
-31.26987171262135
 31
0.0
  0
LINE
  5
154
330
1F
100
AcDbEntity
  8
仕上
  6
Continuous
 62
     7
370
     9
100
AcDbLine
 10
534.943776771024
 20
-31.26987171262135
 30
0.0
 11
534.943776771024
 21
-35.76987171262135
 31
0.0
  0
LINE
  5
155
330
1F
100
AcDbEntity
  8
仕上
  6
Continuous
 62
     7
370
     9
100
AcDbLine
 10
478.9437388302519
 20
-326.2704207933684
 30
0.0
 11
478.9437388302519
 21
-319.2703482110219
 31
0.0
  0
LINE
  5
156
330
1F
100
AcDbEntity
  8
仕上
  6
Continuous
 62
     7
370
     9
100
AcDbLine
 10
465.7435666121343
 20
-325.2705268390064
 30
0.0
 11
465.7435666121343
 21
-319.2703482110219
 31
0.0
  0
LINE
  5
157
330
1F
100
AcDbEntity
  8
仕上
  6
Continuous
 62
     7
370
     9
100
AcDbLine
 10
508.9437388302519
 20
-326.2704207933684
 30
0.0
 11
508.9437388302519
 21
-319.2703482110219
 31
0.0
  0
LINE
  5
158
330
1F
100
AcDbEntity
  8
仕上
  6
Continuous
 62
     7
370
     9
100
AcDbLine
 10
508.9437388302519
 20
-326.2704207933684
 30
0.0
 11
478.9437388302519
 21
-326.2704207933684
 31
0.0
  0
LINE
  5
159
330
1F
100
AcDbEntity
  8
仕上
  6
Continuous
 62
     7
370
     9
100
AcDbLine
 10
469.2435666121343
 20
-332.2704674534498
 30
0.0
 11
469.2435666121343
 21
-329.7704674534498
 31
0.0
  0
LINE
  5
15A
330
1F
100
AcDbEntity
  8
仕上
  6
Continuous
 62
     7
370
     9
100
AcDbLine
 10
534.943776771024
 20
-332.2704674534498
 30
0.0
 11
469.2435666121343
 21
-332.2704674534498
 31
0.0
  0
LINE
  5
15B
330
1F
100
AcDbEntity
  8
仕上
  6
Continuous
 62
     7
370
     9
100
AcDbLine
 10
534.943776771024
 20
-332.2704674534498
 30
0.0
 11
534.943776771024
 21
-327.7704674534498
 31
0.0
  0
LINE
  5
15C
330
1F
100
AcDbEntity
  8
通り芯
  6
JWW_CENTER2
 62
     7
370
     9
100
AcDbLine
 10
449.6647122088504
 20
-181.7701695830356
 30
0.0
 11
554.8844587720412
 21
-181.7701695830356
 31
0.0
  0
LINE
  5
15D
330
1F
100
AcDbEntity
  8
その他
  6
Continuous
 62
     7
370
     9
100
AcDbLine
 10
-840.2700018137205
 20
108.8142434067481
 30
0.0
 11
88.54315926300633
 21
108.8142434067481
 31
0.0
  0
LWPOLYLINE
  5
15E
330
1F
100
AcDbEntity
  8
その他
  6
Continuous
 62
     7
370
     9
100
AcDbPolyline
 90
        4
 70
     1
 43
0.4
 10
-840.0700018137204
 20
108.8142434067481
 42
0.4142135623731
 10
-840.2700018137205
 20
109.0142434067481
 42
0.4142135623731
 10
-840.4700018137205
 20
108.8142434067481
 42
0.4142135623731
 10
-840.2700018137205
 20
108.6142434067481
 42
0.4142135623731
  0
LINE
  5
15F
330
1F
100
AcDbEntity
  8
その他
  6
Continuous
 62
     7
370
     9
100
AcDbLine
 10
-840.2700018137205
 20
110.0142434067484
 30
0.0
 11
-840.2700018137205
 21
-13.77042538867681
 31
0.0
  0
LINE
  5
160
330
1F
100
AcDbEntity
  8
その他
  6
Continuous
 62
     7
370
     9
100
AcDbLine
 10
-840.2700018137205
 20
72.24904915448633
 30
0.0
 11
-590.2700121237131
 21
72.24904915448633
 31
0.0
  0
LWPOLYLINE
  5
161
330
1F
100
AcDbEntity
  8
その他
  6
Continuous
 62
     7
370
     9
100
AcDbPolyline
 90
        4
 70
     1
 43
0.4
 10
-840.0700018137204
 20
72.24904915448633
 42
0.4142135623731
 10
-840.2700018137205
 20
72.44904915448633
 42
0.4142135623731
 10
-840.4700018137205
 20
72.24904915448633
 42
0.4142135623731
 10
-840.2700018137205
 20
72.04904915448633
 42
0.4142135623731
  0
LWPOLYLINE
  5
162
330
1F
100
AcDbEntity
  8
その他
  6
Continuous
 62
     7
370
     9
100
AcDbPolyline
 90
        4
 70
     1
 43
0.4
 10
-590.070012123713
 20
72.24904915448633
 42
0.4142135623731
 10
-590.2700121237131
 20
72.44904915448633
 42
0.4142135623731
 10
-590.4700121237131
 20
72.24904915448633
 42
0.4142135623731
 10
-590.2700121237131
 20
72.04904915448633
 42
0.4142135623731
  0
TEXT
  5
163
330
1F
100
AcDbEntity
  8
その他
  6
Continuous
 62
     2
370
   211
100
AcDbText
 10
-728.2700069687166
 20
76.90504915448642
 30
0.0
 40
12.192
  1
250
 41
1.083333333333333
  7
ＭＳ ゴシック
100
AcDbText
  0
LINE
  5
164
330
1F
100
AcDbEntity
  8
その他
  6
Continuous
 62
     7
370
     9
100
AcDbLine
 10
-590.2700121237131
 20
72.24904915448633
 30
0.0
 11
-90.27003274369808
 21
72.24904915448633
 31
0.0
  0
LWPOLYLINE
  5
165
330
1F
100
AcDbEntity
  8
その他
  6
Continuous
 62
     7
370
     9
100
AcDbPolyline
 90
        4
 70
     1
 43
0.4
 10
-90.07003274369808
 20
72.24904915448633
 42
0.4142135623731
 10
-90.27003274369808
 20
72.44904915448633
 42
0.4142135623731
 10
-90.47003274369808
 20
72.24904915448633
 42
0.4142135623731
 10
-90.27003274369808
 20
72.04904915448633
 42
0.4142135623731
  0
LINE
  5
166
330
1F
100
AcDbEntity
  8
その他
  6
Continuous
 62
     7
370
     9
100
AcDbLine
 10
-90.27003274369808
 20
73.44904915448615
 30
0.0
 11
-90.27003274369808
 21
22.04945821563069
 31
0.0
  0
TEXT
  5
167
330
1F
100
AcDbEntity
  8
その他
  6
Continuous
 62
     2
370
   211
100
AcDbText
 10
-353.2700224337053
 20
76.90504915448642
 30
0.0
 40
12.192
  1
500
 41
1.083333333333333
  7
ＭＳ ゴシック
100
AcDbText
  0
LINE
  5
168
330
1F
100
AcDbEntity
  8
その他
  6
Continuous
 62
     7
370
     9
100
AcDbLine
 10
-90.27003274369808
 20
72.24904915448633
 30
0.0
 11
88.54315926300633
 21
72.24904915448633
 31
0.0
  0
TEXT
  5
169
330
1F
100
AcDbEntity
  8
その他
  6
Continuous
 62
     2
370
   211
100
AcDbText
 10
-397.8634212753571
 20
113.4702434067482
 30
0.0
 40
12.192
  1
2000
 41
1.09375
  7
ＭＳ ゴシック
100
AcDbText
  0
LINE
  5
16A
330
1F
100
AcDbEntity
  8
その他
  6
Continuous
 62
     7
370
     9
100
AcDbLine
 10
-590.2700121237131
 20
73.44904915448615
 30
0.0
 11
-590.2700121237131
 21
29.4348004836429
 31
0.0
  0
LINE
  5
16B
330
1F
100
AcDbEntity
  8
その他
  6
Continuous
 62
     7
370
     9
100
AcDbLine
 10
-838.2700018137205
 20
-504.463827957929
 30
0.0
 11
-240.2700018137205
 21
-504.463827957929
 31
0.0
  0
LWPOLYLINE
  5
16C
330
1F
100
AcDbEntity
  8
その他
  6
Continuous
 62
     7
370
     9
100
AcDbPolyline
 90
        4
 70
     1
 43
0.4
 10
-838.0700018137204
 20
-504.463827957929
 42
0.4142135623731
 10
-838.2700018137205
 20
-504.263827957929
 42
0.4142135623731
 10
-838.4700018137205
 20
-504.463827957929
 42
0.4142135623731
 10
-838.2700018137205
 20
-504.663827957929
 42
0.4142135623731
  0
LWPOLYLINE
  5
16D
330
1F
100
AcDbEntity
  8
その他
  6
Continuous
 62
     7
370
     9
100
AcDbPolyline
 90
        4
 70
     1
 43
0.4
 10
-240.0700018137205
 20
-504.463827957929
 42
0.4142135623731
 10
-240.2700018137205
 20
-504.263827957929
 42
0.4142135623731
 10
-240.4700018137205
 20
-504.463827957929
 42
0.4142135623731
 10
-240.2700018137205
 20
-504.663827957929
 42
0.4142135623731
  0
TEXT
  5
16E
330
1F
100
AcDbEntity
  8
その他
  6
Continuous
 62
     2
370
   211
100
AcDbText
 10
-552.2700018137202
 20
-499.8078279579289
 30
0.0
 40
12.192
  1
598
 41
1.083333333333333
  7
ＭＳ ゴシック
100
AcDbText
  0
LINE
  5
16F
330
1F
100
AcDbEntity
  8
その他
  6
Continuous
 62
     7
370
     9
100
AcDbLine
 10
-240.2700018137205
 20
-504.463827957929
 30
0.0
 11
-238.2699708837429
 21
-504.463827957929
 31
0.0
  0
LWPOLYLINE
  5
170
330
1F
100
AcDbEntity
  8
その他
  6
Continuous
 62
     7
370
     9
100
AcDbPolyline
 90
        4
 70
     1
 43
0.4
 10
-238.0699708837429
 20
-504.463827957929
 42
0.4142135623731
 10
-238.2699708837429
 20
-504.263827957929
 42
0.4142135623731
 10
-238.4699708837429
 20
-504.463827957929
 42
0.4142135623731
 10
-238.2699708837429
 20
-504.663827957929
 42
0.4142135623731
  0
LINE
  5
171
330
1F
100
AcDbEntity
  8
その他
  6
Continuous
 62
     7
370
     9
100
AcDbLine
 10
-238.2699708837429
 20
-504.463827957929
 30
0.0
 11
88.0431510150117
 21
-504.463827957929
 31
0.0
  0
TEXT
  5
172
330
1F
100
AcDbEntity
  8
その他
  6
Continuous
 62
     2
370
   211
100
AcDbText
 10
57.85334275062787
 20
-499.8078279579289
 30
0.0
 40
12.192
  1
598
 41
1.083333333333333
  7
ＭＳ ゴシック
100
AcDbText
  0
LINE
  5
173
330
1F
100
AcDbEntity
  8
その他
  6
Continuous
 62
     7
370
     9
100
AcDbLine
 10
-238.2699708837429
 20
-505.6638279579288
 30
0.0
 11
-238.2699708837429
 21
-352.5127901718724
 31
0.0
  0
LINE
  5
174
330
1F
100
AcDbEntity
  8
その他
  6
Continuous
 62
     7
370
     9
100
AcDbLine
 10
-240.2700018137205
 20
-505.6638279579288
 30
0.0
 11
-240.2700018137205
 21
-352.5127901718724
 31
0.0
  0
LINE
  5
175
330
1F
100
AcDbEntity
  8
その他
  6
Continuous
 62
     7
370
     9
100
AcDbLine
 10
-838.2700018137205
 20
-505.6638279579288
 30
0.0
 11
-838.2700018137205
 21
-352.5127901718724
 31
0.0
  0
LINE
  5
176
330
1F
100
AcDbEntity
  8
その他
  6
Continuous
 62
     7
370
     9
100
AcDbLine
 10
-833.7699169772097
 20
-464.0700014544695
 30
0.0
 11
-244.7700866502312
 21
-464.0700014544695
 31
0.0
  0
LWPOLYLINE
  5
177
330
1F
100
AcDbEntity
  8
その他
  6
Continuous
 62
     7
370
     9
100
AcDbPolyline
 90
        4
 70
     1
 43
0.4
 10
-833.5699169772097
 20
-464.0700014544695
 42
0.4142135623731
 10
-833.7699169772097
 20
-463.8700014544696
 42
0.4142135623731
 10
-833.9699169772098
 20
-464.0700014544695
 42
0.4142135623731
 10
-833.7699169772097
 20
-464.2700014544695
 42
0.4142135623731
  0
LWPOLYLINE
  5
178
330
1F
100
AcDbEntity
  8
その他
  6
Continuous
 62
     7
370
     9
100
AcDbPolyline
 90
        4
 70
     1
 43
0.4
 10
-244.5700866502312
 20
-464.0700014544695
 42
0.4142135623731
 10
-244.7700866502312
 20
-463.8700014544696
 42
0.4142135623731
 10
-244.9700866502312
 20
-464.0700014544695
 42
0.4142135623731
 10
-244.7700866502312
 20
-464.2700014544695
 42
0.4142135623731
  0
TEXT
  5
179
330
1F
100
AcDbEntity
  8
その他
  6
Continuous
 62
     2
370
   211
100
AcDbText
 10
-552.2700018137202
 20
-459.4140014544695
 30
0.0
 40
12.192
  1
589
 41
1.083333333333333
  7
ＭＳ ゴシック
100
AcDbText
  0
LINE
  5
17A
330
1F
100
AcDbEntity
  8
その他
  6
Continuous
 62
     7
370
     9
100
AcDbLine
 10
-244.7700866502312
 20
-465.2700014544698
 30
0.0
 11
-244.7700866502312
 21
-352.5127901718724
 31
0.0
  0
LINE
  5
17B
330
1F
100
AcDbEntity
  8
その他
  6
Continuous
 62
     7
370
     9
100
AcDbLine
 10
-833.7699169772097
 20
-465.2700014544698
 30
0.0
 11
-833.7699169772097
 21
-352.5127901718724
 31
0.0
  0
TEXT
  5
17C
330
1F
100
AcDbEntity
  8
その他
  6
Continuous
 62
     2
370
   211
100
AcDbText
 10
-236.302210207937
 20
-499.8078279579289
 30
0.0
 40
12.192
  1
2
  7
ＭＳ ゴシック
100
AcDbText
  0
LINE
  5
17D
330
1F
100
AcDbEntity
  8
その他
  6
Continuous
 62
     7
370
     9
100
AcDbLine
 10
-810.7700071454594
 20
-68.60012027162611
 30
0.0
 11
-816.8576214355464
 21
-76.53365367453853
 31
0.0
  0
LINE
  5
17E
330
1F
100
AcDbEntity
  8
その他
  6
Continuous
 62
     7
370
     9
100
AcDbLine
 10
-810.7700071454594
 20
-68.60012027162611
 30
0.0
 11
-814.5968414691104
 21
-77.83891559673884
 31
0.0
  0
LINE
  5
17F
330
1F
100
AcDbEntity
  8
その他
  6
Continuous
 62
     7
370
     9
100
AcDbLine
 10
-859.5488647426603
 20
-153.0875799651444
 30
0.0
 11
-810.7700071454594
 21
-68.60012027162611
 31
0.0
  0
TEXT
  5
180
330
1F
100
AcDbEntity
  8
その他
  6
Continuous
 62
     2
370
     9
100
AcDbText
 10
-898.9183382608828
 20
-147.823647214638
 30
0.0
 40
12.192
  1
φ10
 41
1.09375
  7
ＭＳ ゴシック
100
AcDbText
  0
LINE
  5
181
330
1F
100
AcDbEntity
  8
その他
  6
Continuous
 62
     7
370
     9
100
AcDbLine
 10
-900.3654529175958
 20
-153.0875799651444
 30
0.0
 11
-859.5488647426603
 21
-153.0875799651444
 31
0.0
  0
TEXT
  5
182
330
1F
100
AcDbEntity
  8
その他
  6
Continuous
 62
     2
370
     9
100
AcDbText
 10
-162.8157060219081
 20
41.02274996935753
 30
0.0
 40
12.192
  1
φ16
 41
1.09375
  7
ＭＳ ゴシック
100
AcDbText
  0
LINE
  5
183
330
1F
100
AcDbEntity
  8
その他
  6
Continuous
 62
     7
370
     9
100
AcDbLine
 10
-95.92688672436252
 20
5.886653880050289
 30
0.0
 11
-126.2670192692974
 21
36.22678642498522
 31
0.0
  0
LINE
  5
184
330
1F
100
AcDbEntity
  8
その他
  6
Continuous
 62
     7
370
     9
100
AcDbLine
 10
-95.92688672436252
 20
5.886653880050289
 30
0.0
 11
-105.8438034780027
 21
13.49617174265904
 31
0.0
  0
LINE
  5
185
330
1F
100
AcDbEntity
  8
その他
  6
Continuous
 62
     7
370
     9
100
AcDbLine
 10
-95.92688672436252
 20
5.886653880050289
 30
0.0
 11
-103.5364045869717
 21
15.80357063369047
 31
0.0
  0
LINE
  5
186
330
1F
100
AcDbEntity
  8
その他
  6
Continuous
 62
     7
370
     9
100
AcDbLine
 10
-165.9635896785911
 20
36.22678642498522
 30
0.0
 11
-126.2670192692974
 21
36.22678642498522
 31
0.0
  0
LINE
  5
187
330
1F
100
AcDbEntity
  8
その他
  6
Continuous
 62
     7
370
     9
100
AcDbLine
 10
427.2330161206139
 20
-335.7702198957995
 30
0.0
 11
427.2330161206139
 21
-329.7704468334646
 31
0.0
  0
LWPOLYLINE
  5
188
330
1F
100
AcDbEntity
  8
その他
  6
Continuous
 62
     7
370
     9
100
AcDbPolyline
 90
        4
 70
     1
 43
0.4
 10
427.4330161206138
 20
-335.7702198957995
 42
0.4142135623731
 10
427.2330161206139
 20
-335.5702198957995
 42
0.4142135623731
 10
427.0330161206139
 20
-335.7702198957995
 42
0.4142135623731
 10
427.2330161206139
 20
-335.9702198957995
 42
0.4142135623731
  0
LWPOLYLINE
  5
189
330
1F
100
AcDbEntity
  8
その他
  6
Continuous
 62
     7
370
     9
100
AcDbPolyline
 90
        4
 70
     1
 43
0.4
 10
427.4330161206138
 20
-329.7704468334646
 42
0.4142135623731
 10
427.2330161206139
 20
-329.5704468334646
 42
0.4142135623731
 10
427.0330161206139
 20
-329.7704468334646
 42
0.4142135623731
 10
427.2330161206139
 20
-329.9704468334646
 42
0.4142135623731
  0
LINE
  5
18A
330
1F
100
AcDbEntity
  8
その他
  6
Continuous
 62
     7
370
     9
100
AcDbLine
 10
426.033016120614
 20
-335.7702198957995
 30
0.0
 11
448.7448738560167
 21
-335.7702198957995
 31
0.0
  0
LINE
  5
18B
330
1F
100
AcDbEntity
  8
その他
  6
Continuous
 62
     7
370
     9
100
AcDbLine
 10
426.033016120614
 20
-329.7704468334646
 30
0.0
 11
448.7435616633372
 21
-329.7704468334646
 31
0.0
  0
LINE
  5
18C
330
1F
100
AcDbEntity
  8
その他
  6
Continuous
 62
     7
370
     9
100
AcDbLine
 10
427.2330161206139
 20
-329.7704468334646
 30
0.0
 11
427.2330161206139
 21
-325.2705062190212
 31
0.0
  0
LWPOLYLINE
  5
18D
330
1F
100
AcDbEntity
  8
その他
  6
Continuous
 62
     7
370
     9
100
AcDbPolyline
 90
        4
 70
     1
 43
0.4
 10
427.4330161206138
 20
-325.2705062190212
 42
0.4142135623731
 10
427.2330161206139
 20
-325.0705062190212
 42
0.4142135623731
 10
427.0330161206139
 20
-325.2705062190212
 42
0.4142135623731
 10
427.2330161206139
 20
-325.4705062190212
 42
0.4142135623731
  0
LINE
  5
18E
330
1F
100
AcDbEntity
  8
その他
  6
Continuous
 62
     7
370
     9
100
AcDbLine
 10
426.033016120614
 20
-325.2705062190212
 30
0.0
 11
448.7435616633372
 21
-325.2705062190212
 31
0.0
  0
LINE
  5
18F
330
1F
100
AcDbEntity
  8
その他
  6
Continuous
 62
     7
370
     9
100
AcDbLine
 10
427.2330161206139
 20
-325.2705062190212
 30
0.0
 11
427.2330161206139
 21
-319.2703275910367
 31
0.0
  0
LWPOLYLINE
  5
190
330
1F
100
AcDbEntity
  8
その他
  6
Continuous
 62
     7
370
     9
100
AcDbPolyline
 90
        4
 70
     1
 43
0.4
 10
427.4330161206138
 20
-319.2703275910367
 42
0.4142135623731
 10
427.2330161206139
 20
-319.0703275910367
 42
0.4142135623731
 10
427.0330161206139
 20
-319.2703275910367
 42
0.4142135623731
 10
427.2330161206139
 20
-319.4703275910367
 42
0.4142135623731
  0
LINE
  5
191
330
1F
100
AcDbEntity
  8
その他
  6
Continuous
 62
     7
370
     9
100
AcDbLine
 10
426.033016120614
 20
-319.2703275910367
 30
0.0
 11
448.7435616633372
 21
-319.2703275910367
 31
0.0
  0
TEXT
  5
192
330
1F
100
AcDbEntity
  8
その他
  6
Continuous
 62
     2
370
   211
100
AcDbText
 10
422.5770161206137
 20
-313.1632543667756
 30
0.0
 40
12.192
  1
6
 50
90.0
 41
1.000000000000028
  7
ＭＳ ゴシック
100
AcDbText
  0
TEXT
  5
193
330
1F
100
AcDbEntity
  8
その他
  6
Continuous
 62
     2
370
   211
100
AcDbText
 10
422.5770161206137
 20
-349.8806572406447
 30
0.0
 40
12.192
  1
6
 50
90.0
  7
ＭＳ ゴシック
100
AcDbText
  0
LINE
  5
194
330
1F
100
AcDbEntity
  8
その他
  6
Continuous
 62
     7
370
     9
100
AcDbLine
 10
427.2330161206139
 20
-327.5204765262429
 30
0.0
 11
406.6263104260949
 21
-338.8036068001029
 31
0.0
  0
TEXT
  5
195
330
1F
100
AcDbEntity
  8
その他
  6
Continuous
 62
     2
370
   211
100
AcDbText
 10
401.9974170430901
 20
-366.2074859320287
 30
0.0
 40
12.192
  1
4.5
 50
90.0
 41
1.083333333333333
  7
ＭＳ ゴシック
100
AcDbText
  0
LINE
  5
196
330
1F
100
AcDbEntity
  8
その他
  6
Continuous
 62
     7
370
     9
100
AcDbLine
 10
406.6263104260949
 20
-338.8036068001029
 30
0.0
 11
406.6263104260949
 21
-367.6946244809023
 31
0.0
  0
LWPOLYLINE
  5
197
330
1F
100
AcDbEntity
  8
その他
  6
Continuous
 62
     7
370
     9
100
AcDbPolyline
 90
        4
 70
     1
 43
0.4
 10
351.9687620847793
 20
-314.7703869765915
 42
0.4142135623731
 10
351.7687620847793
 20
-314.5703869765915
 42
0.4142135623731
 10
351.5687620847793
 20
-314.7703869765915
 42
0.4142135623731
 10
351.7687620847793
 20
-314.9703869765914
 42
0.4142135623731
  0
LINE
  5
198
330
1F
100
AcDbEntity
  8
その他
  6
Continuous
 62
     7
370
     9
100
AcDbLine
 10
350.5687620847795
 20
-314.7703869765915
 30
0.0
 11
383.2720439723077
 21
-314.7703869765915
 31
0.0
  0
LWPOLYLINE
  5
199
330
1F
100
AcDbEntity
  8
その他
  6
Continuous
 62
     7
370
     9
100
AcDbPolyline
 90
        4
 70
     1
 43
0.4
 10
323.5642916217661
 20
-332.2704468334646
 42
0.4142135623731
 10
323.3642916217661
 20
-332.0704468334646
 42
0.4142135623731
 10
323.1642916217661
 20
-332.2704468334646
 42
0.4142135623731
 10
323.3642916217661
 20
-332.4704468334646
 42
0.4142135623731
  0
LINE
  5
19A
330
1F
100
AcDbEntity
  8
その他
  6
Continuous
 62
     7
370
     9
100
AcDbLine
 10
323.3642916217661
 20
-332.2704468334646
 30
0.0
 11
323.3642916217661
 21
-335.7702198957995
 31
0.0
  0
LWPOLYLINE
  5
19B
330
1F
100
AcDbEntity
  8
その他
  6
Continuous
 62
     7
370
     9
100
AcDbPolyline
 90
        4
 70
     1
 43
0.4
 10
323.5642916217661
 20
-335.7702198957995
 42
0.4142135623731
 10
323.3642916217661
 20
-335.5702198957995
 42
0.4142135623731
 10
323.1642916217661
 20
-335.7702198957995
 42
0.4142135623731
 10
323.3642916217661
 20
-335.9702198957995
 42
0.4142135623731
  0
LINE
  5
19C
330
1F
100
AcDbEntity
  8
その他
  6
Continuous
 62
     7
370
     9
100
AcDbLine
 10
323.3642916217661
 20
-335.7702198957995
 30
0.0
 11
323.3642916217661
 21
-341.7701407150562
 31
0.0
  0
LWPOLYLINE
  5
19D
330
1F
100
AcDbEntity
  8
その他
  6
Continuous
 62
     7
370
     9
100
AcDbPolyline
 90
        4
 70
     1
 43
0.4
 10
323.5642916217661
 20
-341.7701407150562
 42
0.4142135623731
 10
323.3642916217661
 20
-341.5701407150562
 42
0.4142135623731
 10
323.1642916217661
 20
-341.7701407150562
 42
0.4142135623731
 10
323.3642916217661
 20
-341.9701407150562
 42
0.4142135623731
  0
LINE
  5
19E
330
1F
100
AcDbEntity
  8
その他
  6
Continuous
 62
     7
370
     9
100
AcDbLine
 10
322.1642916217663
 20
-332.2704468334646
 30
0.0
 11
383.2720439723077
 21
-332.2704468334646
 31
0.0
  0
LINE
  5
19F
330
1F
100
AcDbEntity
  8
その他
  6
Continuous
 62
     7
370
     9
100
AcDbLine
 10
322.1642916217663
 20
-335.7702198957995
 30
0.0
 11
383.2720439723077
 21
-335.7702198957995
 31
0.0
  0
LWPOLYLINE
  5
1A0
330
1F
100
AcDbEntity
  8
その他
  6
Continuous
 62
     7
370
     9
100
AcDbPolyline
 90
        4
 70
     1
 43
0.4
 10
290.2657285563063
 20
-341.7701407150562
 42
0.4142135623731
 10
290.0657285563063
 20
-341.5701407150562
 42
0.4142135623731
 10
289.8657285563063
 20
-341.7701407150562
 42
0.4142135623731
 10
290.0657285563063
 20
-341.9701407150562
 42
0.4142135623731
  0
LINE
  5
1A1
330
1F
100
AcDbEntity
  8
その他
  6
Continuous
 62
     7
370
     9
100
AcDbLine
 10
288.8657285563065
 20
-341.7701407150562
 30
0.0
 11
383.2720439723077
 21
-341.7701407150562
 31
0.0
  0
TEXT
  5
1A2
330
1F
100
AcDbEntity
  8
その他
  6
Continuous
 62
     2
370
   211
100
AcDbText
 10
318.708291621766
 20
-354.8243412333122
 30
0.0
 40
12.192
  1
6
 50
90.0
  7
ＭＳ ゴシック
100
AcDbText
  0
TEXT
  5
1A3
330
1F
100
AcDbEntity
  8
その他
  6
Continuous
 62
     2
370
   211
100
AcDbText
 10
318.708291621766
 20
-334.4071240374042
 30
0.0
 40
12.192
  1
3.5
 50
90.0
 41
1.083333333333333
  7
ＭＳ ゴシック
100
AcDbText
  0
LINE
  5
1A4
330
1F
100
AcDbEntity
  8
その他
  6
Continuous
 62
     7
370
     9
100
AcDbLine
 10
323.3642916217661
 20
-341.7701407150562
 30
0.0
 11
323.3642916217661
 21
-365.0628116569023
 31
0.0
  0
LWPOLYLINE
  5
1A5
330
1F
100
AcDbEntity
  8
その他
  6
Continuous
 62
     7
370
     9
100
AcDbPolyline
 90
        4
 70
     1
 43
0.4
 10
351.9687620847793
 20
-48.76993156949084
 42
0.4142135623731
 10
351.7687620847793
 20
-48.56993156949083
 42
0.4142135623731
 10
351.5687620847793
 20
-48.76993156949084
 42
0.4142135623731
 10
351.7687620847793
 20
-48.96993156949084
 42
0.4142135623731
  0
LINE
  5
1A6
330
1F
100
AcDbEntity
  8
その他
  6
Continuous
 62
     7
370
     9
100
AcDbLine
 10
350.5687620847795
 20
-48.76993156949084
 30
0.0
 11
448.7435616633372
 21
-48.76993156949084
 31
0.0
  0
LINE
  5
1A7
330
1F
100
AcDbEntity
  8
その他
  6
Continuous
 62
     7
370
     9
100
AcDbLine
 10
323.3642916217661
 20
-21.77019843324888
 30
0.0
 11
323.3642916217661
 21
-27.77009865028595
 31
0.0
  0
LWPOLYLINE
  5
1A8
330
1F
100
AcDbEntity
  8
その他
  6
Continuous
 62
     7
370
     9
100
AcDbPolyline
 90
        4
 70
     1
 43
0.4
 10
323.5642916217661
 20
-21.77019843324888
 42
0.4142135623731
 10
323.3642916217661
 20
-21.57019843324888
 42
0.4142135623731
 10
323.1642916217661
 20
-21.77019843324888
 42
0.4142135623731
 10
323.3642916217661
 20
-21.97019843324888
 42
0.4142135623731
  0
LWPOLYLINE
  5
1A9
330
1F
100
AcDbEntity
  8
その他
  6
Continuous
 62
     7
370
     9
100
AcDbPolyline
 90
        4
 70
     1
 43
0.4
 10
323.5642916217661
 20
-27.77009865028595
 42
0.4142135623731
 10
323.3642916217661
 20
-27.57009865028595
 42
0.4142135623731
 10
323.1642916217661
 20
-27.77009865028595
 42
0.4142135623731
 10
323.3642916217661
 20
-27.97009865028594
 42
0.4142135623731
  0
LINE
  5
1AA
330
1F
100
AcDbEntity
  8
その他
  6
Continuous
 62
     7
370
     9
100
AcDbLine
 10
322.1642916217663
 20
-27.77009865028595
 30
0.0
 11
448.7448738560167
 21
-27.77009865028595
 31
0.0
  0
LINE
  5
1AB
330
1F
100
AcDbEntity
  8
その他
  6
Continuous
 62
     7
370
     9
100
AcDbLine
 10
323.3642916217661
 20
-27.77009865028595
 30
0.0
 11
323.3642916217661
 21
-31.26987171262135
 31
0.0
  0
LWPOLYLINE
  5
1AC
330
1F
100
AcDbEntity
  8
その他
  6
Continuous
 62
     7
370
     9
100
AcDbPolyline
 90
        4
 70
     1
 43
0.4
 10
323.5642916217661
 20
-31.26987171262135
 42
0.4142135623731
 10
323.3642916217661
 20
-31.06987171262135
 42
0.4142135623731
 10
323.1642916217661
 20
-31.26987171262135
 42
0.4142135623731
 10
323.3642916217661
 20
-31.46987171262135
 42
0.4142135623731
  0
LWPOLYLINE
  5
1AD
330
1F
100
AcDbEntity
  8
その他
  6
Continuous
 62
     7
370
     9
100
AcDbPolyline
 90
        4
 70
     1
 43
0.4
 10
290.2657285563063
 20
-21.77017783102929
 42
0.4142135623731
 10
290.0657285563063
 20
-21.57017783102929
 42
0.4142135623731
 10
289.8657285563063
 20
-21.77017783102929
 42
0.4142135623731
 10
290.0657285563063
 20
-21.97017783102929
 42
0.4142135623731
  0
LINE
  5
1AE
330
1F
100
AcDbEntity
  8
その他
  6
Continuous
 62
     7
370
     9
100
AcDbLine
 10
288.8657285563065
 20
-21.77017783102929
 30
0.0
 11
448.7448738560167
 21
-21.77017783102929
 31
0.0
  0
TEXT
  5
1AF
330
1F
100
AcDbEntity
  8
その他
  6
Continuous
 62
     2
370
   211
100
AcDbText
 10
318.708291621766
 20
-18.55338083502465
 30
0.0
 40
12.192
  1
6
 50
90.0
  7
ＭＳ ゴシック
100
AcDbText
  0
TEXT
  5
1B0
330
1F
100
AcDbEntity
  8
その他
  6
Continuous
 62
     2
370
   211
100
AcDbText
 10
318.708291621766
 20
-54.1497689847497
 30
0.0
 40
12.192
  1
3.5
 50
90.0
 41
1.083333333333333
  7
ＭＳ ゴシック
100
AcDbText
  0
LINE
  5
1B1
330
1F
100
AcDbEntity
  8
その他
  6
Continuous
 62
     7
370
     9
100
AcDbLine
 10
323.3642916217661
 20
-21.77019843324888
 30
0.0
 11
323.3642916217661
 21
-4.669985017706949
 31
0.0
  0
LINE
  5
1B2
330
1F
100
AcDbEntity
  8
その他
  6
Continuous
 62
     7
370
     9
100
AcDbLine
 10
322.1642916217663
 20
-31.26987171262135
 30
0.0
 11
448.7448738560167
 21
-31.26987171262135
 31
0.0
  0
LINE
  5
1B3
330
1F
100
AcDbEntity
  8
その他
  6
Continuous
 62
     7
370
     9
100
AcDbLine
 10
456.7435616633372
 20
-250.7555546658946
 30
0.0
 11
531.7437612647971
 21
-250.7555546658946
 31
0.0
  0
LWPOLYLINE
  5
1B4
330
1F
100
AcDbEntity
  8
その他
  6
Continuous
 62
     7
370
     9
100
AcDbPolyline
 90
        4
 70
     1
 43
0.4
 10
456.9435616633372
 20
-250.7555546658946
 42
0.4142135623731
 10
456.7435616633372
 20
-250.5555546658946
 42
0.4142135623731
 10
456.5435616633372
 20
-250.7555546658946
 42
0.4142135623731
 10
456.7435616633372
 20
-250.9555546658946
 42
0.4142135623731
  0
LWPOLYLINE
  5
1B5
330
1F
100
AcDbEntity
  8
その他
  6
Continuous
 62
     7
370
     9
100
AcDbPolyline
 90
        4
 70
     1
 43
0.4
 10
531.9437612647971
 20
-250.7555546658946
 42
0.4142135623731
 10
531.7437612647971
 20
-250.5555546658946
 42
0.4142135623731
 10
531.543761264797
 20
-250.7555546658946
 42
0.4142135623731
 10
531.7437612647971
 20
-250.9555546658946
 42
0.4142135623731
  0
TEXT
  5
1B6
330
1F
100
AcDbEntity
  8
その他
  6
Continuous
 62
     2
370
   211
100
AcDbText
 10
485.7436614640671
 20
-246.0995546658947
 30
0.0
 40
12.192
  1
75
 41
1.0625
  7
ＭＳ ゴシック
100
AcDbText
  0
LINE
  5
1B7
330
1F
100
AcDbEntity
  8
その他
  6
Continuous
 62
     7
370
     9
100
AcDbLine
 10
531.7437612647971
 20
-250.7555546658946
 30
0.0
 11
534.9437767710258
 21
-250.7555546658946
 31
0.0
  0
LWPOLYLINE
  5
1B8
330
1F
100
AcDbEntity
  8
その他
  6
Continuous
 62
     7
370
     9
100
AcDbPolyline
 90
        4
 70
     1
 43
0.4
 10
535.1437767710258
 20
-250.7555546658946
 42
0.4142135623731
 10
534.9437767710258
 20
-250.5555546658946
 42
0.4142135623731
 10
534.7437767710258
 20
-250.7555546658946
 42
0.4142135623731
 10
534.9437767710258
 20
-250.9555546658946
 42
0.4142135623731
  0
LINE
  5
1B9
330
1F
100
AcDbEntity
  8
その他
  6
Continuous
 62
     7
370
     9
100
AcDbLine
 10
534.9437767710258
 20
-250.7555546658946
 30
0.0
 11
539.444829976688
 21
-250.7555546658946
 31
0.0
  0
LWPOLYLINE
  5
1BA
330
1F
100
AcDbEntity
  8
その他
  6
Continuous
 62
     7
370
     9
100
AcDbPolyline
 90
        4
 70
     1
 43
0.4
 10
539.644829976688
 20
-250.7555546658946
 42
0.4142135623731
 10
539.444829976688
 20
-250.5555546658946
 42
0.4142135623731
 10
539.2448299766879
 20
-250.7555546658946
 42
0.4142135623731
 10
539.444829976688
 20
-250.9555546658946
 42
0.4142135623731
  0
TEXT
  5
1BB
330
1F
100
AcDbEntity
  8
その他
  6
Continuous
 62
     2
370
   211
100
AcDbText
 10
541.8754263861226
 20
-246.0995546658947
 30
0.0
 40
12.192
  1
4.5
 41
1.083333333333333
  7
ＭＳ ゴシック
100
AcDbText
  0
LINE
  5
1BC
330
1F
100
AcDbEntity
  8
その他
  6
Continuous
 62
     7
370
     9
100
AcDbLine
 10
539.444829976688
 20
-250.7555546658946
 30
0.0
 11
568.322870675069
 21
-250.7555546658946
 31
0.0
  0
TEXT
  5
1BD
330
1F
100
AcDbEntity
  8
その他
  6
Continuous
 62
     2
370
   211
100
AcDbText
 10
544.5955115377994
 20
-220.2220027765919
 30
0.0
 40
12.192
  1
3.2
 41
1.083333333333333
  7
ＭＳ ゴシック
100
AcDbText
  0
LINE
  5
1BE
330
1F
100
AcDbEntity
  8
その他
  6
Continuous
 62
     7
370
     9
100
AcDbLine
 10
533.3437690179114
 20
-250.7555546658946
 30
0.0
 11
543.1368970484357
 21
-225.5245727715765
 31
0.0
  0
LINE
  5
1BF
330
1F
100
AcDbEntity
  8
その他
  6
Continuous
 62
     7
370
     9
100
AcDbLine
 10
543.1368970484357
 20
-225.5245727715765
 30
0.0
 11
572.6884394370193
 21
-225.5245727715765
 31
0.0
  0
LINE
  5
1C0
330
1F
100
AcDbEntity
  8
その他
  6
Continuous
 62
     7
370
     9
100
AcDbLine
 10
456.7435616633372
 20
-229.3801956410794
 30
0.0
 11
521.7437612647971
 21
-229.3801956410794
 31
0.0
  0
LWPOLYLINE
  5
1C1
330
1F
100
AcDbEntity
  8
その他
  6
Continuous
 62
     7
370
     9
100
AcDbPolyline
 90
        4
 70
     1
 43
0.4
 10
456.9435616633372
 20
-229.3801956410794
 42
0.4142135623731
 10
456.7435616633372
 20
-229.1801956410794
 42
0.4142135623731
 10
456.5435616633372
 20
-229.3801956410794
 42
0.4142135623731
 10
456.7435616633372
 20
-229.5801956410793
 42
0.4142135623731
  0
LWPOLYLINE
  5
1C2
330
1F
100
AcDbEntity
  8
その他
  6
Continuous
 62
     7
370
     9
100
AcDbPolyline
 90
        4
 70
     1
 43
0.4
 10
521.9437612647971
 20
-229.3801956410794
 42
0.4142135623731
 10
521.7437612647971
 20
-229.1801956410794
 42
0.4142135623731
 10
521.543761264797
 20
-229.3801956410794
 42
0.4142135623731
 10
521.7437612647971
 20
-229.5801956410793
 42
0.4142135623731
  0
TEXT
  5
1C3
330
1F
100
AcDbEntity
  8
その他
  6
Continuous
 62
     2
370
   211
100
AcDbText
 10
480.7436614640671
 20
-224.7241956410793
 30
0.0
 40
12.192
  1
65
 41
1.0625
  7
ＭＳ ゴシック
100
AcDbText
  0
LINE
  5
1C4
330
1F
100
AcDbEntity
  8
その他
  6
Continuous
 62
     7
370
     9
100
AcDbLine
 10
521.7437612647971
 20
-230.5801956410794
 30
0.0
 11
521.7437612647971
 21
-212.8586268511563
 31
0.0
  0
LWPOLYLINE
  5
1C5
330
1F
100
AcDbEntity
  8
その他
  6
Continuous
 62
     7
370
     9
100
AcDbPolyline
 90
        4
 70
     1
 43
0.4
 10
665.7488909949561
 20
-363.7701390654574
 42
0.4142135623731
 10
665.5488909949561
 20
-363.5701390654575
 42
0.4142135623731
 10
665.348890994956
 20
-363.7701390654574
 42
0.4142135623731
 10
665.5488909949561
 20
-363.9701390654574
 42
0.4142135623731
  0
LINE
  5
1C6
330
1F
100
AcDbEntity
  8
その他
  6
Continuous
 62
     7
370
     9
100
AcDbLine
 10
666.7488909949559
 20
-363.7701390654574
 30
0.0
 11
570.4558674423758
 21
-363.7701390654574
 31
0.0
  0
LWPOLYLINE
  5
1C7
330
1F
100
AcDbEntity
  8
その他
  6
Continuous
 62
     7
370
     9
100
AcDbPolyline
 90
        4
 70
     1
 43
0.4
 10
627.4976935495065
 20
-281.7701902030208
 42
0.4142135623731
 10
627.2976935495064
 20
-281.5701902030208
 42
0.4142135623731
 10
627.0976935495064
 20
-281.7701902030208
 42
0.4142135623731
 10
627.2976935495064
 20
-281.9701902030208
 42
0.4142135623731
  0
LINE
  5
1C8
330
1F
100
AcDbEntity
  8
その他
  6
Continuous
 62
     7
370
     9
100
AcDbLine
 10
628.4976935495063
 20
-281.7701902030208
 30
0.0
 11
559.4447953351125
 21
-281.7701902030208
 31
0.0
  0
LINE
  5
1C9
330
1F
100
AcDbEntity
  8
その他
  6
Continuous
 62
     7
370
     9
100
AcDbLine
 10
627.2976935495064
 20
-281.7701902030208
 30
0.0
 11
627.2976935495064
 21
-341.7701407150562
 31
0.0
  0
LWPOLYLINE
  5
1CA
330
1F
100
AcDbEntity
  8
その他
  6
Continuous
 62
     7
370
     9
100
AcDbPolyline
 90
        4
 70
     1
 43
0.4
 10
627.4976935495065
 20
-341.7701407150562
 42
0.4142135623731
 10
627.2976935495064
 20
-341.5701407150562
 42
0.4142135623731
 10
627.0976935495064
 20
-341.7701407150562
 42
0.4142135623731
 10
627.2976935495064
 20
-341.9701407150562
 42
0.4142135623731
  0
TEXT
  5
1CB
330
1F
100
AcDbEntity
  8
その他
  6
Continuous
 62
     2
370
   211
100
AcDbText
 10
622.6416935495064
 20
-320.2701654590383
 30
0.0
 40
12.192
  1
60
 50
90.0
 41
1.0625
  7
ＭＳ ゴシック
100
AcDbText
  0
LINE
  5
1CC
330
1F
100
AcDbEntity
  8
その他
  6
Continuous
 62
     7
370
     9
100
AcDbLine
 10
628.4976935495063
 20
-341.7701407150562
 30
0.0
 11
559.4447953351125
 21
-341.7701407150562
 31
0.0
  0
LWPOLYLINE
  5
1CD
330
1F
100
AcDbEntity
  8
その他
  6
Continuous
 62
     7
370
     9
100
AcDbPolyline
 90
        4
 70
     1
 43
0.4
 10
665.7488909949561
 20
0.2297998993863075
 42
0.4142135623731
 10
665.5488909949561
 20
0.4297998993863075
 42
0.4142135623731
 10
665.348890994956
 20
0.2297998993863075
 42
0.4142135623731
 10
665.5488909949561
 20
0.0297998993863075
 42
0.4142135623731
  0
LINE
  5
1CE
330
1F
100
AcDbEntity
  8
その他
  6
Continuous
 62
     7
370
     9
100
AcDbLine
 10
666.7488909949559
 20
0.2297998993863075
 30
0.0
 11
570.4558674423758
 21
0.2297998993863075
 31
0.0
  0
LINE
  5
1CF
330
1F
100
AcDbEntity
  8
その他
  6
Continuous
 62
     7
370
     9
100
AcDbLine
 10
627.2976935495064
 20
-21.77019845101472
 30
0.0
 11
627.2976935495064
 21
-81.77014896305036
 31
0.0
  0
LWPOLYLINE
  5
1D0
330
1F
100
AcDbEntity
  8
その他
  6
Continuous
 62
     7
370
     9
100
AcDbPolyline
 90
        4
 70
     1
 43
0.4
 10
627.4976935495065
 20
-21.77019845101472
 42
0.4142135623731
 10
627.2976935495064
 20
-21.57019845101472
 42
0.4142135623731
 10
627.0976935495064
 20
-21.77019845101472
 42
0.4142135623731
 10
627.2976935495064
 20
-21.97019845101472
 42
0.4142135623731
  0
LWPOLYLINE
  5
1D1
330
1F
100
AcDbEntity
  8
その他
  6
Continuous
 62
     7
370
     9
100
AcDbPolyline
 90
        4
 70
     1
 43
0.4
 10
627.4976935495065
 20
-81.77014896305036
 42
0.4142135623731
 10
627.2976935495064
 20
-81.57014896305036
 42
0.4142135623731
 10
627.0976935495064
 20
-81.77014896305036
 42
0.4142135623731
 10
627.2976935495064
 20
-81.97014896305036
 42
0.4142135623731
  0
LINE
  5
1D2
330
1F
100
AcDbEntity
  8
その他
  6
Continuous
 62
     7
370
     9
100
AcDbLine
 10
628.4976935495063
 20
-81.77014896305036
 30
0.0
 11
559.4447953351125
 21
-81.77014896305036
 31
0.0
  0
TEXT
  5
1D3
330
1F
100
AcDbEntity
  8
その他
  6
Continuous
 62
     2
370
   211
100
AcDbText
 10
622.6416935495064
 20
-60.27017370703243
 30
0.0
 40
12.192
  1
60
 50
90.0
 41
1.0625
  7
ＭＳ ゴシック
100
AcDbText
  0
LINE
  5
1D4
330
1F
100
AcDbEntity
  8
その他
  6
Continuous
 62
     7
370
     9
100
AcDbLine
 10
628.4976935495063
 20
-21.77019845101472
 30
0.0
 11
559.4447953351125
 21
-21.77019845101472
 31
0.0
  0
LINE
  5
1D5
330
1F
100
AcDbEntity
  8
その他
  6
Continuous
 62
     7
370
     9
100
AcDbLine
 10
456.7448738560167
 20
65.76356602396959
 30
0.0
 11
539.444829976688
 21
65.76356602396959
 31
0.0
  0
LWPOLYLINE
  5
1D6
330
1F
100
AcDbEntity
  8
その他
  6
Continuous
 62
     7
370
     9
100
AcDbPolyline
 90
        4
 70
     1
 43
0.4
 10
456.9448738560167
 20
65.76356602396959
 42
0.4142135623731
 10
456.7448738560167
 20
65.96356602396959
 42
0.4142135623731
 10
456.5448738560167
 20
65.76356602396959
 42
0.4142135623731
 10
456.7448738560167
 20
65.56356602396959
 42
0.4142135623731
  0
LWPOLYLINE
  5
1D7
330
1F
100
AcDbEntity
  8
その他
  6
Continuous
 62
     7
370
     9
100
AcDbPolyline
 90
        4
 70
     1
 43
0.4
 10
539.644829976688
 20
65.76356602396959
 42
0.4142135623731
 10
539.444829976688
 20
65.96356602396959
 42
0.4142135623731
 10
539.2448299766879
 20
65.76356602396959
 42
0.4142135623731
 10
539.444829976688
 20
65.56356602396959
 42
0.4142135623731
  0
TEXT
  5
1D8
330
1F
100
AcDbEntity
  8
その他
  6
Continuous
 62
     2
370
   211
100
AcDbText
 10
480.5948519163523
 20
70.41956602396945
 30
0.0
 40
12.192
  1
82.7
 41
1.093750000000002
  7
ＭＳ ゴシック
100
AcDbText
  0
LINE
  5
1D9
330
1F
100
AcDbEntity
  8
その他
  6
Continuous
 62
     7
370
     9
100
AcDbLine
 10
456.7448738560167
 20
97.54940955776419
 30
0.0
 11
545.4447507959455
 21
97.54940955776419
 31
0.0
  0
LWPOLYLINE
  5
1DA
330
1F
100
AcDbEntity
  8
その他
  6
Continuous
 62
     7
370
     9
100
AcDbPolyline
 90
        4
 70
     1
 43
0.4
 10
456.9448738560167
 20
97.54940955776419
 42
0.4142135623731
 10
456.7448738560167
 20
97.7494095577642
 42
0.4142135623731
 10
456.5448738560167
 20
97.54940955776419
 42
0.4142135623731
 10
456.7448738560167
 20
97.34940955776419
 42
0.4142135623731
  0
LWPOLYLINE
  5
1DB
330
1F
100
AcDbEntity
  8
その他
  6
Continuous
 62
     7
370
     9
100
AcDbPolyline
 90
        4
 70
     1
 43
0.4
 10
545.6447507959456
 20
97.54940955776419
 42
0.4142135623731
 10
545.4447507959455
 20
97.7494095577642
 42
0.4142135623731
 10
545.2447507959455
 20
97.54940955776419
 42
0.4142135623731
 10
545.4447507959455
 20
97.34940955776419
 42
0.4142135623731
  0
LINE
  5
1DC
330
1F
100
AcDbEntity
  8
その他
  6
Continuous
 62
     7
370
     9
100
AcDbLine
 10
456.7448738560167
 20
98.74940955776424
 30
0.0
 11
456.7448738560167
 21
-13.77019845101495
 31
0.0
  0
LINE
  5
1DD
330
1F
100
AcDbEntity
  8
その他
  6
Continuous
 62
     7
370
     9
100
AcDbLine
 10
545.4447507959455
 20
98.74940955776424
 30
0.0
 11
545.4447507959455
 21
26.22980979697923
 31
0.0
  0
TEXT
  5
1DE
330
1F
100
AcDbEntity
  8
その他
  6
Continuous
 62
     2
370
   211
100
AcDbText
 10
483.5948123259811
 20
102.2054095577643
 30
0.0
 40
12.192
  1
88.7
 41
1.093750000000002
  7
ＭＳ ゴシック
100
AcDbText
  0
LINE
  5
1DF
330
1F
100
AcDbEntity
  8
その他
  6
Continuous
 62
     7
370
     9
100
AcDbLine
 10
545.4447507959455
 20
97.54940955776419
 30
0.0
 11
551.4447953351134
 21
97.54940955776419
 31
0.0
  0
LWPOLYLINE
  5
1E0
330
1F
100
AcDbEntity
  8
その他
  6
Continuous
 62
     7
370
     9
100
AcDbPolyline
 90
        4
 70
     1
 43
0.4
 10
551.6447953351135
 20
97.54940955776419
 42
0.4142135623731
 10
551.4447953351134
 20
97.7494095577642
 42
0.4142135623731
 10
551.2447953351134
 20
97.54940955776419
 42
0.4142135623731
 10
551.4447953351134
 20
97.34940955776419
 42
0.4142135623731
  0
LINE
  5
1E1
330
1F
100
AcDbEntity
  8
その他
  6
Continuous
 62
     7
370
     9
100
AcDbLine
 10
551.4447953351134
 20
98.74940955776424
 30
0.0
 11
551.4447953351134
 21
26.22980979697923
 31
0.0
  0
TEXT
  5
1E2
330
1F
100
AcDbEntity
  8
その他
  6
Continuous
 62
     2
370
   211
100
AcDbText
 10
544.4447730655295
 20
102.2054095577643
 30
0.0
 40
12.192
  1
6
  7
ＭＳ ゴシック
100
AcDbText
  0
LINE
  5
1E3
330
1F
100
AcDbEntity
  8
その他
  6
Continuous
 62
     7
370
     9
100
AcDbLine
 10
539.444829976688
 20
66.96356602396963
 30
0.0
 11
539.444829976688
 21
-13.77019845101495
 31
0.0
  0
LINE
  5
1E4
330
1F
100
AcDbEntity
  8
寸法
  6
Continuous
 62
     7
370
     9
100
AcDbLine
 10
551.4447953351125
 20
18.22980979697923
 30
0.0
 11
557.5324096251995
 21
26.16334319989164
 31
0.0
  0
LINE
  5
1E5
330
1F
100
AcDbEntity
  8
寸法
  6
Continuous
 62
     7
370
     9
100
AcDbLine
 10
551.4447953351125
 20
18.22980979697923
 30
0.0
 11
555.271629658763
 21
27.46860512209241
 31
0.0
  0
LINE
  5
1E6
330
1F
100
AcDbEntity
  8
寸法
  6
Continuous
 62
     7
370
     9
100
AcDbLine
 10
499.8241959267786
 20
-21.77019845101495
 30
0.0
 11
495.9973616031277
 21
-12.53140312590199
 31
0.0
  0
LINE
  5
1E7
330
1F
100
AcDbEntity
  8
寸法
  6
Continuous
 62
     7
370
     9
100
AcDbLine
 10
499.8241959267786
 20
-21.77019845101495
 30
0.0
 11
493.7365816366911
 21
-13.83666504810253
 31
0.0
  0
LINE
  5
1E8
330
1F
100
AcDbEntity
  8
寸法
  6
Continuous
 62
     7
370
     9
100
AcDbLine
 10
395.5786570940874
 20
158.7883712696
 30
0.0
 11
499.8241959267786
 21
-21.77019845101495
 31
0.0
  0
LINE
  5
1E9
330
1F
100
AcDbEntity
  8
寸法
  6
Continuous
 62
     7
370
     9
100
AcDbLine
 10
584.6734781309322
 20
75.78357666792931
 30
0.0
 11
551.4447953351125
 21
18.22980979697923
 31
0.0
  0
TEXT
  5
1EA
330
1F
100
AcDbEntity
  8
寸法
  6
Continuous
 62
     7
370
     0
100
AcDbText
 10
584.2041572363007
 20
60.86379109470862
 30
0.0
 40
9.144
  1
ＳＳ４００（溶融亜鉛めっき）
 41
1.154761904761905
  7
ＭＳ ゴシック
100
AcDbText
  0
LINE
  5
1EB
330
1F
100
AcDbEntity
  8
寸法
  6
Continuous
 62
     7
370
     9
100
AcDbLine
 10
584.6734781309322
 20
75.78357666792931
 30
0.0
 11
770.2251258366202
 21
75.78357666792931
 31
0.0
  0
LINE
  5
1EC
330
1F
100
AcDbEntity
  8
寸法
  6
Continuous
 62
     7
370
     9
100
AcDbLine
 10
203.8210358123808
 20
158.7883712696
 30
0.0
 11
395.5786570940874
 21
158.7883712696
 31
0.0
  0
TEXT
  5
1ED
330
1F
100
AcDbEntity
  8
寸法
  6
Continuous
 62
     7
370
     0
100
AcDbText
 10
204.6771860349519
 20
142.8928633515256
 30
0.0
 40
9.144
  1
ＳＰＨＣ（溶融亜鉛めっき）
 41
1.153846153846154
  7
ＭＳ ゴシック
100
AcDbText
  0
TEXT
  5
1EE
330
1F
100
AcDbEntity
  8
寸法
  6
Continuous
 62
     7
370
     0
100
AcDbText
 10
206.1172858026886
 20
167.3736933636667
 30
0.0
 40
9.144
  1
受枠：Ｌ－８３Ｚ，ｔ＝６.０
 41
1.154320987654321
  7
ＭＳ ゴシック
100
AcDbText
  0
TEXT
  5
1EF
330
1F
100
AcDbEntity
  8
寸法
  6
Continuous
 62
     7
370
     0
100
AcDbText
 10
586.2609164843923
 20
82.4447580273154
 30
0.0
 40
9.144
  1
アンカー：ｔ＝６.０
 41
1.149122807017544
  7
ＭＳ ゴシック
100
AcDbText
  0
LINE
  5
1F0
330
1F
100
AcDbEntity
  8
寸法
  6
Continuous
 62
     7
370
     9
100
AcDbLine
 10
456.7435616633363
 20
-156.7703965206993
 30
0.0
 11
452.9167273396858
 21
-147.5316011955861
 31
0.0
  0
LINE
  5
1F1
330
1F
100
AcDbEntity
  8
寸法
  6
Continuous
 62
     7
370
     9
100
AcDbLine
 10
456.7435616633363
 20
-156.7703965206993
 30
0.0
 11
450.6559473732493
 21
-148.8368631177868
 31
0.0
  0
LINE
  5
1F2
330
1F
100
AcDbEntity
  8
寸法
  6
Continuous
 62
     7
370
     9
100
AcDbLine
 10
340.8376420049414
 20
43.98454522563861
 30
0.0
 11
456.7435616633363
 21
-156.7703965206993
 31
0.0
  0
LINE
  5
1F3
330
1F
100
AcDbEntity
  8
寸法
  6
Continuous
 62
     7
370
     9
100
AcDbLine
 10
521.7437612647961
 20
-158.6817123149149
 30
0.0
 11
517.9169269411457
 21
-149.4429169898017
 31
0.0
  0
LINE
  5
1F4
330
1F
100
AcDbEntity
  8
寸法
  6
Continuous
 62
     7
370
     9
100
AcDbLine
 10
521.7437612647961
 20
-158.6817123149149
 30
0.0
 11
515.6561469747091
 21
-150.7481789120025
 31
0.0
  0
TEXT
  5
1F5
330
1F
100
AcDbEntity
  8
寸法
  6
Continuous
 62
     7
370
     0
100
AcDbText
 10
251.5895055484304
 20
83.0574601854878
 30
0.0
 40
9.144
  1
ＳＵＳ４３０
 41
1.138888888888889
  7
ＭＳ ゴシック
100
AcDbText
  0
TEXT
  5
1F6
330
1F
100
AcDbEntity
  8
寸法
  6
Continuous
 62
     7
370
     0
100
AcDbText
 10
212.383031840003
 20
107.0775662720066
 30
0.0
 40
9.144
  1
モルタル止め：ｔ＝１.０
 41
1.152173913043478
  7
ＭＳ ゴシック
100
AcDbText
  0
LINE
  5
1F7
330
1F
100
AcDbEntity
  8
寸法
  6
Continuous
 62
     7
370
     9
100
AcDbLine
 10
372.3333388178464
 20
100.1047305435327
 30
0.0
 11
521.7437612647961
 21
-158.6817123149149
 31
0.0
  0
LINE
  5
1F8
330
1F
100
AcDbEntity
  8
寸法
  6
Continuous
 62
     7
370
     9
100
AcDbLine
 10
205.6853761188019
 20
100.1047305435327
 30
0.0
 11
372.3333388178464
 21
100.1047305435327
 31
0.0
  0
TEXT
  5
1F9
330
1F
100
AcDbEntity
  8
寸法
  6
Continuous
 62
     7
370
     0
100
AcDbText
 10
232.457993589229
 20
49.6305489305696
 30
0.0
 40
9.144
  1
蓋：ＳＳ４００
 41
1.142857142857143
  7
ＭＳ ゴシック
100
AcDbText
  0
TEXT
  5
1FA
330
1F
100
AcDbEntity
  8
寸法
  6
Continuous
 62
     7
370
     0
100
AcDbText
 10
219.2913828410139
 20
28.21721113568923
 30
0.0
 40
9.144
  1
（溶融亜鉛めっき）
 41
1.148148148148148
  7
ＭＳ ゴシック
100
AcDbText
  0
LINE
  5
1FB
330
1F
100
AcDbEntity
  8
寸法
  6
Continuous
 62
     7
370
     9
100
AcDbLine
 10
225.6487169538124
 20
43.98454522563861
 30
0.0
 11
340.8376420049414
 21
43.98454522563861
 31
0.0
  0
LINE
  5
1FC
330
1F
100
AcDbEntity
  8
その他
  6
Continuous
 62
     7
370
     9
100
AcDbLine
 10
290.0657285563063
 20
-21.77017783102929
 30
0.0
 11
290.0657285563063
 21
-341.7701407150562
 31
0.0
  0
TEXT
  5
1FD
330
1F
100
AcDbEntity
  8
その他
  6
Continuous
 62
     2
370
   211
100
AcDbText
 10
285.4097285563062
 20
-194.7701592730427
 30
0.0
 40
12.192
  1
320
 50
90.0
 41
1.083333333333333
  7
ＭＳ ゴシック
100
AcDbText
  0
LINE
  5
1FE
330
1F
100
AcDbEntity
  8
その他
  6
Continuous
 62
     7
370
     9
100
AcDbLine
 10
323.3642916217661
 20
-31.26987171262135
 30
0.0
 11
323.3642916217661
 21
-332.2704468334646
 31
0.0
  0
TEXT
  5
1FF
330
1F
100
AcDbEntity
  8
その他
  6
Continuous
 62
     2
370
   211
100
AcDbText
 10
318.708291621766
 20
-194.770159273043
 30
0.0
 40
12.192
  1
301
 50
90.0
 41
1.083333333333333
  7
ＭＳ ゴシック
100
AcDbText
  0
LINE
  5
200
330
1F
100
AcDbEntity
  8
その他
  6
Continuous
 62
     7
370
     9
100
AcDbLine
 10
351.7687620847793
 20
-314.7703869765915
 30
0.0
 11
351.7687620847793
 21
-48.76993156949084
 31
0.0
  0
TEXT
  5
201
330
1F
100
AcDbEntity
  8
その他
  6
Continuous
 62
     2
370
   211
100
AcDbText
 10
347.1127620847792
 20
-194.7701592730411
 30
0.0
 40
12.192
  1
266
 50
90.0
 41
1.083333333333333
  7
ＭＳ ゴシック
100
AcDbText
  0
LINE
  5
202
330
1F
100
AcDbEntity
  8
その他
  6
Continuous
 62
     7
370
     9
100
AcDbLine
 10
627.2976935495064
 20
-81.77014896305036
 30
0.0
 11
627.2976935495064
 21
-281.7701902030208
 31
0.0
  0
TEXT
  5
203
330
1F
100
AcDbEntity
  8
その他
  6
Continuous
 62
     2
370
   211
100
AcDbText
 10
622.6416935495064
 20
-194.7701695830356
 30
0.0
 40
12.192
  1
200
 50
90.0
 41
1.083333333333333
  7
ＭＳ ゴシック
100
AcDbText
  0
LINE
  5
204
330
1F
100
AcDbEntity
  8
その他
  6
Continuous
 62
     7
370
     9
100
AcDbLine
 10
665.5488909949561
 20
0.2297998993863075
 30
0.0
 11
665.5488909949561
 21
-363.7701390654574
 31
0.0
  0
TEXT
  5
205
330
1F
100
AcDbEntity
  8
その他
  6
Continuous
 62
     2
370
   211
100
AcDbText
 10
660.892890994956
 20
-194.7701695830356
 30
0.0
 40
12.192
  1
364
 50
90.0
 41
1.083333333333333
  7
ＭＳ ゴシック
100
AcDbText
  0
TEXT
  5
206
330
1F
100
AcDbEntity
  8
F-5ﾚｲﾔ
  6
Continuous
 62
     2
370
     9
100
AcDbText
 10
63.34966572385582
 20
671.171871598609
 30
0.0
 40
12.192
  1
200mm
 41
1.1
  7
ＭＳ ゴシック
100
AcDbText
  0
TEXT
  5
207
330
1F
100
AcDbEntity
  8
F-Fﾚｲﾔ
  6
Continuous
 62
     2
370
     9
100
AcDbText
 10
63.34966572385582
 20
543.171871598609
 30
0.0
 40
12.192
  1
寸法 幅301×長さ598×高さ82.7
 41
1.120689655172413
  7
ＭＳ ゴシック
100
AcDbText
  0
TEXT
  5
208
330
1F
100
AcDbEntity
  8
F-Fﾚｲﾔ
  6
Continuous
 62
     2
370
     9
100
AcDbText
 10
63.34966572385582
 20
511.171871598609
 30
0.0
 40
12.192
  1
蓋質量　10.6kg
 41
1.116071428571429
  7
ＭＳ ゴシック
100
AcDbText
  0
TEXT
  5
209
330
1F
100
AcDbEntity
  8
F-Fﾚｲﾔ
  6
Continuous
 62
     2
370
     9
100
AcDbText
 10
63.34966572385582
 20
447.1718715986091
 30
0.0
 40
12.192
  1
寸法 幅320×長さ2000×高さ88.7
 41
1.120833333333333
  7
ＭＳ ゴシック
100
AcDbText
  0
TEXT
  5
20A
330
1F
100
AcDbEntity
  8
F-Fﾚｲﾔ
  6
Continuous
 62
     2
370
     9
100
AcDbText
 10
63.34966572385588
 20
383.1718715986091
 30
0.0
 40
12.192
  1
蓋　：HISM-M-3060
 41
1.117647058823529
  7
ＭＳ ゴシック
100
AcDbText
  0
TEXT
  5
20B
330
1F
100
AcDbEntity
  8
F-4ﾚｲﾔ
  6
Continuous
 62
     2
370
     9
100
AcDbText
 10
139.5789722665724
 20
-777.8398842462342
 30
0.0
 40
12.192
  1
側溝用　ＨＩＳＭ－Ｍ－３０６０＋Ｌ－８３Ｚ
 41
1.119047619047619
  7
ＭＳ ゴシック
100
AcDbText
  0
TEXT
  5
20C
330
1F
100
AcDbEntity
  8
その他
  6
Continuous
 62
     2
370
   211
100
AcDbText
 10
63.40648209672391
 20
76.90504915448642
 30
0.0
 40
12.192
  1
500
 41
1.083333333333334
  7
ＭＳ ゴシック
100
AcDbText
  0
LINE
  5
20D
330
1F
100
AcDbEntity
  8
通り芯
  6
JWW_CENTER2
 62
     7
370
     9
100
AcDbLine
 10
131.0686337395767
 20
-181.7701695830356
 30
0.0
 11
-861.852469531751
 21
-181.7701695830356
 31
0.0
  0
ENDSEC
  0
SECTION
  2
OBJECTS
  0
DICTIONARY
  5
C
330
0
100
AcDbDictionary
281
     1
  3
ACAD_GROUP
350
D
  3
ACAD_LAYOUT
350
1A
  3
ACAD_MLEADERSTYLE
350
20F
  3
ACAD_MLINESTYLE
350
17
  3
ACAD_PLOTSETTINGS
350
19
  3
ACAD_PLOTSTYLENAME
350
E
  3
ACAD_TABLESTYLE
350
20E
  3
ACAD_VISUALSTYLE
350
2A
  0
DICTIONARY
  5
D
102
{ACAD_REACTORS
330
C
102
}
330
C
100
AcDbDictionary
281
     1
  0
DICTIONARY
  5
1A
102
{ACAD_REACTORS
330
C
102
}
330
C
100
AcDbDictionary
281
     1
  3
Layout1
350
1E
  3
Layout2
350
26
  3
Model
350
22
  0
DICTIONARY
  5
20F
102
{ACAD_REACTORS
330
C
102
}
330
C
100
AcDbDictionary
281
     1
  0
DICTIONARY
  5
17
102
{ACAD_REACTORS
330
C
102
}
330
C
100
AcDbDictionary
281
     1
  3
Standard
350
18
  0
DICTIONARY
  5
19
102
{ACAD_REACTORS
330
C
102
}
330
C
100
AcDbDictionary
281
     1
  0
ACDBDICTIONARYWDFLT
  5
E
102
{ACAD_REACTORS
330
C
102
}
330
C
100
AcDbDictionary
281
     1
  3
Normal
350
F
100
AcDbDictionaryWithDefault
340
F
  0
DICTIONARY
  5
20E
102
{ACAD_REACTORS
330
C
102
}
330
C
100
AcDbDictionary
281
     1
  0
DICTIONARY
  5
2A
102
{ACAD_REACTORS
330
C
102
}
330
C
100
AcDbDictionary
281
     1
  3
2dWireframe
350
2F
  3
3D Hidden
350
31
  3
3dWireframe
350
30
  3
Basic
350
32
  3
Brighten
350
36
  3
ColorChange
350
3A
  3
Conceptual
350
34
  3
Dim
350
35
  3
Facepattern
350
39
  3
Flat
350
2B
  3
FlatWithEdges
350
2C
  3
Gouraud
350
2D
  3
GouraudWithEdges
350
2E
  3
Linepattern
350
38
  3
Realistic
350
33
  3
Thicken
350
37
  0
LAYOUT
  5
1E
102
{ACAD_REACTORS
330
1A
102
}
330
1A
100
AcDbPlotSettings
  1

  2
none_device
  4

  6

 40
0.0
 41
0.0
 42
0.0
 43
0.0
 44
0.0
 45
0.0
 46
0.0
 47
0.0
 48
0.0
 49
0.0
140
0.0
141
0.0
142
1.0
143
1.0
 70
   688
 72
     0
 73
     0
 74
     5
  7

 75
    16
 76
     0
 77
     5
 78
   300
147
1.0
148
0.0
149
0.0
100
AcDbLayout
  1
Layout1
 70
     1
 71
     1
 10
0.0
 20
0.0
 11
420.0
 21
297.0
 12
0.0
 22
0.0
 32
0.0
 14
1.000000000000000E+20
 24
1.000000000000000E+20
 34
1.000000000000000E+20
 15
-1.000000000000000E+20
 25
-1.000000000000000E+20
 35
-1.000000000000000E+20
146
0.0
 13
0.0
 23
0.0
 33
0.0
 16
1.0
 26
0.0
 36
0.0
 17
0.0
 27
1.0
 37
0.0
 76
     0
330
1B
  0
LAYOUT
  5
26
102
{ACAD_REACTORS
330
1A
102
}
330
1A
100
AcDbPlotSettings
  1

  2
none_device
  4

  6

 40
0.0
 41
0.0
 42
0.0
 43
0.0
 44
0.0
 45
0.0
 46
0.0
 47
0.0
 48
0.0
 49
0.0
140
0.0
141
0.0
142
1.0
143
1.0
 70
   688
 72
     0
 73
     0
 74
     5
  7

 75
    16
 76
     0
 77
     5
 78
   300
147
1.0
148
0.0
149
0.0
100
AcDbLayout
  1
Layout2
 70
     1
 71
     2
 10
0.0
 20
0.0
 11
0.0
 21
0.0
 12
0.0
 22
0.0
 32
0.0
 14
0.0
 24
0.0
 34
0.0
 15
0.0
 25
0.0
 35
0.0
146
0.0
 13
0.0
 23
0.0
 33
0.0
 16
1.0
 26
0.0
 36
0.0
 17
0.0
 27
1.0
 37
0.0
 76
     0
330
23
  0
LAYOUT
  5
22
102
{ACAD_REACTORS
330
1A
102
}
330
1A
100
AcDbPlotSettings
  1

  2
none_device
  4

  6

 40
0.0
 41
0.0
 42
0.0
 43
0.0
 44
0.0
 45
0.0
 46
0.0
 47
0.0
 48
0.0
 49
0.0
140
0.0
141
0.0
142
1.0
143
1.0
 70
  1712
 72
     0
 73
     0
 74
     0
  7

 75
     0
 76
     0
 77
     5
 78
   300
147
1.0
148
0.0
149
0.0
100
AcDbLayout
  1
Model
 70
     1
 71
     0
 10
-1188.0
 20
-840.0
 11
1188.0
 21
840.0
 12
0.0
 22
0.0
 32
0.0
 14
-1188.0
 24
-840.0
 34
0.0
 15
1188.0
 25
840.0
 35
0.0
146
0.0
 13
0.0
 23
0.0
 33
0.0
 16
1.0
 26
0.0
 36
0.0
 17
0.0
 27
1.0
 37
0.0
 76
     0
330
1F
331
29
  0
MLINESTYLE
  5
18
102
{ACAD_REACTORS
330
17
102
}
330
17
100
AcDbMlineStyle
  2
Standard
 70
     0
  3

 62
   256
 51
90.0
 52
90.0
 71
     2
 49
0.5
 62
   256
  6
BYLAYER
 49
-0.5
 62
   256
  6
BYLAYER
  0
ACDBPLACEHOLDER
  5
F
102
{ACAD_REACTORS
330
E
102
}
330
E
  0
VISUALSTYLE
  5
2F
102
{ACAD_REACTORS
330
2A
102
}
330
2A
100
AcDbVisualStyle
  2
2dWireframe
 70
     4
 71
     0
 72
     2
 73
     0
 90
        0
 40
-0.6
 41
-30.0
 62
     5
 63
     7
421
 16777215
 74
     1
 91
        4
 64
     7
 65
   257
 75
     1
175
     1
 42
1.0
 92
        0
 66
   257
 43
1.0
 76
     1
 77
     6
 78
     2
 67
     7
 79
     5
170
     0
171
     0
290
     0
174
     0
 93
        1
 44
0.0
173
     0
291
     0
 45
0.0
  0
VISUALSTYLE
  5
31
102
{ACAD_REACTORS
330
2A
102
}
330
2A
100
AcDbVisualStyle
  2
3D Hidden
 70
     6
 71
     1
 72
     2
 73
     2
 90
        0
 40
-0.6
 41
-30.0
 62
     5
 63
     7
421
 16777215
 74
     2
 91
        2
 64
     7
 65
   257
 75
     2
175
     1
 42
40.0
 92
        0
 66
   257
 43
1.0
 76
     1
 77
     6
 78
     2
 67
     7
 79
     3
170
     0
171
     0
290
     0
174
     0
 93
        1
 44
0.0
173
     0
291
     0
 45
0.0
  0
VISUALSTYLE
  5
30
102
{ACAD_REACTORS
330
2A
102
}
330
2A
100
AcDbVisualStyle
  2
3dWireframe
 70
     5
 71
     0
 72
     2
 73
     0
 90
        0
 40
-0.6
 41
-30.0
 62
     5
 63
     7
421
 16777215
 74
     1
 91
        4
 64
     7
 65
   257
 75
     1
175
     1
 42
1.0
 92
        0
 66
   257
 43
1.0
 76
     1
 77
     6
 78
     2
 67
     7
 79
     5
170
     0
171
     0
290
     0
174
     0
 93
        1
 44
0.0
173
     0
291
     0
 45
0.0
  0
VISUALSTYLE
  5
32
102
{ACAD_REACTORS
330
2A
102
}
330
2A
100
AcDbVisualStyle
  2
Basic
 70
     7
 71
     1
 72
     0
 73
     1
 90
        0
 40
-0.6
 41
-30.0
 62
     5
 63
     7
421
 16777215
 74
     0
 91
        4
 64
     7
 65
   257
 75
     1
175
     1
 42
1.0
 92
        8
 66
     7
 43
1.0
 76
     1
 77
     6
 78
     2
 67
     7
 79
     5
170
     0
171
     0
290
     0
174
     0
 93
        1
 44
0.0
173
     0
291
     1
 45
0.0
  0
VISUALSTYLE
  5
36
102
{ACAD_REACTORS
330
2A
102
}
330
2A
100
AcDbVisualStyle
  2
Brighten
 70
    12
 71
     2
 72
     2
 73
     0
 90
        0
 40
-0.6
 41
-30.0
 62
     5
 63
     7
421
 16777215
 74
     1
 91
        4
 64
     7
 65
   257
 75
     1
175
     1
 42
1.0
 92
        8
 66
     7
 43
1.0
 76
     1
 77
     6
 78
     2
 67
     7
 79
     5
170
     0
171
     0
290
     0
174
     0
 93
        1
 44
50.0
173
     0
291
     1
 45
0.0
  0
VISUALSTYLE
  5
3A
102
{ACAD_REACTORS
330
2A
102
}
330
2A
100
AcDbVisualStyle
  2
ColorChange
 70
    16
 71
     2
 72
     2
 73
     3
 90
        0
 40
-0.6
 41
-30.0
 62
     5
 63
     8
421
  8421504
 74
     1
 91
        4
 64
     7
 65
   257
 75
     1
175
     1
 42
1.0
 92
        8
 66
     8
424
  8421504
 43
1.0
 76
     1
 77
     6
 78
     2
 67
     7
 79
     5
170
     0
171
     0
290
     0
174
     0
 93
        1
 44
0.0
173
     0
291
     1
 45
0.0
  0
VISUALSTYLE
  5
34
102
{ACAD_REACTORS
330
2A
102
}
330
2A
100
AcDbVisualStyle
  2
Conceptual
 70
     9
 71
     3
 72
     2
 73
     0
 90
        0
 40
-0.6
 41
-30.0
 62
     5
 63
     7
421
 16777215
 74
     2
 91
        2
 64
     7
 65
   257
 75
     1
175
     1
 42
40.0
 92
        8
 66
     7
 43
1.0
 76
     1
 77
     6
 78
     2
 67
     7
 79
     3
170
     0
171
     0
290
     0
174
     0
 93
        1
 44
0.0
173
     0
291
     0
 45
0.0
  0
VISUALSTYLE
  5
35
102
{ACAD_REACTORS
330
2A
102
}
330
2A
100
AcDbVisualStyle
  2
Dim
 70
    11
 71
     2
 72
     2
 73
     0
 90
        0
 40
-0.6
 41
-30.0
 62
     5
 63
     7
421
 16777215
 74
     1
 91
        4
 64
     7
 65
   257
 75
     1
175
     1
 42
1.0
 92
        8
 66
     7
 43
1.0
 76
     1
 77
     6
 78
     2
 67
     7
 79
     5
170
     0
171
     0
290
     0
174
     0
 93
        1
 44
-50.0
173
     0
291
     1
 45
0.0
  0
VISUALSTYLE
  5
39
102
{ACAD_REACTORS
330
2A
102
}
330
2A
100
AcDbVisualStyle
  2
Facepattern
 70
    15
 71
     2
 72
     2
 73
     0
 90
        0
 40
-0.6
 41
-30.0
 62
     5
 63
     7
421
 16777215
 74
     1
 91
        4
 64
     7
 65
   257
 75
     1
175
     1
 42
1.0
 92
        8
 66
     7
 43
1.0
 76
     1
 77
     6
 78
     2
 67
     7
 79
     5
170
     0
171
     0
290
     0
174
     0
 93
        1
 44
0.0
173
     0
291
     1
 45
0.0
  0
VISUALSTYLE
  5
2B
102
{ACAD_REACTORS
330
2A
102
}
330
2A
100
AcDbVisualStyle
  2
Flat
 70
     0
 71
     2
 72
     1
 73
     1
 90
        2
 40
-0.6
 41
30.0
 62
     5
 63
     7
421
 16777215
 74
     0
 91
        4
 64
     7
 65
   257
 75
     1
175
     1
 42
1.0
 92
        8
 66
     7
 43
1.0
 76
     1
 77
     6
 78
     2
 67
     7
 79
     5
170
     0
171
     0
290
     0
174
     0
 93
       13
 44
0.0
173
     0
291
     1
 45
0.0
  0
VISUALSTYLE
  5
2C
102
{ACAD_REACTORS
330
2A
102
}
330
2A
100
AcDbVisualStyle
  2
FlatWithEdges
 70
     1
 71
     2
 72
     1
 73
     1
 90
        2
 40
-0.6
 41
30.0
 62
     5
 63
     7
421
 16777215
 74
     1
 91
        4
 64
     7
 65
   257
 75
     1
175
     1
 42
1.0
 92
        0
 66
   257
 43
1.0
 76
     1
 77
     6
 78
     2
 67
     7
 79
     5
170
     0
171
     0
290
     0
174
     0
 93
       13
 44
0.0
173
     0
291
     1
 45
0.0
  0
VISUALSTYLE
  5
2D
102
{ACAD_REACTORS
330
2A
102
}
330
2A
100
AcDbVisualStyle
  2
Gouraud
 70
     2
 71
     2
 72
     2
 73
     1
 90
        2
 40
-0.6
 41
30.0
 62
     5
 63
     7
421
 16777215
 74
     0
 91
        4
 64
     7
 65
   257
 75
     1
175
     1
 42
1.0
 92
        0
 66
     7
 43
1.0
 76
     1
 77
     6
 78
     2
 67
     7
 79
     5
170
     0
171
     0
290
     0
174
     0
 93
       13
 44
0.0
173
     0
291
     1
 45
0.0
  0
VISUALSTYLE
  5
2E
102
{ACAD_REACTORS
330
2A
102
}
330
2A
100
AcDbVisualStyle
  2
GouraudWithEdges
 70
     3
 71
     2
 72
     2
 73
     1
 90
        2
 40
-0.6
 41
30.0
 62
     5
 63
     7
421
 16777215
 74
     1
 91
        4
 64
     7
 65
   257
 75
     1
175
     1
 42
1.0
 92
        0
 66
   257
 43
1.0
 76
     1
 77
     6
 78
     2
 67
     7
 79
     5
170
     0
171
     0
290
     0
174
     0
 93
       13
 44
0.0
173
     0
291
     1
 45
0.0
  0
VISUALSTYLE
  5
38
102
{ACAD_REACTORS
330
2A
102
}
330
2A
100
AcDbVisualStyle
  2
Linepattern
 70
    14
 71
     2
 72
     2
 73
     0
 90
        0
 40
-0.6
 41
-30.0
 62
     5
 63
     7
421
 16777215
 74
     1
 91
        4
 64
     7
 65
   257
 75
     7
175
     7
 42
1.0
 92
        8
 66
     7
 43
1.0
 76
     1
 77
     6
 78
     2
 67
     7
 79
     5
170
     0
171
     0
290
     0
174
     0
 93
        1
 44
0.0
173
     0
291
     1
 45
0.0
  0
VISUALSTYLE
  5
33
102
{ACAD_REACTORS
330
2A
102
}
330
2A
100
AcDbVisualStyle
  2
Realistic
 70
     8
 71
     2
 72
     2
 73
     0
 90
        0
 40
-0.6
 41
-30.0
 62
     5
 63
     7
421
 16777215
 74
     1
 91
        0
 64
     7
 65
   257
 75
     1
175
     1
 42
1.0
 92
        8
 66
     8
424
  7895160
 43
1.0
 76
     1
 77
     6
 78
     2
 67
     7
 79
     5
170
     0
171
     0
290
     0
174
     0
 93
       13
 44
0.0
173
     0
291
     0
 45
0.0
  0
VISUALSTYLE
  5
37
102
{ACAD_REACTORS
330
2A
102
}
330
2A
100
AcDbVisualStyle
  2
Thicken
 70
    13
 71
     2
 72
     2
 73
     0
 90
        0
 40
-0.6
 41
-30.0
 62
     5
 63
     7
421
 16777215
 74
     1
 91
        4
 64
     7
 65
   257
 75
     1
175
     1
 42
1.0
 92
       12
 66
     7
 43
1.0
 76
     1
 77
     6
 78
     2
 67
     7
 79
     5
170
     0
171
     0
290
     0
174
     0
 93
        1
 44
0.0
173
     0
291
     1
 45
0.0
  0
ENDSEC
  0
EOF
