  0
SECTION
  2
HEADER
  9
$ACADVER
  1
AC1021
  9
$ACADMAINTVER
 70
    25
  9
$DWGCODEPAGE
  3
ANSI_932
  9
$INSBASE
 10
0.0
 20
0.0
 30
0.0
  9
$EXTMIN
 10
-1188.0
 20
-840.0
 30
0.0
  9
$EXTMAX
 10
1188.0
 20
840.0
 30
0.0
  9
$LIMMIN
 10
-1188.0
 20
-840.0
  9
$LIMMAX
 10
1188.0
 20
840.0
  9
$ORTHOMODE
 70
     0
  9
$REGENMODE
 70
     1
  9
$FILLMODE
 70
     1
  9
$QTEXTMODE
 70
     0
  9
$MIRRTEXT
 70
     1
  9
$LTSCALE
 40
4.0
  9
$ATTMODE
 70
     1
  9
$TEXTSIZE
 40
2.5
  9
$TRACEWID
 40
1.0
  9
$TEXTSTYLE
  7
Standard
  9
$CLAYER
  8
0
  9
$CELTYPE
  6
ByLayer
  9
$CECOLOR
 62
   256
  9
$CELTSCALE
 40
1.0
  9
$DISPSILH
 70
     0
  9
$DIMSCALE
 40
1.0
  9
$DIMASZ
 40
2.5
  9
$DIMEXO
 40
0.625
  9
$DIMDLI
 40
3.75
  9
$DIMRND
 40
0.0
  9
$DIMDLE
 40
0.0
  9
$DIMEXE
 40
1.25
  9
$DIMTP
 40
0.0
  9
$DIMTM
 40
0.0
  9
$DIMTXT
 40
2.5
  9
$DIMCEN
 40
2.5
  9
$DIMTSZ
 40
0.0
  9
$DIMTOL
 70
     0
  9
$DIMLIM
 70
     0
  9
$DIMTIH
 70
     0
  9
$DIMTOH
 70
     0
  9
$DIMSE1
 70
     0
  9
$DIMSE2
 70
     0
  9
$DIMTAD
 70
     1
  9
$DIMZIN
 70
     8
  9
$DIMBLK
  1

  9
$DIMASO
 70
     1
  9
$DIMSHO
 70
     1
  9
$DIMPOST
  1

  9
$DIMAPOST
  1

  9
$DIMALT
 70
     0
  9
$DIMALTD
 70
     3
  9
$DIMALTF
 40
0.03937007874016
  9
$DIMLFAC
 40
1.0
  9
$DIMTOFL
 70
     1
  9
$DIMTVP
 40
0.0
  9
$DIMTIX
 70
     0
  9
$DIMSOXD
 70
     0
  9
$DIMSAH
 70
     0
  9
$DIMBLK1
  1

  9
$DIMBLK2
  1

  9
$DIMSTYLE
  2
ISO-25
  9
$DIMCLRD
 70
     0
  9
$DIMCLRE
 70
     0
  9
$DIMCLRT
 70
     0
  9
$DIMTFAC
 40
1.0
  9
$DIMGAP
 40
0.625
  9
$DIMJUST
 70
     0
  9
$DIMSD1
 70
     0
  9
$DIMSD2
 70
     0
  9
$DIMTOLJ
 70
     0
  9
$DIMTZIN
 70
     8
  9
$DIMALTZ
 70
     0
  9
$DIMALTTZ
 70
     0
  9
$DIMUPT
 70
     0
  9
$DIMDEC
 70
     2
  9
$DIMTDEC
 70
     2
  9
$DIMALTU
 70
     2
  9
$DIMALTTD
 70
     3
  9
$DIMTXSTY
  7
Standard
  9
$DIMAUNIT
 70
     0
  9
$DIMADEC
 70
     0
  9
$DIMALTRND
 40
0.0
  9
$DIMAZIN
 70
     0
  9
$DIMDSEP
 70
    44
  9
$DIMATFIT
 70
     3
  9
$DIMFRAC
 70
     0
  9
$DIMLDRBLK
  1

  9
$DIMLUNIT
 70
     2
  9
$DIMLWD
 70
    -2
  9
$DIMLWE
 70
    -2
  9
$DIMTMOVE
 70
     0
  9
$DIMFXL
 40
1.0
  9
$DIMFXLON
 70
     0
  9
$DIMJOGANG
 40
0.7853981633974483
  9
$DIMTFILL
 70
     0
  9
$DIMTFILLCLR
 70
     0
  9
$DIMARCSYM
 70
     0
  9
$DIMLTYPE
  6

  9
$DIMLTEX1
  6

  9
$DIMLTEX2
  6

  9
$LUNITS
 70
     2
  9
$LUPREC
 70
     4
  9
$SKETCHINC
 40
1.0
  9
$FILLETRAD
 40
10.0
  9
$AUNITS
 70
     0
  9
$AUPREC
 70
     0
  9
$MENU
  1
.
  9
$ELEVATION
 40
0.0
  9
$PELEVATION
 40
0.0
  9
$THICKNESS
 40
0.0
  9
$LIMCHECK
 70
     0
  9
$CHAMFERA
 40
10.0
  9
$CHAMFERB
 40
10.0
  9
$CHAMFERC
 40
20.0
  9
$CHAMFERD
 40
0.0
  9
$SKPOLY
 70
     0
  9
$TDCREATE
 40
2457737.439749329
  9
$TDUCREATE
 40
2457737.064749329
  9
$TDUPDATE
 40
2457737.43974934
  9
$TDUUPDATE
 40
2457737.06474934
  9
$TDINDWG
 40
0.0000000116
  9
$TDUSRTIMER
 40
0.0000000116
  9
$USRTIMER
 70
     1
  9
$ANGBASE
 50
0.0
  9
$ANGDIR
 70
     0
  9
$PDMODE
 70
     0
  9
$PDSIZE
 40
0.0
  9
$PLINEWID
 40
0.0
  9
$SPLFRAME
 70
     0
  9
$SPLINETYPE
 70
     6
  9
$SPLINESEGS
 70
     8
  9
$HANDSEED
  5
229
  9
$SURFTAB1
 70
     6
  9
$SURFTAB2
 70
     6
  9
$SURFTYPE
 70
     6
  9
$SURFU
 70
     6
  9
$SURFV
 70
     6
  9
$UCSBASE
  2

  9
$UCSNAME
  2

  9
$UCSORG
 10
0.0
 20
0.0
 30
0.0
  9
$UCSXDIR
 10
1.0
 20
0.0
 30
0.0
  9
$UCSYDIR
 10
0.0
 20
1.0
 30
0.0
  9
$UCSORTHOREF
  2

  9
$UCSORTHOVIEW
 70
     0
  9
$UCSORGTOP
 10
0.0
 20
0.0
 30
0.0
  9
$UCSORGBOTTOM
 10
0.0
 20
0.0
 30
0.0
  9
$UCSORGLEFT
 10
0.0
 20
0.0
 30
0.0
  9
$UCSORGRIGHT
 10
0.0
 20
0.0
 30
0.0
  9
$UCSORGFRONT
 10
0.0
 20
0.0
 30
0.0
  9
$UCSORGBACK
 10
0.0
 20
0.0
 30
0.0
  9
$PUCSBASE
  2

  9
$PUCSNAME
  2

  9
$PUCSORG
 10
0.0
 20
0.0
 30
0.0
  9
$PUCSXDIR
 10
1.0
 20
0.0
 30
0.0
  9
$PUCSYDIR
 10
0.0
 20
1.0
 30
0.0
  9
$PUCSORTHOREF
  2

  9
$PUCSORTHOVIEW
 70
     0
  9
$PUCSORGTOP
 10
0.0
 20
0.0
 30
0.0
  9
$PUCSORGBOTTOM
 10
0.0
 20
0.0
 30
0.0
  9
$PUCSORGLEFT
 10
0.0
 20
0.0
 30
0.0
  9
$PUCSORGRIGHT
 10
0.0
 20
0.0
 30
0.0
  9
$PUCSORGFRONT
 10
0.0
 20
0.0
 30
0.0
  9
$PUCSORGBACK
 10
0.0
 20
0.0
 30
0.0
  9
$USERI1
 70
     0
  9
$USERI2
 70
     0
  9
$USERI3
 70
     0
  9
$USERI4
 70
     0
  9
$USERI5
 70
     0
  9
$USERR1
 40
0.0
  9
$USERR2
 40
0.0
  9
$USERR3
 40
0.0
  9
$USERR4
 40
0.0
  9
$USERR5
 40
0.0
  9
$WORLDVIEW
 70
     1
  9
$SHADEDGE
 70
     3
  9
$SHADEDIF
 70
    70
  9
$TILEMODE
 70
     1
  9
$MAXACTVP
 70
    64
  9
$PINSBASE
 10
0.0
 20
0.0
 30
0.0
  9
$PLIMCHECK
 70
     0
  9
$PEXTMIN
 10
1.000000000000000E+20
 20
1.000000000000000E+20
 30
1.000000000000000E+20
  9
$PEXTMAX
 10
-1.000000000000000E+20
 20
-1.000000000000000E+20
 30
-1.000000000000000E+20
  9
$PLIMMIN
 10
0.0
 20
0.0
  9
$PLIMMAX
 10
420.0
 20
297.0
  9
$UNITMODE
 70
     0
  9
$VISRETAIN
 70
     1
  9
$PLINEGEN
 70
     0
  9
$PSLTSCALE
 70
     1
  9
$TREEDEPTH
 70
  3020
  9
$CMLSTYLE
  2
Standard
  9
$CMLJUST
 70
     0
  9
$CMLSCALE
 40
20.0
  9
$PROXYGRAPHICS
 70
     1
  9
$MEASUREMENT
 70
     1
  9
$CELWEIGHT
370
    -1
  9
$ENDCAPS
280
     0
  9
$JOINSTYLE
280
     0
  9
$LWDISPLAY
290
     0
  9
$INSUNITS
 70
     4
  9
$HYPERLINKBASE
  1

  9
$STYLESHEET
  1

  9
$XEDIT
290
     1
  9
$CEPSNTYPE
380
     0
  9
$PSTYLEMODE
290
     1
  9
$FINGERPRINTGUID
  2
{7475C8DD-27B4-4A7A-9E94-5BE054940500}
  9
$VERSIONGUID
  2
{FAEB1C32-E019-11D5-929B-00C0DF256EC4}
  9
$EXTNAMES
290
     1
  9
$PSVPSCALE
 40
0.0
  9
$OLESTARTUP
290
     0
  9
$SORTENTS
280
   127
  9
$INDEXCTL
280
     0
  9
$HIDETEXT
280
     1
  9
$XCLIPFRAME
290
     0
  9
$HALOGAP
280
     0
  9
$OBSCOLOR
 70
   257
  9
$OBSLTYPE
280
     0
  9
$INTERSECTIONDISPLAY
280
     0
  9
$INTERSECTIONCOLOR
 70
   257
  9
$DIMASSOC
280
     2
  9
$PROJECTNAME
  1

  9
$CAMERADISPLAY
290
     0
  9
$LENSLENGTH
 40
50.0
  9
$CAMERAHEIGHT
 40
0.0
  9
$STEPSPERSEC
 40
2.0
  9
$STEPSIZE
 40
6.0
  9
$3DDWFPREC
 40
2.0
  9
$PSOLWIDTH
 40
5.0
  9
$PSOLHEIGHT
 40
80.0
  9
$LOFTANG1
 40
1.570796326794897
  9
$LOFTANG2
 40
1.570796326794897
  9
$LOFTMAG1
 40
0.0
  9
$LOFTMAG2
 40
0.0
  9
$LOFTPARAM
 70
     7
  9
$LOFTNORMALS
280
     1
  9
$LATITUDE
 40
37.795
  9
$LONGITUDE
 40
-122.394
  9
$NORTHDIRECTION
 40
0.0
  9
$TIMEZONE
 70
 -8000
  9
$LIGHTGLYPHDISPLAY
280
     1
  9
$TILEMODELIGHTSYNCH
280
     1
  9
$SOLIDHIST
280
     1
  9
$SHOWHIST
280
     1
  9
$DWFFRAME
280
     2
  9
$DGNFRAME
280
     2
  9
$REALWORLDSCALE
290
     1
  9
$INTERFERECOLOR
 62
   256
  9
$CSHADOW
280
     0
  9
$SHADOWPLANELOCATION
 40
0.0
  0
ENDSEC
  0
SECTION
  2
CLASSES
  0
CLASS
  1
ACDBDICTIONARYWDFLT
  2
AcDbDictionaryWithDefault
  3
ObjectDBX Classes
 90
        0
 91
        4
280
     0
281
     0
  0
CLASS
  1
VISUALSTYLE
  2
AcDbVisualStyle
  3
ObjectDBX Classes
 90
     4095
 91
        4
280
     0
281
     0
  0
ENDSEC
  0
SECTION
  2
TABLES
  0
TABLE
  2
VPORT
  5
8
330
0
100
AcDbSymbolTable
 70
     1
  0
VPORT
  5
29
330
8
100
AcDbSymbolTableRecord
100
AcDbViewportTableRecord
  2
*Active
 70
     0
 10
0.0
 20
0.0
 11
1.0
 21
1.0
 12
0.0
 22
0.0
 13
0.0
 23
0.0
 14
10.0
 24
10.0
 15
10.0
 25
10.0
 16
0.0
 26
0.0
 36
1.0
 17
0.0
 27
0.0
 37
0.0
 40
1848.0
 41
1.414285714285714
 42
50.0
 43
0.0
 44
0.0
 50
0.0
 51
0.0
 71
     0
 72
 10000
 73
     1
 74
     3
 75
     0
 76
     0
 77
     0
 78
     0
281
     0
 65
     1
110
0.0
120
0.0
130
0.0
111
1.0
121
0.0
131
0.0
112
0.0
122
1.0
132
0.0
 79
     0
146
0.0
 60
     3
 61
     5
292
     1
282
     1
141
0.0
142
0.0
 63
   256
  0
ENDTAB
  0
TABLE
  2
LTYPE
  5
5
330
0
100
AcDbSymbolTable
 70
     5
  0
LTYPE
  5
14
330
5
100
AcDbSymbolTableRecord
100
AcDbLinetypeTableRecord
  2
ByBlock
 70
     0
  3

 72
    65
 73
     0
 40
0.0
  0
LTYPE
  5
15
330
5
100
AcDbSymbolTableRecord
100
AcDbLinetypeTableRecord
  2
ByLayer
 70
     0
  3

 72
    65
 73
     0
 40
0.0
  0
LTYPE
  5
16
330
5
100
AcDbSymbolTableRecord
100
AcDbLinetypeTableRecord
  2
Continuous
 70
     0
  3
Solid line
 72
    65
 73
     0
 40
0.0
  0
LTYPE
  5
3C
330
5
100
AcDbSymbolTableRecord
100
AcDbLinetypeTableRecord
  2
JWW_CENTER2
 70
     0
  3
-------------  --  -------------
 72
    65
 73
     4
 40
13.54666666666667
 49
11.00666666666667
 74
     0
 49
-0.8466666666666667
 74
     0
 49
0.8466666666666667
 74
     0
 49
-0.8466666666666667
 74
     0
  0
LTYPE
  5
3D
330
5
100
AcDbSymbolTableRecord
100
AcDbLinetypeTableRecord
  2
JWW_CENTER1
 70
     0
  3
-----  --  ----------  --  -----
 72
    65
 73
     4
 40
6.773333333333333
 49
4.233333333333333
 74
     0
 49
-0.8466666666666667
 74
     0
 49
0.8466666666666667
 74
     0
 49
-0.8466666666666667
 74
     0
  0
LTYPE
  5
3E
330
5
100
AcDbSymbolTableRecord
100
AcDbLinetypeTableRecord
  2
JWW_DASHED1
 70
     0
  3
-  --  --  --  --  --  --  --  -
 72
    65
 73
     2
 40
1.693333333333333
 49
0.8466666666666667
 74
     0
 49
-0.8466666666666667
 74
     0
  0
LTYPE
  5
3F
330
5
100
AcDbSymbolTableRecord
100
AcDbLinetypeTableRecord
  2
JWW_DASHED3
 70
     0
  3
---  ------  ------  ------  ---
 72
    65
 73
     2
 40
3.386666666666667
 49
2.54
 74
     0
 49
-0.8466666666666667
 74
     0
  0
ENDTAB
  0
TABLE
  2
LAYER
  5
2
330
0
100
AcDbSymbolTable
 70
    10
  0
LAYER
  5
10
330
2
100
AcDbSymbolTableRecord
100
AcDbLayerTableRecord
  2
0
 70
     0
 62
     7
  6
Continuous
370
    -3
390
F
347
0
  0
LAYER
  5
40
330
2
100
AcDbSymbolTableRecord
100
AcDbLayerTableRecord
  2
F-4ﾚｲﾔ
 70
     0
 62
     7
  6
Continuous
370
    -3
390
F
347
0
  0
LAYER
  5
41
330
2
100
AcDbSymbolTableRecord
100
AcDbLayerTableRecord
  2
F-Fﾚｲﾔ
 70
     0
 62
     7
  6
Continuous
370
    -3
390
F
347
0
  0
LAYER
  5
42
330
2
100
AcDbSymbolTableRecord
100
AcDbLayerTableRecord
  2
F-5ﾚｲﾔ
 70
     0
 62
     7
  6
Continuous
370
    -3
390
F
347
0
  0
LAYER
  5
43
330
2
100
AcDbSymbolTableRecord
100
AcDbLayerTableRecord
  2
仕上
 70
     0
 62
     7
  6
Continuous
370
    -3
390
F
347
0
  0
LAYER
  5
44
330
2
100
AcDbSymbolTableRecord
100
AcDbLayerTableRecord
  2
通り芯
 70
     0
 62
     7
  6
Continuous
370
    -3
390
F
347
0
  0
LAYER
  5
45
330
2
100
AcDbSymbolTableRecord
100
AcDbLayerTableRecord
  2
建具
 70
     0
 62
     7
  6
Continuous
370
    -3
390
F
347
0
  0
LAYER
  5
46
330
2
100
AcDbSymbolTableRecord
100
AcDbLayerTableRecord
  2
その他
 70
     0
 62
     7
  6
Continuous
370
    -3
390
F
347
0
  0
LAYER
  5
47
330
2
100
AcDbSymbolTableRecord
100
AcDbLayerTableRecord
  2
寸法
 70
     0
 62
     7
  6
Continuous
370
    -3
390
F
347
0
  0
LAYER
  5
48
330
2
100
AcDbSymbolTableRecord
100
AcDbLayerTableRecord
  2
躯体
 70
     0
 62
     7
  6
Continuous
370
    -3
390
F
347
0
  0
ENDTAB
  0
TABLE
  2
STYLE
  5
3
330
0
100
AcDbSymbolTable
 70
     2
  0
STYLE
  5
11
330
3
100
AcDbSymbolTableRecord
100
AcDbTextStyleTableRecord
  2
Standard
 70
     0
 40
0.0
 41
1.0
 50
0.0
 71
     0
 42
2.5
  3
txt
  4

1001
ACAD
1000

1071
        0
  0
STYLE
  5
3B
330
3
100
AcDbSymbolTableRecord
100
AcDbTextStyleTableRecord
  2
ＭＳ ゴシック
 70
     0
 40
1.0
 41
1.0
 50
0.0
 71
     0
 42
10.0
  3

  4

1001
ACAD
1000
MS Gothic
1071
    32817
  0
ENDTAB
  0
TABLE
  2
VIEW
  5
6
330
0
100
AcDbSymbolTable
 70
     0
  0
ENDTAB
  0
TABLE
  2
UCS
  5
7
330
0
100
AcDbSymbolTable
 70
     0
  0
ENDTAB
  0
TABLE
  2
APPID
  5
9
330
0
100
AcDbSymbolTable
 70
     1
  0
APPID
  5
12
330
9
100
AcDbSymbolTableRecord
100
AcDbRegAppTableRecord
  2
ACAD
 70
     0
  0
ENDTAB
  0
TABLE
  2
DIMSTYLE
  5
A
330
0
100
AcDbSymbolTable
 70
     1
100
AcDbDimStyleTable
  0
DIMSTYLE
105
27
330
A
100
AcDbSymbolTableRecord
100
AcDbDimStyleTableRecord
  2
ISO-25
 70
     0
 41
2.5
 42
0.625
 43
3.75
 44
1.25
 73
     0
 74
     0
 77
     1
 78
     8
140
2.5
141
2.5
143
0.03937007874016
147
0.625
171
     3
172
     1
271
     2
272
     2
274
     3
278
    44
283
     0
284
     8
340
11
  0
ENDTAB
  0
TABLE
  2
BLOCK_RECORD
  5
1
330
0
100
AcDbSymbolTable
 70
     1
  0
BLOCK_RECORD
  5
1F
330
1
100
AcDbSymbolTableRecord
100
AcDbBlockTableRecord
  2
*Model_Space
340
22
 70
     0
280
     1
281
     0
  0
BLOCK_RECORD
  5
1B
330
1
100
AcDbSymbolTableRecord
100
AcDbBlockTableRecord
  2
*Paper_Space
340
1E
 70
     0
280
     1
281
     0
  0
BLOCK_RECORD
  5
23
330
1
100
AcDbSymbolTableRecord
100
AcDbBlockTableRecord
  2
*Paper_Space0
340
26
 70
     0
280
     1
281
     0
  0
ENDTAB
  0
ENDSEC
  0
SECTION
  2
BLOCKS
  0
BLOCK
  5
20
330
1F
100
AcDbEntity
  8
0
100
AcDbBlockBegin
  2
*Model_Space
 70
     0
 10
0.0
 20
0.0
 30
0.0
  3
*Model_Space
  1

  0
ENDBLK
  5
21
330
1F
100
AcDbEntity
  8
0
100
AcDbBlockEnd
  0
BLOCK
  5
1C
330
1B
100
AcDbEntity
 67
     1
  8
0
100
AcDbBlockBegin
  2
*Paper_Space
 70
     0
 10
0.0
 20
0.0
 30
0.0
  3
*Paper_Space
  1

  0
ENDBLK
  5
1D
330
1B
100
AcDbEntity
 67
     1
  8
0
100
AcDbBlockEnd
  0
BLOCK
  5
24
330
23
100
AcDbEntity
  8
0
100
AcDbBlockBegin
  2
*Paper_Space0
 70
     0
 10
0.0
 20
0.0
 30
0.0
  3
*Paper_Space0
  1

  0
ENDBLK
  5
25
330
23
100
AcDbEntity
  8
0
100
AcDbBlockEnd
  0
ENDSEC
  0
SECTION
  2
ENTITIES
  0
TEXT
  5
49
330
1F
100
AcDbEntity
  8
F-4ﾚｲﾔ
  6
Continuous
 62
     2
370
     9
100
AcDbText
 10
-174.9031430404105
 20
-759.0108394076666
 30
0.0
 40
12.192
  1
カラー舗装用みぞ蓋　インターロッキングブロック用　充填深さ６５ｍｍ　スチール製
 41
1.121794871794872
  7
ＭＳ ゴシック
100
AcDbText
  0
LINE
  5
4A
330
1F
100
AcDbEntity
  8
F-Fﾚｲﾔ
  6
Continuous
 62
     7
370
     9
100
AcDbLine
 10
1117.126304008243
 20
760.7157068318121
 30
0.0
 11
1117.126304008243
 21
372.7157068318121
 31
0.0
  0
LINE
  5
4B
330
1F
100
AcDbEntity
  8
F-Fﾚｲﾔ
  6
Continuous
 62
     7
370
     9
100
AcDbLine
 10
478.8976130146309
 20
760.7157068318121
 30
0.0
 11
1117.126304008243
 21
760.7157068318121
 31
0.0
  0
TEXT
  5
4C
330
1F
100
AcDbEntity
  8
F-Fﾚｲﾔ
  6
Continuous
 62
     2
370
     9
100
AcDbText
 10
489.5445030730923
 20
738.9717068318121
 30
0.0
 40
12.192
  1
名称
 41
1.0625
  7
ＭＳ ゴシック
100
AcDbText
  0
LINE
  5
4D
330
1F
100
AcDbEntity
  8
F-Fﾚｲﾔ
  6
Continuous
 62
     7
370
     9
100
AcDbLine
 10
478.8976130146309
 20
372.7157068318121
 30
0.0
 11
1117.126304008243
 21
372.7157068318121
 31
0.0
  0
LINE
  5
4E
330
1F
100
AcDbEntity
  8
F-Fﾚｲﾔ
  6
Continuous
 62
     7
370
     9
100
AcDbLine
 10
478.8976130146309
 20
760.7157068318121
 30
0.0
 11
478.8976130146309
 21
372.7157068318121
 31
0.0
  0
LINE
  5
4F
330
1F
100
AcDbEntity
  8
F-Fﾚｲﾔ
  6
Continuous
 62
     7
370
     9
100
AcDbLine
 10
478.8976130146309
 20
696.7157068318121
 30
0.0
 11
1117.126304008243
 21
696.7157068318121
 31
0.0
  0
LINE
  5
50
330
1F
100
AcDbEntity
  8
F-Fﾚｲﾔ
  6
Continuous
 62
     7
370
     9
100
AcDbLine
 10
478.8976130146309
 20
692.7157068318121
 30
0.0
 11
1117.126304008243
 21
692.7157068318121
 31
0.0
  0
LINE
  5
51
330
1F
100
AcDbEntity
  8
F-Fﾚｲﾔ
  6
Continuous
 62
     7
370
     9
100
AcDbLine
 10
478.8976130146309
 20
660.7157068318121
 30
0.0
 11
1117.126304008243
 21
660.7157068318121
 31
0.0
  0
LINE
  5
52
330
1F
100
AcDbEntity
  8
F-Fﾚｲﾔ
  6
Continuous
 62
     7
370
     9
100
AcDbLine
 10
478.8976130146309
 20
500.715706831812
 30
0.0
 11
1117.126304008243
 21
500.715706831812
 31
0.0
  0
LINE
  5
53
330
1F
100
AcDbEntity
  8
F-Fﾚｲﾔ
  6
Continuous
 62
     7
370
     9
100
AcDbLine
 10
478.8976130146309
 20
436.7157068318121
 30
0.0
 11
1117.126304008243
 21
436.7157068318121
 31
0.0
  0
TEXT
  5
54
330
1F
100
AcDbEntity
  8
F-Fﾚｲﾔ
  6
Continuous
 62
     2
370
     9
100
AcDbText
 10
489.5445030730923
 20
670.9717068318121
 30
0.0
 40
12.192
  1
適用桝
 41
1.083333333333333
  7
ＭＳ ゴシック
100
AcDbText
  0
TEXT
  5
55
330
1F
100
AcDbEntity
  8
F-Fﾚｲﾔ
  6
Continuous
 62
     2
370
     9
100
AcDbText
 10
489.5445030730923
 20
638.9717068318121
 30
0.0
 40
12.192
  1
蓋
  7
ＭＳ ゴシック
100
AcDbText
  0
TEXT
  5
56
330
1F
100
AcDbEntity
  8
F-Fﾚｲﾔ
  6
Continuous
 62
     2
370
     9
100
AcDbText
 10
489.5445030730923
 20
478.9717068318121
 30
0.0
 40
12.192
  1
受枠
 41
1.0625
  7
ＭＳ ゴシック
100
AcDbText
  0
TEXT
  5
57
330
1F
100
AcDbEntity
  8
F-Fﾚｲﾔ
  6
Continuous
 62
     2
370
     9
100
AcDbText
 10
489.5445030730923
 20
414.9717068318121
 30
0.0
 40
12.192
  1
品番
 41
1.0625
  7
ＭＳ ゴシック
100
AcDbText
  0
LINE
  5
58
330
1F
100
AcDbEntity
  8
F-Fﾚｲﾔ
  6
Continuous
 62
     7
370
     9
100
AcDbLine
 10
631.0930647438574
 20
760.7157068318121
 30
0.0
 11
631.0930647438574
 21
372.7157068318121
 31
0.0
  0
TEXT
  5
59
330
1F
100
AcDbEntity
  8
F-5ﾚｲﾔ
  6
Continuous
 62
     2
370
     9
100
AcDbText
 10
647.6270255014672
 20
638.9717068318121
 30
0.0
 40
12.192
  1
スチール製 溶融亜鉛めっき
 41
1.115
  7
ＭＳ ゴシック
100
AcDbText
  0
TEXT
  5
5A
330
1F
100
AcDbEntity
  8
F-5ﾚｲﾔ
  6
Continuous
 62
     2
370
     9
100
AcDbText
 10
647.6270255014672
 20
574.971706831812
 30
0.0
 40
12.192
  1
目地すきま 6mm
 41
1.116071428571429
  7
ＭＳ ゴシック
100
AcDbText
  0
TEXT
  5
5B
330
1F
100
AcDbEntity
  8
F-Fﾚｲﾔ
  6
Continuous
 62
     2
370
     9
100
AcDbText
 10
647.6270255014672
 20
414.9717068318121
 30
0.0
 40
12.192
  1
カネソウ　カラー舗装用みぞ蓋
 41
1.116071428571429
  7
ＭＳ ゴシック
100
AcDbText
  0
LINE
  5
5C
330
1F
100
AcDbEntity
  8
F-Fﾚｲﾔ
  6
Continuous
 62
     7
370
     9
100
AcDbLine
 10
631.0930647438574
 20
628.7157068318121
 30
0.0
 11
1117.126304008243
 21
628.7157068318121
 31
0.0
  0
LINE
  5
5D
330
1F
100
AcDbEntity
  8
F-Fﾚｲﾔ
  6
Continuous
 62
     7
370
     9
100
AcDbLine
 10
631.0930647438574
 20
596.7157068318121
 30
0.0
 11
1117.126304008243
 21
596.7157068318121
 31
0.0
  0
LINE
  5
5E
330
1F
100
AcDbEntity
  8
F-Fﾚｲﾔ
  6
Continuous
 62
     7
370
     9
100
AcDbLine
 10
631.0930647438574
 20
564.715706831812
 30
0.0
 11
1117.126304008243
 21
564.715706831812
 31
0.0
  0
LINE
  5
5F
330
1F
100
AcDbEntity
  8
F-Fﾚｲﾔ
  6
Continuous
 62
     7
370
     9
100
AcDbLine
 10
631.0930647438574
 20
532.715706831812
 30
0.0
 11
1117.126304008243
 21
532.715706831812
 31
0.0
  0
LINE
  5
60
330
1F
100
AcDbEntity
  8
F-Fﾚｲﾔ
  6
Continuous
 62
     7
370
     9
100
AcDbLine
 10
631.0930647438574
 20
468.7157068318121
 30
0.0
 11
1117.126304008243
 21
468.7157068318121
 31
0.0
  0
TEXT
  5
61
330
1F
100
AcDbEntity
  8
F-5ﾚｲﾔ
  6
Continuous
 62
     2
370
     9
100
AcDbText
 10
647.6270255014673
 20
606.9717068318121
 30
0.0
 40
12.192
  1
充填深さ 65mm
 41
1.115384615384615
  7
ＭＳ ゴシック
100
AcDbText
  0
TEXT
  5
62
330
1F
100
AcDbEntity
  8
F-5ﾚｲﾔ
  6
Continuous
 62
     2
370
     9
100
AcDbText
 10
647.6270255014672
 20
738.9717068318121
 30
0.0
 40
12.192
  1
化粧用スリットみぞ蓋　インターロッキングブロック用
 41
1.12
  7
ＭＳ ゴシック
100
AcDbText
  0
TEXT
  5
63
330
1F
100
AcDbEntity
  8
F-5ﾚｲﾔ
  6
Continuous
 62
     2
370
     9
100
AcDbText
 10
647.6270255014672
 20
706.9717068318121
 30
0.0
 40
12.192
  1
集水桝用
 41
1.09375
  7
ＭＳ ゴシック
100
AcDbText
  0
LINE
  5
64
330
1F
100
AcDbEntity
  8
仕上
  6
Continuous
 62
     7
370
     9
100
AcDbLine
 10
98.88445748119148
 20
305.7106623596999
 30
0.0
 11
98.88445748119148
 21
301.2106623596999
 31
0.0
  0
LINE
  5
65
330
1F
100
AcDbEntity
  8
仕上
  6
Continuous
 62
     7
370
     9
100
AcDbLine
 10
98.88445748119148
 20
305.7106623596999
 30
0.0
 11
33.18424732230278
 21
305.7106623596999
 31
0.0
  0
LINE
  5
66
330
1F
100
AcDbEntity
  8
仕上
  6
Continuous
 62
     7
370
     9
100
AcDbLine
 10
33.18424732230278
 20
305.7106623596999
 30
0.0
 11
33.18424732230278
 21
303.2106623596999
 31
0.0
  0
LINE
  5
67
330
1F
100
AcDbEntity
  8
仕上
  6
Continuous
 62
     7
370
     9
100
AcDbLine
 10
72.88441954041946
 20
299.7106156996195
 30
0.0
 11
42.88441954041946
 21
299.7106156996195
 31
0.0
  0
LINE
  5
68
330
1F
100
AcDbEntity
  8
仕上
  6
Continuous
 62
     7
370
     9
100
AcDbLine
 10
72.88441954041946
 20
299.7106156996195
 30
0.0
 11
72.88441954041946
 21
292.710543117272
 31
0.0
  0
LINE
  5
69
330
1F
100
AcDbEntity
  8
仕上
  6
Continuous
 62
     7
370
     9
100
AcDbLine
 10
29.68424732230278
 20
298.7107217452565
 30
0.0
 11
29.68424732230278
 21
292.710543117272
 31
0.0
  0
LINE
  5
6A
330
1F
100
AcDbEntity
  8
仕上
  6
Continuous
 62
     7
370
     9
100
AcDbLine
 10
42.88441954041946
 20
299.7106156996195
 30
0.0
 11
42.88441954041946
 21
292.710543117272
 31
0.0
  0
LINE
  5
6B
330
1F
100
AcDbEntity
  8
仕上
  6
Continuous
 62
     7
370
     9
100
AcDbLine
 10
95.68444197496456
 20
288.2106025028305
 30
0.0
 11
20.68424237350564
 21
288.2106025028305
 31
0.0
  0
LINE
  5
6C
330
1F
100
AcDbEntity
  8
仕上
  6
Continuous
 62
     7
370
     9
100
AcDbLine
 10
98.8844574811942
 20
292.710543117272
 30
0.0
 11
20.68424237350564
 21
292.710543117272
 31
0.0
  0
LINE
  5
6D
330
1F
100
AcDbEntity
  8
仕上
  6
Continuous
 62
     7
370
     9
100
AcDbLine
 10
36.68431990465206
 20
303.2106623596999
 30
0.0
 11
36.68431990465206
 21
298.7107217452584
 31
0.0
  0
LINE
  5
6E
330
1F
100
AcDbEntity
  8
仕上
  6
Continuous
 62
     7
370
     9
100
AcDbLine
 10
36.68431990465206
 20
303.2106623596999
 30
0.0
 11
20.68424237350564
 21
303.2106623596999
 31
0.0
  0
LINE
  5
6F
330
1F
100
AcDbEntity
  8
仕上
  6
Continuous
 62
     7
370
     9
100
AcDbLine
 10
36.68431990465206
 20
298.7107217452584
 30
0.0
 11
20.68424237350564
 21
298.7107217452584
 31
0.0
  0
LINE
  5
70
330
1F
100
AcDbEntity
  8
仕上
  6
Continuous
 62
     7
370
     9
100
AcDbLine
 10
20.68424237350564
 20
303.2106623596999
 30
0.0
 11
20.68424237350564
 21
298.7107217452584
 31
0.0
  0
LINE
  5
71
330
1F
100
AcDbEntity
  8
仕上
  6
Continuous
 62
     7
370
     9
100
AcDbLine
 10
98.88445748119148
 20
-245.2899333811289
 30
0.0
 11
98.88445748119148
 21
-240.7899333811285
 31
0.0
  0
LINE
  5
72
330
1F
100
AcDbEntity
  8
仕上
  6
Continuous
 62
     7
370
     9
100
AcDbLine
 10
98.88445748119148
 20
-245.2899333811289
 30
0.0
 11
33.18424732230278
 21
-245.2899333811289
 31
0.0
  0
LINE
  5
73
330
1F
100
AcDbEntity
  8
仕上
  6
Continuous
 62
     7
370
     9
100
AcDbLine
 10
33.18424732230278
 20
-245.2899333811289
 30
0.0
 11
33.18424732230278
 21
-242.7899333811289
 31
0.0
  0
LINE
  5
74
330
1F
100
AcDbEntity
  8
仕上
  6
Continuous
 62
     7
370
     9
100
AcDbLine
 10
72.88441954041946
 20
-239.289886721048
 30
0.0
 11
42.88441954041946
 21
-239.289886721048
 31
0.0
  0
LINE
  5
75
330
1F
100
AcDbEntity
  8
仕上
  6
Continuous
 62
     7
370
     9
100
AcDbLine
 10
72.88441954041946
 20
-239.289886721048
 30
0.0
 11
72.88441954041946
 21
-232.2898141387001
 31
0.0
  0
LINE
  5
76
330
1F
100
AcDbEntity
  8
仕上
  6
Continuous
 62
     7
370
     9
100
AcDbLine
 10
29.68424732230278
 20
-238.2899927666851
 30
0.0
 11
29.68424732230278
 21
-232.2898141387001
 31
0.0
  0
LINE
  5
77
330
1F
100
AcDbEntity
  8
仕上
  6
Continuous
 62
     7
370
     9
100
AcDbLine
 10
42.88441954041946
 20
-239.289886721048
 30
0.0
 11
42.88441954041946
 21
-232.2898141387001
 31
0.0
  0
LINE
  5
78
330
1F
100
AcDbEntity
  8
仕上
  6
Continuous
 62
     7
370
     9
100
AcDbLine
 10
95.68444197496456
 20
-227.7898735242563
 30
0.0
 11
20.68424237350564
 21
-227.7898735242563
 31
0.0
  0
LINE
  5
79
330
1F
100
AcDbEntity
  8
仕上
  6
Continuous
 62
     7
370
     9
100
AcDbLine
 10
98.8844574811942
 20
-232.2898141387001
 30
0.0
 11
20.68424237350564
 21
-232.2898141387001
 31
0.0
  0
LINE
  5
7A
330
1F
100
AcDbEntity
  8
仕上
  6
Continuous
 62
     7
370
     9
100
AcDbLine
 10
36.68431990465206
 20
-242.7899333811289
 30
0.0
 11
36.68431990465206
 21
-238.2899927666851
 31
0.0
  0
LINE
  5
7B
330
1F
100
AcDbEntity
  8
仕上
  6
Continuous
 62
     7
370
     9
100
AcDbLine
 10
36.68431990465206
 20
-242.7899333811289
 30
0.0
 11
20.68424237350564
 21
-242.7899333811289
 31
0.0
  0
LINE
  5
7C
330
1F
100
AcDbEntity
  8
仕上
  6
Continuous
 62
     7
370
     9
100
AcDbLine
 10
36.68431990465206
 20
-238.2899927666851
 30
0.0
 11
20.68424237350564
 21
-238.2899927666851
 31
0.0
  0
LINE
  5
7D
330
1F
100
AcDbEntity
  8
仕上
  6
Continuous
 62
     7
370
     9
100
AcDbLine
 10
20.68424237350564
 20
-242.7899333811289
 30
0.0
 11
20.68424237350564
 21
-238.2899927666851
 31
0.0
  0
LINE
  5
7E
330
1F
100
AcDbEntity
  8
仕上
  6
Continuous
 62
     2
370
     9
100
AcDbLine
 10
98.8844574811942
 20
305.7106623596999
 30
0.0
 11
98.8844574811942
 21
-245.2899333811289
 31
0.0
  0
LINE
  5
7F
330
1F
100
AcDbEntity
  8
仕上
  6
Continuous
 62
     7
370
     9
100
AcDbLine
 10
95.68444197496456
 20
-232.2898141387001
 30
0.0
 11
95.68444197496456
 21
292.710543117272
 31
0.0
  0
LINE
  5
80
330
1F
100
AcDbEntity
  8
仕上
  6
Continuous
 62
     7
370
     9
100
AcDbLine
 10
20.68424237350564
 20
-232.2898141387001
 30
0.0
 11
20.68424237350564
 21
292.710543117272
 31
0.0
  0
LINE
  5
81
330
1F
100
AcDbEntity
  8
仕上
  6
Continuous
 62
     3
370
     9
100
AcDbLine
 10
94.68444197496365
 20
162.7103644892857
 30
0.0
 11
85.68444197496456
 21
178.298821757406
 31
0.0
  0
LINE
  5
82
330
1F
100
AcDbEntity
  8
仕上
  6
Continuous
 62
     3
370
     9
100
AcDbLine
 10
94.68444197496365
 20
147.7103644892857
 30
0.0
 11
94.68444197496365
 21
162.7103644892857
 31
0.0
  0
LINE
  5
83
330
1F
100
AcDbEntity
  8
仕上
  6
Continuous
 62
     3
370
     9
100
AcDbLine
 10
94.68444197496365
 20
147.7103644892857
 30
0.0
 11
85.68444197496456
 21
132.1219072211655
 31
0.0
  0
LINE
  5
84
330
1F
100
AcDbEntity
  8
仕上
  6
Continuous
 62
     3
370
     9
100
AcDbLine
 10
85.68444197496456
 20
132.1219072211655
 30
0.0
 11
86.55046737874864
 21
131.6219072211659
 31
0.0
  0
LINE
  5
85
330
1F
100
AcDbEntity
  8
仕上
  6
Continuous
 62
     3
370
     9
100
AcDbLine
 10
85.68444197496456
 20
178.298821757406
 30
0.0
 11
86.55046737874864
 21
178.7988217574055
 31
0.0
  0
LINE
  5
86
330
1F
100
AcDbEntity
  8
仕上
  6
Continuous
 62
     3
370
     9
100
AcDbLine
 10
95.68444197496456
 20
162.9783136817171
 30
0.0
 11
86.55046737874864
 21
178.7988217574055
 31
0.0
  0
LINE
  5
87
330
1F
100
AcDbEntity
  8
仕上
  6
Continuous
 62
     3
370
     9
100
AcDbLine
 10
95.68444197496456
 20
147.4424152968548
 30
0.0
 11
95.68444197496456
 21
162.9783136817171
 31
0.0
  0
LINE
  5
88
330
1F
100
AcDbEntity
  8
仕上
  6
Continuous
 62
     3
370
     9
100
AcDbLine
 10
95.68444197496456
 20
147.4424152968548
 30
0.0
 11
86.55046737874864
 21
131.6219072211659
 31
0.0
  0
LINE
  5
89
330
1F
100
AcDbEntity
  8
仕上
  6
Continuous
 62
     3
370
     9
100
AcDbLine
 10
94.68444197496365
 20
-102.2896355107143
 30
0.0
 11
85.68444197496456
 21
-117.8780927788345
 31
0.0
  0
LINE
  5
8A
330
1F
100
AcDbEntity
  8
仕上
  6
Continuous
 62
     3
370
     9
100
AcDbLine
 10
94.68444197496365
 20
-87.28963551071428
 30
0.0
 11
94.68444197496365
 21
-102.2896355107143
 31
0.0
  0
LINE
  5
8B
330
1F
100
AcDbEntity
  8
仕上
  6
Continuous
 62
     3
370
     9
100
AcDbLine
 10
94.68444197496365
 20
-87.28963551071428
 30
0.0
 11
85.68444197496456
 21
-71.70117824259404
 31
0.0
  0
LINE
  5
8C
330
1F
100
AcDbEntity
  8
仕上
  6
Continuous
 62
     3
370
     9
100
AcDbLine
 10
85.68444197496456
 20
-71.70117824259404
 30
0.0
 11
86.55046737874864
 21
-71.2011782425945
 31
0.0
  0
LINE
  5
8D
330
1F
100
AcDbEntity
  8
仕上
  6
Continuous
 62
     3
370
     9
100
AcDbLine
 10
85.68444197496456
 20
-117.8780927788345
 30
0.0
 11
86.55046737874864
 21
-118.3780927788341
 31
0.0
  0
LINE
  5
8E
330
1F
100
AcDbEntity
  8
仕上
  6
Continuous
 62
     3
370
     9
100
AcDbLine
 10
95.68444197496456
 20
-102.5575847031457
 30
0.0
 11
86.55046737874864
 21
-118.3780927788341
 31
0.0
  0
LINE
  5
8F
330
1F
100
AcDbEntity
  8
仕上
  6
Continuous
 62
     3
370
     9
100
AcDbLine
 10
95.68444197496456
 20
-87.02168631828334
 30
0.0
 11
95.68444197496456
 21
-102.5575847031457
 31
0.0
  0
LINE
  5
90
330
1F
100
AcDbEntity
  8
仕上
  6
Continuous
 62
     3
370
     9
100
AcDbLine
 10
95.68444197496456
 20
-87.02168631828334
 30
0.0
 11
86.55046737874864
 21
-71.2011782425945
 31
0.0
  0
LINE
  5
91
330
1F
100
AcDbEntity
  8
仕上
  6
Continuous
 62
     2
370
     9
100
AcDbLine
 10
136.8845333627391
 20
301.2104238748441
 30
0.0
 11
98.8844574811942
 21
301.2104238748441
 31
0.0
  0
LINE
  5
92
330
1F
100
AcDbEntity
  8
仕上
  6
Continuous
 62
     2
370
     9
100
AcDbLine
 10
130.8844888235703
 20
305.7106623596999
 30
0.0
 11
130.8844888235703
 21
301.2104238748441
 31
0.0
  0
LINE
  5
93
330
1F
100
AcDbEntity
  8
仕上
  6
Continuous
 62
     2
370
     9
100
AcDbLine
 10
98.8844574811942
 20
305.7106623596999
 30
0.0
 11
130.8844888235703
 21
305.7106623596999
 31
0.0
  0
LINE
  5
94
330
1F
100
AcDbEntity
  8
仕上
  6
Continuous
 62
     2
370
     9
100
AcDbLine
 10
136.8845333627391
 20
-240.78969489627
 30
0.0
 11
98.8844574811942
 21
-240.78969489627
 31
0.0
  0
LINE
  5
95
330
1F
100
AcDbEntity
  8
仕上
  6
Continuous
 62
     2
370
     9
100
AcDbLine
 10
130.8844888235703
 20
-245.2899333811289
 30
0.0
 11
130.8844888235703
 21
-240.78969489627
 31
0.0
  0
LINE
  5
96
330
1F
100
AcDbEntity
  8
仕上
  6
Continuous
 62
     2
370
     9
100
AcDbLine
 10
98.8844574811942
 20
-245.2899333811289
 30
0.0
 11
130.8844888235703
 21
-245.2899333811289
 31
0.0
  0
LINE
  5
97
330
1F
100
AcDbEntity
  8
仕上
  6
Continuous
 62
     2
370
     9
100
AcDbLine
 10
136.8845333627391
 20
-240.78969489627
 30
0.0
 11
136.8845333627391
 21
301.2104238748441
 31
0.0
  0
LINE
  5
98
330
1F
100
AcDbEntity
  8
通り芯
  6
JWW_CENTER2
 62
     7
370
     9
100
AcDbLine
 10
13.60539291901932
 20
30.21036448928572
 30
0.0
 11
148.9914488954369
 21
30.21036448928572
 31
0.0
  0
LINE
  5
99
330
1F
100
AcDbEntity
  8
通り芯
  6
JWW_CENTER2
 62
     7
370
     9
100
AcDbLine
 10
100.0756690791932
 20
155.2103644892857
 30
0.0
 11
83.59030452357865
 21
155.2103644892857
 31
0.0
  0
LINE
  5
9A
330
1F
100
AcDbEntity
  8
通り芯
  6
JWW_CENTER2
 62
     7
370
     9
100
AcDbLine
 10
100.0756690791932
 20
-94.78963551071428
 30
0.0
 11
83.59030452357865
 21
-94.78963551071428
 31
0.0
  0
LINE
  5
9B
330
1F
100
AcDbEntity
  8
建具
  6
Continuous
 62
     4
370
     9
100
AcDbLine
 10
132.8845201659487
 20
-248.7896652034935
 30
0.0
 11
20.68461518284039
 21
-248.7896652034935
 31
0.0
  0
LINE
  5
9C
330
1F
100
AcDbEntity
  8
建具
  6
Continuous
 62
     4
370
     9
100
AcDbLine
 10
136.8845333627391
 20
-244.789602518738
 30
0.0
 11
136.8845333627391
 21
-194.7896355107143
 31
0.0
  0
LINE
  5
9D
330
1F
100
AcDbEntity
  8
建具
  6
Continuous
 62
     4
370
     9
100
AcDbLine
 10
136.8845333627391
 20
-194.7896355107143
 30
0.0
 11
142.8844541819958
 21
-194.7896355107143
 31
0.0
  0
LINE
  5
9E
330
1F
100
AcDbEntity
  8
建具
  6
Continuous
 62
     4
370
     9
100
AcDbLine
 10
20.68461518284039
 20
-248.7896652034935
 30
0.0
 11
20.68461518284039
 21
-254.7895860227501
 31
0.0
  0
LINE
  5
9F
330
1F
100
AcDbEntity
  8
建具
  6
Continuous
 62
     4
370
     9
100
AcDbLine
 10
20.68461518284039
 20
-254.7895860227501
 30
0.0
 11
132.8845201659487
 21
-254.7895860227501
 31
0.0
  0
LINE
  5
A0
330
1F
100
AcDbEntity
  8
建具
  6
Continuous
 62
     4
370
     9
100
AcDbLine
 10
142.8844541819958
 20
-194.7896355107143
 30
0.0
 11
148.8845729531108
 21
-194.7896355107143
 31
0.0
  0
LINE
  5
A1
330
1F
100
AcDbEntity
  8
建具
  6
Continuous
 62
     4
370
     9
100
AcDbLine
 10
142.8844541819958
 20
-294.7896190147264
 30
0.0
 11
148.8845729531108
 21
-294.7896190147264
 31
0.0
  0
LINE
  5
A2
330
1F
100
AcDbEntity
  8
建具
  6
JWW_CENTER1
 62
     4
370
     9
100
AcDbLine
 10
133.9574192368946
 20
-276.7896091171335
 30
0.0
 11
159.8956450603741
 21
-276.7896091171335
 31
0.0
  0
LINE
  5
A3
330
1F
100
AcDbEntity
  8
建具
  6
Continuous
 62
     4
370
     9
100
AcDbLine
 10
142.8844541819958
 20
-284.7895860227501
 30
0.0
 11
148.8845729531108
 21
-284.7895860227501
 31
0.0
  0
LINE
  5
A4
330
1F
100
AcDbEntity
  8
建具
  6
Continuous
 62
     4
370
     9
100
AcDbLine
 10
142.8844541819958
 20
-194.7896355107143
 30
0.0
 11
142.8844541819958
 21
-294.7896190147264
 31
0.0
  0
LINE
  5
A5
330
1F
100
AcDbEntity
  8
建具
  6
Continuous
 62
     4
370
     9
100
AcDbLine
 10
148.8845729531108
 20
-194.7896355107143
 30
0.0
 11
148.8845729531108
 21
-294.7896190147264
 31
0.0
  0
LINE
  5
A6
330
1F
100
AcDbEntity
  8
建具
  6
Continuous
 62
     4
370
     9
100
AcDbLine
 10
142.8844541819958
 20
-268.7895827235522
 30
0.0
 11
148.8845729531108
 21
-268.7895827235522
 31
0.0
  0
ARC
  5
A7
330
1F
100
AcDbEntity
  8
建具
  6
Continuous
 62
     4
370
     9
100
AcDbCircle
 10
132.8845201659487
 20
-244.789602518738
 30
0.0
 40
4.000000051549963
100
AcDbArc
 50
270.0
 51
0.0
  0
ARC
  5
A8
330
1F
100
AcDbEntity
  8
建具
  6
Continuous
 62
     4
370
     9
100
AcDbCircle
 10
132.8845201659487
 20
-244.789602518738
 30
0.0
 40
10.00000051549963
100
AcDbArc
 50
270.0
 51
0.0
  0
LINE
  5
A9
330
1F
100
AcDbEntity
  8
建具
  6
Continuous
 62
     4
370
     9
100
AcDbLine
 10
132.8845201659487
 20
309.2104436700286
 30
0.0
 11
20.68461518284039
 21
309.2104436700286
 31
0.0
  0
LINE
  5
AA
330
1F
100
AcDbEntity
  8
建具
  6
Continuous
 62
     4
370
     9
100
AcDbLine
 10
136.8845333627391
 20
305.2102325213801
 30
0.0
 11
136.8845333627391
 21
255.2103644892855
 31
0.0
  0
LINE
  5
AB
330
1F
100
AcDbEntity
  8
建具
  6
Continuous
 62
     4
370
     9
100
AcDbLine
 10
136.8845333627391
 20
255.2103644892855
 30
0.0
 11
142.8844541819958
 21
255.2103644892855
 31
0.0
  0
LINE
  5
AC
330
1F
100
AcDbEntity
  8
建具
  6
Continuous
 62
     4
370
     9
100
AcDbLine
 10
20.68461518284039
 20
309.2104436700286
 30
0.0
 11
20.68461518284039
 21
315.2103644892855
 31
0.0
  0
LINE
  5
AD
330
1F
100
AcDbEntity
  8
建具
  6
Continuous
 62
     4
370
     9
100
AcDbLine
 10
20.68461518284039
 20
315.2103644892855
 30
0.0
 11
132.8845201659487
 21
315.2103644892855
 31
0.0
  0
LINE
  5
AE
330
1F
100
AcDbEntity
  8
建具
  6
Continuous
 62
     4
370
     9
100
AcDbLine
 10
142.8844541819958
 20
255.2103644892855
 30
0.0
 11
148.8845729531108
 21
255.2103644892855
 31
0.0
  0
LINE
  5
AF
330
1F
100
AcDbEntity
  8
建具
  6
Continuous
 62
     4
370
     9
100
AcDbLine
 10
142.8844541819958
 20
355.2102985053328
 30
0.0
 11
148.8845729531108
 21
355.2102985053328
 31
0.0
  0
LINE
  5
B0
330
1F
100
AcDbEntity
  8
建具
  6
JWW_CENTER1
 62
     4
370
     9
100
AcDbLine
 10
133.9574192368946
 20
337.2103380957045
 30
0.0
 11
159.8956450603741
 21
337.2103380957045
 31
0.0
  0
LINE
  5
B1
330
1F
100
AcDbEntity
  8
建具
  6
Continuous
 62
     4
370
     9
100
AcDbLine
 10
142.8844541819958
 20
345.2103644892855
 30
0.0
 11
148.8845729531108
 21
345.2103644892855
 31
0.0
  0
LINE
  5
B2
330
1F
100
AcDbEntity
  8
建具
  6
Continuous
 62
     4
370
     9
100
AcDbLine
 10
142.8844541819958
 20
255.2103644892855
 30
0.0
 11
142.8844541819958
 21
355.2102985053328
 31
0.0
  0
LINE
  5
B3
330
1F
100
AcDbEntity
  8
建具
  6
Continuous
 62
     4
370
     9
100
AcDbLine
 10
148.8845729531108
 20
255.2103644892855
 30
0.0
 11
148.8845729531108
 21
355.2102985053328
 31
0.0
  0
LINE
  5
B4
330
1F
100
AcDbEntity
  8
建具
  6
Continuous
 62
     4
370
     9
100
AcDbLine
 10
142.8844541819958
 20
329.2103117021232
 30
0.0
 11
148.8845729531108
 21
329.2103117021232
 31
0.0
  0
ARC
  5
B5
330
1F
100
AcDbEntity
  8
建具
  6
Continuous
 62
     4
370
     9
100
AcDbCircle
 10
132.8845201659487
 20
305.2102325213801
 30
0.0
 40
4.000000051549963
100
AcDbArc
 50
0.0
 51
90.0
  0
ARC
  5
B6
330
1F
100
AcDbEntity
  8
建具
  6
Continuous
 62
     4
370
     9
100
AcDbCircle
 10
132.8845201659487
 20
305.2102325213801
 30
0.0
 40
10.00000051549963
100
AcDbArc
 50
0.0
 51
90.0
  0
LWPOLYLINE
  5
B7
330
1F
100
AcDbEntity
  8
その他
  6
Continuous
 62
     7
370
     9
100
AcDbPolyline
 90
        4
 70
     1
 43
0.4
 10
-146.063233853083
 20
-254.7895860227501
 42
0.4142135623731
 10
-146.263233853083
 20
-254.5895860227502
 42
0.4142135623731
 10
-146.463233853083
 20
-254.7895860227501
 42
0.4142135623731
 10
-146.263233853083
 20
-254.9895860227501
 42
0.4142135623731
  0
LINE
  5
B8
330
1F
100
AcDbEntity
  8
その他
  6
Continuous
 62
     7
370
     9
100
AcDbLine
 10
-109.3819140020983
 20
-254.7895860227501
 30
0.0
 11
-109.3819140020983
 21
-248.7896652034935
 31
0.0
  0
LWPOLYLINE
  5
B9
330
1F
100
AcDbEntity
  8
その他
  6
Continuous
 62
     7
370
     9
100
AcDbPolyline
 90
        4
 70
     1
 43
0.4
 10
-109.1819140020983
 20
-254.7895860227501
 42
0.4142135623731
 10
-109.3819140020983
 20
-254.5895860227502
 42
0.4142135623731
 10
-109.5819140020983
 20
-254.7895860227501
 42
0.4142135623731
 10
-109.3819140020983
 20
-254.9895860227501
 42
0.4142135623731
  0
LWPOLYLINE
  5
BA
330
1F
100
AcDbEntity
  8
その他
  6
Continuous
 62
     7
370
     9
100
AcDbPolyline
 90
        4
 70
     1
 43
0.4
 10
-109.1819140020983
 20
-248.7896652034935
 42
0.4142135623731
 10
-109.3819140020983
 20
-248.5896652034935
 42
0.4142135623731
 10
-109.5819140020983
 20
-248.7896652034935
 42
0.4142135623731
 10
-109.3819140020983
 20
-248.9896652034935
 42
0.4142135623731
  0
LINE
  5
BB
330
1F
100
AcDbEntity
  8
その他
  6
Continuous
 62
     7
370
     9
100
AcDbLine
 10
-109.3819140020983
 20
-248.7896652034935
 30
0.0
 11
-109.3819140020983
 21
-245.2899333811299
 31
0.0
  0
LWPOLYLINE
  5
BC
330
1F
100
AcDbEntity
  8
その他
  6
Continuous
 62
     7
370
     9
100
AcDbPolyline
 90
        4
 70
     1
 43
0.4
 10
-109.1819140020983
 20
-245.2899333811299
 42
0.4142135623731
 10
-109.3819140020983
 20
-245.0899333811299
 42
0.4142135623731
 10
-109.5819140020983
 20
-245.2899333811299
 42
0.4142135623731
 10
-109.3819140020983
 20
-245.4899333811298
 42
0.4142135623731
  0
LWPOLYLINE
  5
BD
330
1F
100
AcDbEntity
  8
その他
  6
Continuous
 62
     7
370
     9
100
AcDbPolyline
 90
        4
 70
     1
 43
0.4
 10
-22.08432466182676
 20
-242.7899333811299
 42
0.4142135623731
 10
-22.28432466182676
 20
-242.5899333811299
 42
0.4142135623731
 10
-22.48432466182676
 20
-242.7899333811299
 42
0.4142135623731
 10
-22.28432466182676
 20
-242.9899333811298
 42
0.4142135623731
  0
LINE
  5
BE
330
1F
100
AcDbEntity
  8
その他
  6
Continuous
 62
     7
370
     9
100
AcDbLine
 10
-22.28432466182676
 20
-242.7899333811299
 30
0.0
 11
-22.28432466182676
 21
-238.2899927666855
 31
0.0
  0
LWPOLYLINE
  5
BF
330
1F
100
AcDbEntity
  8
その他
  6
Continuous
 62
     7
370
     9
100
AcDbPolyline
 90
        4
 70
     1
 43
0.4
 10
-22.08432466182676
 20
-238.2899927666855
 42
0.4142135623731
 10
-22.28432466182676
 20
-238.0899927666856
 42
0.4142135623731
 10
-22.48432466182676
 20
-238.2899927666855
 42
0.4142135623731
 10
-22.28432466182676
 20
-238.4899927666855
 42
0.4142135623731
  0
LINE
  5
C0
330
1F
100
AcDbEntity
  8
その他
  6
Continuous
 62
     7
370
     9
100
AcDbLine
 10
-22.28432466182676
 20
-238.2899927666855
 30
0.0
 11
-22.28432466182676
 21
-232.289814138701
 31
0.0
  0
LWPOLYLINE
  5
C1
330
1F
100
AcDbEntity
  8
その他
  6
Continuous
 62
     7
370
     9
100
AcDbPolyline
 90
        4
 70
     1
 43
0.4
 10
-22.08432466182676
 20
-232.289814138701
 42
0.4142135623731
 10
-22.28432466182676
 20
-232.0898141387011
 42
0.4142135623731
 10
-22.48432466182676
 20
-232.289814138701
 42
0.4142135623731
 10
-22.28432466182676
 20
-232.489814138701
 42
0.4142135623731
  0
TEXT
  5
C2
330
1F
100
AcDbEntity
  8
その他
  6
Continuous
 62
     2
370
   211
100
AcDbText
 10
-26.94032466182685
 20
-228.4071673201162
 30
0.0
 40
12.192
  1
6
 50
90.0
  7
ＭＳ ゴシック
100
AcDbText
  0
LINE
  5
C3
330
1F
100
AcDbEntity
  8
その他
  6
Continuous
 62
     7
370
     9
100
AcDbLine
 10
-22.28432466182676
 20
-232.289814138701
 30
0.0
 11
-22.28432466182676
 21
-217.5213051703428
 31
0.0
  0
LWPOLYLINE
  5
C4
330
1F
100
AcDbEntity
  8
その他
  6
Continuous
 62
     7
370
     9
100
AcDbPolyline
 90
        4
 70
     1
 43
0.4
 10
-78.22588932388116
 20
-227.7898735242576
 42
0.4142135623731
 10
-78.42588932388117
 20
-227.5898735242577
 42
0.4142135623731
 10
-78.62588932388117
 20
-227.7898735242576
 42
0.4142135623731
 10
-78.42588932388117
 20
-227.9898735242576
 42
0.4142135623731
  0
LINE
  5
C5
330
1F
100
AcDbEntity
  8
その他
  6
Continuous
 62
     7
370
     9
100
AcDbLine
 10
-79.62588932388098
 20
-227.7898735242576
 30
0.0
 11
-63.06974667146187
 21
-227.7898735242576
 31
0.0
  0
LINE
  5
C6
330
1F
100
AcDbEntity
  8
その他
  6
Continuous
 62
     7
370
     9
100
AcDbLine
 10
-110.5819140020985
 20
-245.2899333811299
 30
0.0
 11
-63.06974667146187
 21
-245.2899333811299
 31
0.0
  0
LINE
  5
C7
330
1F
100
AcDbEntity
  8
その他
  6
Continuous
 62
     7
370
     9
100
AcDbLine
 10
-110.5819140020985
 20
-248.7896652034935
 30
0.0
 11
-63.06974667146187
 21
-248.7896652034935
 31
0.0
  0
LINE
  5
C8
330
1F
100
AcDbEntity
  8
その他
  6
Continuous
 62
     7
370
     9
100
AcDbLine
 10
-147.4632338530828
 20
-254.7895860227501
 30
0.0
 11
-63.06974667146187
 21
-254.7895860227501
 31
0.0
  0
TEXT
  5
C9
330
1F
100
AcDbEntity
  8
その他
  6
Continuous
 62
     2
370
   211
100
AcDbText
 10
-114.0379140020983
 20
-267.9948036821594
 30
0.0
 40
12.192
  1
6
 50
90.0
  7
ＭＳ ゴシック
100
AcDbText
  0
TEXT
  5
CA
330
1F
100
AcDbEntity
  8
その他
  6
Continuous
 62
     2
370
   211
100
AcDbText
 10
-114.0379140020983
 20
-249.0196395877835
 30
0.0
 40
12.192
  1
3.5
 50
90.0
 41
1.083333333333333
  7
ＭＳ ゴシック
100
AcDbText
  0
LINE
  5
CB
330
1F
100
AcDbEntity
  8
その他
  6
Continuous
 62
     7
370
     9
100
AcDbLine
 10
-109.3819140020983
 20
-254.7895860227501
 30
0.0
 11
-109.3819140020983
 21
-275.9425300141331
 31
0.0
  0
LINE
  5
CC
330
1F
100
AcDbEntity
  8
その他
  6
Continuous
 62
     7
370
     9
100
AcDbLine
 10
-23.48432466182703
 20
-232.289814138701
 30
0.0
 11
12.68461518284039
 21
-232.289814138701
 31
0.0
  0
LINE
  5
CD
330
1F
100
AcDbEntity
  8
その他
  6
Continuous
 62
     7
370
     9
100
AcDbLine
 10
-23.48432466182703
 20
-242.7899333811299
 30
0.0
 11
12.68461518284039
 21
-242.7899333811299
 31
0.0
  0
LINE
  5
CE
330
1F
100
AcDbEntity
  8
その他
  6
Continuous
 62
     7
370
     9
100
AcDbLine
 10
-23.48432466182703
 20
-238.2899927666855
 30
0.0
 11
12.68461518284039
 21
-238.2899927666855
 31
0.0
  0
LWPOLYLINE
  5
CF
330
1F
100
AcDbEntity
  8
その他
  6
Continuous
 62
     7
370
     9
100
AcDbPolyline
 90
        4
 70
     1
 43
0.4
 10
-22.08432466182676
 20
-248.7896652034935
 42
0.4142135623731
 10
-22.28432466182676
 20
-248.5896652034935
 42
0.4142135623731
 10
-22.48432466182676
 20
-248.7896652034935
 42
0.4142135623731
 10
-22.28432466182676
 20
-248.9896652034935
 42
0.4142135623731
  0
LINE
  5
D0
330
1F
100
AcDbEntity
  8
その他
  6
Continuous
 62
     7
370
     9
100
AcDbLine
 10
-23.48432466182703
 20
-248.7896652034935
 30
0.0
 11
12.68461518284039
 21
-248.7896652034935
 31
0.0
  0
LINE
  5
D1
330
1F
100
AcDbEntity
  8
その他
  6
Continuous
 62
     7
370
     9
100
AcDbLine
 10
-22.28432466182676
 20
-248.7896652034935
 30
0.0
 11
-22.28432466182676
 21
-242.7899333811299
 31
0.0
  0
TEXT
  5
D2
330
1F
100
AcDbEntity
  8
その他
  6
Continuous
 62
     2
370
   211
100
AcDbText
 10
-26.94032466182685
 20
-260.0696202633229
 30
0.0
 40
12.192
  1
6
 50
90.0
  7
ＭＳ ゴシック
100
AcDbText
  0
LINE
  5
D3
330
1F
100
AcDbEntity
  8
その他
  6
Continuous
 62
     7
370
     9
100
AcDbLine
 10
-22.28432466182676
 20
-248.7896652034935
 30
0.0
 11
-22.28432466182676
 21
-263.063411286917
 31
0.0
  0
LINE
  5
D4
330
1F
100
AcDbEntity
  8
その他
  6
Continuous
 62
     7
370
     9
100
AcDbLine
 10
-22.28432466182676
 20
-240.5399630739077
 30
0.0
 11
-42.50120154304432
 21
-249.9595828760395
 31
0.0
  0
LINE
  5
D5
330
1F
100
AcDbEntity
  8
その他
  6
Continuous
 62
     7
370
     9
100
AcDbLine
 10
-42.50120154304432
 20
-249.9595828760395
 30
0.0
 11
-42.50120154304432
 21
-273.7902782156936
 31
0.0
  0
TEXT
  5
D6
330
1F
100
AcDbEntity
  8
その他
  6
Continuous
 62
     2
370
   211
100
AcDbText
 10
-46.397720425122
 20
-276.1700770317172
 30
0.0
 40
12.192
  1
4.5
 50
90.0
 41
1.083333333333333
  7
ＭＳ ゴシック
100
AcDbText
  0
LINE
  5
D7
330
1F
100
AcDbEntity
  8
その他
  6
Continuous
 62
     7
370
     9
100
AcDbLine
 10
-146.263233853083
 20
315.2103644892857
 30
0.0
 11
-146.263233853083
 21
-254.7895860227501
 31
0.0
  0
LWPOLYLINE
  5
D8
330
1F
100
AcDbEntity
  8
その他
  6
Continuous
 62
     7
370
     9
100
AcDbPolyline
 90
        4
 70
     1
 43
0.4
 10
-146.063233853083
 20
315.2103644892857
 42
0.4142135623731
 10
-146.263233853083
 20
315.4103644892857
 42
0.4142135623731
 10
-146.463233853083
 20
315.2103644892857
 42
0.4142135623731
 10
-146.263233853083
 20
315.0103644892857
 42
0.4142135623731
  0
LWPOLYLINE
  5
D9
330
1F
100
AcDbEntity
  8
その他
  6
Continuous
 62
     7
370
     9
100
AcDbPolyline
 90
        4
 70
     1
 43
0.4
 10
-109.1819140020983
 20
305.7106623596999
 42
0.4142135623731
 10
-109.3819140020983
 20
305.9106623596999
 42
0.4142135623731
 10
-109.5819140020983
 20
305.7106623596999
 42
0.4142135623731
 10
-109.3819140020983
 20
305.5106623596999
 42
0.4142135623731
  0
LINE
  5
DA
330
1F
100
AcDbEntity
  8
その他
  6
Continuous
 62
     7
370
     9
100
AcDbLine
 10
-109.3819140020983
 20
305.7106623596999
 30
0.0
 11
-109.3819140020983
 21
309.2104436700291
 31
0.0
  0
LWPOLYLINE
  5
DB
330
1F
100
AcDbEntity
  8
その他
  6
Continuous
 62
     7
370
     9
100
AcDbPolyline
 90
        4
 70
     1
 43
0.4
 10
-109.1819140020983
 20
309.2104436700291
 42
0.4142135623731
 10
-109.3819140020983
 20
309.4104436700291
 42
0.4142135623731
 10
-109.5819140020983
 20
309.2104436700291
 42
0.4142135623731
 10
-109.3819140020983
 20
309.0104436700291
 42
0.4142135623731
  0
LINE
  5
DC
330
1F
100
AcDbEntity
  8
その他
  6
Continuous
 62
     7
370
     9
100
AcDbLine
 10
-109.3819140020983
 20
309.2104436700291
 30
0.0
 11
-109.3819140020983
 21
315.2103644892857
 31
0.0
  0
LWPOLYLINE
  5
DD
330
1F
100
AcDbEntity
  8
その他
  6
Continuous
 62
     7
370
     9
100
AcDbPolyline
 90
        4
 70
     1
 43
0.4
 10
-109.1819140020983
 20
315.2103644892857
 42
0.4142135623731
 10
-109.3819140020983
 20
315.4103644892857
 42
0.4142135623731
 10
-109.5819140020983
 20
315.2103644892857
 42
0.4142135623731
 10
-109.3819140020983
 20
315.0103644892857
 42
0.4142135623731
  0
LWPOLYLINE
  5
DE
330
1F
100
AcDbEntity
  8
その他
  6
Continuous
 62
     7
370
     9
100
AcDbPolyline
 90
        4
 70
     1
 43
0.4
 10
-78.22588932388116
 20
288.2106025028305
 42
0.4142135623731
 10
-78.42588932388117
 20
288.4106025028304
 42
0.4142135623731
 10
-78.62588932388117
 20
288.2106025028305
 42
0.4142135623731
 10
-78.42588932388117
 20
288.0106025028305
 42
0.4142135623731
  0
TEXT
  5
DF
330
1F
100
AcDbEntity
  8
その他
  6
Continuous
 62
     2
370
   211
100
AcDbText
 10
-114.0379140020983
 20
282.2717092384249
 30
0.0
 40
12.192
  1
3.5
 50
90.0
 41
1.083333333333333
  7
ＭＳ ゴシック
100
AcDbText
  0
TEXT
  5
E0
330
1F
100
AcDbEntity
  8
その他
  6
Continuous
 62
     2
370
   211
100
AcDbText
 10
-114.0379140020983
 20
318.4096826557321
 30
0.0
 40
12.192
  1
6
 50
90.0
  7
ＭＳ ゴシック
100
AcDbText
  0
LINE
  5
E1
330
1F
100
AcDbEntity
  8
その他
  6
Continuous
 62
     7
370
     9
100
AcDbLine
 10
-109.3819140020983
 20
315.2103644892857
 30
0.0
 11
-109.3819140020983
 21
331.6977041529775
 31
0.0
  0
LINE
  5
E2
330
1F
100
AcDbEntity
  8
その他
  6
Continuous
 62
     7
370
     9
100
AcDbLine
 10
-147.4632338530828
 20
315.2103644892857
 30
0.0
 11
12.68461518284039
 21
315.2103644892857
 31
0.0
  0
LINE
  5
E3
330
1F
100
AcDbEntity
  8
その他
  6
Continuous
 62
     7
370
     9
100
AcDbLine
 10
-79.62588932388098
 20
288.2106025028305
 30
0.0
 11
12.68461518284039
 21
288.2106025028305
 31
0.0
  0
LINE
  5
E4
330
1F
100
AcDbEntity
  8
その他
  6
Continuous
 62
     7
370
     9
100
AcDbLine
 10
-110.5819140020985
 20
305.7106623596999
 30
0.0
 11
12.68461518284039
 21
305.7106623596999
 31
0.0
  0
LINE
  5
E5
330
1F
100
AcDbEntity
  8
その他
  6
Continuous
 62
     7
370
     9
100
AcDbLine
 10
-110.5819140020985
 20
309.2104436700291
 30
0.0
 11
12.68461518284039
 21
309.2104436700291
 31
0.0
  0
LWPOLYLINE
  5
E6
330
1F
100
AcDbEntity
  8
その他
  6
Continuous
 62
     7
370
     9
100
AcDbPolyline
 90
        4
 70
     1
 43
0.4
 10
238.622355717264
 20
-194.7896355107143
 42
0.4142135623731
 10
238.4223557172641
 20
-194.5896355107143
 42
0.4142135623731
 10
238.2223557172641
 20
-194.7896355107143
 42
0.4142135623731
 10
238.4223557172641
 20
-194.9896355107143
 42
0.4142135623731
  0
LINE
  5
E7
330
1F
100
AcDbEntity
  8
その他
  6
Continuous
 62
     7
370
     9
100
AcDbLine
 10
239.6223557172639
 20
-194.7896355107143
 30
0.0
 11
156.8845729531108
 21
-194.7896355107143
 31
0.0
  0
LINE
  5
E8
330
1F
100
AcDbEntity
  8
その他
  6
Continuous
 62
     7
370
     9
100
AcDbLine
 10
238.4223557172641
 20
-194.7896355107143
 30
0.0
 11
238.4223557172641
 21
-254.7895860227497
 31
0.0
  0
LWPOLYLINE
  5
E9
330
1F
100
AcDbEntity
  8
その他
  6
Continuous
 62
     7
370
     9
100
AcDbPolyline
 90
        4
 70
     1
 43
0.4
 10
238.622355717264
 20
-254.7895860227497
 42
0.4142135623731
 10
238.4223557172641
 20
-254.5895860227497
 42
0.4142135623731
 10
238.2223557172641
 20
-254.7895860227497
 42
0.4142135623731
 10
238.4223557172641
 20
-254.9895860227497
 42
0.4142135623731
  0
TEXT
  5
EA
330
1F
100
AcDbEntity
  8
その他
  6
Continuous
 62
     2
370
   211
100
AcDbText
 10
233.7663557172635
 20
-233.2896107667322
 30
0.0
 40
12.192
  1
60
 50
90.0
 41
1.0625
  7
ＭＳ ゴシック
100
AcDbText
  0
LINE
  5
EB
330
1F
100
AcDbEntity
  8
その他
  6
Continuous
 62
     7
370
     9
100
AcDbLine
 10
239.6223557172639
 20
-254.7895860227497
 30
0.0
 11
156.8845729531108
 21
-254.7895860227497
 31
0.0
  0
LWPOLYLINE
  5
EC
330
1F
100
AcDbEntity
  8
その他
  6
Continuous
 62
     7
370
     9
100
AcDbPolyline
 90
        4
 70
     1
 43
0.4
 10
292.4827424477941
 20
-276.789609117133
 42
0.4142135623731
 10
292.2827424477941
 20
-276.589609117133
 42
0.4142135623731
 10
292.0827424477941
 20
-276.789609117133
 42
0.4142135623731
 10
292.2827424477941
 20
-276.989609117133
 42
0.4142135623731
  0
LINE
  5
ED
330
1F
100
AcDbEntity
  8
その他
  6
Continuous
 62
     7
370
     9
100
AcDbLine
 10
293.4827424477949
 20
-276.789609117133
 30
0.0
 11
167.8956450603741
 21
-276.789609117133
 31
0.0
  0
LINE
  5
EE
330
1F
100
AcDbEntity
  8
その他
  6
Continuous
 62
     7
370
     9
100
AcDbLine
 10
20.68424237350746
 20
60.93862654818957
 30
0.0
 11
95.68444197496638
 21
60.93862654818957
 31
0.0
  0
LWPOLYLINE
  5
EF
330
1F
100
AcDbEntity
  8
その他
  6
Continuous
 62
     7
370
     9
100
AcDbPolyline
 90
        4
 70
     1
 43
0.4
 10
20.88424237350746
 20
60.93862654818957
 42
0.4142135623731
 10
20.68424237350746
 20
61.13862654818958
 42
0.4142135623731
 10
20.48424237350746
 20
60.93862654818957
 42
0.4142135623731
 10
20.68424237350746
 20
60.73862654818957
 42
0.4142135623731
  0
LWPOLYLINE
  5
F0
330
1F
100
AcDbEntity
  8
その他
  6
Continuous
 62
     7
370
     9
100
AcDbPolyline
 90
        4
 70
     1
 43
0.4
 10
95.88444197496638
 20
60.93862654818957
 42
0.4142135623731
 10
95.68444197496638
 20
61.13862654818958
 42
0.4142135623731
 10
95.48444197496637
 20
60.93862654818957
 42
0.4142135623731
 10
95.68444197496638
 20
60.73862654818957
 42
0.4142135623731
  0
TEXT
  5
F1
330
1F
100
AcDbEntity
  8
その他
  6
Continuous
 62
     2
370
   211
100
AcDbText
 10
44.68434217423601
 20
98.89839332720905
 30
0.0
 40
12.192
  1
65
 41
1.0625
  7
ＭＳ ゴシック
100
AcDbText
  0
LINE
  5
F2
330
1F
100
AcDbEntity
  8
その他
  6
Continuous
 62
     7
370
     9
100
AcDbLine
 10
95.68444197496638
 20
60.93862654818957
 30
0.0
 11
98.88445748119284
 21
60.93862654818957
 31
0.0
  0
LWPOLYLINE
  5
F3
330
1F
100
AcDbEntity
  8
その他
  6
Continuous
 62
     7
370
     9
100
AcDbPolyline
 90
        4
 70
     1
 43
0.4
 10
99.08445748119284
 20
60.93862654818957
 42
0.4142135623731
 10
98.88445748119284
 20
61.13862654818958
 42
0.4142135623731
 10
98.68445748119284
 20
60.93862654818957
 42
0.4142135623731
 10
98.88445748119284
 20
60.73862654818957
 42
0.4142135623731
  0
TEXT
  5
F4
330
1F
100
AcDbEntity
  8
その他
  6
Continuous
 62
     2
370
   211
100
AcDbText
 10
49.68434217423692
 20
65.59462654818944
 30
0.0
 40
12.192
  1
75
 41
1.0625
  7
ＭＳ ゴシック
100
AcDbText
  0
LINE
  5
F5
330
1F
100
AcDbEntity
  8
その他
  6
Continuous
 62
     7
370
     9
100
AcDbLine
 10
20.68424237350746
 20
94.24239332720907
 30
0.0
 11
85.68444197496456
 21
94.24239332720907
 31
0.0
  0
LWPOLYLINE
  5
F6
330
1F
100
AcDbEntity
  8
その他
  6
Continuous
 62
     7
370
     9
100
AcDbPolyline
 90
        4
 70
     1
 43
0.4
 10
20.88424237350746
 20
94.24239332720907
 42
0.4142135623731
 10
20.68424237350746
 20
94.44239332720907
 42
0.4142135623731
 10
20.48424237350746
 20
94.24239332720907
 42
0.4142135623731
 10
20.68424237350746
 20
94.04239332720907
 42
0.4142135623731
  0
LWPOLYLINE
  5
F7
330
1F
100
AcDbEntity
  8
その他
  6
Continuous
 62
     7
370
     9
100
AcDbPolyline
 90
        4
 70
     1
 43
0.4
 10
85.88444197496456
 20
94.24239332720907
 42
0.4142135623731
 10
85.68444197496456
 20
94.44239332720907
 42
0.4142135623731
 10
85.48444197496455
 20
94.24239332720907
 42
0.4142135623731
 10
85.68444197496456
 20
94.04239332720907
 42
0.4142135623731
  0
LINE
  5
F8
330
1F
100
AcDbEntity
  8
その他
  6
Continuous
 62
     7
370
     9
100
AcDbLine
 10
85.68444197496456
 20
93.04239332720903
 30
0.0
 11
85.68444197496456
 21
124.1219072211655
 31
0.0
  0
LWPOLYLINE
  5
F9
330
1F
100
AcDbEntity
  8
その他
  6
Continuous
 62
     7
370
     9
100
AcDbPolyline
 90
        4
 70
     1
 43
0.4
 10
137.0845333627396
 20
60.93862654818957
 42
0.4142135623731
 10
136.8845333627396
 20
61.13862654818958
 42
0.4142135623731
 10
136.6845333627396
 20
60.93862654818957
 42
0.4142135623731
 10
136.8845333627396
 20
60.73862654818957
 42
0.4142135623731
  0
LINE
  5
FA
330
1F
100
AcDbEntity
  8
その他
  6
Continuous
 62
     7
370
     9
100
AcDbLine
 10
98.88445748119284
 20
60.93862654818957
 30
0.0
 11
136.8845333627396
 21
60.93862654818957
 31
0.0
  0
TEXT
  5
FB
330
1F
100
AcDbEntity
  8
その他
  6
Continuous
 62
     2
370
   211
100
AcDbText
 10
109.3844954219662
 20
65.59462654818944
 30
0.0
 40
12.192
  1
38
 41
1.0625
  7
ＭＳ ゴシック
100
AcDbText
  0
TEXT
  5
FC
330
1F
100
AcDbEntity
  8
その他
  6
Continuous
 62
     2
370
   211
100
AcDbText
 10
104.2588625274266
 20
95.58184912448024
 30
0.0
 40
12.192
  1
3.2
 41
1.083333333333333
  7
ＭＳ ゴシック
100
AcDbText
  0
LINE
  5
FD
330
1F
100
AcDbEntity
  8
その他
  6
Continuous
 62
     7
370
     9
100
AcDbLine
 10
97.28444972807984
 20
60.93862654818957
 30
0.0
 11
101.684726035071
 21
89.94767537388603
 31
0.0
  0
LINE
  5
FE
330
1F
100
AcDbEntity
  8
その他
  6
Continuous
 62
     7
370
     9
100
AcDbLine
 10
101.684726035071
 20
89.94767537388603
 30
0.0
 11
134.1929028299251
 21
89.94767537388603
 31
0.0
  0
LINE
  5
FF
330
1F
100
AcDbEntity
  8
その他
  6
Continuous
 62
     7
370
     9
100
AcDbLine
 10
238.4223557172641
 20
315.2103644892855
 30
0.0
 11
238.4223557172641
 21
255.2103644892855
 31
0.0
  0
LWPOLYLINE
  5
100
330
1F
100
AcDbEntity
  8
その他
  6
Continuous
 62
     7
370
     9
100
AcDbPolyline
 90
        4
 70
     1
 43
0.4
 10
238.622355717264
 20
315.2103644892855
 42
0.4142135623731
 10
238.4223557172641
 20
315.4103644892855
 42
0.4142135623731
 10
238.2223557172641
 20
315.2103644892855
 42
0.4142135623731
 10
238.4223557172641
 20
315.0103644892855
 42
0.4142135623731
  0
LWPOLYLINE
  5
101
330
1F
100
AcDbEntity
  8
その他
  6
Continuous
 62
     7
370
     9
100
AcDbPolyline
 90
        4
 70
     1
 43
0.4
 10
238.622355717264
 20
255.2103644892855
 42
0.4142135623731
 10
238.4223557172641
 20
255.4103644892855
 42
0.4142135623731
 10
238.2223557172641
 20
255.2103644892855
 42
0.4142135623731
 10
238.4223557172641
 20
255.0103644892855
 42
0.4142135623731
  0
LINE
  5
102
330
1F
100
AcDbEntity
  8
その他
  6
Continuous
 62
     7
370
     9
100
AcDbLine
 10
239.6223557172639
 20
255.2103644892855
 30
0.0
 11
156.8845729531108
 21
255.2103644892855
 31
0.0
  0
TEXT
  5
103
330
1F
100
AcDbEntity
  8
その他
  6
Continuous
 62
     2
370
   211
100
AcDbText
 10
233.7663557172635
 20
276.7103644892855
 30
0.0
 40
12.192
  1
60
 50
90.0
 41
1.0625
  7
ＭＳ ゴシック
100
AcDbText
  0
LINE
  5
104
330
1F
100
AcDbEntity
  8
その他
  6
Continuous
 62
     7
370
     9
100
AcDbLine
 10
238.4223557172641
 20
255.2103644892855
 30
0.0
 11
238.4223557172641
 21
-194.7896355107143
 31
0.0
  0
LINE
  5
105
330
1F
100
AcDbEntity
  8
その他
  6
Continuous
 62
     7
370
     9
100
AcDbLine
 10
239.6223557172639
 20
315.2103644892855
 30
0.0
 11
156.8845729531108
 21
315.2103644892855
 31
0.0
  0
LWPOLYLINE
  5
106
330
1F
100
AcDbEntity
  8
その他
  6
Continuous
 62
     7
370
     9
100
AcDbPolyline
 90
        4
 70
     1
 43
0.4
 10
292.4827424477941
 20
337.2103380957045
 42
0.4142135623731
 10
292.2827424477941
 20
337.4103380957044
 42
0.4142135623731
 10
292.0827424477941
 20
337.2103380957045
 42
0.4142135623731
 10
292.2827424477941
 20
337.0103380957045
 42
0.4142135623731
  0
LINE
  5
107
330
1F
100
AcDbEntity
  8
その他
  6
Continuous
 62
     7
370
     9
100
AcDbLine
 10
293.4827424477949
 20
337.2103380957045
 30
0.0
 11
167.8956450603741
 21
337.2103380957045
 31
0.0
  0
LWPOLYLINE
  5
108
330
1F
100
AcDbEntity
  8
その他
  6
Continuous
 62
     7
370
     9
100
AcDbPolyline
 90
        4
 70
     1
 43
0.4
 10
20.88461518284039
 20
419.6482688741644
 42
0.4142135623731
 10
20.68461518284039
 20
419.8482688741644
 42
0.4142135623731
 10
20.48461518284039
 20
419.6482688741644
 42
0.4142135623731
 10
20.68461518284039
 20
419.4482688741645
 42
0.4142135623731
  0
LINE
  5
109
330
1F
100
AcDbEntity
  8
その他
  6
Continuous
 62
     7
370
     9
100
AcDbLine
 10
20.68461518284039
 20
420.8482688741645
 30
0.0
 11
20.68461518284039
 21
323.2103644892855
 31
0.0
  0
LWPOLYLINE
  5
10A
330
1F
100
AcDbEntity
  8
その他
  6
Continuous
 62
     7
370
     9
100
AcDbPolyline
 90
        4
 70
     1
 43
0.4
 10
20.88461518284039
 20
389.2689891154276
 42
0.4142135623731
 10
20.68461518284039
 20
389.4689891154276
 42
0.4142135623731
 10
20.48461518284039
 20
389.2689891154276
 42
0.4142135623731
 10
20.68461518284039
 20
389.0689891154276
 42
0.4142135623731
  0
LWPOLYLINE
  5
10B
330
1F
100
AcDbEntity
  8
その他
  6
Continuous
 62
     7
370
     9
100
AcDbPolyline
 90
        4
 70
     1
 43
0.4
 10
143.0844541819958
 20
419.6482688741644
 42
0.4142135623731
 10
142.8844541819958
 20
419.8482688741644
 42
0.4142135623731
 10
142.6844541819958
 20
419.6482688741644
 42
0.4142135623731
 10
142.8844541819958
 20
419.4482688741645
 42
0.4142135623731
  0
LINE
  5
10C
330
1F
100
AcDbEntity
  8
その他
  6
Continuous
 62
     7
370
     9
100
AcDbLine
 10
142.8844541819958
 20
420.8482688741645
 30
0.0
 11
142.8844541819958
 21
363.2102985053328
 31
0.0
  0
LINE
  5
10D
330
1F
100
AcDbEntity
  8
その他
  6
Continuous
 62
     7
370
     9
100
AcDbLine
 10
142.8844541819958
 20
419.6482688741644
 30
0.0
 11
148.8845729531108
 21
419.6482688741644
 31
0.0
  0
LWPOLYLINE
  5
10E
330
1F
100
AcDbEntity
  8
その他
  6
Continuous
 62
     7
370
     9
100
AcDbPolyline
 90
        4
 70
     1
 43
0.4
 10
149.0845729531108
 20
419.6482688741644
 42
0.4142135623731
 10
148.8845729531108
 20
419.8482688741644
 42
0.4142135623731
 10
148.6845729531108
 20
419.6482688741644
 42
0.4142135623731
 10
148.8845729531108
 20
419.4482688741645
 42
0.4142135623731
  0
LINE
  5
10F
330
1F
100
AcDbEntity
  8
その他
  6
Continuous
 62
     7
370
     9
100
AcDbLine
 10
148.8845729531108
 20
420.8482688741645
 30
0.0
 11
148.8845729531108
 21
362.9602853085424
 31
0.0
  0
TEXT
  5
110
330
1F
100
AcDbEntity
  8
その他
  6
Continuous
 62
     2
370
   211
100
AcDbText
 10
141.8845135675533
 20
424.3042688741646
 30
0.0
 40
12.192
  1
6
  7
ＭＳ ゴシック
100
AcDbText
  0
LWPOLYLINE
  5
111
330
1F
100
AcDbEntity
  8
その他
  6
Continuous
 62
     7
370
     9
100
AcDbPolyline
 90
        4
 70
     1
 43
0.4
 10
137.0845333627391
 20
389.2689891154276
 42
0.4142135623731
 10
136.8845333627391
 20
389.4689891154276
 42
0.4142135623731
 10
136.6845333627392
 20
389.2689891154276
 42
0.4142135623731
 10
136.8845333627391
 20
389.0689891154276
 42
0.4142135623731
  0
LINE
  5
112
330
1F
100
AcDbEntity
  8
その他
  6
Continuous
 62
     7
370
     9
100
AcDbLine
 10
136.8845333627391
 20
390.4689891154276
 30
0.0
 11
136.8845333627391
 21
323.2103644892855
 31
0.0
  0
LINE
  5
113
330
1F
100
AcDbEntity
  8
その他
  6
Continuous
 62
     7
370
     9
100
AcDbLine
 10
20.68461518284039
 20
389.2689891154276
 30
0.0
 11
136.8845333627391
 21
389.2689891154276
 31
0.0
  0
TEXT
  5
114
330
1F
100
AcDbEntity
  8
その他
  6
Continuous
 62
     2
370
   211
100
AcDbText
 10
56.78457427278954
 20
393.9249891154277
 30
0.0
 40
12.192
  1
116.2
 41
1.1
  7
ＭＳ ゴシック
100
AcDbText
  0
LINE
  5
115
330
1F
100
AcDbEntity
  8
その他
  6
Continuous
 62
     7
370
     9
100
AcDbLine
 10
20.68461518284039
 20
419.6482688741644
 30
0.0
 11
142.8844541819958
 21
419.6482688741644
 31
0.0
  0
TEXT
  5
116
330
1F
100
AcDbEntity
  8
その他
  6
Continuous
 62
     2
370
   211
100
AcDbText
 10
59.78453468241833
 20
424.3042688741646
 30
0.0
 40
12.192
  1
122.2
 41
1.1
  7
ＭＳ ゴシック
100
AcDbText
  0
LINE
  5
117
330
1F
100
AcDbEntity
  8
寸法
  6
Continuous
 62
     7
370
     9
100
AcDbLine
 10
85.68444197496456
 20
178.298821757406
 30
0.0
 11
79.5968276848771
 21
186.2323551603184
 31
0.0
  0
LINE
  5
118
330
1F
100
AcDbEntity
  8
寸法
  6
Continuous
 62
     7
370
     9
100
AcDbLine
 10
85.68444197496456
 20
178.298821757406
 30
0.0
 11
81.85760765131363
 21
187.5376170825189
 31
0.0
  0
LINE
  5
119
330
1F
100
AcDbEntity
  8
寸法
  6
Continuous
 62
     7
370
     9
100
AcDbLine
 10
20.68424237350564
 20
178.5397029375643
 30
0.0
 11
14.59662808341818
 21
186.4732363404767
 31
0.0
  0
LINE
  5
11A
330
1F
100
AcDbEntity
  8
寸法
  6
Continuous
 62
     7
370
     9
100
AcDbLine
 10
20.68424237350564
 20
178.5397029375643
 30
0.0
 11
16.85740804985471
 21
187.7784982626773
 31
0.0
  0
LINE
  5
11B
330
1F
100
AcDbEntity
  8
寸法
  6
Continuous
 62
     7
370
     9
100
AcDbLine
 10
53.84301465442377
 20
315.2103644892855
 30
0.0
 11
47.75540036433586
 21
323.1438978921979
 31
0.0
  0
LINE
  5
11C
330
1F
100
AcDbEntity
  8
寸法
  6
Continuous
 62
     7
370
     9
100
AcDbLine
 10
53.84301465442377
 20
315.2103644892855
 30
0.0
 11
50.01618033077239
 21
324.4491598143985
 31
0.0
  0
LINE
  5
11D
330
1F
100
AcDbEntity
  8
寸法
  6
Continuous
 62
     7
370
     9
100
AcDbLine
 10
-48.71726666264522
 20
492.8499825690056
 30
0.0
 11
53.84301465442377
 21
315.2103644892855
 31
0.0
  0
TEXT
  5
11E
330
1F
100
AcDbEntity
  8
寸法
  6
Continuous
 62
     7
370
     0
100
AcDbText
 10
-186.3487463137944
 20
422.9282060209207
 30
0.0
 40
9.144
  1
ＳＵＳ４３０
 41
1.138888888888889
  7
ＭＳ ゴシック
100
AcDbText
  0
TEXT
  5
11F
330
1F
100
AcDbEntity
  8
寸法
  6
Continuous
 62
     7
370
     0
100
AcDbText
 10
-221.8825880868803
 20
440.7354688671994
 30
0.0
 40
9.144
  1
モルタル止め：ｔ＝１.０
 41
1.152173913043478
  7
ＭＳ ゴシック
100
AcDbText
  0
LINE
  5
120
330
1F
100
AcDbEntity
  8
寸法
  6
Continuous
 62
     7
370
     9
100
AcDbLine
 10
-63.29466128831473
 20
436.3381978754564
 30
0.0
 11
85.68444197496456
 21
178.298821757406
 31
0.0
  0
LINE
  5
121
330
1F
100
AcDbEntity
  8
寸法
  6
Continuous
 62
     7
370
     9
100
AcDbLine
 10
-225.7878547182077
 20
436.3381978754564
 30
0.0
 11
-63.29466128831473
 21
436.3381978754564
 31
0.0
  0
TEXT
  5
122
330
1F
100
AcDbEntity
  8
寸法
  6
Continuous
 62
     7
370
     0
100
AcDbText
 10
-202.2333918953136
 20
386.9235042732059
 30
0.0
 40
9.144
  1
蓋：ＳＳ４００
 41
1.142857142857148
  7
ＭＳ ゴシック
100
AcDbText
  0
TEXT
  5
123
330
1F
100
AcDbEntity
  8
寸法
  6
Continuous
 62
     7
370
     0
100
AcDbText
 10
-217.7359773004846
 20
369.4935135732244
 30
0.0
 40
9.144
  1
（溶融亜鉛めっき）
 41
1.148148148148152
  7
ＭＳ ゴシック
100
AcDbText
  0
LINE
  5
124
330
1F
100
AcDbEntity
  8
寸法
  6
Continuous
 62
     7
370
     9
100
AcDbLine
 10
-96.91111880855078
 20
382.2208432392993
 30
0.0
 11
20.68424237350564
 21
178.5397029375643
 31
0.0
  0
LINE
  5
125
330
1F
100
AcDbEntity
  8
寸法
  6
Continuous
 62
     7
370
     9
100
AcDbLine
 10
-212.2222513685124
 20
382.2208432392993
 30
0.0
 11
-96.91111880855078
 21
382.2208432392993
 31
0.0
  0
LINE
  5
126
330
1F
100
AcDbEntity
  8
寸法
  6
Continuous
 62
     7
370
     9
100
AcDbLine
 10
148.8845729531108
 20
355.2102985053328
 30
0.0
 11
152.7114072767613
 21
364.4490938304457
 31
0.0
  0
LINE
  5
127
330
1F
100
AcDbEntity
  8
寸法
  6
Continuous
 62
     7
370
     9
100
AcDbLine
 10
148.8845729531108
 20
355.2102985053328
 30
0.0
 11
154.9721872431978
 21
363.1438319082451
 31
0.0
  0
TEXT
  5
128
330
1F
100
AcDbEntity
  8
寸法
  6
Continuous
 62
     7
370
     0
100
AcDbText
 10
193.2977042490888
 20
432.9782883609257
 30
0.0
 40
9.144
  1
アンカー：ｔ＝６.０
 41
1.149122807017544
  7
ＭＳ ゴシック
100
AcDbText
  0
LINE
  5
129
330
1F
100
AcDbEntity
  8
寸法
  6
Continuous
 62
     7
370
     9
100
AcDbLine
 10
191.9054728632032
 20
429.7246829369474
 30
0.0
 11
148.8845729531108
 21
355.2102985053328
 31
0.0
  0
LINE
  5
12A
330
1F
100
AcDbEntity
  8
仕上
  6
JWW_DASHED1
 62
     7
370
     9
100
AcDbLine
 10
-898.4969172750036
 20
278.2104097354248
 30
0.0
 11
-902.9970021115137
 21
273.7107448396417
 31
0.0
  0
LINE
  5
12B
330
1F
100
AcDbEntity
  8
仕上
  6
JWW_DASHED1
 62
     7
370
     9
100
AcDbLine
 10
-888.4968687296666
 20
288.2104582807613
 30
0.0
 11
-883.9967838931555
 21
292.710543117272
 31
0.0
  0
LINE
  5
12C
330
1F
100
AcDbEntity
  8
仕上
  6
Continuous
 62
     7
370
     9
100
AcDbLine
 10
-888.4968687296666
 20
288.2104582807613
 30
0.0
 11
-898.4969172750036
 21
278.2104097354248
 31
0.0
  0
LINE
  5
12D
330
1F
100
AcDbEntity
  8
仕上
  6
Continuous
 62
     7
370
     9
100
AcDbLine
 10
-898.4969172750036
 20
298.7105775231892
 30
0.0
 11
-898.4969172750036
 21
292.710543117272
 31
0.0
  0
LINE
  5
12E
330
1F
100
AcDbEntity
  8
仕上
  6
Continuous
 62
     7
370
     9
100
AcDbLine
 10
-898.4969172750036
 20
305.7106623596999
 30
0.0
 11
-898.4969172750036
 21
303.2106623596999
 31
0.0
  0
LINE
  5
12F
330
1F
100
AcDbEntity
  8
仕上
  6
Continuous
 62
     7
370
     9
100
AcDbLine
 10
-902.9970021115137
 20
305.7106623596999
 30
0.0
 11
-898.4969172750036
 21
305.7106623596999
 31
0.0
  0
LINE
  5
130
330
1F
100
AcDbEntity
  8
仕上
  6
Continuous
 62
     2
370
     9
100
AcDbLine
 10
-357.9970484770247
 20
298.7105775231892
 30
0.0
 11
-357.9970484770247
 21
292.710543117272
 31
0.0
  0
LINE
  5
131
330
1F
100
AcDbEntity
  8
仕上
  6
Continuous
 62
     7
370
     9
100
AcDbLine
 10
-356.4970869480239
 20
298.7105775231892
 30
0.0
 11
-356.4970869480239
 21
292.710543117272
 31
0.0
  0
LINE
  5
132
330
1F
100
AcDbEntity
  8
仕上
  6
Continuous
 62
     7
370
     9
100
AcDbLine
 10
-356.4970869480239
 20
305.7106623596999
 30
0.0
 11
-356.4970869480239
 21
303.2106623596999
 31
0.0
  0
LINE
  5
133
330
1F
100
AcDbEntity
  8
仕上
  6
Continuous
 62
     7
370
     9
100
AcDbLine
 10
-351.9970021115141
 20
305.7106623596999
 30
0.0
 11
-356.4970869480239
 21
305.7106623596999
 31
0.0
  0
LINE
  5
134
330
1F
100
AcDbEntity
  8
仕上
  6
Continuous
 62
     7
370
     9
100
AcDbLine
 10
-351.9970021115141
 20
292.710543117272
 30
0.0
 11
-902.9970021115137
 21
292.710543117272
 31
0.0
  0
LINE
  5
135
330
1F
100
AcDbEntity
  8
仕上
  6
Continuous
 62
     7
370
     9
100
AcDbLine
 10
-351.9970021115141
 20
298.7105775231892
 30
0.0
 11
-902.9970021115137
 21
298.7105775231892
 31
0.0
  0
LINE
  5
136
330
1F
100
AcDbEntity
  8
仕上
  6
Continuous
 62
     7
370
     9
100
AcDbLine
 10
-351.9970021115141
 20
303.2106623596999
 30
0.0
 11
-902.9970021115137
 21
303.2106623596999
 31
0.0
  0
LINE
  5
137
330
1F
100
AcDbEntity
  8
仕上
  6
Continuous
 62
     7
370
     9
100
AcDbLine
 10
-351.9970021115141
 20
288.2104582807613
 30
0.0
 11
-902.9970021115137
 21
288.2104582807613
 31
0.0
  0
LINE
  5
138
330
1F
100
AcDbEntity
  8
仕上
  6
Continuous
 62
     2
370
     9
100
AcDbLine
 10
-351.9970021115141
 20
305.7106623596999
 30
0.0
 11
-902.9970021115137
 21
305.7106623596999
 31
0.0
  0
LINE
  5
139
330
1F
100
AcDbEntity
  8
仕上
  6
Continuous
 62
     7
370
     9
100
AcDbLine
 10
-898.4969172750036
 20
-238.2898485446178
 30
0.0
 11
-898.4969172750036
 21
-232.2898141387001
 31
0.0
  0
LINE
  5
13A
330
1F
100
AcDbEntity
  8
仕上
  6
Continuous
 62
     7
370
     9
100
AcDbLine
 10
-898.4969172750036
 20
-245.2899333811289
 30
0.0
 11
-898.4969172750036
 21
-242.7899333811289
 31
0.0
  0
LINE
  5
13B
330
1F
100
AcDbEntity
  8
仕上
  6
Continuous
 62
     7
370
     9
100
AcDbLine
 10
-902.9970021115137
 20
-245.2899333811289
 30
0.0
 11
-898.4969172750036
 21
-245.2899333811289
 31
0.0
  0
LINE
  5
13C
330
1F
100
AcDbEntity
  8
仕上
  6
Continuous
 62
     7
370
     9
100
AcDbLine
 10
-366.4971354933612
 20
-227.789729302189
 30
0.0
 11
-356.4970869480239
 21
-217.789680756852
 31
0.0
  0
LINE
  5
13D
330
1F
100
AcDbEntity
  8
仕上
  6
JWW_DASHED1
 62
     7
370
     9
100
AcDbLine
 10
-366.4971354933612
 20
-227.789729302189
 30
0.0
 11
-370.9972203298723
 21
-232.2898141387001
 31
0.0
  0
LINE
  5
13E
330
1F
100
AcDbEntity
  8
仕上
  6
JWW_DASHED1
 62
     7
370
     9
100
AcDbLine
 10
-356.4970869480239
 20
-217.789680756852
 30
0.0
 11
-351.9970021115141
 21
-213.2900158610702
 31
0.0
  0
LINE
  5
13F
330
1F
100
AcDbEntity
  8
仕上
  6
Continuous
 62
     2
370
     9
100
AcDbLine
 10
-357.9970484770247
 20
-238.2898485446178
 30
0.0
 11
-357.9970484770247
 21
-232.2898141387001
 31
0.0
  0
LINE
  5
140
330
1F
100
AcDbEntity
  8
仕上
  6
JWW_DASHED1
 62
     2
370
     9
100
AcDbLine
 10
-357.9970484770247
 20
-227.789729302189
 30
0.0
 11
-357.9970484770247
 21
-232.2898141387001
 31
0.0
  0
LINE
  5
141
330
1F
100
AcDbEntity
  8
仕上
  6
Continuous
 62
     2
370
     9
100
AcDbLine
 10
-357.9970484770247
 20
-219.2896422858509
 30
0.0
 11
-357.9970484770247
 21
-227.789729302189
 31
0.0
  0
LINE
  5
142
330
1F
100
AcDbEntity
  8
仕上
  6
Continuous
 62
     7
370
     9
100
AcDbLine
 10
-356.4970869480239
 20
-238.2898485446178
 30
0.0
 11
-356.4970869480239
 21
-232.2898141387001
 31
0.0
  0
LINE
  5
143
330
1F
100
AcDbEntity
  8
仕上
  6
Continuous
 62
     7
370
     9
100
AcDbLine
 10
-356.4970869480239
 20
-245.2899333811289
 30
0.0
 11
-356.4970869480239
 21
-242.7899333811289
 31
0.0
  0
LINE
  5
144
330
1F
100
AcDbEntity
  8
仕上
  6
Continuous
 62
     7
370
     9
100
AcDbLine
 10
-351.9970021115141
 20
-245.2899333811289
 30
0.0
 11
-356.4970869480239
 21
-245.2899333811289
 31
0.0
  0
LINE
  5
145
330
1F
100
AcDbEntity
  8
仕上
  6
Continuous
 62
     7
370
     9
100
AcDbLine
 10
-351.9970021115141
 20
-242.7899333811289
 30
0.0
 11
-902.9970021115137
 21
-242.7899333811289
 31
0.0
  0
LINE
  5
146
330
1F
100
AcDbEntity
  8
仕上
  6
Continuous
 62
     7
370
     9
100
AcDbLine
 10
-351.9970021115141
 20
-238.2898485446178
 30
0.0
 11
-902.9970021115137
 21
-238.2898485446178
 31
0.0
  0
LINE
  5
147
330
1F
100
AcDbEntity
  8
仕上
  6
Continuous
 62
     7
370
     9
100
AcDbLine
 10
-351.9970021115141
 20
-232.2898141387001
 30
0.0
 11
-902.9970021115137
 21
-232.2898141387001
 31
0.0
  0
LINE
  5
148
330
1F
100
AcDbEntity
  8
仕上
  6
Continuous
 62
     7
370
     9
100
AcDbLine
 10
-351.9970021115141
 20
-227.789729302189
 30
0.0
 11
-902.9970021115137
 21
-227.789729302189
 31
0.0
  0
LINE
  5
149
330
1F
100
AcDbEntity
  8
仕上
  6
Continuous
 62
     2
370
     9
100
AcDbLine
 10
-351.9970021115141
 20
-245.2899333811299
 30
0.0
 11
-902.9970021115137
 21
-245.2899333811299
 31
0.0
  0
LINE
  5
14A
330
1F
100
AcDbEntity
  8
仕上
  6
Continuous
 62
     7
370
     9
100
AcDbLine
 10
-898.4969172750036
 20
288.2104582807613
 30
0.0
 11
-898.4969172750036
 21
-227.789729302189
 31
0.0
  0
LINE
  5
14B
330
1F
100
AcDbEntity
  8
仕上
  6
Continuous
 62
     7
370
     9
100
AcDbLine
 10
-902.9970021115137
 20
305.7106623596999
 30
0.0
 11
-902.9970021115137
 21
-245.2899333811289
 31
0.0
  0
LINE
  5
14C
330
1F
100
AcDbEntity
  8
仕上
  6
Continuous
 62
     7
370
     9
100
AcDbLine
 10
-356.4970869480239
 20
288.2104582807613
 30
0.0
 11
-356.4970869480239
 21
-227.789729302189
 31
0.0
  0
LINE
  5
14D
330
1F
100
AcDbEntity
  8
仕上
  6
Continuous
 62
     7
370
     9
100
AcDbLine
 10
-351.9970021115141
 20
305.7106623596999
 30
0.0
 11
-351.9970021115141
 21
-245.2899333811289
 31
0.0
  0
LINE
  5
14E
330
1F
100
AcDbEntity
  8
仕上
  6
Continuous
 62
     3
370
     9
100
AcDbLine
 10
-516.4970224369279
 20
-119.244202265608
 30
0.0
 11
-516.4970224369279
 21
-70.3350687558206
 31
0.0
  0
LINE
  5
14F
330
1F
100
AcDbEntity
  8
仕上
  6
Continuous
 62
     3
370
     9
100
AcDbLine
 10
-486.4969817861004
 20
-70.3350687558206
 30
0.0
 11
-486.4969817861004
 21
-119.244202265608
 31
0.0
  0
LINE
  5
150
330
1F
100
AcDbEntity
  8
仕上
  6
Continuous
 62
     3
370
     9
100
AcDbLine
 10
-486.4969817861004
 20
-70.83506875582015
 30
0.0
 11
-516.4970224369279
 21
-70.83506875582015
 31
0.0
  0
LINE
  5
151
330
1F
100
AcDbEntity
  8
仕上
  6
Continuous
 62
     3
370
     9
100
AcDbLine
 10
-486.4969817861004
 20
-70.3350687558206
 30
0.0
 11
-516.4970224369279
 21
-70.3350687558206
 31
0.0
  0
LINE
  5
152
330
1F
100
AcDbEntity
  8
仕上
  6
Continuous
 62
     3
370
     9
100
AcDbLine
 10
-486.4969817861004
 20
-86.4236101069302
 30
0.0
 11
-516.4970224369279
 21
-86.4236101069302
 31
0.0
  0
LINE
  5
153
330
1F
100
AcDbEntity
  8
仕上
  6
Continuous
 62
     3
370
     9
100
AcDbLine
 10
-486.4969817861004
 20
-119.244202265608
 30
0.0
 11
-516.4970224369279
 21
-119.244202265608
 31
0.0
  0
LINE
  5
154
330
1F
100
AcDbEntity
  8
仕上
  6
Continuous
 62
     3
370
     9
100
AcDbLine
 10
-486.4969817861004
 20
-118.7442022656084
 30
0.0
 11
-516.4970224369279
 21
-118.7442022656084
 31
0.0
  0
LINE
  5
155
330
1F
100
AcDbEntity
  8
仕上
  6
Continuous
 62
     3
370
     9
100
AcDbLine
 10
-486.4969817861004
 20
-103.1556609144984
 30
0.0
 11
-516.4970224369279
 21
-103.1556609144984
 31
0.0
  0
LINE
  5
156
330
1F
100
AcDbEntity
  8
仕上
  6
Continuous
 62
     3
370
     9
100
AcDbLine
 10
-738.4969817860999
 20
-119.244202265608
 30
0.0
 11
-738.4969817860999
 21
-70.3350687558206
 31
0.0
  0
LINE
  5
157
330
1F
100
AcDbEntity
  8
仕上
  6
Continuous
 62
     3
370
     9
100
AcDbLine
 10
-768.4970224369274
 20
-70.3350687558206
 30
0.0
 11
-768.4970224369274
 21
-119.244202265608
 31
0.0
  0
LINE
  5
158
330
1F
100
AcDbEntity
  8
仕上
  6
Continuous
 62
     3
370
     9
100
AcDbLine
 10
-768.4970224369274
 20
-70.83506875582015
 30
0.0
 11
-738.4969817860999
 21
-70.83506875582015
 31
0.0
  0
LINE
  5
159
330
1F
100
AcDbEntity
  8
仕上
  6
Continuous
 62
     3
370
     9
100
AcDbLine
 10
-768.4970224369274
 20
-70.3350687558206
 30
0.0
 11
-738.4969817860999
 21
-70.3350687558206
 31
0.0
  0
LINE
  5
15A
330
1F
100
AcDbEntity
  8
仕上
  6
Continuous
 62
     3
370
     9
100
AcDbLine
 10
-768.4970224369274
 20
-86.4236101069302
 30
0.0
 11
-738.4969817860999
 21
-86.4236101069302
 31
0.0
  0
LINE
  5
15B
330
1F
100
AcDbEntity
  8
仕上
  6
Continuous
 62
     3
370
     9
100
AcDbLine
 10
-768.4970224369274
 20
-119.244202265608
 30
0.0
 11
-738.4969817860999
 21
-119.244202265608
 31
0.0
  0
LINE
  5
15C
330
1F
100
AcDbEntity
  8
仕上
  6
Continuous
 62
     3
370
     9
100
AcDbLine
 10
-768.4970224369274
 20
-118.7442022656084
 30
0.0
 11
-738.4969817860999
 21
-118.7442022656084
 31
0.0
  0
LINE
  5
15D
330
1F
100
AcDbEntity
  8
仕上
  6
Continuous
 62
     3
370
     9
100
AcDbLine
 10
-768.4970224369274
 20
-103.1556609144984
 30
0.0
 11
-738.4969817860999
 21
-103.1556609144984
 31
0.0
  0
LINE
  5
15E
330
1F
100
AcDbEntity
  8
仕上
  6
Continuous
 62
     3
370
     9
100
AcDbLine
 10
-516.4970224369279
 20
179.6649312441794
 30
0.0
 11
-516.4970224369279
 21
130.755797734392
 31
0.0
  0
LINE
  5
15F
330
1F
100
AcDbEntity
  8
仕上
  6
Continuous
 62
     3
370
     9
100
AcDbLine
 10
-486.4969817861004
 20
130.755797734392
 30
0.0
 11
-486.4969817861004
 21
179.6649312441794
 31
0.0
  0
LINE
  5
160
330
1F
100
AcDbEntity
  8
仕上
  6
Continuous
 62
     3
370
     9
100
AcDbLine
 10
-486.4969817861004
 20
131.2557977343916
 30
0.0
 11
-516.4970224369279
 21
131.2557977343916
 31
0.0
  0
LINE
  5
161
330
1F
100
AcDbEntity
  8
仕上
  6
Continuous
 62
     3
370
     9
100
AcDbLine
 10
-486.4969817861004
 20
130.755797734392
 30
0.0
 11
-516.4970224369279
 21
130.755797734392
 31
0.0
  0
LINE
  5
162
330
1F
100
AcDbEntity
  8
仕上
  6
Continuous
 62
     3
370
     9
100
AcDbLine
 10
-486.4969817861004
 20
146.8443390855016
 30
0.0
 11
-516.4970224369279
 21
146.8443390855016
 31
0.0
  0
LINE
  5
163
330
1F
100
AcDbEntity
  8
仕上
  6
Continuous
 62
     3
370
     9
100
AcDbLine
 10
-486.4969817861004
 20
179.6649312441794
 30
0.0
 11
-516.4970224369279
 21
179.6649312441794
 31
0.0
  0
LINE
  5
164
330
1F
100
AcDbEntity
  8
仕上
  6
Continuous
 62
     3
370
     9
100
AcDbLine
 10
-486.4969817861004
 20
179.1649312441799
 30
0.0
 11
-516.4970224369279
 21
179.1649312441799
 31
0.0
  0
LINE
  5
165
330
1F
100
AcDbEntity
  8
仕上
  6
Continuous
 62
     3
370
     9
100
AcDbLine
 10
-738.4969817860999
 20
179.6649312441794
 30
0.0
 11
-738.4969817860999
 21
130.755797734392
 31
0.0
  0
LINE
  5
166
330
1F
100
AcDbEntity
  8
仕上
  6
Continuous
 62
     3
370
     9
100
AcDbLine
 10
-768.4970224369274
 20
130.755797734392
 30
0.0
 11
-768.4970224369274
 21
179.6649312441794
 31
0.0
  0
LINE
  5
167
330
1F
100
AcDbEntity
  8
仕上
  6
Continuous
 62
     3
370
     9
100
AcDbLine
 10
-768.4970224369274
 20
131.2557977343916
 30
0.0
 11
-738.4969817860999
 21
131.2557977343916
 31
0.0
  0
LINE
  5
168
330
1F
100
AcDbEntity
  8
仕上
  6
Continuous
 62
     3
370
     9
100
AcDbLine
 10
-768.4970224369274
 20
130.755797734392
 30
0.0
 11
-738.4969817860999
 21
130.755797734392
 31
0.0
  0
LINE
  5
169
330
1F
100
AcDbEntity
  8
仕上
  6
Continuous
 62
     3
370
     9
100
AcDbLine
 10
-768.4970224369274
 20
146.8443390855016
 30
0.0
 11
-738.4969817860999
 21
146.8443390855016
 31
0.0
  0
LINE
  5
16A
330
1F
100
AcDbEntity
  8
仕上
  6
Continuous
 62
     3
370
     9
100
AcDbLine
 10
-768.4970224369274
 20
179.6649312441794
 30
0.0
 11
-738.4969817860999
 21
179.6649312441794
 31
0.0
  0
LINE
  5
16B
330
1F
100
AcDbEntity
  8
仕上
  6
Continuous
 62
     3
370
     9
100
AcDbLine
 10
-768.4970224369274
 20
179.1649312441799
 30
0.0
 11
-738.4969817860999
 21
179.1649312441799
 31
0.0
  0
LINE
  5
16C
330
1F
100
AcDbEntity
  8
仕上
  6
Continuous
 62
     3
370
     9
100
AcDbLine
 10
-768.4970224369274
 20
163.5763898930698
 30
0.0
 11
-738.4969817860999
 21
163.5763898930698
 31
0.0
  0
LINE
  5
16D
330
1F
100
AcDbEntity
  8
仕上
  6
Continuous
 62
     3
370
     9
100
AcDbLine
 10
-486.4969817861004
 20
163.5763898930698
 30
0.0
 11
-516.4970224369279
 21
163.5763898930698
 31
0.0
  0
LINE
  5
16E
330
1F
100
AcDbEntity
  8
仕上
  6
JWW_CENTER2
 62
     7
370
     9
100
AcDbLine
 10
-734.9222466755828
 20
-94.78963551071428
 30
0.0
 11
-753.4970021115137
 21
-94.78963551071428
 31
0.0
  0
LINE
  5
16F
330
1F
100
AcDbEntity
  8
仕上
  6
JWW_CENTER2
 62
     7
370
     9
100
AcDbLine
 10
-482.9222466755832
 20
-94.78963551071428
 30
0.0
 11
-501.4970021115141
 21
-94.78963551071428
 31
0.0
  0
LINE
  5
170
330
1F
100
AcDbEntity
  8
仕上
  6
JWW_CENTER2
 62
     7
370
     9
100
AcDbLine
 10
-482.9222466755832
 20
155.2103644892857
 30
0.0
 11
-501.4970021115141
 21
155.2103644892857
 31
0.0
  0
LINE
  5
171
330
1F
100
AcDbEntity
  8
仕上
  6
JWW_CENTER2
 62
     7
370
     9
100
AcDbLine
 10
-734.9222466755828
 20
155.2103644892857
 30
0.0
 11
-753.4970021115137
 21
155.2103644892857
 31
0.0
  0
LINE
  5
172
330
1F
100
AcDbEntity
  8
仕上
  6
Continuous
 62
     7
370
     9
100
AcDbLine
 10
-715.3471032672694
 20
303.2106623596999
 30
0.0
 11
-715.3471032672694
 21
305.7106623596999
 31
0.0
  0
LINE
  5
173
330
1F
100
AcDbEntity
  8
仕上
  6
Continuous
 62
     7
370
     9
100
AcDbLine
 10
-719.8471881037794
 20
303.2106623596999
 30
0.0
 11
-719.8471881037794
 21
305.7106623596999
 31
0.0
  0
LINE
  5
174
330
1F
100
AcDbEntity
  8
仕上
  6
Continuous
 62
     7
370
     9
100
AcDbLine
 10
-719.8471881037794
 20
305.7106623596999
 30
0.0
 11
-715.3471032672694
 21
305.7106623596999
 31
0.0
  0
LINE
  5
175
330
1F
100
AcDbEntity
  8
仕上
  6
Continuous
 62
     7
370
     9
100
AcDbLine
 10
-715.3471032672694
 20
292.710543117272
 30
0.0
 11
-715.3471032672694
 21
298.7105775231892
 31
0.0
  0
LINE
  5
176
330
1F
100
AcDbEntity
  8
仕上
  6
Continuous
 62
     7
370
     9
100
AcDbLine
 10
-719.8471881037794
 20
292.710543117272
 30
0.0
 11
-719.8471881037794
 21
298.7105775231892
 31
0.0
  0
LINE
  5
177
330
1F
100
AcDbEntity
  8
仕上
  6
Continuous
 62
     7
370
     9
100
AcDbLine
 10
-715.3471032672694
 20
-242.7899333811289
 30
0.0
 11
-715.3471032672694
 21
-245.2899333811289
 31
0.0
  0
LINE
  5
178
330
1F
100
AcDbEntity
  8
仕上
  6
Continuous
 62
     7
370
     9
100
AcDbLine
 10
-719.8471881037794
 20
-242.7899333811289
 30
0.0
 11
-719.8471881037794
 21
-245.2899333811289
 31
0.0
  0
LINE
  5
179
330
1F
100
AcDbEntity
  8
仕上
  6
Continuous
 62
     7
370
     9
100
AcDbLine
 10
-719.8471881037794
 20
-245.2899333811289
 30
0.0
 11
-715.3471032672694
 21
-245.2899333811289
 31
0.0
  0
LINE
  5
17A
330
1F
100
AcDbEntity
  8
仕上
  6
Continuous
 62
     7
370
     9
100
AcDbLine
 10
-715.3471032672694
 20
-232.2898141387001
 30
0.0
 11
-715.3471032672694
 21
-238.2898485446178
 31
0.0
  0
LINE
  5
17B
330
1F
100
AcDbEntity
  8
仕上
  6
Continuous
 62
     7
370
     9
100
AcDbLine
 10
-719.8471881037794
 20
-232.2898141387001
 30
0.0
 11
-719.8471881037794
 21
-238.2898485446178
 31
0.0
  0
LINE
  5
17C
330
1F
100
AcDbEntity
  8
仕上
  6
Continuous
 62
     7
370
     9
100
AcDbLine
 10
-539.8468996007296
 20
305.7106623596999
 30
0.0
 11
-535.3468147642184
 21
305.7106623596999
 31
0.0
  0
LINE
  5
17D
330
1F
100
AcDbEntity
  8
仕上
  6
Continuous
 62
     7
370
     9
100
AcDbLine
 10
-539.8468996007296
 20
303.2106623596999
 30
0.0
 11
-539.8468996007296
 21
305.7106623596999
 31
0.0
  0
LINE
  5
17E
330
1F
100
AcDbEntity
  8
仕上
  6
Continuous
 62
     7
370
     9
100
AcDbLine
 10
-535.3468147642184
 20
303.2106623596999
 30
0.0
 11
-535.3468147642184
 21
305.7106623596999
 31
0.0
  0
LINE
  5
17F
330
1F
100
AcDbEntity
  8
仕上
  6
Continuous
 62
     7
370
     9
100
AcDbLine
 10
-539.8468996007296
 20
292.710543117272
 30
0.0
 11
-539.8468996007296
 21
298.7105775231892
 31
0.0
  0
LINE
  5
180
330
1F
100
AcDbEntity
  8
仕上
  6
Continuous
 62
     7
370
     9
100
AcDbLine
 10
-535.3468147642184
 20
292.710543117272
 30
0.0
 11
-535.3468147642184
 21
298.7105775231892
 31
0.0
  0
LINE
  5
181
330
1F
100
AcDbEntity
  8
仕上
  6
Continuous
 62
     7
370
     9
100
AcDbLine
 10
-539.8468996007296
 20
-232.2898141387001
 30
0.0
 11
-539.8468996007296
 21
-238.2898485446178
 31
0.0
  0
LINE
  5
182
330
1F
100
AcDbEntity
  8
仕上
  6
Continuous
 62
     7
370
     9
100
AcDbLine
 10
-535.3468147642184
 20
-232.2898141387001
 30
0.0
 11
-535.3468147642184
 21
-238.2898485446178
 31
0.0
  0
LINE
  5
183
330
1F
100
AcDbEntity
  8
仕上
  6
Continuous
 62
     7
370
     9
100
AcDbLine
 10
-539.8468996007296
 20
-245.2899333811289
 30
0.0
 11
-535.3468147642184
 21
-245.2899333811289
 31
0.0
  0
LINE
  5
184
330
1F
100
AcDbEntity
  8
仕上
  6
Continuous
 62
     7
370
     9
100
AcDbLine
 10
-539.8468996007296
 20
-242.7899333811289
 30
0.0
 11
-539.8468996007296
 21
-245.2899333811289
 31
0.0
  0
LINE
  5
185
330
1F
100
AcDbEntity
  8
仕上
  6
Continuous
 62
     7
370
     9
100
AcDbLine
 10
-535.3468147642184
 20
-242.7899333811289
 30
0.0
 11
-535.3468147642184
 21
-245.2899333811289
 31
0.0
  0
LINE
  5
186
330
1F
100
AcDbEntity
  8
仕上
  6
JWW_DASHED1
 62
     2
370
     9
100
AcDbLine
 10
-540.5969512096067
 20
-232.2898141387001
 30
0.0
 11
-540.5969512096067
 21
292.710543117272
 31
0.0
  0
LINE
  5
187
330
1F
100
AcDbEntity
  8
仕上
  6
JWW_DASHED1
 62
     2
370
     9
100
AcDbLine
 10
-534.5967631553413
 20
292.710543117272
 30
0.0
 11
-534.5967631553413
 21
-232.2898141387001
 31
0.0
  0
LINE
  5
188
330
1F
100
AcDbEntity
  8
仕上
  6
Continuous
 62
     2
370
     9
100
AcDbLine
 10
-540.5969512096067
 20
292.710543117272
 30
0.0
 11
-540.5969512096067
 21
298.7105775231892
 31
0.0
  0
LINE
  5
189
330
1F
100
AcDbEntity
  8
仕上
  6
Continuous
 62
     2
370
     9
100
AcDbLine
 10
-534.5967631553413
 20
292.710543117272
 30
0.0
 11
-534.5967631553413
 21
298.7105775231892
 31
0.0
  0
LINE
  5
18A
330
1F
100
AcDbEntity
  8
仕上
  6
Continuous
 62
     2
370
     9
100
AcDbLine
 10
-540.5969512096067
 20
-232.2898141387001
 30
0.0
 11
-540.5969512096067
 21
-238.2898485446178
 31
0.0
  0
LINE
  5
18B
330
1F
100
AcDbEntity
  8
仕上
  6
Continuous
 62
     2
370
     9
100
AcDbLine
 10
-534.5967631553413
 20
-232.2898141387001
 30
0.0
 11
-534.5967631553413
 21
-238.2898485446178
 31
0.0
  0
LINE
  5
18C
330
1F
100
AcDbEntity
  8
仕上
  6
JWW_DASHED1
 62
     2
370
     9
100
AcDbLine
 10
-720.597239712657
 20
-232.2898141387001
 30
0.0
 11
-720.597239712657
 21
292.710543117272
 31
0.0
  0
LINE
  5
18D
330
1F
100
AcDbEntity
  8
仕上
  6
JWW_DASHED1
 62
     2
370
     9
100
AcDbLine
 10
-714.5970516583916
 20
292.710543117272
 30
0.0
 11
-714.5970516583916
 21
-232.2898141387001
 31
0.0
  0
LINE
  5
18E
330
1F
100
AcDbEntity
  8
仕上
  6
Continuous
 62
     2
370
     9
100
AcDbLine
 10
-720.597239712657
 20
292.710543117272
 30
0.0
 11
-720.597239712657
 21
298.7105775231892
 31
0.0
  0
LINE
  5
18F
330
1F
100
AcDbEntity
  8
仕上
  6
Continuous
 62
     2
370
     9
100
AcDbLine
 10
-714.5970516583916
 20
292.710543117272
 30
0.0
 11
-714.5970516583916
 21
298.7105775231892
 31
0.0
  0
LINE
  5
190
330
1F
100
AcDbEntity
  8
仕上
  6
Continuous
 62
     2
370
     9
100
AcDbLine
 10
-720.597239712657
 20
-232.2898141387001
 30
0.0
 11
-720.597239712657
 21
-238.2898485446178
 31
0.0
  0
LINE
  5
191
330
1F
100
AcDbEntity
  8
仕上
  6
Continuous
 62
     2
370
     9
100
AcDbLine
 10
-714.5970516583916
 20
-232.2898141387001
 30
0.0
 11
-714.5970516583916
 21
-238.2898485446178
 31
0.0
  0
LINE
  5
192
330
1F
100
AcDbEntity
  8
仕上
  6
JWW_CENTER2
 62
     7
370
     9
100
AcDbLine
 10
-872.9970074432531
 20
279.7105408196165
 30
0.0
 11
-872.9970074432531
 21
265.7105408196165
 31
0.0
  0
LINE
  5
193
330
1F
100
AcDbEntity
  8
仕上
  6
JWW_CENTER2
 62
     7
370
     9
100
AcDbLine
 10
-865.9970074432531
 20
272.7105408196165
 30
0.0
 11
-879.9970074432531
 21
272.7105408196165
 31
0.0
  0
CIRCLE
  5
194
330
1F
100
AcDbEntity
  8
仕上
  6
Continuous
 62
     7
370
     9
100
AcDbCircle
 10
-872.9970074432531
 20
272.7105408196165
 30
0.0
 40
5.0
  0
LINE
  5
195
330
1F
100
AcDbEntity
  8
仕上
  6
JWW_DASHED1
 62
     2
370
     9
100
AcDbLine
 10
-357.9970484770247
 20
292.710543117272
 30
0.0
 11
-357.9970484770247
 21
-219.2896422858509
 31
0.0
  0
LINE
  5
196
330
1F
100
AcDbEntity
  8
通り芯
  6
JWW_CENTER2
 62
     7
370
     9
100
AcDbLine
 10
-335.3417329158397
 20
30.21036448928572
 30
0.0
 11
-925.0424205157576
 21
30.21036448928572
 31
0.0
  0
LINE
  5
197
330
1F
100
AcDbEntity
  8
通り芯
  6
JWW_CENTER2
 62
     7
370
     9
100
AcDbLine
 10
-627.4970021115139
 20
312.0103154305187
 30
0.0
 11
-627.4970021115139
 21
-254.6128732550634
 31
0.0
  0
LINE
  5
198
330
1F
100
AcDbEntity
  8
通り芯
  6
JWW_CENTER2
 62
     7
370
     9
100
AcDbLine
 10
-772.0717575474446
 20
155.2103644892857
 30
0.0
 11
-753.4970021115137
 21
155.2103644892857
 31
0.0
  0
LINE
  5
199
330
1F
100
AcDbEntity
  8
通り芯
  6
JWW_CENTER2
 62
     7
370
     9
100
AcDbLine
 10
-753.4970021115137
 20
123.6885814827559
 30
0.0
 11
-753.4970021115137
 21
184.7173891581209
 31
0.0
  0
LINE
  5
19A
330
1F
100
AcDbEntity
  8
通り芯
  6
JWW_CENTER2
 62
     7
370
     9
100
AcDbLine
 10
-753.4970021115137
 20
-63.26785250418442
 30
0.0
 11
-753.4970021115137
 21
-124.2966601795494
 31
0.0
  0
LINE
  5
19B
330
1F
100
AcDbEntity
  8
通り芯
  6
JWW_CENTER2
 62
     7
370
     9
100
AcDbLine
 10
-772.0717575474446
 20
-94.78963551071428
 30
0.0
 11
-753.4970021115137
 21
-94.78963551071428
 31
0.0
  0
LINE
  5
19C
330
1F
100
AcDbEntity
  8
通り芯
  6
JWW_CENTER2
 62
     7
370
     9
100
AcDbLine
 10
-520.071757547445
 20
-94.78963551071428
 30
0.0
 11
-501.4970021115141
 21
-94.78963551071428
 31
0.0
  0
LINE
  5
19D
330
1F
100
AcDbEntity
  8
通り芯
  6
JWW_CENTER2
 62
     7
370
     9
100
AcDbLine
 10
-501.4970021115141
 20
-63.26785250418442
 30
0.0
 11
-501.4970021115141
 21
-124.2966601795494
 31
0.0
  0
LINE
  5
19E
330
1F
100
AcDbEntity
  8
通り芯
  6
JWW_CENTER2
 62
     7
370
     9
100
AcDbLine
 10
-520.071757547445
 20
155.2103644892857
 30
0.0
 11
-501.4970021115141
 21
155.2103644892857
 31
0.0
  0
LINE
  5
19F
330
1F
100
AcDbEntity
  8
通り芯
  6
JWW_CENTER2
 62
     7
370
     9
100
AcDbLine
 10
-501.4970021115141
 20
123.6885814827559
 30
0.0
 11
-501.4970021115141
 21
184.7173891581209
 31
0.0
  0
LINE
  5
1A0
330
1F
100
AcDbEntity
  8
建具
  6
Continuous
 62
     4
370
     9
100
AcDbLine
 10
-912.4970082975094
 20
-254.7896355107143
 30
0.0
 11
-912.4970082975094
 21
315.2103644892855
 31
0.0
  0
LINE
  5
1A1
330
1F
100
AcDbEntity
  8
建具
  6
Continuous
 62
     4
370
     9
100
AcDbLine
 10
-912.4970082975094
 20
315.2103644892855
 30
0.0
 11
-342.4969959255186
 21
315.2103644892855
 31
0.0
  0
LINE
  5
1A2
330
1F
100
AcDbEntity
  8
建具
  6
Continuous
 62
     4
370
     9
100
AcDbLine
 10
-342.4969959255186
 20
315.2103644892855
 30
0.0
 11
-342.4969959255186
 21
-254.7896355107143
 31
0.0
  0
LINE
  5
1A3
330
1F
100
AcDbEntity
  8
建具
  6
Continuous
 62
     4
370
     9
100
AcDbLine
 10
-342.4969959255186
 20
-254.7896355107143
 30
0.0
 11
-912.4970082975094
 21
-254.7896355107143
 31
0.0
  0
LINE
  5
1A4
330
1F
100
AcDbEntity
  8
建具
  6
Continuous
 62
     4
370
     9
100
AcDbLine
 10
-906.4970256182971
 20
-248.789640459511
 30
0.0
 11
-906.4970256182971
 21
309.2104436700286
 31
0.0
  0
LINE
  5
1A5
330
1F
100
AcDbEntity
  8
建具
  6
Continuous
 62
     4
370
     9
100
AcDbLine
 10
-906.4970256182971
 20
309.2104436700286
 30
0.0
 11
-348.4970157207044
 21
309.2104436700286
 31
0.0
  0
LINE
  5
1A6
330
1F
100
AcDbEntity
  8
建具
  6
Continuous
 62
     4
370
     9
100
AcDbLine
 10
-348.4970157207044
 20
309.2104436700286
 30
0.0
 11
-348.4970157207044
 21
-248.789640459511
 31
0.0
  0
LINE
  5
1A7
330
1F
100
AcDbEntity
  8
建具
  6
Continuous
 62
     4
370
     9
100
AcDbLine
 10
-348.4970157207044
 20
-248.789640459511
 30
0.0
 11
-906.4970256182971
 21
-248.789640459511
 31
0.0
  0
LINE
  5
1A8
330
1F
100
AcDbEntity
  8
建具
  6
Continuous
 62
     4
370
     9
100
AcDbLine
 10
-837.4969959255184
 20
355.210397481262
 30
0.0
 11
-787.4970041735126
 21
355.210397481262
 31
0.0
  0
LINE
  5
1A9
330
1F
100
AcDbEntity
  8
建具
  6
Continuous
 62
     4
370
     9
100
AcDbLine
 10
-837.4969959255184
 20
315.2103644892855
 30
0.0
 11
-837.4969959255184
 21
355.210397481262
 31
0.0
  0
LINE
  5
1AA
330
1F
100
AcDbEntity
  8
建具
  6
Continuous
 62
     4
370
     9
100
AcDbLine
 10
-787.4970041735126
 20
355.210397481262
 30
0.0
 11
-787.4970041735126
 21
315.2103644892855
 31
0.0
  0
LINE
  5
1AB
330
1F
100
AcDbEntity
  8
建具
  6
JWW_CENTER1
 62
     4
370
     9
100
AcDbLine
 10
-812.4970124215067
 20
337.2103380957045
 30
0.0
 11
-812.4970124215067
 21
351.0302480935928
 31
0.0
  0
LINE
  5
1AC
330
1F
100
AcDbEntity
  8
建具
  6
JWW_CENTER1
 62
     4
370
     9
100
AcDbLine
 10
-812.4970124215067
 20
337.2103380957045
 30
0.0
 11
-797.0250951917767
 21
337.2103380957045
 31
0.0
  0
LINE
  5
1AD
330
1F
100
AcDbEntity
  8
建具
  6
JWW_CENTER1
 62
     4
370
     9
100
AcDbLine
 10
-812.4970124215067
 20
337.2103380957045
 30
0.0
 11
-812.4970124215067
 21
323.3905270737449
 31
0.0
  0
LINE
  5
1AE
330
1F
100
AcDbEntity
  8
建具
  6
JWW_CENTER1
 62
     4
370
     9
100
AcDbLine
 10
-812.4970124215067
 20
337.2103380957045
 30
0.0
 11
-827.9689296512363
 21
337.2103380957045
 31
0.0
  0
LINE
  5
1AF
330
1F
100
AcDbEntity
  8
建具
  6
Continuous
 62
     4
370
     9
100
AcDbLine
 10
-417.4969959255184
 20
355.210397481262
 30
0.0
 11
-467.4969629335421
 21
355.210397481262
 31
0.0
  0
LINE
  5
1B0
330
1F
100
AcDbEntity
  8
建具
  6
Continuous
 62
     4
370
     9
100
AcDbLine
 10
-417.4969959255184
 20
315.2103644892855
 30
0.0
 11
-417.4969959255184
 21
355.210397481262
 31
0.0
  0
LINE
  5
1B1
330
1F
100
AcDbEntity
  8
建具
  6
Continuous
 62
     4
370
     9
100
AcDbLine
 10
-467.4969629335421
 20
355.210397481262
 30
0.0
 11
-467.4969629335421
 21
315.2103644892855
 31
0.0
  0
LINE
  5
1B2
330
1F
100
AcDbEntity
  8
建具
  6
JWW_CENTER1
 62
     4
370
     9
100
AcDbLine
 10
-442.4969794295305
 20
337.2103380957045
 30
0.0
 11
-442.4969794295305
 21
351.0302480935928
 31
0.0
  0
LINE
  5
1B3
330
1F
100
AcDbEntity
  8
建具
  6
JWW_CENTER1
 62
     4
370
     9
100
AcDbLine
 10
-442.4969794295305
 20
337.2103380957045
 30
0.0
 11
-457.9688966592601
 21
337.2103380957045
 31
0.0
  0
LINE
  5
1B4
330
1F
100
AcDbEntity
  8
建具
  6
JWW_CENTER1
 62
     4
370
     9
100
AcDbLine
 10
-442.4969794295305
 20
337.2103380957045
 30
0.0
 11
-442.4969794295305
 21
323.3905270737449
 31
0.0
  0
LINE
  5
1B5
330
1F
100
AcDbEntity
  8
建具
  6
JWW_CENTER1
 62
     4
370
     9
100
AcDbLine
 10
-442.4969794295305
 20
337.2103380957045
 30
0.0
 11
-427.0250621998005
 21
337.2103380957045
 31
0.0
  0
LINE
  5
1B6
330
1F
100
AcDbEntity
  8
建具
  6
Continuous
 62
     4
370
     9
100
AcDbLine
 10
-417.4969959255184
 20
-294.789668502691
 30
0.0
 11
-467.4969629335421
 21
-294.789668502691
 31
0.0
  0
LINE
  5
1B7
330
1F
100
AcDbEntity
  8
建具
  6
Continuous
 62
     4
370
     9
100
AcDbLine
 10
-417.4969959255184
 20
-254.7896355107143
 30
0.0
 11
-417.4969959255184
 21
-294.789668502691
 31
0.0
  0
LINE
  5
1B8
330
1F
100
AcDbEntity
  8
建具
  6
Continuous
 62
     4
370
     9
100
AcDbLine
 10
-467.4969629335421
 20
-294.789668502691
 30
0.0
 11
-467.4969629335421
 21
-254.7896355107143
 31
0.0
  0
LINE
  5
1B9
330
1F
100
AcDbEntity
  8
建具
  6
JWW_CENTER1
 62
     4
370
     9
100
AcDbLine
 10
-442.4969794295305
 20
-276.7896091171335
 30
0.0
 11
-442.4969794295305
 21
-290.6095191150218
 31
0.0
  0
LINE
  5
1BA
330
1F
100
AcDbEntity
  8
建具
  6
JWW_CENTER1
 62
     4
370
     9
100
AcDbLine
 10
-442.4969794295305
 20
-276.7896091171335
 30
0.0
 11
-457.9688966592601
 21
-276.7896091171335
 31
0.0
  0
LINE
  5
1BB
330
1F
100
AcDbEntity
  8
建具
  6
JWW_CENTER1
 62
     4
370
     9
100
AcDbLine
 10
-442.4969794295305
 20
-276.7896091171335
 30
0.0
 11
-442.4969794295305
 21
-262.9697980951739
 31
0.0
  0
LINE
  5
1BC
330
1F
100
AcDbEntity
  8
建具
  6
JWW_CENTER1
 62
     4
370
     9
100
AcDbLine
 10
-442.4969794295305
 20
-276.7896091171335
 30
0.0
 11
-427.0250621998005
 21
-276.7896091171335
 31
0.0
  0
LINE
  5
1BD
330
1F
100
AcDbEntity
  8
建具
  6
Continuous
 62
     4
370
     9
100
AcDbLine
 10
-837.4969959255184
 20
-294.789668502691
 30
0.0
 11
-787.4970289174946
 21
-294.789668502691
 31
0.0
  0
LINE
  5
1BE
330
1F
100
AcDbEntity
  8
建具
  6
Continuous
 62
     4
370
     9
100
AcDbLine
 10
-837.4969959255184
 20
-254.7896355107143
 30
0.0
 11
-837.4969959255184
 21
-294.789668502691
 31
0.0
  0
LINE
  5
1BF
330
1F
100
AcDbEntity
  8
建具
  6
Continuous
 62
     4
370
     9
100
AcDbLine
 10
-787.4970289174946
 20
-294.789668502691
 30
0.0
 11
-787.4970289174946
 21
-254.7896355107143
 31
0.0
  0
LINE
  5
1C0
330
1F
100
AcDbEntity
  8
建具
  6
JWW_CENTER1
 62
     4
370
     9
100
AcDbLine
 10
-812.4970124215067
 20
-276.7896091171335
 30
0.0
 11
-812.4970124215067
 21
-290.6095191150218
 31
0.0
  0
LINE
  5
1C1
330
1F
100
AcDbEntity
  8
建具
  6
JWW_CENTER1
 62
     4
370
     9
100
AcDbLine
 10
-812.4970124215067
 20
-276.7896091171335
 30
0.0
 11
-797.0250951917767
 21
-276.7896091171335
 31
0.0
  0
LINE
  5
1C2
330
1F
100
AcDbEntity
  8
建具
  6
JWW_CENTER1
 62
     4
370
     9
100
AcDbLine
 10
-812.4970124215067
 20
-276.7896091171335
 30
0.0
 11
-812.4970124215067
 21
-262.9697980951739
 31
0.0
  0
LINE
  5
1C3
330
1F
100
AcDbEntity
  8
建具
  6
JWW_CENTER1
 62
     4
370
     9
100
AcDbLine
 10
-812.4970124215067
 20
-276.7896091171335
 30
0.0
 11
-827.9689296512363
 21
-276.7896091171335
 31
0.0
  0
CIRCLE
  5
1C4
330
1F
100
AcDbEntity
  8
建具
  6
Continuous
 62
     4
370
     9
100
AcDbCircle
 10
-812.4970124215067
 20
337.2103380957045
 30
0.0
 40
8.000000103099927
  0
CIRCLE
  5
1C5
330
1F
100
AcDbEntity
  8
建具
  6
Continuous
 62
     4
370
     9
100
AcDbCircle
 10
-442.4969794295305
 20
337.2103380957045
 30
0.0
 40
8.000000103099927
  0
CIRCLE
  5
1C6
330
1F
100
AcDbEntity
  8
建具
  6
Continuous
 62
     4
370
     9
100
AcDbCircle
 10
-442.4969794295305
 20
-276.7896091171335
 30
0.0
 40
8.000000103099927
  0
CIRCLE
  5
1C7
330
1F
100
AcDbEntity
  8
建具
  6
Continuous
 62
     4
370
     9
100
AcDbCircle
 10
-812.4970124215067
 20
-276.7896091171335
 30
0.0
 40
8.000000103099927
  0
LINE
  5
1C8
330
1F
100
AcDbEntity
  8
その他
  6
Continuous
 62
     7
370
     9
100
AcDbLine
 10
-912.4970082975094
 20
-350.4467310199795
 30
0.0
 11
-812.4970124215067
 21
-350.4467310199795
 31
0.0
  0
LWPOLYLINE
  5
1C9
330
1F
100
AcDbEntity
  8
その他
  6
Continuous
 62
     7
370
     9
100
AcDbPolyline
 90
        4
 70
     1
 43
0.4
 10
-912.2970082975094
 20
-350.4467310199795
 42
0.4142135623731
 10
-912.4970082975094
 20
-350.2467310199795
 42
0.4142135623731
 10
-912.6970082975095
 20
-350.4467310199795
 42
0.4142135623731
 10
-912.4970082975094
 20
-350.6467310199795
 42
0.4142135623731
  0
LWPOLYLINE
  5
1CA
330
1F
100
AcDbEntity
  8
その他
  6
Continuous
 62
     7
370
     9
100
AcDbPolyline
 90
        4
 70
     1
 43
0.4
 10
-812.2970124215067
 20
-350.4467310199795
 42
0.4142135623731
 10
-812.4970124215067
 20
-350.2467310199795
 42
0.4142135623731
 10
-812.6970124215068
 20
-350.4467310199795
 42
0.4142135623731
 10
-812.4970124215067
 20
-350.6467310199795
 42
0.4142135623731
  0
LINE
  5
1CB
330
1F
100
AcDbEntity
  8
その他
  6
Continuous
 62
     7
370
     9
100
AcDbLine
 10
-912.4970082975094
 20
-351.6467310199793
 30
0.0
 11
-912.4970082975094
 21
-262.7896355107143
 31
0.0
  0
TEXT
  5
1CC
330
1F
100
AcDbEntity
  8
その他
  6
Continuous
 62
     2
370
   211
100
AcDbText
 10
-875.4970103595081
 20
-345.7907310199794
 30
0.0
 40
12.192
  1
100
 41
1.083333333333333
  7
ＭＳ ゴシック
100
AcDbText
  0
LINE
  5
1CD
330
1F
100
AcDbEntity
  8
その他
  6
Continuous
 62
     7
370
     9
100
AcDbLine
 10
-812.4970124215067
 20
-351.6467310199793
 30
0.0
 11
-812.4970124215067
 21
-307.1726490614907
 31
0.0
  0
LWPOLYLINE
  5
1CE
330
1F
100
AcDbEntity
  8
その他
  6
Continuous
 62
     7
370
     9
100
AcDbPolyline
 90
        4
 70
     1
 43
0.4
 10
-442.2969794295305
 20
-350.4467310199795
 42
0.4142135623731
 10
-442.4969794295305
 20
-350.2467310199795
 42
0.4142135623731
 10
-442.6969794295305
 20
-350.4467310199795
 42
0.4142135623731
 10
-442.4969794295305
 20
-350.6467310199795
 42
0.4142135623731
  0
LINE
  5
1CF
330
1F
100
AcDbEntity
  8
その他
  6
Continuous
 62
     7
370
     9
100
AcDbLine
 10
-442.4969794295305
 20
-350.4467310199795
 30
0.0
 11
-342.4969959255186
 21
-350.4467310199795
 31
0.0
  0
LWPOLYLINE
  5
1D0
330
1F
100
AcDbEntity
  8
その他
  6
Continuous
 62
     7
370
     9
100
AcDbPolyline
 90
        4
 70
     1
 43
0.4
 10
-342.2969959255186
 20
-350.4467310199795
 42
0.4142135623731
 10
-342.4969959255186
 20
-350.2467310199795
 42
0.4142135623731
 10
-342.6969959255186
 20
-350.4467310199795
 42
0.4142135623731
 10
-342.4969959255186
 20
-350.6467310199795
 42
0.4142135623731
  0
LINE
  5
1D1
330
1F
100
AcDbEntity
  8
その他
  6
Continuous
 62
     7
370
     9
100
AcDbLine
 10
-342.4969959255186
 20
-351.6467310199793
 30
0.0
 11
-342.4969959255186
 21
-262.7896355107143
 31
0.0
  0
TEXT
  5
1D2
330
1F
100
AcDbEntity
  8
その他
  6
Continuous
 62
     2
370
   211
100
AcDbText
 10
-405.4969876775247
 20
-345.7907310199794
 30
0.0
 40
12.192
  1
100
 41
1.083333333333333
  7
ＭＳ ゴシック
100
AcDbText
  0
LINE
  5
1D3
330
1F
100
AcDbEntity
  8
その他
  6
Continuous
 62
     7
370
     9
100
AcDbLine
 10
-442.4969794295305
 20
-351.6467310199793
 30
0.0
 11
-442.4969794295305
 21
-307.1726490614907
 31
0.0
  0
LWPOLYLINE
  5
1D4
330
1F
100
AcDbEntity
  8
その他
  6
Continuous
 62
     7
370
     9
100
AcDbPolyline
 90
        4
 70
     1
 43
0.4
 10
-898.2969358329906
 20
400.7719826209469
 42
0.4142135623731
 10
-898.4969358329906
 20
400.9719826209468
 42
0.4142135623731
 10
-898.6969358329907
 20
400.7719826209469
 42
0.4142135623731
 10
-898.4969358329906
 20
400.5719826209469
 42
0.4142135623731
  0
LINE
  5
1D5
330
1F
100
AcDbEntity
  8
その他
  6
Continuous
 62
     7
370
     9
100
AcDbLine
 10
-898.4969358329906
 20
401.9719826209468
 30
0.0
 11
-898.4969358329906
 21
322.1734507985536
 31
0.0
  0
LWPOLYLINE
  5
1D6
330
1F
100
AcDbEntity
  8
その他
  6
Continuous
 62
     7
370
     9
100
AcDbPolyline
 90
        4
 70
     1
 43
0.4
 10
-902.7970206695004
 20
434.2509933828313
 42
0.4142135623731
 10
-902.9970206695004
 20
434.4509933828313
 42
0.4142135623731
 10
-903.1970206695005
 20
434.2509933828313
 42
0.4142135623731
 10
-902.9970206695004
 20
434.0509933828313
 42
0.4142135623731
  0
LINE
  5
1D7
330
1F
100
AcDbEntity
  8
その他
  6
Continuous
 62
     7
370
     9
100
AcDbLine
 10
-902.9970206695004
 20
435.4509933828313
 30
0.0
 11
-902.9970206695004
 21
322.1734507985536
 31
0.0
  0
LWPOLYLINE
  5
1D8
330
1F
100
AcDbEntity
  8
その他
  6
Continuous
 62
     7
370
     9
100
AcDbPolyline
 90
        4
 70
     1
 43
0.4
 10
-356.2970869480244
 20
400.7719826209469
 42
0.4142135623731
 10
-356.4970869480244
 20
400.9719826209468
 42
0.4142135623731
 10
-356.6970869480244
 20
400.7719826209469
 42
0.4142135623731
 10
-356.4970869480244
 20
400.5719826209469
 42
0.4142135623731
  0
LINE
  5
1D9
330
1F
100
AcDbEntity
  8
その他
  6
Continuous
 62
     7
370
     9
100
AcDbLine
 10
-356.4970869480244
 20
401.9719826209468
 30
0.0
 11
-356.4970869480244
 21
322.1734507985536
 31
0.0
  0
LWPOLYLINE
  5
1DA
330
1F
100
AcDbEntity
  8
その他
  6
Continuous
 62
     7
370
     9
100
AcDbPolyline
 90
        4
 70
     1
 43
0.4
 10
-351.7970021115141
 20
434.2509933828313
 42
0.4142135623731
 10
-351.9970021115141
 20
434.4509933828313
 42
0.4142135623731
 10
-352.1970021115141
 20
434.2509933828313
 42
0.4142135623731
 10
-351.9970021115141
 20
434.0509933828313
 42
0.4142135623731
  0
LINE
  5
1DB
330
1F
100
AcDbEntity
  8
その他
  6
Continuous
 62
     7
370
     9
100
AcDbLine
 10
-351.9970021115141
 20
435.4509933828313
 30
0.0
 11
-351.9970021115141
 21
322.1734507985536
 31
0.0
  0
LINE
  5
1DC
330
1F
100
AcDbEntity
  8
その他
  6
Continuous
 62
     7
370
     9
100
AcDbLine
 10
-875.4970074432531
 20
268.3804138006943
 30
0.0
 11
-879.323841766904
 21
259.1416184755813
 31
0.0
  0
LINE
  5
1DD
330
1F
100
AcDbEntity
  8
その他
  6
Continuous
 62
     7
370
     9
100
AcDbLine
 10
-923.4927027248546
 20
185.2494310283685
 30
0.0
 11
-875.4970074432531
 21
268.3804138006943
 31
0.0
  0
TEXT
  5
1DE
330
1F
100
AcDbEntity
  8
その他
  6
Continuous
 62
     2
370
     9
100
AcDbText
 10
-962.862176243078
 20
190.5133637788745
 30
0.0
 40
12.192
  1
φ10
 41
1.09375
  7
ＭＳ ゴシック
100
AcDbText
  0
LINE
  5
1DF
330
1F
100
AcDbEntity
  8
その他
  6
Continuous
 62
     7
370
     9
100
AcDbLine
 10
-964.309290899791
 20
185.2494310283685
 30
0.0
 11
-923.4927027248546
 21
185.2494310283685
 31
0.0
  0
LINE
  5
1E0
330
1F
100
AcDbEntity
  8
その他
  6
Continuous
 62
     7
370
     9
100
AcDbLine
 10
-875.4970074432531
 20
268.3804138006943
 30
0.0
 11
-881.5846217333401
 21
260.4468803977819
 31
0.0
  0
LINE
  5
1E1
330
1F
100
AcDbEntity
  8
その他
  6
Continuous
 62
     7
370
     9
100
AcDbLine
 10
-502.5024109300191
 20
370.4463896740399
 30
0.0
 11
-461.6858227550831
 21
370.4463896740399
 31
0.0
  0
LINE
  5
1E2
330
1F
100
AcDbEntity
  8
その他
  6
Continuous
 62
     7
370
     9
100
AcDbLine
 10
-461.6858227550831
 20
370.4463896740399
 30
0.0
 11
-446.4969794810806
 21
344.1385414152671
 31
0.0
  0
LINE
  5
1E3
330
1F
100
AcDbEntity
  8
その他
  6
Continuous
 62
     7
370
     9
100
AcDbLine
 10
-446.4969794810806
 20
344.1385414152671
 30
0.0
 11
-452.5845937711676
 21
352.0720748181794
 31
0.0
  0
LINE
  5
1E4
330
1F
100
AcDbEntity
  8
その他
  6
Continuous
 62
     7
370
     9
100
AcDbLine
 10
-446.4969794810806
 20
344.1385414152671
 30
0.0
 11
-450.3238138047316
 21
353.37733674038
 31
0.0
  0
TEXT
  5
1E5
330
1F
100
AcDbEntity
  8
その他
  6
Continuous
 62
     2
370
     9
100
AcDbText
 10
-501.0552962733061
 20
375.7103224245458
 30
0.0
 40
12.192
  1
φ16
 41
1.09375
  7
ＭＳ ゴシック
100
AcDbText
  0
LINE
  5
1E6
330
1F
100
AcDbEntity
  8
躯体
  6
JWW_DASHED3
 62
     2
370
     9
100
AcDbLine
 10
-402.4970021115137
 20
-194.7896355107143
 30
0.0
 11
-852.4970021115137
 21
-194.7896355107143
 31
0.0
  0
LINE
  5
1E7
330
1F
100
AcDbEntity
  8
躯体
  6
JWW_DASHED3
 62
     2
370
     9
100
AcDbLine
 10
-852.4970021115137
 20
-194.7896355107143
 30
0.0
 11
-852.4970021115137
 21
255.2103644892857
 31
0.0
  0
LINE
  5
1E8
330
1F
100
AcDbEntity
  8
躯体
  6
JWW_DASHED3
 62
     2
370
     9
100
AcDbLine
 10
-852.4970021115137
 20
255.2103644892857
 30
0.0
 11
-402.4970021115137
 21
255.2103644892857
 31
0.0
  0
LINE
  5
1E9
330
1F
100
AcDbEntity
  8
躯体
  6
JWW_DASHED3
 62
     2
370
     9
100
AcDbLine
 10
-402.4970021115137
 20
255.2103644892857
 30
0.0
 11
-402.4970021115137
 21
-194.7896355107143
 31
0.0
  0
TEXT
  5
1EA
330
1F
100
AcDbEntity
  8
F-5ﾚｲﾔ
  6
Continuous
 62
     2
370
     9
100
AcDbText
 10
647.6270255014672
 20
670.9717068318121
 30
0.0
 40
12.192
  1
桝内径　450mm
 41
1.115384615384615
  7
ＭＳ ゴシック
100
AcDbText
  0
LINE
  5
1EB
330
1F
100
AcDbEntity
  8
その他
  6
Continuous
 62
     7
370
     9
100
AcDbLine
 10
-902.9970206695004
 20
434.2509933828313
 30
0.0
 11
-351.9970021115141
 21
434.2509933828313
 31
0.0
  0
TEXT
  5
1EC
330
1F
100
AcDbEntity
  8
その他
  6
Continuous
 62
     2
370
   211
100
AcDbText
 10
-640.4970113905073
 20
438.9069933828313
 30
0.0
 40
12.192
  1
551
 41
1.083333333333333
  7
ＭＳ ゴシック
100
AcDbText
  0
LINE
  5
1ED
330
1F
100
AcDbEntity
  8
その他
  6
Continuous
 62
     7
370
     9
100
AcDbLine
 10
-898.4969358329906
 20
400.7719826209469
 30
0.0
 11
-356.4970869480244
 21
400.7719826209469
 31
0.0
  0
TEXT
  5
1EE
330
1F
100
AcDbEntity
  8
その他
  6
Continuous
 62
     2
370
   211
100
AcDbText
 10
-640.4970113905075
 20
405.4279826209469
 30
0.0
 40
12.192
  1
542
 41
1.083333333333333
  7
ＭＳ ゴシック
100
AcDbText
  0
LINE
  5
1EF
330
1F
100
AcDbEntity
  8
その他
  6
Continuous
 62
     7
370
     9
100
AcDbLine
 10
-812.4970124215067
 20
-350.4467310199795
 30
0.0
 11
-442.4969794295305
 21
-350.4467310199795
 31
0.0
  0
TEXT
  5
1F0
330
1F
100
AcDbEntity
  8
その他
  6
Continuous
 62
     2
370
   211
100
AcDbText
 10
-640.4969959255186
 20
-345.7907310199794
 30
0.0
 40
12.192
  1
370
 41
1.083333333333333
  7
ＭＳ ゴシック
100
AcDbText
  0
TEXT
  5
1F1
330
1F
100
AcDbEntity
  8
その他
  6
Continuous
 62
     2
370
   211
100
AcDbText
 10
-150.9192338530831
 20
8.210375486612236
 30
0.0
 40
12.192
  1
□570
 50
90.0
 41
1.1
  7
ＭＳ ゴシック
100
AcDbText
  0
LINE
  5
1F2
330
1F
100
AcDbEntity
  8
その他
  6
Continuous
 62
     7
370
     9
100
AcDbLine
 10
-109.3819140020983
 20
-245.2899333811299
 30
0.0
 11
-109.3819140020983
 21
305.7106623596999
 31
0.0
  0
TEXT
  5
1F3
330
1F
100
AcDbEntity
  8
その他
  6
Continuous
 62
     2
370
   211
100
AcDbText
 10
-114.0379140020983
 20
17.21036448928504
 30
0.0
 40
12.192
  1
551
 50
90.0
 41
1.083333333333333
  7
ＭＳ ゴシック
100
AcDbText
  0
LINE
  5
1F4
330
1F
100
AcDbEntity
  8
その他
  6
Continuous
 62
     7
370
     9
100
AcDbLine
 10
-78.42588932388117
 20
288.2106025028305
 30
0.0
 11
-78.42588932388117
 21
-227.7898735242576
 31
0.0
  0
TEXT
  5
1F5
330
1F
100
AcDbEntity
  8
その他
  6
Continuous
 62
     2
370
   211
100
AcDbText
 10
-83.08188932388126
 20
17.21036448928641
 30
0.0
 40
12.192
  1
516
 50
90.0
 41
1.083333333333333
  7
ＭＳ ゴシック
100
AcDbText
  0
LINE
  5
1F6
330
1F
100
AcDbEntity
  8
その他
  6
Continuous
 62
     7
370
     9
100
AcDbLine
 10
292.2827424477941
 20
-276.789609117133
 30
0.0
 11
292.2827424477941
 21
337.2103380957045
 31
0.0
  0
TEXT
  5
1F7
330
1F
100
AcDbEntity
  8
その他
  6
Continuous
 62
     2
370
   211
100
AcDbText
 10
287.6267424477945
 20
17.21036448928572
 30
0.0
 40
12.192
  1
614
 50
90.0
 41
1.083333333333333
  7
ＭＳ ゴシック
100
AcDbText
  0
TEXT
  5
1F8
330
1F
100
AcDbEntity
  8
その他
  6
Continuous
 62
     2
370
   211
100
AcDbText
 10
233.7663557172635
 20
8.210364489285723
 30
0.0
 40
12.192
  1
□450
 50
90.0
 41
1.1
  7
ＭＳ ゴシック
100
AcDbText
  0
TEXT
  5
1F9
330
1F
100
AcDbEntity
  8
F-Fﾚｲﾔ
  6
Continuous
 62
     2
370
     9
100
AcDbText
 10
647.6270255014672
 20
542.971706831812
 30
0.0
 40
12.192
  1
寸法 幅551×長さ551×高さ116.2
 41
1.120833333333333
  7
ＭＳ ゴシック
100
AcDbText
  0
TEXT
  5
1FA
330
1F
100
AcDbEntity
  8
F-Fﾚｲﾔ
  6
Continuous
 62
     2
370
     9
100
AcDbText
 10
647.6270255014673
 20
510.971706831812
 30
0.0
 40
12.192
  1
蓋質量　19.1kg
 41
1.116071428571429
  7
ＭＳ ゴシック
100
AcDbText
  0
TEXT
  5
1FB
330
1F
100
AcDbEntity
  8
F-Fﾚｲﾔ
  6
Continuous
 62
     2
370
     9
100
AcDbText
 10
647.6270255014672
 20
446.9717068318121
 30
0.0
 40
12.192
  1
寸法 幅570×長さ570×高さ122.2
 41
1.120833333333333
  7
ＭＳ ゴシック
100
AcDbText
  0
TEXT
  5
1FC
330
1F
100
AcDbEntity
  8
F-Fﾚｲﾔ
  6
Continuous
 62
     2
370
     9
100
AcDbText
 10
489.5445030730914
 20
314.9717282894842
 30
0.0
 40
12.192
  1
強度性能
 41
1.09375
  7
ＭＳ ゴシック
100
AcDbText
  0
TEXT
  5
1FD
330
1F
100
AcDbEntity
  8
F-Fﾚｲﾔ
  6
Continuous
 62
     2
370
     9
100
AcDbText
 10
489.5445030730914
 20
278.9717068318121
 30
0.0
 40
12.192
  1
強度
 41
1.0625
  7
ＭＳ ゴシック
100
AcDbText
  0
TEXT
  5
1FE
330
1F
100
AcDbEntity
  8
F-Fﾚｲﾔ
  6
Continuous
 62
     2
370
     9
100
AcDbText
 10
489.5445030730914
 20
214.9717068318121
 30
0.0
 40
12.192
  1
主な使用場所
 41
1.104166666666667
  7
ＭＳ ゴシック
100
AcDbText
  0
TEXT
  5
1FF
330
1F
100
AcDbEntity
  8
F-Fﾚｲﾔ
  6
Continuous
 62
     2
370
     9
100
AcDbText
 10
647.6270255014672
 20
278.9717068318121
 30
0.0
 40
12.192
  1
T-2：後輪1輪荷重7.8kN(800kgf)
 41
1.120689655172414
  7
ＭＳ ゴシック
100
AcDbText
  0
TEXT
  5
200
330
1F
100
AcDbEntity
  8
F-Fﾚｲﾔ
  6
Continuous
 62
     2
370
     9
100
AcDbText
 10
647.6270255014672
 20
246.9717068318121
 30
0.0
 40
12.192
  1
 　　総重量2トンまでの車両が通行可能
 41
1.118055555555556
  7
ＭＳ ゴシック
100
AcDbText
  0
TEXT
  5
201
330
1F
100
AcDbEntity
  8
F-Fﾚｲﾔ
  6
Continuous
 62
     2
370
     9
100
AcDbText
 10
647.6270255014672
 20
214.9717068318121
 30
0.0
 40
12.192
  1
建物内、建物敷地内、公園敷地内、
 41
1.1171875
  7
ＭＳ ゴシック
100
AcDbText
  0
TEXT
  5
202
330
1F
100
AcDbEntity
  8
F-Fﾚｲﾔ
  6
Continuous
 62
     2
370
     9
100
AcDbText
 10
647.6270255014672
 20
182.9717068318121
 30
0.0
 40
12.192
  1
車道以外で車両の乗り入れる可能性のある場所
 41
1.119047619047619
  7
ＭＳ ゴシック
100
AcDbText
  0
TEXT
  5
203
330
1F
100
AcDbEntity
  8
F-Fﾚｲﾔ
  6
Continuous
 62
     2
370
     9
100
AcDbText
 10
489.5445030730914
 20
118.9717068318121
 30
0.0
 40
12.192
  1
衝撃係数
 41
1.09375
  7
ＭＳ ゴシック
100
AcDbText
  0
TEXT
  5
204
330
1F
100
AcDbEntity
  8
F-Fﾚｲﾔ
  6
Continuous
 62
     2
370
     9
100
AcDbText
 10
489.5445030730914
 20
150.9717068318121
 30
0.0
 40
12.192
  1
車両進行方向
 41
1.104166666666667
  7
ＭＳ ゴシック
100
AcDbText
  0
TEXT
  5
205
330
1F
100
AcDbEntity
  8
F-Fﾚｲﾔ
  6
Continuous
 62
     2
370
     9
100
AcDbText
 10
489.5445030730914
 20
86.97170683181207
 30
0.0
 40
12.192
  1
衝撃を考慮した
 41
1.107142857142857
  7
ＭＳ ゴシック
100
AcDbText
  0
TEXT
  5
206
330
1F
100
AcDbEntity
  8
F-Fﾚｲﾔ
  6
Continuous
 62
     2
370
     9
100
AcDbText
 10
489.5445030730914
 20
54.97170683181207
 30
0.0
 40
12.192
  1
後輪1輪荷重
 41
1.102272727272727
  7
ＭＳ ゴシック
100
AcDbText
  0
TEXT
  5
207
330
1F
100
AcDbEntity
  8
F-Fﾚｲﾔ
  6
Continuous
 62
     2
370
     9
100
AcDbText
 10
489.5445030730914
 20
22.97170683181207
 30
0.0
 40
12.192
  1
後輪接地面積
 41
1.104166666666667
  7
ＭＳ ゴシック
100
AcDbText
  0
LINE
  5
208
330
1F
100
AcDbEntity
  8
F-Fﾚｲﾔ
  6
Continuous
 62
     7
370
     9
100
AcDbLine
 10
631.0930647438574
 20
304.7157068318121
 30
0.0
 11
631.0930647438574
 21
12.71570683181207
 31
0.0
  0
LINE
  5
209
330
1F
100
AcDbEntity
  8
F-Fﾚｲﾔ
  6
Continuous
 62
     7
370
     9
100
AcDbLine
 10
478.8976130146309
 20
336.7157068318121
 30
0.0
 11
478.8976130146309
 21
12.71570683181207
 31
0.0
  0
TEXT
  5
20A
330
1F
100
AcDbEntity
  8
F-Fﾚｲﾔ
  6
Continuous
 62
     2
370
     9
100
AcDbText
 10
647.6270255014672
 20
150.9717068318121
 30
0.0
 40
12.192
  1
横断方向、縦断方向
 41
1.111111111111111
  7
ＭＳ ゴシック
100
AcDbText
  0
TEXT
  5
20B
330
1F
100
AcDbEntity
  8
F-Fﾚｲﾔ
  6
Continuous
 62
     2
370
     9
100
AcDbText
 10
647.6270255014672
 20
118.9717068318121
 30
0.0
 40
12.192
  1
0.1
 41
1.083333333333333
  7
ＭＳ ゴシック
100
AcDbText
  0
TEXT
  5
20C
330
1F
100
AcDbEntity
  8
F-Fﾚｲﾔ
  6
Continuous
 62
     2
370
     9
100
AcDbText
 10
647.6270255014672
 20
22.97170683181207
 30
0.0
 40
12.192
  1
200×160 mm
 41
1.113636363636364
  7
ＭＳ ゴシック
100
AcDbText
  0
TEXT
  5
20D
330
1F
100
AcDbEntity
  8
F-Fﾚｲﾔ
  6
Continuous
 62
     2
370
     9
100
AcDbText
 10
647.6270255014672
 20
70.97170683181207
 30
0.0
 40
12.192
  1
8.6kN
 41
1.1
  7
ＭＳ ゴシック
100
AcDbText
  0
LINE
  5
20E
330
1F
100
AcDbEntity
  8
F-Fﾚｲﾔ
  6
Continuous
 62
     7
370
     9
100
AcDbLine
 10
478.8976130146309
 20
336.7157068318121
 30
0.0
 11
1117.126304008243
 21
336.7157068318121
 31
0.0
  0
LINE
  5
20F
330
1F
100
AcDbEntity
  8
F-Fﾚｲﾔ
  6
Continuous
 62
     7
370
     9
100
AcDbLine
 10
478.8976130146309
 20
304.7157068318121
 30
0.0
 11
1117.126304008243
 21
304.7157068318121
 31
0.0
  0
LINE
  5
210
330
1F
100
AcDbEntity
  8
F-Fﾚｲﾔ
  6
Continuous
 62
     7
370
     9
100
AcDbLine
 10
478.8976130146309
 20
300.7157068318121
 30
0.0
 11
1117.126304008243
 21
300.7157068318121
 31
0.0
  0
LINE
  5
211
330
1F
100
AcDbEntity
  8
F-Fﾚｲﾔ
  6
Continuous
 62
     7
370
     9
100
AcDbLine
 10
478.8976130146309
 20
236.7157068318121
 30
0.0
 11
1117.126304008243
 21
236.7157068318121
 31
0.0
  0
LINE
  5
212
330
1F
100
AcDbEntity
  8
F-Fﾚｲﾔ
  6
Continuous
 62
     7
370
     9
100
AcDbLine
 10
478.8976130146309
 20
236.7157068318121
 30
0.0
 11
1117.126304008243
 21
236.7157068318121
 31
0.0
  0
LINE
  5
213
330
1F
100
AcDbEntity
  8
F-Fﾚｲﾔ
  6
Continuous
 62
     7
370
     9
100
AcDbLine
 10
478.8976130146309
 20
140.7157068318121
 30
0.0
 11
1117.126304008243
 21
140.7157068318121
 31
0.0
  0
LINE
  5
214
330
1F
100
AcDbEntity
  8
F-Fﾚｲﾔ
  6
Continuous
 62
     7
370
     9
100
AcDbLine
 10
478.8976130146309
 20
172.7157068318121
 30
0.0
 11
1117.126304008243
 21
172.7157068318121
 31
0.0
  0
LINE
  5
215
330
1F
100
AcDbEntity
  8
F-Fﾚｲﾔ
  6
Continuous
 62
     7
370
     9
100
AcDbLine
 10
478.8976130146309
 20
108.7157068318121
 30
0.0
 11
1117.126304008243
 21
108.7157068318121
 31
0.0
  0
LINE
  5
216
330
1F
100
AcDbEntity
  8
F-Fﾚｲﾔ
  6
Continuous
 62
     7
370
     9
100
AcDbLine
 10
478.8976130146309
 20
44.71570683181207
 30
0.0
 11
1117.126304008243
 21
44.71570683181207
 31
0.0
  0
LINE
  5
217
330
1F
100
AcDbEntity
  8
F-Fﾚｲﾔ
  6
Continuous
 62
     7
370
     9
100
AcDbLine
 10
478.8976130146309
 20
12.71570683181207
 30
0.0
 11
1117.126304008243
 21
12.71570683181207
 31
0.0
  0
LINE
  5
218
330
1F
100
AcDbEntity
  8
F-Fﾚｲﾔ
  6
Continuous
 62
     7
370
     9
100
AcDbLine
 10
1117.126304008243
 20
336.7157068318121
 30
0.0
 11
1117.126304008243
 21
12.71570683181207
 31
0.0
  0
TEXT
  5
219
330
1F
100
AcDbEntity
  8
F-Fﾚｲﾔ
  6
Continuous
 62
     2
370
     9
100
AcDbText
 10
647.6270255014672
 20
478.9717068318121
 30
0.0
 40
12.192
  1
スチール製 溶融亜鉛めっき
 41
1.115
  7
ＭＳ ゴシック
100
AcDbText
  0
TEXT
  5
21A
330
1F
100
AcDbEntity
  8
F-Fﾚｲﾔ
  6
Continuous
 62
     2
370
     9
100
AcDbText
 10
647.627025501467
 20
382.9717068318121
 30
0.0
 40
12.192
  1
集水桝用：HISW-2-450-Z
 41
1.119318181818182
  7
ＭＳ ゴシック
100
AcDbText
  0
TEXT
  5
21B
330
1F
100
AcDbEntity
  8
寸法
  6
Continuous
 62
     7
370
     0
100
AcDbText
 10
193.8881657714287
 20
417.362248479712
 30
0.0
 40
9.144
  1
ＳＳ４００（溶融亜鉛めっき）
 41
1.154761904761905
  7
ＭＳ ゴシック
100
AcDbText
  0
LINE
  5
21C
330
1F
100
AcDbEntity
  8
寸法
  6
Continuous
 62
     7
370
     9
100
AcDbLine
 10
191.9054728632032
 20
429.7246829369474
 30
0.0
 11
382.7227248536453
 21
429.7246829369474
 31
0.0
  0
LINE
  5
21D
330
1F
100
AcDbEntity
  8
寸法
  6
Continuous
 62
     7
370
     9
100
AcDbLine
 10
-256.2523710393712
 20
492.8499825690056
 30
0.0
 11
-48.71726666264522
 21
492.8499825690056
 31
0.0
  0
TEXT
  5
21E
330
1F
100
AcDbEntity
  8
寸法
  6
Continuous
 62
     7
370
     0
100
AcDbText
 10
-243.1113302652425
 20
479.7240565891248
 30
0.0
 40
9.144
  1
ＳＰＨＣ（溶融亜鉛めっき）
 50
0.0000630100335
 41
1.153846153846154
  7
ＭＳ ゴシック
100
AcDbText
  0
TEXT
  5
21F
330
1F
100
AcDbEntity
  8
寸法
  6
Continuous
 62
     7
370
     0
100
AcDbText
 10
-256.1843115892503
 20
497.5025406539052
 30
0.0
 40
9.144
  1
受枠：Ｌ－１１７Ｚ，ｔ＝６.０
 41
1.155172413793103
  7
ＭＳ ゴシック
100
AcDbText
  0
TEXT
  5
220
330
1F
100
AcDbEntity
  8
F-4ﾚｲﾔ
  6
Continuous
 62
     2
370
     9
100
AcDbText
 10
221.3816524747212
 20
-777.8398842462342
 30
0.0
 40
12.192
  1
集水桝用　ＨＩＳＷ－２－４５０－Ｚ
 41
1.117647058823529
  7
ＭＳ ゴシック
100
AcDbText
  0
LINE
  5
221
330
1F
100
AcDbEntity
  8
仕上
  6
Continuous
 62
     2
370
     9
100
AcDbLine
 10
-896.9970021115136
 20
292.710543117272
 30
0.0
 11
-896.9970021115136
 21
298.7105775231892
 31
0.0
  0
LINE
  5
222
330
1F
100
AcDbEntity
  8
仕上
  6
JWW_DASHED1
 62
     2
370
     9
100
AcDbLine
 10
-896.9970021115136
 20
298.7105775231892
 30
0.0
 11
-896.9970021115136
 21
303.2106623596999
 31
0.0
  0
LINE
  5
223
330
1F
100
AcDbEntity
  8
仕上
  6
JWW_DASHED1
 62
     2
370
     9
100
AcDbLine
 10
-896.9970021115136
 20
292.710543117272
 30
0.0
 11
-896.9970021115136
 21
288.2104582807613
 31
0.0
  0
LINE
  5
224
330
1F
100
AcDbEntity
  8
仕上
  6
Continuous
 62
     2
370
     9
100
AcDbLine
 10
-896.9970021115136
 20
288.2104582807613
 30
0.0
 11
-896.9970021115136
 21
278.9604613443015
 31
0.0
  0
LINE
  5
225
330
1F
100
AcDbEntity
  8
仕上
  6
Continuous
 62
     2
370
     9
100
AcDbLine
 10
-896.9970021115136
 20
-232.2898141387001
 30
0.0
 11
-896.9970021115136
 21
-238.2898485446178
 31
0.0
  0
LINE
  5
226
330
1F
100
AcDbEntity
  8
仕上
  6
JWW_DASHED1
 62
     2
370
     9
100
AcDbLine
 10
-896.9970021115136
 20
278.9604613443015
 30
0.0
 11
-896.9970021115136
 21
-232.2898141387001
 31
0.0
  0
ENDSEC
  0
SECTION
  2
OBJECTS
  0
DICTIONARY
  5
C
330
0
100
AcDbDictionary
281
     1
  3
ACAD_GROUP
350
D
  3
ACAD_LAYOUT
350
1A
  3
ACAD_MLEADERSTYLE
350
228
  3
ACAD_MLINESTYLE
350
17
  3
ACAD_PLOTSETTINGS
350
19
  3
ACAD_PLOTSTYLENAME
350
E
  3
ACAD_TABLESTYLE
350
227
  3
ACAD_VISUALSTYLE
350
2A
  0
DICTIONARY
  5
D
102
{ACAD_REACTORS
330
C
102
}
330
C
100
AcDbDictionary
281
     1
  0
DICTIONARY
  5
1A
102
{ACAD_REACTORS
330
C
102
}
330
C
100
AcDbDictionary
281
     1
  3
Layout1
350
1E
  3
Layout2
350
26
  3
Model
350
22
  0
DICTIONARY
  5
228
102
{ACAD_REACTORS
330
C
102
}
330
C
100
AcDbDictionary
281
     1
  0
DICTIONARY
  5
17
102
{ACAD_REACTORS
330
C
102
}
330
C
100
AcDbDictionary
281
     1
  3
Standard
350
18
  0
DICTIONARY
  5
19
102
{ACAD_REACTORS
330
C
102
}
330
C
100
AcDbDictionary
281
     1
  0
ACDBDICTIONARYWDFLT
  5
E
102
{ACAD_REACTORS
330
C
102
}
330
C
100
AcDbDictionary
281
     1
  3
Normal
350
F
100
AcDbDictionaryWithDefault
340
F
  0
DICTIONARY
  5
227
102
{ACAD_REACTORS
330
C
102
}
330
C
100
AcDbDictionary
281
     1
  0
DICTIONARY
  5
2A
102
{ACAD_REACTORS
330
C
102
}
330
C
100
AcDbDictionary
281
     1
  3
2dWireframe
350
2F
  3
3D Hidden
350
31
  3
3dWireframe
350
30
  3
Basic
350
32
  3
Brighten
350
36
  3
ColorChange
350
3A
  3
Conceptual
350
34
  3
Dim
350
35
  3
Facepattern
350
39
  3
Flat
350
2B
  3
FlatWithEdges
350
2C
  3
Gouraud
350
2D
  3
GouraudWithEdges
350
2E
  3
Linepattern
350
38
  3
Realistic
350
33
  3
Thicken
350
37
  0
LAYOUT
  5
1E
102
{ACAD_REACTORS
330
1A
102
}
330
1A
100
AcDbPlotSettings
  1

  2
none_device
  4

  6

 40
0.0
 41
0.0
 42
0.0
 43
0.0
 44
0.0
 45
0.0
 46
0.0
 47
0.0
 48
0.0
 49
0.0
140
0.0
141
0.0
142
1.0
143
1.0
 70
   688
 72
     0
 73
     0
 74
     5
  7

 75
    16
 76
     0
 77
     5
 78
   300
147
1.0
148
0.0
149
0.0
100
AcDbLayout
  1
Layout1
 70
     1
 71
     1
 10
0.0
 20
0.0
 11
420.0
 21
297.0
 12
0.0
 22
0.0
 32
0.0
 14
1.000000000000000E+20
 24
1.000000000000000E+20
 34
1.000000000000000E+20
 15
-1.000000000000000E+20
 25
-1.000000000000000E+20
 35
-1.000000000000000E+20
146
0.0
 13
0.0
 23
0.0
 33
0.0
 16
1.0
 26
0.0
 36
0.0
 17
0.0
 27
1.0
 37
0.0
 76
     0
330
1B
  0
LAYOUT
  5
26
102
{ACAD_REACTORS
330
1A
102
}
330
1A
100
AcDbPlotSettings
  1

  2
none_device
  4

  6

 40
0.0
 41
0.0
 42
0.0
 43
0.0
 44
0.0
 45
0.0
 46
0.0
 47
0.0
 48
0.0
 49
0.0
140
0.0
141
0.0
142
1.0
143
1.0
 70
   688
 72
     0
 73
     0
 74
     5
  7

 75
    16
 76
     0
 77
     5
 78
   300
147
1.0
148
0.0
149
0.0
100
AcDbLayout
  1
Layout2
 70
     1
 71
     2
 10
0.0
 20
0.0
 11
0.0
 21
0.0
 12
0.0
 22
0.0
 32
0.0
 14
0.0
 24
0.0
 34
0.0
 15
0.0
 25
0.0
 35
0.0
146
0.0
 13
0.0
 23
0.0
 33
0.0
 16
1.0
 26
0.0
 36
0.0
 17
0.0
 27
1.0
 37
0.0
 76
     0
330
23
  0
LAYOUT
  5
22
102
{ACAD_REACTORS
330
1A
102
}
330
1A
100
AcDbPlotSettings
  1

  2
none_device
  4

  6

 40
0.0
 41
0.0
 42
0.0
 43
0.0
 44
0.0
 45
0.0
 46
0.0
 47
0.0
 48
0.0
 49
0.0
140
0.0
141
0.0
142
1.0
143
1.0
 70
  1712
 72
     0
 73
     0
 74
     0
  7

 75
     0
 76
     0
 77
     5
 78
   300
147
1.0
148
0.0
149
0.0
100
AcDbLayout
  1
Model
 70
     1
 71
     0
 10
-1188.0
 20
-840.0
 11
1188.0
 21
840.0
 12
0.0
 22
0.0
 32
0.0
 14
-1188.0
 24
-840.0
 34
0.0
 15
1188.0
 25
840.0
 35
0.0
146
0.0
 13
0.0
 23
0.0
 33
0.0
 16
1.0
 26
0.0
 36
0.0
 17
0.0
 27
1.0
 37
0.0
 76
     0
330
1F
331
29
  0
MLINESTYLE
  5
18
102
{ACAD_REACTORS
330
17
102
}
330
17
100
AcDbMlineStyle
  2
Standard
 70
     0
  3

 62
   256
 51
90.0
 52
90.0
 71
     2
 49
0.5
 62
   256
  6
BYLAYER
 49
-0.5
 62
   256
  6
BYLAYER
  0
ACDBPLACEHOLDER
  5
F
102
{ACAD_REACTORS
330
E
102
}
330
E
  0
VISUALSTYLE
  5
2F
102
{ACAD_REACTORS
330
2A
102
}
330
2A
100
AcDbVisualStyle
  2
2dWireframe
 70
     4
 71
     0
 72
     2
 73
     0
 90
        0
 40
-0.6
 41
-30.0
 62
     5
 63
     7
421
 16777215
 74
     1
 91
        4
 64
     7
 65
   257
 75
     1
175
     1
 42
1.0
 92
        0
 66
   257
 43
1.0
 76
     1
 77
     6
 78
     2
 67
     7
 79
     5
170
     0
171
     0
290
     0
174
     0
 93
        1
 44
0.0
173
     0
291
     0
 45
0.0
  0
VISUALSTYLE
  5
31
102
{ACAD_REACTORS
330
2A
102
}
330
2A
100
AcDbVisualStyle
  2
3D Hidden
 70
     6
 71
     1
 72
     2
 73
     2
 90
        0
 40
-0.6
 41
-30.0
 62
     5
 63
     7
421
 16777215
 74
     2
 91
        2
 64
     7
 65
   257
 75
     2
175
     1
 42
40.0
 92
        0
 66
   257
 43
1.0
 76
     1
 77
     6
 78
     2
 67
     7
 79
     3
170
     0
171
     0
290
     0
174
     0
 93
        1
 44
0.0
173
     0
291
     0
 45
0.0
  0
VISUALSTYLE
  5
30
102
{ACAD_REACTORS
330
2A
102
}
330
2A
100
AcDbVisualStyle
  2
3dWireframe
 70
     5
 71
     0
 72
     2
 73
     0
 90
        0
 40
-0.6
 41
-30.0
 62
     5
 63
     7
421
 16777215
 74
     1
 91
        4
 64
     7
 65
   257
 75
     1
175
     1
 42
1.0
 92
        0
 66
   257
 43
1.0
 76
     1
 77
     6
 78
     2
 67
     7
 79
     5
170
     0
171
     0
290
     0
174
     0
 93
        1
 44
0.0
173
     0
291
     0
 45
0.0
  0
VISUALSTYLE
  5
32
102
{ACAD_REACTORS
330
2A
102
}
330
2A
100
AcDbVisualStyle
  2
Basic
 70
     7
 71
     1
 72
     0
 73
     1
 90
        0
 40
-0.6
 41
-30.0
 62
     5
 63
     7
421
 16777215
 74
     0
 91
        4
 64
     7
 65
   257
 75
     1
175
     1
 42
1.0
 92
        8
 66
     7
 43
1.0
 76
     1
 77
     6
 78
     2
 67
     7
 79
     5
170
     0
171
     0
290
     0
174
     0
 93
        1
 44
0.0
173
     0
291
     1
 45
0.0
  0
VISUALSTYLE
  5
36
102
{ACAD_REACTORS
330
2A
102
}
330
2A
100
AcDbVisualStyle
  2
Brighten
 70
    12
 71
     2
 72
     2
 73
     0
 90
        0
 40
-0.6
 41
-30.0
 62
     5
 63
     7
421
 16777215
 74
     1
 91
        4
 64
     7
 65
   257
 75
     1
175
     1
 42
1.0
 92
        8
 66
     7
 43
1.0
 76
     1
 77
     6
 78
     2
 67
     7
 79
     5
170
     0
171
     0
290
     0
174
     0
 93
        1
 44
50.0
173
     0
291
     1
 45
0.0
  0
VISUALSTYLE
  5
3A
102
{ACAD_REACTORS
330
2A
102
}
330
2A
100
AcDbVisualStyle
  2
ColorChange
 70
    16
 71
     2
 72
     2
 73
     3
 90
        0
 40
-0.6
 41
-30.0
 62
     5
 63
     8
421
  8421504
 74
     1
 91
        4
 64
     7
 65
   257
 75
     1
175
     1
 42
1.0
 92
        8
 66
     8
424
  8421504
 43
1.0
 76
     1
 77
     6
 78
     2
 67
     7
 79
     5
170
     0
171
     0
290
     0
174
     0
 93
        1
 44
0.0
173
     0
291
     1
 45
0.0
  0
VISUALSTYLE
  5
34
102
{ACAD_REACTORS
330
2A
102
}
330
2A
100
AcDbVisualStyle
  2
Conceptual
 70
     9
 71
     3
 72
     2
 73
     0
 90
        0
 40
-0.6
 41
-30.0
 62
     5
 63
     7
421
 16777215
 74
     2
 91
        2
 64
     7
 65
   257
 75
     1
175
     1
 42
40.0
 92
        8
 66
     7
 43
1.0
 76
     1
 77
     6
 78
     2
 67
     7
 79
     3
170
     0
171
     0
290
     0
174
     0
 93
        1
 44
0.0
173
     0
291
     0
 45
0.0
  0
VISUALSTYLE
  5
35
102
{ACAD_REACTORS
330
2A
102
}
330
2A
100
AcDbVisualStyle
  2
Dim
 70
    11
 71
     2
 72
     2
 73
     0
 90
        0
 40
-0.6
 41
-30.0
 62
     5
 63
     7
421
 16777215
 74
     1
 91
        4
 64
     7
 65
   257
 75
     1
175
     1
 42
1.0
 92
        8
 66
     7
 43
1.0
 76
     1
 77
     6
 78
     2
 67
     7
 79
     5
170
     0
171
     0
290
     0
174
     0
 93
        1
 44
-50.0
173
     0
291
     1
 45
0.0
  0
VISUALSTYLE
  5
39
102
{ACAD_REACTORS
330
2A
102
}
330
2A
100
AcDbVisualStyle
  2
Facepattern
 70
    15
 71
     2
 72
     2
 73
     0
 90
        0
 40
-0.6
 41
-30.0
 62
     5
 63
     7
421
 16777215
 74
     1
 91
        4
 64
     7
 65
   257
 75
     1
175
     1
 42
1.0
 92
        8
 66
     7
 43
1.0
 76
     1
 77
     6
 78
     2
 67
     7
 79
     5
170
     0
171
     0
290
     0
174
     0
 93
        1
 44
0.0
173
     0
291
     1
 45
0.0
  0
VISUALSTYLE
  5
2B
102
{ACAD_REACTORS
330
2A
102
}
330
2A
100
AcDbVisualStyle
  2
Flat
 70
     0
 71
     2
 72
     1
 73
     1
 90
        2
 40
-0.6
 41
30.0
 62
     5
 63
     7
421
 16777215
 74
     0
 91
        4
 64
     7
 65
   257
 75
     1
175
     1
 42
1.0
 92
        8
 66
     7
 43
1.0
 76
     1
 77
     6
 78
     2
 67
     7
 79
     5
170
     0
171
     0
290
     0
174
     0
 93
       13
 44
0.0
173
     0
291
     1
 45
0.0
  0
VISUALSTYLE
  5
2C
102
{ACAD_REACTORS
330
2A
102
}
330
2A
100
AcDbVisualStyle
  2
FlatWithEdges
 70
     1
 71
     2
 72
     1
 73
     1
 90
        2
 40
-0.6
 41
30.0
 62
     5
 63
     7
421
 16777215
 74
     1
 91
        4
 64
     7
 65
   257
 75
     1
175
     1
 42
1.0
 92
        0
 66
   257
 43
1.0
 76
     1
 77
     6
 78
     2
 67
     7
 79
     5
170
     0
171
     0
290
     0
174
     0
 93
       13
 44
0.0
173
     0
291
     1
 45
0.0
  0
VISUALSTYLE
  5
2D
102
{ACAD_REACTORS
330
2A
102
}
330
2A
100
AcDbVisualStyle
  2
Gouraud
 70
     2
 71
     2
 72
     2
 73
     1
 90
        2
 40
-0.6
 41
30.0
 62
     5
 63
     7
421
 16777215
 74
     0
 91
        4
 64
     7
 65
   257
 75
     1
175
     1
 42
1.0
 92
        0
 66
     7
 43
1.0
 76
     1
 77
     6
 78
     2
 67
     7
 79
     5
170
     0
171
     0
290
     0
174
     0
 93
       13
 44
0.0
173
     0
291
     1
 45
0.0
  0
VISUALSTYLE
  5
2E
102
{ACAD_REACTORS
330
2A
102
}
330
2A
100
AcDbVisualStyle
  2
GouraudWithEdges
 70
     3
 71
     2
 72
     2
 73
     1
 90
        2
 40
-0.6
 41
30.0
 62
     5
 63
     7
421
 16777215
 74
     1
 91
        4
 64
     7
 65
   257
 75
     1
175
     1
 42
1.0
 92
        0
 66
   257
 43
1.0
 76
     1
 77
     6
 78
     2
 67
     7
 79
     5
170
     0
171
     0
290
     0
174
     0
 93
       13
 44
0.0
173
     0
291
     1
 45
0.0
  0
VISUALSTYLE
  5
38
102
{ACAD_REACTORS
330
2A
102
}
330
2A
100
AcDbVisualStyle
  2
Linepattern
 70
    14
 71
     2
 72
     2
 73
     0
 90
        0
 40
-0.6
 41
-30.0
 62
     5
 63
     7
421
 16777215
 74
     1
 91
        4
 64
     7
 65
   257
 75
     7
175
     7
 42
1.0
 92
        8
 66
     7
 43
1.0
 76
     1
 77
     6
 78
     2
 67
     7
 79
     5
170
     0
171
     0
290
     0
174
     0
 93
        1
 44
0.0
173
     0
291
     1
 45
0.0
  0
VISUALSTYLE
  5
33
102
{ACAD_REACTORS
330
2A
102
}
330
2A
100
AcDbVisualStyle
  2
Realistic
 70
     8
 71
     2
 72
     2
 73
     0
 90
        0
 40
-0.6
 41
-30.0
 62
     5
 63
     7
421
 16777215
 74
     1
 91
        0
 64
     7
 65
   257
 75
     1
175
     1
 42
1.0
 92
        8
 66
     8
424
  7895160
 43
1.0
 76
     1
 77
     6
 78
     2
 67
     7
 79
     5
170
     0
171
     0
290
     0
174
     0
 93
       13
 44
0.0
173
     0
291
     0
 45
0.0
  0
VISUALSTYLE
  5
37
102
{ACAD_REACTORS
330
2A
102
}
330
2A
100
AcDbVisualStyle
  2
Thicken
 70
    13
 71
     2
 72
     2
 73
     0
 90
        0
 40
-0.6
 41
-30.0
 62
     5
 63
     7
421
 16777215
 74
     1
 91
        4
 64
     7
 65
   257
 75
     1
175
     1
 42
1.0
 92
       12
 66
     7
 43
1.0
 76
     1
 77
     6
 78
     2
 67
     7
 79
     5
170
     0
171
     0
290
     0
174
     0
 93
        1
 44
0.0
173
     0
291
     1
 45
0.0
  0
ENDSEC
  0
EOF
