  0
SECTION
  2
HEADER
  9
$ACADVER
  1
AC1021
  9
$ACADMAINTVER
 70
    25
  9
$DWGCODEPAGE
  3
ANSI_932
  9
$INSBASE
 10
0.0
 20
0.0
 30
0.0
  9
$EXTMIN
 10
-2970.0
 20
-2100.0
 30
0.0
  9
$EXTMAX
 10
2970.0
 20
2100.0
 30
0.0
  9
$LIMMIN
 10
-2970.0
 20
-2100.0
  9
$LIMMAX
 10
2970.0
 20
2100.0
  9
$ORTHOMODE
 70
     0
  9
$REGENMODE
 70
     1
  9
$FILLMODE
 70
     1
  9
$QTEXTMODE
 70
     0
  9
$MIRRTEXT
 70
     1
  9
$LTSCALE
 40
10.0
  9
$ATTMODE
 70
     1
  9
$TEXTSIZE
 40
2.5
  9
$TRACEWID
 40
1.0
  9
$TEXTSTYLE
  7
Standard
  9
$CLAYER
  8
0
  9
$CELTYPE
  6
ByLayer
  9
$CECOLOR
 62
   256
  9
$CELTSCALE
 40
1.0
  9
$DISPSILH
 70
     0
  9
$DIMSCALE
 40
1.0
  9
$DIMASZ
 40
2.5
  9
$DIMEXO
 40
0.625
  9
$DIMDLI
 40
3.75
  9
$DIMRND
 40
0.0
  9
$DIMDLE
 40
0.0
  9
$DIMEXE
 40
1.25
  9
$DIMTP
 40
0.0
  9
$DIMTM
 40
0.0
  9
$DIMTXT
 40
2.5
  9
$DIMCEN
 40
2.5
  9
$DIMTSZ
 40
0.0
  9
$DIMTOL
 70
     0
  9
$DIMLIM
 70
     0
  9
$DIMTIH
 70
     0
  9
$DIMTOH
 70
     0
  9
$DIMSE1
 70
     0
  9
$DIMSE2
 70
     0
  9
$DIMTAD
 70
     1
  9
$DIMZIN
 70
     8
  9
$DIMBLK
  1

  9
$DIMASO
 70
     1
  9
$DIMSHO
 70
     1
  9
$DIMPOST
  1

  9
$DIMAPOST
  1

  9
$DIMALT
 70
     0
  9
$DIMALTD
 70
     3
  9
$DIMALTF
 40
0.03937007874016
  9
$DIMLFAC
 40
1.0
  9
$DIMTOFL
 70
     1
  9
$DIMTVP
 40
0.0
  9
$DIMTIX
 70
     0
  9
$DIMSOXD
 70
     0
  9
$DIMSAH
 70
     0
  9
$DIMBLK1
  1

  9
$DIMBLK2
  1

  9
$DIMSTYLE
  2
ISO-25
  9
$DIMCLRD
 70
     0
  9
$DIMCLRE
 70
     0
  9
$DIMCLRT
 70
     0
  9
$DIMTFAC
 40
1.0
  9
$DIMGAP
 40
0.625
  9
$DIMJUST
 70
     0
  9
$DIMSD1
 70
     0
  9
$DIMSD2
 70
     0
  9
$DIMTOLJ
 70
     0
  9
$DIMTZIN
 70
     8
  9
$DIMALTZ
 70
     0
  9
$DIMALTTZ
 70
     0
  9
$DIMUPT
 70
     0
  9
$DIMDEC
 70
     2
  9
$DIMTDEC
 70
     2
  9
$DIMALTU
 70
     2
  9
$DIMALTTD
 70
     3
  9
$DIMTXSTY
  7
Standard
  9
$DIMAUNIT
 70
     0
  9
$DIMADEC
 70
     0
  9
$DIMALTRND
 40
0.0
  9
$DIMAZIN
 70
     0
  9
$DIMDSEP
 70
    44
  9
$DIMATFIT
 70
     3
  9
$DIMFRAC
 70
     0
  9
$DIMLDRBLK
  1

  9
$DIMLUNIT
 70
     2
  9
$DIMLWD
 70
    -2
  9
$DIMLWE
 70
    -2
  9
$DIMTMOVE
 70
     0
  9
$DIMFXL
 40
1.0
  9
$DIMFXLON
 70
     0
  9
$DIMJOGANG
 40
0.7853981633974483
  9
$DIMTFILL
 70
     0
  9
$DIMTFILLCLR
 70
     0
  9
$DIMARCSYM
 70
     0
  9
$DIMLTYPE
  6

  9
$DIMLTEX1
  6

  9
$DIMLTEX2
  6

  9
$LUNITS
 70
     2
  9
$LUPREC
 70
     4
  9
$SKETCHINC
 40
1.0
  9
$FILLETRAD
 40
10.0
  9
$AUNITS
 70
     0
  9
$AUPREC
 70
     0
  9
$MENU
  1
.
  9
$ELEVATION
 40
0.0
  9
$PELEVATION
 40
0.0
  9
$THICKNESS
 40
0.0
  9
$LIMCHECK
 70
     0
  9
$CHAMFERA
 40
10.0
  9
$CHAMFERB
 40
10.0
  9
$CHAMFERC
 40
20.0
  9
$CHAMFERD
 40
0.0
  9
$SKPOLY
 70
     0
  9
$TDCREATE
 40
2457732.405580208
  9
$TDUCREATE
 40
2457732.030580208
  9
$TDUPDATE
 40
2457732.40558022
  9
$TDUUPDATE
 40
2457732.03058022
  9
$TDINDWG
 40
0.0000000116
  9
$TDUSRTIMER
 40
0.0000000116
  9
$USRTIMER
 70
     1
  9
$ANGBASE
 50
0.0
  9
$ANGDIR
 70
     0
  9
$PDMODE
 70
     0
  9
$PDSIZE
 40
0.0
  9
$PLINEWID
 40
0.0
  9
$SPLFRAME
 70
     0
  9
$SPLINETYPE
 70
     6
  9
$SPLINESEGS
 70
     8
  9
$HANDSEED
  5
1E0
  9
$SURFTAB1
 70
     6
  9
$SURFTAB2
 70
     6
  9
$SURFTYPE
 70
     6
  9
$SURFU
 70
     6
  9
$SURFV
 70
     6
  9
$UCSBASE
  2

  9
$UCSNAME
  2

  9
$UCSORG
 10
0.0
 20
0.0
 30
0.0
  9
$UCSXDIR
 10
1.0
 20
0.0
 30
0.0
  9
$UCSYDIR
 10
0.0
 20
1.0
 30
0.0
  9
$UCSORTHOREF
  2

  9
$UCSORTHOVIEW
 70
     0
  9
$UCSORGTOP
 10
0.0
 20
0.0
 30
0.0
  9
$UCSORGBOTTOM
 10
0.0
 20
0.0
 30
0.0
  9
$UCSORGLEFT
 10
0.0
 20
0.0
 30
0.0
  9
$UCSORGRIGHT
 10
0.0
 20
0.0
 30
0.0
  9
$UCSORGFRONT
 10
0.0
 20
0.0
 30
0.0
  9
$UCSORGBACK
 10
0.0
 20
0.0
 30
0.0
  9
$PUCSBASE
  2

  9
$PUCSNAME
  2

  9
$PUCSORG
 10
0.0
 20
0.0
 30
0.0
  9
$PUCSXDIR
 10
1.0
 20
0.0
 30
0.0
  9
$PUCSYDIR
 10
0.0
 20
1.0
 30
0.0
  9
$PUCSORTHOREF
  2

  9
$PUCSORTHOVIEW
 70
     0
  9
$PUCSORGTOP
 10
0.0
 20
0.0
 30
0.0
  9
$PUCSORGBOTTOM
 10
0.0
 20
0.0
 30
0.0
  9
$PUCSORGLEFT
 10
0.0
 20
0.0
 30
0.0
  9
$PUCSORGRIGHT
 10
0.0
 20
0.0
 30
0.0
  9
$PUCSORGFRONT
 10
0.0
 20
0.0
 30
0.0
  9
$PUCSORGBACK
 10
0.0
 20
0.0
 30
0.0
  9
$USERI1
 70
     0
  9
$USERI2
 70
     0
  9
$USERI3
 70
     0
  9
$USERI4
 70
     0
  9
$USERI5
 70
     0
  9
$USERR1
 40
0.0
  9
$USERR2
 40
0.0
  9
$USERR3
 40
0.0
  9
$USERR4
 40
0.0
  9
$USERR5
 40
0.0
  9
$WORLDVIEW
 70
     1
  9
$SHADEDGE
 70
     3
  9
$SHADEDIF
 70
    70
  9
$TILEMODE
 70
     1
  9
$MAXACTVP
 70
    64
  9
$PINSBASE
 10
0.0
 20
0.0
 30
0.0
  9
$PLIMCHECK
 70
     0
  9
$PEXTMIN
 10
1.000000000000000E+20
 20
1.000000000000000E+20
 30
1.000000000000000E+20
  9
$PEXTMAX
 10
-1.000000000000000E+20
 20
-1.000000000000000E+20
 30
-1.000000000000000E+20
  9
$PLIMMIN
 10
0.0
 20
0.0
  9
$PLIMMAX
 10
420.0
 20
297.0
  9
$UNITMODE
 70
     0
  9
$VISRETAIN
 70
     1
  9
$PLINEGEN
 70
     0
  9
$PSLTSCALE
 70
     1
  9
$TREEDEPTH
 70
  3020
  9
$CMLSTYLE
  2
Standard
  9
$CMLJUST
 70
     0
  9
$CMLSCALE
 40
20.0
  9
$PROXYGRAPHICS
 70
     1
  9
$MEASUREMENT
 70
     1
  9
$CELWEIGHT
370
    -1
  9
$ENDCAPS
280
     0
  9
$JOINSTYLE
280
     0
  9
$LWDISPLAY
290
     0
  9
$INSUNITS
 70
     4
  9
$HYPERLINKBASE
  1

  9
$STYLESHEET
  1

  9
$XEDIT
290
     1
  9
$CEPSNTYPE
380
     0
  9
$PSTYLEMODE
290
     1
  9
$FINGERPRINTGUID
  2
{56671DBB-F2F6-40E4-A1C1-3DC1803233D3}
  9
$VERSIONGUID
  2
{FAEB1C32-E019-11D5-929B-00C0DF256EC4}
  9
$EXTNAMES
290
     1
  9
$PSVPSCALE
 40
0.0
  9
$OLESTARTUP
290
     0
  9
$SORTENTS
280
   127
  9
$INDEXCTL
280
     0
  9
$HIDETEXT
280
     1
  9
$XCLIPFRAME
290
     0
  9
$HALOGAP
280
     0
  9
$OBSCOLOR
 70
   257
  9
$OBSLTYPE
280
     0
  9
$INTERSECTIONDISPLAY
280
     0
  9
$INTERSECTIONCOLOR
 70
   257
  9
$DIMASSOC
280
     2
  9
$PROJECTNAME
  1

  9
$CAMERADISPLAY
290
     0
  9
$LENSLENGTH
 40
50.0
  9
$CAMERAHEIGHT
 40
0.0
  9
$STEPSPERSEC
 40
2.0
  9
$STEPSIZE
 40
6.0
  9
$3DDWFPREC
 40
2.0
  9
$PSOLWIDTH
 40
5.0
  9
$PSOLHEIGHT
 40
80.0
  9
$LOFTANG1
 40
1.570796326794897
  9
$LOFTANG2
 40
1.570796326794897
  9
$LOFTMAG1
 40
0.0
  9
$LOFTMAG2
 40
0.0
  9
$LOFTPARAM
 70
     7
  9
$LOFTNORMALS
280
     1
  9
$LATITUDE
 40
37.795
  9
$LONGITUDE
 40
-122.394
  9
$NORTHDIRECTION
 40
0.0
  9
$TIMEZONE
 70
 -8000
  9
$LIGHTGLYPHDISPLAY
280
     1
  9
$TILEMODELIGHTSYNCH
280
     1
  9
$SOLIDHIST
280
     1
  9
$SHOWHIST
280
     1
  9
$DWFFRAME
280
     2
  9
$DGNFRAME
280
     2
  9
$REALWORLDSCALE
290
     1
  9
$INTERFERECOLOR
 62
   256
  9
$CSHADOW
280
     0
  9
$SHADOWPLANELOCATION
 40
0.0
  0
ENDSEC
  0
SECTION
  2
CLASSES
  0
CLASS
  1
ACDBDICTIONARYWDFLT
  2
AcDbDictionaryWithDefault
  3
ObjectDBX Classes
 90
        0
 91
        4
280
     0
281
     0
  0
CLASS
  1
VISUALSTYLE
  2
AcDbVisualStyle
  3
ObjectDBX Classes
 90
     4095
 91
        4
280
     0
281
     0
  0
ENDSEC
  0
SECTION
  2
TABLES
  0
TABLE
  2
VPORT
  5
8
330
0
100
AcDbSymbolTable
 70
     1
  0
VPORT
  5
29
330
8
100
AcDbSymbolTableRecord
100
AcDbViewportTableRecord
  2
*Active
 70
     0
 10
0.0
 20
0.0
 11
1.0
 21
1.0
 12
0.0
 22
0.0
 13
0.0
 23
0.0
 14
10.0
 24
10.0
 15
10.0
 25
10.0
 16
0.0
 26
0.0
 36
1.0
 17
0.0
 27
0.0
 37
0.0
 40
4620.0
 41
1.414285714285715
 42
50.0
 43
0.0
 44
0.0
 50
0.0
 51
0.0
 71
     0
 72
 10000
 73
     1
 74
     3
 75
     0
 76
     0
 77
     0
 78
     0
281
     0
 65
     1
110
0.0
120
0.0
130
0.0
111
1.0
121
0.0
131
0.0
112
0.0
122
1.0
132
0.0
 79
     0
146
0.0
 60
     3
 61
     5
292
     1
282
     1
141
0.0
142
0.0
 63
   256
  0
ENDTAB
  0
TABLE
  2
LTYPE
  5
5
330
0
100
AcDbSymbolTable
 70
     5
  0
LTYPE
  5
14
330
5
100
AcDbSymbolTableRecord
100
AcDbLinetypeTableRecord
  2
ByBlock
 70
     0
  3

 72
    65
 73
     0
 40
0.0
  0
LTYPE
  5
15
330
5
100
AcDbSymbolTableRecord
100
AcDbLinetypeTableRecord
  2
ByLayer
 70
     0
  3

 72
    65
 73
     0
 40
0.0
  0
LTYPE
  5
16
330
5
100
AcDbSymbolTableRecord
100
AcDbLinetypeTableRecord
  2
Continuous
 70
     0
  3
Solid line
 72
    65
 73
     0
 40
0.0
  0
LTYPE
  5
3C
330
5
100
AcDbSymbolTableRecord
100
AcDbLinetypeTableRecord
  2
JWW_CENTER1
 70
     0
  3
-----  --  ----------  --  -----
 72
    65
 73
     4
 40
6.773333333333333
 49
4.233333333333333
 74
     0
 49
-0.8466666666666667
 74
     0
 49
0.8466666666666667
 74
     0
 49
-0.8466666666666667
 74
     0
  0
LTYPE
  5
3D
330
5
100
AcDbSymbolTableRecord
100
AcDbLinetypeTableRecord
  2
JWW_CENTER2
 70
     0
  3
-------------  --  -------------
 72
    65
 73
     4
 40
13.54666666666667
 49
11.00666666666667
 74
     0
 49
-0.8466666666666667
 74
     0
 49
0.8466666666666667
 74
     0
 49
-0.8466666666666667
 74
     0
  0
LTYPE
  5
3E
330
5
100
AcDbSymbolTableRecord
100
AcDbLinetypeTableRecord
  2
JWW_DASHED3
 70
     0
  3
---  ------  ------  ------  ---
 72
    65
 73
     2
 40
3.386666666666667
 49
2.54
 74
     0
 49
-0.8466666666666667
 74
     0
  0
LTYPE
  5
3F
330
5
100
AcDbSymbolTableRecord
100
AcDbLinetypeTableRecord
  2
JWW_DASHED1
 70
     0
  3
-  --  --  --  --  --  --  --  -
 72
    65
 73
     2
 40
1.693333333333333
 49
0.8466666666666667
 74
     0
 49
-0.8466666666666667
 74
     0
  0
ENDTAB
  0
TABLE
  2
LAYER
  5
2
330
0
100
AcDbSymbolTable
 70
    10
  0
LAYER
  5
10
330
2
100
AcDbSymbolTableRecord
100
AcDbLayerTableRecord
  2
0
 70
     0
 62
     7
  6
Continuous
370
    -3
390
F
347
0
  0
LAYER
  5
40
330
2
100
AcDbSymbolTableRecord
100
AcDbLayerTableRecord
  2
建具
 70
     0
 62
     7
  6
Continuous
370
    -3
390
F
347
0
  0
LAYER
  5
41
330
2
100
AcDbSymbolTableRecord
100
AcDbLayerTableRecord
  2
通り芯
 70
     0
 62
     7
  6
Continuous
370
    -3
390
F
347
0
  0
LAYER
  5
42
330
2
100
AcDbSymbolTableRecord
100
AcDbLayerTableRecord
  2
躯体
 70
     0
 62
     7
  6
Continuous
370
    -3
390
F
347
0
  0
LAYER
  5
43
330
2
100
AcDbSymbolTableRecord
100
AcDbLayerTableRecord
  2
仕上
 70
     0
 62
     7
  6
Continuous
370
    -3
390
F
347
0
  0
LAYER
  5
44
330
2
100
AcDbSymbolTableRecord
100
AcDbLayerTableRecord
  2
その他
 70
     0
 62
     7
  6
Continuous
370
    -3
390
F
347
0
  0
LAYER
  5
45
330
2
100
AcDbSymbolTableRecord
100
AcDbLayerTableRecord
  2
寸法
 70
     0
 62
     7
  6
Continuous
370
    -3
390
F
347
0
  0
LAYER
  5
46
330
2
100
AcDbSymbolTableRecord
100
AcDbLayerTableRecord
  2
F-Fﾚｲﾔ
 70
     0
 62
     7
  6
Continuous
370
    -3
390
F
347
0
  0
LAYER
  5
47
330
2
100
AcDbSymbolTableRecord
100
AcDbLayerTableRecord
  2
F-5ﾚｲﾔ
 70
     0
 62
     7
  6
Continuous
370
    -3
390
F
347
0
  0
LAYER
  5
48
330
2
100
AcDbSymbolTableRecord
100
AcDbLayerTableRecord
  2
F-4ﾚｲﾔ
 70
     0
 62
     7
  6
Continuous
370
    -3
390
F
347
0
  0
ENDTAB
  0
TABLE
  2
STYLE
  5
3
330
0
100
AcDbSymbolTable
 70
     2
  0
STYLE
  5
11
330
3
100
AcDbSymbolTableRecord
100
AcDbTextStyleTableRecord
  2
Standard
 70
     0
 40
0.0
 41
1.0
 50
0.0
 71
     0
 42
2.5
  3
txt
  4

1001
ACAD
1000

1071
        0
  0
STYLE
  5
3B
330
3
100
AcDbSymbolTableRecord
100
AcDbTextStyleTableRecord
  2
ＭＳ ゴシック
 70
     0
 40
1.0
 41
1.0
 50
0.0
 71
     0
 42
10.0
  3

  4

1001
ACAD
1000
MS Gothic
1071
    32817
  0
ENDTAB
  0
TABLE
  2
VIEW
  5
6
330
0
100
AcDbSymbolTable
 70
     0
  0
ENDTAB
  0
TABLE
  2
UCS
  5
7
330
0
100
AcDbSymbolTable
 70
     0
  0
ENDTAB
  0
TABLE
  2
APPID
  5
9
330
0
100
AcDbSymbolTable
 70
     1
  0
APPID
  5
12
330
9
100
AcDbSymbolTableRecord
100
AcDbRegAppTableRecord
  2
ACAD
 70
     0
  0
ENDTAB
  0
TABLE
  2
DIMSTYLE
  5
A
330
0
100
AcDbSymbolTable
 70
     1
100
AcDbDimStyleTable
  0
DIMSTYLE
105
27
330
A
100
AcDbSymbolTableRecord
100
AcDbDimStyleTableRecord
  2
ISO-25
 70
     0
 41
2.5
 42
0.625
 43
3.75
 44
1.25
 73
     0
 74
     0
 77
     1
 78
     8
140
2.5
141
2.5
143
0.03937007874016
147
0.625
171
     3
172
     1
271
     2
272
     2
274
     3
278
    44
283
     0
284
     8
340
11
  0
ENDTAB
  0
TABLE
  2
BLOCK_RECORD
  5
1
330
0
100
AcDbSymbolTable
 70
     1
  0
BLOCK_RECORD
  5
1F
330
1
100
AcDbSymbolTableRecord
100
AcDbBlockTableRecord
  2
*Model_Space
340
22
 70
     0
280
     1
281
     0
  0
BLOCK_RECORD
  5
1B
330
1
100
AcDbSymbolTableRecord
100
AcDbBlockTableRecord
  2
*Paper_Space
340
1E
 70
     0
280
     1
281
     0
  0
BLOCK_RECORD
  5
23
330
1
100
AcDbSymbolTableRecord
100
AcDbBlockTableRecord
  2
*Paper_Space0
340
26
 70
     0
280
     1
281
     0
  0
ENDTAB
  0
ENDSEC
  0
SECTION
  2
BLOCKS
  0
BLOCK
  5
20
330
1F
100
AcDbEntity
  8
0
100
AcDbBlockBegin
  2
*Model_Space
 70
     0
 10
0.0
 20
0.0
 30
0.0
  3
*Model_Space
  1

  0
ENDBLK
  5
21
330
1F
100
AcDbEntity
  8
0
100
AcDbBlockEnd
  0
BLOCK
  5
1C
330
1B
100
AcDbEntity
 67
     1
  8
0
100
AcDbBlockBegin
  2
*Paper_Space
 70
     0
 10
0.0
 20
0.0
 30
0.0
  3
*Paper_Space
  1

  0
ENDBLK
  5
1D
330
1B
100
AcDbEntity
 67
     1
  8
0
100
AcDbBlockEnd
  0
BLOCK
  5
24
330
23
100
AcDbEntity
  8
0
100
AcDbBlockBegin
  2
*Paper_Space0
 70
     0
 10
0.0
 20
0.0
 30
0.0
  3
*Paper_Space0
  1

  0
ENDBLK
  5
25
330
23
100
AcDbEntity
  8
0
100
AcDbBlockEnd
  0
ENDSEC
  0
SECTION
  2
ENTITIES
  0
LINE
  5
49
330
1F
100
AcDbEntity
  8
建具
  6
Continuous
 62
     4
370
     9
100
AcDbLine
 10
-2003.351680371745
 20
-1009.910751611756
 30
0.0
 11
-2003.351680371745
 21
40.0892483882437
 31
0.0
  0
LINE
  5
4A
330
1F
100
AcDbEntity
  8
建具
  6
Continuous
 62
     4
370
     9
100
AcDbLine
 10
-2003.351680371745
 20
40.0892483882437
 30
0.0
 11
-953.35161851179
 21
40.0892483882437
 31
0.0
  0
LINE
  5
4B
330
1F
100
AcDbEntity
  8
建具
  6
Continuous
 62
     4
370
     9
100
AcDbLine
 10
-953.35161851179
 20
40.0892483882437
 30
0.0
 11
-953.35161851179
 21
-1009.910751611756
 31
0.0
  0
LINE
  5
4C
330
1F
100
AcDbEntity
  8
建具
  6
Continuous
 62
     4
370
     9
100
AcDbLine
 10
-953.35161851179
 20
-1009.910751611756
 30
0.0
 11
-2003.351680371745
 21
-1009.910751611756
 31
0.0
  0
LINE
  5
4D
330
1F
100
AcDbEntity
  8
建具
  6
Continuous
 62
     4
370
     9
100
AcDbLine
 10
-1988.351754603691
 20
-994.9107021237919
 30
0.0
 11
-1988.351754603691
 21
25.08944634010177
 31
0.0
  0
LINE
  5
4E
330
1F
100
AcDbEntity
  8
建具
  6
Continuous
 62
     4
370
     9
100
AcDbLine
 10
-1988.351754603691
 20
25.08944634010177
 30
0.0
 11
-968.3516679997534
 21
25.08944634010177
 31
0.0
  0
LINE
  5
4F
330
1F
100
AcDbEntity
  8
建具
  6
Continuous
 62
     4
370
     9
100
AcDbLine
 10
-968.3516679997534
 20
25.08944634010177
 30
0.0
 11
-968.3516679997534
 21
-994.9107021237919
 31
0.0
  0
LINE
  5
50
330
1F
100
AcDbEntity
  8
建具
  6
Continuous
 62
     4
370
     9
100
AcDbLine
 10
-968.3516679997534
 20
-994.9107021237919
 30
0.0
 11
-1988.351754603691
 21
-994.9107021237919
 31
0.0
  0
LINE
  5
51
330
1F
100
AcDbEntity
  8
建具
  6
Continuous
 62
     4
370
     9
100
AcDbLine
 10
-1815.851680371745
 20
140.0893308681846
 30
0.0
 11
-1690.851762851686
 21
140.0893308681846
 31
0.0
  0
LINE
  5
52
330
1F
100
AcDbEntity
  8
建具
  6
Continuous
 62
     4
370
     9
100
AcDbLine
 10
-1815.851680371745
 20
40.0892483882437
 30
0.0
 11
-1815.851680371745
 21
140.0893308681846
 31
0.0
  0
LINE
  5
53
330
1F
100
AcDbEntity
  8
建具
  6
Continuous
 62
     4
370
     9
100
AcDbLine
 10
-1690.851762851686
 20
140.0893308681846
 30
0.0
 11
-1690.851762851686
 21
40.0892483882437
 31
0.0
  0
LINE
  5
54
330
1F
100
AcDbEntity
  8
建具
  6
JWW_CENTER1
 62
     4
370
     9
100
AcDbLine
 10
-1753.351721611716
 20
95.08918240429111
 30
0.0
 11
-1753.351721611716
 21
129.6389573990122
 31
0.0
  0
LINE
  5
55
330
1F
100
AcDbEntity
  8
建具
  6
JWW_CENTER1
 62
     4
370
     9
100
AcDbLine
 10
-1753.351721611716
 20
95.08918240429111
 30
0.0
 11
-1714.671928537391
 21
95.08918240429111
 31
0.0
  0
LINE
  5
56
330
1F
100
AcDbEntity
  8
建具
  6
JWW_CENTER1
 62
     4
370
     9
100
AcDbLine
 10
-1753.351721611716
 20
95.08918240429111
 30
0.0
 11
-1753.351721611716
 21
60.53965484939241
 31
0.0
  0
LINE
  5
57
330
1F
100
AcDbEntity
  8
建具
  6
JWW_CENTER1
 62
     4
370
     9
100
AcDbLine
 10
-1753.351721611716
 20
95.08918240429111
 30
0.0
 11
-1792.03151468604
 21
95.08918240429111
 31
0.0
  0
LINE
  5
58
330
1F
100
AcDbEntity
  8
建具
  6
Continuous
 62
     4
370
     9
100
AcDbLine
 10
-1140.85161851179
 20
140.0893308681846
 30
0.0
 11
-1265.851536031848
 21
140.0893308681846
 31
0.0
  0
LINE
  5
59
330
1F
100
AcDbEntity
  8
建具
  6
Continuous
 62
     4
370
     9
100
AcDbLine
 10
-1140.85161851179
 20
40.0892483882437
 30
0.0
 11
-1140.85161851179
 21
140.0893308681846
 31
0.0
  0
LINE
  5
5A
330
1F
100
AcDbEntity
  8
建具
  6
Continuous
 62
     4
370
     9
100
AcDbLine
 10
-1265.851536031848
 20
140.0893308681846
 30
0.0
 11
-1265.851536031848
 21
40.0892483882437
 31
0.0
  0
LINE
  5
5B
330
1F
100
AcDbEntity
  8
建具
  6
JWW_CENTER1
 62
     4
370
     9
100
AcDbLine
 10
-1203.351577271819
 20
95.08918240429111
 30
0.0
 11
-1203.351577271819
 21
129.6389573990122
 31
0.0
  0
LINE
  5
5C
330
1F
100
AcDbEntity
  8
建具
  6
JWW_CENTER1
 62
     4
370
     9
100
AcDbLine
 10
-1203.351577271819
 20
95.08918240429111
 30
0.0
 11
-1242.031370346143
 21
95.08918240429111
 31
0.0
  0
LINE
  5
5D
330
1F
100
AcDbEntity
  8
建具
  6
JWW_CENTER1
 62
     4
370
     9
100
AcDbLine
 10
-1203.351577271819
 20
95.08918240429111
 30
0.0
 11
-1203.351577271819
 21
60.53965484939241
 31
0.0
  0
LINE
  5
5E
330
1F
100
AcDbEntity
  8
建具
  6
JWW_CENTER1
 62
     4
370
     9
100
AcDbLine
 10
-1203.351577271819
 20
95.08918240429111
 30
0.0
 11
-1164.671784197495
 21
95.08918240429111
 31
0.0
  0
LINE
  5
5F
330
1F
100
AcDbEntity
  8
建具
  6
Continuous
 62
     4
370
     9
100
AcDbLine
 10
-1140.85161851179
 20
-1109.910772231742
 30
0.0
 11
-1265.851536031848
 21
-1109.910772231742
 31
0.0
  0
LINE
  5
60
330
1F
100
AcDbEntity
  8
建具
  6
Continuous
 62
     4
370
     9
100
AcDbLine
 10
-1140.85161851179
 20
-1009.910751611756
 30
0.0
 11
-1140.85161851179
 21
-1109.910772231742
 31
0.0
  0
LINE
  5
61
330
1F
100
AcDbEntity
  8
建具
  6
Continuous
 62
     4
370
     9
100
AcDbLine
 10
-1265.851536031848
 20
-1109.910772231742
 30
0.0
 11
-1265.851536031848
 21
-1009.910751611756
 31
0.0
  0
LINE
  5
62
330
1F
100
AcDbEntity
  8
建具
  6
JWW_CENTER1
 62
     4
370
     9
100
AcDbLine
 10
-1203.351577271819
 20
-1064.910685627804
 30
0.0
 11
-1203.351577271819
 21
-1099.460398762569
 31
0.0
  0
LINE
  5
63
330
1F
100
AcDbEntity
  8
建具
  6
JWW_CENTER1
 62
     4
370
     9
100
AcDbLine
 10
-1203.351577271819
 20
-1064.910685627804
 30
0.0
 11
-1242.031370346143
 21
-1064.910685627804
 31
0.0
  0
LINE
  5
64
330
1F
100
AcDbEntity
  8
建具
  6
JWW_CENTER1
 62
     4
370
     9
100
AcDbLine
 10
-1203.351577271819
 20
-1064.910685627804
 30
0.0
 11
-1203.351577271819
 21
-1030.361158072905
 31
0.0
  0
LINE
  5
65
330
1F
100
AcDbEntity
  8
建具
  6
JWW_CENTER1
 62
     4
370
     9
100
AcDbLine
 10
-1203.351577271819
 20
-1064.910685627804
 30
0.0
 11
-1164.671784197495
 21
-1064.910685627804
 31
0.0
  0
LINE
  5
66
330
1F
100
AcDbEntity
  8
建具
  6
Continuous
 62
     4
370
     9
100
AcDbLine
 10
-1815.851680371745
 20
-1109.910772231742
 30
0.0
 11
-1690.851762851686
 21
-1109.910772231742
 31
0.0
  0
LINE
  5
67
330
1F
100
AcDbEntity
  8
建具
  6
Continuous
 62
     4
370
     9
100
AcDbLine
 10
-1815.851680371745
 20
-1009.910751611756
 30
0.0
 11
-1815.851680371745
 21
-1109.910772231742
 31
0.0
  0
LINE
  5
68
330
1F
100
AcDbEntity
  8
建具
  6
Continuous
 62
     4
370
     9
100
AcDbLine
 10
-1690.851762851686
 20
-1109.910772231742
 30
0.0
 11
-1690.851762851686
 21
-1009.910751611756
 31
0.0
  0
LINE
  5
69
330
1F
100
AcDbEntity
  8
建具
  6
JWW_CENTER1
 62
     4
370
     9
100
AcDbLine
 10
-1753.351721611716
 20
-1064.910685627804
 30
0.0
 11
-1753.351721611716
 21
-1099.460398762569
 31
0.0
  0
LINE
  5
6A
330
1F
100
AcDbEntity
  8
建具
  6
JWW_CENTER1
 62
     4
370
     9
100
AcDbLine
 10
-1753.351721611716
 20
-1064.910685627804
 30
0.0
 11
-1714.671928537391
 21
-1064.910685627804
 31
0.0
  0
LINE
  5
6B
330
1F
100
AcDbEntity
  8
建具
  6
JWW_CENTER1
 62
     4
370
     9
100
AcDbLine
 10
-1753.351721611716
 20
-1064.910685627804
 30
0.0
 11
-1753.351721611716
 21
-1030.361158072905
 31
0.0
  0
LINE
  5
6C
330
1F
100
AcDbEntity
  8
建具
  6
JWW_CENTER1
 62
     4
370
     9
100
AcDbLine
 10
-1753.351721611716
 20
-1064.910685627804
 30
0.0
 11
-1792.03151468604
 21
-1064.910685627804
 31
0.0
  0
LINE
  5
6D
330
1F
100
AcDbEntity
  8
建具
  6
Continuous
 62
     4
370
     9
100
AcDbLine
 10
174.5471390103809
 20
25.08919890027911
 30
0.0
 11
-22.20265643936486
 21
25.08919890027911
 31
0.0
  0
LINE
  5
6E
330
1F
100
AcDbEntity
  8
建具
  6
Continuous
 62
     4
370
     9
100
AcDbLine
 10
184.5471720023581
 20
-109.910999051579
 30
0.0
 11
199.5469740504997
 21
-109.910999051579
 31
0.0
  0
LINE
  5
6F
330
1F
100
AcDbEntity
  8
建具
  6
Continuous
 62
     4
370
     9
100
AcDbLine
 10
-22.20265643936486
 20
25.08919890027911
 30
0.0
 11
-22.20265643936486
 21
40.08900094842105
 31
0.0
  0
LINE
  5
70
330
1F
100
AcDbEntity
  8
建具
  6
Continuous
 62
     4
370
     9
100
AcDbLine
 10
-22.20265643936486
 20
40.08900094842105
 30
0.0
 11
174.5471390103809
 21
40.08900094842105
 31
0.0
  0
LINE
  5
71
330
1F
100
AcDbEntity
  8
建具
  6
Continuous
 62
     4
370
     9
100
AcDbLine
 10
199.5469740504997
 20
-109.910999051579
 30
0.0
 11
214.5472709782872
 21
-109.910999051579
 31
0.0
  0
LINE
  5
72
330
1F
100
AcDbEntity
  8
建具
  6
Continuous
 62
     4
370
     9
100
AcDbLine
 10
199.5469740504997
 20
140.0888359885393
 30
0.0
 11
214.5472709782872
 21
140.0888359885393
 31
0.0
  0
LINE
  5
73
330
1F
100
AcDbEntity
  8
建具
  6
JWW_CENTER1
 62
     4
370
     9
100
AcDbLine
 10
177.2293866877466
 20
95.08893496446845
 30
0.0
 11
242.0749512464455
 21
95.08893496446845
 31
0.0
  0
LINE
  5
74
330
1F
100
AcDbEntity
  8
建具
  6
Continuous
 62
     4
370
     9
100
AcDbLine
 10
199.5469740504997
 20
115.089000948421
 30
0.0
 11
214.5472709782872
 21
115.089000948421
 31
0.0
  0
LINE
  5
75
330
1F
100
AcDbEntity
  8
建具
  6
Continuous
 62
     4
370
     9
100
AcDbLine
 10
199.5469740504997
 20
-109.910999051579
 30
0.0
 11
199.5469740504997
 21
140.0888359885393
 31
0.0
  0
LINE
  5
76
330
1F
100
AcDbEntity
  8
建具
  6
Continuous
 62
     4
370
     9
100
AcDbLine
 10
214.5472709782872
 20
-109.910999051579
 30
0.0
 11
214.5472709782872
 21
140.0888359885393
 31
0.0
  0
LINE
  5
77
330
1F
100
AcDbEntity
  8
建具
  6
Continuous
 62
     4
370
     9
100
AcDbLine
 10
199.5469740504997
 20
75.08886898051557
 30
0.0
 11
214.5472709782872
 21
75.08886898051557
 31
0.0
  0
LINE
  5
78
330
1F
100
AcDbEntity
  8
建具
  6
Continuous
 62
     4
370
     9
100
AcDbLine
 10
174.5471390103809
 20
-994.9102072441465
 30
0.0
 11
-22.20265643936486
 21
-994.9102072441465
 31
0.0
  0
LINE
  5
79
330
1F
100
AcDbEntity
  8
建具
  6
Continuous
 62
     4
370
     9
100
AcDbLine
 10
184.5471720023581
 20
-859.9100092922885
 30
0.0
 11
199.5469740504997
 21
-859.9100092922885
 31
0.0
  0
LINE
  5
7A
330
1F
100
AcDbEntity
  8
建具
  6
Continuous
 62
     4
370
     9
100
AcDbLine
 10
-22.20265643936486
 20
-994.9102072441465
 30
0.0
 11
-22.20265643936486
 21
-1009.910009292288
 31
0.0
  0
LINE
  5
7B
330
1F
100
AcDbEntity
  8
建具
  6
Continuous
 62
     4
370
     9
100
AcDbLine
 10
-22.20265643936486
 20
-1009.910009292288
 30
0.0
 11
174.5471390103809
 21
-1009.910009292288
 31
0.0
  0
LINE
  5
7C
330
1F
100
AcDbEntity
  8
建具
  6
Continuous
 62
     4
370
     9
100
AcDbLine
 10
199.5469740504997
 20
-859.9100092922885
 30
0.0
 11
214.5472709782872
 21
-859.9100092922885
 31
0.0
  0
LINE
  5
7D
330
1F
100
AcDbEntity
  8
建具
  6
Continuous
 62
     4
370
     9
100
AcDbLine
 10
199.5469740504997
 20
-1109.909782472451
 30
0.0
 11
214.5472709782872
 21
-1109.909782472451
 31
0.0
  0
LINE
  5
7E
330
1F
100
AcDbEntity
  8
建具
  6
JWW_CENTER1
 62
     4
370
     9
100
AcDbLine
 10
177.2293866877466
 20
-1064.909943308336
 30
0.0
 11
242.0749512464455
 21
-1064.909943308336
 31
0.0
  0
LINE
  5
7F
330
1F
100
AcDbEntity
  8
建具
  6
Continuous
 62
     4
370
     9
100
AcDbLine
 10
199.5469740504997
 20
-1084.910009292289
 30
0.0
 11
214.5472709782872
 21
-1084.910009292289
 31
0.0
  0
LINE
  5
80
330
1F
100
AcDbEntity
  8
建具
  6
Continuous
 62
     4
370
     9
100
AcDbLine
 10
199.5469740504997
 20
-859.9100092922885
 30
0.0
 11
199.5469740504997
 21
-1109.909782472451
 31
0.0
  0
LINE
  5
81
330
1F
100
AcDbEntity
  8
建具
  6
Continuous
 62
     4
370
     9
100
AcDbLine
 10
214.5472709782872
 20
-859.9100092922885
 30
0.0
 11
214.5472709782872
 21
-1109.909782472451
 31
0.0
  0
LINE
  5
82
330
1F
100
AcDbEntity
  8
建具
  6
Continuous
 62
     4
370
     9
100
AcDbLine
 10
199.5469740504997
 20
-1044.909877324383
 30
0.0
 11
214.5472709782872
 21
-1044.909877324383
 31
0.0
  0
CIRCLE
  5
83
330
1F
100
AcDbEntity
  8
建具
  6
Continuous
 62
     4
370
     9
100
AcDbCircle
 10
-1753.351721611716
 20
95.08918240429111
 30
0.0
 40
20.00000025774982
  0
CIRCLE
  5
84
330
1F
100
AcDbEntity
  8
建具
  6
Continuous
 62
     4
370
     9
100
AcDbCircle
 10
-1203.351577271819
 20
95.08918240429111
 30
0.0
 40
20.00000025774982
  0
CIRCLE
  5
85
330
1F
100
AcDbEntity
  8
建具
  6
Continuous
 62
     4
370
     9
100
AcDbCircle
 10
-1203.351577271819
 20
-1064.910685627804
 30
0.0
 40
20.00000025774982
  0
CIRCLE
  5
86
330
1F
100
AcDbEntity
  8
建具
  6
Continuous
 62
     4
370
     9
100
AcDbCircle
 10
-1753.351721611716
 20
-1064.910685627804
 30
0.0
 40
20.00000025774982
  0
ARC
  5
87
330
1F
100
AcDbEntity
  8
建具
  6
Continuous
 62
     4
370
     9
100
AcDbCircle
 10
174.5471390103809
 20
15.0886710286575
 30
0.0
 40
10.00000012887491
100
AcDbArc
 50
0.0
 51
90.0
  0
ARC
  5
88
330
1F
100
AcDbEntity
  8
建具
  6
Continuous
 62
     4
370
     9
100
AcDbCircle
 10
174.5471390103809
 20
15.0886710286575
 30
0.0
 40
25.00000128874908
100
AcDbArc
 50
0.0
 51
90.0
  0
ARC
  5
89
330
1F
100
AcDbEntity
  8
建具
  6
Continuous
 62
     4
370
     9
100
AcDbCircle
 10
174.5471390103809
 20
-984.9096793725249
 30
0.0
 40
10.00000012887491
100
AcDbArc
 50
270.0
 51
0.0
  0
ARC
  5
8A
330
1F
100
AcDbEntity
  8
建具
  6
Continuous
 62
     4
370
     9
100
AcDbCircle
 10
174.5471390103809
 20
-984.9096793725249
 30
0.0
 40
25.00000128874908
100
AcDbArc
 50
270.0
 51
0.0
  0
LINE
  5
8B
330
1F
100
AcDbEntity
  8
建具
  6
Continuous
 62
     4
370
     9
100
AcDbLine
 10
184.5471720023581
 20
-109.910999051579
 30
0.0
 11
184.5471720023581
 21
15.0886710286575
 31
0.0
  0
LINE
  5
8C
330
1F
100
AcDbEntity
  8
建具
  6
Continuous
 62
     4
370
     9
100
AcDbLine
 10
184.5471720023581
 20
-859.9100092922885
 30
0.0
 11
184.5471720023581
 21
-984.9096793725249
 31
0.0
  0
LINE
  5
8D
330
1F
100
AcDbEntity
  8
通り芯
  6
JWW_CENTER2
 62
     7
370
     9
100
AcDbLine
 10
-935.4635383125366
 20
-484.910627891845
 30
0.0
 11
-2034.71525731233
 21
-484.910627891845
 31
0.0
  0
LINE
  5
8E
330
1F
100
AcDbEntity
  8
通り芯
  6
JWW_CENTER2
 62
     7
370
     9
100
AcDbLine
 10
-1478.351711301723
 20
32.08924946123986
 30
0.0
 11
-1478.351711301723
 21
-1009.468722252718
 31
0.0
  0
LINE
  5
8F
330
1F
100
AcDbEntity
  8
通り芯
  6
JWW_CENTER2
 62
     7
370
     9
100
AcDbLine
 10
-1728.351711301722
 20
-406.1061703755202
 30
0.0
 11
-1728.351711301722
 21
-558.6781895639328
 31
0.0
  0
LINE
  5
90
330
1F
100
AcDbEntity
  8
通り芯
  6
JWW_CENTER2
 62
     7
370
     9
100
AcDbLine
 10
-1228.351711301723
 20
-406.1061703755202
 30
0.0
 11
-1228.351711301723
 21
-558.6781895639328
 31
0.0
  0
LINE
  5
91
330
1F
100
AcDbEntity
  8
躯体
  6
JWW_DASHED3
 62
     2
370
     9
100
AcDbLine
 10
-1103.351680371745
 20
-109.9106897518007
 30
0.0
 11
-1103.351680371745
 21
-859.9105660318892
 31
0.0
  0
LINE
  5
92
330
1F
100
AcDbEntity
  8
躯体
  6
JWW_DASHED3
 62
     2
370
     9
100
AcDbLine
 10
-1103.351680371745
 20
-859.9105660318892
 30
0.0
 11
-1853.3517422317
 21
-859.9105660318892
 31
0.0
  0
LINE
  5
93
330
1F
100
AcDbEntity
  8
躯体
  6
JWW_DASHED3
 62
     2
370
     9
100
AcDbLine
 10
-1853.3517422317
 20
-859.9105660318892
 30
0.0
 11
-1853.3517422317
 21
-109.9106897518007
 31
0.0
  0
LINE
  5
94
330
1F
100
AcDbEntity
  8
躯体
  6
JWW_DASHED3
 62
     2
370
     9
100
AcDbLine
 10
-1853.3517422317
 20
-109.9106897518007
 30
0.0
 11
-1103.351680371745
 21
-109.9106897518007
 31
0.0
  0
LINE
  5
95
330
1F
100
AcDbEntity
  8
仕上
  6
Continuous
 62
     7
370
     9
100
AcDbLine
 10
-1979.601711301722
 20
16.34011678419299
 30
0.0
 11
-1979.601711301722
 21
-986.161372567881
 31
0.0
  0
LINE
  5
96
330
1F
100
AcDbEntity
  8
仕上
  6
Continuous
 62
     7
370
     9
100
AcDbLine
 10
-1968.351499210444
 20
-27.41039341315471
 30
0.0
 11
-1968.351499210444
 21
-942.4108623705317
 31
0.0
  0
LINE
  5
97
330
1F
100
AcDbEntity
  8
仕上
  6
Continuous
 62
     7
370
     9
100
AcDbLine
 10
-1943.351377847102
 20
-27.41039341315471
 30
0.0
 11
-1968.351499210444
 21
-52.41051477649719
 31
0.0
  0
LINE
  5
98
330
1F
100
AcDbEntity
  8
仕上
  6
JWW_DASHED1
 62
     7
370
     9
100
AcDbLine
 10
-1943.351377847102
 20
-27.41039341315471
 30
0.0
 11
-1932.101165755827
 21
-16.16018132188131
 31
0.0
  0
LINE
  5
99
330
1F
100
AcDbEntity
  8
仕上
  6
JWW_DASHED1
 62
     7
370
     9
100
AcDbLine
 10
-1968.351499210444
 20
-52.41051477649719
 30
0.0
 11
-1979.601711301722
 21
-63.6596770159538
 31
0.0
  0
LINE
  5
9A
330
1F
100
AcDbEntity
  8
仕上
  6
Continuous
 62
     7
370
     9
100
AcDbLine
 10
-1979.601711301722
 20
-986.161372567881
 30
0.0
 11
-1968.351499210444
 21
-986.161372567881
 31
0.0
  0
LINE
  5
9B
330
1F
100
AcDbEntity
  8
仕上
  6
Continuous
 62
     7
370
     9
100
AcDbLine
 10
-1968.351499210444
 20
-986.161372567881
 30
0.0
 11
-1968.351499210444
 21
-979.9113725678817
 31
0.0
  0
LINE
  5
9C
330
1F
100
AcDbEntity
  8
仕上
  6
Continuous
 62
     7
370
     9
100
AcDbLine
 10
-1968.351499210444
 20
-968.6611604766031
 30
0.0
 11
-1968.351499210444
 21
-953.6610744618101
 31
0.0
  0
LINE
  5
9D
330
1F
100
AcDbEntity
  8
仕上
  6
Continuous
 62
     7
370
     9
100
AcDbLine
 10
-1013.352044756341
 20
-942.4108623705317
 30
0.0
 11
-988.3519233929984
 21
-917.4107410071892
 31
0.0
  0
LINE
  5
9E
330
1F
100
AcDbEntity
  8
仕上
  6
JWW_DASHED1
 62
     7
370
     9
100
AcDbLine
 10
-1013.352044756341
 20
-942.4108623705317
 30
0.0
 11
-1024.602256847616
 21
-953.6610744618101
 31
0.0
  0
LINE
  5
9F
330
1F
100
AcDbEntity
  8
仕上
  6
JWW_DASHED1
 62
     7
370
     9
100
AcDbLine
 10
-988.3519233929984
 20
-917.4107410071892
 30
0.0
 11
-977.1017113017239
 21
-906.1615787677342
 31
0.0
  0
LINE
  5
A0
330
1F
100
AcDbEntity
  8
仕上
  6
Continuous
 62
     7
370
     9
100
AcDbLine
 10
-988.3519233929984
 20
-968.6611604766031
 30
0.0
 11
-988.3519233929984
 21
-953.6610744618101
 31
0.0
  0
LINE
  5
A1
330
1F
100
AcDbEntity
  8
仕上
  6
Continuous
 62
     7
370
     9
100
AcDbLine
 10
-988.3519233929984
 20
-986.161372567881
 30
0.0
 11
-988.3519233929984
 21
-979.9113725678817
 31
0.0
  0
LINE
  5
A2
330
1F
100
AcDbEntity
  8
仕上
  6
Continuous
 62
     7
370
     9
100
AcDbLine
 10
-977.1017113017239
 20
-986.161372567881
 30
0.0
 11
-988.3519233929984
 21
-986.161372567881
 31
0.0
  0
LINE
  5
A3
330
1F
100
AcDbEntity
  8
仕上
  6
Continuous
 62
     7
370
     9
100
AcDbLine
 10
-988.3519233929984
 20
-27.41039341315471
 30
0.0
 11
-988.3519233929984
 21
-942.4108623705317
 31
0.0
  0
LINE
  5
A4
330
1F
100
AcDbEntity
  8
仕上
  6
Continuous
 62
     7
370
     9
100
AcDbLine
 10
-977.1017113017239
 20
16.34011678419299
 30
0.0
 11
-977.1017113017239
 21
-986.161372567881
 31
0.0
  0
LINE
  5
A5
330
1F
100
AcDbEntity
  8
仕上
  6
Continuous
 62
     7
370
     9
100
AcDbLine
 10
-977.1017113017239
 20
-27.41039341315471
 30
0.0
 11
-1979.601711301722
 21
-27.41039341315471
 31
0.0
  0
LINE
  5
A6
330
1F
100
AcDbEntity
  8
仕上
  6
Continuous
 62
     7
370
     9
100
AcDbLine
 10
-977.1017113017239
 20
10.09011678419185
 30
0.0
 11
-1979.601711301722
 21
10.09011678419185
 31
0.0
  0
LINE
  5
A7
330
1F
100
AcDbEntity
  8
仕上
  6
Continuous
 62
     7
370
     9
100
AcDbLine
 10
-977.1017113017239
 20
-1.160095307084958
 30
0.0
 11
-1979.601711301722
 21
-1.160095307084958
 31
0.0
  0
LINE
  5
A8
330
1F
100
AcDbEntity
  8
仕上
  6
Continuous
 62
     7
370
     9
100
AcDbLine
 10
-977.1017113017239
 20
-16.16018132188131
 30
0.0
 11
-1979.601711301722
 21
-16.16018132188131
 31
0.0
  0
LINE
  5
A9
330
1F
100
AcDbEntity
  8
仕上
  6
Continuous
 62
     7
370
     9
100
AcDbLine
 10
-977.1017113017239
 20
-942.4108623705317
 30
0.0
 11
-1979.601711301722
 21
-942.4108623705317
 31
0.0
  0
LINE
  5
AA
330
1F
100
AcDbEntity
  8
仕上
  6
Continuous
 62
     7
370
     9
100
AcDbLine
 10
-977.1017113017239
 20
-968.6611604766031
 30
0.0
 11
-1979.601711301722
 21
-968.6611604766031
 31
0.0
  0
LINE
  5
AB
330
1F
100
AcDbEntity
  8
仕上
  6
Continuous
 62
     7
370
     9
100
AcDbLine
 10
-977.1017113017239
 20
-979.9113725678817
 30
0.0
 11
-1979.601711301722
 21
-979.9113725678817
 31
0.0
  0
LINE
  5
AC
330
1F
100
AcDbEntity
  8
仕上
  6
Continuous
 62
     3
370
     9
100
AcDbLine
 10
-1690.851660488188
 20
-546.0470447790785
 30
0.0
 11
-1690.851660488188
 21
-423.7742110046095
 31
0.0
  0
LINE
  5
AD
330
1F
100
AcDbEntity
  8
仕上
  6
Continuous
 62
     3
370
     9
100
AcDbLine
 10
-1765.851762115257
 20
-423.7742110046095
 30
0.0
 11
-1765.851762115257
 21
-546.0470447790785
 31
0.0
  0
LINE
  5
AE
330
1F
100
AcDbEntity
  8
仕上
  6
Continuous
 62
     3
370
     9
100
AcDbLine
 10
-1765.851762115257
 20
-425.0242110046083
 30
0.0
 11
-1690.851660488188
 21
-425.0242110046083
 31
0.0
  0
LINE
  5
AF
330
1F
100
AcDbEntity
  8
仕上
  6
Continuous
 62
     3
370
     9
100
AcDbLine
 10
-1765.851762115257
 20
-423.7742110046095
 30
0.0
 11
-1690.851660488188
 21
-423.7742110046095
 31
0.0
  0
LINE
  5
B0
330
1F
100
AcDbEntity
  8
仕上
  6
Continuous
 62
     3
370
     9
100
AcDbLine
 10
-1765.851762115257
 20
-463.9955643823842
 30
0.0
 11
-1690.851660488188
 21
-463.9955643823842
 31
0.0
  0
LINE
  5
B1
330
1F
100
AcDbEntity
  8
仕上
  6
Continuous
 62
     3
370
     9
100
AcDbLine
 10
-1765.851762115257
 20
-546.0470447790785
 30
0.0
 11
-1690.851660488188
 21
-546.0470447790785
 31
0.0
  0
LINE
  5
B2
330
1F
100
AcDbEntity
  8
仕上
  6
Continuous
 62
     3
370
     9
100
AcDbLine
 10
-1765.851762115257
 20
-544.7970447790797
 30
0.0
 11
-1690.851660488188
 21
-544.7970447790797
 31
0.0
  0
LINE
  5
B3
330
1F
100
AcDbEntity
  8
仕上
  6
Continuous
 62
     3
370
     9
100
AcDbLine
 10
-1765.851762115257
 20
-505.825691401304
 30
0.0
 11
-1690.851660488188
 21
-505.825691401304
 31
0.0
  0
LINE
  5
B4
330
1F
100
AcDbEntity
  8
仕上
  6
Continuous
 62
     3
370
     9
100
AcDbLine
 10
-1265.851762115258
 20
-546.0470447790785
 30
0.0
 11
-1265.851762115258
 21
-423.7742110046095
 31
0.0
  0
LINE
  5
B5
330
1F
100
AcDbEntity
  8
仕上
  6
Continuous
 62
     3
370
     9
100
AcDbLine
 10
-1190.851660488189
 20
-423.7742110046095
 30
0.0
 11
-1190.851660488189
 21
-546.0470447790785
 31
0.0
  0
LINE
  5
B6
330
1F
100
AcDbEntity
  8
仕上
  6
Continuous
 62
     3
370
     9
100
AcDbLine
 10
-1190.851660488189
 20
-425.0242110046083
 30
0.0
 11
-1265.851762115258
 21
-425.0242110046083
 31
0.0
  0
LINE
  5
B7
330
1F
100
AcDbEntity
  8
仕上
  6
Continuous
 62
     3
370
     9
100
AcDbLine
 10
-1190.851660488189
 20
-423.7742110046095
 30
0.0
 11
-1265.851762115258
 21
-423.7742110046095
 31
0.0
  0
LINE
  5
B8
330
1F
100
AcDbEntity
  8
仕上
  6
Continuous
 62
     3
370
     9
100
AcDbLine
 10
-1190.851660488189
 20
-463.9955643823842
 30
0.0
 11
-1265.851762115258
 21
-463.9955643823842
 31
0.0
  0
LINE
  5
B9
330
1F
100
AcDbEntity
  8
仕上
  6
Continuous
 62
     3
370
     9
100
AcDbLine
 10
-1190.851660488189
 20
-546.0470447790785
 30
0.0
 11
-1265.851762115258
 21
-546.0470447790785
 31
0.0
  0
LINE
  5
BA
330
1F
100
AcDbEntity
  8
仕上
  6
Continuous
 62
     3
370
     9
100
AcDbLine
 10
-1190.851660488189
 20
-544.7970447790797
 30
0.0
 11
-1265.851762115258
 21
-544.7970447790797
 31
0.0
  0
LINE
  5
BB
330
1F
100
AcDbEntity
  8
仕上
  6
Continuous
 62
     3
370
     9
100
AcDbLine
 10
-1190.851660488189
 20
-505.825691401304
 30
0.0
 11
-1265.851762115258
 21
-505.825691401304
 31
0.0
  0
LINE
  5
BC
330
1F
100
AcDbEntity
  8
仕上
  6
Continuous
 62
     7
370
     9
100
AcDbLine
 10
-977.1017113017239
 20
-953.6610744618101
 30
0.0
 11
-1979.601711301722
 21
-953.6610744618101
 31
0.0
  0
LINE
  5
BD
330
1F
100
AcDbEntity
  8
仕上
  6
Continuous
 62
     2
370
     9
100
AcDbLine
 10
-1932.101711301722
 20
-16.16018132188131
 30
0.0
 11
-1932.101711301722
 21
-1.160095307084958
 31
0.0
  0
LINE
  5
BE
330
1F
100
AcDbEntity
  8
仕上
  6
Continuous
 62
     2
370
     9
100
AcDbLine
 10
-1932.101711301722
 20
-953.6610744618101
 30
0.0
 11
-1932.101711301722
 21
-968.6611604766031
 31
0.0
  0
LINE
  5
BF
330
1F
100
AcDbEntity
  8
仕上
  6
Continuous
 62
     2
370
     9
100
AcDbLine
 10
-1024.601711301724
 20
-16.16018132188131
 30
0.0
 11
-1024.601711301724
 21
-1.160095307084958
 31
0.0
  0
LINE
  5
C0
330
1F
100
AcDbEntity
  8
仕上
  6
Continuous
 62
     2
370
     9
100
AcDbLine
 10
-1024.601711301724
 20
-953.6610744618101
 30
0.0
 11
-1024.601711301724
 21
-968.6611604766031
 31
0.0
  0
LINE
  5
C1
330
1F
100
AcDbEntity
  8
仕上
  6
JWW_DASHED1
 62
     2
370
     9
100
AcDbLine
 10
-1454.601476233891
 20
-16.16018132188131
 30
0.0
 11
-1454.601476233891
 21
-953.6610744618101
 31
0.0
  0
LINE
  5
C2
330
1F
100
AcDbEntity
  8
仕上
  6
Continuous
 62
     2
370
     9
100
AcDbLine
 10
-1454.601476233891
 20
-16.16018132188131
 30
0.0
 11
-1454.601476233891
 21
-1.160095307084958
 31
0.0
  0
LINE
  5
C3
330
1F
100
AcDbEntity
  8
仕上
  6
Continuous
 62
     2
370
     9
100
AcDbLine
 10
-1454.601476233891
 20
-953.6610744618101
 30
0.0
 11
-1454.601476233891
 21
-968.6611604766031
 31
0.0
  0
LINE
  5
C4
330
1F
100
AcDbEntity
  8
仕上
  6
JWW_DASHED1
 62
     2
370
     9
100
AcDbLine
 10
-1502.101946369555
 20
-953.6610744618101
 30
0.0
 11
-1502.101946369555
 21
-16.16018132188131
 31
0.0
  0
LINE
  5
C5
330
1F
100
AcDbEntity
  8
仕上
  6
Continuous
 62
     2
370
     9
100
AcDbLine
 10
-1502.101946369555
 20
-16.16018132188131
 30
0.0
 11
-1502.101946369555
 21
-1.160095307084958
 31
0.0
  0
LINE
  5
C6
330
1F
100
AcDbEntity
  8
仕上
  6
Continuous
 62
     2
370
     9
100
AcDbLine
 10
-1502.101946369555
 20
-953.6610744618101
 30
0.0
 11
-1502.101946369555
 21
-968.6611604766031
 31
0.0
  0
LINE
  5
C7
330
1F
100
AcDbEntity
  8
仕上
  6
JWW_DASHED1
 62
     2
370
     9
100
AcDbLine
 10
-1932.101711301722
 20
-16.16018132188131
 30
0.0
 11
-1932.101711301722
 21
-953.6610744618101
 31
0.0
  0
LINE
  5
C8
330
1F
100
AcDbEntity
  8
仕上
  6
JWW_DASHED1
 62
     2
370
     9
100
AcDbLine
 10
-1024.601711301724
 20
-16.16018132188131
 30
0.0
 11
-1024.601711301724
 21
-953.6610744618101
 31
0.0
  0
LINE
  5
C9
330
1F
100
AcDbEntity
  8
仕上
  6
Continuous
 62
     7
370
     9
100
AcDbLine
 10
-1472.726605256086
 20
-979.9113725678817
 30
0.0
 11
-1472.726605256086
 21
-986.161372567881
 31
0.0
  0
LINE
  5
CA
330
1F
100
AcDbEntity
  8
仕上
  6
Continuous
 62
     7
370
     9
100
AcDbLine
 10
-1483.976817347361
 20
-979.9113725678817
 30
0.0
 11
-1483.976817347361
 21
-986.161372567881
 31
0.0
  0
LINE
  5
CB
330
1F
100
AcDbEntity
  8
仕上
  6
Continuous
 62
     7
370
     9
100
AcDbLine
 10
-1483.976817347361
 20
-986.161372567881
 30
0.0
 11
-1472.726605256086
 21
-986.161372567881
 31
0.0
  0
LINE
  5
CC
330
1F
100
AcDbEntity
  8
仕上
  6
Continuous
 62
     7
370
     9
100
AcDbLine
 10
-1472.726605256086
 20
-953.6610744618101
 30
0.0
 11
-1472.726605256086
 21
-968.6611604766031
 31
0.0
  0
LINE
  5
CD
330
1F
100
AcDbEntity
  8
仕上
  6
Continuous
 62
     7
370
     9
100
AcDbLine
 10
-1483.976817347361
 20
-953.6610744618101
 30
0.0
 11
-1483.976817347361
 21
-968.6611604766031
 31
0.0
  0
LINE
  5
CE
330
1F
100
AcDbEntity
  8
仕上
  6
Continuous
 62
     7
370
     9
100
AcDbLine
 10
-1979.601711301722
 20
16.34011678419128
 30
0.0
 11
-1968.351499210444
 21
16.34011678419128
 31
0.0
  0
LINE
  5
CF
330
1F
100
AcDbEntity
  8
仕上
  6
Continuous
 62
     7
370
     9
100
AcDbLine
 10
-1968.351499210444
 20
16.34011678419128
 30
0.0
 11
-1968.351499210444
 21
10.09011678419185
 31
0.0
  0
LINE
  5
D0
330
1F
100
AcDbEntity
  8
仕上
  6
Continuous
 62
     7
370
     9
100
AcDbLine
 10
-1968.351499210444
 20
-1.160095307086664
 30
0.0
 11
-1968.351499210444
 21
-16.16018132187961
 31
0.0
  0
LINE
  5
D1
330
1F
100
AcDbEntity
  8
仕上
  6
Continuous
 62
     7
370
     9
100
AcDbLine
 10
-988.3519233929984
 20
-1.160095307086664
 30
0.0
 11
-988.3519233929984
 21
-16.16018132187961
 31
0.0
  0
LINE
  5
D2
330
1F
100
AcDbEntity
  8
仕上
  6
Continuous
 62
     7
370
     9
100
AcDbLine
 10
-988.3519233929984
 20
16.34011678419128
 30
0.0
 11
-988.3519233929984
 21
10.09011678419185
 31
0.0
  0
LINE
  5
D3
330
1F
100
AcDbEntity
  8
仕上
  6
Continuous
 62
     7
370
     9
100
AcDbLine
 10
-977.1017113017239
 20
16.34011678419128
 30
0.0
 11
-988.3519233929984
 21
16.34011678419128
 31
0.0
  0
LINE
  5
D4
330
1F
100
AcDbEntity
  8
仕上
  6
Continuous
 62
     7
370
     9
100
AcDbLine
 10
-1472.726605256086
 20
10.09011678419185
 30
0.0
 11
-1472.726605256086
 21
16.34011678419128
 31
0.0
  0
LINE
  5
D5
330
1F
100
AcDbEntity
  8
仕上
  6
Continuous
 62
     7
370
     9
100
AcDbLine
 10
-1483.976817347361
 20
10.09011678419185
 30
0.0
 11
-1483.976817347361
 21
16.34011678419128
 31
0.0
  0
LINE
  5
D6
330
1F
100
AcDbEntity
  8
仕上
  6
Continuous
 62
     7
370
     9
100
AcDbLine
 10
-1483.976817347361
 20
16.34011678419128
 30
0.0
 11
-1472.726605256086
 21
16.34011678419128
 31
0.0
  0
LINE
  5
D7
330
1F
100
AcDbEntity
  8
仕上
  6
Continuous
 62
     7
370
     9
100
AcDbLine
 10
-1472.726605256086
 20
-16.16018132187961
 30
0.0
 11
-1472.726605256086
 21
-1.160095307086664
 31
0.0
  0
LINE
  5
D8
330
1F
100
AcDbEntity
  8
仕上
  6
Continuous
 62
     7
370
     9
100
AcDbLine
 10
-1483.976817347361
 20
-16.16018132187961
 30
0.0
 11
-1483.976817347361
 21
-1.160095307086664
 31
0.0
  0
LINE
  5
D9
330
1F
100
AcDbEntity
  8
仕上
  6
JWW_CENTER2
 62
     7
370
     9
100
AcDbLine
 10
-1904.601724631068
 20
-48.66018706601764
 30
0.0
 11
-1904.601724631068
 21
-83.66018706601736
 31
0.0
  0
LINE
  5
DA
330
1F
100
AcDbEntity
  8
仕上
  6
JWW_CENTER2
 62
     7
370
     9
100
AcDbLine
 10
-1887.101724631068
 20
-66.1601870660175
 30
0.0
 11
-1922.101724631068
 21
-66.1601870660175
 31
0.0
  0
CIRCLE
  5
DB
330
1F
100
AcDbEntity
  8
仕上
  6
Continuous
 62
     7
370
     9
100
AcDbCircle
 10
-1904.601724631068
 20
-66.1601870660175
 30
0.0
 40
12.5
  0
LINE
  5
DC
330
1F
100
AcDbEntity
  8
通り芯
  6
JWW_CENTER2
 62
     7
370
     9
100
AcDbLine
 10
-39.90067910694037
 20
-484.9105041719338
 30
0.0
 11
226.9423048351884
 21
-484.9105041719338
 31
0.0
  0
LINE
  5
DD
330
1F
100
AcDbEntity
  8
仕上
  6
Continuous
 62
     7
370
     9
100
AcDbLine
 10
173.2969822984934
 20
-986.1612488479695
 30
0.0
 11
9.046456901271682
 21
-986.1612488479695
 31
0.0
  0
LINE
  5
DE
330
1F
100
AcDbEntity
  8
仕上
  6
Continuous
 62
     3
370
     9
100
AcDbLine
 10
165.2969435329216
 20
-504.3303771530111
 30
0.0
 11
142.4620070423806
 21
-543.8816473422332
 31
0.0
  0
LINE
  5
DF
330
1F
100
AcDbEntity
  8
仕上
  6
Continuous
 62
     3
370
     9
100
AcDbLine
 10
165.2969435329216
 20
-504.3303771530111
 30
0.0
 11
165.2969435329216
 21
-465.4906311908564
 31
0.0
  0
LINE
  5
E0
330
1F
100
AcDbEntity
  8
仕上
  6
Continuous
 62
     3
370
     9
100
AcDbLine
 10
165.2969435329216
 20
-465.4906311908564
 30
0.0
 11
142.4620070423806
 21
-425.9393610016342
 31
0.0
  0
LINE
  5
E1
330
1F
100
AcDbEntity
  8
仕上
  6
Continuous
 62
     3
370
     9
100
AcDbLine
 10
140.2969435329216
 20
-427.1893610016331
 30
0.0
 11
142.4620070423806
 21
-425.9393610016342
 31
0.0
  0
LINE
  5
E2
330
1F
100
AcDbEntity
  8
仕上
  6
Continuous
 62
     3
370
     9
100
AcDbLine
 10
140.2969435329216
 20
-542.6316473422344
 30
0.0
 11
142.4620070423806
 21
-543.8816473422332
 31
0.0
  0
LINE
  5
E3
330
1F
100
AcDbEntity
  8
仕上
  6
Continuous
 62
     3
370
     9
100
AcDbLine
 10
162.7969435329238
 20
-503.6605041719338
 30
0.0
 11
140.2969435329216
 21
-542.6316473422344
 31
0.0
  0
LINE
  5
E4
330
1F
100
AcDbEntity
  8
仕上
  6
Continuous
 62
     3
370
     9
100
AcDbLine
 10
162.7969435329238
 20
-503.6605041719338
 30
0.0
 11
162.7969435329238
 21
-466.1605041719338
 31
0.0
  0
LINE
  5
E5
330
1F
100
AcDbEntity
  8
仕上
  6
Continuous
 62
     3
370
     9
100
AcDbLine
 10
162.7969435329238
 20
-466.1605041719338
 30
0.0
 11
140.2969435329216
 21
-427.1893610016331
 31
0.0
  0
LINE
  5
E6
330
1F
100
AcDbEntity
  8
仕上
  6
Continuous
 62
     7
370
     9
100
AcDbLine
 10
-22.20355547072117
 20
10.09024050410304
 30
0.0
 11
-22.20355547072117
 21
-1.159611031999788
 31
0.0
  0
LINE
  5
E7
330
1F
100
AcDbEntity
  8
仕上
  6
Continuous
 62
     7
370
     9
100
AcDbLine
 10
17.79663835714146
 20
-1.159611031999788
 30
0.0
 11
-22.20355547072117
 21
-1.159611031999788
 31
0.0
  0
LINE
  5
E8
330
1F
100
AcDbEntity
  8
仕上
  6
Continuous
 62
     7
370
     9
100
AcDbLine
 10
17.79663835714146
 20
10.09024050410304
 30
0.0
 11
-22.20355547072117
 21
10.09024050410304
 31
0.0
  0
LINE
  5
E9
330
1F
100
AcDbEntity
  8
仕上
  6
Continuous
 62
     7
370
     9
100
AcDbLine
 10
17.79663835713805
 20
10.09024050410304
 30
0.0
 11
17.79663835713805
 21
-1.159611031999788
 31
0.0
  0
LINE
  5
EA
330
1F
100
AcDbEntity
  8
仕上
  6
Continuous
 62
     7
370
     9
100
AcDbLine
 10
173.2969822984934
 20
-16.16005760197012
 30
0.0
 11
-22.20355547072117
 21
-16.16005760197012
 31
0.0
  0
LINE
  5
EB
330
1F
100
AcDbEntity
  8
仕上
  6
Continuous
 62
     7
370
     9
100
AcDbLine
 10
165.2969435329216
 20
-27.40990913807295
 30
0.0
 11
-22.20355547072117
 21
-27.40990913807295
 31
0.0
  0
LINE
  5
EC
330
1F
100
AcDbEntity
  8
仕上
  6
Continuous
 62
     7
370
     9
100
AcDbLine
 10
33.29688744656337
 20
1.340123853901929
 30
0.0
 11
33.29688744656337
 21
-16.16005760197012
 31
0.0
  0
LINE
  5
ED
330
1F
100
AcDbEntity
  8
仕上
  6
Continuous
 62
     7
370
     9
100
AcDbLine
 10
0.2964569012716822
 20
-1.159611032006609
 30
0.0
 11
0.2964569012716822
 21
-16.16005760197012
 31
0.0
  0
LINE
  5
EE
330
1F
100
AcDbEntity
  8
仕上
  6
Continuous
 62
     7
370
     9
100
AcDbLine
 10
108.2968874465634
 20
1.340123853901929
 30
0.0
 11
108.2968874465634
 21
-16.16005760197012
 31
0.0
  0
LINE
  5
EF
330
1F
100
AcDbEntity
  8
仕上
  6
Continuous
 62
     7
370
     9
100
AcDbLine
 10
108.2968874465634
 20
1.340123853901929
 30
0.0
 11
33.29688744656337
 21
1.340123853901929
 31
0.0
  0
LINE
  5
F0
330
1F
100
AcDbEntity
  8
仕上
  6
Continuous
 62
     7
370
     9
100
AcDbLine
 10
9.046456901271682
 20
16.34024050410417
 30
0.0
 11
9.046456901271682
 21
10.09024050410304
 31
0.0
  0
LINE
  5
F1
330
1F
100
AcDbEntity
  8
仕上
  6
Continuous
 62
     7
370
     9
100
AcDbLine
 10
173.2969822984934
 20
16.34024050410417
 30
0.0
 11
9.046456901271682
 21
16.34024050410417
 31
0.0
  0
LINE
  5
F2
330
1F
100
AcDbEntity
  8
仕上
  6
Continuous
 62
     7
370
     9
100
AcDbLine
 10
173.2969822984934
 20
16.34024050410417
 30
0.0
 11
173.2969822984934
 21
5.090240504100763
 31
0.0
  0
LINE
  5
F3
330
1F
100
AcDbEntity
  8
仕上
  6
Continuous
 62
     7
370
     9
100
AcDbLine
 10
-22.20355547072117
 20
-979.9112488479702
 30
0.0
 11
-22.20355547072117
 21
-968.6613973118606
 31
0.0
  0
LINE
  5
F4
330
1F
100
AcDbEntity
  8
仕上
  6
Continuous
 62
     7
370
     9
100
AcDbLine
 10
17.79663835714146
 20
-968.6613973118606
 30
0.0
 11
-22.20355547072117
 21
-968.6613973118606
 31
0.0
  0
LINE
  5
F5
330
1F
100
AcDbEntity
  8
仕上
  6
Continuous
 62
     7
370
     9
100
AcDbLine
 10
17.79663835714146
 20
-979.9112488479702
 30
0.0
 11
-22.20355547072117
 21
-979.9112488479702
 31
0.0
  0
LINE
  5
F6
330
1F
100
AcDbEntity
  8
仕上
  6
Continuous
 62
     7
370
     9
100
AcDbLine
 10
17.79663835714146
 20
-979.9112488479702
 30
0.0
 11
17.79663835714146
 21
-968.6613973118606
 31
0.0
  0
LINE
  5
F7
330
1F
100
AcDbEntity
  8
仕上
  6
Continuous
 62
     7
370
     9
100
AcDbLine
 10
173.2969822984934
 20
-953.6609507418987
 30
0.0
 11
-22.20355547072117
 21
-953.6609507418987
 31
0.0
  0
LINE
  5
F8
330
1F
100
AcDbEntity
  8
仕上
  6
Continuous
 62
     7
370
     9
100
AcDbLine
 10
165.2969435329216
 20
-942.411099205789
 30
0.0
 11
-22.20355547072117
 21
-942.411099205789
 31
0.0
  0
LINE
  5
F9
330
1F
100
AcDbEntity
  8
仕上
  6
Continuous
 62
     7
370
     9
100
AcDbLine
 10
33.29688744656337
 20
-971.1611321977673
 30
0.0
 11
33.29688744656337
 21
-953.6609507418987
 31
0.0
  0
LINE
  5
FA
330
1F
100
AcDbEntity
  8
仕上
  6
Continuous
 62
     7
370
     9
100
AcDbLine
 10
0.2964569012716822
 20
-968.6613973118606
 30
0.0
 11
0.2964569012716822
 21
-953.6609507418987
 31
0.0
  0
LINE
  5
FB
330
1F
100
AcDbEntity
  8
仕上
  6
Continuous
 62
     7
370
     9
100
AcDbLine
 10
108.2968874465634
 20
-971.1611321977673
 30
0.0
 11
108.2968874465634
 21
-953.6609507418987
 31
0.0
  0
LINE
  5
FC
330
1F
100
AcDbEntity
  8
仕上
  6
Continuous
 62
     7
370
     9
100
AcDbLine
 10
108.2968874465634
 20
-971.1611321977673
 30
0.0
 11
33.29688744656337
 21
-971.1611321977673
 31
0.0
  0
LINE
  5
FD
330
1F
100
AcDbEntity
  8
仕上
  6
Continuous
 62
     7
370
     9
100
AcDbLine
 10
9.046456901271682
 20
-986.1612488479695
 30
0.0
 11
9.046456901271682
 21
-979.9112488479702
 31
0.0
  0
LINE
  5
FE
330
1F
100
AcDbEntity
  8
仕上
  6
Continuous
 62
     7
370
     9
100
AcDbLine
 10
173.2969822984934
 20
-986.1612488479695
 30
0.0
 11
173.2969822984934
 21
-974.9112488479695
 31
0.0
  0
LINE
  5
FF
330
1F
100
AcDbEntity
  8
仕上
  6
Continuous
 62
     7
370
     9
100
AcDbLine
 10
-22.20355547072117
 20
-953.6609507418987
 30
0.0
 11
-22.20355547072117
 21
-16.16005760197012
 31
0.0
  0
LINE
  5
100
330
1F
100
AcDbEntity
  8
仕上
  6
Continuous
 62
     7
370
     9
100
AcDbLine
 10
165.2969435329216
 20
-953.6609507418987
 30
0.0
 11
165.2969435329216
 21
-16.16005760197012
 31
0.0
  0
LINE
  5
101
330
1F
100
AcDbEntity
  8
仕上
  6
Continuous
 62
     2
370
     9
100
AcDbLine
 10
173.2969822984934
 20
16.34024050410417
 30
0.0
 11
173.2969822984934
 21
-986.1612488479695
 31
0.0
  0
LINE
  5
102
330
1F
100
AcDbEntity
  8
仕上
  6
Continuous
 62
     2
370
     9
100
AcDbLine
 10
184.5471720023581
 20
5.089644291961264
 30
0.0
 11
173.2969822984934
 21
5.089644291961264
 31
0.0
  0
LINE
  5
103
330
1F
100
AcDbEntity
  8
仕上
  6
Continuous
 62
     2
370
     9
100
AcDbLine
 10
184.5471720023581
 20
-974.9106526358232
 30
0.0
 11
173.2969822984934
 21
-974.9106526358232
 31
0.0
  0
LINE
  5
104
330
1F
100
AcDbEntity
  8
仕上
  6
Continuous
 62
     2
370
     9
100
AcDbLine
 10
184.5471720023581
 20
-974.9106526358232
 30
0.0
 11
184.5471720023581
 21
5.089644291961264
 31
0.0
  0
LINE
  5
105
330
1F
100
AcDbEntity
  8
その他
  6
Continuous
 62
     7
370
     9
100
AcDbLine
 10
-1353.365156023041
 20
178.1793113501297
 30
0.0
 11
-1251.323685585701
 21
178.1793113501297
 31
0.0
  0
LINE
  5
106
330
1F
100
AcDbEntity
  8
その他
  6
Continuous
 62
     7
370
     9
100
AcDbLine
 10
-1251.323685585701
 20
178.1793113501297
 30
0.0
 11
-1213.351577400694
 21
112.4096907031978
 31
0.0
  0
LINE
  5
107
330
1F
100
AcDbEntity
  8
その他
  6
Continuous
 62
     7
370
     9
100
AcDbLine
 10
-1213.351577400694
 20
112.4096907031978
 30
0.0
 11
-1228.570613125913
 21
132.2435242104785
 31
0.0
  0
LINE
  5
108
330
1F
100
AcDbEntity
  8
その他
  6
Continuous
 62
     7
370
     9
100
AcDbLine
 10
-1213.351577400694
 20
112.4096907031978
 30
0.0
 11
-1222.918663209822
 21
135.5066790159799
 31
0.0
  0
TEXT
  5
109
330
1F
100
AcDbEntity
  8
その他
  6
Continuous
 62
     2
370
     9
100
AcDbText
 10
-1349.747369381259
 20
191.3391432263945
 30
0.0
 40
30.48
  1
φ16
 41
1.093750000000002
  7
ＭＳ ゴシック
100
AcDbText
  0
LINE
  5
10A
330
1F
100
AcDbEntity
  8
その他
  6
Continuous
 62
     7
370
     9
100
AcDbLine
 10
-2030.840962835073
 20
-284.8129615441371
 30
0.0
 11
-1910.851724631068
 21
-76.98550461332289
 31
0.0
  0
TEXT
  5
10B
330
1F
100
AcDbEntity
  8
その他
  6
Continuous
 62
     2
370
     9
100
AcDbText
 10
-2129.264646630631
 20
-271.6531296678723
 30
0.0
 40
30.48
  1
φ10
 41
1.09375
  7
ＭＳ ゴシック
100
AcDbText
  0
LINE
  5
10C
330
1F
100
AcDbEntity
  8
その他
  6
Continuous
 62
     7
370
     9
100
AcDbLine
 10
-2132.882433272413
 20
-284.8129615441371
 30
0.0
 11
-2030.840962835073
 21
-284.8129615441371
 31
0.0
  0
LINE
  5
10D
330
1F
100
AcDbEntity
  8
その他
  6
Continuous
 62
     7
370
     9
100
AcDbLine
 10
-1910.851724631068
 20
-76.98550461332289
 30
0.0
 11
-1920.418810440195
 21
-100.0824929261053
 31
0.0
  0
LINE
  5
10E
330
1F
100
AcDbEntity
  8
その他
  6
Continuous
 62
     7
370
     9
100
AcDbLine
 10
-1910.851724631068
 20
-76.98550461332289
 30
0.0
 11
-1926.070760356286
 21
-96.81933812060393
 31
0.0
  0
LINE
  5
10F
330
1F
100
AcDbEntity
  8
寸法
  6
Continuous
 62
     7
370
     9
100
AcDbLine
 10
140.2969435329216
 20
-427.1893610016331
 30
0.0
 11
125.0779078077029
 21
-407.355527494352
 31
0.0
  0
LINE
  5
110
330
1F
100
AcDbEntity
  8
寸法
  6
Continuous
 62
     7
370
     9
100
AcDbLine
 10
140.2969435329216
 20
-427.1893610016331
 30
0.0
 11
130.7298577237943
 21
-404.0923726888507
 31
0.0
  0
LINE
  5
111
330
1F
100
AcDbEntity
  8
寸法
  6
Continuous
 62
     7
370
     9
100
AcDbLine
 10
60.69337523156847
 20
40.08900094842105
 30
0.0
 11
45.47433950634982
 21
59.92283445570209
 31
0.0
  0
LINE
  5
112
330
1F
100
AcDbEntity
  8
寸法
  6
Continuous
 62
     7
370
     9
100
AcDbLine
 10
60.69337523156847
 20
40.08900094842105
 30
0.0
 11
51.12628942244115
 21
63.18598926120345
 31
0.0
  0
LINE
  5
113
330
1F
100
AcDbEntity
  8
寸法
  6
Continuous
 62
     7
370
     9
100
AcDbLine
 10
-195.707328061104
 20
484.1880461477214
 30
0.0
 11
60.69337523156847
 21
40.08900094842105
 31
0.0
  0
LWPOLYLINE
  5
114
330
1F
100
AcDbEntity
  8
その他
  6
Continuous
 62
     7
370
     9
100
AcDbPolyline
 90
        4
 70
     1
 43
1.0
 10
-439.0722790291733
 20
40.08900094842105
 42
0.4142135623731
 10
-439.5722790291733
 20
40.58900094842105
 42
0.4142135623731
 10
-440.0722790291732
 20
40.08900094842105
 42
0.4142135623731
 10
-439.5722790291733
 20
39.58900094842105
 42
0.4142135623731
  0
LWPOLYLINE
  5
115
330
1F
100
AcDbEntity
  8
その他
  6
Continuous
 62
     7
370
     9
100
AcDbPolyline
 90
        4
 70
     1
 43
1.0
 10
-346.8689794017115
 20
16.33974562445658
 42
0.4142135623731
 10
-347.3689794017115
 20
16.83974562445658
 42
0.4142135623731
 10
-347.8689794017114
 20
16.33974562445658
 42
0.4142135623731
 10
-347.3689794017115
 20
15.83974562445658
 42
0.4142135623731
  0
LINE
  5
116
330
1F
100
AcDbEntity
  8
その他
  6
Continuous
 62
     7
370
     9
100
AcDbLine
 10
-347.3689794017115
 20
16.33974562445658
 30
0.0
 11
-347.3689794017115
 21
25.0891989002794
 31
0.0
  0
LWPOLYLINE
  5
117
330
1F
100
AcDbEntity
  8
その他
  6
Continuous
 62
     7
370
     9
100
AcDbPolyline
 90
        4
 70
     1
 43
1.0
 10
-346.8689794017115
 20
25.0891989002794
 42
0.4142135623731
 10
-347.3689794017115
 20
25.5891989002794
 42
0.4142135623731
 10
-347.8689794017114
 20
25.0891989002794
 42
0.4142135623731
 10
-347.3689794017115
 20
24.5891989002794
 42
0.4142135623731
  0
LINE
  5
118
330
1F
100
AcDbEntity
  8
その他
  6
Continuous
 62
     7
370
     9
100
AcDbLine
 10
-347.3689794017115
 20
25.0891989002794
 30
0.0
 11
-347.3689794017115
 21
40.08900094842105
 31
0.0
  0
LWPOLYLINE
  5
119
330
1F
100
AcDbEntity
  8
その他
  6
Continuous
 62
     7
370
     9
100
AcDbPolyline
 90
        4
 70
     1
 43
1.0
 10
-346.8689794017115
 20
40.08900094842105
 42
0.4142135623731
 10
-347.3689794017115
 20
40.58900094842105
 42
0.4142135623731
 10
-347.8689794017114
 20
40.08900094842105
 42
0.4142135623731
 10
-347.3689794017115
 20
39.58900094842105
 42
0.4142135623731
  0
LWPOLYLINE
  5
11A
330
1F
100
AcDbEntity
  8
その他
  6
Continuous
 62
     7
370
     9
100
AcDbPolyline
 90
        4
 70
     1
 43
1.0
 10
-269.4789177061687
 20
-27.41040401771713
 42
0.4142135623731
 10
-269.9789177061688
 20
-26.91040401771713
 42
0.4142135623731
 10
-270.4789177061688
 20
-27.41040401771713
 42
0.4142135623731
 10
-269.9789177061688
 20
-27.91040401771713
 42
0.4142135623731
  0
TEXT
  5
11B
330
1F
100
AcDbEntity
  8
その他
  6
Continuous
 62
     2
370
   211
100
AcDbText
 10
-359.0089794017117
 20
-42.25763717873107
 30
0.0
 40
30.48
  1
3.5
 50
90.0
 41
1.083333333333333
  7
ＭＳ ゴシック
100
AcDbText
  0
TEXT
  5
11C
330
1F
100
AcDbEntity
  8
その他
  6
Continuous
 62
     2
370
   211
100
AcDbText
 10
-359.0089794017117
 20
48.08729636453691
 30
0.0
 40
30.48
  1
6
 50
90.0
 41
0.9999999999999998
  7
ＭＳ ゴシック
100
AcDbText
  0
LINE
  5
11D
330
1F
100
AcDbEntity
  8
その他
  6
Continuous
 62
     7
370
     9
100
AcDbLine
 10
-347.3689794017115
 20
40.08900094842105
 30
0.0
 11
-347.3689794017115
 21
81.30735010765036
 31
0.0
  0
LINE
  5
11E
330
1F
100
AcDbEntity
  8
その他
  6
Continuous
 62
     7
370
     9
100
AcDbLine
 10
-442.5722790291728
 20
40.08900094842105
 30
0.0
 11
-42.20265643936486
 21
40.08900094842105
 31
0.0
  0
LINE
  5
11F
330
1F
100
AcDbEntity
  8
その他
  6
Continuous
 62
     7
370
     9
100
AcDbLine
 10
-272.9789177061683
 20
-27.41040401771713
 30
0.0
 11
-42.20265643936486
 21
-27.41040401771713
 31
0.0
  0
LINE
  5
120
330
1F
100
AcDbEntity
  8
その他
  6
Continuous
 62
     7
370
     9
100
AcDbLine
 10
-350.3689794017122
 20
16.33974562445658
 30
0.0
 11
-42.20265643936486
 21
16.33974562445658
 31
0.0
  0
LINE
  5
121
330
1F
100
AcDbEntity
  8
その他
  6
Continuous
 62
     7
370
     9
100
AcDbLine
 10
-350.3689794017122
 20
25.0891989002794
 30
0.0
 11
-42.20265643936486
 21
25.0891989002794
 31
0.0
  0
LINE
  5
122
330
1F
100
AcDbEntity
  8
寸法
  6
Continuous
 62
     7
370
     9
100
AcDbLine
 10
-22.20355547072572
 20
-345.0566138666521
 30
0.0
 11
-37.42259119594436
 21
-325.2227803593711
 31
0.0
  0
LINE
  5
123
330
1F
100
AcDbEntity
  8
寸法
  6
Continuous
 62
     7
370
     9
100
AcDbLine
 10
-22.20355547072572
 20
-345.0566138666521
 30
0.0
 11
-31.77064127985304
 21
-321.9596255538697
 31
0.0
  0
LINE
  5
124
330
1F
100
AcDbEntity
  8
寸法
  6
Continuous
 62
     7
370
     9
100
AcDbLine
 10
-357.5456450149487
 20
235.7729231402546
 30
0.0
 11
-22.20355547072572
 21
-345.0566138666521
 31
0.0
  0
TEXT
  5
125
330
1F
100
AcDbEntity
  8
寸法
  6
Continuous
 62
     7
370
     0
100
AcDbText
 10
-704.8694596279914
 20
360.9691008973414
 30
0.0
 40
22.86
  1
モルタル止め：ｔ＝１.０
 41
1.152173913043478
  7
ＭＳ ゴシック
100
AcDbText
  0
TEXT
  5
126
330
1F
100
AcDbEntity
  8
寸法
  6
Continuous
 62
     7
370
     0
100
AcDbText
 10
-616.0348551952756
 20
316.4509437816446
 30
0.0
 40
22.86
  1
ＳＵＳ４３０
 41
1.138888888888889
  7
ＭＳ ゴシック
100
AcDbText
  0
LINE
  5
127
330
1F
100
AcDbEntity
  8
寸法
  6
Continuous
 62
     7
370
     9
100
AcDbLine
 10
-308.3996426315763
 20
349.975923417984
 30
0.0
 11
140.2969435329216
 21
-427.1893610016331
 31
0.0
  0
LINE
  5
128
330
1F
100
AcDbEntity
  8
寸法
  6
Continuous
 62
     7
370
     9
100
AcDbLine
 10
-714.6326262063086
 20
349.975923417984
 30
0.0
 11
-308.3996426315763
 21
349.975923417984
 31
0.0
  0
LINE
  5
129
330
1F
100
AcDbEntity
  8
寸法
  6
Continuous
 62
     7
370
     9
100
AcDbLine
 10
-645.8234764148527
 20
235.7729231402546
 30
0.0
 11
-357.5456450149487
 21
235.7729231402546
 31
0.0
  0
TEXT
  5
12A
330
1F
100
AcDbEntity
  8
寸法
  6
Continuous
 62
     7
370
     0
100
AcDbText
 10
-620.8513277318558
 20
247.5295757250212
 30
0.0
 40
22.86
  1
蓋：ＳＳ４００
 41
1.142857142857143
  7
ＭＳ ゴシック
100
AcDbText
  0
TEXT
  5
12B
330
1F
100
AcDbEntity
  8
寸法
  6
Continuous
 62
     7
370
     0
100
AcDbText
 10
-659.6077912447832
 20
203.9545989750674
 30
0.0
 40
22.86
  1
（溶融亜鉛めっき）
 41
1.148148148148148
  7
ＭＳ ゴシック
100
AcDbText
  0
LINE
  5
12C
330
1F
100
AcDbEntity
  8
その他
  6
Continuous
 62
     7
370
     9
100
AcDbLine
 10
-439.5722790291733
 20
40.08900094842105
 30
0.0
 11
-439.5722790291733
 21
-1009.910009292288
 31
0.0
  0
LWPOLYLINE
  5
12D
330
1F
100
AcDbEntity
  8
その他
  6
Continuous
 62
     7
370
     9
100
AcDbPolyline
 90
        4
 70
     1
 43
1.0
 10
-439.0722790291733
 20
-1009.910009292288
 42
0.4142135623731
 10
-439.5722790291733
 20
-1009.410009292288
 42
0.4142135623731
 10
-440.0722790291732
 20
-1009.910009292288
 42
0.4142135623731
 10
-439.5722790291733
 20
-1010.410009292288
 42
0.4142135623731
  0
LINE
  5
12E
330
1F
100
AcDbEntity
  8
その他
  6
Continuous
 62
     7
370
     9
100
AcDbLine
 10
-347.3689794017115
 20
-1009.910009292288
 30
0.0
 11
-347.3689794017115
 21
-994.9102072441465
 31
0.0
  0
LWPOLYLINE
  5
12F
330
1F
100
AcDbEntity
  8
その他
  6
Continuous
 62
     7
370
     9
100
AcDbPolyline
 90
        4
 70
     1
 43
1.0
 10
-346.8689794017115
 20
-1009.910009292288
 42
0.4142135623731
 10
-347.3689794017115
 20
-1009.410009292288
 42
0.4142135623731
 10
-347.8689794017114
 20
-1009.910009292288
 42
0.4142135623731
 10
-347.3689794017115
 20
-1010.410009292288
 42
0.4142135623731
  0
LWPOLYLINE
  5
130
330
1F
100
AcDbEntity
  8
その他
  6
Continuous
 62
     7
370
     9
100
AcDbPolyline
 90
        4
 70
     1
 43
1.0
 10
-346.8689794017115
 20
-994.9102072441465
 42
0.4142135623731
 10
-347.3689794017115
 20
-994.4102072441466
 42
0.4142135623731
 10
-347.8689794017114
 20
-994.9102072441465
 42
0.4142135623731
 10
-347.3689794017115
 20
-995.4102072441465
 42
0.4142135623731
  0
LINE
  5
131
330
1F
100
AcDbEntity
  8
その他
  6
Continuous
 62
     7
370
     9
100
AcDbLine
 10
-347.3689794017115
 20
-994.9102072441465
 30
0.0
 11
-347.3689794017115
 21
-986.1608776882374
 31
0.0
  0
LWPOLYLINE
  5
132
330
1F
100
AcDbEntity
  8
その他
  6
Continuous
 62
     7
370
     9
100
AcDbPolyline
 90
        4
 70
     1
 43
1.0
 10
-346.8689794017115
 20
-986.1608776882374
 42
0.4142135623731
 10
-347.3689794017115
 20
-985.6608776882375
 42
0.4142135623731
 10
-347.8689794017114
 20
-986.1608776882374
 42
0.4142135623731
 10
-347.3689794017115
 20
-986.6608776882374
 42
0.4142135623731
  0
LWPOLYLINE
  5
133
330
1F
100
AcDbEntity
  8
その他
  6
Continuous
 62
     7
370
     9
100
AcDbPolyline
 90
        4
 70
     1
 43
1.0
 10
-129.1250060510327
 20
-979.9108776882374
 42
0.4142135623731
 10
-129.6250060510327
 20
-979.4108776882375
 42
0.4142135623731
 10
-130.1250060510327
 20
-979.9108776882374
 42
0.4142135623731
 10
-129.6250060510327
 20
-980.4108776882374
 42
0.4142135623731
  0
LINE
  5
134
330
1F
100
AcDbEntity
  8
その他
  6
Continuous
 62
     7
370
     9
100
AcDbLine
 10
-129.6250060510327
 20
-979.9108776882374
 30
0.0
 11
-129.6250060510327
 21
-968.6610261521266
 31
0.0
  0
LWPOLYLINE
  5
135
330
1F
100
AcDbEntity
  8
その他
  6
Continuous
 62
     7
370
     9
100
AcDbPolyline
 90
        4
 70
     1
 43
1.0
 10
-129.1250060510327
 20
-968.6610261521266
 42
0.4142135623731
 10
-129.6250060510327
 20
-968.1610261521267
 42
0.4142135623731
 10
-130.1250060510327
 20
-968.6610261521266
 42
0.4142135623731
 10
-129.6250060510327
 20
-969.1610261521266
 42
0.4142135623731
  0
LINE
  5
136
330
1F
100
AcDbEntity
  8
その他
  6
Continuous
 62
     7
370
     9
100
AcDbLine
 10
-129.6250060510327
 20
-968.6610261521266
 30
0.0
 11
-129.6250060510327
 21
-953.6605795821654
 31
0.0
  0
LWPOLYLINE
  5
137
330
1F
100
AcDbEntity
  8
その他
  6
Continuous
 62
     7
370
     9
100
AcDbPolyline
 90
        4
 70
     1
 43
1.0
 10
-129.1250060510327
 20
-953.6605795821654
 42
0.4142135623731
 10
-129.6250060510327
 20
-953.1605795821655
 42
0.4142135623731
 10
-130.1250060510327
 20
-953.6605795821654
 42
0.4142135623731
 10
-129.6250060510327
 20
-954.1605795821654
 42
0.4142135623731
  0
TEXT
  5
138
330
1F
100
AcDbEntity
  8
その他
  6
Continuous
 62
     2
370
   211
100
AcDbText
 10
-141.265006051033
 20
-943.9539625357033
 30
0.0
 40
30.48
  1
6
 50
90.0
 41
0.9999999999999998
  7
ＭＳ ゴシック
100
AcDbText
  0
LINE
  5
139
330
1F
100
AcDbEntity
  8
その他
  6
Continuous
 62
     7
370
     9
100
AcDbLine
 10
-129.6250060510327
 20
-953.6605795821654
 30
0.0
 11
-129.6250060510327
 21
-916.7393071612698
 31
0.0
  0
LWPOLYLINE
  5
13A
330
1F
100
AcDbEntity
  8
その他
  6
Continuous
 62
     7
370
     9
100
AcDbPolyline
 90
        4
 70
     1
 43
1.0
 10
-269.4789177061687
 20
-942.4107280460569
 42
0.4142135623731
 10
-269.9789177061688
 20
-941.910728046057
 42
0.4142135623731
 10
-270.4789177061688
 20
-942.4107280460569
 42
0.4142135623731
 10
-269.9789177061688
 20
-942.9107280460569
 42
0.4142135623731
  0
LINE
  5
13B
330
1F
100
AcDbEntity
  8
その他
  6
Continuous
 62
     7
370
     9
100
AcDbLine
 10
-272.9789177061683
 20
-942.4107280460569
 30
0.0
 11
-231.5885610751205
 21
-942.4107280460569
 31
0.0
  0
LINE
  5
13C
330
1F
100
AcDbEntity
  8
その他
  6
Continuous
 62
     7
370
     9
100
AcDbLine
 10
-350.3689794017122
 20
-986.1608776882374
 30
0.0
 11
-231.5885610751205
 21
-986.1608776882374
 31
0.0
  0
LINE
  5
13D
330
1F
100
AcDbEntity
  8
その他
  6
Continuous
 62
     7
370
     9
100
AcDbLine
 10
-350.3689794017122
 20
-994.9102072441465
 30
0.0
 11
-231.5885610751205
 21
-994.9102072441465
 31
0.0
  0
LINE
  5
13E
330
1F
100
AcDbEntity
  8
その他
  6
Continuous
 62
     7
370
     9
100
AcDbLine
 10
-442.5722790291728
 20
-1009.910009292288
 30
0.0
 11
-231.5885610751205
 21
-1009.910009292288
 31
0.0
  0
TEXT
  5
13F
330
1F
100
AcDbEntity
  8
その他
  6
Continuous
 62
     2
370
   211
100
AcDbText
 10
-359.0089794017117
 20
-1042.923053440811
 30
0.0
 40
30.48
  1
6
 50
90.0
 41
0.9999999999999998
  7
ＭＳ ゴシック
100
AcDbText
  0
TEXT
  5
140
330
1F
100
AcDbEntity
  8
その他
  6
Continuous
 62
     2
370
   211
100
AcDbText
 10
-359.0089794017117
 20
-995.4851432048715
 30
0.0
 40
30.48
  1
3.5
 50
90.0
 41
1.083333333333333
  7
ＭＳ ゴシック
100
AcDbText
  0
LINE
  5
141
330
1F
100
AcDbEntity
  8
その他
  6
Continuous
 62
     7
370
     9
100
AcDbLine
 10
-347.3689794017115
 20
-1009.910009292288
 30
0.0
 11
-347.3689794017115
 21
-1062.792369270745
 31
0.0
  0
LINE
  5
142
330
1F
100
AcDbEntity
  8
その他
  6
Continuous
 62
     7
370
     9
100
AcDbLine
 10
-132.6250060510334
 20
-953.6605795821654
 30
0.0
 11
-42.20265643936486
 21
-953.6605795821654
 31
0.0
  0
LINE
  5
143
330
1F
100
AcDbEntity
  8
その他
  6
Continuous
 62
     7
370
     9
100
AcDbLine
 10
-132.6250060510334
 20
-979.9108776882374
 30
0.0
 11
-42.20265643936486
 21
-979.9108776882374
 31
0.0
  0
LINE
  5
144
330
1F
100
AcDbEntity
  8
その他
  6
Continuous
 62
     7
370
     9
100
AcDbLine
 10
-132.6250060510334
 20
-968.6610261521266
 30
0.0
 11
-42.20265643936486
 21
-968.6610261521266
 31
0.0
  0
LWPOLYLINE
  5
145
330
1F
100
AcDbEntity
  8
その他
  6
Continuous
 62
     7
370
     9
100
AcDbPolyline
 90
        4
 70
     1
 43
1.0
 10
-129.1250060510327
 20
-994.9102072441465
 42
0.4142135623731
 10
-129.6250060510327
 20
-994.4102072441466
 42
0.4142135623731
 10
-130.1250060510327
 20
-994.9102072441465
 42
0.4142135623731
 10
-129.6250060510327
 20
-995.4102072441465
 42
0.4142135623731
  0
LINE
  5
146
330
1F
100
AcDbEntity
  8
その他
  6
Continuous
 62
     7
370
     9
100
AcDbLine
 10
-132.6250060510334
 20
-994.9102072441465
 30
0.0
 11
-42.20265643936486
 21
-994.9102072441465
 31
0.0
  0
LINE
  5
147
330
1F
100
AcDbEntity
  8
その他
  6
Continuous
 62
     7
370
     9
100
AcDbLine
 10
-129.6250060510327
 20
-994.9102072441465
 30
0.0
 11
-129.6250060510327
 21
-979.9108776882374
 31
0.0
  0
TEXT
  5
148
330
1F
100
AcDbEntity
  8
その他
  6
Continuous
 62
     2
370
   211
100
AcDbText
 10
-141.265006051033
 20
-1023.11009489372
 30
0.0
 40
30.48
  1
6
 50
90.0
 41
0.9999999999999998
  7
ＭＳ ゴシック
100
AcDbText
  0
LINE
  5
149
330
1F
100
AcDbEntity
  8
その他
  6
Continuous
 62
     7
370
     9
100
AcDbLine
 10
-129.6250060510327
 20
-994.9102072441465
 30
0.0
 11
-129.6250060510327
 21
-1030.594572452705
 31
0.0
  0
LINE
  5
14A
330
1F
100
AcDbEntity
  8
その他
  6
Continuous
 62
     7
370
     9
100
AcDbLine
 10
-129.6250060510327
 20
-974.285951920182
 30
0.0
 11
-180.1671982540766
 21
-997.8350014255116
 31
0.0
  0
LINE
  5
14B
330
1F
100
AcDbEntity
  8
その他
  6
Continuous
 62
     7
370
     9
100
AcDbLine
 10
-180.1671982540766
 20
-997.8350014255116
 30
0.0
 11
-180.1671982540766
 21
-1057.411739774647
 31
0.0
  0
TEXT
  5
14C
330
1F
100
AcDbEntity
  8
その他
  6
Continuous
 62
     2
370
   211
100
AcDbText
 10
-189.9084954592709
 20
-1063.361236814706
 30
0.0
 40
30.48
  1
4.5
 50
90.0
 41
1.083333333333333
  7
ＭＳ ゴシック
100
AcDbText
  0
LINE
  5
14D
330
1F
100
AcDbEntity
  8
その他
  6
Continuous
 62
     7
370
     9
100
AcDbLine
 10
438.3917278886703
 20
40.08900094842119
 30
0.0
 11
438.3917278886703
 21
-109.9109990515788
 31
0.0
  0
LWPOLYLINE
  5
14E
330
1F
100
AcDbEntity
  8
その他
  6
Continuous
 62
     7
370
     9
100
AcDbPolyline
 90
        4
 70
     1
 43
1.0
 10
438.8917278886703
 20
40.08900094842119
 42
0.4142135623731
 10
438.3917278886703
 20
40.58900094842119
 42
0.4142135623731
 10
437.8917278886703
 20
40.08900094842119
 42
0.4142135623731
 10
438.3917278886703
 20
39.58900094842119
 42
0.4142135623731
  0
LWPOLYLINE
  5
14F
330
1F
100
AcDbEntity
  8
その他
  6
Continuous
 62
     7
370
     9
100
AcDbPolyline
 90
        4
 70
     1
 43
1.0
 10
438.8917278886703
 20
-109.9109990515788
 42
0.4142135623731
 10
438.3917278886703
 20
-109.4109990515788
 42
0.4142135623731
 10
437.8917278886703
 20
-109.9109990515788
 42
0.4142135623731
 10
438.3917278886703
 20
-110.4109990515788
 42
0.4142135623731
  0
LINE
  5
150
330
1F
100
AcDbEntity
  8
その他
  6
Continuous
 62
     7
370
     9
100
AcDbLine
 10
441.3917278886698
 20
-109.9109990515788
 30
0.0
 11
234.5472709782872
 21
-109.9109990515788
 31
0.0
  0
TEXT
  5
151
330
1F
100
AcDbEntity
  8
その他
  6
Continuous
 62
     2
370
   211
100
AcDbText
 10
426.7517278886701
 20
-56.16099905157881
 30
0.0
 40
30.48
  1
60
 50
90.0
 41
1.0625
  7
ＭＳ ゴシック
100
AcDbText
  0
LINE
  5
152
330
1F
100
AcDbEntity
  8
その他
  6
Continuous
 62
     7
370
     9
100
AcDbLine
 10
441.3917278886698
 20
40.08900094842119
 30
0.0
 11
234.5472709782872
 21
40.08900094842119
 31
0.0
  0
LWPOLYLINE
  5
153
330
1F
100
AcDbEntity
  8
その他
  6
Continuous
 62
     7
370
     9
100
AcDbPolyline
 90
        4
 70
     1
 43
1.0
 10
573.5426947149966
 20
95.08893496446859
 42
0.4142135623731
 10
573.0426947149966
 20
95.58893496446859
 42
0.4142135623731
 10
572.5426947149967
 20
95.08893496446859
 42
0.4142135623731
 10
573.0426947149966
 20
94.58893496446859
 42
0.4142135623731
  0
LINE
  5
154
330
1F
100
AcDbEntity
  8
その他
  6
Continuous
 62
     7
370
     9
100
AcDbLine
 10
576.0426947149973
 20
95.08893496446859
 30
0.0
 11
262.0749512464455
 21
95.08893496446859
 31
0.0
  0
LINE
  5
155
330
1F
100
AcDbEntity
  8
その他
  6
Continuous
 62
     7
370
     9
100
AcDbLine
 10
438.3917278886703
 20
-109.9109990515788
 30
0.0
 11
438.3917278886703
 21
-859.9100092922888
 31
0.0
  0
LWPOLYLINE
  5
156
330
1F
100
AcDbEntity
  8
その他
  6
Continuous
 62
     7
370
     9
100
AcDbPolyline
 90
        4
 70
     1
 43
1.0
 10
438.8917278886703
 20
-859.9100092922888
 42
0.4142135623731
 10
438.3917278886703
 20
-859.4100092922888
 42
0.4142135623731
 10
437.8917278886703
 20
-859.9100092922888
 42
0.4142135623731
 10
438.3917278886703
 20
-860.4100092922887
 42
0.4142135623731
  0
LINE
  5
157
330
1F
100
AcDbEntity
  8
その他
  6
Continuous
 62
     7
370
     9
100
AcDbLine
 10
441.3917278886698
 20
-859.9100092922888
 30
0.0
 11
234.5472709782872
 21
-859.9100092922888
 31
0.0
  0
LINE
  5
158
330
1F
100
AcDbEntity
  8
その他
  6
Continuous
 62
     7
370
     9
100
AcDbLine
 10
438.3917278886703
 20
-859.9100092922888
 30
0.0
 11
438.3917278886703
 21
-1009.909885572377
 31
0.0
  0
LWPOLYLINE
  5
159
330
1F
100
AcDbEntity
  8
その他
  6
Continuous
 62
     7
370
     9
100
AcDbPolyline
 90
        4
 70
     1
 43
1.0
 10
438.8917278886703
 20
-1009.909885572377
 42
0.4142135623731
 10
438.3917278886703
 20
-1009.409885572377
 42
0.4142135623731
 10
437.8917278886703
 20
-1009.909885572377
 42
0.4142135623731
 10
438.3917278886703
 20
-1010.409885572377
 42
0.4142135623731
  0
TEXT
  5
15A
330
1F
100
AcDbEntity
  8
その他
  6
Continuous
 62
     2
370
   211
100
AcDbText
 10
426.7517278886701
 20
-956.1599474323336
 30
0.0
 40
30.48
  1
60
 50
90.0
 41
1.0625
  7
ＭＳ ゴシック
100
AcDbText
  0
LINE
  5
15B
330
1F
100
AcDbEntity
  8
その他
  6
Continuous
 62
     7
370
     9
100
AcDbLine
 10
441.3917278886698
 20
-1009.909885572377
 30
0.0
 11
234.5472709782872
 21
-1009.909885572377
 31
0.0
  0
LWPOLYLINE
  5
15C
330
1F
100
AcDbEntity
  8
その他
  6
Continuous
 62
     7
370
     9
100
AcDbPolyline
 90
        4
 70
     1
 43
1.0
 10
573.5426947149966
 20
-1064.909943308336
 42
0.4142135623731
 10
573.0426947149966
 20
-1064.409943308336
 42
0.4142135623731
 10
572.5426947149967
 20
-1064.909943308336
 42
0.4142135623731
 10
573.0426947149966
 20
-1065.409943308336
 42
0.4142135623731
  0
LINE
  5
15D
330
1F
100
AcDbEntity
  8
その他
  6
Continuous
 62
     7
370
     9
100
AcDbLine
 10
576.0426947149973
 20
-1064.909943308336
 30
0.0
 11
262.0749512464455
 21
-1064.909943308336
 31
0.0
  0
LINE
  5
15E
330
1F
100
AcDbEntity
  8
寸法
  6
Continuous
 62
     7
370
     9
100
AcDbLine
 10
214.5472709782872
 20
140.0888359885391
 30
0.0
 11
224.1143567874134
 21
163.1858243013215
 31
0.0
  0
LINE
  5
15F
330
1F
100
AcDbEntity
  8
寸法
  6
Continuous
 62
     7
370
     9
100
AcDbLine
 10
214.5472709782872
 20
140.0888359885391
 30
0.0
 11
229.7663067035047
 21
159.9226694958202
 31
0.0
  0
TEXT
  5
160
330
1F
100
AcDbEntity
  8
寸法
  6
Continuous
 62
     7
370
     0
100
AcDbText
 10
325.5800992182322
 20
334.5088106275216
 30
0.0
 40
22.86
  1
アンカー：ｔ＝６.０
 41
1.149122807017544
  7
ＭＳ ゴシック
100
AcDbText
  0
LINE
  5
161
330
1F
100
AcDbEntity
  8
寸法
  6
Continuous
 62
     7
370
     9
100
AcDbLine
 10
322.099520753518
 20
326.3747970675757
 30
0.0
 11
214.5472709782872
 21
140.0888359885391
 31
0.0
  0
LINE
  5
162
330
1F
100
AcDbEntity
  8
その他
  6
Continuous
 62
     7
370
     9
100
AcDbLine
 10
-22.20265643936486
 20
301.1837619106184
 30
0.0
 11
199.5469740504997
 21
301.1837619106184
 31
0.0
  0
LWPOLYLINE
  5
163
330
1F
100
AcDbEntity
  8
その他
  6
Continuous
 62
     7
370
     9
100
AcDbPolyline
 90
        4
 70
     1
 43
1.0
 10
-21.70265643936486
 20
301.1837619106184
 42
0.4142135623731
 10
-22.20265643936486
 20
301.6837619106184
 42
0.4142135623731
 10
-22.70265643936486
 20
301.1837619106184
 42
0.4142135623731
 10
-22.20265643936486
 20
300.6837619106184
 42
0.4142135623731
  0
LWPOLYLINE
  5
164
330
1F
100
AcDbEntity
  8
その他
  6
Continuous
 62
     7
370
     9
100
AcDbPolyline
 90
        4
 70
     1
 43
1.0
 10
200.0469740504997
 20
301.1837619106184
 42
0.4142135623731
 10
199.5469740504997
 20
301.6837619106184
 42
0.4142135623731
 10
199.0469740504997
 20
301.1837619106184
 42
0.4142135623731
 10
199.5469740504997
 20
300.6837619106184
 42
0.4142135623731
  0
LINE
  5
165
330
1F
100
AcDbEntity
  8
その他
  6
Continuous
 62
     7
370
     9
100
AcDbLine
 10
-22.20265643936486
 20
304.1837619106185
 30
0.0
 11
-22.20265643936486
 21
60.08900094842105
 31
0.0
  0
LINE
  5
166
330
1F
100
AcDbEntity
  8
その他
  6
Continuous
 62
     7
370
     9
100
AcDbLine
 10
199.5469740504997
 20
304.1837619106185
 30
0.0
 11
199.5469740504997
 21
160.0888359885393
 31
0.0
  0
TEXT
  5
167
330
1F
100
AcDbEntity
  8
その他
  6
Continuous
 62
     2
370
   211
100
AcDbText
 10
44.92215880556856
 20
312.8237619106186
 30
0.0
 40
30.48
  1
88.7
 41
1.09375
  7
ＭＳ ゴシック
100
AcDbText
  0
LINE
  5
168
330
1F
100
AcDbEntity
  8
その他
  6
Continuous
 62
     7
370
     9
100
AcDbLine
 10
199.5469740504997
 20
301.1837619106184
 30
0.0
 11
214.5472709782872
 21
301.1837619106184
 31
0.0
  0
LWPOLYLINE
  5
169
330
1F
100
AcDbEntity
  8
その他
  6
Continuous
 62
     7
370
     9
100
AcDbPolyline
 90
        4
 70
     1
 43
1.0
 10
215.0472709782872
 20
301.1837619106184
 42
0.4142135623731
 10
214.5472709782872
 20
301.6837619106184
 42
0.4142135623731
 10
214.0472709782872
 20
301.1837619106184
 42
0.4142135623731
 10
214.5472709782872
 20
300.6837619106184
 42
0.4142135623731
  0
LINE
  5
16A
330
1F
100
AcDbEntity
  8
その他
  6
Continuous
 62
     7
370
     9
100
AcDbLine
 10
214.5472709782872
 20
304.1837619106185
 30
0.0
 11
214.5472709782872
 21
159.4638029965633
 31
0.0
  0
TEXT
  5
16B
330
1F
100
AcDbEntity
  8
その他
  6
Continuous
 62
     2
370
   211
100
AcDbText
 10
197.0471225143935
 20
312.8237619106186
 30
0.0
 40
30.48
  1
6
 41
0.9999999999999998
  7
ＭＳ ゴシック
100
AcDbText
  0
LINE
  5
16C
330
1F
100
AcDbEntity
  8
その他
  6
Continuous
 62
     7
370
     9
100
AcDbLine
 10
-22.20265643936486
 20
225.2355625137763
 30
0.0
 11
184.5471720023581
 21
225.2355625137763
 31
0.0
  0
LWPOLYLINE
  5
16D
330
1F
100
AcDbEntity
  8
その他
  6
Continuous
 62
     7
370
     9
100
AcDbPolyline
 90
        4
 70
     1
 43
1.0
 10
-21.70265643936486
 20
225.2355625137763
 42
0.4142135623731
 10
-22.20265643936486
 20
225.7355625137763
 42
0.4142135623731
 10
-22.70265643936486
 20
225.2355625137763
 42
0.4142135623731
 10
-22.20265643936486
 20
224.7355625137763
 42
0.4142135623731
  0
LWPOLYLINE
  5
16E
330
1F
100
AcDbEntity
  8
その他
  6
Continuous
 62
     7
370
     9
100
AcDbPolyline
 90
        4
 70
     1
 43
1.0
 10
185.0471720023581
 20
225.2355625137763
 42
0.4142135623731
 10
184.5471720023581
 20
225.7355625137763
 42
0.4142135623731
 10
184.0471720023581
 20
225.2355625137763
 42
0.4142135623731
 10
184.5471720023581
 20
224.7355625137763
 42
0.4142135623731
  0
TEXT
  5
16F
330
1F
100
AcDbEntity
  8
その他
  6
Continuous
 62
     2
370
   211
100
AcDbText
 10
37.4222577814966
 20
236.8755625137765
 30
0.0
 40
30.48
  1
82.7
 41
1.09375
  7
ＭＳ ゴシック
100
AcDbText
  0
LINE
  5
170
330
1F
100
AcDbEntity
  8
その他
  6
Continuous
 62
     7
370
     9
100
AcDbLine
 10
184.5471720023581
 20
228.2355625137764
 30
0.0
 11
184.5471720023581
 21
60.08900094842105
 31
0.0
  0
LINE
  5
171
330
1F
100
AcDbEntity
  8
その他
  6
Continuous
 62
     7
370
     9
100
AcDbLine
 10
-22.20355547072117
 20
-720.5898490246741
 30
0.0
 11
165.2969435329261
 21
-720.5898490246741
 31
0.0
  0
LWPOLYLINE
  5
172
330
1F
100
AcDbEntity
  8
その他
  6
Continuous
 62
     7
370
     9
100
AcDbPolyline
 90
        4
 70
     1
 43
1.0
 10
-21.70355547072117
 20
-720.5898490246741
 42
0.4142135623731
 10
-22.20355547072117
 20
-720.0898490246742
 42
0.4142135623731
 10
-22.70355547072117
 20
-720.5898490246741
 42
0.4142135623731
 10
-22.20355547072117
 20
-721.0898490246741
 42
0.4142135623731
  0
LWPOLYLINE
  5
173
330
1F
100
AcDbEntity
  8
その他
  6
Continuous
 62
     7
370
     9
100
AcDbPolyline
 90
        4
 70
     1
 43
1.0
 10
165.7969435329261
 20
-720.5898490246741
 42
0.4142135623731
 10
165.2969435329261
 20
-720.0898490246742
 42
0.4142135623731
 10
164.7969435329261
 20
-720.5898490246741
 42
0.4142135623731
 10
165.2969435329261
 20
-721.0898490246741
 42
0.4142135623731
  0
TEXT
  5
174
330
1F
100
AcDbEntity
  8
その他
  6
Continuous
 62
     2
370
   211
100
AcDbText
 10
50.29669403110248
 20
-708.9498490246746
 30
0.0
 40
30.48
  1
75
 41
1.0625
  7
ＭＳ ゴシック
100
AcDbText
  0
LINE
  5
175
330
1F
100
AcDbEntity
  8
その他
  6
Continuous
 62
     7
370
     9
100
AcDbLine
 10
165.2969435329261
 20
-720.5898490246741
 30
0.0
 11
173.2969822984923
 21
-720.5898490246741
 31
0.0
  0
LWPOLYLINE
  5
176
330
1F
100
AcDbEntity
  8
その他
  6
Continuous
 62
     7
370
     9
100
AcDbPolyline
 90
        4
 70
     1
 43
1.0
 10
173.7969822984923
 20
-720.5898490246741
 42
0.4142135623731
 10
173.2969822984923
 20
-720.0898490246742
 42
0.4142135623731
 10
172.7969822984923
 20
-720.5898490246741
 42
0.4142135623731
 10
173.2969822984923
 20
-721.0898490246741
 42
0.4142135623731
  0
LINE
  5
177
330
1F
100
AcDbEntity
  8
その他
  6
Continuous
 62
     7
370
     9
100
AcDbLine
 10
173.2969822984923
 20
-720.5898490246741
 30
0.0
 11
184.5471720023569
 21
-720.5898490246741
 31
0.0
  0
LWPOLYLINE
  5
178
330
1F
100
AcDbEntity
  8
その他
  6
Continuous
 62
     7
370
     9
100
AcDbPolyline
 90
        4
 70
     1
 43
1.0
 10
185.0471720023569
 20
-720.5898490246741
 42
0.4142135623731
 10
184.5471720023569
 20
-720.0898490246742
 42
0.4142135623731
 10
184.0471720023569
 20
-720.5898490246741
 42
0.4142135623731
 10
184.5471720023569
 20
-721.0898490246741
 42
0.4142135623731
  0
TEXT
  5
179
330
1F
100
AcDbEntity
  8
その他
  6
Continuous
 62
     2
370
   211
100
AcDbText
 10
200.9586870087107
 20
-708.9498490246746
 30
0.0
 40
30.48
  1
4.5
 41
1.083333333333333
  7
ＭＳ ゴシック
100
AcDbText
  0
LINE
  5
17A
330
1F
100
AcDbEntity
  8
その他
  6
Continuous
 62
     7
370
     9
100
AcDbLine
 10
184.5471720023569
 20
-720.5898490246741
 30
0.0
 11
271.5845616859418
 21
-720.5898490246741
 31
0.0
  0
TEXT
  5
17B
330
1F
100
AcDbEntity
  8
その他
  6
Continuous
 62
     2
370
   211
100
AcDbText
 10
202.6447945973861
 20
-634.7218762901479
 30
0.0
 40
30.48
  1
3.2
 41
1.083333333333333
  7
ＭＳ ゴシック
100
AcDbText
  0
LINE
  5
17C
330
1F
100
AcDbEntity
  8
その他
  6
Continuous
 62
     7
370
     9
100
AcDbLine
 10
169.2969629157098
 20
-720.5898490246741
 30
0.0
 11
196.2094533664971
 21
-648.8073106666334
 31
0.0
  0
LINE
  5
17D
330
1F
100
AcDbEntity
  8
その他
  6
Continuous
 62
     7
370
     9
100
AcDbLine
 10
196.2094533664971
 20
-648.8073106666334
 30
0.0
 11
277.4798953536323
 21
-648.8073106666334
 31
0.0
  0
LINE
  5
17E
330
1F
100
AcDbEntity
  8
その他
  6
Continuous
 62
     7
370
     9
100
AcDbLine
 10
-22.20355547072117
 20
-637.3304320771254
 30
0.0
 11
140.2969435329216
 21
-637.3304320771254
 31
0.0
  0
LWPOLYLINE
  5
17F
330
1F
100
AcDbEntity
  8
その他
  6
Continuous
 62
     7
370
     9
100
AcDbPolyline
 90
        4
 70
     1
 43
1.0
 10
-21.70355547072117
 20
-637.3304320771254
 42
0.4142135623731
 10
-22.20355547072117
 20
-636.8304320771255
 42
0.4142135623731
 10
-22.70355547072117
 20
-637.3304320771254
 42
0.4142135623731
 10
-22.20355547072117
 20
-637.8304320771254
 42
0.4142135623731
  0
LWPOLYLINE
  5
180
330
1F
100
AcDbEntity
  8
その他
  6
Continuous
 62
     7
370
     9
100
AcDbPolyline
 90
        4
 70
     1
 43
1.0
 10
140.7969435329216
 20
-637.3304320771254
 42
0.4142135623731
 10
140.2969435329216
 20
-636.8304320771255
 42
0.4142135623731
 10
139.7969435329216
 20
-637.3304320771254
 42
0.4142135623731
 10
140.2969435329216
 20
-637.8304320771254
 42
0.4142135623731
  0
LINE
  5
181
330
1F
100
AcDbEntity
  8
その他
  6
Continuous
 62
     7
370
     9
100
AcDbLine
 10
140.2969435329216
 20
-640.3304320771256
 30
0.0
 11
140.2969435329216
 21
-562.6316473422344
 31
0.0
  0
TEXT
  5
182
330
1F
100
AcDbEntity
  8
その他
  6
Continuous
 62
     2
370
   211
100
AcDbText
 10
37.7966940311002
 20
-625.6904320771255
 30
0.0
 40
30.48
  1
65
 41
1.0625
  7
ＭＳ ゴシック
100
AcDbText
  0
LINE
  5
183
330
1F
100
AcDbEntity
  8
その他
  6
Continuous
 62
     7
370
     9
100
AcDbLine
 10
-269.9789177061688
 20
-27.41040401771713
 30
0.0
 11
-269.9789177061688
 21
-942.4107280460569
 31
0.0
  0
TEXT
  5
184
330
1F
100
AcDbEntity
  8
その他
  6
Continuous
 62
     2
370
   211
100
AcDbText
 10
-281.618917706169
 20
-517.410566031887
 30
0.0
 40
30.48
  1
366
 50
90.0
 41
1.083333333333333
  7
ＭＳ ゴシック
100
AcDbText
  0
TEXT
  5
185
330
1F
100
AcDbEntity
  8
その他
  6
Continuous
 62
     2
370
   211
100
AcDbText
 10
426.7517278886701
 20
-539.9105041719336
 30
0.0
 40
30.48
  1
□300
 50
90.0
 41
1.1
  7
ＭＳ ゴシック
100
AcDbText
  0
TEXT
  5
186
330
1F
100
AcDbEntity
  8
その他
  6
Continuous
 62
     2
370
   211
100
AcDbText
 10
-451.2122790291735
 20
-539.9105247919169
 30
0.0
 40
30.48
  1
□420
 50
90.0
 41
1.1
  7
ＭＳ ゴシック
100
AcDbText
  0
LINE
  5
187
330
1F
100
AcDbEntity
  8
その他
  6
Continuous
 62
     7
370
     9
100
AcDbLine
 10
-347.3689794017115
 20
-986.1608776882374
 30
0.0
 11
-347.3689794017115
 21
16.33974562445658
 31
0.0
  0
TEXT
  5
188
330
1F
100
AcDbEntity
  8
その他
  6
Continuous
 62
     2
370
   211
100
AcDbText
 10
-359.0089794017117
 20
-517.4105660318904
 30
0.0
 40
30.48
  1
401
 50
90.0
 41
1.083333333333333
  7
ＭＳ ゴシック
100
AcDbText
  0
LINE
  5
189
330
1F
100
AcDbEntity
  8
その他
  6
Continuous
 62
     7
370
     9
100
AcDbLine
 10
573.0426947149966
 20
-1064.909943308336
 30
0.0
 11
573.0426947149966
 21
95.08893496446859
 31
0.0
  0
TEXT
  5
18A
330
1F
100
AcDbEntity
  8
その他
  6
Continuous
 62
     2
370
   211
100
AcDbText
 10
561.4026947149964
 20
-517.4105041719336
 30
0.0
 40
30.48
  1
464
 50
90.0
 41
1.083333333333333
  7
ＭＳ ゴシック
100
AcDbText
  0
LWPOLYLINE
  5
18B
330
1F
100
AcDbEntity
  8
仕上
  6
Continuous
 62
     7
370
     9
100
AcDbPolyline
 90
        4
 70
     1
 43
1.0
 10
-1979.101711301722
 20
337.6908206221083
 42
0.4142135623731
 10
-1979.601711301722
 20
338.1908206221083
 42
0.4142135623731
 10
-1980.101711301722
 20
337.6908206221083
 42
0.4142135623731
 10
-1979.601711301722
 20
337.1908206221083
 42
0.4142135623731
  0
LWPOLYLINE
  5
18C
330
1F
100
AcDbEntity
  8
その他
  6
Continuous
 62
     7
370
     9
100
AcDbPolyline
 90
        4
 70
     1
 43
1.0
 10
-1967.851499210448
 20
253.9932937173971
 42
0.4142135623731
 10
-1968.351499210448
 20
254.4932937173971
 42
0.4142135623731
 10
-1968.851499210448
 20
253.9932937173971
 42
0.4142135623731
 10
-1968.351499210448
 20
253.4932937173971
 42
0.4142135623731
  0
LINE
  5
18D
330
1F
100
AcDbEntity
  8
仕上
  6
Continuous
 62
     7
370
     9
100
AcDbLine
 10
-1979.601711301722
 20
340.6908206221083
 30
0.0
 11
-1979.601711301722
 21
57.4969641614139
 31
0.0
  0
LINE
  5
18E
330
1F
100
AcDbEntity
  8
その他
  6
Continuous
 62
     7
370
     9
100
AcDbLine
 10
-1968.351499210448
 20
256.9932937173971
 30
0.0
 11
-1968.351499210448
 21
57.4969641614139
 31
0.0
  0
LWPOLYLINE
  5
18F
330
1F
100
AcDbEntity
  8
仕上
  6
Continuous
 62
     7
370
     9
100
AcDbPolyline
 90
        4
 70
     1
 43
1.0
 10
-976.6017113017239
 20
337.6908206221083
 42
0.4142135623731
 10
-977.1017113017239
 20
338.1908206221083
 42
0.4142135623731
 10
-977.6017113017238
 20
337.6908206221083
 42
0.4142135623731
 10
-977.1017113017239
 20
337.1908206221083
 42
0.4142135623731
  0
LWPOLYLINE
  5
190
330
1F
100
AcDbEntity
  8
その他
  6
Continuous
 62
     7
370
     9
100
AcDbPolyline
 90
        4
 70
     1
 43
1.0
 10
-987.8519233929995
 20
253.9932937173971
 42
0.4142135623731
 10
-988.3519233929995
 20
254.4932937173971
 42
0.4142135623731
 10
-988.8519233929994
 20
253.9932937173971
 42
0.4142135623731
 10
-988.3519233929995
 20
253.4932937173971
 42
0.4142135623731
  0
LINE
  5
191
330
1F
100
AcDbEntity
  8
その他
  6
Continuous
 62
     7
370
     9
100
AcDbLine
 10
-988.3519233929995
 20
256.9932937173971
 30
0.0
 11
-988.3519233929995
 21
57.4969641614139
 31
0.0
  0
LINE
  5
192
330
1F
100
AcDbEntity
  8
仕上
  6
Continuous
 62
     7
370
     9
100
AcDbLine
 10
-977.1017113017239
 20
340.6908206221083
 30
0.0
 11
-977.1017113017239
 21
57.4969641614139
 31
0.0
  0
LINE
  5
193
330
1F
100
AcDbEntity
  8
寸法
  6
Continuous
 62
     7
370
     9
100
AcDbLine
 10
-663.5125066524746
 20
484.1880461477214
 30
0.0
 11
-195.707328061104
 21
484.1880461477214
 31
0.0
  0
TEXT
  5
194
330
1F
100
AcDbEntity
  8
寸法
  6
Continuous
 62
     7
370
     0
100
AcDbText
 10
327.0562530240819
 20
295.4687109244873
 30
0.0
 40
22.86
  1
ＳＳ４００（溶融亜鉛めっき）
 41
1.154761904761905
  7
ＭＳ ゴシック
100
AcDbText
  0
LINE
  5
195
330
1F
100
AcDbEntity
  8
寸法
  6
Continuous
 62
     7
370
     9
100
AcDbLine
 10
322.099520753518
 20
326.3747970675757
 30
0.0
 11
815.9552953698777
 21
326.3747970675757
 31
0.0
  0
TEXT
  5
196
330
1F
100
AcDbEntity
  8
寸法
  6
Continuous
 62
     7
370
     0
100
AcDbText
 10
-660.4805304239841
 20
495.8194413599702
 30
0.0
 40
22.86
  1
受枠：Ｌ－８３Ｚ，ｔ＝６.０
 41
1.154320987654321
  7
ＭＳ ゴシック
100
AcDbText
  0
TEXT
  5
197
330
1F
100
AcDbEntity
  8
寸法
  6
Continuous
 62
     7
370
     0
100
AcDbText
 10
-665.0155270927473
 20
451.3732311980192
 30
0.0
 40
22.86
  1
ＳＰＨＣ（溶融亜鉛めっき）
 50
0.0000630100335
 41
1.153846153846154
  7
ＭＳ ゴシック
100
AcDbText
  0
LINE
  5
198
330
1F
100
AcDbEntity
  8
その他
  6
Continuous
 62
     7
370
     9
100
AcDbLine
 10
-1968.351499210448
 20
253.9932937173971
 30
0.0
 11
-988.3519233929995
 21
253.9932937173971
 31
0.0
  0
TEXT
  5
199
330
1F
100
AcDbEntity
  8
その他
  6
Continuous
 62
     2
370
   211
100
AcDbText
 10
-1510.851711301724
 20
265.633293717397
 30
0.0
 40
30.48
  1
392
 41
1.083333333333333
  7
ＭＳ ゴシック
100
AcDbText
  0
LINE
  5
19A
330
1F
100
AcDbEntity
  8
仕上
  6
Continuous
 62
     7
370
     9
100
AcDbLine
 10
-1979.601711301722
 20
337.6908206221083
 30
0.0
 11
-977.1017113017239
 21
337.6908206221083
 31
0.0
  0
TEXT
  5
19B
330
1F
100
AcDbEntity
  8
仕上
  6
Continuous
 62
     2
370
   211
100
AcDbText
 10
-1510.851711301723
 20
349.3308206221082
 30
0.0
 40
30.48
  1
401
 41
1.083333333333333
  7
ＭＳ ゴシック
100
AcDbText
  0
LINE
  5
19C
330
1F
100
AcDbEntity
  8
その他
  6
Continuous
 62
     7
370
     9
100
AcDbLine
 10
-2003.351680371745
 20
-1249.05349038492
 30
0.0
 11
-1753.351690681738
 21
-1249.05349038492
 31
0.0
  0
LWPOLYLINE
  5
19D
330
1F
100
AcDbEntity
  8
その他
  6
Continuous
 62
     7
370
     9
100
AcDbPolyline
 90
        4
 70
     1
 43
1.0
 10
-2002.851680371745
 20
-1249.05349038492
 42
0.4142135623731
 10
-2003.351680371745
 20
-1248.55349038492
 42
0.4142135623731
 10
-2003.851680371745
 20
-1249.05349038492
 42
0.4142135623731
 10
-2003.351680371745
 20
-1249.55349038492
 42
0.4142135623731
  0
LWPOLYLINE
  5
19E
330
1F
100
AcDbEntity
  8
その他
  6
Continuous
 62
     7
370
     9
100
AcDbPolyline
 90
        4
 70
     1
 43
1.0
 10
-1752.851690681738
 20
-1249.05349038492
 42
0.4142135623731
 10
-1753.351690681738
 20
-1248.55349038492
 42
0.4142135623731
 10
-1753.851690681738
 20
-1249.05349038492
 42
0.4142135623731
 10
-1753.351690681738
 20
-1249.55349038492
 42
0.4142135623731
  0
LINE
  5
19F
330
1F
100
AcDbEntity
  8
その他
  6
Continuous
 62
     7
370
     9
100
AcDbLine
 10
-2003.351680371745
 20
-1252.053490384919
 30
0.0
 11
-2003.351680371745
 21
-1029.910751611756
 31
0.0
  0
TEXT
  5
1A0
330
1F
100
AcDbEntity
  8
その他
  6
Continuous
 62
     2
370
   211
100
AcDbText
 10
-1910.851685526741
 20
-1237.413490384919
 30
0.0
 40
30.48
  1
100
 41
1.083333333333333
  7
ＭＳ ゴシック
100
AcDbText
  0
LINE
  5
1A1
330
1F
100
AcDbEntity
  8
その他
  6
Continuous
 62
     7
370
     9
100
AcDbLine
 10
-1753.351690681738
 20
-1252.053490384919
 30
0.0
 11
-1753.351690681738
 21
-1140.868285488698
 31
0.0
  0
LWPOLYLINE
  5
1A2
330
1F
100
AcDbEntity
  8
その他
  6
Continuous
 62
     7
370
     9
100
AcDbPolyline
 90
        4
 70
     1
 43
1.0
 10
-1202.851577271819
 20
-1249.05349038492
 42
0.4142135623731
 10
-1203.351577271819
 20
-1248.55349038492
 42
0.4142135623731
 10
-1203.851577271819
 20
-1249.05349038492
 42
0.4142135623731
 10
-1203.351577271819
 20
-1249.55349038492
 42
0.4142135623731
  0
LINE
  5
1A3
330
1F
100
AcDbEntity
  8
その他
  6
Continuous
 62
     7
370
     9
100
AcDbLine
 10
-1203.351577271819
 20
-1249.05349038492
 30
0.0
 11
-953.35161851179
 21
-1249.05349038492
 31
0.0
  0
LWPOLYLINE
  5
1A4
330
1F
100
AcDbEntity
  8
その他
  6
Continuous
 62
     7
370
     9
100
AcDbPolyline
 90
        4
 70
     1
 43
1.0
 10
-952.85161851179
 20
-1249.05349038492
 42
0.4142135623731
 10
-953.35161851179
 20
-1248.55349038492
 42
0.4142135623731
 10
-953.8516185117899
 20
-1249.05349038492
 42
0.4142135623731
 10
-953.35161851179
 20
-1249.55349038492
 42
0.4142135623731
  0
LINE
  5
1A5
330
1F
100
AcDbEntity
  8
その他
  6
Continuous
 62
     7
370
     9
100
AcDbLine
 10
-953.35161851179
 20
-1252.053490384919
 30
0.0
 11
-953.35161851179
 21
-1029.910751611756
 31
0.0
  0
TEXT
  5
1A6
330
1F
100
AcDbEntity
  8
その他
  6
Continuous
 62
     2
370
   211
100
AcDbText
 10
-1110.851597891804
 20
-1237.413490384919
 30
0.0
 40
30.48
  1
100
 41
1.083333333333333
  7
ＭＳ ゴシック
100
AcDbText
  0
LINE
  5
1A7
330
1F
100
AcDbEntity
  8
その他
  6
Continuous
 62
     7
370
     9
100
AcDbLine
 10
-1203.351577271819
 20
-1252.053490384919
 30
0.0
 11
-1203.351577271819
 21
-1140.868285488698
 31
0.0
  0
LINE
  5
1A8
330
1F
100
AcDbEntity
  8
その他
  6
Continuous
 62
     7
370
     9
100
AcDbLine
 10
-1753.351690681738
 20
-1249.05349038492
 30
0.0
 11
-1203.351577271819
 21
-1249.05349038492
 31
0.0
  0
TEXT
  5
1A9
330
1F
100
AcDbEntity
  8
その他
  6
Continuous
 62
     2
370
   211
100
AcDbText
 10
-1510.851633976779
 20
-1237.413490384919
 30
0.0
 40
30.48
  1
220
 41
1.083333333333333
  7
ＭＳ ゴシック
100
AcDbText
  0
LINE
  5
1AA
330
1F
100
AcDbEntity
  8
F-Fﾚｲﾔ
  6
Continuous
 62
     7
370
     9
100
AcDbLine
 10
2723.20033666902
 20
1918.046704404711
 30
0.0
 11
2723.20033666902
 21
948.0467044047111
 31
0.0
  0
LINE
  5
1AB
330
1F
100
AcDbEntity
  8
F-Fﾚｲﾔ
  6
Continuous
 62
     7
370
     9
100
AcDbLine
 10
2723.20033666902
 20
817.2459468491672
 30
0.0
 11
2723.20033666902
 21
407.245946849167
 31
0.0
  0
LINE
  5
1AC
330
1F
100
AcDbEntity
  8
F-Fﾚｲﾔ
  6
Continuous
 62
     7
370
     9
100
AcDbLine
 10
1138.917897190122
 20
1918.046704404711
 30
0.0
 11
2723.20033666902
 21
1918.046704404711
 31
0.0
  0
TEXT
  5
1AD
330
1F
100
AcDbEntity
  8
F-Fﾚｲﾔ
  6
Continuous
 62
     2
370
     9
100
AcDbText
 10
1560.741428407212
 20
1133.686704404711
 30
0.0
 40
30.48
  1
寸法 幅420×長さ420×高さ88.7
 41
1.120689655172413
  7
ＭＳ ゴシック
100
AcDbText
  0
LINE
  5
1AE
330
1F
100
AcDbEntity
  8
F-Fﾚｲﾔ
  6
Continuous
 62
     7
370
     9
100
AcDbLine
 10
1138.917897190122
 20
948.0467044047111
 30
0.0
 11
2723.20033666902
 21
948.0467044047111
 31
0.0
  0
LINE
  5
1AF
330
1F
100
AcDbEntity
  8
F-Fﾚｲﾔ
  6
Continuous
 62
     7
370
     9
100
AcDbLine
 10
1138.917897190122
 20
1918.046704404711
 30
0.0
 11
1138.917897190122
 21
948.0467044047111
 31
0.0
  0
LINE
  5
1B0
330
1F
100
AcDbEntity
  8
F-Fﾚｲﾔ
  6
Continuous
 62
     7
370
     9
100
AcDbLine
 10
1138.917897190122
 20
1758.046704404711
 30
0.0
 11
2723.20033666902
 21
1758.046704404711
 31
0.0
  0
LINE
  5
1B1
330
1F
100
AcDbEntity
  8
F-Fﾚｲﾔ
  6
Continuous
 62
     7
370
     9
100
AcDbLine
 10
1138.917897190122
 20
1748.046704404711
 30
0.0
 11
2723.20033666902
 21
1748.046704404711
 31
0.0
  0
LINE
  5
1B2
330
1F
100
AcDbEntity
  8
F-Fﾚｲﾔ
  6
Continuous
 62
     7
370
     9
100
AcDbLine
 10
1138.917897190122
 20
1668.046704404711
 30
0.0
 11
2723.20033666902
 21
1668.046704404711
 31
0.0
  0
LINE
  5
1B3
330
1F
100
AcDbEntity
  8
F-Fﾚｲﾔ
  6
Continuous
 62
     7
370
     9
100
AcDbLine
 10
1138.917897190122
 20
1268.04670440471
 30
0.0
 11
2723.20033666902
 21
1268.04670440471
 31
0.0
  0
LINE
  5
1B4
330
1F
100
AcDbEntity
  8
F-Fﾚｲﾔ
  6
Continuous
 62
     7
370
     9
100
AcDbLine
 10
1138.917897190122
 20
1108.046704404711
 30
0.0
 11
2723.20033666902
 21
1108.046704404711
 31
0.0
  0
TEXT
  5
1B5
330
1F
100
AcDbEntity
  8
F-Fﾚｲﾔ
  6
Continuous
 62
     2
370
     9
100
AcDbText
 10
1165.535122336275
 20
1693.686704404711
 30
0.0
 40
30.48
  1
適用桝
 41
1.083333333333333
  7
ＭＳ ゴシック
100
AcDbText
  0
TEXT
  5
1B6
330
1F
100
AcDbEntity
  8
F-Fﾚｲﾔ
  6
Continuous
 62
     2
370
     9
100
AcDbText
 10
1165.535122336275
 20
1613.686704404711
 30
0.0
 40
30.48
  1
蓋
 41
0.9999999999999998
  7
ＭＳ ゴシック
100
AcDbText
  0
TEXT
  5
1B7
330
1F
100
AcDbEntity
  8
F-Fﾚｲﾔ
  6
Continuous
 62
     2
370
     9
100
AcDbText
 10
1165.535122336275
 20
1213.686704404711
 30
0.0
 40
30.48
  1
受枠
 41
1.0625
  7
ＭＳ ゴシック
100
AcDbText
  0
TEXT
  5
1B8
330
1F
100
AcDbEntity
  8
F-Fﾚｲﾔ
  6
Continuous
 62
     2
370
     9
100
AcDbText
 10
1165.535122336275
 20
1053.686704404711
 30
0.0
 40
30.48
  1
品番
 41
1.0625
  7
ＭＳ ゴシック
100
AcDbText
  0
LINE
  5
1B9
330
1F
100
AcDbEntity
  8
F-Fﾚｲﾔ
  6
Continuous
 62
     7
370
     9
100
AcDbLine
 10
1519.406526513188
 20
1918.046704404711
 30
0.0
 11
1519.406526513188
 21
948.0467044047111
 31
0.0
  0
TEXT
  5
1BA
330
1F
100
AcDbEntity
  8
F-5ﾚｲﾔ
  6
Continuous
 62
     2
370
     9
100
AcDbText
 10
1560.741428407212
 20
1693.686704404711
 30
0.0
 40
30.48
  1
桝内径　300mm
 41
1.115384615384615
  7
ＭＳ ゴシック
100
AcDbText
  0
TEXT
  5
1BB
330
1F
100
AcDbEntity
  8
F-5ﾚｲﾔ
  6
Continuous
 62
     2
370
     9
100
AcDbText
 10
1560.741428407212
 20
1613.686704404711
 30
0.0
 40
30.48
  1
スチール製 溶融亜鉛めっき
 41
1.115
  7
ＭＳ ゴシック
100
AcDbText
  0
TEXT
  5
1BC
330
1F
100
AcDbEntity
  8
F-5ﾚｲﾔ
  6
Continuous
 62
     2
370
     9
100
AcDbText
 10
1560.741428407212
 20
1453.686704404711
 30
0.0
 40
30.48
  1
目地すきま 6mm
 41
1.116071428571428
  7
ＭＳ ゴシック
100
AcDbText
  0
TEXT
  5
1BD
330
1F
100
AcDbEntity
  8
F-Fﾚｲﾔ
  6
Continuous
 62
     2
370
     9
100
AcDbText
 10
1560.741428407212
 20
1053.686704404711
 30
0.0
 40
30.48
  1
カネソウ　カラー舗装用みぞ蓋
 41
1.116071428571428
  7
ＭＳ ゴシック
100
AcDbText
  0
LINE
  5
1BE
330
1F
100
AcDbEntity
  8
F-Fﾚｲﾔ
  6
Continuous
 62
     7
370
     9
100
AcDbLine
 10
1519.406526513188
 20
1588.04670440471
 30
0.0
 11
2723.20033666902
 21
1588.04670440471
 31
0.0
  0
LINE
  5
1BF
330
1F
100
AcDbEntity
  8
F-Fﾚｲﾔ
  6
Continuous
 62
     7
370
     9
100
AcDbLine
 10
1519.406526513188
 20
1508.04670440471
 30
0.0
 11
2723.20033666902
 21
1508.04670440471
 31
0.0
  0
LINE
  5
1C0
330
1F
100
AcDbEntity
  8
F-Fﾚｲﾔ
  6
Continuous
 62
     7
370
     9
100
AcDbLine
 10
1519.406526513188
 20
1428.04670440471
 30
0.0
 11
2723.20033666902
 21
1428.04670440471
 31
0.0
  0
LINE
  5
1C1
330
1F
100
AcDbEntity
  8
F-Fﾚｲﾔ
  6
Continuous
 62
     7
370
     9
100
AcDbLine
 10
1519.406526513188
 20
1348.04670440471
 30
0.0
 11
2723.20033666902
 21
1348.04670440471
 31
0.0
  0
LINE
  5
1C2
330
1F
100
AcDbEntity
  8
F-Fﾚｲﾔ
  6
Continuous
 62
     7
370
     9
100
AcDbLine
 10
1519.406526513188
 20
1188.046704404711
 30
0.0
 11
2723.20033666902
 21
1188.046704404711
 31
0.0
  0
TEXT
  5
1C3
330
1F
100
AcDbEntity
  8
F-Fﾚｲﾔ
  6
Continuous
 62
     2
370
     9
100
AcDbText
 10
1165.535122336273
 20
762.8860004933475
 30
0.0
 40
30.48
  1
強度性能
 41
1.09375
  7
ＭＳ ゴシック
100
AcDbText
  0
LINE
  5
1C4
330
1F
100
AcDbEntity
  8
F-Fﾚｲﾔ
  6
Continuous
 62
     7
370
     9
100
AcDbLine
 10
1138.917897190122
 20
817.2459468491672
 30
0.0
 11
1138.917897190122
 21
407.245946849167
 31
0.0
  0
TEXT
  5
1C5
330
1F
100
AcDbEntity
  8
F-Fﾚｲﾔ
  6
Continuous
 62
     2
370
     9
100
AcDbText
 10
1165.535122336273
 20
672.8859468491672
 30
0.0
 40
30.48
  1
強度
 41
1.0625
  7
ＭＳ ゴシック
100
AcDbText
  0
TEXT
  5
1C6
330
1F
100
AcDbEntity
  8
F-Fﾚｲﾔ
  6
Continuous
 62
     2
370
     9
100
AcDbText
 10
1165.535122336273
 20
512.885946849167
 30
0.0
 40
30.48
  1
主な使用場所
 41
1.104166666666667
  7
ＭＳ ゴシック
100
AcDbText
  0
TEXT
  5
1C7
330
1F
100
AcDbEntity
  8
F-Fﾚｲﾔ
  6
Continuous
 62
     2
370
     9
100
AcDbText
 10
1165.535122336273
 20
432.8859468491669
 30
0.0
 40
30.48
  1
荷重
 41
1.0625
  7
ＭＳ ゴシック
100
AcDbText
  0
LINE
  5
1C8
330
1F
100
AcDbEntity
  8
F-Fﾚｲﾔ
  6
Continuous
 62
     7
370
     9
100
AcDbLine
 10
1519.406526513188
 20
737.2459468491672
 30
0.0
 11
1519.406526513188
 21
407.245946849167
 31
0.0
  0
TEXT
  5
1C9
330
1F
100
AcDbEntity
  8
F-Fﾚｲﾔ
  6
Continuous
 62
     2
370
     9
100
AcDbText
 10
1560.741428407212
 20
672.8859468491672
 30
0.0
 40
30.48
  1
歩行用：5.0kN/㎡(等分布荷重）
 41
1.116379310344827
  7
ＭＳ ゴシック
100
AcDbText
  0
TEXT
  5
1CA
330
1F
100
AcDbEntity
  8
F-Fﾚｲﾔ
  6
Continuous
 62
     2
370
     9
100
AcDbText
 10
1560.741428407212
 20
592.885946849167
 30
0.0
 40
30.48
  1
　 　 　道路橋示方書　歩道等の群集荷重
 41
1.118421052631579
  7
ＭＳ ゴシック
100
AcDbText
  0
TEXT
  5
1CB
330
1F
100
AcDbEntity
  8
F-Fﾚｲﾔ
  6
Continuous
 62
     2
370
     9
100
AcDbText
 10
1560.741428407212
 20
512.885946849167
 30
0.0
 40
30.48
  1
歩道、建物内、犬走り
 41
1.1125
  7
ＭＳ ゴシック
100
AcDbText
  0
TEXT
  5
1CC
330
1F
100
AcDbEntity
  8
F-Fﾚｲﾔ
  6
Continuous
 62
     2
370
     9
100
AcDbText
 10
1560.741428407212
 20
432.8859468491669
 30
0.0
 40
30.48
  1
5.0kN/㎡
 41
1.09375
  7
ＭＳ ゴシック
100
AcDbText
  0
LINE
  5
1CD
330
1F
100
AcDbEntity
  8
F-Fﾚｲﾔ
  6
Continuous
 62
     7
370
     9
100
AcDbLine
 10
1138.917897190122
 20
817.2459468491672
 30
0.0
 11
2723.20033666902
 21
817.2459468491672
 31
0.0
  0
LINE
  5
1CE
330
1F
100
AcDbEntity
  8
F-Fﾚｲﾔ
  6
Continuous
 62
     7
370
     9
100
AcDbLine
 10
1138.917897190122
 20
737.2459468491672
 30
0.0
 11
2723.20033666902
 21
737.2459468491672
 31
0.0
  0
LINE
  5
1CF
330
1F
100
AcDbEntity
  8
F-Fﾚｲﾔ
  6
Continuous
 62
     7
370
     9
100
AcDbLine
 10
1138.917897190122
 20
727.2459468491672
 30
0.0
 11
2723.20033666902
 21
727.2459468491672
 31
0.0
  0
LINE
  5
1D0
330
1F
100
AcDbEntity
  8
F-5ﾚｲﾔ
  6
Continuous
 62
     7
370
     9
100
AcDbLine
 10
1138.917897190122
 20
567.245946849167
 30
0.0
 11
2723.20033666902
 21
567.245946849167
 31
0.0
  0
LINE
  5
1D1
330
1F
100
AcDbEntity
  8
F-Fﾚｲﾔ
  6
Continuous
 62
     7
370
     9
100
AcDbLine
 10
1138.917897190122
 20
567.245946849167
 30
0.0
 11
2723.20033666902
 21
567.245946849167
 31
0.0
  0
LINE
  5
1D2
330
1F
100
AcDbEntity
  8
F-Fﾚｲﾔ
  6
Continuous
 62
     7
370
     9
100
AcDbLine
 10
1138.917897190122
 20
407.245946849167
 30
0.0
 11
2723.20033666902
 21
407.245946849167
 31
0.0
  0
LINE
  5
1D3
330
1F
100
AcDbEntity
  8
F-Fﾚｲﾔ
  6
Continuous
 62
     7
370
     9
100
AcDbLine
 10
1138.917897190122
 20
487.245946849167
 30
0.0
 11
2723.20033666902
 21
487.245946849167
 31
0.0
  0
TEXT
  5
1D4
330
1F
100
AcDbEntity
  8
F-Fﾚｲﾔ
  6
Continuous
 62
     2
370
     9
100
AcDbText
 10
1560.741428407212
 20
1373.686704404711
 30
0.0
 40
30.48
  1
寸法 幅401×長さ401×高さ82.7
 41
1.120689655172413
  7
ＭＳ ゴシック
100
AcDbText
  0
TEXT
  5
1D5
330
1F
100
AcDbEntity
  8
F-5ﾚｲﾔ
  6
Continuous
 62
     2
370
     9
100
AcDbText
 10
1560.741428407212
 20
1533.686704404711
 30
0.0
 40
30.48
  1
充填深さ 65mm
 41
1.115384615384615
  7
ＭＳ ゴシック
100
AcDbText
  0
TEXT
  5
1D6
330
1F
100
AcDbEntity
  8
F-Fﾚｲﾔ
  6
Continuous
 62
     2
370
     9
100
AcDbText
 10
1560.741428407212
 20
1293.686704404711
 30
0.0
 40
30.48
  1
蓋質量　9.4kg
 41
1.115384615384615
  7
ＭＳ ゴシック
100
AcDbText
  0
TEXT
  5
1D7
330
1F
100
AcDbEntity
  8
F-Fﾚｲﾔ
  6
Continuous
 62
     2
370
     9
100
AcDbText
 10
1560.741428407212
 20
1213.686704404711
 30
0.0
 40
30.48
  1
スチール製 溶融亜鉛めっき
 41
1.115
  7
ＭＳ ゴシック
100
AcDbText
  0
TEXT
  5
1D8
330
1F
100
AcDbEntity
  8
F-Fﾚｲﾔ
  6
Continuous
 62
     2
370
     9
100
AcDbText
 10
1560.741428407212
 20
973.6867044047111
 30
0.0
 40
30.48
  1
集水桝用：HISW-M-300-Z
 41
1.119318181818182
  7
ＭＳ ゴシック
100
AcDbText
  0
TEXT
  5
1D9
330
1F
100
AcDbEntity
  8
F-Fﾚｲﾔ
  6
Continuous
 62
     2
370
     9
100
AcDbText
 10
1165.535122336275
 20
1863.686704404711
 30
0.0
 40
30.48
  1
名称
 41
1.0625
  7
ＭＳ ゴシック
100
AcDbText
  0
TEXT
  5
1DA
330
1F
100
AcDbEntity
  8
F-5ﾚｲﾔ
  6
Continuous
 62
     2
370
     9
100
AcDbText
 10
1560.741428407212
 20
1783.686704404711
 30
0.0
 40
30.48
  1
集水桝用
 41
1.09375
  7
ＭＳ ゴシック
100
AcDbText
  0
TEXT
  5
1DB
330
1F
100
AcDbEntity
  8
F-5ﾚｲﾔ
  6
Continuous
 62
     2
370
     9
100
AcDbText
 10
1560.741428407212
 20
1863.686704404711
 30
0.0
 40
30.48
  1
化粧用スリットみぞ蓋　インターロッキングブロック用
 41
1.12
  7
ＭＳ ゴシック
100
AcDbText
  0
TEXT
  5
1DC
330
1F
100
AcDbEntity
  8
F-4ﾚｲﾔ
  6
Continuous
 62
     2
370
     9
100
AcDbText
 10
-412.5667908461951
 20
-1897.527098519166
 30
0.0
 40
30.48
  1
カラー舗装用みぞ蓋　インターロッキングブロック用　充填深さ６５ｍｍ　スチール製
 41
1.121794871794872
  7
ＭＳ ゴシック
100
AcDbText
  0
TEXT
  5
1DD
330
1F
100
AcDbEntity
  8
F-4ﾚｲﾔ
  6
Continuous
 62
     2
370
     9
100
AcDbText
 10
581.6827160725142
 20
-1944.599710615585
 30
0.0
 40
30.48
  1
集水桝用　ＨＩＳＷ－Ｍ－３００－Ｚ
 41
1.117647058823529
  7
ＭＳ ゴシック
100
AcDbText
  0
ENDSEC
  0
SECTION
  2
OBJECTS
  0
DICTIONARY
  5
C
330
0
100
AcDbDictionary
281
     1
  3
ACAD_GROUP
350
D
  3
ACAD_LAYOUT
350
1A
  3
ACAD_MLEADERSTYLE
350
1DF
  3
ACAD_MLINESTYLE
350
17
  3
ACAD_PLOTSETTINGS
350
19
  3
ACAD_PLOTSTYLENAME
350
E
  3
ACAD_TABLESTYLE
350
1DE
  3
ACAD_VISUALSTYLE
350
2A
  0
DICTIONARY
  5
D
102
{ACAD_REACTORS
330
C
102
}
330
C
100
AcDbDictionary
281
     1
  0
DICTIONARY
  5
1A
102
{ACAD_REACTORS
330
C
102
}
330
C
100
AcDbDictionary
281
     1
  3
Layout1
350
1E
  3
Layout2
350
26
  3
Model
350
22
  0
DICTIONARY
  5
1DF
102
{ACAD_REACTORS
330
C
102
}
330
C
100
AcDbDictionary
281
     1
  0
DICTIONARY
  5
17
102
{ACAD_REACTORS
330
C
102
}
330
C
100
AcDbDictionary
281
     1
  3
Standard
350
18
  0
DICTIONARY
  5
19
102
{ACAD_REACTORS
330
C
102
}
330
C
100
AcDbDictionary
281
     1
  0
ACDBDICTIONARYWDFLT
  5
E
102
{ACAD_REACTORS
330
C
102
}
330
C
100
AcDbDictionary
281
     1
  3
Normal
350
F
100
AcDbDictionaryWithDefault
340
F
  0
DICTIONARY
  5
1DE
102
{ACAD_REACTORS
330
C
102
}
330
C
100
AcDbDictionary
281
     1
  0
DICTIONARY
  5
2A
102
{ACAD_REACTORS
330
C
102
}
330
C
100
AcDbDictionary
281
     1
  3
2dWireframe
350
2F
  3
3D Hidden
350
31
  3
3dWireframe
350
30
  3
Basic
350
32
  3
Brighten
350
36
  3
ColorChange
350
3A
  3
Conceptual
350
34
  3
Dim
350
35
  3
Facepattern
350
39
  3
Flat
350
2B
  3
FlatWithEdges
350
2C
  3
Gouraud
350
2D
  3
GouraudWithEdges
350
2E
  3
Linepattern
350
38
  3
Realistic
350
33
  3
Thicken
350
37
  0
LAYOUT
  5
1E
102
{ACAD_REACTORS
330
1A
102
}
330
1A
100
AcDbPlotSettings
  1

  2
none_device
  4

  6

 40
0.0
 41
0.0
 42
0.0
 43
0.0
 44
0.0
 45
0.0
 46
0.0
 47
0.0
 48
0.0
 49
0.0
140
0.0
141
0.0
142
1.0
143
1.0
 70
   688
 72
     0
 73
     0
 74
     5
  7

 75
    16
 76
     0
 77
     5
 78
   300
147
1.0
148
0.0
149
0.0
100
AcDbLayout
  1
Layout1
 70
     1
 71
     1
 10
0.0
 20
0.0
 11
420.0
 21
297.0
 12
0.0
 22
0.0
 32
0.0
 14
1.000000000000000E+20
 24
1.000000000000000E+20
 34
1.000000000000000E+20
 15
-1.000000000000000E+20
 25
-1.000000000000000E+20
 35
-1.000000000000000E+20
146
0.0
 13
0.0
 23
0.0
 33
0.0
 16
1.0
 26
0.0
 36
0.0
 17
0.0
 27
1.0
 37
0.0
 76
     0
330
1B
  0
LAYOUT
  5
26
102
{ACAD_REACTORS
330
1A
102
}
330
1A
100
AcDbPlotSettings
  1

  2
none_device
  4

  6

 40
0.0
 41
0.0
 42
0.0
 43
0.0
 44
0.0
 45
0.0
 46
0.0
 47
0.0
 48
0.0
 49
0.0
140
0.0
141
0.0
142
1.0
143
1.0
 70
   688
 72
     0
 73
     0
 74
     5
  7

 75
    16
 76
     0
 77
     5
 78
   300
147
1.0
148
0.0
149
0.0
100
AcDbLayout
  1
Layout2
 70
     1
 71
     2
 10
0.0
 20
0.0
 11
0.0
 21
0.0
 12
0.0
 22
0.0
 32
0.0
 14
0.0
 24
0.0
 34
0.0
 15
0.0
 25
0.0
 35
0.0
146
0.0
 13
0.0
 23
0.0
 33
0.0
 16
1.0
 26
0.0
 36
0.0
 17
0.0
 27
1.0
 37
0.0
 76
     0
330
23
  0
LAYOUT
  5
22
102
{ACAD_REACTORS
330
1A
102
}
330
1A
100
AcDbPlotSettings
  1

  2
none_device
  4

  6

 40
0.0
 41
0.0
 42
0.0
 43
0.0
 44
0.0
 45
0.0
 46
0.0
 47
0.0
 48
0.0
 49
0.0
140
0.0
141
0.0
142
1.0
143
1.0
 70
  1712
 72
     0
 73
     0
 74
     0
  7

 75
     0
 76
     0
 77
     5
 78
   300
147
1.0
148
0.0
149
0.0
100
AcDbLayout
  1
Model
 70
     1
 71
     0
 10
-2970.0
 20
-2100.0
 11
2970.0
 21
2100.0
 12
0.0
 22
0.0
 32
0.0
 14
-2970.0
 24
-2100.0
 34
0.0
 15
2970.0
 25
2100.0
 35
0.0
146
0.0
 13
0.0
 23
0.0
 33
0.0
 16
1.0
 26
0.0
 36
0.0
 17
0.0
 27
1.0
 37
0.0
 76
     0
330
1F
331
29
  0
MLINESTYLE
  5
18
102
{ACAD_REACTORS
330
17
102
}
330
17
100
AcDbMlineStyle
  2
Standard
 70
     0
  3

 62
   256
 51
90.0
 52
90.0
 71
     2
 49
0.5
 62
   256
  6
BYLAYER
 49
-0.5
 62
   256
  6
BYLAYER
  0
ACDBPLACEHOLDER
  5
F
102
{ACAD_REACTORS
330
E
102
}
330
E
  0
VISUALSTYLE
  5
2F
102
{ACAD_REACTORS
330
2A
102
}
330
2A
100
AcDbVisualStyle
  2
2dWireframe
 70
     4
 71
     0
 72
     2
 73
     0
 90
        0
 40
-0.6
 41
-30.0
 62
     5
 63
     7
421
 16777215
 74
     1
 91
        4
 64
     7
 65
   257
 75
     1
175
     1
 42
1.0
 92
        0
 66
   257
 43
1.0
 76
     1
 77
     6
 78
     2
 67
     7
 79
     5
170
     0
171
     0
290
     0
174
     0
 93
        1
 44
0.0
173
     0
291
     0
 45
0.0
  0
VISUALSTYLE
  5
31
102
{ACAD_REACTORS
330
2A
102
}
330
2A
100
AcDbVisualStyle
  2
3D Hidden
 70
     6
 71
     1
 72
     2
 73
     2
 90
        0
 40
-0.6
 41
-30.0
 62
     5
 63
     7
421
 16777215
 74
     2
 91
        2
 64
     7
 65
   257
 75
     2
175
     1
 42
40.0
 92
        0
 66
   257
 43
1.0
 76
     1
 77
     6
 78
     2
 67
     7
 79
     3
170
     0
171
     0
290
     0
174
     0
 93
        1
 44
0.0
173
     0
291
     0
 45
0.0
  0
VISUALSTYLE
  5
30
102
{ACAD_REACTORS
330
2A
102
}
330
2A
100
AcDbVisualStyle
  2
3dWireframe
 70
     5
 71
     0
 72
     2
 73
     0
 90
        0
 40
-0.6
 41
-30.0
 62
     5
 63
     7
421
 16777215
 74
     1
 91
        4
 64
     7
 65
   257
 75
     1
175
     1
 42
1.0
 92
        0
 66
   257
 43
1.0
 76
     1
 77
     6
 78
     2
 67
     7
 79
     5
170
     0
171
     0
290
     0
174
     0
 93
        1
 44
0.0
173
     0
291
     0
 45
0.0
  0
VISUALSTYLE
  5
32
102
{ACAD_REACTORS
330
2A
102
}
330
2A
100
AcDbVisualStyle
  2
Basic
 70
     7
 71
     1
 72
     0
 73
     1
 90
        0
 40
-0.6
 41
-30.0
 62
     5
 63
     7
421
 16777215
 74
     0
 91
        4
 64
     7
 65
   257
 75
     1
175
     1
 42
1.0
 92
        8
 66
     7
 43
1.0
 76
     1
 77
     6
 78
     2
 67
     7
 79
     5
170
     0
171
     0
290
     0
174
     0
 93
        1
 44
0.0
173
     0
291
     1
 45
0.0
  0
VISUALSTYLE
  5
36
102
{ACAD_REACTORS
330
2A
102
}
330
2A
100
AcDbVisualStyle
  2
Brighten
 70
    12
 71
     2
 72
     2
 73
     0
 90
        0
 40
-0.6
 41
-30.0
 62
     5
 63
     7
421
 16777215
 74
     1
 91
        4
 64
     7
 65
   257
 75
     1
175
     1
 42
1.0
 92
        8
 66
     7
 43
1.0
 76
     1
 77
     6
 78
     2
 67
     7
 79
     5
170
     0
171
     0
290
     0
174
     0
 93
        1
 44
50.0
173
     0
291
     1
 45
0.0
  0
VISUALSTYLE
  5
3A
102
{ACAD_REACTORS
330
2A
102
}
330
2A
100
AcDbVisualStyle
  2
ColorChange
 70
    16
 71
     2
 72
     2
 73
     3
 90
        0
 40
-0.6
 41
-30.0
 62
     5
 63
     8
421
  8421504
 74
     1
 91
        4
 64
     7
 65
   257
 75
     1
175
     1
 42
1.0
 92
        8
 66
     8
424
  8421504
 43
1.0
 76
     1
 77
     6
 78
     2
 67
     7
 79
     5
170
     0
171
     0
290
     0
174
     0
 93
        1
 44
0.0
173
     0
291
     1
 45
0.0
  0
VISUALSTYLE
  5
34
102
{ACAD_REACTORS
330
2A
102
}
330
2A
100
AcDbVisualStyle
  2
Conceptual
 70
     9
 71
     3
 72
     2
 73
     0
 90
        0
 40
-0.6
 41
-30.0
 62
     5
 63
     7
421
 16777215
 74
     2
 91
        2
 64
     7
 65
   257
 75
     1
175
     1
 42
40.0
 92
        8
 66
     7
 43
1.0
 76
     1
 77
     6
 78
     2
 67
     7
 79
     3
170
     0
171
     0
290
     0
174
     0
 93
        1
 44
0.0
173
     0
291
     0
 45
0.0
  0
VISUALSTYLE
  5
35
102
{ACAD_REACTORS
330
2A
102
}
330
2A
100
AcDbVisualStyle
  2
Dim
 70
    11
 71
     2
 72
     2
 73
     0
 90
        0
 40
-0.6
 41
-30.0
 62
     5
 63
     7
421
 16777215
 74
     1
 91
        4
 64
     7
 65
   257
 75
     1
175
     1
 42
1.0
 92
        8
 66
     7
 43
1.0
 76
     1
 77
     6
 78
     2
 67
     7
 79
     5
170
     0
171
     0
290
     0
174
     0
 93
        1
 44
-50.0
173
     0
291
     1
 45
0.0
  0
VISUALSTYLE
  5
39
102
{ACAD_REACTORS
330
2A
102
}
330
2A
100
AcDbVisualStyle
  2
Facepattern
 70
    15
 71
     2
 72
     2
 73
     0
 90
        0
 40
-0.6
 41
-30.0
 62
     5
 63
     7
421
 16777215
 74
     1
 91
        4
 64
     7
 65
   257
 75
     1
175
     1
 42
1.0
 92
        8
 66
     7
 43
1.0
 76
     1
 77
     6
 78
     2
 67
     7
 79
     5
170
     0
171
     0
290
     0
174
     0
 93
        1
 44
0.0
173
     0
291
     1
 45
0.0
  0
VISUALSTYLE
  5
2B
102
{ACAD_REACTORS
330
2A
102
}
330
2A
100
AcDbVisualStyle
  2
Flat
 70
     0
 71
     2
 72
     1
 73
     1
 90
        2
 40
-0.6
 41
30.0
 62
     5
 63
     7
421
 16777215
 74
     0
 91
        4
 64
     7
 65
   257
 75
     1
175
     1
 42
1.0
 92
        8
 66
     7
 43
1.0
 76
     1
 77
     6
 78
     2
 67
     7
 79
     5
170
     0
171
     0
290
     0
174
     0
 93
       13
 44
0.0
173
     0
291
     1
 45
0.0
  0
VISUALSTYLE
  5
2C
102
{ACAD_REACTORS
330
2A
102
}
330
2A
100
AcDbVisualStyle
  2
FlatWithEdges
 70
     1
 71
     2
 72
     1
 73
     1
 90
        2
 40
-0.6
 41
30.0
 62
     5
 63
     7
421
 16777215
 74
     1
 91
        4
 64
     7
 65
   257
 75
     1
175
     1
 42
1.0
 92
        0
 66
   257
 43
1.0
 76
     1
 77
     6
 78
     2
 67
     7
 79
     5
170
     0
171
     0
290
     0
174
     0
 93
       13
 44
0.0
173
     0
291
     1
 45
0.0
  0
VISUALSTYLE
  5
2D
102
{ACAD_REACTORS
330
2A
102
}
330
2A
100
AcDbVisualStyle
  2
Gouraud
 70
     2
 71
     2
 72
     2
 73
     1
 90
        2
 40
-0.6
 41
30.0
 62
     5
 63
     7
421
 16777215
 74
     0
 91
        4
 64
     7
 65
   257
 75
     1
175
     1
 42
1.0
 92
        0
 66
     7
 43
1.0
 76
     1
 77
     6
 78
     2
 67
     7
 79
     5
170
     0
171
     0
290
     0
174
     0
 93
       13
 44
0.0
173
     0
291
     1
 45
0.0
  0
VISUALSTYLE
  5
2E
102
{ACAD_REACTORS
330
2A
102
}
330
2A
100
AcDbVisualStyle
  2
GouraudWithEdges
 70
     3
 71
     2
 72
     2
 73
     1
 90
        2
 40
-0.6
 41
30.0
 62
     5
 63
     7
421
 16777215
 74
     1
 91
        4
 64
     7
 65
   257
 75
     1
175
     1
 42
1.0
 92
        0
 66
   257
 43
1.0
 76
     1
 77
     6
 78
     2
 67
     7
 79
     5
170
     0
171
     0
290
     0
174
     0
 93
       13
 44
0.0
173
     0
291
     1
 45
0.0
  0
VISUALSTYLE
  5
38
102
{ACAD_REACTORS
330
2A
102
}
330
2A
100
AcDbVisualStyle
  2
Linepattern
 70
    14
 71
     2
 72
     2
 73
     0
 90
        0
 40
-0.6
 41
-30.0
 62
     5
 63
     7
421
 16777215
 74
     1
 91
        4
 64
     7
 65
   257
 75
     7
175
     7
 42
1.0
 92
        8
 66
     7
 43
1.0
 76
     1
 77
     6
 78
     2
 67
     7
 79
     5
170
     0
171
     0
290
     0
174
     0
 93
        1
 44
0.0
173
     0
291
     1
 45
0.0
  0
VISUALSTYLE
  5
33
102
{ACAD_REACTORS
330
2A
102
}
330
2A
100
AcDbVisualStyle
  2
Realistic
 70
     8
 71
     2
 72
     2
 73
     0
 90
        0
 40
-0.6
 41
-30.0
 62
     5
 63
     7
421
 16777215
 74
     1
 91
        0
 64
     7
 65
   257
 75
     1
175
     1
 42
1.0
 92
        8
 66
     8
424
  7895160
 43
1.0
 76
     1
 77
     6
 78
     2
 67
     7
 79
     5
170
     0
171
     0
290
     0
174
     0
 93
       13
 44
0.0
173
     0
291
     0
 45
0.0
  0
VISUALSTYLE
  5
37
102
{ACAD_REACTORS
330
2A
102
}
330
2A
100
AcDbVisualStyle
  2
Thicken
 70
    13
 71
     2
 72
     2
 73
     0
 90
        0
 40
-0.6
 41
-30.0
 62
     5
 63
     7
421
 16777215
 74
     1
 91
        4
 64
     7
 65
   257
 75
     1
175
     1
 42
1.0
 92
       12
 66
     7
 43
1.0
 76
     1
 77
     6
 78
     2
 67
     7
 79
     5
170
     0
171
     0
290
     0
174
     0
 93
        1
 44
0.0
173
     0
291
     1
 45
0.0
  0
ENDSEC
  0
EOF
