  0
SECTION
  2
HEADER
  9
$ACADVER
  1
AC1018
  9
$ACADMAINTVER
 70
     0
  9
$DWGCODEPAGE
  3
ANSI_932
  9
$INSBASE
 10
0.0
 20
0.0
 30
0.0
  9
$EXTMIN
 10
-420.0
 20
-297.0
 30
0.0
  9
$EXTMAX
 10
420.0
 20
297.0
 30
0.0
  9
$LIMMIN
 10
-420.0
 20
-297.0
  9
$LIMMAX
 10
420.0
 20
297.0
  9
$ORTHOMODE
 70
     0
  9
$REGENMODE
 70
     1
  9
$FILLMODE
 70
     1
  9
$QTEXTMODE
 70
     0
  9
$MIRRTEXT
 70
     1
  9
$LTSCALE
 40
2.0
  9
$ATTMODE
 70
     1
  9
$TEXTSIZE
 40
2.5
  9
$TRACEWID
 40
1.0
  9
$TEXTSTYLE
  7
Standard
  9
$CLAYER
  8
0
  9
$CELTYPE
  6
ByLayer
  9
$CECOLOR
 62
   256
  9
$CELTSCALE
 40
1.0
  9
$DISPSILH
 70
     0
  9
$DIMSCALE
 40
1.0
  9
$DIMASZ
 40
2.5
  9
$DIMEXO
 40
0.625
  9
$DIMDLI
 40
3.75
  9
$DIMRND
 40
0.0
  9
$DIMDLE
 40
0.0
  9
$DIMEXE
 40
1.25
  9
$DIMTP
 40
0.0
  9
$DIMTM
 40
0.0
  9
$DIMTXT
 40
2.5
  9
$DIMCEN
 40
2.5
  9
$DIMTSZ
 40
0.0
  9
$DIMTOL
 70
     0
  9
$DIMLIM
 70
     0
  9
$DIMTIH
 70
     0
  9
$DIMTOH
 70
     0
  9
$DIMSE1
 70
     0
  9
$DIMSE2
 70
     0
  9
$DIMTAD
 70
     1
  9
$DIMZIN
 70
     8
  9
$DIMBLK
  1

  9
$DIMASO
 70
     1
  9
$DIMSHO
 70
     1
  9
$DIMPOST
  1

  9
$DIMAPOST
  1

  9
$DIMALT
 70
     0
  9
$DIMALTD
 70
     3
  9
$DIMALTF
 40
0.03937007874016
  9
$DIMLFAC
 40
1.0
  9
$DIMTOFL
 70
     1
  9
$DIMTVP
 40
0.0
  9
$DIMTIX
 70
     0
  9
$DIMSOXD
 70
     0
  9
$DIMSAH
 70
     0
  9
$DIMBLK1
  1

  9
$DIMBLK2
  1

  9
$DIMSTYLE
  2
ISO-25
  9
$DIMCLRD
 70
     0
  9
$DIMCLRE
 70
     0
  9
$DIMCLRT
 70
     0
  9
$DIMTFAC
 40
1.0
  9
$DIMGAP
 40
0.625
  9
$DIMJUST
 70
     0
  9
$DIMSD1
 70
     0
  9
$DIMSD2
 70
     0
  9
$DIMTOLJ
 70
     0
  9
$DIMTZIN
 70
     8
  9
$DIMALTZ
 70
     0
  9
$DIMALTTZ
 70
     0
  9
$DIMUPT
 70
     0
  9
$DIMDEC
 70
     2
  9
$DIMTDEC
 70
     2
  9
$DIMALTU
 70
     2
  9
$DIMALTTD
 70
     3
  9
$DIMTXSTY
  7
Standard
  9
$DIMAUNIT
 70
     0
  9
$DIMADEC
 70
     0
  9
$DIMALTRND
 40
0.0
  9
$DIMAZIN
 70
     0
  9
$DIMDSEP
 70
    44
  9
$DIMATFIT
 70
     3
  9
$DIMFRAC
 70
     0
  9
$DIMLDRBLK
  1

  9
$DIMLUNIT
 70
     2
  9
$DIMLWD
 70
    -2
  9
$DIMLWE
 70
    -2
  9
$DIMTMOVE
 70
     0
  9
$LUNITS
 70
     2
  9
$LUPREC
 70
     4
  9
$SKETCHINC
 40
1.0
  9
$FILLETRAD
 40
10.0
  9
$AUNITS
 70
     0
  9
$AUPREC
 70
     0
  9
$MENU
  1
.
  9
$ELEVATION
 40
0.0
  9
$PELEVATION
 40
0.0
  9
$THICKNESS
 40
0.0
  9
$LIMCHECK
 70
     0
  9
$CHAMFERA
 40
0.0
  9
$CHAMFERB
 40
0.0
  9
$CHAMFERC
 40
0.0
  9
$CHAMFERD
 40
0.0
  9
$SKPOLY
 70
     0
  9
$TDCREATE
 40
2459950.494891088
  9
$TDUCREATE
 40
2459950.119891088
  9
$TDUPDATE
 40
2459950.494891203
  9
$TDUUPDATE
 40
2459950.119891203
  9
$TDINDWG
 40
0.0000000116
  9
$TDUSRTIMER
 40
0.0000000116
  9
$USRTIMER
 70
     1
  9
$ANGBASE
 50
0.0
  9
$ANGDIR
 70
     0
  9
$PDMODE
 70
     0
  9
$PDSIZE
 40
0.0
  9
$PLINEWID
 40
0.0
  9
$SPLFRAME
 70
     0
  9
$SPLINETYPE
 70
     6
  9
$SPLINESEGS
 70
     8
  9
$HANDSEED
  5
26F
  9
$SURFTAB1
 70
     6
  9
$SURFTAB2
 70
     6
  9
$SURFTYPE
 70
     6
  9
$SURFU
 70
     6
  9
$SURFV
 70
     6
  9
$UCSBASE
  2

  9
$UCSNAME
  2

  9
$UCSORG
 10
0.0
 20
0.0
 30
0.0
  9
$UCSXDIR
 10
1.0
 20
0.0
 30
0.0
  9
$UCSYDIR
 10
0.0
 20
1.0
 30
0.0
  9
$UCSORTHOREF
  2

  9
$UCSORTHOVIEW
 70
     0
  9
$UCSORGTOP
 10
0.0
 20
0.0
 30
0.0
  9
$UCSORGBOTTOM
 10
0.0
 20
0.0
 30
0.0
  9
$UCSORGLEFT
 10
0.0
 20
0.0
 30
0.0
  9
$UCSORGRIGHT
 10
0.0
 20
0.0
 30
0.0
  9
$UCSORGFRONT
 10
0.0
 20
0.0
 30
0.0
  9
$UCSORGBACK
 10
0.0
 20
0.0
 30
0.0
  9
$PUCSBASE
  2

  9
$PUCSNAME
  2

  9
$PUCSORG
 10
0.0
 20
0.0
 30
0.0
  9
$PUCSXDIR
 10
1.0
 20
0.0
 30
0.0
  9
$PUCSYDIR
 10
0.0
 20
1.0
 30
0.0
  9
$PUCSORTHOREF
  2

  9
$PUCSORTHOVIEW
 70
     0
  9
$PUCSORGTOP
 10
0.0
 20
0.0
 30
0.0
  9
$PUCSORGBOTTOM
 10
0.0
 20
0.0
 30
0.0
  9
$PUCSORGLEFT
 10
0.0
 20
0.0
 30
0.0
  9
$PUCSORGRIGHT
 10
0.0
 20
0.0
 30
0.0
  9
$PUCSORGFRONT
 10
0.0
 20
0.0
 30
0.0
  9
$PUCSORGBACK
 10
0.0
 20
0.0
 30
0.0
  9
$USERI1
 70
     0
  9
$USERI2
 70
     0
  9
$USERI3
 70
     0
  9
$USERI4
 70
     0
  9
$USERI5
 70
     0
  9
$USERR1
 40
0.0
  9
$USERR2
 40
0.0
  9
$USERR3
 40
0.0
  9
$USERR4
 40
0.0
  9
$USERR5
 40
0.0
  9
$WORLDVIEW
 70
     1
  9
$SHADEDGE
 70
     3
  9
$SHADEDIF
 70
    70
  9
$TILEMODE
 70
     1
  9
$MAXACTVP
 70
    64
  9
$PINSBASE
 10
0.0
 20
0.0
 30
0.0
  9
$PLIMCHECK
 70
     0
  9
$PEXTMIN
 10
1.000000000000000E+20
 20
1.000000000000000E+20
 30
1.000000000000000E+20
  9
$PEXTMAX
 10
-1.000000000000000E+20
 20
-1.000000000000000E+20
 30
-1.000000000000000E+20
  9
$PLIMMIN
 10
0.0
 20
0.0
  9
$PLIMMAX
 10
420.0
 20
297.0
  9
$UNITMODE
 70
     0
  9
$VISRETAIN
 70
     1
  9
$PLINEGEN
 70
     0
  9
$PSLTSCALE
 70
     1
  9
$TREEDEPTH
 70
  3020
  9
$CMLSTYLE
  2
Standard
  9
$CMLJUST
 70
     0
  9
$CMLSCALE
 40
20.0
  9
$PROXYGRAPHICS
 70
     1
  9
$MEASUREMENT
 70
     1
  9
$CELWEIGHT
370
    -1
  9
$ENDCAPS
280
     0
  9
$JOINSTYLE
280
     0
  9
$LWDISPLAY
290
     0
  9
$INSUNITS
 70
     4
  9
$HYPERLINKBASE
  1

  9
$STYLESHEET
  1

  9
$XEDIT
290
     1
  9
$CEPSNTYPE
380
     0
  9
$PSTYLEMODE
290
     1
  9
$FINGERPRINTGUID
  2
{E166B35B-9155-454A-B861-98CED3C35CAF}
  9
$VERSIONGUID
  2
{FAEB1C32-E019-11D5-929B-00C0DF256EC4}
  9
$EXTNAMES
290
     1
  9
$PSVPSCALE
 40
0.0
  9
$OLESTARTUP
290
     0
  9
$SORTENTS
280
   127
  9
$INDEXCTL
280
     0
  9
$HIDETEXT
280
     1
  9
$XCLIPFRAME
290
     0
  9
$HALOGAP
280
     0
  9
$OBSCOLOR
 70
   257
  9
$OBSLTYPE
280
     0
  9
$INTERSECTIONDISPLAY
280
     0
  9
$INTERSECTIONCOLOR
 70
   257
  9
$DIMASSOC
280
     2
  9
$PROJECTNAME
  1

  0
ENDSEC
  0
SECTION
  2
CLASSES
  0
CLASS
  1
ACDBDICTIONARYWDFLT
  2
AcDbDictionaryWithDefault
  3
ObjectDBX Classes
 90
        0
 91
        4
280
     0
281
     0
  0
CLASS
  1
VISUALSTYLE
  2
AcDbVisualStyle
  3
ObjectDBX Classes
 90
     4095
 91
        4
280
     0
281
     0
  0
CLASS
  1
MATERIAL
  2
AcDbMaterial
  3
ObjectDBX Classes
 90
     1153
 91
        4
280
     0
281
     0
  0
CLASS
  1
SCALE
  2
AcDbScale
  3
ObjectDBX Classes
 90
     1153
 91
        4
280
     0
281
     0
  0
CLASS
  1
TABLESTYLE
  2
AcDbTableStyle
  3
ObjectDBX Classes
 90
     4095
 91
        4
280
     0
281
     0
  0
CLASS
  1
MLEADERSTYLE
  2
AcDbMLeaderStyle
  3
ACDB_MLEADERSTYLE_CLASS
 90
     4095
 91
        4
280
     0
281
     0
  0
CLASS
  1
SUN
  2
AcDbSun
  3
SCENEOE
 90
     1153
 91
        4
280
     0
281
     0
  0
CLASS
  1
DICTIONARYVAR
  2
AcDbDictionaryVar
  3
ObjectDBX Classes
 90
        0
 91
        4
280
     0
281
     0
  0
CLASS
  1
CELLSTYLEMAP
  2
AcDbCellStyleMap
  3
ObjectDBX Classes
 90
     1152
 91
        4
280
     0
281
     0
  0
ENDSEC
  0
SECTION
  2
TABLES
  0
TABLE
  2
VPORT
  5
8
102
{ACAD_XDICTIONARY
360
226
102
}
330
0
100
AcDbSymbolTable
 70
     1
  0
VPORT
  5
29
330
8
100
AcDbSymbolTableRecord
100
AcDbViewportTableRecord
  2
*Active
 70
     0
 10
0.0
 20
0.0
 11
1.0
 21
1.0
 12
0.0
 22
0.0
 13
0.0
 23
0.0
 14
10.0
 24
10.0
 15
10.0
 25
10.0
 16
0.0
 26
0.0
 36
1.0
 17
0.0
 27
0.0
 37
0.0
 40
653.4000000000001
 41
1.414141414141414
 42
50.0
 43
0.0
 44
0.0
 50
0.0
 51
0.0
 71
     0
 72
 10000
 73
     1
 74
     3
 75
     0
 76
     0
 77
     0
 78
     0
281
     0
 65
     1
110
0.0
120
0.0
130
0.0
111
1.0
121
0.0
131
0.0
112
0.0
122
1.0
132
0.0
 79
     0
146
0.0
  0
ENDTAB
  0
TABLE
  2
LTYPE
  5
5
330
0
100
AcDbSymbolTable
 70
     5
  0
LTYPE
  5
14
330
5
100
AcDbSymbolTableRecord
100
AcDbLinetypeTableRecord
  2
ByBlock
 70
     0
  3

 72
    65
 73
     0
 40
0.0
  0
LTYPE
  5
15
330
5
100
AcDbSymbolTableRecord
100
AcDbLinetypeTableRecord
  2
ByLayer
 70
     0
  3

 72
    65
 73
     0
 40
0.0
  0
LTYPE
  5
16
330
5
100
AcDbSymbolTableRecord
100
AcDbLinetypeTableRecord
  2
Continuous
 70
     0
  3
Solid line
 72
    65
 73
     0
 40
0.0
  0
LTYPE
  5
6F
330
5
100
AcDbSymbolTableRecord
100
AcDbLinetypeTableRecord
  2
JWW_CENTER1
 70
     0
  3
-----  --  ----------  --  -----
 72
    65
 73
     4
 40
6.773333333333333
 49
4.233333333333333
 74
     0
 49
-0.8466666666666667
 74
     0
 49
0.8466666666666667
 74
     0
 49
-0.8466666666666667
 74
     0
  0
LTYPE
  5
70
330
5
100
AcDbSymbolTableRecord
100
AcDbLinetypeTableRecord
  2
JWW_DASHED1
 70
     0
  3
-  --  --  --  --  --  --  --  -
 72
    65
 73
     2
 40
1.693333333333333
 49
0.8466666666666667
 74
     0
 49
-0.8466666666666667
 74
     0
  0
LTYPE
  5
71
330
5
100
AcDbSymbolTableRecord
100
AcDbLinetypeTableRecord
  2
JWW_DASHED2
 70
     0
  3
--    ----    ----    ----    --
 72
    65
 73
     2
 40
3.386666666666667
 49
1.693333333333333
 74
     0
 49
-1.693333333333333
 74
     0
  0
LTYPE
  5
72
330
5
100
AcDbSymbolTableRecord
100
AcDbLinetypeTableRecord
  2
JWW_PHANTOM1
 70
     0
  3
----  -  -  --------  -  -  ----
 72
    65
 73
     6
 40
6.773333333333333
 49
3.386666666666667
 74
     0
 49
-0.8466666666666667
 74
     0
 49
0.4233333333333333
 74
     0
 49
-0.8466666666666667
 74
     0
 49
0.4233333333333333
 74
     0
 49
-0.8466666666666667
 74
     0
  0
ENDTAB
  0
TABLE
  2
LAYER
  5
2
330
0
100
AcDbSymbolTable
 70
    12
  0
LAYER
  5
10
330
2
100
AcDbSymbolTableRecord
100
AcDbLayerTableRecord
  2
0
 70
     0
 62
     7
  6
Continuous
370
    -3
390
F
  0
LAYER
  5
73
330
2
100
AcDbSymbolTableRecord
100
AcDbLayerTableRecord
  2
F-4ﾚｲﾔ
 70
     0
 62
     7
  6
Continuous
370
    -3
390
F
  0
LAYER
  5
74
330
2
100
AcDbSymbolTableRecord
100
AcDbLayerTableRecord
  2
F-Fﾚｲﾔ
 70
     0
 62
     7
  6
Continuous
370
    -3
390
F
  0
LAYER
  5
75
330
2
100
AcDbSymbolTableRecord
100
AcDbLayerTableRecord
  2
F-5ﾚｲﾔ
 70
     0
 62
     7
  6
Continuous
370
    -3
390
F
  0
LAYER
  5
76
330
2
100
AcDbSymbolTableRecord
100
AcDbLayerTableRecord
  2
1-A
 70
     0
 62
     7
  6
Continuous
370
    -3
390
F
  0
LAYER
  5
77
330
2
100
AcDbSymbolTableRecord
100
AcDbLayerTableRecord
  2
1-3ﾚｲﾔ
 70
     0
 62
     7
  6
Continuous
370
    -3
390
F
  0
LAYER
  5
78
330
2
100
AcDbSymbolTableRecord
100
AcDbLayerTableRecord
  2
1-0ﾚｲﾔ
 70
     0
 62
     7
  6
Continuous
370
    -3
390
F
  0
LAYER
  5
79
330
2
100
AcDbSymbolTableRecord
100
AcDbLayerTableRecord
  2
1-2ﾚｲﾔ
 70
     0
 62
     7
  6
Continuous
370
    -3
390
F
  0
LAYER
  5
7A
330
2
100
AcDbSymbolTableRecord
100
AcDbLayerTableRecord
  2
1-E
 70
     0
 62
     7
  6
Continuous
370
    -3
390
F
  0
LAYER
  5
7B
330
2
100
AcDbSymbolTableRecord
100
AcDbLayerTableRecord
  2
1-F
 70
     0
 62
     7
  6
Continuous
370
    -3
390
F
  0
LAYER
  5
7C
330
2
100
AcDbSymbolTableRecord
100
AcDbLayerTableRecord
  2
1-4ﾚｲﾔ
 70
     0
 62
     7
  6
Continuous
370
    -3
390
F
  0
LAYER
  5
7D
330
2
100
AcDbSymbolTableRecord
100
AcDbLayerTableRecord
  2
1-D
 70
     0
 62
     7
  6
Continuous
370
    -3
390
F
  0
ENDTAB
  0
TABLE
  2
STYLE
  5
3
330
0
100
AcDbSymbolTable
 70
     2
  0
STYLE
  5
11
330
3
100
AcDbSymbolTableRecord
100
AcDbTextStyleTableRecord
  2
Standard
 70
     0
 40
0.0
 41
1.0
 50
0.0
 71
     0
 42
2.5
  3
txt
  4

  0
STYLE
  5
6E
330
3
100
AcDbSymbolTableRecord
100
AcDbTextStyleTableRecord
  2
ＭＳ ゴシック
 70
     0
 40
1.0
 41
1.0
 50
0.0
 71
     0
 42
2.5
  3

  4

1001
ACAD
1000
MS Gothic
1071
    32817
  0
ENDTAB
  0
TABLE
  2
VIEW
  5
6
330
0
100
AcDbSymbolTable
 70
     0
  0
ENDTAB
  0
TABLE
  2
UCS
  5
7
330
0
100
AcDbSymbolTable
 70
     0
  0
ENDTAB
  0
TABLE
  2
APPID
  5
9
330
0
100
AcDbSymbolTable
 70
     2
  0
APPID
  5
12
330
9
100
AcDbSymbolTableRecord
100
AcDbRegAppTableRecord
  2
ACAD
 70
     0
  0
APPID
  5
265
330
9
100
AcDbSymbolTableRecord
100
AcDbRegAppTableRecord
  2
ACAD_MLEADERVER
 70
     0
  0
ENDTAB
  0
TABLE
  2
DIMSTYLE
  5
A
330
0
100
AcDbSymbolTable
 70
     1
100
AcDbDimStyleTable
  0
DIMSTYLE
105
27
330
A
100
AcDbSymbolTableRecord
100
AcDbDimStyleTableRecord
  2
ISO-25
 70
     0
 41
2.5
 42
0.625
 43
3.75
 44
1.25
 73
     0
 74
     0
 77
     1
 78
     8
140
2.5
141
2.5
143
0.03937007874016
147
0.625
171
     3
172
     1
178
     0
271
     2
272
     2
274
     3
278
    44
283
     0
284
     8
340
11
  0
ENDTAB
  0
TABLE
  2
BLOCK_RECORD
  5
1
330
0
100
AcDbSymbolTable
 70
     1
  0
BLOCK_RECORD
  5
1F
330
1
100
AcDbSymbolTableRecord
100
AcDbBlockTableRecord
  2
*Model_Space
340
22
  0
BLOCK_RECORD
  5
1B
330
1
100
AcDbSymbolTableRecord
100
AcDbBlockTableRecord
  2
*Paper_Space
340
1E
  0
BLOCK_RECORD
  5
23
330
1
100
AcDbSymbolTableRecord
100
AcDbBlockTableRecord
  2
*Paper_Space0
340
26
  0
ENDTAB
  0
ENDSEC
  0
SECTION
  2
BLOCKS
  0
BLOCK
  5
20
330
1F
100
AcDbEntity
  8
0
100
AcDbBlockBegin
  2
*Model_Space
 70
     0
 10
0.0
 20
0.0
 30
0.0
  3
*Model_Space
  1

  0
ENDBLK
  5
21
330
1F
100
AcDbEntity
  8
0
100
AcDbBlockEnd
  0
BLOCK
  5
1C
330
1B
100
AcDbEntity
 67
     1
  8
0
100
AcDbBlockBegin
  2
*Paper_Space
 70
     0
 10
0.0
 20
0.0
 30
0.0
  3
*Paper_Space
  1

  0
ENDBLK
  5
1D
330
1B
100
AcDbEntity
 67
     1
  8
0
100
AcDbBlockEnd
  0
BLOCK
  5
24
330
23
100
AcDbEntity
  8
0
100
AcDbBlockBegin
  2
*Paper_Space0
 70
     0
 10
0.0
 20
0.0
 30
0.0
  3
*Paper_Space0
  1

  0
ENDBLK
  5
25
330
23
100
AcDbEntity
  8
0
100
AcDbBlockEnd
  0
ENDSEC
  0
SECTION
  2
ENTITIES
  0
LINE
  5
7E
330
1F
100
AcDbEntity
  8
F-4ﾚｲﾔ
  6
Continuous
 62
     7
370
     9
100
AcDbLine
 10
105.2463118320157
 20
-114.2037059230641
 30
0.0
 11
374.9920251955087
 21
-114.2037059230641
 31
0.0
  0
LINE
  5
7F
330
1F
100
AcDbEntity
  8
F-4ﾚｲﾔ
  6
Continuous
 62
     7
370
     9
100
AcDbLine
 10
105.2463118320157
 20
-112.2036993246688
 30
0.0
 11
374.9920251955087
 21
-112.2036993246688
 31
0.0
  0
LINE
  5
80
330
1F
100
AcDbEntity
  8
F-4ﾚｲﾔ
  6
Continuous
 62
     7
370
     9
100
AcDbLine
 10
105.2463118320157
 20
-98.20370262386646
 30
0.0
 11
374.9920251955087
 21
-98.20370262386646
 31
0.0
  0
TEXT
  5
81
330
1F
100
AcDbEntity
  8
F-4ﾚｲﾔ
  6
Continuous
 62
     2
370
     9
100
AcDbText
 10
108.6093710849411
 20
-138.075705923064
 30
0.0
 40
6.096
  1
ＥＳＢ－３、ＥＳＢ－４
 41
1.113636363636364
  7
ＭＳ ゴシック
100
AcDbText
  0
TEXT
  5
82
330
1F
100
AcDbEntity
  8
F-4ﾚｲﾔ
  6
Continuous
 62
     2
370
     9
100
AcDbText
 10
108.9301213444536
 20
-222.075705923064
 30
0.0
 40
6.096
  1
ＥＳＳＢ－２、ＥＳＭＢ－２、ＥＤＳＳＢ－２、ＥＤＳＭＢ－２
 41
1.120689655172414
  7
ＭＳ ゴシック
100
AcDbText
  0
LINE
  5
83
330
1F
100
AcDbEntity
  8
F-4ﾚｲﾔ
  6
Continuous
 62
     7
370
     9
100
AcDbLine
 10
105.2463118320157
 20
-98.20370262386646
 30
0.0
 11
105.2463118320157
 21
-226.2037059230641
 31
0.0
  0
LINE
  5
84
330
1F
100
AcDbEntity
  8
F-Fﾚｲﾔ
  6
Continuous
 62
     7
370
     9
100
AcDbLine
 10
105.2463118320157
 20
-226.2037059230641
 30
0.0
 11
374.9920251955087
 21
-226.2037059230641
 31
0.0
  0
LINE
  5
85
330
1F
100
AcDbEntity
  8
F-4ﾚｲﾔ
  6
Continuous
 62
     7
370
     9
100
AcDbLine
 10
374.9920251955087
 20
-226.2037059230641
 30
0.0
 11
374.9920251955087
 21
-98.20370262386646
 31
0.0
  0
TEXT
  5
86
330
1F
100
AcDbEntity
  8
F-4ﾚｲﾔ
  6
Continuous
 62
     2
370
     9
100
AcDbText
 10
184.3691685137622
 20
-108.0757009742676
 30
0.0
 40
6.096
  1
ＨＰ－２－１５０ 適合機種
 41
1.115
  7
ＭＳ ゴシック
100
AcDbText
  0
TEXT
  5
87
330
1F
100
AcDbEntity
  8
F-4ﾚｲﾔ
  6
Continuous
 62
     2
370
     9
100
AcDbText
 10
108.6093710849411
 20
-124.0757059230641
 30
0.0
 40
6.096
  1
ＷＨＢ－２、ＷＳＢ－１、ＷＳＢ－２、ＥＳＢ－１、ＥＳＢ－２
 41
1.120689655172414
  7
ＭＳ ゴシック
100
AcDbText
  0
TEXT
  5
88
330
1F
100
AcDbEntity
  8
F-4ﾚｲﾔ
  6
Continuous
 62
     2
370
     9
100
AcDbText
 10
108.343286680746
 20
-152.075705923064
 30
0.0
 40
6.096
  1
ＥＭＢ－１、ＥＭＢ－２、ＥＭＢ－３、ＥＭＢ－４
 41
1.119565217391304
  7
ＭＳ ゴシック
100
AcDbText
  0
TEXT
  5
89
330
1F
100
AcDbEntity
  8
F-Fﾚｲﾔ
  6
Continuous
 62
     2
370
     9
100
AcDbText
 10
108.9301213444536
 20
-166.075705923064
 30
0.0
 40
6.096
  1
ＷＤＨＢ－２、ＷＤＳＢ－１、ＷＤＳＢ－２
 41
1.11875
  7
ＭＳ ゴシック
100
AcDbText
  0
TEXT
  5
8A
330
1F
100
AcDbEntity
  8
F-4ﾚｲﾔ
  6
Continuous
 62
     2
370
     9
100
AcDbText
 10
108.6367040125998
 20
-180.075705923064
 30
0.0
 40
6.096
  1
ＥＤＳＢ－１、ＥＤＳＢ－２、ＥＤＭＢ－１、ＥＤＭＢ－２
 41
1.12037037037037
  7
ＭＳ ゴシック
100
AcDbText
  0
TEXT
  5
8B
330
1F
100
AcDbEntity
  8
F-Fﾚｲﾔ
  6
Continuous
 62
     2
370
     9
100
AcDbText
 10
109.2235386763074
 20
-194.075705923064
 30
0.0
 40
6.096
  1
ＷＨＢＷ－２、ＥＳＢＷ－１、ＥＳＢＷ－２
 41
1.11875
  7
ＭＳ ゴシック
100
AcDbText
  0
TEXT
  5
8C
330
1F
100
AcDbEntity
  8
F-Fﾚｲﾔ
  6
Continuous
 62
     2
370
     9
100
AcDbText
 10
108.6367040125998
 20
-208.075705923064
 30
0.0
 40
6.096
  1
ＥＤＳＢＷ－１、ＥＤＳＢＷ－２
 41
1.116666666666667
  7
ＭＳ ゴシック
100
AcDbText
  0
TEXT
  5
8D
330
1F
100
AcDbEntity
  8
F-5ﾚｲﾔ
  6
Continuous
 62
     2
370
     9
100
AcDbText
 10
-131.0000577359586
 20
-269.4936591499948
 30
0.0
 40
6.096
  1
水はね防止ロート　ＨＰ－２－１５０
 41
1.117647058823529
  7
ＭＳ ゴシック
100
AcDbText
  0
LINE
  5
8E
330
1F
100
AcDbEntity
  8
1-A
  6
Continuous
 62
     4
370
     9
100
AcDbLine
 10
245.2680095054085
 20
66.7218191360962
 30
0.0
 11
246.2681628002701
 21
66.7218191360962
 31
0.0
  0
LINE
  5
8F
330
1F
100
AcDbEntity
  8
1-A
  6
Continuous
 62
     4
370
     9
100
AcDbLine
 10
246.2681628002701
 20
69.60386198041925
 30
0.0
 11
246.2681628002701
 21
66.7218191360962
 31
0.0
  0
LINE
  5
90
330
1F
100
AcDbEntity
  8
1-A
  6
Continuous
 62
     4
370
     9
100
AcDbLine
 10
245.2680095054085
 20
69.60386198041925
 30
0.0
 11
245.2680095054085
 21
66.7218191360962
 31
0.0
  0
LINE
  5
91
330
1F
100
AcDbEntity
  8
1-A
  6
Continuous
 62
     4
370
     9
100
AcDbLine
 10
240.5181484251946
 20
65.72186402874979
 30
0.0
 11
251.0181229742415
 21
65.72186402874979
 31
0.0
  0
LINE
  5
92
330
1F
100
AcDbEntity
  8
1-3ﾚｲﾔ
  6
Continuous
 62
     4
370
     9
100
AcDbLine
 10
52.26810217751347
 20
31.28306726733643
 30
0.0
 11
49.26813776171656
 21
31.28306726733643
 31
0.0
  0
LINE
  5
93
330
1F
100
AcDbEntity
  8
1-3ﾚｲﾔ
  6
Continuous
 62
     4
370
     9
100
AcDbLine
 10
235.2681116037924
 20
31.28306726733638
 30
0.0
 11
232.2680480942379
 21
31.28306726733638
 31
0.0
  0
LINE
  5
94
330
1F
100
AcDbEntity
  8
1-0ﾚｲﾔ
  6
Continuous
 62
     3
370
     9
100
AcDbLine
 10
15.7681552592469
 20
62.28306290768245
 30
0.0
 11
10.76813198812067
 21
62.28306290768245
 31
0.0
  0
LINE
  5
95
330
1F
100
AcDbEntity
  8
1-0ﾚｲﾔ
  6
Continuous
 62
     3
370
     9
100
AcDbLine
 10
10.76813198812067
 20
62.28306290768245
 30
0.0
 11
9.76812733389545
 21
63.28306756190767
 31
0.0
  0
LINE
  5
96
330
1F
100
AcDbEntity
  8
1-0ﾚｲﾔ
  6
Continuous
 62
     3
370
     9
100
AcDbLine
 10
54.89309581477517
 20
16.2830965477155
 30
0.0
 11
53.15211758853695
 21
16.2830965477155
 31
0.0
  0
LINE
  5
97
330
1F
100
AcDbEntity
  8
1-0ﾚｲﾔ
  6
Continuous
 62
     3
370
     9
100
AcDbLine
 10
52.26810217751347
 20
31.28306726733643
 30
0.0
 11
53.15211758853695
 21
16.2830965477155
 31
0.0
  0
LINE
  5
98
330
1F
100
AcDbEntity
  8
1-0ﾚｲﾔ
  6
Continuous
 62
     3
370
     9
100
AcDbLine
 10
268.7681436531409
 20
62.28306290768239
 30
0.0
 11
273.7681173773883
 21
62.28306290768239
 31
0.0
  0
LINE
  5
99
330
1F
100
AcDbEntity
  8
1-0ﾚｲﾔ
  6
Continuous
 62
     3
370
     9
100
AcDbLine
 10
273.7681173773883
 20
62.28306290768239
 30
0.0
 11
274.7680724847347
 21
63.28306756190756
 31
0.0
  0
LINE
  5
9A
330
1F
100
AcDbEntity
  8
1-0ﾚｲﾔ
  6
Continuous
 62
     3
370
     9
100
AcDbLine
 10
232.2681471879955
 20
31.28306726733638
 30
0.0
 11
233.2681022953418
 21
48.25227868369132
 31
0.0
  0
LINE
  5
9B
330
1F
100
AcDbEntity
  8
1-0ﾚｲﾔ
  6
Continuous
 62
     3
370
     9
100
AcDbLine
 10
225.7680921620921
 20
46.28308753383612
 30
0.0
 11
225.7680921620921
 21
35.28308588423738
 31
0.0
  0
LINE
  5
9C
330
1F
100
AcDbEntity
  8
1-0ﾚｲﾔ
  6
Continuous
 62
     3
370
     9
100
AcDbLine
 10
225.7680921620921
 20
46.28308753383612
 30
0.0
 11
58.76810765653806
 21
46.28308753383615
 31
0.0
  0
LINE
  5
9D
330
1F
100
AcDbEntity
  8
1-0ﾚｲﾔ
  6
Continuous
 62
     3
370
     9
100
AcDbLine
 10
58.76810765653806
 20
46.28308753383615
 30
0.0
 11
58.76810765653806
 21
35.28308588423741
 31
0.0
  0
LINE
  5
9E
330
1F
100
AcDbEntity
  8
1-0ﾚｲﾔ
  6
Continuous
 62
     3
370
     9
100
AcDbLine
 10
225.7680921620921
 20
35.28308588423738
 30
0.0
 11
58.76810765653806
 21
35.28308588423741
 31
0.0
  0
LINE
  5
9F
330
1F
100
AcDbEntity
  8
1-0ﾚｲﾔ
  6
Continuous
 62
     3
370
     9
100
AcDbLine
 10
25.26822424782597
 20
23.28317867417084
 30
0.0
 11
25.26822424782597
 21
17.28315074881942
 31
0.0
  0
LINE
  5
A0
330
1F
100
AcDbEntity
  8
1-0ﾚｲﾔ
  6
Continuous
 62
     3
370
     9
100
AcDbLine
 10
31.26825217317742
 20
23.28317867417084
 30
0.0
 11
25.26822424782597
 21
23.28317867417084
 31
0.0
  0
LINE
  5
A1
330
1F
100
AcDbEntity
  8
1-0ﾚｲﾔ
  6
Continuous
 62
     3
370
     9
100
AcDbLine
 10
39.26833895385801
 20
25.28313843574259
 30
0.0
 11
39.26833895385801
 21
38.28309984691307
 31
0.0
  0
LINE
  5
A2
330
1F
100
AcDbEntity
  8
1-0ﾚｲﾔ
  6
Continuous
 62
     3
370
     9
100
AcDbLine
 10
31.26825217317742
 20
17.28315074881942
 30
0.0
 11
25.26822424782597
 21
17.28315074881942
 31
0.0
  0
LINE
  5
A3
330
1F
100
AcDbEntity
  8
1-0ﾚｲﾔ
  6
Continuous
 62
     3
370
     9
100
AcDbLine
 10
33.26826148162786
 20
25.28313843574259
 30
0.0
 11
33.26826148162786
 21
38.28309984691307
 31
0.0
  0
LINE
  5
A4
330
1F
100
AcDbEntity
  8
1-0ﾚｲﾔ
  6
Continuous
 62
     3
370
     9
100
AcDbLine
 10
39.44318988903922
 20
38.28309984691307
 30
0.0
 11
33.09321235893162
 21
38.28309984691307
 31
0.0
  0
LINE
  5
A5
330
1F
100
AcDbEntity
  8
1-0ﾚｲﾔ
  6
JWW_CENTER1
 62
     3
370
     9
100
AcDbLine
 10
31.26815307941985
 20
20.28311516461636
 30
0.0
 11
24.10664722193007
 21
20.28311516461636
 31
0.0
  0
LINE
  5
A6
330
1F
100
AcDbEntity
  8
1-0ﾚｲﾔ
  6
Continuous
 62
     3
370
     9
100
AcDbLine
 10
224.1831866039809
 20
11.28307327658919
 30
0.0
 11
223.4331459531529
 21
35.28308588423738
 31
0.0
  0
LINE
  5
A7
330
1F
100
AcDbEntity
  8
1-0ﾚｲﾔ
  6
Continuous
 62
     3
370
     9
100
AcDbLine
 10
222.6579354879096
 20
12.76105667031354
 30
0.0
 11
221.9541716218531
 21
35.28308588423738
 31
0.0
  0
LINE
  5
A8
330
1F
100
AcDbEntity
  8
1-0ﾚｲﾔ
  6
Continuous
 62
     3
370
     9
100
AcDbLine
 10
58.24637902308461
 20
51.77407082669939
 30
0.0
 11
226.2898207955456
 21
51.77407082669936
 31
0.0
  0
LINE
  5
A9
330
1F
100
AcDbEntity
  8
1-0ﾚｲﾔ
  6
Continuous
 62
     3
370
     9
100
AcDbLine
 10
248.8977642972574
 20
49.34518373561124
 30
0.0
 11
233.2681022953418
 21
48.25227868369132
 31
0.0
  0
LINE
  5
AA
330
1F
100
AcDbEntity
  8
1-0ﾚｲﾔ
  6
Continuous
 62
     3
370
     9
100
AcDbLine
 10
232.1599368047607
 20
31.28306726733638
 30
0.0
 11
232.2681471879955
 21
31.28306726733638
 31
0.0
  0
LINE
  5
AB
330
1F
100
AcDbEntity
  8
1-0ﾚｲﾔ
  6
Continuous
 62
     3
370
     9
100
AcDbLine
 10
229.3722312176166
 20
12.67088135095128
 30
0.0
 11
230.664116534679
 21
29.89525919297432
 31
0.0
  0
LINE
  5
AC
330
1F
100
AcDbEntity
  8
1-0ﾚｲﾔ
  6
Continuous
 62
     3
370
     9
100
AcDbLine
 10
55.16401814789231
 20
12.6708813509513
 30
0.0
 11
54.89309581477517
 21
16.2830965477155
 31
0.0
  0
LINE
  5
AD
330
1F
100
AcDbEntity
  8
1-0ﾚｲﾔ
  6
Continuous
 62
     3
370
     9
100
AcDbLine
 10
27.92586927819747
 20
69.55931933640471
 30
0.0
 11
28.26813911674412
 21
71.28305524883075
 31
0.0
  0
LINE
  5
AE
330
1F
100
AcDbEntity
  8
1-0ﾚｲﾔ
  6
Continuous
 62
     3
370
     9
100
AcDbLine
 10
11.76813664234589
 20
71.28305524883075
 30
0.0
 11
32.07839318795402
 21
64.68385691850762
 31
0.0
  0
LINE
  5
AF
330
1F
100
AcDbEntity
  8
1-0ﾚｲﾔ
  6
Continuous
 62
     3
370
     9
100
AcDbLine
 10
256.2681597956436
 20
71.28305524883064
 30
0.0
 11
256.6104296341903
 21
69.55931933640466
 31
0.0
  0
LINE
  5
B0
330
1F
100
AcDbEntity
  8
1-0ﾚｲﾔ
  6
Continuous
 62
     3
370
     9
100
AcDbLine
 10
272.7680631762843
 20
71.28305524883064
 30
0.0
 11
260.4800408661673
 21
67.29041911686653
 31
0.0
  0
LINE
  5
B1
330
1F
100
AcDbEntity
  8
1-0ﾚｲﾔ
  6
Continuous
 62
     3
370
     9
100
AcDbLine
 10
257.9351149849987
 20
62.25769490575192
 30
0.0
 11
260.2481614735212
 21
63.00927150982176
 31
0.0
  0
LINE
  5
B2
330
1F
100
AcDbEntity
  8
1-0ﾚｲﾔ
  6
Continuous
 62
     3
370
     9
100
AcDbLine
 10
255.8846669539597
 20
59.77014431019961
 30
0.0
 11
255.357190882569
 21
55.47502448334149
 31
0.0
  0
LINE
  5
B3
330
1F
100
AcDbEntity
  8
1-0ﾚｲﾔ
  6
Continuous
 62
     3
370
     9
100
AcDbLine
 10
251.8336150519254
 20
59.6002480628955
 30
0.0
 11
253.2681953798467
 21
71.28305524883064
 31
0.0
  0
LINE
  5
B4
330
1F
100
AcDbEntity
  8
1-0ﾚｲﾔ
  6
Continuous
 62
     3
370
     9
100
AcDbLine
 10
235.7795344864617
 20
52.43765217407281
 30
0.0
 11
226.2898207955456
 21
51.77407082669936
 31
0.0
  0
LINE
  5
B5
330
1F
100
AcDbEntity
  8
1-0ﾚｲﾔ
  6
Continuous
 62
     3
370
     9
100
AcDbLine
 10
44.73994941712192
 20
52.7184838829441
 30
0.0
 11
58.24637902308461
 21
51.77407082669939
 31
0.0
  0
LINE
  5
B6
330
1F
100
AcDbEntity
  8
1-0ﾚｲﾔ
  6
Continuous
 62
     3
370
     9
100
AcDbLine
 10
34.19136938000122
 20
58.28304429078145
 30
0.0
 11
40.71768425165305
 21
58.28304429078145
 31
0.0
  0
LINE
  5
B7
330
1F
100
AcDbEntity
  8
1-0ﾚｲﾔ
  6
Continuous
 62
     3
370
     9
100
AcDbLine
 10
32.70253521982613
 20
59.60024806289556
 30
0.0
 11
31.26810353254109
 21
71.28305524883075
 31
0.0
  0
LINE
  5
B8
330
1F
100
AcDbEntity
  8
1-0ﾚｲﾔ
  6
JWW_DASHED1
 62
     3
370
     9
100
AcDbLine
 10
52.37631256074826
 20
31.28306726733643
 30
0.0
 11
52.26810217751347
 21
31.28306726733643
 31
0.0
  0
LINE
  5
B9
330
1F
100
AcDbEntity
  8
1-0ﾚｲﾔ
  6
Continuous
 62
     3
370
     9
100
AcDbLine
 10
31.07932992442545
 20
42.5643960945942
 30
0.0
 11
29.20150321902304
 21
55.30844787691507
 31
0.0
  0
LINE
  5
BA
330
1F
100
AcDbEntity
  8
1-0ﾚｲﾔ
  6
Continuous
 62
     3
370
     9
100
AcDbLine
 10
48.62561383782054
 20
31.28306726733643
 30
0.0
 11
52.26810217751347
 21
31.28306726733643
 31
0.0
  0
LINE
  5
BB
330
1F
100
AcDbEntity
  8
1-0ﾚｲﾔ
  6
Continuous
 62
     3
370
     9
100
AcDbLine
 10
47.13306366173765
 20
32.6338142763781
 30
0.0
 11
46.40318859056924
 21
39.93231725366837
 31
0.0
  0
LINE
  5
BC
330
1F
100
AcDbEntity
  8
1-0ﾚｲﾔ
  6
Continuous
 62
     3
370
     9
100
AcDbLine
 10
10.65863338603788
 20
70.40706643216816
 30
0.0
 11
9.76812733389545
 21
63.28306756190767
 31
0.0
  0
LINE
  5
BD
330
1F
100
AcDbEntity
  8
1-0ﾚｲﾔ
  6
Continuous
 62
     3
370
     9
100
AcDbLine
 10
273.8776159794711
 20
70.40706643216811
 30
0.0
 11
274.7680724847347
 21
63.28306756190756
 31
0.0
  0
LINE
  5
BE
330
1F
100
AcDbEntity
  8
1-2ﾚｲﾔ
  6
Continuous
 62
     6
370
     9
100
AcDbLine
 10
49.90516198206905
 20
110.2829890292211
 30
0.0
 11
55.53557019179243
 21
111.2829936834464
 31
0.0
  0
LINE
  5
BF
330
1F
100
AcDbEntity
  8
1-2ﾚｲﾔ
  6
JWW_DASHED1
 62
     6
370
     9
100
AcDbLine
 10
234.6310378365612
 20
110.2829890292211
 30
0.0
 11
229.0006296268379
 21
111.2829936834463
 31
0.0
  0
LINE
  5
C0
330
1F
100
AcDbEntity
  8
1-2ﾚｲﾔ
  6
Continuous
 62
     6
370
     9
100
AcDbLine
 10
238.9949287311528
 20
67.46398183319968
 30
0.0
 11
232.7966141969618
 21
128.2829737115179
 31
0.0
  0
LINE
  5
C1
330
1F
100
AcDbEntity
  8
1-2ﾚｲﾔ
  6
Continuous
 62
     6
370
     9
100
AcDbLine
 10
249.9074305928429
 20
59.11865240124609
 30
0.0
 11
250.7682580646017
 21
64.28297312237532
 31
0.0
  0
LINE
  5
C2
330
1F
100
AcDbEntity
  8
1-2ﾚｲﾔ
  6
Continuous
 62
     6
370
     9
100
AcDbLine
 10
34.62876922578732
 20
59.11865240124615
 30
0.0
 11
33.76799130090728
 21
64.28297312237538
 31
0.0
  0
LINE
  5
C3
330
1F
100
AcDbEntity
  8
1-2ﾚｲﾔ
  6
Continuous
 62
     6
370
     9
100
AcDbLine
 10
50.40890509852875
 20
60.97888996468504
 30
0.0
 11
57.26807590176094
 21
128.2829737115179
 31
0.0
  0
LINE
  5
C4
330
1F
100
AcDbEntity
  8
1-2ﾚｲﾔ
  6
Continuous
 62
     6
370
     9
100
AcDbLine
 10
234.1273442669803
 20
60.97888996468498
 30
0.0
 11
227.2681734637481
 21
128.2829737115179
 31
0.0
  0
LINE
  5
C5
330
1F
100
AcDbEntity
  8
1-0ﾚｲﾔ
  6
Continuous
 62
     3
370
     9
100
AcDbLine
 10
45.93053614053798
 20
71.28305524883075
 30
0.0
 11
11.65090872717491
 21
71.28305524883075
 31
0.0
  0
LINE
  5
C6
330
1F
100
AcDbEntity
  8
1-2ﾚｲﾔ
  6
Continuous
 62
     6
370
     9
100
AcDbLine
 10
44.88039004499694
 20
60.97888996468504
 30
0.0
 11
51.73958562166848
 21
128.2829737115179
 31
0.0
  0
LINE
  5
C7
330
1F
100
AcDbEntity
  8
1-2ﾚｲﾔ
  6
Continuous
 62
     6
370
     9
100
AcDbLine
 10
33.76799130090728
 20
64.28297312237538
 30
0.0
 11
34.7680455020112
 21
65.28302732347942
 31
0.0
  0
LINE
  5
C8
330
1F
100
AcDbEntity
  8
1-2ﾚｲﾔ
  6
Continuous
 62
     6
370
     9
100
AcDbLine
 10
43.63854707549285
 20
65.66845249343515
 30
0.0
 11
34.7680455020112
 21
65.28302732347942
 31
0.0
  0
ELLIPSE
  5
C9
330
1F
100
AcDbEntity
  8
1-A
  6
Continuous
 62
     4
370
     9
100
AcDbEllipse
 10
245.7681356997181
 20
65.72186402874979
 30
0.0
 11
5.24997991990859
 21
0.0
 31
0.0
210
0.0
220
0.0
230
1.0
 40
0.7428
 41
0.0
 42
1.475408288134874
  0
ELLIPSE
  5
CA
330
1F
100
AcDbEntity
  8
1-A
  6
Continuous
 62
     4
370
     9
100
AcDbEllipse
 10
245.7681356997181
 20
65.72186402874979
 30
0.0
 11
5.24997991990859
 21
0.0
 31
0.0
210
0.0
220
0.0
230
1.0
 40
0.7428
 41
1.666184365454919
 42
3.141592653589793
  0
ARC
  5
CB
330
1F
100
AcDbEntity
  8
1-0ﾚｲﾔ
  6
Continuous
 62
     3
370
     9
100
AcDbCircle
 10
20.88882518017925
 20
52.54764624494334
 30
0.0
 40
11.00000010125886
100
AcDbArc
 50
71.9998779296875
 51
117.7438659667969
  0
ARC
  5
CC
330
1F
100
AcDbEntity
  8
1-0ﾚｲﾔ
  6
Continuous
 62
     3
370
     9
100
AcDbCircle
 10
263.647374638451
 20
52.54764624494325
 30
0.0
 40
11.00000010125886
100
AcDbArc
 50
62.25613403320313
 51
108.0001220703125
  0
ARC
  5
CD
330
1F
100
AcDbEntity
  8
1-0ﾚｲﾔ
  6
Continuous
 62
     3
370
     9
100
AcDbCircle
 10
248.4094302600952
 20
56.32812264201209
 30
0.0
 40
7.000000064437453
100
AcDbArc
 50
273.9999237060547
 51
353.0002899169922
  0
ARC
  5
CE
330
1F
100
AcDbEntity
  8
1-0ﾚｲﾔ
  6
Continuous
 62
     3
370
     9
100
AcDbCircle
 10
31.26825217317742
 20
25.28313843574259
 30
0.0
 40
2.000000018410701
100
AcDbArc
 50
270.0
 51
0.0
  0
ARC
  5
CF
330
1F
100
AcDbEntity
  8
1-0ﾚｲﾔ
  6
Continuous
 62
     3
370
     9
100
AcDbCircle
 10
31.26825217317742
 20
25.28313843574259
 30
0.0
 40
8.000000073642804
100
AcDbArc
 50
270.0
 51
0.0
  0
ARC
  5
D0
330
1F
100
AcDbEntity
  8
1-0ﾚｲﾔ
  6
JWW_CENTER1
 62
     3
370
     9
100
AcDbCircle
 10
31.26815307941985
 20
25.28313843574259
 30
0.0
 40
5.000000046026752
100
AcDbArc
 50
270.0
 51
0.0
  0
ARC
  5
D1
330
1F
100
AcDbEntity
  8
1-0ﾚｲﾔ
  6
Continuous
 62
     3
370
     9
100
AcDbCircle
 10
57.61857052218352
 20
42.79597820596763
 30
0.0
 40
9.000000082848155
100
AcDbArc
 50
22.79632568359376
 51
86.0
  0
ARC
  5
D2
330
1F
100
AcDbEntity
  8
1-0ﾚｲﾔ
  6
Continuous
 62
     3
370
     9
100
AcDbCircle
 10
226.9176788433255
 20
42.79597820596757
 30
0.0
 40
9.000000082848155
100
AcDbArc
 50
93.99999999999993
 51
157.2036743164062
  0
ARC
  5
D3
330
1F
100
AcDbEntity
  8
1-0ﾚｲﾔ
  6
Continuous
 62
     3
370
     9
100
AcDbCircle
 10
232.1599368047607
 20
29.78308505943787
 30
0.0
 40
1.500000013808026
100
AcDbArc
 50
90.0
 51
175.7113189697266
  0
ARC
  5
D4
330
1F
100
AcDbEntity
  8
1-0ﾚｲﾔ
  6
Continuous
 62
     3
370
     9
100
AcDbCircle
 10
227.8764109475348
 20
12.7830554844877
 30
0.0
 40
1.500000013808026
100
AcDbArc
 50
270.0
 51
355.7113189697265
  0
ARC
  5
D5
330
1F
100
AcDbEntity
  8
1-0ﾚｲﾔ
  6
Continuous
 62
     3
370
     9
100
AcDbCircle
 10
56.65983841797402
 20
12.78305548448776
 30
0.0
 40
1.500000013808026
100
AcDbArc
 50
184.2887573242187
 51
269.9999999999999
  0
ARC
  5
D6
330
1F
100
AcDbEntity
  8
1-0ﾚｲﾔ
  6
Continuous
 62
     3
370
     9
100
AcDbCircle
 10
24.98328014801677
 20
70.1435761308665
 30
0.0
 40
3.000000027616052
100
AcDbArc
 50
252.0
 51
348.7697753906251
  0
ARC
  5
D7
330
1F
100
AcDbEntity
  8
1-0ﾚｲﾔ
  6
Continuous
 62
     3
370
     9
100
AcDbCircle
 10
259.5529196706135
 20
70.14357613086639
 30
0.0
 40
3.000000027616052
100
AcDbArc
 50
191.230224609375
 51
288.0000000000001
  0
ARC
  5
D8
330
1F
100
AcDbEntity
  8
1-0ﾚｲﾔ
  6
Continuous
 62
     3
370
     9
100
AcDbCircle
 10
258.8622361805525
 20
59.40453789175194
 30
0.0
 40
3.000000027616052
100
AcDbArc
 50
108.0004425048828
 51
172.999984741211
  0
ARC
  5
D9
330
1F
100
AcDbEntity
  8
1-0ﾚｲﾔ
  6
Continuous
 62
     3
370
     9
100
AcDbCircle
 10
239.8361356389186
 20
56.78306208288302
 30
0.0
 40
1.500000013808026
100
AcDbArc
 50
90.0
 51
160.9025115966797
  0
ARC
  5
DA
330
1F
100
AcDbEntity
  8
1-0ﾚｲﾔ
  6
Continuous
 62
     3
370
     9
100
AcDbCircle
 10
250.344830438629
 20
59.78302649867987
 30
0.0
 40
1.500000013808026
100
AcDbArc
 50
270.0
 51
353.0008087158203
  0
ARC
  5
DB
330
1F
100
AcDbEntity
  8
1-0ﾚｲﾔ
  6
Continuous
 62
     3
370
     9
100
AcDbCircle
 10
235.6748914784983
 20
53.93396791294217
 30
0.0
 40
1.500000013808026
100
AcDbArc
 50
274.0003967285157
 51
340.9025115966797
  0
ARC
  5
DC
330
1F
100
AcDbEntity
  8
1-0ﾚｲﾔ
  6
Continuous
 62
     3
370
     9
100
AcDbCircle
 10
44.84459242508524
 20
54.21484916869227
 30
0.0
 40
1.500000013808026
100
AcDbArc
 50
199.9950714111328
 51
265.9997406005859
  0
ARC
  5
DD
330
1F
100
AcDbEntity
  8
1-0ﾚｲﾔ
  6
Continuous
 62
     3
370
     9
100
AcDbCircle
 10
40.71768425165305
 20
56.78306208288308
 30
0.0
 40
1.500000013808026
100
AcDbArc
 50
19.9932861328125
 51
90.0
  0
ARC
  5
DE
330
1F
100
AcDbEntity
  8
1-0ﾚｲﾔ
  6
Continuous
 62
     3
370
     9
100
AcDbCircle
 10
34.19136938000122
 20
59.78302649867993
 30
0.0
 40
1.500000013808026
100
AcDbArc
 50
186.9990692138672
 51
270.0
  0
ARC
  5
DF
330
1F
100
AcDbEntity
  8
1-0ﾚｲﾔ
  6
Continuous
 62
     3
370
     9
100
AcDbCircle
 10
32.56330849048106
 20
42.78304647060853
 30
0.0
 40
1.500000013808026
100
AcDbArc
 50
188.3816986083984
 51
270.0
  0
ARC
  5
E0
330
1F
100
AcDbEntity
  8
1-0ﾚｲﾔ
  6
Continuous
 62
     3
370
     9
100
AcDbCircle
 10
44.91063841448636
 20
39.78308205481159
 30
0.0
 40
1.500000013808026
100
AcDbArc
 50
5.709838867187504
 51
90.0
  0
ARC
  5
E1
330
1F
100
AcDbEntity
  8
1-0ﾚｲﾔ
  6
Continuous
 62
     3
370
     9
100
AcDbCircle
 10
48.62561383782054
 20
32.78304947523489
 30
0.0
 40
1.500000013808026
100
AcDbArc
 50
185.7098388671875
 51
270.0
  0
ARC
  5
E2
330
1F
100
AcDbEntity
  8
1-0ﾚｲﾔ
  6
Continuous
 62
     3
370
     9
100
AcDbCircle
 10
11.65090872717491
 20
70.28305059460553
 30
0.0
 40
1.00000000920535
100
AcDbArc
 50
90.0
 51
172.8760375976562
  0
ARC
  5
E3
330
1F
100
AcDbEntity
  8
1-0ﾚｲﾔ
  6
Continuous
 62
     3
370
     9
100
AcDbCircle
 10
272.8853901852128
 20
70.28305059460547
 30
0.0
 40
1.00000000920535
100
AcDbArc
 50
7.123962402343762
 51
90.00000000000001
  0
ARC
  5
E4
330
1F
100
AcDbEntity
  8
1-2ﾚｲﾔ
  6
Continuous
 62
     6
370
     9
100
AcDbCircle
 10
240.9845331950615
 20
67.66672766112862
 30
0.0
 40
2.000000018410701
100
AcDbArc
 50
185.8198852539062
 51
267.5111389160156
  0
ARC
  5
E5
330
1F
100
AcDbEntity
  8
1-2ﾚｲﾔ
  6
Continuous
 62
     6
370
     9
100
AcDbCircle
 10
248.9211504240371
 20
59.28304894500673
 30
0.0
 40
1.00000000920535
100
AcDbArc
 50
270.0
 51
350.5376739501953
  0
ARC
  5
E6
330
1F
100
AcDbEntity
  8
1-2ﾚｲﾔ
  6
Continuous
 62
     6
370
     9
100
AcDbCircle
 10
35.61519803522947
 20
59.28304894500678
 30
0.0
 40
1.00000000920535
100
AcDbArc
 50
189.4620819091797
 51
269.9999999999999
  0
ARC
  5
E7
330
1F
100
AcDbEntity
  8
1-2ﾚｲﾔ
  6
Continuous
 62
     6
370
     9
100
AcDbCircle
 10
47.42430021515077
 20
61.28305825345723
 30
0.0
 40
3.000000027616052
100
AcDbArc
 50
270.0
 51
354.1808471679688
  0
ARC
  5
E8
330
1F
100
AcDbEntity
  8
1-2ﾚｲﾔ
  6
Continuous
 62
     6
370
     9
100
AcDbCircle
 10
237.1119491503581
 20
61.28305825345717
 30
0.0
 40
3.000000027616052
100
AcDbArc
 50
185.8191528320312
 51
270.0
  0
ARC
  5
E9
330
1F
100
AcDbEntity
  8
1-2ﾚｲﾔ
  6
Continuous
 62
     6
370
     9
100
AcDbCircle
 10
41.89585948193707
 20
61.28305825345723
 30
0.0
 40
3.000000027616052
100
AcDbArc
 50
270.0
 51
354.1808013916015
  0
ARC
  5
EA
330
1F
100
AcDbEntity
  8
1-2ﾚｲﾔ
  6
Continuous
 62
     6
370
     9
100
AcDbCircle
 10
43.55171617044755
 20
67.66672766112873
 30
0.0
 40
2.000000018410701
100
AcDbArc
 50
272.4888610839844
 51
354.1801147460938
  0
LINE
  5
EB
330
1F
100
AcDbEntity
  8
1-3ﾚｲﾔ
  6
Continuous
 62
     4
370
     9
100
AcDbLine
 10
52.26810217751347
 20
31.28306726733643
 30
0.0
 11
52.26810217751347
 21
-8.71692071415788
 31
0.0
  0
LINE
  5
EC
330
1F
100
AcDbEntity
  8
1-3ﾚｲﾔ
  6
Continuous
 62
     4
370
     9
100
AcDbLine
 10
49.26813776171656
 20
31.28306726733643
 30
0.0
 11
49.26813776171656
 21
-8.71692071415788
 31
0.0
  0
LINE
  5
ED
330
1F
100
AcDbEntity
  8
1-3ﾚｲﾔ
  6
Continuous
 62
     4
370
     9
100
AcDbLine
 10
232.2680480942379
 20
31.28306726733638
 30
0.0
 11
232.2680480942379
 21
-8.716920714157936
 31
0.0
  0
LINE
  5
EE
330
1F
100
AcDbEntity
  8
1-3ﾚｲﾔ
  6
Continuous
 62
     4
370
     9
100
AcDbLine
 10
235.2681116037924
 20
31.28306726733638
 30
0.0
 11
235.2681116037924
 21
-8.716920714157936
 31
0.0
  0
LINE
  5
EF
330
1F
100
AcDbEntity
  8
1-E
  6
Continuous
 62
     7
370
     9
100
AcDbLine
 10
61.3296659168343
 20
-4.79691411576259
 30
0.0
 11
59.66812468275444
 21
-4.79691411576259
 31
0.0
  0
LINE
  5
F0
330
1F
100
AcDbEntity
  8
1-0ﾚｲﾔ
  6
Continuous
 62
     3
370
     9
100
AcDbLine
 10
60.35311230840676
 20
11.28307327658928
 30
0.0
 11
61.10305386547725
 21
35.28308588423741
 31
0.0
  0
LINE
  5
F1
330
1F
100
AcDbEntity
  8
1-E
  6
Continuous
 62
     7
370
     9
100
AcDbLine
 10
59.85065212307956
 20
-4.796914115762591
 30
0.0
 11
60.35311230840676
 21
11.28307327658928
 31
0.0
  0
LINE
  5
F2
330
1F
100
AcDbEntity
  8
1-0ﾚｲﾔ
  6
Continuous
 62
     3
370
     9
100
AcDbLine
 10
61.87831387759948
 20
12.76105667031362
 30
0.0
 11
62.58207774365576
 21
35.28308588423741
 31
0.0
  0
LINE
  5
F3
330
1F
100
AcDbEntity
  8
1-E
  6
Continuous
 62
     7
370
     9
100
AcDbLine
 10
61.3296659168343
 20
-4.79691411576259
 30
0.0
 11
61.87831387759948
 21
12.76105667031362
 31
0.0
  0
LINE
  5
F4
330
1F
100
AcDbEntity
  8
1-E
  6
Continuous
 62
     7
370
     9
100
AcDbLine
 10
223.2065834486746
 20
-4.796914115762707
 30
0.0
 11
224.8681246827545
 21
-4.796914115762707
 31
0.0
  0
LINE
  5
F5
330
1F
100
AcDbEntity
  8
1-E
  6
Continuous
 62
     7
370
     9
100
AcDbLine
 10
224.6855972424293
 20
-4.796914115762708
 30
0.0
 11
224.1831370571021
 21
11.28307327658916
 31
0.0
  0
LINE
  5
F6
330
1F
100
AcDbEntity
  8
1-E
  6
Continuous
 62
     7
370
     9
100
AcDbLine
 10
223.2065834486746
 20
-4.796914115762707
 30
0.0
 11
222.6579354879094
 21
12.7610566703135
 31
0.0
  0
LINE
  5
F7
330
1F
100
AcDbEntity
  8
1-0ﾚｲﾔ
  6
Continuous
 62
     3
370
     9
100
AcDbLine
 10
56.65983841797402
 20
11.28307327658928
 30
0.0
 11
61.83213014800501
 21
11.28307327658928
 31
0.0
  0
LINE
  5
F8
330
1F
100
AcDbEntity
  8
1-0ﾚｲﾔ
  6
Continuous
 62
     3
370
     9
100
AcDbLine
 10
222.7041192175039
 20
11.28307327658919
 30
0.0
 11
227.8764109475348
 21
11.28307327658919
 31
0.0
  0
LINE
  5
F9
330
1F
100
AcDbEntity
  8
1-3ﾚｲﾔ
  6
Continuous
 62
     4
370
     9
100
AcDbLine
 10
49.26813776171656
 20
-8.71692071415788
 30
0.0
 11
59.66812468275444
 21
-8.716920714157883
 31
0.0
  0
LINE
  5
FA
330
1F
100
AcDbEntity
  8
1-3ﾚｲﾔ
  6
Continuous
 62
     4
370
     9
100
AcDbLine
 10
224.8681246827545
 20
-8.716920714157933
 30
0.0
 11
235.2681116037924
 21
-8.716920714157936
 31
0.0
  0
LINE
  5
FB
330
1F
100
AcDbEntity
  8
1-2ﾚｲﾔ
  6
Continuous
 62
     6
370
     9
100
AcDbLine
 10
232.7966141969618
 20
128.2829737115179
 30
0.0
 11
224.8681246827545
 21
128.2829737115179
 31
0.0
  0
LINE
  5
FC
330
1F
100
AcDbEntity
  8
1-2ﾚｲﾔ
  6
Continuous
 62
     6
370
     9
100
AcDbLine
 10
59.66812468275455
 20
128.2829737115179
 30
0.0
 11
51.73958562166848
 21
128.2829737115179
 31
0.0
  0
LINE
  5
FD
330
1F
100
AcDbEntity
  8
1-E
  6
Continuous
 62
     7
370
     9
100
AcDbLine
 10
224.8681246827545
 20
98.28297371151785
 30
0.0
 11
59.66812468275452
 21
98.28297371151785
 31
0.0
  0
LINE
  5
FE
330
1F
100
AcDbEntity
  8
1-E
  6
Continuous
 62
     7
370
     9
100
AcDbLine
 10
49.26813776171656
 20
-8.71692071415788
 30
0.0
 11
-5.306361213902107
 21
-8.71692071415788
 31
0.0
  0
ARC
  5
FF
330
1F
100
AcDbEntity
  8
1-0ﾚｲﾔ
  6
JWW_DASHED2
 62
     3
370
     9
100
AcDbCircle
 10
50.26462458754906
 20
39.78308205481159
 30
0.0
 40
1.500000013808026
100
AcDbArc
 50
3.372573852539059
 51
89.99999999999999
  0
LINE
  5
100
330
1F
100
AcDbEntity
  8
1-0ﾚｲﾔ
  6
JWW_DASHED2
 62
     3
370
     9
100
AcDbLine
 10
50.26462458754906
 20
41.28306426271007
 30
0.0
 11
44.91063841448636
 21
41.28306426271007
 31
0.0
  0
ARC
  5
101
330
1F
100
AcDbEntity
  8
1-0ﾚｲﾔ
  6
JWW_DASHED2
 62
     3
370
     9
100
AcDbCircle
 10
52.37631256074826
 20
29.78308505943795
 30
0.0
 40
1.500000013808026
100
AcDbArc
 50
4.288681030273424
 51
89.99999999999999
  0
LINE
  5
102
330
1F
100
AcDbEntity
  8
1-0ﾚｲﾔ
  6
JWW_DASHED2
 62
     3
370
     9
100
AcDbLine
 10
54.89309581477517
 20
16.2830965477155
 30
0.0
 11
53.87218237770878
 21
29.89525919297435
 31
0.0
  0
LINE
  5
103
330
1F
100
AcDbEntity
  8
1-0ﾚｲﾔ
  6
JWW_DASHED2
 62
     3
370
     9
100
AcDbLine
 10
260.4800408661673
 20
67.29041911686653
 30
0.0
 11
252.4578066306762
 21
64.68385691850756
 31
0.0
  0
LINE
  5
104
330
1F
100
AcDbEntity
  8
1-E
  6
Continuous
 62
     7
370
     9
100
AcDbLine
 10
10.76813198812067
 20
62.28306290768245
 30
0.0
 11
-0.2318726661045503
 21
62.28306290768245
 31
0.0
  0
LINE
  5
105
330
1F
100
AcDbEntity
  8
1-E
  6
Continuous
 62
     7
370
     9
100
AcDbLine
 10
-0.2318726661045503
 20
62.28306290768245
 30
0.0
 11
-0.2318726661045503
 21
71.28305060381088
 31
0.0
  0
LINE
  5
106
330
1F
100
AcDbEntity
  8
1-E
  6
Continuous
 62
     7
370
     9
100
AcDbLine
 10
9.701871373785892
 20
62.28306290768164
 30
0.0
 11
10.23500168095369
 21
62.81619321484942
 31
0.0
  0
LINE
  5
107
330
1F
100
AcDbEntity
  8
1-E
  6
Continuous
 62
     7
370
     9
100
AcDbLine
 10
6.873444249039323
 20
62.28306290768174
 30
0.0
 11
10.03879783253323
 21
65.44841649117564
 31
0.0
  0
LINE
  5
108
330
1F
100
AcDbEntity
  8
1-E
  6
Continuous
 62
     7
370
     9
100
AcDbLine
 10
4.045017124292755
 20
62.28306290768182
 30
0.0
 11
10.4428620620305
 21
68.68090784541958
 31
0.0
  0
LINE
  5
109
330
1F
100
AcDbEntity
  8
1-E
  6
Continuous
 62
     7
370
     9
100
AcDbLine
 10
1.216589999550123
 20
62.28306290768224
 30
0.0
 11
10.21657769567888
 21
71.28305060381098
 31
0.0
  0
LINE
  5
10A
330
1F
100
AcDbEntity
  8
1-E
  6
Continuous
 62
     7
370
     9
100
AcDbLine
 10
-0.2318726661045361
 20
63.66302736677423
 30
0.0
 11
7.388150570932382
 21
71.28305060381115
 31
0.0
  0
LINE
  5
10B
330
1F
100
AcDbEntity
  8
1-E
  6
Continuous
 62
     7
370
     9
100
AcDbLine
 10
-0.2318726661048487
 20
66.4914544915206
 30
0.0
 11
4.559723446185913
 21
71.28305060381135
 31
0.0
  0
LINE
  5
10C
330
1F
100
AcDbEntity
  8
1-E
  6
Continuous
 62
     7
370
     9
100
AcDbLine
 10
-0.2318726661049055
 20
69.31988161626721
 30
0.0
 11
1.731296321439245
 21
71.28305060381135
 31
0.0
  0
LINE
  5
10D
330
1F
100
AcDbEntity
  8
1-E
  6
Continuous
 62
     7
370
     9
100
AcDbLine
 10
-0.2318726661053176
 20
63.61619324680476
 30
0.0
 11
1.101257673018011
 21
62.28306290768142
 31
0.0
  0
LINE
  5
10E
330
1F
100
AcDbEntity
  8
1-E
  6
Continuous
 62
     7
370
     9
100
AcDbLine
 10
-0.2318726661046924
 20
66.4446203715508
 30
0.0
 11
3.929684797764594
 21
62.28306290768152
 31
0.0
  0
LINE
  5
10F
330
1F
100
AcDbEntity
  8
1-E
  6
Continuous
 62
     7
370
     9
100
AcDbLine
 10
-0.2318726661040529
 20
69.27304749629683
 30
0.0
 11
6.758111922511148
 21
62.28306290768163
 31
0.0
  0
LINE
  5
110
330
1F
100
AcDbEntity
  8
1-E
  6
Continuous
 62
     7
370
     9
100
AcDbLine
 10
0.5865513511246832
 20
71.28305060381112
 30
0.0
 11
9.586539047253794
 21
62.28306290768201
 31
0.0
  0
LINE
  5
111
330
1F
100
AcDbEntity
  8
1-E
  6
Continuous
 62
     7
370
     9
100
AcDbLine
 10
3.414978475871166
 20
71.2830506038113
 30
0.0
 11
9.951110041101643
 21
64.74691903858083
 31
0.0
  0
LINE
  5
112
330
1F
100
AcDbEntity
  8
1-E
  6
Continuous
 62
     7
370
     9
100
AcDbLine
 10
6.243405600618075
 20
71.28305060381106
 30
0.0
 11
10.26538166449195
 21
67.26107453993718
 31
0.0
  0
LINE
  5
113
330
1F
100
AcDbEntity
  8
1-E
  6
Continuous
 62
     7
370
     9
100
AcDbLine
 10
9.071832725364288
 20
71.28305060381152
 30
0.0
 11
10.57965328788228
 21
69.77523004129353
 31
0.0
  0
LINE
  5
114
330
1F
100
AcDbEntity
  8
1-E
  6
Continuous
 62
     7
370
     9
100
AcDbLine
 10
11.65090872717491
 20
71.28305060381088
 30
0.0
 11
-5.306361213902107
 21
71.28305060381088
 31
0.0
  0
LINE
  5
115
330
1F
100
AcDbEntity
  8
1-E
  6
Continuous
 62
     7
370
     9
100
AcDbLine
 10
273.7681173773883
 20
62.28306290768228
 30
0.0
 11
284.7681220316135
 21
62.28306290768228
 31
0.0
  0
LINE
  5
116
330
1F
100
AcDbEntity
  8
1-E
  6
Continuous
 62
     7
370
     9
100
AcDbLine
 10
284.7681220316135
 20
62.28306290768228
 30
0.0
 11
284.7681220316135
 21
71.28305060381071
 31
0.0
  0
LINE
  5
117
330
1F
100
AcDbEntity
  8
1-E
  6
Continuous
 62
     7
370
     9
100
AcDbLine
 10
274.834377991723
 20
62.28306290768147
 30
0.0
 11
274.3012476845553
 21
62.81619321484925
 31
0.0
  0
LINE
  5
118
330
1F
100
AcDbEntity
  8
1-E
  6
Continuous
 62
     7
370
     9
100
AcDbLine
 10
277.6628051164696
 20
62.28306290768157
 30
0.0
 11
274.4974515329758
 21
65.44841649117546
 31
0.0
  0
LINE
  5
119
330
1F
100
AcDbEntity
  8
1-E
  6
Continuous
 62
     7
370
     9
100
AcDbLine
 10
280.4912322412163
 20
62.28306290768165
 30
0.0
 11
274.0933873034785
 21
68.68090784541941
 31
0.0
  0
LINE
  5
11A
330
1F
100
AcDbEntity
  8
1-E
  6
Continuous
 62
     7
370
     9
100
AcDbLine
 10
283.3196593659588
 20
62.28306290768207
 30
0.0
 11
274.3196716698301
 21
71.2830506038108
 31
0.0
  0
LINE
  5
11B
330
1F
100
AcDbEntity
  8
1-E
  6
Continuous
 62
     7
370
     9
100
AcDbLine
 10
284.7681220316135
 20
63.66302736677406
 30
0.0
 11
277.1480987945766
 21
71.28305060381098
 31
0.0
  0
LINE
  5
11C
330
1F
100
AcDbEntity
  8
1-E
  6
Continuous
 62
     7
370
     9
100
AcDbLine
 10
284.7681220316139
 20
66.49145449152043
 30
0.0
 11
279.9765259193231
 21
71.28305060381118
 31
0.0
  0
LINE
  5
11D
330
1F
100
AcDbEntity
  8
1-E
  6
Continuous
 62
     7
370
     9
100
AcDbLine
 10
284.7681220316139
 20
69.31988161626704
 30
0.0
 11
282.8049530440697
 21
71.28305060381118
 31
0.0
  0
LINE
  5
11E
330
1F
100
AcDbEntity
  8
1-E
  6
Continuous
 62
     7
370
     9
100
AcDbLine
 10
284.7681220316143
 20
63.61619324680459
 30
0.0
 11
283.4349916924909
 21
62.28306290768125
 31
0.0
  0
LINE
  5
11F
330
1F
100
AcDbEntity
  8
1-E
  6
Continuous
 62
     7
370
     9
100
AcDbLine
 10
284.7681220316136
 20
66.44462037155063
 30
0.0
 11
280.6065645677444
 21
62.28306290768135
 31
0.0
  0
LINE
  5
120
330
1F
100
AcDbEntity
  8
1-E
  6
Continuous
 62
     7
370
     9
100
AcDbLine
 10
284.7681220316131
 20
69.27304749629666
 30
0.0
 11
277.7781374429978
 21
62.28306290768145
 31
0.0
  0
LINE
  5
121
330
1F
100
AcDbEntity
  8
1-E
  6
Continuous
 62
     7
370
     9
100
AcDbLine
 10
283.9496980143842
 20
71.28305060381095
 30
0.0
 11
274.9497103182551
 21
62.28306290768184
 31
0.0
  0
LINE
  5
122
330
1F
100
AcDbEntity
  8
1-E
  6
Continuous
 62
     7
370
     9
100
AcDbLine
 10
281.1212708896378
 20
71.28305060381113
 30
0.0
 11
274.5851393244074
 21
64.74691903858066
 31
0.0
  0
LINE
  5
123
330
1F
100
AcDbEntity
  8
1-E
  6
Continuous
 62
     7
370
     9
100
AcDbLine
 10
278.2928437648909
 20
71.28305060381089
 30
0.0
 11
274.270867701017
 21
67.26107453993701
 31
0.0
  0
LINE
  5
124
330
1F
100
AcDbEntity
  8
1-E
  6
Continuous
 62
     7
370
     9
100
AcDbLine
 10
275.4644166401447
 20
71.28305060381135
 30
0.0
 11
273.9565960776267
 21
69.77523004129336
 31
0.0
  0
LINE
  5
125
330
1F
100
AcDbEntity
  8
1-E
  6
Continuous
 62
     7
370
     9
100
AcDbLine
 10
272.885340638334
 20
71.28305060381071
 30
0.0
 11
289.842610579411
 21
71.28305060381071
 31
0.0
  0
LINE
  5
126
330
1F
100
AcDbEntity
  8
1-E
  6
Continuous
 62
     7
370
     9
100
AcDbLine
 10
235.2681116037924
 20
-8.71692071415805
 30
0.0
 11
289.842610579411
 21
-8.71692071415805
 31
0.0
  0
LINE
  5
127
330
1F
100
AcDbEntity
  8
1-E
  6
Continuous
 62
     7
370
     9
100
AcDbLine
 10
289.842610579411
 20
37.23649920261531
 30
0.0
 11
243.8891906626377
 21
-8.71692071415805
 31
0.0
  0
LINE
  5
128
330
1F
100
AcDbEntity
  8
1-E
  6
Continuous
 62
     7
370
     9
100
AcDbLine
 10
289.842610579411
 20
44.3075670144808
 30
0.0
 11
236.8181228507723
 21
-8.71692071415805
 31
0.0
  0
LINE
  5
129
330
1F
100
AcDbEntity
  8
1-E
  6
Continuous
 62
     7
370
     9
100
AcDbLine
 10
289.842610579411
 20
51.37863482634626
 30
0.0
 11
235.2681116037924
 21
-3.195864149272388
 31
0.0
  0
LINE
  5
12A
330
1F
100
AcDbEntity
  8
1-E
  6
Continuous
 62
     7
370
     9
100
AcDbLine
 10
33.26826148162786
 20
35.05905206280903
 30
0.0
 11
-5.306361213902107
 21
-3.515570632720923
 31
0.0
  0
LINE
  5
12B
330
1F
100
AcDbEntity
  8
1-E
  6
Continuous
 62
     7
370
     9
100
AcDbLine
 10
32.42736131182266
 20
41.2892197048693
 30
0.0
 11
-5.306361213902107
 21
3.555497179144545
 31
0.0
  0
LINE
  5
12C
330
1F
100
AcDbEntity
  8
1-E
  6
Continuous
 62
     7
370
     9
100
AcDbLine
 10
30.50810986113838
 20
46.4410360660505
 30
0.0
 11
-5.306361213902107
 21
10.62656499101002
 31
0.0
  0
LINE
  5
12D
330
1F
100
AcDbEntity
  8
1-E
  6
Continuous
 62
     7
370
     9
100
AcDbLine
 10
64.66812468275447
 20
35.28308588423741
 30
0.0
 11
64.66812468275444
 21
-49.25310648171001
 31
0.0
  0
LINE
  5
12E
330
1F
100
AcDbEntity
  8
1-E
  6
Continuous
 62
     7
370
     9
100
AcDbLine
 10
59.66812468275444
 20
-4.79691411576259
 30
0.0
 11
59.66812468275444
 21
-49.25310648171001
 31
0.0
  0
LINE
  5
12F
330
1F
100
AcDbEntity
  8
1-E
  6
Continuous
 62
     7
370
     9
100
AcDbLine
 10
224.8681246827545
 20
-4.796914115762707
 30
0.0
 11
224.8681246827545
 21
-49.25310648171013
 31
0.0
  0
LINE
  5
130
330
1F
100
AcDbEntity
  8
1-E
  6
Continuous
 62
     7
370
     9
100
AcDbLine
 10
219.8681246827544
 20
35.28308588423729
 30
0.0
 11
219.8681246827545
 21
-49.25310648171013
 31
0.0
  0
LINE
  5
131
330
1F
100
AcDbEntity
  8
1-E
  6
Continuous
 62
     7
370
     9
100
AcDbLine
 10
64.66812468275455
 20
171.1788994968679
 30
0.0
 11
64.6681246827545
 21
98.28297371151785
 31
0.0
  0
LINE
  5
132
330
1F
100
AcDbEntity
  8
1-E
  6
Continuous
 62
     7
370
     9
100
AcDbLine
 10
59.66812468275455
 20
171.1788994968679
 30
0.0
 11
59.66812468275452
 21
98.28297371151785
 31
0.0
  0
LINE
  5
133
330
1F
100
AcDbEntity
  8
1-E
  6
Continuous
 62
     7
370
     9
100
AcDbLine
 10
219.8681246827545
 20
171.1788994968678
 30
0.0
 11
219.8681246827545
 21
98.28297371151773
 31
0.0
  0
LINE
  5
134
330
1F
100
AcDbEntity
  8
1-E
  6
Continuous
 62
     7
370
     9
100
AcDbLine
 10
224.8681246827545
 20
171.1788994968678
 30
0.0
 11
224.8681246827545
 21
98.28297371151785
 31
0.0
  0
LINE
  5
135
330
1F
100
AcDbEntity
  8
1-0ﾚｲﾔ
  6
JWW_CENTER1
 62
     3
370
     9
100
AcDbLine
 10
142.2681246827545
 20
171.1788994968679
 30
0.0
 11
142.2681246827544
 21
-49.25310648171006
 31
0.0
  0
LINE
  5
136
330
1F
100
AcDbEntity
  8
1-A
  6
JWW_PHANTOM1
 62
     4
370
     9
100
AcDbLine
 10
224.8681036411466
 20
116.5954454719252
 30
0.0
 11
225.7381523444489
 21
115.7254077632153
 31
0.0
  0
LINE
  5
137
330
1F
100
AcDbEntity
  8
1-A
  6
JWW_PHANTOM1
 62
     4
370
     9
100
AcDbLine
 10
224.8681246827545
 20
120.8554872777942
 30
0.0
 11
225.7381523444545
 21
121.7254373979825
 31
0.0
  0
LINE
  5
138
330
1F
100
AcDbEntity
  8
1-A
  6
JWW_PHANTOM1
 62
     4
370
     9
100
AcDbLine
 10
225.7381523444517
 20
121.7254373979825
 30
0.0
 11
225.7381523444517
 21
115.7254077632153
 31
0.0
  0
LINE
  5
139
330
1F
100
AcDbEntity
  8
1-A
  6
JWW_PHANTOM1
 62
     4
370
     9
100
AcDbLine
 10
236.8681629106809
 20
116.5954454719196
 30
0.0
 11
224.8681036411466
 21
116.5954454719196
 31
0.0
  0
LINE
  5
13A
330
1F
100
AcDbEntity
  8
1-A
  6
JWW_PHANTOM1
 62
     4
370
     9
100
AcDbLine
 10
236.8681839522888
 20
120.8554872777887
 30
0.0
 11
224.8681246827545
 21
120.8554872777887
 31
0.0
  0
LINE
  5
13B
330
1F
100
AcDbEntity
  8
1-A
  6
JWW_PHANTOM1
 62
     4
370
     9
100
AcDbLine
 10
238.9424500259382
 20
113.9069187260981
 30
0.0
 11
236.8681627044682
 21
113.7254178706816
 31
0.0
  0
LINE
  5
13C
330
1F
100
AcDbEntity
  8
1-A
  6
JWW_PHANTOM1
 62
     4
370
     9
100
AcDbLine
 10
240.7681678294141
 20
121.5515598631278
 30
0.0
 11
240.7681463524727
 21
115.8992606150313
 31
0.0
  0
LINE
  5
13D
330
1F
100
AcDbEntity
  8
1-A
  6
JWW_PHANTOM1
 62
     4
370
     9
100
AcDbLine
 10
236.8681690879867
 20
123.7253670043446
 30
0.0
 11
236.8681627044682
 21
113.7254178706816
 31
0.0
  0
LINE
  5
13E
330
1F
100
AcDbEntity
  8
1-A
  6
JWW_PHANTOM1
 62
     4
370
     9
100
AcDbLine
 10
238.9424737556458
 20
123.5439478195443
 30
0.0
 11
236.8681690879867
 21
123.7253670043446
 31
0.0
  0
LINE
  5
13F
330
1F
100
AcDbEntity
  8
1-A
  6
JWW_PHANTOM1
 62
     4
370
     9
100
AcDbLine
 10
236.8681905420088
 20
121.7254047431442
 30
0.0
 11
224.8681362959793
 21
121.7254540347123
 31
0.0
  0
LINE
  5
140
330
1F
100
AcDbEntity
  8
1-A
  6
JWW_PHANTOM1
 62
     4
370
     9
100
AcDbLine
 10
224.8681362959766
 20
121.7254540347123
 30
0.0
 11
224.8681362959766
 21
115.7254243999451
 31
0.0
  0
LINE
  5
141
330
1F
100
AcDbEntity
  8
1-A
  6
JWW_PHANTOM1
 62
     4
370
     9
100
AcDbLine
 10
236.8681412504461
 20
115.725380131882
 30
0.0
 11
224.8681362959739
 21
115.7254243999451
 31
0.0
  0
ARC
  5
142
330
1F
100
AcDbEntity
  8
1-A
  6
JWW_PHANTOM1
 62
     4
370
     9
100
AcDbCircle
 10
238.7681398232202
 20
115.8992934760713
 30
0.0
 40
2.000000018410701
100
AcDbArc
 50
274.9998587209298
 51
359.9998434621407
  0
ARC
  5
143
330
1F
100
AcDbEntity
  8
1-A
  6
JWW_PHANTOM1
 62
     4
370
     9
100
AcDbCircle
 10
238.7681562766567
 20
121.5515434326106
 30
0.0
 40
2.000000018410701
100
AcDbArc
 50
359.9998434621407
 51
84.99982820335161
  0
LINE
  5
144
330
1F
100
AcDbEntity
  8
1-A
  6
JWW_PHANTOM1
 62
     4
370
     9
100
AcDbLine
 10
242.5933961083191
 20
118.7253091879901
 30
0.0
 11
224.8681246827545
 21
118.7253760925661
 31
0.0
  0
LINE
  5
145
330
1F
100
AcDbEntity
  8
1-0ﾚｲﾔ
  6
Continuous
 62
     3
370
     9
100
AcDbLine
 10
32.56330849048106
 20
41.28306426271007
 30
0.0
 11
44.91063841448636
 21
41.28306426271007
 31
0.0
  0
LINE
  5
146
330
1F
100
AcDbEntity
  8
1-0ﾚｲﾔ
  6
JWW_CENTER1
 62
     3
370
     9
100
AcDbLine
 10
36.26812680366726
 20
25.28313843574259
 30
0.0
 11
36.26812680366726
 21
41.28306426271007
 31
0.0
  0
LINE
  5
147
330
1F
100
AcDbEntity
  8
1-0ﾚｲﾔ
  6
Continuous
 62
     3
370
     9
100
AcDbLine
 10
33.908159420949
 20
38.28309984691307
 30
0.0
 11
33.908159420949
 21
41.28306426271007
 31
0.0
  0
LINE
  5
148
330
1F
100
AcDbEntity
  8
1-0ﾚｲﾔ
  6
Continuous
 62
     3
370
     9
100
AcDbLine
 10
38.62809418638551
 20
38.28309984691307
 30
0.0
 11
38.62809418638551
 21
41.28306426271007
 31
0.0
  0
LINE
  5
149
330
1F
100
AcDbEntity
  8
1-0ﾚｲﾔ
  6
Continuous
 62
     3
370
     9
100
AcDbLine
 10
39.44318988903922
 20
38.28309984691307
 30
0.0
 11
39.44318988903922
 21
41.28306426271007
 31
0.0
  0
LINE
  5
14A
330
1F
100
AcDbEntity
  8
1-0ﾚｲﾔ
  6
Continuous
 62
     3
370
     9
100
AcDbLine
 10
33.09321235893162
 20
38.28309984691307
 30
0.0
 11
33.09321235893162
 21
41.28306426271007
 31
0.0
  0
ARC
  5
14B
330
1F
100
AcDbEntity
  8
1-0ﾚｲﾔ
  6
Continuous
 62
     3
370
     9
100
AcDbCircle
 10
36.1268191054138
 20
56.32812264201215
 30
0.0
 40
7.000000064437453
100
AcDbArc
 50
186.9997100830078
 51
266.0000762939453
  0
LINE
  5
14C
330
1F
100
AcDbEntity
  8
1-0ﾚｲﾔ
  6
Continuous
 62
     3
370
     9
100
AcDbLine
 10
28.57399899116044
 20
60.40247821236926
 30
0.0
 11
29.17905848294004
 21
55.47502448334151
 31
0.0
  0
LINE
  5
14D
330
1F
100
AcDbEntity
  8
1-0ﾚｲﾔ
  6
Continuous
 62
     3
370
     9
100
AcDbLine
 10
27.2069587201471
 20
62.06082983438603
 30
0.0
 11
24.28803834510893
 21
63.00927150982187
 31
0.0
  0
ARC
  5
14E
330
1F
100
AcDbEntity
  8
1-0ﾚｲﾔ
  6
Continuous
 62
     3
370
     9
100
AcDbCircle
 10
26.58890884425547
 20
60.15872196391434
 30
0.0
 40
2.0
100
AcDbArc
 50
7.000506882558112
 51
71.99952144410499
  0
LINE
  5
14F
330
1F
100
AcDbEntity
  8
1-0ﾚｲﾔ
  6
Continuous
 62
     3
370
     9
100
AcDbLine
 10
33.14924987882114
 20
55.96251622356459
 30
0.0
 11
32.70253521982613
 21
59.60019851601675
 31
0.0
  0
ARC
  5
150
330
1F
100
AcDbEntity
  8
1-0ﾚｲﾔ
  6
Continuous
 62
     3
370
     9
100
AcDbCircle
 10
36.1268686522925
 20
56.32812264201215
 30
0.0
 40
3.000000027616052
100
AcDbArc
 50
186.9999542236328
 51
266.0001373291015
  0
LINE
  5
151
330
1F
100
AcDbEntity
  8
1-0ﾚｲﾔ
  6
Continuous
 62
     3
370
     9
100
AcDbLine
 10
35.91763218324468
 20
53.33544161739454
 30
0.0
 11
44.73994941712192
 21
52.7184838829441
 31
0.0
  0
LINE
  5
152
330
1F
100
AcDbEntity
  8
1-0ﾚｲﾔ
  6
Continuous
 62
     3
370
     9
100
AcDbLine
 10
48.63770327624059
 20
48.43619669768751
 30
0.0
 11
35.63858416200912
 21
49.34518373561133
 31
0.0
  0
ARC
  5
153
330
1F
100
AcDbEntity
  8
1-0ﾚｲﾔ
  6
Continuous
 62
     3
370
     9
100
AcDbCircle
 10
48.42841726031395
 20
45.44351567306995
 30
0.0
 40
3.000000027616052
100
AcDbArc
 50
3.372573852539059
 51
86.00013732910156
  0
LINE
  5
154
330
1F
100
AcDbEntity
  8
1-0ﾚｲﾔ
  6
Continuous
 62
     3
370
     9
100
AcDbLine
 10
51.42322880071873
 20
45.62000165525041
 30
0.0
 11
52.26810217751347
 21
31.28306726733643
 31
0.0
  0
LINE
  5
155
330
1F
100
AcDbEntity
  8
1-2ﾚｲﾔ
  6
Continuous
 62
     6
370
     9
100
AcDbLine
 10
47.81098816958024
 20
58.28304429078145
 30
0.0
 11
40.71768425165305
 21
58.28304429078145
 31
0.0
  0
LINE
  5
156
330
1F
100
AcDbEntity
  8
1-0ﾚｲﾔ
  6
Continuous
 62
     3
370
     9
100
AcDbLine
 10
239.8361356389186
 20
58.28304429078136
 30
0.0
 11
250.344830438629
 21
58.28304429078136
 31
0.0
  0
LINE
  5
157
330
1F
100
AcDbEntity
  8
1-0ﾚｲﾔ
  6
Continuous
 62
     3
370
     9
100
AcDbLine
 10
248.618716276022
 20
53.33544161739451
 30
0.0
 11
235.7795344864617
 21
52.43765217407281
 31
0.0
  0
ARC
  5
158
330
1F
100
AcDbEntity
  8
1-0ﾚｲﾔ
  6
Continuous
 62
     3
370
     9
100
AcDbCircle
 10
248.4094302600952
 20
56.32812264201209
 30
0.0
 40
3.000000027616052
100
AcDbArc
 50
273.9998626708984
 51
353.0000457763672
  0
LINE
  5
159
330
1F
100
AcDbEntity
  8
1-0ﾚｲﾔ
  6
Continuous
 62
     3
370
     9
100
AcDbLine
 10
251.3869994866879
 20
55.96251622356451
 30
0.0
 11
251.8336150519254
 21
59.60019851601669
 31
0.0
  0
LINE
  5
15A
330
1F
100
AcDbEntity
  8
1-A
  6
JWW_CENTER1
 62
     4
370
     9
100
AcDbLine
 10
245.7681356997181
 20
70.46498673345081
 30
0.0
 11
245.7681356997181
 21
58.28304429078136
 31
0.0
  0
LINE
  5
15B
330
1F
100
AcDbEntity
  8
1-2ﾚｲﾔ
  6
Continuous
 62
     6
370
     9
100
AcDbLine
 10
240.8977270634555
 20
65.66860113407142
 30
0.0
 11
249.767965700411
 21
65.28326548656611
 31
0.0
  0
LINE
  5
15C
330
1F
100
AcDbEntity
  8
1-2ﾚｲﾔ
  6
Continuous
 62
     6
370
     9
100
AcDbLine
 10
250.7682580646017
 20
64.28297312237532
 30
0.0
 11
249.767965700411
 21
65.28326548656611
 31
0.0
  0
LINE
  5
15D
330
1F
100
AcDbEntity
  8
1-A
  6
Continuous
 62
     4
370
     9
100
AcDbLine
 10
248.2680730149629
 20
65.72186402874979
 30
0.0
 11
248.2680730149629
 21
65.34842293528769
 31
0.0
  0
LINE
  5
15E
330
1F
100
AcDbEntity
  8
1-A
  6
Continuous
 62
     4
370
     9
100
AcDbLine
 10
248.7681001155148
 20
65.72186402874979
 30
0.0
 11
248.7681001155148
 21
65.32670105446267
 31
0.0
  0
LINE
  5
15F
330
1F
100
AcDbEntity
  8
1-A
  6
Continuous
 62
     4
370
     9
100
AcDbLine
 10
243.2681983844731
 20
65.72186402874979
 30
0.0
 11
243.2681983844731
 21
65.56562452444882
 31
0.0
  0
LINE
  5
160
330
1F
100
AcDbEntity
  8
1-A
  6
Continuous
 62
     4
370
     9
100
AcDbLine
 10
242.7681712839211
 20
65.72186402874979
 30
0.0
 11
242.7681712839211
 21
65.58734640527383
 31
0.0
  0
TEXT
  5
161
330
1F
100
AcDbEntity
  8
1-F
  6
Continuous
 62
     2
370
     9
100
AcDbText
 10
124.7681246827544
 20
-68.36826704353588
 30
0.0
 40
6.096
  1
納まり図
 41
1.09375
  7
ＭＳ ゴシック
100
AcDbText
  0
LINE
  5
162
330
1F
100
AcDbEntity
  8
1-F
  6
Continuous
 62
     7
370
     9
100
AcDbLine
 10
121.2943271087642
 20
-71.49713954987074
 30
0.0
 11
163.4460189334231
 21
-71.49713954987074
 31
0.0
  0
LINE
  5
163
330
1F
100
AcDbEntity
  8
1-4ﾚｲﾔ
  6
Continuous
 62
     2
370
     9
100
AcDbLine
 10
72.26812468275455
 20
59.46127373800619
 30
0.0
 11
54.26812468275449
 21
94.46127373800618
 31
0.0
  0
LINE
  5
164
330
1F
100
AcDbEntity
  8
1-4ﾚｲﾔ
  6
Continuous
 62
     2
370
     9
100
AcDbLine
 10
212.2681246827545
 20
59.46127373800613
 30
0.0
 11
230.2681246827545
 21
94.46127373800613
 31
0.0
  0
LINE
  5
165
330
1F
100
AcDbEntity
  8
1-4ﾚｲﾔ
  6
Continuous
 62
     2
370
     9
100
AcDbLine
 10
211.7345520013636
 20
59.73568254557856
 30
0.0
 11
229.7345520013636
 21
94.73568254557858
 31
0.0
  0
LINE
  5
166
330
1F
100
AcDbEntity
  8
1-4ﾚｲﾔ
  6
Continuous
 62
     2
370
     9
100
AcDbLine
 10
229.7345520013636
 20
94.73568254557858
 30
0.0
 11
230.2681246827545
 21
94.46127373800613
 31
0.0
  0
LINE
  5
167
330
1F
100
AcDbEntity
  8
1-4ﾚｲﾔ
  6
Continuous
 62
     2
370
     9
100
AcDbLine
 10
211.7345520013636
 20
59.73568254557856
 30
0.0
 11
212.2681246827545
 21
59.46127373800613
 31
0.0
  0
LINE
  5
168
330
1F
100
AcDbEntity
  8
1-4ﾚｲﾔ
  6
Continuous
 62
     2
370
     9
100
AcDbLine
 10
72.80169736414541
 20
59.73568254557865
 30
0.0
 11
54.80169736414535
 21
94.73568254557864
 31
0.0
  0
LINE
  5
169
330
1F
100
AcDbEntity
  8
1-4ﾚｲﾔ
  6
Continuous
 62
     2
370
     9
100
AcDbLine
 10
54.80169736414535
 20
94.73568254557864
 30
0.0
 11
54.26812468275449
 21
94.46127373800618
 31
0.0
  0
LINE
  5
16A
330
1F
100
AcDbEntity
  8
1-4ﾚｲﾔ
  6
Continuous
 62
     2
370
     9
100
AcDbLine
 10
72.80169736414541
 20
59.73568254557865
 30
0.0
 11
72.26812468275455
 21
59.46127373800619
 31
0.0
  0
LINE
  5
16B
330
1F
100
AcDbEntity
  8
1-4ﾚｲﾔ
  6
Continuous
 62
     2
370
     9
100
AcDbLine
 10
72.80169736414541
 20
59.73568254557865
 30
0.0
 11
211.7345520013636
 21
59.73568254557865
 31
0.0
  0
LINE
  5
16C
330
1F
100
AcDbEntity
  8
1-4ﾚｲﾔ
  6
Continuous
 62
     2
370
     9
100
AcDbLine
 10
212.2681246827545
 20
59.46127373800613
 30
0.0
 11
72.26812468275455
 21
59.46127373800613
 31
0.0
  0
LINE
  5
16D
330
1F
100
AcDbEntity
  8
1-4ﾚｲﾔ
  6
Continuous
 62
     2
370
     9
100
AcDbLine
 10
54.80169736414535
 20
94.73568254557864
 30
0.0
 11
229.7345520013636
 21
94.73568254557864
 31
0.0
  0
LINE
  5
16E
330
1F
100
AcDbEntity
  8
1-4ﾚｲﾔ
  6
Continuous
 62
     2
370
     9
100
AcDbLine
 10
223.0323203474958
 20
79.07974295361514
 30
0.0
 11
222.4987476661049
 21
79.3541517611876
 31
0.0
  0
ARC
  5
16F
330
1F
100
AcDbEntity
  8
1-4ﾚｲﾔ
  6
Continuous
 62
     2
370
     9
100
AcDbCircle
 10
219.4744750352948
 20
70.84979915850296
 30
0.0
 40
0.6000000000000001
100
AcDbArc
 50
152.7838884426925
 51
235.3737620620181
  0
ARC
  5
170
330
1F
100
AcDbEntity
  8
1-4ﾚｲﾔ
  6
Continuous
 62
     2
370
     9
100
AcDbCircle
 10
219.4744750352948
 20
70.84979915850298
 30
0.0
 40
1.2
100
AcDbArc
 50
152.7838884426925
 51
235.3737620620176
  0
LINE
  5
171
330
1F
100
AcDbEntity
  8
1-4ﾚｲﾔ
  6
Continuous
 62
     2
370
     9
100
AcDbLine
 10
243.2681246827545
 20
52.96127373800613
 30
0.0
 11
218.7926102777871
 21
69.86234766477334
 31
0.0
  0
LINE
  5
172
330
1F
100
AcDbEntity
  8
1-4ﾚｲﾔ
  6
Continuous
 62
     2
370
     9
100
AcDbLine
 10
243.6090570615084
 20
53.45499948487094
 30
0.0
 11
243.2681246827545
 21
52.96127373800613
 31
0.0
  0
LINE
  5
173
330
1F
100
AcDbEntity
  8
1-4ﾚｲﾔ
  6
Continuous
 62
     2
370
     9
100
AcDbLine
 10
218.940902353904
 20
71.12420796607542
 30
0.0
 11
223.0323203474958
 21
79.07974295361514
 31
0.0
  0
LINE
  5
174
330
1F
100
AcDbEntity
  8
1-4ﾚｲﾔ
  6
Continuous
 62
     2
370
     9
100
AcDbLine
 10
219.133542656541
 20
70.35607341163815
 30
0.0
 11
243.6090570615084
 21
53.45499948487094
 31
0.0
  0
LINE
  5
175
330
1F
100
AcDbEntity
  8
1-4ﾚｲﾔ
  6
Continuous
 62
     2
370
     9
100
AcDbLine
 10
61.50392901801317
 20
79.07974295361522
 30
0.0
 11
62.03750169940403
 21
79.35415176118768
 31
0.0
  0
ARC
  5
176
330
1F
100
AcDbEntity
  8
1-4ﾚｲﾔ
  6
Continuous
 62
     2
370
     9
100
AcDbCircle
 10
65.06177433021415
 20
70.84979915850305
 30
0.0
 40
0.6000000000000001
100
AcDbArc
 50
304.6262379379819
 51
27.21611155730753
  0
ARC
  5
177
330
1F
100
AcDbEntity
  8
1-4ﾚｲﾔ
  6
Continuous
 62
     2
370
     9
100
AcDbCircle
 10
65.06177433021415
 20
70.84979915850306
 30
0.0
 40
1.2
100
AcDbArc
 50
304.6262379379824
 51
27.21611155730751
  0
LINE
  5
178
330
1F
100
AcDbEntity
  8
1-4ﾚｲﾔ
  6
JWW_PHANTOM1
 62
     2
370
     9
100
AcDbLine
 10
66.14527250947637
 20
70.13968754168954
 30
0.0
 11
66.61098182561167
 21
70.46127373800621
 31
0.0
  0
LINE
  5
179
330
1F
100
AcDbEntity
  8
1-4ﾚｲﾔ
  6
JWW_PHANTOM1
 62
     2
370
     9
100
AcDbLine
 10
65.83637807791288
 20
70.65553644825462
 30
0.0
 11
65.70127287848672
 21
70.91824100269437
 31
0.0
  0
LINE
  5
17A
330
1F
100
AcDbEntity
  8
1-4ﾚｲﾔ
  6
JWW_PHANTOM1
 62
     2
370
     9
100
AcDbLine
 10
65.83637807791288
 20
70.65553644825462
 30
0.0
 11
65.67047053904238
 21
70.54097233601316
 31
0.0
  0
LINE
  5
17B
330
1F
100
AcDbEntity
  8
1-4ﾚｲﾔ
  6
Continuous
 62
     2
370
     9
100
AcDbLine
 10
65.59534701160501
 20
71.1242079660755
 30
0.0
 11
61.50392901801317
 21
79.07974295361522
 31
0.0
  0
LINE
  5
17C
330
1F
100
AcDbEntity
  8
1-4ﾚｲﾔ
  6
Continuous
 62
     2
370
     9
100
AcDbLine
 10
65.402706708968
 20
70.35607341163823
 30
0.0
 11
40.92719230400056
 21
53.45499948487102
 31
0.0
  0
LINE
  5
17D
330
1F
100
AcDbEntity
  8
1-4ﾚｲﾔ
  6
Continuous
 62
     2
370
     9
100
AcDbLine
 10
41.26812468275446
 20
52.96127373800621
 30
0.0
 11
65.7436390877219
 21
69.86234766477342
 31
0.0
  0
LINE
  5
17E
330
1F
100
AcDbEntity
  8
1-4ﾚｲﾔ
  6
Continuous
 62
     2
370
     9
100
AcDbLine
 10
40.92719230400056
 20
53.45499948487102
 30
0.0
 11
41.26812468275446
 21
52.96127373800621
 31
0.0
  0
LINE
  5
17F
330
1F
100
AcDbEntity
  8
1-0ﾚｲﾔ
  6
Continuous
 62
     3
370
     9
100
AcDbLine
 10
43.21524958124827
 20
54.30582165269331
 30
0.0
 11
43.43498372406424
 21
53.70193987965996
 31
0.0
  0
LINE
  5
180
330
1F
100
AcDbEntity
  8
1-0ﾚｲﾔ
  6
Continuous
 62
     3
370
     9
100
AcDbLine
 10
42.12724340579535
 20
57.29592182503657
 30
0.0
 11
43.00321151518855
 21
54.8885527733182
 31
0.0
  0
LINE
  5
181
330
1F
100
AcDbEntity
  8
1-0ﾚｲﾔ
  6
Continuous
 62
     3
370
     9
100
AcDbLine
 10
238.3531062991181
 20
57.0843905130153
 30
0.0
 11
238.4186985310518
 21
57.27382391710486
 31
0.0
  0
LINE
  5
182
330
1F
100
AcDbEntity
  8
1-0ﾚｲﾔ
  6
Continuous
 62
     3
370
     9
100
AcDbLine
 10
237.0923285863652
 20
53.44320607872032
 30
0.0
 11
238.1493521522036
 21
56.49593909873037
 31
0.0
  0
LINE
  5
183
330
1F
100
AcDbEntity
  8
1-2ﾚｲﾔ
  6
Continuous
 62
     6
370
     9
100
AcDbLine
 10
240.0241164969739
 20
58.28304429078136
 30
0.0
 11
236.6172599303369
 21
58.28304429078136
 31
0.0
  0
LINE
  5
184
330
1F
100
AcDbEntity
  8
1-2ﾚｲﾔ
  6
Continuous
 62
     6
370
     9
100
AcDbLine
 10
235.5613320618375
 20
58.28304429078136
 30
0.0
 11
48.96678301932391
 21
58.28304429078145
 31
0.0
  0
LINE
  5
185
330
1F
100
AcDbEntity
  8
1-0ﾚｲﾔ
  6
Continuous
 62
     3
370
     9
100
AcDbLine
 10
237.1148228693269
 20
53.50796384927344
 30
0.0
 11
43.52159166815511
 21
53.5079638492735
 31
0.0
  0
TEXT
  5
186
330
1F
100
AcDbEntity
  8
1-F
  6
Continuous
 62
     2
370
     9
100
AcDbText
 10
250.5103106826091
 20
139.1199617530338
 30
0.0
 40
6.096
  1
ＥＭＢ－２－１５０
 41
1.111111111111111
  7
ＭＳ ゴシック
100
AcDbText
  0
TEXT
  5
187
330
1F
100
AcDbEntity
  8
1-F
  6
Continuous
 62
     2
370
     9
100
AcDbText
 10
251.1760026260596
 20
149.5087480331531
 30
0.0
 40
6.096
  1
ルーフドレン
 41
1.104166666666667
  7
ＭＳ ゴシック
100
AcDbText
  0
TEXT
  5
188
330
1F
100
AcDbEntity
  8
1-F
  6
Continuous
 62
     2
370
     9
100
AcDbText
 10
250.9693755841321
 20
159.7883248714631
 30
0.0
 40
6.096
  1
バルコニー中継用
 41
1.109375
  7
ＭＳ ゴシック
100
AcDbText
  0
LINE
  5
189
330
1F
100
AcDbEntity
  8
1-F
  6
Continuous
 62
     7
370
     9
100
AcDbLine
 10
255.7842893877449
 20
135.4072585064977
 30
0.0
 11
255.7842893877449
 21
104.7229509628157
 31
0.0
  0
LINE
  5
18A
330
1F
100
AcDbEntity
  8
1-F
  6
Continuous
 62
     7
370
     9
100
AcDbLine
 10
255.7842893877449
 20
104.7229509628157
 30
0.0
 11
235.2026791394648
 21
104.7229509628157
 31
0.0
  0
LINE
  5
18B
330
1F
100
AcDbEntity
  8
1-F
  6
Continuous
 62
     7
370
     9
100
AcDbLine
 10
37.40439009002152
 20
128.2829737115179
 30
0.0
 11
36.62123293670122
 21
122.334304543275
 31
0.0
  0
LINE
  5
18C
330
1F
100
AcDbEntity
  8
1-F
  6
Continuous
 62
     7
370
     9
100
AcDbLine
 10
37.40439009002152
 20
128.2829737115179
 30
0.0
 11
38.18754724334183
 21
122.334304543275
 31
0.0
  0
LINE
  5
18D
330
1F
100
AcDbEntity
  8
1-F
  6
Continuous
 62
     7
370
     9
100
AcDbLine
 10
36.80439006617966
 20
128.2829737115179
 30
0.0
 11
49.12173997364356
 21
128.2829737115179
 31
0.0
  0
LINE
  5
18E
330
1F
100
AcDbEntity
  8
1-F
  6
Continuous
 62
     7
370
     9
100
AcDbLine
 10
37.40439009002152
 20
94.46127373800618
 30
0.0
 11
37.40439009002152
 21
128.2829737115179
 31
0.0
  0
LINE
  5
18F
330
1F
100
AcDbEntity
  8
1-F
  6
Continuous
 62
     7
370
     9
100
AcDbLine
 10
37.40439009002152
 20
94.46127373800618
 30
0.0
 11
36.62123293670122
 21
100.409942906249
 31
0.0
  0
LINE
  5
190
330
1F
100
AcDbEntity
  8
1-F
  6
Continuous
 62
     7
370
     9
100
AcDbLine
 10
37.40439009002152
 20
94.46127373800618
 30
0.0
 11
38.18754724334183
 21
100.409942906249
 31
0.0
  0
LINE
  5
191
330
1F
100
AcDbEntity
  8
1-F
  6
Continuous
 62
     7
370
     9
100
AcDbLine
 10
36.80439006617966
 20
94.46127373800618
 30
0.0
 11
51.75732071122502
 21
94.46127373800618
 31
0.0
  0
TEXT
  5
192
330
1F
100
AcDbEntity
  8
1-F
  6
Continuous
 62
     2
370
   211
100
AcDbText
 10
35.27639009002152
 20
102.872123724762
 30
0.0
 40
6.096
  1
３５
 50
90.0
 41
1.0625
  7
ＭＳ ゴシック
100
AcDbText
  0
LINE
  5
193
330
1F
100
AcDbEntity
  8
1-F
  6
Continuous
 62
     7
370
     9
100
AcDbLine
 10
7.820287867493271
 20
142.9351503441613
 30
0.0
 11
7.820287867493271
 21
88.95223523729018
 31
0.0
  0
LINE
  5
194
330
1F
100
AcDbEntity
  8
1-F
  6
Continuous
 62
     7
370
     9
100
AcDbLine
 10
7.820287867493271
 20
88.95223523729018
 30
0.0
 11
57.10134448312273
 21
88.95223523729018
 31
0.0
  0
TEXT
  5
195
330
1F
100
AcDbEntity
  8
1-F
  6
Continuous
 62
     2
370
     9
100
AcDbText
 10
-43.55610405160883
 20
145.0799323986724
 30
0.0
 40
6.096
  1
ＨＰ－２－１５０
 41
1.109375
  7
ＭＳ ゴシック
100
AcDbText
  0
TEXT
  5
196
330
1F
100
AcDbEntity
  8
1-F
  6
Continuous
 62
     2
370
     9
100
AcDbText
 10
-43.3861281560794
 20
155.0097750220571
 30
0.0
 40
6.096
  1
水はね防止ロート
 41
1.109375
  7
ＭＳ ゴシック
100
AcDbText
  0
TEXT
  5
197
330
1F
100
AcDbEntity
  8
1-F
  6
Continuous
 62
     2
370
     9
100
AcDbText
 10
275.8493322062553
 20
-31.82385122569738
 30
0.0
 40
6.096
  1
スラブコンクリート
 41
1.111111111111111
  7
ＭＳ ゴシック
100
AcDbText
  0
LINE
  5
198
330
1F
100
AcDbEntity
  8
1-D
  6
Continuous
 62
    30
370
     5
100
AcDbLine
 10
272.451278818485
 20
73.28305060381071
 30
0.0
 11
289.842610579411
 21
73.28305060381071
 31
0.0
  0
LINE
  5
199
330
1F
100
AcDbEntity
  8
1-D
  6
Continuous
 62
    30
370
     5
100
AcDbLine
 10
272.451278818485
 20
73.28305060381071
 30
0.0
 11
257.1719510003479
 21
68.31847658374302
 31
0.0
  0
LINE
  5
19A
330
1F
100
AcDbEntity
  8
1-D
  6
Continuous
 62
    30
370
     5
100
AcDbLine
 10
272.6888563649504
 20
71.78305060381071
 30
0.0
 11
289.842610579411
 21
71.78305060381071
 31
0.0
  0
LINE
  5
19B
330
1F
100
AcDbEntity
  8
1-D
  6
Continuous
 62
    30
370
     5
100
AcDbLine
 10
272.609663849462
 20
72.28305060381071
 30
0.0
 11
289.842610579411
 21
72.28305060381071
 31
0.0
  0
LINE
  5
19C
330
1F
100
AcDbEntity
  8
1-D
  6
Continuous
 62
    30
370
     5
100
AcDbLine
 10
272.5304713339735
 20
72.78305060381071
 30
0.0
 11
289.842610579411
 21
72.78305060381071
 31
0.0
  0
LINE
  5
19D
330
1F
100
AcDbEntity
  8
1-D
  6
Continuous
 62
    30
370
     5
100
AcDbLine
 10
272.6888563649504
 20
71.78305060381071
 30
0.0
 11
258.7483336668517
 21
67.25348244237686
 31
0.0
  0
LINE
  5
19E
330
1F
100
AcDbEntity
  8
1-D
  6
Continuous
 62
    30
370
     5
100
AcDbLine
 10
272.609663849462
 20
72.28305060381071
 30
0.0
 11
258.0443409279306
 21
67.55047174754091
 31
0.0
  0
LINE
  5
19F
330
1F
100
AcDbEntity
  8
1-D
  6
Continuous
 62
    30
370
     5
100
AcDbLine
 10
272.5304713339735
 20
72.78305060381071
 30
0.0
 11
257.5455387789107
 21
67.91413177827027
 31
0.0
  0
LINE
  5
1A0
330
1F
100
AcDbEntity
  8
1-0ﾚｲﾔ
  6
Continuous
 62
     3
370
     9
100
AcDbLine
 10
272.8853901852128
 20
71.28305524883064
 30
0.0
 11
272.7680631762843
 21
71.28305524883064
 31
0.0
  0
LINE
  5
1A1
330
1F
100
AcDbEntity
  8
1-0ﾚｲﾔ
  6
Continuous
 62
     3
370
     9
100
AcDbLine
 10
256.2681597956436
 20
71.28305524883064
 30
0.0
 11
238.6056884515316
 21
71.28305524883064
 31
0.0
  0
LINE
  5
1A2
330
1F
100
AcDbEntity
  8
1-D
  6
Continuous
 62
    30
370
     5
100
AcDbLine
 10
12.084970547024
 20
73.28305060381082
 30
0.0
 11
27.36429836516112
 21
68.31847658374313
 31
0.0
  0
LINE
  5
1A3
330
1F
100
AcDbEntity
  8
1-D
  6
Continuous
 62
    30
370
     5
100
AcDbLine
 10
12.00577803153544
 20
72.78305060381082
 30
0.0
 11
26.99071058659831
 21
67.91413177827039
 31
0.0
  0
LINE
  5
1A4
330
1F
100
AcDbEntity
  8
1-D
  6
Continuous
 62
    30
370
     5
100
AcDbLine
 10
11.84739300055855
 20
71.78305060381082
 30
0.0
 11
25.78791569865723
 21
67.25348244237698
 31
0.0
  0
LINE
  5
1A5
330
1F
100
AcDbEntity
  8
1-D
  6
Continuous
 62
    30
370
     5
100
AcDbLine
 10
11.92658551604694
 20
72.28305060381082
 30
0.0
 11
26.49190843757833
 21
67.55047174754102
 31
0.0
  0
LINE
  5
1A6
330
1F
100
AcDbEntity
  8
1-D
  6
Continuous
 62
    30
370
     5
100
AcDbLine
 10
11.84739300055855
 20
71.78305060381082
 30
0.0
 11
-5.306361213902051
 21
71.78305060381082
 31
0.0
  0
LINE
  5
1A7
330
1F
100
AcDbEntity
  8
1-D
  6
Continuous
 62
    30
370
     5
100
AcDbLine
 10
11.92658551604694
 20
72.28305060381082
 30
0.0
 11
-5.306361213902051
 21
72.28305060381082
 31
0.0
  0
LINE
  5
1A8
330
1F
100
AcDbEntity
  8
1-D
  6
Continuous
 62
    30
370
     5
100
AcDbLine
 10
12.00577803153544
 20
72.78305060381082
 30
0.0
 11
-5.306361213902051
 21
72.78305060381082
 31
0.0
  0
LINE
  5
1A9
330
1F
100
AcDbEntity
  8
1-D
  6
Continuous
 62
    30
370
     5
100
AcDbLine
 10
12.084970547024
 20
73.28305060381082
 30
0.0
 11
-5.306361213902051
 21
73.28305060381082
 31
0.0
  0
TEXT
  5
1AA
330
1F
100
AcDbEntity
  8
1-F
  6
Continuous
 62
     2
370
     9
100
AcDbText
 10
292.3788576258906
 20
81.83450887573964
 30
0.0
 40
6.096
  1
コーキング
 41
1.1
  7
ＭＳ ゴシック
100
AcDbText
  0
TEXT
  5
1AB
330
1F
100
AcDbEntity
  8
1-F
  6
Continuous
 62
     2
370
     9
100
AcDbText
 10
282.2243231493781
 20
98.44298128245381
 30
0.0
 40
6.096
  1
塗膜防水
 41
1.09375
  7
ＭＳ ゴシック
100
AcDbText
  0
LINE
  5
1AC
330
1F
100
AcDbEntity
  8
1-F
  6
Continuous
 62
     7
370
     9
100
AcDbLine
 10
291.7650679285695
 20
84.35902284456276
 30
0.0
 11
281.8583163311752
 21
84.35902284456276
 31
0.0
  0
LINE
  5
1AD
330
1F
100
AcDbEntity
  8
1-F
  6
Continuous
 62
     7
370
     9
100
AcDbLine
 10
281.8583163311752
 20
84.35902284456276
 30
0.0
 11
281.8583163311752
 21
70.30334128194693
 31
0.0
  0
LINE
  5
1AE
330
1F
100
AcDbEntity
  8
1-F
  6
Continuous
 62
     7
370
     9
100
AcDbLine
 10
280.5936246378908
 20
101.0107968061404
 30
0.0
 11
267.9467077050471
 21
101.0107968061404
 31
0.0
  0
LINE
  5
1AF
330
1F
100
AcDbEntity
  8
1-F
  6
Continuous
 62
     7
370
     9
100
AcDbLine
 10
267.9467077050471
 20
101.0107968061404
 30
0.0
 11
267.9467077050471
 21
71.79198290496116
 31
0.0
  0
LINE
  5
1B0
330
1F
100
AcDbEntity
  8
1-F
  6
Continuous
 62
     7
370
     9
100
AcDbLine
 10
274.9025120181111
 20
-29.04166565326958
 30
0.0
 11
265.628106267359
 21
-29.04166565326958
 31
0.0
  0
LINE
  5
1B1
330
1F
100
AcDbEntity
  8
1-F
  6
Continuous
 62
     7
370
     9
100
AcDbLine
 10
265.628106267359
 20
-29.04166565326958
 30
0.0
 11
265.628106267359
 21
2.78640862772054
 31
0.0
  0
LWPOLYLINE
  5
1B2
330
1F
100
AcDbEntity
  8
1-F
  6
Continuous
 62
     7
370
     9
100
AcDbPolyline
 90
        4
 70
     1
 43
0.4
 10
57.30134448312273
 20
88.95223523729018
 42
0.4142135623731
 10
57.10134448312273
 20
89.15223523729018
 42
0.4142135623731
 10
56.90134448312273
 20
88.95223523729018
 42
0.4142135623731
 10
57.10134448312273
 20
88.75223523729018
 42
0.4142135623731
  0
LWPOLYLINE
  5
1B3
330
1F
100
AcDbEntity
  8
1-F
  6
Continuous
 62
     7
370
     9
100
AcDbPolyline
 90
        4
 70
     1
 43
0.4
 10
235.4026791394648
 20
104.7229509628157
 42
0.4142135623731
 10
235.2026791394648
 20
104.9229509628157
 42
0.4142135623731
 10
235.0026791394648
 20
104.7229509628157
 42
0.4142135623731
 10
235.2026791394648
 20
104.5229509628157
 42
0.4142135623731
  0
LWPOLYLINE
  5
1B4
330
1F
100
AcDbEntity
  8
1-F
  6
Continuous
 62
     7
370
     9
100
AcDbPolyline
 90
        4
 70
     1
 43
0.4
 10
268.146707705047
 20
71.79198290496116
 42
0.4142135623731
 10
267.9467077050471
 20
71.99198290496116
 42
0.4142135623731
 10
267.7467077050471
 20
71.79198290496116
 42
0.4142135623731
 10
267.9467077050471
 20
71.59198290496116
 42
0.4142135623731
  0
LWPOLYLINE
  5
1B5
330
1F
100
AcDbEntity
  8
1-F
  6
Continuous
 62
     7
370
     9
100
AcDbPolyline
 90
        4
 70
     1
 43
0.4
 10
282.0583163311751
 20
70.30334128194693
 42
0.4142135623731
 10
281.8583163311752
 20
70.50334128194693
 42
0.4142135623731
 10
281.6583163311752
 20
70.30334128194693
 42
0.4142135623731
 10
281.8583163311752
 20
70.10334128194692
 42
0.4142135623731
  0
LWPOLYLINE
  5
1B6
330
1F
100
AcDbEntity
  8
1-F
  6
Continuous
 62
     7
370
     9
100
AcDbPolyline
 90
        4
 70
     1
 43
0.4
 10
265.828106267359
 20
2.78640862772054
 42
0.4142135623731
 10
265.628106267359
 20
2.98640862772054
 42
0.4142135623731
 10
265.428106267359
 20
2.78640862772054
 42
0.4142135623731
 10
265.628106267359
 20
2.58640862772054
 42
0.4142135623731
  0
CIRCLE
  5
1B7
330
1F
100
AcDbEntity
  8
1-4ﾚｲﾔ
  6
Continuous
 62
     2
370
     9
100
AcDbCircle
 10
-208.1502778105596
 20
89.55074290830584
 30
0.0
 40
87.46642731860919
  0
CIRCLE
  5
1B8
330
1F
100
AcDbEntity
  8
1-4ﾚｲﾔ
  6
Continuous
 62
     2
370
     9
100
AcDbCircle
 10
-208.1502778105596
 20
89.55074290830584
 30
0.0
 40
88.00000000000006
  0
CIRCLE
  5
1B9
330
1F
100
AcDbEntity
  8
1-4ﾚｲﾔ
  6
Continuous
 62
     2
370
     9
100
AcDbCircle
 10
-208.1502778105596
 20
89.55074290830584
 30
0.0
 40
69.46642731860913
  0
LINE
  5
1BA
330
1F
100
AcDbEntity
  8
1-F
  6
Continuous
 62
     7
370
     9
100
AcDbLine
 10
-330.2286958800458
 20
77.05074290830584
 30
0.0
 11
-330.2286958800458
 21
102.0507429083058
 31
0.0
  0
LINE
  5
1BB
330
1F
100
AcDbEntity
  8
1-F
  6
Continuous
 62
     7
370
     9
100
AcDbLine
 10
-330.2286958800458
 20
77.05074290830584
 30
0.0
 11
-331.0118530333662
 21
82.9994120765487
 31
0.0
  0
LINE
  5
1BC
330
1F
100
AcDbEntity
  8
1-F
  6
Continuous
 62
     7
370
     9
100
AcDbLine
 10
-330.2286958800458
 20
77.05074290830584
 30
0.0
 11
-329.4455387267255
 21
82.9994120765487
 31
0.0
  0
LINE
  5
1BD
330
1F
100
AcDbEntity
  8
1-F
  6
Continuous
 62
     7
370
     9
100
AcDbLine
 10
-330.2286958800458
 20
102.0507429083058
 30
0.0
 11
-331.0118530333662
 21
96.10207374006296
 31
0.0
  0
LINE
  5
1BE
330
1F
100
AcDbEntity
  8
1-F
  6
Continuous
 62
     7
370
     9
100
AcDbLine
 10
-330.2286958800458
 20
102.0507429083058
 30
0.0
 11
-329.4455387267255
 21
96.10207374006296
 31
0.0
  0
TEXT
  5
1BF
330
1F
100
AcDbEntity
  8
1-F
  6
Continuous
 62
     2
370
   211
100
AcDbText
 10
-332.3566958800458
 20
81.05074290830584
 30
0.0
 40
6.096
  1
２５
 50
90.0
 41
1.0625
  7
ＭＳ ゴシック
100
AcDbText
  0
LINE
  5
1C0
330
1F
100
AcDbEntity
  8
1-F
  6
Continuous
 62
     7
370
     9
100
AcDbLine
 10
-330.8286959038877
 20
77.05074290830584
 30
0.0
 11
-308.6301976763698
 21
77.05074290830584
 31
0.0
  0
LINE
  5
1C1
330
1F
100
AcDbEntity
  8
1-F
  6
Continuous
 62
     7
370
     9
100
AcDbLine
 10
-330.8286959038877
 20
102.0507429083058
 30
0.0
 11
-308.6301976763698
 21
102.0507429083058
 31
0.0
  0
LINE
  5
1C2
330
1F
100
AcDbEntity
  8
1-4ﾚｲﾔ
  6
Continuous
 62
     2
370
     9
100
AcDbLine
 10
-110.2708914764554
 20
102.0507429083058
 30
0.0
 11
-121.0425858425135
 21
102.0507429083058
 31
0.0
  0
ARC
  5
1C3
330
1F
100
AcDbEntity
  8
1-4ﾚｲﾔ
  6
Continuous
 62
     2
370
     9
100
AcDbCircle
 10
-110.2708914764554
 20
99.05074290830584
 30
0.0
 40
3.0
100
AcDbArc
 50
5.562918592688829
 51
90.0
  0
LINE
  5
1C4
330
1F
100
AcDbEntity
  8
1-4ﾚｲﾔ
  6
Continuous
 62
     2
370
     9
100
AcDbLine
 10
-110.2708914764554
 20
77.05074290830584
 30
0.0
 11
-121.0425858425135
 21
77.05074290830584
 31
0.0
  0
ARC
  5
1C5
330
1F
100
AcDbEntity
  8
1-4ﾚｲﾔ
  6
Continuous
 62
     2
370
     9
100
AcDbCircle
 10
-207.8093454318057
 20
89.55074290830584
 30
0.0
 40
101.0
100
AcDbArc
 50
354.4370814073112
 51
5.562918592688779
  0
ARC
  5
1C6
330
1F
100
AcDbEntity
  8
1-4ﾚｲﾔ
  6
Continuous
 62
     2
370
     9
100
AcDbCircle
 10
-110.2708914764554
 20
80.05074290830584
 30
0.0
 40
3.0
100
AcDbArc
 50
270.0
 51
354.4370814073112
  0
ARC
  5
1C7
330
1F
100
AcDbEntity
  8
1-4ﾚｲﾔ
  6
JWW_DASHED2
 62
     2
370
     9
100
AcDbCircle
 10
-208.1502778105596
 20
89.55074290830584
 30
0.0
 40
80.23062298335041
100
AcDbArc
 50
351.144463142288
 51
8.96324640695055
  0
LINE
  5
1C8
330
1F
100
AcDbEntity
  8
1-4ﾚｲﾔ
  6
JWW_DASHED2
 62
     2
370
     9
100
AcDbLine
 10
-121.0425858425135
 20
102.0507429083058
 30
0.0
 11
-133.5328987001533
 21
102.0507429083058
 31
0.0
  0
LINE
  5
1C9
330
1F
100
AcDbEntity
  8
1-4ﾚｲﾔ
  6
JWW_DASHED2
 62
     2
370
     9
100
AcDbLine
 10
-121.0425858425135
 20
77.05074290830584
 30
0.0
 11
-133.5328987001533
 21
77.05074290830584
 31
0.0
  0
ARC
  5
1CA
330
1F
100
AcDbEntity
  8
1-4ﾚｲﾔ
  6
JWW_DASHED2
 62
     2
370
     9
100
AcDbCircle
 10
-208.1502778105596
 20
89.55074290830584
 30
0.0
 40
75.65714285714279
100
AcDbArc
 50
350.4900412134311
 51
9.509958786568923
  0
LINE
  5
1CB
330
1F
100
AcDbEntity
  8
1-4ﾚｲﾔ
  6
Continuous
 62
     2
370
     9
100
AcDbLine
 10
-306.0296641446639
 20
102.0507429083058
 30
0.0
 11
-295.2579697786058
 21
102.0507429083058
 31
0.0
  0
ARC
  5
1CC
330
1F
100
AcDbEntity
  8
1-4ﾚｲﾔ
  6
Continuous
 62
     2
370
     9
100
AcDbCircle
 10
-306.0296641446639
 20
99.05074290830584
 30
0.0
 40
3.0
100
AcDbArc
 50
90.0
 51
174.4370814073112
  0
LINE
  5
1CD
330
1F
100
AcDbEntity
  8
1-4ﾚｲﾔ
  6
Continuous
 62
     2
370
     9
100
AcDbLine
 10
-306.0296641446639
 20
77.05074290830584
 30
0.0
 11
-295.2579697786058
 21
77.05074290830584
 31
0.0
  0
ARC
  5
1CE
330
1F
100
AcDbEntity
  8
1-4ﾚｲﾔ
  6
Continuous
 62
     2
370
     9
100
AcDbCircle
 10
-208.4912101893135
 20
89.55074290830584
 30
0.0
 40
101.0
100
AcDbArc
 50
174.4370814073112
 51
185.5629185926888
  0
ARC
  5
1CF
330
1F
100
AcDbEntity
  8
1-4ﾚｲﾔ
  6
Continuous
 62
     2
370
     9
100
AcDbCircle
 10
-306.0296641446639
 20
80.05074290830584
 30
0.0
 40
3.0
100
AcDbArc
 50
185.5629185926888
 51
270.0
  0
ARC
  5
1D0
330
1F
100
AcDbEntity
  8
1-4ﾚｲﾔ
  6
JWW_DASHED2
 62
     2
370
     9
100
AcDbCircle
 10
-208.1502778105596
 20
89.55074290830584
 30
0.0
 40
80.23062298335041
100
AcDbArc
 50
171.0367535930494
 51
188.8555368577119
  0
LINE
  5
1D1
330
1F
100
AcDbEntity
  8
1-4ﾚｲﾔ
  6
JWW_DASHED2
 62
     2
370
     9
100
AcDbLine
 10
-295.2579697786058
 20
102.0507429083058
 30
0.0
 11
-282.767656920966
 21
102.0507429083058
 31
0.0
  0
LINE
  5
1D2
330
1F
100
AcDbEntity
  8
1-4ﾚｲﾔ
  6
JWW_DASHED2
 62
     2
370
     9
100
AcDbLine
 10
-295.2579697786058
 20
77.05074290830584
 30
0.0
 11
-282.767656920966
 21
77.05074290830584
 31
0.0
  0
ARC
  5
1D3
330
1F
100
AcDbEntity
  8
1-4ﾚｲﾔ
  6
JWW_DASHED2
 62
     2
370
     9
100
AcDbCircle
 10
-208.1502778105596
 20
89.55074290830584
 30
0.0
 40
75.65714285714279
100
AcDbArc
 50
170.4900412134311
 51
189.5099587865689
  0
TEXT
  5
1D4
330
1F
100
AcDbEntity
  8
1-F
  6
Continuous
 62
     2
370
     9
100
AcDbText
 10
-138.0738918777011
 20
167.2970568771888
 30
0.0
 40
6.096
  1
ＳＵＳ３０４
 41
1.104166666666666
  7
ＭＳ ゴシック
100
AcDbText
  0
LINE
  5
1D5
330
1F
100
AcDbEntity
  8
1-F
  6
Continuous
 62
     7
370
     9
100
AcDbLine
 10
-137.7568918869902
 20
164.974454669832
 30
0.0
 11
-86.671824600696
 21
164.974454669832
 31
0.0
  0
LINE
  5
1D6
330
1F
100
AcDbEntity
  8
1-F
  6
Continuous
 62
     7
370
     9
100
AcDbLine
 10
-137.7568918869902
 20
164.974454669832
 30
0.0
 11
-146.3524176267288
 21
152.2007586840397
 31
0.0
  0
LINE
  5
1D7
330
1F
100
AcDbEntity
  8
1-F
  6
Continuous
 62
     7
370
     9
100
AcDbLine
 10
-146.3524176267288
 20
152.2007586840397
 30
0.0
 11
-143.6811425175439
 21
157.5733082920981
 31
0.0
  0
LINE
  5
1D8
330
1F
100
AcDbEntity
  8
1-F
  6
Continuous
 62
     7
370
     9
100
AcDbLine
 10
-146.3524176267288
 20
152.2007586840397
 30
0.0
 11
-142.3816458503203
 21
156.6988662305172
 31
0.0
  0
LINE
  5
1D9
330
1F
100
AcDbEntity
  8
1-4ﾚｲﾔ
  6
JWW_CENTER1
 62
     2
370
     9
100
AcDbLine
 10
-208.1502778105596
 20
-8.708078734452357
 30
0.0
 11
-208.1502778105596
 21
188.6339137785292
 31
0.0
  0
LINE
  5
1DA
330
1F
100
AcDbEntity
  8
1-4ﾚｲﾔ
  6
JWW_CENTER1
 62
     2
370
     9
100
AcDbLine
 10
-314.0180725322115
 20
89.55074290830584
 30
0.0
 11
-97.47645632811953
 21
89.55074290830584
 31
0.0
  0
LINE
  5
1DB
330
1F
100
AcDbEntity
  8
1-4ﾚｲﾔ
  6
Continuous
 62
     2
370
     9
100
AcDbLine
 10
-295.6167051291688
 20
-79.7168621619414
 30
0.0
 11
-296.1502778105597
 21
-79.99127096951386
 31
0.0
  0
LINE
  5
1DC
330
1F
100
AcDbEntity
  8
1-4ﾚｲﾔ
  6
Continuous
 62
     2
370
     9
100
AcDbLine
 10
-277.6167051291687
 20
-114.7168621619414
 30
0.0
 11
-295.6167051291688
 21
-79.7168621619414
 31
0.0
  0
LINE
  5
1DD
330
1F
100
AcDbEntity
  8
1-4ﾚｲﾔ
  6
Continuous
 62
     2
370
     9
100
AcDbLine
 10
-277.6167051291687
 20
-114.7168621619414
 30
0.0
 11
-278.1502778105596
 21
-114.9912709695139
 31
0.0
  0
LINE
  5
1DE
330
1F
100
AcDbEntity
  8
1-4ﾚｲﾔ
  6
Continuous
 62
     2
370
     9
100
AcDbLine
 10
-278.1502778105596
 20
-114.9912709695139
 30
0.0
 11
-296.1502778105597
 21
-79.99127096951386
 31
0.0
  0
LINE
  5
1DF
330
1F
100
AcDbEntity
  8
1-4ﾚｲﾔ
  6
Continuous
 62
     2
370
     9
100
AcDbLine
 10
-120.6838504919505
 20
-79.7168621619414
 30
0.0
 11
-120.1502778105596
 21
-79.99127096951386
 31
0.0
  0
LINE
  5
1E0
330
1F
100
AcDbEntity
  8
1-4ﾚｲﾔ
  6
Continuous
 62
     2
370
     9
100
AcDbLine
 10
-138.6838504919506
 20
-114.7168621619414
 30
0.0
 11
-138.1502778105597
 21
-114.9912709695139
 31
0.0
  0
LINE
  5
1E1
330
1F
100
AcDbEntity
  8
1-4ﾚｲﾔ
  6
Continuous
 62
     2
370
     9
100
AcDbLine
 10
-295.6167051291688
 20
-79.7168621619414
 30
0.0
 11
-120.6838504919505
 21
-79.7168621619414
 31
0.0
  0
LINE
  5
1E2
330
1F
100
AcDbEntity
  8
1-4ﾚｲﾔ
  6
Continuous
 62
     2
370
     9
100
AcDbLine
 10
-138.6838504919506
 20
-114.7168621619414
 30
0.0
 11
-120.6838504919505
 21
-79.7168621619414
 31
0.0
  0
LINE
  5
1E3
330
1F
100
AcDbEntity
  8
1-4ﾚｲﾔ
  6
Continuous
 62
     2
370
     9
100
AcDbLine
 10
-138.1502778105597
 20
-114.9912709695139
 30
0.0
 11
-120.1502778105596
 21
-79.99127096951386
 31
0.0
  0
LINE
  5
1E4
330
1F
100
AcDbEntity
  8
1-4ﾚｲﾔ
  6
Continuous
 62
     2
370
     9
100
AcDbLine
 10
-138.1502778105597
 20
-114.9912709695139
 30
0.0
 11
-278.1502778105596
 21
-114.9912709695139
 31
0.0
  0
LINE
  5
1E5
330
1F
100
AcDbEntity
  8
1-4ﾚｲﾔ
  6
Continuous
 62
     2
370
     9
100
AcDbLine
 10
-277.6167051291687
 20
-114.7168621619414
 30
0.0
 11
-138.6838504919506
 21
-114.7168621619414
 31
0.0
  0
LINE
  5
1E6
330
1F
100
AcDbEntity
  8
1-F
  6
Continuous
 62
     7
370
     9
100
AcDbLine
 10
-278.1502778105596
 20
-135.6579611342938
 30
0.0
 11
-272.2016086423168
 21
-134.8748039809735
 31
0.0
  0
LINE
  5
1E7
330
1F
100
AcDbEntity
  8
1-F
  6
Continuous
 62
     7
370
     9
100
AcDbLine
 10
-278.1502778105596
 20
-135.6579611342938
 30
0.0
 11
-272.2016086423168
 21
-136.4411182876141
 31
0.0
  0
LINE
  5
1E8
330
1F
100
AcDbEntity
  8
1-F
  6
Continuous
 62
     7
370
     9
100
AcDbLine
 10
-138.1502778105597
 20
-135.6579611342938
 30
0.0
 11
-144.0989469788026
 21
-134.8748039809735
 31
0.0
  0
LINE
  5
1E9
330
1F
100
AcDbEntity
  8
1-F
  6
Continuous
 62
     7
370
     9
100
AcDbLine
 10
-138.1502778105597
 20
-135.6579611342938
 30
0.0
 11
-144.0989469788026
 21
-136.4411182876141
 31
0.0
  0
LINE
  5
1EA
330
1F
100
AcDbEntity
  8
1-F
  6
Continuous
 62
     7
370
     9
100
AcDbLine
 10
-278.1502778105596
 20
-136.2579611581357
 30
0.0
 11
-278.1502778105596
 21
-116.8490286583728
 31
0.0
  0
LINE
  5
1EB
330
1F
100
AcDbEntity
  8
1-F
  6
Continuous
 62
     7
370
     9
100
AcDbLine
 10
-138.1502778105597
 20
-136.2579611581357
 30
0.0
 11
-138.1502778105597
 21
-116.8490286583728
 31
0.0
  0
TEXT
  5
1EC
330
1F
100
AcDbEntity
  8
1-F
  6
Continuous
 62
     2
370
   211
100
AcDbText
 10
-225.6502778105597
 20
-133.5299611342938
 30
0.0
 40
6.096
  1
Φ１４０
 41
1.09375
  7
ＭＳ ゴシック
100
AcDbText
  0
LINE
  5
1ED
330
1F
100
AcDbEntity
  8
1-F
  6
Continuous
 62
     7
370
     9
100
AcDbLine
 10
-278.1502778105596
 20
-135.6579611342938
 30
0.0
 11
-138.1502778105597
 21
-135.6579611342938
 31
0.0
  0
LINE
  5
1EE
330
1F
100
AcDbEntity
  8
1-F
  6
Continuous
 62
     7
370
     9
100
AcDbLine
 10
-309.1502778105597
 20
-152.1130243245943
 30
0.0
 11
-107.1502778105596
 21
-152.1130243245943
 31
0.0
  0
LINE
  5
1EF
330
1F
100
AcDbEntity
  8
1-F
  6
Continuous
 62
     7
370
     9
100
AcDbLine
 10
-309.1502778105597
 20
-152.1130243245943
 30
0.0
 11
-303.2016086423168
 21
-151.329867171274
 31
0.0
  0
LINE
  5
1F0
330
1F
100
AcDbEntity
  8
1-F
  6
Continuous
 62
     7
370
     9
100
AcDbLine
 10
-309.1502778105597
 20
-152.1130243245943
 30
0.0
 11
-303.2016086423168
 21
-152.8961814779146
 31
0.0
  0
LINE
  5
1F1
330
1F
100
AcDbEntity
  8
1-F
  6
Continuous
 62
     7
370
     9
100
AcDbLine
 10
-107.1502778105596
 20
-152.1130243245943
 30
0.0
 11
-113.0989469788025
 21
-151.329867171274
 31
0.0
  0
LINE
  5
1F2
330
1F
100
AcDbEntity
  8
1-F
  6
Continuous
 62
     7
370
     9
100
AcDbLine
 10
-107.1502778105596
 20
-152.1130243245943
 30
0.0
 11
-113.0989469788025
 21
-152.8961814779146
 31
0.0
  0
LINE
  5
1F3
330
1F
100
AcDbEntity
  8
1-F
  6
Continuous
 62
     7
370
     9
100
AcDbLine
 10
-309.1502778105597
 20
-152.7130243245943
 30
0.0
 11
-309.1502778105597
 21
-123.9778564704704
 31
0.0
  0
LINE
  5
1F4
330
1F
100
AcDbEntity
  8
1-F
  6
Continuous
 62
     7
370
     9
100
AcDbLine
 10
-107.1502778105596
 20
-152.7130243245943
 30
0.0
 11
-107.1502778105596
 21
-123.9778564704704
 31
0.0
  0
TEXT
  5
1F5
330
1F
100
AcDbEntity
  8
1-F
  6
Continuous
 62
     2
370
   211
100
AcDbText
 10
-221.1502778105597
 20
-149.9850243245943
 30
0.0
 40
6.096
  1
２０２
 41
1.083333333333333
  7
ＭＳ ゴシック
100
AcDbText
  0
LINE
  5
1F6
330
1F
100
AcDbEntity
  8
1-F
  6
Continuous
 62
     7
370
     9
100
AcDbLine
 10
-290.1747767354226
 20
-90.29839613327114
 30
0.0
 11
-285.242873171719
 21
-86.88133200769092
 31
0.0
  0
LINE
  5
1F7
330
1F
100
AcDbEntity
  8
1-F
  6
Continuous
 62
     7
370
     9
100
AcDbLine
 10
-290.1747767354226
 20
-90.29839613327114
 30
0.0
 11
-284.5265224364374
 21
-88.27423621518281
 31
0.0
  0
LINE
  5
1F8
330
1F
100
AcDbEntity
  8
1-F
  6
Continuous
 62
     7
370
     9
100
AcDbLine
 10
-290.708346757292
 20
-90.57280357308973
 30
0.0
 11
-296.3566010562772
 21
-92.59696349117806
 31
0.0
  0
LINE
  5
1F9
330
1F
100
AcDbEntity
  8
1-F
  6
Continuous
 62
     7
370
     9
100
AcDbLine
 10
-290.708346757292
 20
-90.57280357308973
 30
0.0
 11
-295.6402503209957
 21
-93.98986769866995
 31
0.0
  0
LINE
  5
1FA
330
1F
100
AcDbEntity
  8
1-F
  6
Continuous
 62
     7
370
     9
100
AcDbLine
 10
-284.4189197661879
 20
-87.33824112052184
 30
0.0
 11
-310.4685547827838
 21
-100.735196271914
 31
0.0
  0
LINE
  5
1FB
330
1F
100
AcDbEntity
  8
1-4ﾚｲﾔ
  6
Continuous
 62
     2
370
     9
100
AcDbLine
 10
-127.3860821458183
 20
-95.37280175390491
 30
0.0
 11
-127.9196548272092
 21
-95.09839294633245
 31
0.0
  0
ARC
  5
1FC
330
1F
100
AcDbEntity
  8
1-4ﾚｲﾔ
  6
Continuous
 62
     2
370
     9
100
AcDbCircle
 10
-130.9439274580193
 20
-103.6027455490171
 30
0.0
 40
0.6000000000000001
100
AcDbArc
 50
152.7838884426925
 51
235.3737620620181
  0
ARC
  5
1FD
330
1F
100
AcDbEntity
  8
1-4ﾚｲﾔ
  6
Continuous
 62
     2
370
     9
100
AcDbCircle
 10
-130.9439274580193
 20
-103.6027455490171
 30
0.0
 40
1.2
100
AcDbArc
 50
152.7838884426925
 51
235.3737620620176
  0
LINE
  5
1FE
330
1F
100
AcDbEntity
  8
1-4ﾚｲﾔ
  6
Continuous
 62
     2
370
     9
100
AcDbLine
 10
-107.1502778105596
 20
-121.4912709695139
 30
0.0
 11
-131.6257922155271
 21
-104.5901970427467
 31
0.0
  0
LINE
  5
1FF
330
1F
100
AcDbEntity
  8
1-4ﾚｲﾔ
  6
Continuous
 62
     2
370
     9
100
AcDbLine
 10
-106.8093454318057
 20
-120.9975452226491
 30
0.0
 11
-107.1502778105596
 21
-121.4912709695139
 31
0.0
  0
LINE
  5
200
330
1F
100
AcDbEntity
  8
1-4ﾚｲﾔ
  6
Continuous
 62
     2
370
     9
100
AcDbLine
 10
-131.4775001394102
 20
-103.3283367414446
 30
0.0
 11
-127.3860821458183
 21
-95.37280175390491
 31
0.0
  0
LINE
  5
201
330
1F
100
AcDbEntity
  8
1-4ﾚｲﾔ
  6
Continuous
 62
     2
370
     9
100
AcDbLine
 10
-131.2848598367732
 20
-104.0964712958819
 30
0.0
 11
-106.8093454318057
 21
-120.9975452226491
 31
0.0
  0
LINE
  5
202
330
1F
100
AcDbEntity
  8
1-4ﾚｲﾔ
  6
Continuous
 62
     2
370
     9
100
AcDbLine
 10
-288.914473475301
 20
-95.37280175390491
 30
0.0
 11
-288.3809007939101
 21
-95.09839294633245
 31
0.0
  0
ARC
  5
203
330
1F
100
AcDbEntity
  8
1-4ﾚｲﾔ
  6
Continuous
 62
     2
370
     9
100
AcDbCircle
 10
-285.3566281630999
 20
-103.6027455490171
 30
0.0
 40
0.6000000000000001
100
AcDbArc
 50
304.6262379379819
 51
27.21611155730753
  0
ARC
  5
204
330
1F
100
AcDbEntity
  8
1-4ﾚｲﾔ
  6
Continuous
 62
     2
370
     9
100
AcDbCircle
 10
-285.3566281630999
 20
-103.6027455490171
 30
0.0
 40
1.2
100
AcDbArc
 50
304.6262379379824
 51
27.21611155730751
  0
LINE
  5
205
330
1F
100
AcDbEntity
  8
1-4ﾚｲﾔ
  6
JWW_PHANTOM1
 62
     2
370
     9
100
AcDbLine
 10
-284.2731299838377
 20
-104.3128571658306
 30
0.0
 11
-283.8074206677024
 21
-103.9912709695139
 31
0.0
  0
LINE
  5
206
330
1F
100
AcDbEntity
  8
1-4ﾚｲﾔ
  6
JWW_PHANTOM1
 62
     2
370
     9
100
AcDbLine
 10
-284.5820244154012
 20
-103.7970082592655
 30
0.0
 11
-284.7171296148274
 21
-103.5343037048258
 31
0.0
  0
LINE
  5
207
330
1F
100
AcDbEntity
  8
1-4ﾚｲﾔ
  6
JWW_PHANTOM1
 62
     2
370
     9
100
AcDbLine
 10
-284.5820244154012
 20
-103.7970082592655
 30
0.0
 11
-284.7479319542717
 21
-103.911572371507
 31
0.0
  0
LINE
  5
208
330
1F
100
AcDbEntity
  8
1-4ﾚｲﾔ
  6
Continuous
 62
     2
370
     9
100
AcDbLine
 10
-284.823055481709
 20
-103.3283367414446
 30
0.0
 11
-288.914473475301
 21
-95.37280175390491
 31
0.0
  0
LINE
  5
209
330
1F
100
AcDbEntity
  8
1-4ﾚｲﾔ
  6
Continuous
 62
     2
370
     9
100
AcDbLine
 10
-285.0156957843461
 20
-104.0964712958819
 30
0.0
 11
-309.4912101893135
 21
-120.9975452226491
 31
0.0
  0
LINE
  5
20A
330
1F
100
AcDbEntity
  8
1-4ﾚｲﾔ
  6
Continuous
 62
     2
370
     9
100
AcDbLine
 10
-309.1502778105596
 20
-121.4912709695139
 30
0.0
 11
-284.6747634055922
 21
-104.5901970427467
 31
0.0
  0
LINE
  5
20B
330
1F
100
AcDbEntity
  8
1-4ﾚｲﾔ
  6
Continuous
 62
     2
370
     9
100
AcDbLine
 10
-309.4912101893135
 20
-120.9975452226491
 30
0.0
 11
-309.1502778105596
 21
-121.4912709695139
 31
0.0
  0
LINE
  5
20C
330
1F
100
AcDbEntity
  8
1-4ﾚｲﾔ
  6
JWW_CENTER1
 62
     2
370
     9
100
AcDbLine
 10
-208.1502778105597
 20
-74.3254630135221
 30
0.0
 11
-208.1502778105597
 21
-123.2469397532255
 31
0.0
  0
TEXT
  5
20D
330
1F
100
AcDbEntity
  8
1-F
  6
Continuous
 62
     2
370
   211
100
AcDbText
 10
-308.1622821896941
 20
-97.31734659494717
 30
0.0
 40
6.096
  1
0.8
 50
27.21611156
 41
1.083333333333335
  7
ＭＳ ゴシック
100
AcDbText
  0
LINE
  5
20E
330
1F
100
AcDbEntity
  8
1-F
  6
Continuous
 62
     7
370
     9
100
AcDbLine
 10
-317.9193586499683
 20
-126.8174335339806
 30
0.0
 11
-321.9439566172759
 21
-122.3674210394427
 31
0.0
  0
LINE
  5
20F
330
1F
100
AcDbEntity
  8
1-F
  6
Continuous
 62
     7
370
     9
100
AcDbLine
 10
-317.9193586499683
 20
-126.8174335339806
 30
0.0
 11
-320.6550737824906
 21
-121.4774089353773
 31
0.0
  0
LINE
  5
210
330
1F
100
AcDbEntity
  8
1-F
  6
Continuous
 62
     7
370
     9
100
AcDbLine
 10
-317.5784262712145
 20
-127.3111592808455
 30
0.0
 11
-314.8427111386923
 21
-132.6511838794488
 31
0.0
  0
LINE
  5
211
330
1F
100
AcDbEntity
  8
1-F
  6
Continuous
 62
     7
370
     9
100
AcDbLine
 10
-317.5784262712145
 20
-127.3111592808455
 30
0.0
 11
-313.5538283039069
 21
-131.7611717753834
 31
0.0
  0
LINE
  5
212
330
1F
100
AcDbEntity
  8
1-F
  6
Continuous
 62
     7
370
     9
100
AcDbLine
 10
-318.4130843968331
 20
-127.1583659127345
 30
0.0
 11
-309.9289078174842
 21
-121.2997885115494
 31
0.0
  0
LINE
  5
213
330
1F
100
AcDbEntity
  8
1-F
  6
Continuous
 62
     7
370
     9
100
AcDbLine
 10
-318.0721520180794
 20
-127.6520916595994
 30
0.0
 11
-309.5879754387304
 21
-121.7935142584142
 31
0.0
  0
TEXT
  5
214
330
1F
100
AcDbEntity
  8
1-F
  6
Continuous
 62
     2
370
   211
100
AcDbText
 10
-327.8876370304527
 20
-126.1662802536386
 30
0.0
 40
6.096
  1
0.8
 50
304.626237937982
 41
1.083333333333331
  7
ＭＳ ゴシック
100
AcDbText
  0
LINE
  5
215
330
1F
100
AcDbEntity
  8
1-F
  6
Continuous
 62
     7
370
     9
100
AcDbLine
 10
-321.7993642228095
 20
-121.1985519942081
 30
0.0
 11
-313.7109897637474
 21
-132.9118387618641
 31
0.0
  0
LINE
  5
216
330
1F
100
AcDbEntity
  8
1-F
  6
Continuous
 62
     7
370
     9
100
AcDbLine
 10
-330.2286958800458
 20
-114.991270969514
 30
0.0
 11
-330.2286958800458
 21
-79.99127096951392
 31
0.0
  0
LINE
  5
217
330
1F
100
AcDbEntity
  8
1-F
  6
Continuous
 62
     7
370
     9
100
AcDbLine
 10
-330.2286958800458
 20
-114.991270969514
 30
0.0
 11
-331.0118530333662
 21
-109.0426018012711
 31
0.0
  0
LINE
  5
218
330
1F
100
AcDbEntity
  8
1-F
  6
Continuous
 62
     7
370
     9
100
AcDbLine
 10
-330.2286958800458
 20
-114.991270969514
 30
0.0
 11
-329.4455387267255
 21
-109.0426018012711
 31
0.0
  0
LINE
  5
219
330
1F
100
AcDbEntity
  8
1-F
  6
Continuous
 62
     7
370
     9
100
AcDbLine
 10
-330.2286958800458
 20
-79.99127096951392
 30
0.0
 11
-331.0118530333662
 21
-85.93994013775674
 31
0.0
  0
LINE
  5
21A
330
1F
100
AcDbEntity
  8
1-F
  6
Continuous
 62
     7
370
     9
100
AcDbLine
 10
-330.2286958800458
 20
-79.99127096951392
 30
0.0
 11
-329.4455387267255
 21
-85.93994013775674
 31
0.0
  0
TEXT
  5
21B
330
1F
100
AcDbEntity
  8
1-F
  6
Continuous
 62
     2
370
   211
100
AcDbText
 10
-332.3566958800458
 20
-105.9912709695139
 30
0.0
 40
6.096
  1
３５
 50
90.0
 41
1.0625
  7
ＭＳ ゴシック
100
AcDbText
  0
LINE
  5
21C
330
1F
100
AcDbEntity
  8
1-F
  6
Continuous
 62
     7
370
     9
100
AcDbLine
 10
-330.8286959038877
 20
-114.991270969514
 30
0.0
 11
-280.7723644281435
 21
-114.991270969514
 31
0.0
  0
LINE
  5
21D
330
1F
100
AcDbEntity
  8
1-F
  6
Continuous
 62
     7
370
     9
100
AcDbLine
 10
-330.8286959038877
 20
-79.99127096951392
 30
0.0
 11
-298.3459048941922
 21
-79.99127096951392
 31
0.0
  0
LINE
  5
21E
330
1F
100
AcDbEntity
  8
1-F
  6
Continuous
 62
     7
370
     9
100
AcDbLine
 10
-296.1502778105597
 20
-57.64294694723561
 30
0.0
 11
-290.2016086423168
 21
-56.85978979391531
 31
0.0
  0
LINE
  5
21F
330
1F
100
AcDbEntity
  8
1-F
  6
Continuous
 62
     7
370
     9
100
AcDbLine
 10
-296.1502778105597
 20
-57.64294694723561
 30
0.0
 11
-290.2016086423168
 21
-58.42610410055592
 31
0.0
  0
LINE
  5
220
330
1F
100
AcDbEntity
  8
1-F
  6
Continuous
 62
     7
370
     9
100
AcDbLine
 10
-120.1502778105596
 20
-57.64294694723561
 30
0.0
 11
-126.0989469788025
 21
-56.85978979391531
 31
0.0
  0
LINE
  5
221
330
1F
100
AcDbEntity
  8
1-F
  6
Continuous
 62
     7
370
     9
100
AcDbLine
 10
-120.1502778105596
 20
-57.64294694723561
 30
0.0
 11
-126.0989469788025
 21
-58.42610410055592
 31
0.0
  0
LINE
  5
222
330
1F
100
AcDbEntity
  8
1-F
  6
Continuous
 62
     7
370
     9
100
AcDbLine
 10
-296.1502778105597
 20
-57.04294692339376
 30
0.0
 11
-296.1502778105597
 21
-77.982308178988
 31
0.0
  0
LINE
  5
223
330
1F
100
AcDbEntity
  8
1-F
  6
Continuous
 62
     7
370
     9
100
AcDbLine
 10
-120.1502778105596
 20
-57.04294692339376
 30
0.0
 11
-120.1502778105596
 21
-77.982308178988
 31
0.0
  0
LINE
  5
224
330
1F
100
AcDbEntity
  8
1-F
  6
Continuous
 62
     7
370
     9
100
AcDbLine
 10
-296.1502778105597
 20
-57.64294694723561
 30
0.0
 11
-120.1502778105596
 21
-57.64294694723561
 31
0.0
  0
TEXT
  5
225
330
1F
100
AcDbEntity
  8
1-F
  6
Continuous
 62
     2
370
   211
100
AcDbText
 10
-225.6502778105597
 20
-55.51494694723561
 30
0.0
 40
6.096
  1
Φ１７６
 41
1.09375
  7
ＭＳ ゴシック
100
AcDbText
  0
ENDSEC
  0
SECTION
  2
OBJECTS
  0
DICTIONARY
  5
C
330
0
100
AcDbDictionary
281
     1
  3
ACAD_DETAILVIEWSTYLE
350
26B
  3
ACAD_GROUP
350
D
  3
ACAD_LAYOUT
350
1A
  3
ACAD_MATERIAL
350
43
  3
ACAD_MLEADERSTYLE
350
6B
  3
ACAD_MLINESTYLE
350
17
  3
ACAD_PLOTSETTINGS
350
19
  3
ACAD_PLOTSTYLENAME
350
E
  3
ACAD_SCALELIST
350
47
  3
ACAD_SECTIONVIEWSTYLE
350
26C
  3
ACAD_TABLESTYLE
350
69
  3
ACAD_VISUALSTYLE
350
2A
  3
ACDB_RECOMPOSE_DATA
350
268
  3
AcDbVariableDictionary
350
228
  0
DICTIONARY
  5
226
330
8
100
AcDbDictionary
280
     1
281
     1
  3
ACAD_XREC_ROUNDTRIP
360
227
  0
DICTIONARY
  5
26B
102
{ACAD_REACTORS
330
C
102
}
330
C
100
AcDbDictionary
281
     1
  0
DICTIONARY
  5
D
102
{ACAD_REACTORS
330
C
102
}
330
C
100
AcDbDictionary
281
     1
  0
DICTIONARY
  5
1A
102
{ACAD_REACTORS
330
C
102
}
330
C
100
AcDbDictionary
281
     1
  3
Layout1
350
1E
  3
Layout2
350
26
  3
Model
350
22
  0
DICTIONARY
  5
43
102
{ACAD_REACTORS
330
C
102
}
330
C
100
AcDbDictionary
281
     1
  3
ByBlock
350
45
  3
ByLayer
350
44
  3
Global
350
46
  0
DICTIONARY
  5
6B
102
{ACAD_REACTORS
330
C
102
}
330
C
100
AcDbDictionary
281
     1
  3
Standard
350
6C
  0
DICTIONARY
  5
17
102
{ACAD_REACTORS
330
C
102
}
330
C
100
AcDbDictionary
281
     1
  3
Standard
350
18
  0
DICTIONARY
  5
19
102
{ACAD_REACTORS
330
C
102
}
330
C
100
AcDbDictionary
281
     1
  0
ACDBDICTIONARYWDFLT
  5
E
102
{ACAD_REACTORS
330
C
102
}
330
C
100
AcDbDictionary
281
     1
  3
Normal
350
F
100
AcDbDictionaryWithDefault
340
F
  0
DICTIONARY
  5
47
102
{ACAD_REACTORS
330
C
102
}
330
C
100
AcDbDictionary
281
     1
  3
A0
350
48
  3
A1
350
49
  3
A2
350
4A
  3
A3
350
4B
  3
A4
350
4C
  3
A5
350
4D
  3
A6
350
4E
  3
A7
350
4F
  3
A8
350
50
  3
A9
350
51
  3
B0
350
52
  3
B1
350
53
  3
B2
350
54
  3
B3
350
55
  3
B4
350
56
  3
B5
350
57
  3
B6
350
58
  3
B7
350
59
  3
B8
350
5A
  3
B9
350
5B
  3
C0
350
5C
  3
C1
350
5D
  3
C2
350
5E
  3
C3
350
5F
  3
C4
350
60
  3
C5
350
61
  3
C6
350
62
  3
C7
350
63
  3
C8
350
64
  3
C9
350
65
  3
D0
350
66
  3
D1
350
67
  3
D2
350
68
  0
DICTIONARY
  5
26C
102
{ACAD_REACTORS
330
C
102
}
330
C
100
AcDbDictionary
281
     1
  0
DICTIONARY
  5
69
102
{ACAD_REACTORS
330
C
102
}
330
C
100
AcDbDictionary
281
     1
  3
Standard
350
6A
  0
DICTIONARY
  5
2A
102
{ACAD_REACTORS
330
C
102
}
330
C
100
AcDbDictionary
281
     1
  3
2dWireframe
350
2F
  3
Basic
350
32
  3
Brighten
350
36
  3
ColorChange
350
3A
  3
Conceptual
350
34
  3
Dim
350
35
  3
EdgeColorOff
350
3D
  3
Facepattern
350
39
  3
Flat
350
2B
  3
FlatWithEdges
350
2C
  3
Gouraud
350
2D
  3
GouraudWithEdges
350
2E
  3
Hidden
350
31
  3
JitterOff
350
3B
  3
Linepattern
350
38
  3
OverhangOff
350
3C
  3
Realistic
350
33
  3
Shaded
350
42
  3
Shaded with edges
350
41
  3
Shades of Gray
350
3E
  3
Sketchy
350
3F
  3
Thicken
350
37
  3
Wireframe
350
30
  3
X-Ray
350
40
  0
XRECORD
  5
268
102
{ACAD_REACTORS
330
C
102
}
330
C
100
AcDbXrecord
280
     1
 90
        1
330
6A
  0
DICTIONARY
  5
228
102
{ACAD_REACTORS
330
C
102
}
330
C
100
AcDbDictionary
281
     1
  3
CANNOSCALE
350
229
  3
CENTEREXE
350
26D
  3
CENTERLTYPEFILE
350
26E
  3
CMLEADERSTYLE
350
26A
  3
CTABLESTYLE
350
269
  3
MSLTSCALE
350
22A
  3
XCLIPFRAME
350
22B
  0
XRECORD
  5
227
102
{ACAD_REACTORS
330
226
102
}
330
226
100
AcDbXrecord
280
     1
102
VTR_0.000_0.000_1.000_1.000_VISUALSTYLE
340
2F
102
VTR_0.000_0.000_1.000_1.000_GRIDDISPLAY
 70
     3
102
VTR_0.000_0.000_1.000_1.000_GRIDMAJOR
 70
     5
102
VTR_0.000_0.000_1.000_1.000_DEFAULTLIGHTING
280
     1
102
VTR_0.000_0.000_1.000_1.000_DEFAULTLIGHTINGTYPE
 70
     1
102
VTR_0.000_0.000_1.000_1.000_BRIGHTNESS
141
0.0
102
VTR_0.000_0.000_1.000_1.000_CONTRAST
142
0.0
  0
LAYOUT
  5
1E
102
{ACAD_REACTORS
330
1A
102
}
330
1A
100
AcDbPlotSettings
  1

  2
none_device
  4

  6

 40
0.0
 41
0.0
 42
0.0
 43
0.0
 44
0.0
 45
0.0
 46
0.0
 47
0.0
 48
0.0
 49
0.0
140
0.0
141
0.0
142
1.0
143
1.0
 70
   688
 72
     1
 73
     0
 74
     5
  7

 75
    16
 76
     0
 77
     5
 78
   300
147
1.0
148
0.0
149
0.0
100
AcDbLayout
  1
Layout1
 70
     1
 71
     1
 10
0.0
 20
0.0
 11
420.0
 21
297.0
 12
0.0
 22
0.0
 32
0.0
 14
1.000000000000000E+20
 24
1.000000000000000E+20
 34
1.000000000000000E+20
 15
-1.000000000000000E+20
 25
-1.000000000000000E+20
 35
-1.000000000000000E+20
146
0.0
 13
0.0
 23
0.0
 33
0.0
 16
1.0
 26
0.0
 36
0.0
 17
0.0
 27
1.0
 37
0.0
 76
     0
330
1B
  0
LAYOUT
  5
26
102
{ACAD_REACTORS
330
1A
102
}
330
1A
100
AcDbPlotSettings
  1

  2
none_device
  4

  6

 40
0.0
 41
0.0
 42
0.0
 43
0.0
 44
0.0
 45
0.0
 46
0.0
 47
0.0
 48
0.0
 49
0.0
140
0.0
141
0.0
142
1.0
143
1.0
 70
   688
 72
     1
 73
     0
 74
     5
  7

 75
    16
 76
     0
 77
     5
 78
   300
147
1.0
148
0.0
149
0.0
100
AcDbLayout
  1
Layout2
 70
     1
 71
     2
 10
0.0
 20
0.0
 11
0.0
 21
0.0
 12
0.0
 22
0.0
 32
0.0
 14
0.0
 24
0.0
 34
0.0
 15
0.0
 25
0.0
 35
0.0
146
0.0
 13
0.0
 23
0.0
 33
0.0
 16
1.0
 26
0.0
 36
0.0
 17
0.0
 27
1.0
 37
0.0
 76
     0
330
23
  0
LAYOUT
  5
22
102
{ACAD_REACTORS
330
1A
102
}
330
1A
100
AcDbPlotSettings
  1

  2
none_device
  4
Letter_(8.50_x_11.00_Inches)
  6

 40
6.35
 41
6.35
 42
6.35000508
 43
6.35000508
 44
215.9
 45
279.4
 46
0.0
 47
0.0
 48
0.0
 49
0.0
140
0.0
141
0.0
142
1.0
143
1.0
 70
  1712
 72
     1
 73
     0
 74
     0
  7

 75
     0
 76
     0
 77
     5
 78
   300
147
1.0
148
0.0
149
0.0
100
AcDbLayout
  1
Model
 70
     1
 71
     0
 10
-420.0
 20
-297.0
 11
420.0
 21
297.0
 12
0.0
 22
0.0
 32
0.0
 14
-420.0
 24
-297.0
 34
0.0
 15
420.0
 25
297.0
 35
0.0
146
0.0
 13
0.0
 23
0.0
 33
0.0
 16
1.0
 26
0.0
 36
0.0
 17
0.0
 27
1.0
 37
0.0
 76
     0
330
1F
331
29
  0
MATERIAL
  5
45
102
{ACAD_REACTORS
330
43
102
}
102
{ACAD_XDICTIONARY
360
25E
102
}
330
43
100
AcDbMaterial
  1
ByBlock
  0
MATERIAL
  5
44
102
{ACAD_REACTORS
330
43
102
}
102
{ACAD_XDICTIONARY
360
25C
102
}
330
43
100
AcDbMaterial
  1
ByLayer
  0
MATERIAL
  5
46
102
{ACAD_REACTORS
330
43
102
}
102
{ACAD_XDICTIONARY
360
260
102
}
330
43
100
AcDbMaterial
  1
Global
  0
MLEADERSTYLE
  5
6C
102
{ACAD_REACTORS
330
6B
102
}
102
{ACAD_XDICTIONARY
360
266
102
}
330
6B
100
AcDbMLeaderStyle
170
     2
171
     1
172
     0
 90
        2
 40
0.0
 41
0.0
173
     1
 91
-1056964608
340
14
 92
       -2
290
     1
 42
2.0
291
     1
 43
8.0
  3
Standard
341
0
 44
4.0
300

342
11
174
     1
178
     6
175
     1
176
     0
 93
-1056964608
 45
4.0
292
     0
297
     0
 46
4.0
343
0
 94
-1056964608
 47
1.0
 49
1.0
140
1.0
293
     1
141
0.0
294
     1
177
     0
142
1.0
295
     0
296
     0
143
3.75
1001
ACAD_MLEADERVER
1070
     2
  0
MLINESTYLE
  5
18
102
{ACAD_REACTORS
330
17
102
}
330
17
100
AcDbMlineStyle
  2
Standard
 70
     0
  3

 62
   256
 51
90.0
 52
90.0
 71
     2
 49
0.5
 62
   256
  6
BYLAYER
 49
-0.5
 62
   256
  6
BYLAYER
  0
ACDBPLACEHOLDER
  5
F
102
{ACAD_REACTORS
330
E
102
}
330
E
  0
SCALE
  5
48
102
{ACAD_REACTORS
330
47
102
}
330
47
100
AcDbScale
 70
     0
300
1:1
140
1.0
141
1.0
290
     1
  0
SCALE
  5
49
102
{ACAD_REACTORS
330
47
102
}
330
47
100
AcDbScale
 70
     0
300
1:2
140
1.0
141
2.0
290
     0
  0
SCALE
  5
4A
102
{ACAD_REACTORS
330
47
102
}
330
47
100
AcDbScale
 70
     0
300
1:4
140
1.0
141
4.0
290
     0
  0
SCALE
  5
4B
102
{ACAD_REACTORS
330
47
102
}
330
47
100
AcDbScale
 70
     0
300
1:5
140
1.0
141
5.0
290
     0
  0
SCALE
  5
4C
102
{ACAD_REACTORS
330
47
102
}
330
47
100
AcDbScale
 70
     0
300
1:8
140
1.0
141
8.0
290
     0
  0
SCALE
  5
4D
102
{ACAD_REACTORS
330
47
102
}
330
47
100
AcDbScale
 70
     0
300
1:10
140
1.0
141
10.0
290
     0
  0
SCALE
  5
4E
102
{ACAD_REACTORS
330
47
102
}
330
47
100
AcDbScale
 70
     0
300
1:16
140
1.0
141
16.0
290
     0
  0
SCALE
  5
4F
102
{ACAD_REACTORS
330
47
102
}
330
47
100
AcDbScale
 70
     0
300
1:20
140
1.0
141
20.0
290
     0
  0
SCALE
  5
50
102
{ACAD_REACTORS
330
47
102
}
330
47
100
AcDbScale
 70
     0
300
1:30
140
1.0
141
30.0
290
     0
  0
SCALE
  5
51
102
{ACAD_REACTORS
330
47
102
}
330
47
100
AcDbScale
 70
     0
300
1:40
140
1.0
141
40.0
290
     0
  0
SCALE
  5
52
102
{ACAD_REACTORS
330
47
102
}
330
47
100
AcDbScale
 70
     0
300
1:50
140
1.0
141
50.0
290
     0
  0
SCALE
  5
53
102
{ACAD_REACTORS
330
47
102
}
330
47
100
AcDbScale
 70
     0
300
1:100
140
1.0
141
100.0
290
     0
  0
SCALE
  5
54
102
{ACAD_REACTORS
330
47
102
}
330
47
100
AcDbScale
 70
     0
300
2:1
140
2.0
141
1.0
290
     0
  0
SCALE
  5
55
102
{ACAD_REACTORS
330
47
102
}
330
47
100
AcDbScale
 70
     0
300
4:1
140
4.0
141
1.0
290
     0
  0
SCALE
  5
56
102
{ACAD_REACTORS
330
47
102
}
330
47
100
AcDbScale
 70
     0
300
8:1
140
8.0
141
1.0
290
     0
  0
SCALE
  5
57
102
{ACAD_REACTORS
330
47
102
}
330
47
100
AcDbScale
 70
     0
300
10:1
140
10.0
141
1.0
290
     0
  0
SCALE
  5
58
102
{ACAD_REACTORS
330
47
102
}
330
47
100
AcDbScale
 70
     0
300
100:1
140
100.0
141
1.0
290
     0
  0
SCALE
  5
59
102
{ACAD_REACTORS
330
47
102
}
330
47
100
AcDbScale
 70
     0
300
1/128" = 1'-0"
140
0.0078125
141
12.0
290
     0
  0
SCALE
  5
5A
102
{ACAD_REACTORS
330
47
102
}
330
47
100
AcDbScale
 70
     0
300
1/64" = 1'-0"
140
0.015625
141
12.0
290
     0
  0
SCALE
  5
5B
102
{ACAD_REACTORS
330
47
102
}
330
47
100
AcDbScale
 70
     0
300
1/32" = 1'-0"
140
0.03125
141
12.0
290
     0
  0
SCALE
  5
5C
102
{ACAD_REACTORS
330
47
102
}
330
47
100
AcDbScale
 70
     0
300
1/16" = 1'-0"
140
0.0625
141
12.0
290
     0
  0
SCALE
  5
5D
102
{ACAD_REACTORS
330
47
102
}
330
47
100
AcDbScale
 70
     0
300
3/32" = 1'-0"
140
0.09375
141
12.0
290
     0
  0
SCALE
  5
5E
102
{ACAD_REACTORS
330
47
102
}
330
47
100
AcDbScale
 70
     0
300
1/8" = 1'-0"
140
0.125
141
12.0
290
     0
  0
SCALE
  5
5F
102
{ACAD_REACTORS
330
47
102
}
330
47
100
AcDbScale
 70
     0
300
3/16" = 1'-0"
140
0.1875
141
12.0
290
     0
  0
SCALE
  5
60
102
{ACAD_REACTORS
330
47
102
}
330
47
100
AcDbScale
 70
     0
300
1/4" = 1'-0"
140
0.25
141
12.0
290
     0
  0
SCALE
  5
61
102
{ACAD_REACTORS
330
47
102
}
330
47
100
AcDbScale
 70
     0
300
3/8" = 1'-0"
140
0.375
141
12.0
290
     0
  0
SCALE
  5
62
102
{ACAD_REACTORS
330
47
102
}
330
47
100
AcDbScale
 70
     0
300
1/2" = 1'-0"
140
0.5
141
12.0
290
     0
  0
SCALE
  5
63
102
{ACAD_REACTORS
330
47
102
}
330
47
100
AcDbScale
 70
     0
300
3/4" = 1'-0"
140
0.75
141
12.0
290
     0
  0
SCALE
  5
64
102
{ACAD_REACTORS
330
47
102
}
330
47
100
AcDbScale
 70
     0
300
1" = 1'-0"
140
1.0
141
12.0
290
     0
  0
SCALE
  5
65
102
{ACAD_REACTORS
330
47
102
}
330
47
100
AcDbScale
 70
     0
300
1-1/2" = 1'-0"
140
1.5
141
12.0
290
     0
  0
SCALE
  5
66
102
{ACAD_REACTORS
330
47
102
}
330
47
100
AcDbScale
 70
     0
300
3" = 1'-0"
140
3.0
141
12.0
290
     0
  0
SCALE
  5
67
102
{ACAD_REACTORS
330
47
102
}
330
47
100
AcDbScale
 70
     0
300
6" = 1'-0"
140
6.0
141
12.0
290
     0
  0
SCALE
  5
68
102
{ACAD_REACTORS
330
47
102
}
330
47
100
AcDbScale
 70
     0
300
1'-0" = 1'-0"
140
12.0
141
12.0
290
     0
  0
TABLESTYLE
  5
6A
102
{ACAD_REACTORS
330
69
102
}
102
{ACAD_XDICTIONARY
360
262
102
}
330
69
100
AcDbTableStyle
  3
Standard
 70
     0
 71
     0
 40
0.06
 41
0.06
280
     0
281
     0
  7
Standard
140
4.5
170
     2
 62
     0
 63
   257
283
     0
274
    -2
284
     1
 64
     0
275
    -2
285
     1
 65
     0
276
    -2
286
     1
 66
     0
277
    -2
287
     1
 67
     0
278
    -2
288
     1
 68
     0
279
    -2
289
     1
 69
     0
  7
Standard
140
6.0
170
     5
 62
     0
 63
   257
283
     0
274
    -2
284
     1
 64
     0
275
    -2
285
     1
 65
     0
276
    -2
286
     1
 66
     0
277
    -2
287
     1
 67
     0
278
    -2
288
     1
 68
     0
279
    -2
289
     1
 69
     0
  7
Standard
140
4.5
170
     5
 62
     0
 63
   257
283
     0
274
    -2
284
     1
 64
     0
275
    -2
285
     1
 65
     0
276
    -2
286
     1
 66
     0
277
    -2
287
     1
 67
     0
278
    -2
288
     1
 68
     0
279
    -2
289
     1
 69
     0
  0
VISUALSTYLE
  5
2F
102
{ACAD_REACTORS
330
2A
102
}
102
{ACAD_XDICTIONARY
360
234
102
}
330
2A
100
AcDbVisualStyle
  2
2dWireframe
 70
     4
 71
     0
 72
     2
 73
     0
 90
        0
 40
0.6
 41
30.0
 62
     5
 63
     7
421
 16777215
 74
     1
 91
        4
 64
     7
 65
   257
 75
     1
175
     1
 42
1.0
 92
        0
 66
   257
 43
1.0
 76
     1
 77
     6
 78
     2
 67
     7
 79
     5
170
     0
171
     0
290
     0
174
     0
 93
        1
 44
0.0
173
     0
291
     0
 45
0.0
1001
ACAD
1000
AcDbSavedByObjectVersion
1070
     0
  0
VISUALSTYLE
  5
32
102
{ACAD_REACTORS
330
2A
102
}
102
{ACAD_XDICTIONARY
360
23A
102
}
330
2A
100
AcDbVisualStyle
  2
Basic
 70
     7
 71
     1
 72
     0
 73
     1
 90
        0
 40
0.6
 41
30.0
 62
     5
 63
     7
421
 16777215
 74
     0
 91
        4
 64
     7
 65
   257
 75
     1
175
     1
 42
1.0
 92
        8
 66
     7
 43
1.0
 76
     1
 77
     6
 78
     2
 67
     7
 79
     5
170
     0
171
     0
290
     0
174
     0
 93
        1
 44
0.0
173
     0
291
     1
 45
0.0
1001
ACAD
1000
AcDbSavedByObjectVersion
1070
     0
  0
VISUALSTYLE
  5
36
102
{ACAD_REACTORS
330
2A
102
}
102
{ACAD_XDICTIONARY
360
242
102
}
330
2A
100
AcDbVisualStyle
  2
Brighten
 70
    12
 71
     2
 72
     2
 73
     0
 90
        0
 40
0.6
 41
30.0
 62
     5
 63
     7
421
 16777215
 74
     1
 91
        4
 64
     7
 65
   257
 75
     1
175
     1
 42
1.0
 92
        8
 66
     7
 43
1.0
 76
     1
 77
     6
 78
     2
 67
     7
 79
     5
170
     0
171
     0
290
     0
174
     0
 93
        1
 44
50.0
173
     0
291
     1
 45
0.0
1001
ACAD
1000
AcDbSavedByObjectVersion
1070
     0
  0
VISUALSTYLE
  5
3A
102
{ACAD_REACTORS
330
2A
102
}
102
{ACAD_XDICTIONARY
360
24A
102
}
330
2A
100
AcDbVisualStyle
  2
ColorChange
 70
    16
 71
     2
 72
     2
 73
     3
 90
        0
 40
0.6
 41
30.0
 62
     5
 63
     8
421
  8421504
 74
     1
 91
        4
 64
     7
 65
   257
 75
     1
175
     1
 42
1.0
 92
        8
 66
     8
424
  8421504
 43
1.0
 76
     1
 77
     6
 78
     2
 67
     7
 79
     5
170
     0
171
     0
290
     0
174
     0
 93
        1
 44
0.0
173
     0
291
     1
 45
0.0
1001
ACAD
1000
AcDbSavedByObjectVersion
1070
     0
  0
VISUALSTYLE
  5
34
102
{ACAD_REACTORS
330
2A
102
}
102
{ACAD_XDICTIONARY
360
23E
102
}
330
2A
100
AcDbVisualStyle
  2
Conceptual
 70
     9
 71
     3
 72
     2
 73
     0
 90
        0
 40
0.6
 41
30.0
 62
     5
 63
     7
421
 16777215
 74
     2
 91
        2
 64
     7
 65
   257
 75
     1
175
     1
 42
179.0
 92
        8
 66
     7
 43
1.0
 76
     1
 77
     6
 78
     2
 67
     7
 79
     3
170
     0
171
     0
290
     0
174
     0
 93
        1
 44
0.0
173
     0
291
     0
 45
0.0
1001
ACAD
1000
AcDbSavedByObjectVersion
1070
     0
  0
VISUALSTYLE
  5
35
102
{ACAD_REACTORS
330
2A
102
}
102
{ACAD_XDICTIONARY
360
240
102
}
330
2A
100
AcDbVisualStyle
  2
Dim
 70
    11
 71
     2
 72
     2
 73
     0
 90
        0
 40
0.6
 41
30.0
 62
     5
 63
     7
421
 16777215
 74
     1
 91
        4
 64
     7
 65
   257
 75
     1
175
     1
 42
1.0
 92
        8
 66
     7
 43
1.0
 76
     1
 77
     6
 78
     2
 67
     7
 79
     5
170
     0
171
     0
290
     0
174
     0
 93
        1
 44
-50.0
173
     0
291
     1
 45
0.0
1001
ACAD
1000
AcDbSavedByObjectVersion
1070
     0
  0
VISUALSTYLE
  5
3D
102
{ACAD_REACTORS
330
2A
102
}
102
{ACAD_XDICTIONARY
360
250
102
}
330
2A
100
AcDbVisualStyle
  2
EdgeColorOff
 70
    22
 71
     2
 72
     2
 73
     0
 90
        0
 40
0.6
 41
30.0
 62
     5
 63
     7
421
 16777215
 74
     1
 91
        4
 64
     7
 65
   257
 75
     1
175
     1
 42
1.0
 92
        8
 66
     7
 43
1.0
 76
     1
 77
     6
 78
     2
 67
     7
 79
     5
170
     0
171
     0
290
     0
174
     0
 93
        1
 44
0.0
173
     0
291
     1
 45
0.0
1001
ACAD
1000
AcDbSavedByObjectVersion
1070
     0
  0
VISUALSTYLE
  5
39
102
{ACAD_REACTORS
330
2A
102
}
102
{ACAD_XDICTIONARY
360
248
102
}
330
2A
100
AcDbVisualStyle
  2
Facepattern
 70
    15
 71
     2
 72
     2
 73
     0
 90
        0
 40
0.6
 41
30.0
 62
     5
 63
     7
421
 16777215
 74
     1
 91
        4
 64
     7
 65
   257
 75
     1
175
     1
 42
1.0
 92
        8
 66
     7
 43
1.0
 76
     1
 77
     6
 78
     2
 67
     7
 79
     5
170
     0
171
     0
290
     0
174
     0
 93
        1
 44
0.0
173
     0
291
     1
 45
0.0
1001
ACAD
1000
AcDbSavedByObjectVersion
1070
     0
  0
VISUALSTYLE
  5
2B
102
{ACAD_REACTORS
330
2A
102
}
102
{ACAD_XDICTIONARY
360
22C
102
}
330
2A
100
AcDbVisualStyle
  2
Flat
 70
     0
 71
     2
 72
     1
 73
     1
 90
        2
 40
0.6
 41
30.0
 62
     5
 63
     7
421
 16777215
 74
     0
 91
        0
 64
     7
 65
   257
 75
     1
175
     1
 42
1.0
 92
        8
 66
     7
 43
1.0
 76
     1
 77
     6
 78
     2
 67
     7
 79
     5
170
     0
171
     0
290
     0
174
     0
 93
       13
 44
0.0
173
     0
291
     1
 45
0.0
1001
ACAD
1000
AcDbSavedByObjectVersion
1070
     0
  0
VISUALSTYLE
  5
2C
102
{ACAD_REACTORS
330
2A
102
}
102
{ACAD_XDICTIONARY
360
22E
102
}
330
2A
100
AcDbVisualStyle
  2
FlatWithEdges
 70
     1
 71
     2
 72
     1
 73
     1
 90
        2
 40
0.6
 41
30.0
 62
     5
 63
     7
421
 16777215
 74
     1
 91
        0
 64
     7
 65
   257
 75
     1
175
     1
 42
1.0
 92
        0
 66
   257
 43
1.0
 76
     1
 77
     6
 78
     2
 67
     7
 79
     5
170
     0
171
     0
290
     0
174
     0
 93
       13
 44
0.0
173
     0
291
     1
 45
0.0
1001
ACAD
1000
AcDbSavedByObjectVersion
1070
     0
  0
VISUALSTYLE
  5
2D
102
{ACAD_REACTORS
330
2A
102
}
102
{ACAD_XDICTIONARY
360
230
102
}
330
2A
100
AcDbVisualStyle
  2
Gouraud
 70
     2
 71
     2
 72
     2
 73
     1
 90
        2
 40
0.6
 41
30.0
 62
     5
 63
     7
421
 16777215
 74
     0
 91
        0
 64
     7
 65
   257
 75
     1
175
     1
 42
1.0
 92
        0
 66
     7
 43
1.0
 76
     1
 77
     6
 78
     2
 67
     7
 79
     5
170
     0
171
     0
290
     0
174
     0
 93
       13
 44
0.0
173
     0
291
     1
 45
0.0
1001
ACAD
1000
AcDbSavedByObjectVersion
1070
     0
  0
VISUALSTYLE
  5
2E
102
{ACAD_REACTORS
330
2A
102
}
102
{ACAD_XDICTIONARY
360
232
102
}
330
2A
100
AcDbVisualStyle
  2
GouraudWithEdges
 70
     3
 71
     2
 72
     2
 73
     1
 90
        2
 40
0.6
 41
30.0
 62
     5
 63
     7
421
 16777215
 74
     1
 91
        0
 64
     7
 65
   257
 75
     1
175
     1
 42
1.0
 92
        0
 66
   257
 43
1.0
 76
     1
 77
     6
 78
     2
 67
     7
 79
     5
170
     0
171
     0
290
     0
174
     0
 93
       13
 44
0.0
173
     0
291
     1
 45
0.0
1001
ACAD
1000
AcDbSavedByObjectVersion
1070
     0
  0
VISUALSTYLE
  5
31
102
{ACAD_REACTORS
330
2A
102
}
102
{ACAD_XDICTIONARY
360
238
102
}
330
2A
100
AcDbVisualStyle
  2
Hidden
 70
     6
 71
     1
 72
     2
 73
     2
 90
        0
 40
0.6
 41
30.0
 62
     5
 63
     7
421
 16777215
 74
     2
 91
        2
 64
     7
 65
   257
 75
     2
175
     1
 42
40.0
 92
        0
 66
   257
 43
1.0
 76
     1
 77
     6
 78
     2
 67
     7
 79
     3
170
     0
171
     0
290
     0
174
     0
 93
        1
 44
0.0
173
     0
291
     0
 45
0.0
1001
ACAD
1000
AcDbSavedByObjectVersion
1070
     0
  0
VISUALSTYLE
  5
3B
102
{ACAD_REACTORS
330
2A
102
}
102
{ACAD_XDICTIONARY
360
24C
102
}
330
2A
100
AcDbVisualStyle
  2
JitterOff
 70
    20
 71
     2
 72
     2
 73
     0
 90
        0
 40
0.6
 41
30.0
 62
     5
 63
     7
421
 16777215
 74
     1
 91
        4
 64
     7
 65
   257
 75
     1
175
     1
 42
1.0
 92
       10
 66
     7
 43
1.0
 76
     1
 77
     6
 78
     2
 67
     7
 79
     5
170
     0
171
     0
290
     0
174
     0
 93
        1
 44
0.0
173
     0
291
     1
 45
0.0
1001
ACAD
1000
AcDbSavedByObjectVersion
1070
     0
  0
VISUALSTYLE
  5
38
102
{ACAD_REACTORS
330
2A
102
}
102
{ACAD_XDICTIONARY
360
246
102
}
330
2A
100
AcDbVisualStyle
  2
Linepattern
 70
    14
 71
     2
 72
     2
 73
     0
 90
        0
 40
0.6
 41
30.0
 62
     5
 63
     7
421
 16777215
 74
     1
 91
        4
 64
     7
 65
   257
 75
     7
175
     7
 42
1.0
 92
        8
 66
     7
 43
1.0
 76
     1
 77
     6
 78
     2
 67
     7
 79
     5
170
     0
171
     0
290
     0
174
     0
 93
        1
 44
0.0
173
     0
291
     1
 45
0.0
1001
ACAD
1000
AcDbSavedByObjectVersion
1070
     0
  0
VISUALSTYLE
  5
3C
102
{ACAD_REACTORS
330
2A
102
}
102
{ACAD_XDICTIONARY
360
24E
102
}
330
2A
100
AcDbVisualStyle
  2
OverhangOff
 70
    21
 71
     2
 72
     2
 73
     0
 90
        0
 40
0.6
 41
30.0
 62
     5
 63
     7
421
 16777215
 74
     1
 91
        4
 64
     7
 65
   257
 75
     1
175
     1
 42
1.0
 92
        9
 66
     7
 43
1.0
 76
     1
 77
     6
 78
     2
 67
     7
 79
     5
170
     0
171
     0
290
     0
174
     0
 93
        1
 44
0.0
173
     0
291
     1
 45
0.0
1001
ACAD
1000
AcDbSavedByObjectVersion
1070
     0
  0
VISUALSTYLE
  5
33
102
{ACAD_REACTORS
330
2A
102
}
102
{ACAD_XDICTIONARY
360
23C
102
}
330
2A
100
AcDbVisualStyle
  2
Realistic
 70
     8
 71
     2
 72
     3
 73
     0
 90
        2
 40
0.6
 41
30.0
 62
     5
 63
     7
421
 16777215
 74
     0
 91
        0
 64
     7
 65
   257
 75
     1
175
     1
 42
1.0
 92
        8
 66
   257
 43
1.0
 76
     1
 77
     6
 78
     2
 67
     7
 79
     3
170
     0
171
     0
290
     0
174
     0
 93
       13
 44
0.0
173
     0
291
     0
 45
0.0
1001
ACAD
1000
AcDbSavedByObjectVersion
1070
     0
  0
VISUALSTYLE
  5
42
102
{ACAD_REACTORS
330
2A
102
}
102
{ACAD_XDICTIONARY
360
25A
102
}
330
2A
100
AcDbVisualStyle
  2
Shaded
 70
    27
 71
     2
 72
     2
 73
     1
 90
        2
 40
0.6
 41
30.0
 62
     5
 63
     7
421
 16777215
 74
     0
 91
        4
 64
     7
 65
   257
 75
     1
175
     1
 42
1.0
 92
        8
 66
   257
 43
1.0
 76
     1
 77
     6
 78
     2
 67
     8
425
  7895160
 79
     3
170
     0
171
     0
290
     0
174
     0
 93
        5
 44
0.0
173
     0
291
     0
 45
0.0
1001
ACAD
1000
AcDbSavedByObjectVersion
1070
     0
  0
VISUALSTYLE
  5
41
102
{ACAD_REACTORS
330
2A
102
}
102
{ACAD_XDICTIONARY
360
258
102
}
330
2A
100
AcDbVisualStyle
  2
Shaded with edges
 70
    26
 71
     2
 72
     2
 73
     1
 90
        2
 40
0.6
 41
30.0
 62
     5
 63
     7
421
 16777215
 74
     1
 91
       10
 64
     7
 65
   257
 75
     2
175
     1
 42
1.0
 92
        8
 66
   257
 43
1.0
 76
     1
 77
     6
 78
     2
 67
     7
 79
     3
170
     0
171
     0
290
     0
174
     0
 93
        5
 44
0.0
173
     0
291
     0
 45
0.0
1001
ACAD
1000
AcDbSavedByObjectVersion
1070
     0
  0
VISUALSTYLE
  5
3E
102
{ACAD_REACTORS
330
2A
102
}
102
{ACAD_XDICTIONARY
360
252
102
}
330
2A
100
AcDbVisualStyle
  2
Shades of Gray
 70
    23
 71
     2
 72
     2
 73
     3
 90
        0
 40
0.6
 41
30.0
 62
     5
 63
     7
421
 16777215
 74
     2
 91
        2
 64
     7
 65
     7
 75
     1
175
     1
 42
40.0
 92
        8
 66
     7
 43
1.0
 76
     1
 77
     6
 78
     2
 67
     7
 79
     3
170
     0
171
     0
290
     0
174
     0
 93
        1
 44
0.0
173
     0
291
     0
 45
0.0
1001
ACAD
1000
AcDbSavedByObjectVersion
1070
     0
  0
VISUALSTYLE
  5
3F
102
{ACAD_REACTORS
330
2A
102
}
102
{ACAD_XDICTIONARY
360
254
102
}
330
2A
100
AcDbVisualStyle
  2
Sketchy
 70
    24
 71
     1
 72
     2
 73
     2
 90
        0
 40
0.6
 41
30.0
 62
     5
 63
     7
421
 16777215
 74
     2
 91
        2
 64
     7
 65
     7
 75
     1
175
     1
 42
40.0
 92
       11
 66
     7
 43
1.0
 76
     1
 77
     6
 78
     2
 67
     7
 79
     6
170
     0
171
     0
290
     0
174
     0
 93
        1
 44
0.0
173
     0
291
     0
 45
0.0
1001
ACAD
1000
AcDbSavedByObjectVersion
1070
     0
  0
VISUALSTYLE
  5
37
102
{ACAD_REACTORS
330
2A
102
}
102
{ACAD_XDICTIONARY
360
244
102
}
330
2A
100
AcDbVisualStyle
  2
Thicken
 70
    13
 71
     2
 72
     2
 73
     0
 90
        0
 40
0.6
 41
30.0
 62
     5
 63
     7
421
 16777215
 74
     1
 91
        4
 64
     7
 65
   257
 75
     1
175
     1
 42
1.0
 92
       12
 66
     7
 43
1.0
 76
     1
 77
     6
 78
     2
 67
     7
 79
     5
170
     0
171
     0
290
     0
174
     0
 93
        1
 44
0.0
173
     0
291
     1
 45
0.0
1001
ACAD
1000
AcDbSavedByObjectVersion
1070
     0
  0
VISUALSTYLE
  5
30
102
{ACAD_REACTORS
330
2A
102
}
102
{ACAD_XDICTIONARY
360
236
102
}
330
2A
100
AcDbVisualStyle
  2
Wireframe
 70
     5
 71
     0
 72
     2
 73
     0
 90
        0
 40
0.6
 41
30.0
 62
     5
 63
     7
421
 16777215
 74
     1
 91
        4
 64
     7
 65
   257
 75
     1
175
     1
 42
1.0
 92
        0
 66
   257
 43
1.0
 76
     1
 77
     6
 78
     2
 67
     7
 79
     3
170
     0
171
     0
290
     0
174
     0
 93
        1
 44
0.0
173
     0
291
     0
 45
0.0
1001
ACAD
1000
AcDbSavedByObjectVersion
1070
     0
  0
VISUALSTYLE
  5
40
102
{ACAD_REACTORS
330
2A
102
}
102
{ACAD_XDICTIONARY
360
256
102
}
330
2A
100
AcDbVisualStyle
  2
X-Ray
 70
    25
 71
     2
 72
     2
 73
     1
 90
        1
 40
0.5
 41
30.0
 62
     5
 63
     7
421
 16777215
 74
     1
 91
        0
 64
     7
 65
   257
 75
     1
175
     1
 42
1.0
 92
        8
 66
     7
 43
1.0
 76
     1
 77
     6
 78
     2
 67
     7
 79
     3
170
     0
171
     0
290
     0
174
     0
 93
       13
 44
0.0
173
     0
291
     0
 45
0.0
1001
ACAD
1000
AcDbSavedByObjectVersion
1070
     0
  0
DICTIONARYVAR
  5
229
102
{ACAD_REACTORS
330
228
102
}
330
228
100
DictionaryVariables
280
     0
  1
1:1
  0
DICTIONARYVAR
  5
26D
102
{ACAD_REACTORS
330
228
102
}
330
228
100
DictionaryVariables
280
     0
  1
3.500000
  0
DICTIONARYVAR
  5
26E
102
{ACAD_REACTORS
330
228
102
}
330
228
100
DictionaryVariables
280
     0
  1
acadiso.lin
  0
DICTIONARYVAR
  5
26A
102
{ACAD_REACTORS
330
228
102
}
330
228
100
DictionaryVariables
280
     0
  1
Standard
  0
DICTIONARYVAR
  5
269
102
{ACAD_REACTORS
330
228
102
}
330
228
100
DictionaryVariables
280
     0
  1
Standard
  0
DICTIONARYVAR
  5
22A
102
{ACAD_REACTORS
330
228
102
}
330
228
100
DictionaryVariables
280
     0
  1
1
  0
DICTIONARYVAR
  5
22B
102
{ACAD_REACTORS
330
228
102
}
330
228
100
DictionaryVariables
280
     0
  1
2
  0
DICTIONARY
  5
25E
330
45
100
AcDbDictionary
280
     1
281
     1
  3
ACAD_XREC_ROUNDTRIP
360
25F
  0
DICTIONARY
  5
25C
330
44
100
AcDbDictionary
280
     1
281
     1
  3
ACAD_XREC_ROUNDTRIP
360
25D
  0
DICTIONARY
  5
260
330
46
100
AcDbDictionary
280
     1
281
     1
  3
ACAD_XREC_ROUNDTRIP
360
261
  0
DICTIONARY
  5
266
330
6C
100
AcDbDictionary
280
     1
281
     1
  3
ACAD_XREC_ROUNDTRIP
360
267
  0
DICTIONARY
  5
262
330
6A
100
AcDbDictionary
280
     1
281
     1
  3
ACAD_ROUNDTRIP_2008_TABLESTYLE_CELLSTYLEMAP
360
264
  3
ACAD_XREC_ROUNDTRIP
360
263
  0
DICTIONARY
  5
234
330
2F
100
AcDbDictionary
280
     1
281
     1
  3
ACAD_XREC_ROUNDTRIP
360
235
  0
DICTIONARY
  5
23A
330
32
100
AcDbDictionary
280
     1
281
     1
  3
ACAD_XREC_ROUNDTRIP
360
23B
  0
DICTIONARY
  5
242
330
36
100
AcDbDictionary
280
     1
281
     1
  3
ACAD_XREC_ROUNDTRIP
360
243
  0
DICTIONARY
  5
24A
330
3A
100
AcDbDictionary
280
     1
281
     1
  3
ACAD_XREC_ROUNDTRIP
360
24B
  0
DICTIONARY
  5
23E
330
34
100
AcDbDictionary
280
     1
281
     1
  3
ACAD_XREC_ROUNDTRIP
360
23F
  0
DICTIONARY
  5
240
330
35
100
AcDbDictionary
280
     1
281
     1
  3
ACAD_XREC_ROUNDTRIP
360
241
  0
DICTIONARY
  5
250
330
3D
100
AcDbDictionary
280
     1
281
     1
  3
ACAD_XREC_ROUNDTRIP
360
251
  0
DICTIONARY
  5
248
330
39
100
AcDbDictionary
280
     1
281
     1
  3
ACAD_XREC_ROUNDTRIP
360
249
  0
DICTIONARY
  5
22C
330
2B
100
AcDbDictionary
280
     1
281
     1
  3
ACAD_XREC_ROUNDTRIP
360
22D
  0
DICTIONARY
  5
22E
330
2C
100
AcDbDictionary
280
     1
281
     1
  3
ACAD_XREC_ROUNDTRIP
360
22F
  0
DICTIONARY
  5
230
330
2D
100
AcDbDictionary
280
     1
281
     1
  3
ACAD_XREC_ROUNDTRIP
360
231
  0
DICTIONARY
  5
232
330
2E
100
AcDbDictionary
280
     1
281
     1
  3
ACAD_XREC_ROUNDTRIP
360
233
  0
DICTIONARY
  5
238
330
31
100
AcDbDictionary
280
     1
281
     1
  3
ACAD_XREC_ROUNDTRIP
360
239
  0
DICTIONARY
  5
24C
330
3B
100
AcDbDictionary
280
     1
281
     1
  3
ACAD_XREC_ROUNDTRIP
360
24D
  0
DICTIONARY
  5
246
330
38
100
AcDbDictionary
280
     1
281
     1
  3
ACAD_XREC_ROUNDTRIP
360
247
  0
DICTIONARY
  5
24E
330
3C
100
AcDbDictionary
280
     1
281
     1
  3
ACAD_XREC_ROUNDTRIP
360
24F
  0
DICTIONARY
  5
23C
330
33
100
AcDbDictionary
280
     1
281
     1
  3
ACAD_XREC_ROUNDTRIP
360
23D
  0
DICTIONARY
  5
25A
330
42
100
AcDbDictionary
280
     1
281
     1
  3
ACAD_XREC_ROUNDTRIP
360
25B
  0
DICTIONARY
  5
258
330
41
100
AcDbDictionary
280
     1
281
     1
  3
ACAD_XREC_ROUNDTRIP
360
259
  0
DICTIONARY
  5
252
330
3E
100
AcDbDictionary
280
     1
281
     1
  3
ACAD_XREC_ROUNDTRIP
360
253
  0
DICTIONARY
  5
254
330
3F
100
AcDbDictionary
280
     1
281
     1
  3
ACAD_XREC_ROUNDTRIP
360
255
  0
DICTIONARY
  5
244
330
37
100
AcDbDictionary
280
     1
281
     1
  3
ACAD_XREC_ROUNDTRIP
360
245
  0
DICTIONARY
  5
236
330
30
100
AcDbDictionary
280
     1
281
     1
  3
ACAD_XREC_ROUNDTRIP
360
237
  0
DICTIONARY
  5
256
330
40
100
AcDbDictionary
280
     1
281
     1
  3
ACAD_XREC_ROUNDTRIP
360
257
  0
XRECORD
  5
25F
102
{ACAD_REACTORS
330
25E
102
}
330
25E
100
AcDbXrecord
280
     1
102
MATERIAL
148
0.0
149
0.0
149
0.0
 93
        0
 94
      127
282
     0
 72
     1
 77
     1
171
     1
175
     1
179
     1
273
     0
  0
XRECORD
  5
25D
102
{ACAD_REACTORS
330
25C
102
}
330
25C
100
AcDbXrecord
280
     1
102
MATERIAL
148
0.0
149
0.0
149
0.0
 93
        0
 94
      127
282
     0
 72
     1
 77
     1
171
     1
175
     1
179
     1
273
     0
  0
XRECORD
  5
261
102
{ACAD_REACTORS
330
260
102
}
330
260
100
AcDbXrecord
280
     1
102
MATERIAL
148
0.0
149
0.0
149
0.0
 93
        0
 94
      127
282
     0
 72
     1
 77
     1
171
     1
175
     1
179
     1
273
     0
  0
XRECORD
  5
267
102
{ACAD_REACTORS
330
266
102
}
330
266
100
AcDbXrecord
280
     1
102
ACAD_ROUNDTRIP_2010_MLEADER_STYLE
  0
CELLSTYLEMAP
  5
264
102
{ACAD_REACTORS
330
262
102
}
330
262
100
AcDbCellStyleMap
 90
        3
300
CELLSTYLE
  1
TABLEFORMAT_BEGIN
 90
        5
170
     1
 91
        0
 92
    32768
 62
   257
 93
        1
300
CONTENTFORMAT
  1
CONTENTFORMAT_BEGIN
 90
        0
 91
        0
 92
        4
 93
        0
300

 40
0.0
140
1.0
 94
        5
 62
     0
340
11
144
6.0
309
CONTENTFORMAT_END
171
     1
301
MARGIN
  1
CELLMARGIN_BEGIN
 40
1.5
 40
1.5
 40
1.5
 40
1.5
 40
1.5
 40
1.5
309
CELLMARGIN_END
 94
        6
 95
        1
302
GRIDFORMAT
  1
GRIDFORMAT_BEGIN
 90
        0
 91
        1
 62
     0
 92
       -2
340
14
 93
        0
 40
0.045
309
GRIDFORMAT_END
 95
        2
302
GRIDFORMAT
  1
GRIDFORMAT_BEGIN
 90
        0
 91
        1
 62
     0
 92
       -2
340
14
 93
        0
 40
0.045
309
GRIDFORMAT_END
 95
        4
302
GRIDFORMAT
  1
GRIDFORMAT_BEGIN
 90
        0
 91
        1
 62
     0
 92
       -2
340
14
 93
        0
 40
0.045
309
GRIDFORMAT_END
 95
        8
302
GRIDFORMAT
  1
GRIDFORMAT_BEGIN
 90
        0
 91
        1
 62
     0
 92
       -2
340
14
 93
        0
 40
0.045
309
GRIDFORMAT_END
 95
       16
302
GRIDFORMAT
  1
GRIDFORMAT_BEGIN
 90
        0
 91
        1
 62
     0
 92
       -2
340
14
 93
        0
 40
0.045
309
GRIDFORMAT_END
 95
       32
302
GRIDFORMAT
  1
GRIDFORMAT_BEGIN
 90
        0
 91
        1
 62
     0
 92
       -2
340
14
 93
        0
 40
0.045
309
GRIDFORMAT_END
309
TABLEFORMAT_END
  1
CELLSTYLE_BEGIN
 90
        1
 91
        1
300
_TITLE
309
CELLSTYLE_END
300
CELLSTYLE
  1
TABLEFORMAT_BEGIN
 90
        5
170
     1
 91
        0
 92
        0
 62
   257
 93
        1
300
CONTENTFORMAT
  1
CONTENTFORMAT_BEGIN
 90
        0
 91
        0
 92
        4
 93
        0
300

 40
0.0
140
1.0
 94
        5
 62
     0
340
11
144
4.5
309
CONTENTFORMAT_END
171
     1
301
MARGIN
  1
CELLMARGIN_BEGIN
 40
1.5
 40
1.5
 40
1.5
 40
1.5
 40
1.5
 40
1.5
309
CELLMARGIN_END
 94
        6
 95
        1
302
GRIDFORMAT
  1
GRIDFORMAT_BEGIN
 90
        0
 91
        1
 62
     0
 92
       -2
340
14
 93
        0
 40
0.045
309
GRIDFORMAT_END
 95
        2
302
GRIDFORMAT
  1
GRIDFORMAT_BEGIN
 90
        0
 91
        1
 62
     0
 92
       -2
340
14
 93
        0
 40
0.045
309
GRIDFORMAT_END
 95
        4
302
GRIDFORMAT
  1
GRIDFORMAT_BEGIN
 90
        0
 91
        1
 62
     0
 92
       -2
340
14
 93
        0
 40
0.045
309
GRIDFORMAT_END
 95
        8
302
GRIDFORMAT
  1
GRIDFORMAT_BEGIN
 90
        0
 91
        1
 62
     0
 92
       -2
340
14
 93
        0
 40
0.045
309
GRIDFORMAT_END
 95
       16
302
GRIDFORMAT
  1
GRIDFORMAT_BEGIN
 90
        0
 91
        1
 62
     0
 92
       -2
340
14
 93
        0
 40
0.045
309
GRIDFORMAT_END
 95
       32
302
GRIDFORMAT
  1
GRIDFORMAT_BEGIN
 90
        0
 91
        1
 62
     0
 92
       -2
340
14
 93
        0
 40
0.045
309
GRIDFORMAT_END
309
TABLEFORMAT_END
  1
CELLSTYLE_BEGIN
 90
        2
 91
        1
300
_HEADER
309
CELLSTYLE_END
300
CELLSTYLE
  1
TABLEFORMAT_BEGIN
 90
        5
170
     1
 91
        0
 92
        0
 62
   257
 93
        1
300
CONTENTFORMAT
  1
CONTENTFORMAT_BEGIN
 90
        0
 91
        0
 92
        4
 93
        0
300

 40
0.0
140
1.0
 94
        2
 62
     0
340
11
144
4.5
309
CONTENTFORMAT_END
171
     1
301
MARGIN
  1
CELLMARGIN_BEGIN
 40
1.5
 40
1.5
 40
1.5
 40
1.5
 40
1.5
 40
1.5
309
CELLMARGIN_END
 94
        6
 95
        1
302
GRIDFORMAT
  1
GRIDFORMAT_BEGIN
 90
        0
 91
        1
 62
     0
 92
       -2
340
14
 93
        0
 40
0.045
309
GRIDFORMAT_END
 95
        2
302
GRIDFORMAT
  1
GRIDFORMAT_BEGIN
 90
        0
 91
        1
 62
     0
 92
       -2
340
14
 93
        0
 40
0.045
309
GRIDFORMAT_END
 95
        4
302
GRIDFORMAT
  1
GRIDFORMAT_BEGIN
 90
        0
 91
        1
 62
     0
 92
       -2
340
14
 93
        0
 40
0.045
309
GRIDFORMAT_END
 95
        8
302
GRIDFORMAT
  1
GRIDFORMAT_BEGIN
 90
        0
 91
        1
 62
     0
 92
       -2
340
14
 93
        0
 40
0.045
309
GRIDFORMAT_END
 95
       16
302
GRIDFORMAT
  1
GRIDFORMAT_BEGIN
 90
        0
 91
        1
 62
     0
 92
       -2
340
14
 93
        0
 40
0.045
309
GRIDFORMAT_END
 95
       32
302
GRIDFORMAT
  1
GRIDFORMAT_BEGIN
 90
        0
 91
        1
 62
     0
 92
       -2
340
14
 93
        0
 40
0.045
309
GRIDFORMAT_END
309
TABLEFORMAT_END
  1
CELLSTYLE_BEGIN
 90
        3
 91
        2
300
_DATA
309
CELLSTYLE_END
  0
XRECORD
  5
263
102
{ACAD_REACTORS
330
262
102
}
330
262
100
AcDbXrecord
280
     1
102
ACAD_ROUNDTRIP_PRE2007_TABLESTYLE
 90
        4
 91
        0
  1

 92
        4
 93
        0
  2

 94
        4
 95
        0
  3

  0
XRECORD
  5
235
102
{ACAD_REACTORS
330
234
102
}
330
234
100
AcDbXrecord
280
     1
102
RTVSPropertyOp0
 70
     1
102
RTVSPropertyOp1
 70
     1
102
RTVSPropertyOp2
 70
     1
102
RTVSPropertyOp3
 70
     1
102
RTVSPropertyOp4
 70
     1
102
RTVSPropertyOp5
 70
     1
102
RTVSPropertyOp6
 70
     1
102
RTVSPropertyOp7
 70
     1
102
RTVSPropertyOp8
 70
     1
102
RTVSPropertyOp9
 70
     1
102
RTVSPropertyOp10
 70
     1
102
RTVSPropertyOp11
 70
     1
102
RTVSPropertyOp12
 70
     1
102
RTVSPropertyOp13
 70
     1
102
RTVSPropertyOp14
 70
     1
102
RTVSPropertyOp15
 70
     1
102
RTVSPropertyOp16
 70
     1
102
RTVSPropertyOp17
 70
     1
102
RTVSPropertyOp18
 70
     1
102
RTVSPropertyOp19
 70
     1
102
RTVSPropertyOp20
 70
     1
102
RTVSPropertyOp21
 70
     1
102
RTVSPropertyOp22
 70
     1
102
RTVSPropertyOp23
 70
     1
102
RTVSPropertyOp24
 70
     1
102
RTVSPropertyOp25
 70
     1
102
RTVSPropertyOp26
 70
     1
102
RTVSPropertyOp27
 70
     1
102
RTVSPropertyOp28
 70
     1
102
RTVSPropertyOp29
 70
     1
102
RTVSPropertyOp30
 70
     1
102
RTVSPropertyOp31
 70
     1
102
RTVSPropertyOp32
 70
     1
102
RTVSPropertyOp33
 70
     1
102
RTVSPropertyOp34
 70
     1
102
RTVSPropertyOp35
 70
     1
102
RTVSPropertyOp36
 70
     1
102
RTVSPropertyOp37
 70
     1
102
RTVSPropertyOp38
 70
     1
102
RTVSPropertyOp39
 70
     1
102
RTVSPropertyOp40
 70
     1
102
RTVSPropertyOp41
 70
     1
102
RTVSPropertyOp42
 70
     1
102
RTVSPropertyOp43
 70
     1
102
RTVSPropertyOp44
 70
     1
102
RTVSPropertyOp45
 70
     1
102
RTVSPropertyOp46
 70
     1
102
RTVSPropertyOp47
 70
     1
102
RTVSPropertyOp48
 70
     1
102
RTVSPropertyOp49
 70
     1
102
RTVSPropertyOp50
 70
     1
102
RTVSPropertyOp51
 70
     0
102
RTVSPropertyOp52
 70
     0
102
RTVSPropertyOp53
 70
     1
102
RTVSPropertyOp54
 70
     1
102
RTVSPropertyOp55
 70
     1
102
RTVSPropertyOp56
 70
     1
102
RTVSPropertyOp57
 70
     1
102
RTVSPost2010Prop28
280
     1
102
RTVSPost2010PropOp28
 70
     1
102
RTVSPost2010Prop29
280
     1
102
RTVSPost2010PropOp29
 70
     1
102
RTVSPost2010Prop30
280
     0
102
RTVSPost2010PropOp30
 70
     1
102
RTVSPost2010Prop31
280
     0
102
RTVSPost2010PropOp31
 70
     1
102
RTVSPost2010Prop32
280
     0
102
RTVSPost2010PropOp32
 70
     1
102
RTVSPost2010Prop33
280
     0
102
RTVSPost2010PropOp33
 70
     1
102
RTVSPost2010Prop34
280
     0
102
RTVSPost2010PropOp34
 70
     1
102
RTVSPost2010Prop35
280
     0
102
RTVSPost2010PropOp35
 70
     1
102
RTVSPost2010Prop36
280
     0
102
RTVSPost2010PropOp36
 70
     1
102
RTVSPost2010Prop37
 90
       50
102
RTVSPost2010PropOp37
 70
     1
102
RTVSPost2010Prop38
140
0.0
102
RTVSPost2010PropOp38
 70
     1
102
RTVSPost2010Prop39
140
1.0
102
RTVSPost2010PropOp39
 70
     1
102
RTVSPost2010Prop40
 90
        0
102
RTVSPost2010PropOp40
 70
     1
102
RTVSPost2010Prop41ColorIndex
 90
       18
102
RTVSPost2010Prop41ColorRGB
 90
        0
102
RTVSPost2010PropOp41
 70
     1
102
RTVSPost2010Prop42
 90
       50
102
RTVSPost2010PropOp42
 70
     1
102
RTVSPost2010Prop43
 90
        3
102
RTVSPost2010PropOp43
 70
     1
102
RTVSPost2010Prop44ColorIndex
 90
        5
102
RTVSPost2010Prop44ColorRGB
 90
      255
102
RTVSPost2010PropOp44
 70
     1
102
RTVSPost2010Prop45
280
     0
102
RTVSPost2010PropOp45
 70
     1
102
RTVSPost2010Prop46
 90
       50
102
RTVSPost2010PropOp46
 70
     1
102
RTVSPost2010Prop47
 90
       50
102
RTVSPost2010PropOp47
 70
     1
102
RTVSPost2010Prop48
 90
       50
102
RTVSPost2010PropOp48
 70
     1
102
RTVSPost2010Prop49
280
     0
102
RTVSPost2010PropOp49
 70
     1
102
RTVSPost2010Prop50
 90
       50
102
RTVSPost2010PropOp50
 70
     1
102
RTVSPost2010Prop51ColorIndex
 90
      256
102
RTVSPost2010Prop51ColorRGB
 90
-16777216
102
RTVSPost2010PropOp51
 70
     0
102
RTVSPost2010Prop52
140
1.0
102
RTVSPost2010PropOp52
 70
     0
102
RTVSPost2010Prop53
 90
        2
102
RTVSPost2010PropOp53
 70
     1
102
RTVSPost2010Prop54
  1
strokes_ogs.tif
102
RTVSPost2010PropOp54
 70
     1
102
RTVSPost2010Prop55
280
     0
102
RTVSPost2010PropOp55
 70
     1
102
RTVSPost2010Prop56
140
1.0
102
RTVSPost2010PropOp56
 70
     1
102
RTVSPost2010Prop57
140
1.0
102
RTVSPost2010PropOp57
 70
     1
  0
XRECORD
  5
23B
102
{ACAD_REACTORS
330
23A
102
}
330
23A
100
AcDbXrecord
280
     1
102
RTVSPropertyOp0
 70
     1
102
RTVSPropertyOp1
 70
     1
102
RTVSPropertyOp2
 70
     1
102
RTVSPropertyOp3
 70
     1
102
RTVSPropertyOp4
 70
     1
102
RTVSPropertyOp5
 70
     1
102
RTVSPropertyOp6
 70
     1
102
RTVSPropertyOp7
 70
     1
102
RTVSPropertyOp8
 70
     1
102
RTVSPropertyOp9
 70
     1
102
RTVSPropertyOp10
 70
     1
102
RTVSPropertyOp11
 70
     1
102
RTVSPropertyOp12
 70
     1
102
RTVSPropertyOp13
 70
     1
102
RTVSPropertyOp14
 70
     1
102
RTVSPropertyOp15
 70
     1
102
RTVSPropertyOp16
 70
     1
102
RTVSPropertyOp17
 70
     1
102
RTVSPropertyOp18
 70
     1
102
RTVSPropertyOp19
 70
     1
102
RTVSPropertyOp20
 70
     1
102
RTVSPropertyOp21
 70
     1
102
RTVSPropertyOp22
 70
     1
102
RTVSPropertyOp23
 70
     1
102
RTVSPropertyOp24
 70
     1
102
RTVSPropertyOp25
 70
     1
102
RTVSPropertyOp26
 70
     1
102
RTVSPropertyOp27
 70
     1
102
RTVSPropertyOp28
 70
     1
102
RTVSPropertyOp29
 70
     1
102
RTVSPropertyOp30
 70
     1
102
RTVSPropertyOp31
 70
     1
102
RTVSPropertyOp32
 70
     1
102
RTVSPropertyOp33
 70
     1
102
RTVSPropertyOp34
 70
     1
102
RTVSPropertyOp35
 70
     1
102
RTVSPropertyOp36
 70
     1
102
RTVSPropertyOp37
 70
     1
102
RTVSPropertyOp38
 70
     1
102
RTVSPropertyOp39
 70
     1
102
RTVSPropertyOp40
 70
     1
102
RTVSPropertyOp41
 70
     1
102
RTVSPropertyOp42
 70
     1
102
RTVSPropertyOp43
 70
     1
102
RTVSPropertyOp44
 70
     1
102
RTVSPropertyOp45
 70
     1
102
RTVSPropertyOp46
 70
     1
102
RTVSPropertyOp47
 70
     1
102
RTVSPropertyOp48
 70
     1
102
RTVSPropertyOp49
 70
     1
102
RTVSPropertyOp50
 70
     1
102
RTVSPropertyOp51
 70
     0
102
RTVSPropertyOp52
 70
     0
102
RTVSPropertyOp53
 70
     1
102
RTVSPropertyOp54
 70
     1
102
RTVSPropertyOp55
 70
     1
102
RTVSPropertyOp56
 70
     1
102
RTVSPropertyOp57
 70
     1
102
RTVSPost2010Prop28
280
     0
102
RTVSPost2010PropOp28
 70
     1
102
RTVSPost2010Prop29
280
     1
102
RTVSPost2010PropOp29
 70
     1
102
RTVSPost2010Prop30
280
     1
102
RTVSPost2010PropOp30
 70
     1
102
RTVSPost2010Prop31
280
     0
102
RTVSPost2010PropOp31
 70
     1
102
RTVSPost2010Prop32
280
     0
102
RTVSPost2010PropOp32
 70
     1
102
RTVSPost2010Prop33
280
     0
102
RTVSPost2010PropOp33
 70
     1
102
RTVSPost2010Prop34
280
     0
102
RTVSPost2010PropOp34
 70
     1
102
RTVSPost2010Prop35
280
     0
102
RTVSPost2010PropOp35
 70
     1
102
RTVSPost2010Prop36
280
     0
102
RTVSPost2010PropOp36
 70
     1
102
RTVSPost2010Prop37
 90
       50
102
RTVSPost2010PropOp37
 70
     1
102
RTVSPost2010Prop38
140
0.0
102
RTVSPost2010PropOp38
 70
     1
102
RTVSPost2010Prop39
140
1.0
102
RTVSPost2010PropOp39
 70
     1
102
RTVSPost2010Prop40
 90
        0
102
RTVSPost2010PropOp40
 70
     1
102
RTVSPost2010Prop41ColorIndex
 90
       18
102
RTVSPost2010Prop41ColorRGB
 90
        0
102
RTVSPost2010PropOp41
 70
     1
102
RTVSPost2010Prop42
 90
       50
102
RTVSPost2010PropOp42
 70
     1
102
RTVSPost2010Prop43
 90
        3
102
RTVSPost2010PropOp43
 70
     1
102
RTVSPost2010Prop44ColorIndex
 90
        5
102
RTVSPost2010Prop44ColorRGB
 90
      255
102
RTVSPost2010PropOp44
 70
     1
102
RTVSPost2010Prop45
280
     0
102
RTVSPost2010PropOp45
 70
     1
102
RTVSPost2010Prop46
 90
       50
102
RTVSPost2010PropOp46
 70
     1
102
RTVSPost2010Prop47
 90
       50
102
RTVSPost2010PropOp47
 70
     1
102
RTVSPost2010Prop48
 90
       50
102
RTVSPost2010PropOp48
 70
     1
102
RTVSPost2010Prop49
280
     0
102
RTVSPost2010PropOp49
 70
     1
102
RTVSPost2010Prop50
 90
       50
102
RTVSPost2010PropOp50
 70
     1
102
RTVSPost2010Prop51ColorIndex
 90
      256
102
RTVSPost2010Prop51ColorRGB
 90
-16777216
102
RTVSPost2010PropOp51
 70
     0
102
RTVSPost2010Prop52
140
1.0
102
RTVSPost2010PropOp52
 70
     0
102
RTVSPost2010Prop53
 90
        2
102
RTVSPost2010PropOp53
 70
     1
102
RTVSPost2010Prop54
  1
strokes_ogs.tif
102
RTVSPost2010PropOp54
 70
     1
102
RTVSPost2010Prop55
280
     0
102
RTVSPost2010PropOp55
 70
     1
102
RTVSPost2010Prop56
140
1.0
102
RTVSPost2010PropOp56
 70
     1
102
RTVSPost2010Prop57
140
1.0
102
RTVSPost2010PropOp57
 70
     1
  0
XRECORD
  5
243
102
{ACAD_REACTORS
330
242
102
}
330
242
100
AcDbXrecord
280
     1
102
RTVSPropertyOp0
 70
     1
102
RTVSPropertyOp1
 70
     1
102
RTVSPropertyOp2
 70
     1
102
RTVSPropertyOp3
 70
     1
102
RTVSPropertyOp4
 70
     1
102
RTVSPropertyOp5
 70
     1
102
RTVSPropertyOp6
 70
     1
102
RTVSPropertyOp7
 70
     1
102
RTVSPropertyOp8
 70
     1
102
RTVSPropertyOp9
 70
     1
102
RTVSPropertyOp10
 70
     1
102
RTVSPropertyOp11
 70
     1
102
RTVSPropertyOp12
 70
     1
102
RTVSPropertyOp13
 70
     1
102
RTVSPropertyOp14
 70
     1
102
RTVSPropertyOp15
 70
     1
102
RTVSPropertyOp16
 70
     1
102
RTVSPropertyOp17
 70
     1
102
RTVSPropertyOp18
 70
     1
102
RTVSPropertyOp19
 70
     1
102
RTVSPropertyOp20
 70
     1
102
RTVSPropertyOp21
 70
     1
102
RTVSPropertyOp22
 70
     1
102
RTVSPropertyOp23
 70
     1
102
RTVSPropertyOp24
 70
     1
102
RTVSPropertyOp25
 70
     1
102
RTVSPropertyOp26
 70
     1
102
RTVSPropertyOp27
 70
     1
102
RTVSPropertyOp28
 70
     1
102
RTVSPropertyOp29
 70
     1
102
RTVSPropertyOp30
 70
     1
102
RTVSPropertyOp31
 70
     1
102
RTVSPropertyOp32
 70
     1
102
RTVSPropertyOp33
 70
     1
102
RTVSPropertyOp34
 70
     1
102
RTVSPropertyOp35
 70
     1
102
RTVSPropertyOp36
 70
     1
102
RTVSPropertyOp37
 70
     1
102
RTVSPropertyOp38
 70
     1
102
RTVSPropertyOp39
 70
     1
102
RTVSPropertyOp40
 70
     1
102
RTVSPropertyOp41
 70
     1
102
RTVSPropertyOp42
 70
     1
102
RTVSPropertyOp43
 70
     1
102
RTVSPropertyOp44
 70
     1
102
RTVSPropertyOp45
 70
     1
102
RTVSPropertyOp46
 70
     1
102
RTVSPropertyOp47
 70
     1
102
RTVSPropertyOp48
 70
     1
102
RTVSPropertyOp49
 70
     1
102
RTVSPropertyOp50
 70
     1
102
RTVSPropertyOp51
 70
     0
102
RTVSPropertyOp52
 70
     0
102
RTVSPropertyOp53
 70
     1
102
RTVSPropertyOp54
 70
     1
102
RTVSPropertyOp55
 70
     1
102
RTVSPropertyOp56
 70
     1
102
RTVSPropertyOp57
 70
     1
102
RTVSPost2010Prop28
280
     0
102
RTVSPost2010PropOp28
 70
     1
102
RTVSPost2010Prop29
280
     1
102
RTVSPost2010PropOp29
 70
     1
102
RTVSPost2010Prop30
280
     1
102
RTVSPost2010PropOp30
 70
     1
102
RTVSPost2010Prop31
280
     0
102
RTVSPost2010PropOp31
 70
     1
102
RTVSPost2010Prop32
280
     0
102
RTVSPost2010PropOp32
 70
     1
102
RTVSPost2010Prop33
280
     0
102
RTVSPost2010PropOp33
 70
     1
102
RTVSPost2010Prop34
280
     0
102
RTVSPost2010PropOp34
 70
     1
102
RTVSPost2010Prop35
280
     0
102
RTVSPost2010PropOp35
 70
     1
102
RTVSPost2010Prop36
280
     0
102
RTVSPost2010PropOp36
 70
     1
102
RTVSPost2010Prop37
 90
       50
102
RTVSPost2010PropOp37
 70
     1
102
RTVSPost2010Prop38
140
0.0
102
RTVSPost2010PropOp38
 70
     1
102
RTVSPost2010Prop39
140
1.0
102
RTVSPost2010PropOp39
 70
     1
102
RTVSPost2010Prop40
 90
        0
102
RTVSPost2010PropOp40
 70
     1
102
RTVSPost2010Prop41ColorIndex
 90
       18
102
RTVSPost2010Prop41ColorRGB
 90
        0
102
RTVSPost2010PropOp41
 70
     1
102
RTVSPost2010Prop42
 90
       50
102
RTVSPost2010PropOp42
 70
     1
102
RTVSPost2010Prop43
 90
        3
102
RTVSPost2010PropOp43
 70
     1
102
RTVSPost2010Prop44ColorIndex
 90
        5
102
RTVSPost2010Prop44ColorRGB
 90
      255
102
RTVSPost2010PropOp44
 70
     1
102
RTVSPost2010Prop45
280
     0
102
RTVSPost2010PropOp45
 70
     1
102
RTVSPost2010Prop46
 90
       50
102
RTVSPost2010PropOp46
 70
     1
102
RTVSPost2010Prop47
 90
       50
102
RTVSPost2010PropOp47
 70
     1
102
RTVSPost2010Prop48
 90
       50
102
RTVSPost2010PropOp48
 70
     1
102
RTVSPost2010Prop49
280
     0
102
RTVSPost2010PropOp49
 70
     1
102
RTVSPost2010Prop50
 90
       50
102
RTVSPost2010PropOp50
 70
     1
102
RTVSPost2010Prop51ColorIndex
 90
      256
102
RTVSPost2010Prop51ColorRGB
 90
-16777216
102
RTVSPost2010PropOp51
 70
     0
102
RTVSPost2010Prop52
140
1.0
102
RTVSPost2010PropOp52
 70
     0
102
RTVSPost2010Prop53
 90
        2
102
RTVSPost2010PropOp53
 70
     1
102
RTVSPost2010Prop54
  1
strokes_ogs.tif
102
RTVSPost2010PropOp54
 70
     1
102
RTVSPost2010Prop55
280
     0
102
RTVSPost2010PropOp55
 70
     1
102
RTVSPost2010Prop56
140
1.0
102
RTVSPost2010PropOp56
 70
     1
102
RTVSPost2010Prop57
140
1.0
102
RTVSPost2010PropOp57
 70
     1
  0
XRECORD
  5
24B
102
{ACAD_REACTORS
330
24A
102
}
330
24A
100
AcDbXrecord
280
     1
102
RTVSPropertyOp0
 70
     1
102
RTVSPropertyOp1
 70
     1
102
RTVSPropertyOp2
 70
     1
102
RTVSPropertyOp3
 70
     1
102
RTVSPropertyOp4
 70
     1
102
RTVSPropertyOp5
 70
     1
102
RTVSPropertyOp6
 70
     1
102
RTVSPropertyOp7
 70
     1
102
RTVSPropertyOp8
 70
     1
102
RTVSPropertyOp9
 70
     1
102
RTVSPropertyOp10
 70
     1
102
RTVSPropertyOp11
 70
     1
102
RTVSPropertyOp12
 70
     1
102
RTVSPropertyOp13
 70
     1
102
RTVSPropertyOp14
 70
     1
102
RTVSPropertyOp15
 70
     1
102
RTVSPropertyOp16
 70
     1
102
RTVSPropertyOp17
 70
     1
102
RTVSPropertyOp18
 70
     1
102
RTVSPropertyOp19
 70
     1
102
RTVSPropertyOp20
 70
     1
102
RTVSPropertyOp21
 70
     1
102
RTVSPropertyOp22
 70
     1
102
RTVSPropertyOp23
 70
     1
102
RTVSPropertyOp24
 70
     1
102
RTVSPropertyOp25
 70
     1
102
RTVSPropertyOp26
 70
     1
102
RTVSPropertyOp27
 70
     1
102
RTVSPropertyOp28
 70
     1
102
RTVSPropertyOp29
 70
     1
102
RTVSPropertyOp30
 70
     1
102
RTVSPropertyOp31
 70
     1
102
RTVSPropertyOp32
 70
     1
102
RTVSPropertyOp33
 70
     1
102
RTVSPropertyOp34
 70
     1
102
RTVSPropertyOp35
 70
     1
102
RTVSPropertyOp36
 70
     1
102
RTVSPropertyOp37
 70
     1
102
RTVSPropertyOp38
 70
     1
102
RTVSPropertyOp39
 70
     1
102
RTVSPropertyOp40
 70
     1
102
RTVSPropertyOp41
 70
     1
102
RTVSPropertyOp42
 70
     1
102
RTVSPropertyOp43
 70
     1
102
RTVSPropertyOp44
 70
     1
102
RTVSPropertyOp45
 70
     1
102
RTVSPropertyOp46
 70
     1
102
RTVSPropertyOp47
 70
     1
102
RTVSPropertyOp48
 70
     1
102
RTVSPropertyOp49
 70
     1
102
RTVSPropertyOp50
 70
     1
102
RTVSPropertyOp51
 70
     0
102
RTVSPropertyOp52
 70
     0
102
RTVSPropertyOp53
 70
     1
102
RTVSPropertyOp54
 70
     1
102
RTVSPropertyOp55
 70
     1
102
RTVSPropertyOp56
 70
     1
102
RTVSPropertyOp57
 70
     1
102
RTVSPost2010Prop28
280
     0
102
RTVSPost2010PropOp28
 70
     1
102
RTVSPost2010Prop29
280
     1
102
RTVSPost2010PropOp29
 70
     1
102
RTVSPost2010Prop30
280
     1
102
RTVSPost2010PropOp30
 70
     1
102
RTVSPost2010Prop31
280
     0
102
RTVSPost2010PropOp31
 70
     1
102
RTVSPost2010Prop32
280
     0
102
RTVSPost2010PropOp32
 70
     1
102
RTVSPost2010Prop33
280
     0
102
RTVSPost2010PropOp33
 70
     1
102
RTVSPost2010Prop34
280
     0
102
RTVSPost2010PropOp34
 70
     1
102
RTVSPost2010Prop35
280
     0
102
RTVSPost2010PropOp35
 70
     1
102
RTVSPost2010Prop36
280
     0
102
RTVSPost2010PropOp36
 70
     1
102
RTVSPost2010Prop37
 90
       50
102
RTVSPost2010PropOp37
 70
     1
102
RTVSPost2010Prop38
140
0.0
102
RTVSPost2010PropOp38
 70
     1
102
RTVSPost2010Prop39
140
1.0
102
RTVSPost2010PropOp39
 70
     1
102
RTVSPost2010Prop40
 90
        0
102
RTVSPost2010PropOp40
 70
     1
102
RTVSPost2010Prop41ColorIndex
 90
       18
102
RTVSPost2010Prop41ColorRGB
 90
        0
102
RTVSPost2010PropOp41
 70
     1
102
RTVSPost2010Prop42
 90
       50
102
RTVSPost2010PropOp42
 70
     1
102
RTVSPost2010Prop43
 90
        3
102
RTVSPost2010PropOp43
 70
     1
102
RTVSPost2010Prop44ColorIndex
 90
        5
102
RTVSPost2010Prop44ColorRGB
 90
      255
102
RTVSPost2010PropOp44
 70
     1
102
RTVSPost2010Prop45
280
     0
102
RTVSPost2010PropOp45
 70
     1
102
RTVSPost2010Prop46
 90
       50
102
RTVSPost2010PropOp46
 70
     1
102
RTVSPost2010Prop47
 90
       50
102
RTVSPost2010PropOp47
 70
     1
102
RTVSPost2010Prop48
 90
       50
102
RTVSPost2010PropOp48
 70
     1
102
RTVSPost2010Prop49
280
     0
102
RTVSPost2010PropOp49
 70
     1
102
RTVSPost2010Prop50
 90
       50
102
RTVSPost2010PropOp50
 70
     1
102
RTVSPost2010Prop51ColorIndex
 90
      256
102
RTVSPost2010Prop51ColorRGB
 90
-16777216
102
RTVSPost2010PropOp51
 70
     0
102
RTVSPost2010Prop52
140
1.0
102
RTVSPost2010PropOp52
 70
     0
102
RTVSPost2010Prop53
 90
        2
102
RTVSPost2010PropOp53
 70
     1
102
RTVSPost2010Prop54
  1
strokes_ogs.tif
102
RTVSPost2010PropOp54
 70
     1
102
RTVSPost2010Prop55
280
     0
102
RTVSPost2010PropOp55
 70
     1
102
RTVSPost2010Prop56
140
1.0
102
RTVSPost2010PropOp56
 70
     1
102
RTVSPost2010Prop57
140
1.0
102
RTVSPost2010PropOp57
 70
     1
  0
XRECORD
  5
23F
102
{ACAD_REACTORS
330
23E
102
}
330
23E
100
AcDbXrecord
280
     1
102
RTVSPropertyOp0
 70
     1
102
RTVSPropertyOp1
 70
     1
102
RTVSPropertyOp2
 70
     1
102
RTVSPropertyOp3
 70
     1
102
RTVSPropertyOp4
 70
     1
102
RTVSPropertyOp5
 70
     1
102
RTVSPropertyOp6
 70
     1
102
RTVSPropertyOp7
 70
     1
102
RTVSPropertyOp8
 70
     1
102
RTVSPropertyOp9
 70
     1
102
RTVSPropertyOp10
 70
     1
102
RTVSPropertyOp11
 70
     1
102
RTVSPropertyOp12
 70
     1
102
RTVSPropertyOp13
 70
     1
102
RTVSPropertyOp14
 70
     1
102
RTVSPropertyOp15
 70
     1
102
RTVSPropertyOp16
 70
     1
102
RTVSPropertyOp17
 70
     1
102
RTVSPropertyOp18
 70
     1
102
RTVSPropertyOp19
 70
     1
102
RTVSPropertyOp20
 70
     1
102
RTVSPropertyOp21
 70
     1
102
RTVSPropertyOp22
 70
     1
102
RTVSPropertyOp23
 70
     1
102
RTVSPropertyOp24
 70
     1
102
RTVSPropertyOp25
 70
     1
102
RTVSPropertyOp26
 70
     1
102
RTVSPropertyOp27
 70
     1
102
RTVSPropertyOp28
 70
     1
102
RTVSPropertyOp29
 70
     1
102
RTVSPropertyOp30
 70
     1
102
RTVSPropertyOp31
 70
     1
102
RTVSPropertyOp32
 70
     1
102
RTVSPropertyOp33
 70
     1
102
RTVSPropertyOp34
 70
     1
102
RTVSPropertyOp35
 70
     1
102
RTVSPropertyOp36
 70
     1
102
RTVSPropertyOp37
 70
     1
102
RTVSPropertyOp38
 70
     1
102
RTVSPropertyOp39
 70
     1
102
RTVSPropertyOp40
 70
     1
102
RTVSPropertyOp41
 70
     1
102
RTVSPropertyOp42
 70
     1
102
RTVSPropertyOp43
 70
     1
102
RTVSPropertyOp44
 70
     1
102
RTVSPropertyOp45
 70
     1
102
RTVSPropertyOp46
 70
     1
102
RTVSPropertyOp47
 70
     1
102
RTVSPropertyOp48
 70
     1
102
RTVSPropertyOp49
 70
     1
102
RTVSPropertyOp50
 70
     1
102
RTVSPropertyOp51
 70
     0
102
RTVSPropertyOp52
 70
     0
102
RTVSPropertyOp53
 70
     1
102
RTVSPropertyOp54
 70
     1
102
RTVSPropertyOp55
 70
     1
102
RTVSPropertyOp56
 70
     1
102
RTVSPropertyOp57
 70
     1
102
RTVSPost2010Prop28
280
     0
102
RTVSPost2010PropOp28
 70
     1
102
RTVSPost2010Prop29
280
     1
102
RTVSPost2010PropOp29
 70
     1
102
RTVSPost2010Prop30
280
     1
102
RTVSPost2010PropOp30
 70
     1
102
RTVSPost2010Prop31
280
     0
102
RTVSPost2010PropOp31
 70
     1
102
RTVSPost2010Prop32
280
     0
102
RTVSPost2010PropOp32
 70
     1
102
RTVSPost2010Prop33
280
     0
102
RTVSPost2010PropOp33
 70
     1
102
RTVSPost2010Prop34
280
     0
102
RTVSPost2010PropOp34
 70
     1
102
RTVSPost2010Prop35
280
     0
102
RTVSPost2010PropOp35
 70
     1
102
RTVSPost2010Prop36
280
     0
102
RTVSPost2010PropOp36
 70
     1
102
RTVSPost2010Prop37
 90
       50
102
RTVSPost2010PropOp37
 70
     1
102
RTVSPost2010Prop38
140
0.0
102
RTVSPost2010PropOp38
 70
     1
102
RTVSPost2010Prop39
140
1.0
102
RTVSPost2010PropOp39
 70
     1
102
RTVSPost2010Prop40
 90
        0
102
RTVSPost2010PropOp40
 70
     1
102
RTVSPost2010Prop41ColorIndex
 90
       18
102
RTVSPost2010Prop41ColorRGB
 90
        0
102
RTVSPost2010PropOp41
 70
     1
102
RTVSPost2010Prop42
 90
       50
102
RTVSPost2010PropOp42
 70
     1
102
RTVSPost2010Prop43
 90
        3
102
RTVSPost2010PropOp43
 70
     1
102
RTVSPost2010Prop44ColorIndex
 90
        5
102
RTVSPost2010Prop44ColorRGB
 90
      255
102
RTVSPost2010PropOp44
 70
     1
102
RTVSPost2010Prop45
280
     0
102
RTVSPost2010PropOp45
 70
     1
102
RTVSPost2010Prop46
 90
       50
102
RTVSPost2010PropOp46
 70
     1
102
RTVSPost2010Prop47
 90
       50
102
RTVSPost2010PropOp47
 70
     1
102
RTVSPost2010Prop48
 90
       50
102
RTVSPost2010PropOp48
 70
     1
102
RTVSPost2010Prop49
280
     0
102
RTVSPost2010PropOp49
 70
     1
102
RTVSPost2010Prop50
 90
       50
102
RTVSPost2010PropOp50
 70
     1
102
RTVSPost2010Prop51ColorIndex
 90
      256
102
RTVSPost2010Prop51ColorRGB
 90
-16777216
102
RTVSPost2010PropOp51
 70
     0
102
RTVSPost2010Prop52
140
1.0
102
RTVSPost2010PropOp52
 70
     0
102
RTVSPost2010Prop53
 90
        2
102
RTVSPost2010PropOp53
 70
     1
102
RTVSPost2010Prop54
  1
strokes_ogs.tif
102
RTVSPost2010PropOp54
 70
     1
102
RTVSPost2010Prop55
280
     0
102
RTVSPost2010PropOp55
 70
     1
102
RTVSPost2010Prop56
140
1.0
102
RTVSPost2010PropOp56
 70
     1
102
RTVSPost2010Prop57
140
1.0
102
RTVSPost2010PropOp57
 70
     1
  0
XRECORD
  5
241
102
{ACAD_REACTORS
330
240
102
}
330
240
100
AcDbXrecord
280
     1
102
RTVSPropertyOp0
 70
     1
102
RTVSPropertyOp1
 70
     1
102
RTVSPropertyOp2
 70
     1
102
RTVSPropertyOp3
 70
     1
102
RTVSPropertyOp4
 70
     1
102
RTVSPropertyOp5
 70
     1
102
RTVSPropertyOp6
 70
     1
102
RTVSPropertyOp7
 70
     1
102
RTVSPropertyOp8
 70
     1
102
RTVSPropertyOp9
 70
     1
102
RTVSPropertyOp10
 70
     1
102
RTVSPropertyOp11
 70
     1
102
RTVSPropertyOp12
 70
     1
102
RTVSPropertyOp13
 70
     1
102
RTVSPropertyOp14
 70
     1
102
RTVSPropertyOp15
 70
     1
102
RTVSPropertyOp16
 70
     1
102
RTVSPropertyOp17
 70
     1
102
RTVSPropertyOp18
 70
     1
102
RTVSPropertyOp19
 70
     1
102
RTVSPropertyOp20
 70
     1
102
RTVSPropertyOp21
 70
     1
102
RTVSPropertyOp22
 70
     1
102
RTVSPropertyOp23
 70
     1
102
RTVSPropertyOp24
 70
     1
102
RTVSPropertyOp25
 70
     1
102
RTVSPropertyOp26
 70
     1
102
RTVSPropertyOp27
 70
     1
102
RTVSPropertyOp28
 70
     1
102
RTVSPropertyOp29
 70
     1
102
RTVSPropertyOp30
 70
     1
102
RTVSPropertyOp31
 70
     1
102
RTVSPropertyOp32
 70
     1
102
RTVSPropertyOp33
 70
     1
102
RTVSPropertyOp34
 70
     1
102
RTVSPropertyOp35
 70
     1
102
RTVSPropertyOp36
 70
     1
102
RTVSPropertyOp37
 70
     1
102
RTVSPropertyOp38
 70
     1
102
RTVSPropertyOp39
 70
     1
102
RTVSPropertyOp40
 70
     1
102
RTVSPropertyOp41
 70
     1
102
RTVSPropertyOp42
 70
     1
102
RTVSPropertyOp43
 70
     1
102
RTVSPropertyOp44
 70
     1
102
RTVSPropertyOp45
 70
     1
102
RTVSPropertyOp46
 70
     1
102
RTVSPropertyOp47
 70
     1
102
RTVSPropertyOp48
 70
     1
102
RTVSPropertyOp49
 70
     1
102
RTVSPropertyOp50
 70
     1
102
RTVSPropertyOp51
 70
     0
102
RTVSPropertyOp52
 70
     0
102
RTVSPropertyOp53
 70
     1
102
RTVSPropertyOp54
 70
     1
102
RTVSPropertyOp55
 70
     1
102
RTVSPropertyOp56
 70
     1
102
RTVSPropertyOp57
 70
     1
102
RTVSPost2010Prop28
280
     0
102
RTVSPost2010PropOp28
 70
     1
102
RTVSPost2010Prop29
280
     1
102
RTVSPost2010PropOp29
 70
     1
102
RTVSPost2010Prop30
280
     1
102
RTVSPost2010PropOp30
 70
     1
102
RTVSPost2010Prop31
280
     0
102
RTVSPost2010PropOp31
 70
     1
102
RTVSPost2010Prop32
280
     0
102
RTVSPost2010PropOp32
 70
     1
102
RTVSPost2010Prop33
280
     0
102
RTVSPost2010PropOp33
 70
     1
102
RTVSPost2010Prop34
280
     0
102
RTVSPost2010PropOp34
 70
     1
102
RTVSPost2010Prop35
280
     0
102
RTVSPost2010PropOp35
 70
     1
102
RTVSPost2010Prop36
280
     0
102
RTVSPost2010PropOp36
 70
     1
102
RTVSPost2010Prop37
 90
       50
102
RTVSPost2010PropOp37
 70
     1
102
RTVSPost2010Prop38
140
0.0
102
RTVSPost2010PropOp38
 70
     1
102
RTVSPost2010Prop39
140
1.0
102
RTVSPost2010PropOp39
 70
     1
102
RTVSPost2010Prop40
 90
        0
102
RTVSPost2010PropOp40
 70
     1
102
RTVSPost2010Prop41ColorIndex
 90
       18
102
RTVSPost2010Prop41ColorRGB
 90
        0
102
RTVSPost2010PropOp41
 70
     1
102
RTVSPost2010Prop42
 90
       50
102
RTVSPost2010PropOp42
 70
     1
102
RTVSPost2010Prop43
 90
        3
102
RTVSPost2010PropOp43
 70
     1
102
RTVSPost2010Prop44ColorIndex
 90
        5
102
RTVSPost2010Prop44ColorRGB
 90
      255
102
RTVSPost2010PropOp44
 70
     1
102
RTVSPost2010Prop45
280
     0
102
RTVSPost2010PropOp45
 70
     1
102
RTVSPost2010Prop46
 90
       50
102
RTVSPost2010PropOp46
 70
     1
102
RTVSPost2010Prop47
 90
       50
102
RTVSPost2010PropOp47
 70
     1
102
RTVSPost2010Prop48
 90
       50
102
RTVSPost2010PropOp48
 70
     1
102
RTVSPost2010Prop49
280
     0
102
RTVSPost2010PropOp49
 70
     1
102
RTVSPost2010Prop50
 90
       50
102
RTVSPost2010PropOp50
 70
     1
102
RTVSPost2010Prop51ColorIndex
 90
      256
102
RTVSPost2010Prop51ColorRGB
 90
-16777216
102
RTVSPost2010PropOp51
 70
     0
102
RTVSPost2010Prop52
140
1.0
102
RTVSPost2010PropOp52
 70
     0
102
RTVSPost2010Prop53
 90
        2
102
RTVSPost2010PropOp53
 70
     1
102
RTVSPost2010Prop54
  1
strokes_ogs.tif
102
RTVSPost2010PropOp54
 70
     1
102
RTVSPost2010Prop55
280
     0
102
RTVSPost2010PropOp55
 70
     1
102
RTVSPost2010Prop56
140
1.0
102
RTVSPost2010PropOp56
 70
     1
102
RTVSPost2010Prop57
140
1.0
102
RTVSPost2010PropOp57
 70
     1
  0
XRECORD
  5
251
102
{ACAD_REACTORS
330
250
102
}
330
250
100
AcDbXrecord
280
     1
102
RTVSPropertyOp0
 70
     0
102
RTVSPropertyOp1
 70
     0
102
RTVSPropertyOp2
 70
     0
102
RTVSPropertyOp3
 70
     0
102
RTVSPropertyOp4
 70
     0
102
RTVSPropertyOp5
 70
     0
102
RTVSPropertyOp6
 70
     0
102
RTVSPropertyOp7
 70
     0
102
RTVSPropertyOp8
 70
     0
102
RTVSPropertyOp9
 70
     0
102
RTVSPropertyOp10
 70
     0
102
RTVSPropertyOp11
 70
     0
102
RTVSPropertyOp12
 70
     0
102
RTVSPropertyOp13
 70
     0
102
RTVSPropertyOp14
 70
     2
102
RTVSPropertyOp15
 70
     0
102
RTVSPropertyOp16
 70
     0
102
RTVSPropertyOp17
 70
     0
102
RTVSPropertyOp18
 70
     0
102
RTVSPropertyOp19
 70
     0
102
RTVSPropertyOp20
 70
     0
102
RTVSPropertyOp21
 70
     0
102
RTVSPropertyOp22
 70
     0
102
RTVSPropertyOp23
 70
     0
102
RTVSPropertyOp24
 70
     0
102
RTVSPropertyOp25
 70
     0
102
RTVSPropertyOp26
 70
     0
102
RTVSPropertyOp27
 70
     0
102
RTVSPropertyOp28
 70
     0
102
RTVSPropertyOp29
 70
     0
102
RTVSPropertyOp30
 70
     0
102
RTVSPropertyOp31
 70
     0
102
RTVSPropertyOp32
 70
     0
102
RTVSPropertyOp33
 70
     0
102
RTVSPropertyOp34
 70
     0
102
RTVSPropertyOp35
 70
     0
102
RTVSPropertyOp36
 70
     0
102
RTVSPropertyOp37
 70
     0
102
RTVSPropertyOp38
 70
     0
102
RTVSPropertyOp39
 70
     0
102
RTVSPropertyOp40
 70
     0
102
RTVSPropertyOp41
 70
     0
102
RTVSPropertyOp42
 70
     0
102
RTVSPropertyOp43
 70
     0
102
RTVSPropertyOp44
 70
     0
102
RTVSPropertyOp45
 70
     0
102
RTVSPropertyOp46
 70
     0
102
RTVSPropertyOp47
 70
     0
102
RTVSPropertyOp48
 70
     0
102
RTVSPropertyOp49
 70
     0
102
RTVSPropertyOp50
 70
     0
102
RTVSPropertyOp51
 70
     0
102
RTVSPropertyOp52
 70
     0
102
RTVSPropertyOp53
 70
     0
102
RTVSPropertyOp54
 70
     0
102
RTVSPropertyOp55
 70
     0
102
RTVSPropertyOp56
 70
     0
102
RTVSPropertyOp57
 70
     0
102
RTVSPost2010Prop28
280
     0
102
RTVSPost2010PropOp28
 70
     0
102
RTVSPost2010Prop29
280
     1
102
RTVSPost2010PropOp29
 70
     0
102
RTVSPost2010Prop30
280
     1
102
RTVSPost2010PropOp30
 70
     0
102
RTVSPost2010Prop31
280
     0
102
RTVSPost2010PropOp31
 70
     0
102
RTVSPost2010Prop32
280
     0
102
RTVSPost2010PropOp32
 70
     0
102
RTVSPost2010Prop33
280
     0
102
RTVSPost2010PropOp33
 70
     0
102
RTVSPost2010Prop34
280
     0
102
RTVSPost2010PropOp34
 70
     0
102
RTVSPost2010Prop35
280
     0
102
RTVSPost2010PropOp35
 70
     0
102
RTVSPost2010Prop36
280
     0
102
RTVSPost2010PropOp36
 70
     0
102
RTVSPost2010Prop37
 90
       50
102
RTVSPost2010PropOp37
 70
     0
102
RTVSPost2010Prop38
140
0.0
102
RTVSPost2010PropOp38
 70
     0
102
RTVSPost2010Prop39
140
1.0
102
RTVSPost2010PropOp39
 70
     0
102
RTVSPost2010Prop40
 90
        0
102
RTVSPost2010PropOp40
 70
     0
102
RTVSPost2010Prop41ColorIndex
 90
       18
102
RTVSPost2010Prop41ColorRGB
 90
        0
102
RTVSPost2010PropOp41
 70
     0
102
RTVSPost2010Prop42
 90
       50
102
RTVSPost2010PropOp42
 70
     0
102
RTVSPost2010Prop43
 90
        3
102
RTVSPost2010PropOp43
 70
     0
102
RTVSPost2010Prop44ColorIndex
 90
        5
102
RTVSPost2010Prop44ColorRGB
 90
      255
102
RTVSPost2010PropOp44
 70
     0
102
RTVSPost2010Prop45
280
     0
102
RTVSPost2010PropOp45
 70
     0
102
RTVSPost2010Prop46
 90
       50
102
RTVSPost2010PropOp46
 70
     0
102
RTVSPost2010Prop47
 90
       50
102
RTVSPost2010PropOp47
 70
     0
102
RTVSPost2010Prop48
 90
       50
102
RTVSPost2010PropOp48
 70
     0
102
RTVSPost2010Prop49
280
     0
102
RTVSPost2010PropOp49
 70
     0
102
RTVSPost2010Prop50
 90
       50
102
RTVSPost2010PropOp50
 70
     0
102
RTVSPost2010Prop51ColorIndex
 90
      256
102
RTVSPost2010Prop51ColorRGB
 90
-16777216
102
RTVSPost2010PropOp51
 70
     0
102
RTVSPost2010Prop52
140
1.0
102
RTVSPost2010PropOp52
 70
     0
102
RTVSPost2010Prop53
 90
        2
102
RTVSPost2010PropOp53
 70
     0
102
RTVSPost2010Prop54
  1
strokes_ogs.tif
102
RTVSPost2010PropOp54
 70
     0
102
RTVSPost2010Prop55
280
     0
102
RTVSPost2010PropOp55
 70
     0
102
RTVSPost2010Prop56
140
1.0
102
RTVSPost2010PropOp56
 70
     0
102
RTVSPost2010Prop57
140
1.0
102
RTVSPost2010PropOp57
 70
     0
  0
XRECORD
  5
249
102
{ACAD_REACTORS
330
248
102
}
330
248
100
AcDbXrecord
280
     1
102
RTVSPropertyOp0
 70
     1
102
RTVSPropertyOp1
 70
     1
102
RTVSPropertyOp2
 70
     1
102
RTVSPropertyOp3
 70
     1
102
RTVSPropertyOp4
 70
     1
102
RTVSPropertyOp5
 70
     1
102
RTVSPropertyOp6
 70
     1
102
RTVSPropertyOp7
 70
     1
102
RTVSPropertyOp8
 70
     1
102
RTVSPropertyOp9
 70
     1
102
RTVSPropertyOp10
 70
     1
102
RTVSPropertyOp11
 70
     1
102
RTVSPropertyOp12
 70
     1
102
RTVSPropertyOp13
 70
     1
102
RTVSPropertyOp14
 70
     1
102
RTVSPropertyOp15
 70
     1
102
RTVSPropertyOp16
 70
     1
102
RTVSPropertyOp17
 70
     1
102
RTVSPropertyOp18
 70
     1
102
RTVSPropertyOp19
 70
     1
102
RTVSPropertyOp20
 70
     1
102
RTVSPropertyOp21
 70
     1
102
RTVSPropertyOp22
 70
     1
102
RTVSPropertyOp23
 70
     1
102
RTVSPropertyOp24
 70
     1
102
RTVSPropertyOp25
 70
     1
102
RTVSPropertyOp26
 70
     1
102
RTVSPropertyOp27
 70
     1
102
RTVSPropertyOp28
 70
     1
102
RTVSPropertyOp29
 70
     1
102
RTVSPropertyOp30
 70
     1
102
RTVSPropertyOp31
 70
     1
102
RTVSPropertyOp32
 70
     1
102
RTVSPropertyOp33
 70
     1
102
RTVSPropertyOp34
 70
     1
102
RTVSPropertyOp35
 70
     1
102
RTVSPropertyOp36
 70
     1
102
RTVSPropertyOp37
 70
     1
102
RTVSPropertyOp38
 70
     1
102
RTVSPropertyOp39
 70
     1
102
RTVSPropertyOp40
 70
     1
102
RTVSPropertyOp41
 70
     1
102
RTVSPropertyOp42
 70
     1
102
RTVSPropertyOp43
 70
     1
102
RTVSPropertyOp44
 70
     1
102
RTVSPropertyOp45
 70
     1
102
RTVSPropertyOp46
 70
     1
102
RTVSPropertyOp47
 70
     1
102
RTVSPropertyOp48
 70
     1
102
RTVSPropertyOp49
 70
     1
102
RTVSPropertyOp50
 70
     1
102
RTVSPropertyOp51
 70
     0
102
RTVSPropertyOp52
 70
     0
102
RTVSPropertyOp53
 70
     1
102
RTVSPropertyOp54
 70
     1
102
RTVSPropertyOp55
 70
     1
102
RTVSPropertyOp56
 70
     1
102
RTVSPropertyOp57
 70
     1
102
RTVSPost2010Prop28
280
     0
102
RTVSPost2010PropOp28
 70
     1
102
RTVSPost2010Prop29
280
     1
102
RTVSPost2010PropOp29
 70
     1
102
RTVSPost2010Prop30
280
     1
102
RTVSPost2010PropOp30
 70
     1
102
RTVSPost2010Prop31
280
     0
102
RTVSPost2010PropOp31
 70
     1
102
RTVSPost2010Prop32
280
     0
102
RTVSPost2010PropOp32
 70
     1
102
RTVSPost2010Prop33
280
     0
102
RTVSPost2010PropOp33
 70
     1
102
RTVSPost2010Prop34
280
     0
102
RTVSPost2010PropOp34
 70
     1
102
RTVSPost2010Prop35
280
     0
102
RTVSPost2010PropOp35
 70
     1
102
RTVSPost2010Prop36
280
     0
102
RTVSPost2010PropOp36
 70
     1
102
RTVSPost2010Prop37
 90
       50
102
RTVSPost2010PropOp37
 70
     1
102
RTVSPost2010Prop38
140
0.0
102
RTVSPost2010PropOp38
 70
     1
102
RTVSPost2010Prop39
140
1.0
102
RTVSPost2010PropOp39
 70
     1
102
RTVSPost2010Prop40
 90
        0
102
RTVSPost2010PropOp40
 70
     1
102
RTVSPost2010Prop41ColorIndex
 90
       18
102
RTVSPost2010Prop41ColorRGB
 90
        0
102
RTVSPost2010PropOp41
 70
     1
102
RTVSPost2010Prop42
 90
       50
102
RTVSPost2010PropOp42
 70
     1
102
RTVSPost2010Prop43
 90
        3
102
RTVSPost2010PropOp43
 70
     1
102
RTVSPost2010Prop44ColorIndex
 90
        5
102
RTVSPost2010Prop44ColorRGB
 90
      255
102
RTVSPost2010PropOp44
 70
     1
102
RTVSPost2010Prop45
280
     0
102
RTVSPost2010PropOp45
 70
     1
102
RTVSPost2010Prop46
 90
       50
102
RTVSPost2010PropOp46
 70
     1
102
RTVSPost2010Prop47
 90
       50
102
RTVSPost2010PropOp47
 70
     1
102
RTVSPost2010Prop48
 90
       50
102
RTVSPost2010PropOp48
 70
     1
102
RTVSPost2010Prop49
280
     0
102
RTVSPost2010PropOp49
 70
     1
102
RTVSPost2010Prop50
 90
       50
102
RTVSPost2010PropOp50
 70
     1
102
RTVSPost2010Prop51ColorIndex
 90
      256
102
RTVSPost2010Prop51ColorRGB
 90
-16777216
102
RTVSPost2010PropOp51
 70
     0
102
RTVSPost2010Prop52
140
1.0
102
RTVSPost2010PropOp52
 70
     0
102
RTVSPost2010Prop53
 90
        2
102
RTVSPost2010PropOp53
 70
     1
102
RTVSPost2010Prop54
  1
strokes_ogs.tif
102
RTVSPost2010PropOp54
 70
     1
102
RTVSPost2010Prop55
280
     0
102
RTVSPost2010PropOp55
 70
     1
102
RTVSPost2010Prop56
140
1.0
102
RTVSPost2010PropOp56
 70
     1
102
RTVSPost2010Prop57
140
1.0
102
RTVSPost2010PropOp57
 70
     1
  0
XRECORD
  5
22D
102
{ACAD_REACTORS
330
22C
102
}
330
22C
100
AcDbXrecord
280
     1
102
RTVSPropertyOp0
 70
     1
102
RTVSPropertyOp1
 70
     1
102
RTVSPropertyOp2
 70
     1
102
RTVSPropertyOp3
 70
     1
102
RTVSPropertyOp4
 70
     1
102
RTVSPropertyOp5
 70
     1
102
RTVSPropertyOp6
 70
     1
102
RTVSPropertyOp7
 70
     1
102
RTVSPropertyOp8
 70
     1
102
RTVSPropertyOp9
 70
     1
102
RTVSPropertyOp10
 70
     1
102
RTVSPropertyOp11
 70
     1
102
RTVSPropertyOp12
 70
     1
102
RTVSPropertyOp13
 70
     1
102
RTVSPropertyOp14
 70
     1
102
RTVSPropertyOp15
 70
     1
102
RTVSPropertyOp16
 70
     1
102
RTVSPropertyOp17
 70
     1
102
RTVSPropertyOp18
 70
     1
102
RTVSPropertyOp19
 70
     1
102
RTVSPropertyOp20
 70
     1
102
RTVSPropertyOp21
 70
     1
102
RTVSPropertyOp22
 70
     1
102
RTVSPropertyOp23
 70
     1
102
RTVSPropertyOp24
 70
     1
102
RTVSPropertyOp25
 70
     1
102
RTVSPropertyOp26
 70
     1
102
RTVSPropertyOp27
 70
     1
102
RTVSPropertyOp28
 70
     1
102
RTVSPropertyOp29
 70
     1
102
RTVSPropertyOp30
 70
     1
102
RTVSPropertyOp31
 70
     1
102
RTVSPropertyOp32
 70
     1
102
RTVSPropertyOp33
 70
     1
102
RTVSPropertyOp34
 70
     1
102
RTVSPropertyOp35
 70
     1
102
RTVSPropertyOp36
 70
     1
102
RTVSPropertyOp37
 70
     1
102
RTVSPropertyOp38
 70
     1
102
RTVSPropertyOp39
 70
     1
102
RTVSPropertyOp40
 70
     1
102
RTVSPropertyOp41
 70
     1
102
RTVSPropertyOp42
 70
     1
102
RTVSPropertyOp43
 70
     1
102
RTVSPropertyOp44
 70
     1
102
RTVSPropertyOp45
 70
     1
102
RTVSPropertyOp46
 70
     1
102
RTVSPropertyOp47
 70
     1
102
RTVSPropertyOp48
 70
     1
102
RTVSPropertyOp49
 70
     1
102
RTVSPropertyOp50
 70
     1
102
RTVSPropertyOp51
 70
     0
102
RTVSPropertyOp52
 70
     0
102
RTVSPropertyOp53
 70
     1
102
RTVSPropertyOp54
 70
     1
102
RTVSPropertyOp55
 70
     1
102
RTVSPropertyOp56
 70
     1
102
RTVSPropertyOp57
 70
     1
102
RTVSPost2010Prop28
280
     0
102
RTVSPost2010PropOp28
 70
     1
102
RTVSPost2010Prop29
280
     1
102
RTVSPost2010PropOp29
 70
     1
102
RTVSPost2010Prop30
280
     1
102
RTVSPost2010PropOp30
 70
     1
102
RTVSPost2010Prop31
280
     0
102
RTVSPost2010PropOp31
 70
     1
102
RTVSPost2010Prop32
280
     0
102
RTVSPost2010PropOp32
 70
     1
102
RTVSPost2010Prop33
280
     0
102
RTVSPost2010PropOp33
 70
     1
102
RTVSPost2010Prop34
280
     0
102
RTVSPost2010PropOp34
 70
     1
102
RTVSPost2010Prop35
280
     0
102
RTVSPost2010PropOp35
 70
     1
102
RTVSPost2010Prop36
280
     0
102
RTVSPost2010PropOp36
 70
     1
102
RTVSPost2010Prop37
 90
       50
102
RTVSPost2010PropOp37
 70
     1
102
RTVSPost2010Prop38
140
0.0
102
RTVSPost2010PropOp38
 70
     1
102
RTVSPost2010Prop39
140
1.0
102
RTVSPost2010PropOp39
 70
     1
102
RTVSPost2010Prop40
 90
        0
102
RTVSPost2010PropOp40
 70
     1
102
RTVSPost2010Prop41ColorIndex
 90
       18
102
RTVSPost2010Prop41ColorRGB
 90
        0
102
RTVSPost2010PropOp41
 70
     1
102
RTVSPost2010Prop42
 90
       50
102
RTVSPost2010PropOp42
 70
     1
102
RTVSPost2010Prop43
 90
        3
102
RTVSPost2010PropOp43
 70
     1
102
RTVSPost2010Prop44ColorIndex
 90
        5
102
RTVSPost2010Prop44ColorRGB
 90
      255
102
RTVSPost2010PropOp44
 70
     1
102
RTVSPost2010Prop45
280
     0
102
RTVSPost2010PropOp45
 70
     1
102
RTVSPost2010Prop46
 90
       50
102
RTVSPost2010PropOp46
 70
     1
102
RTVSPost2010Prop47
 90
       50
102
RTVSPost2010PropOp47
 70
     1
102
RTVSPost2010Prop48
 90
       50
102
RTVSPost2010PropOp48
 70
     1
102
RTVSPost2010Prop49
280
     0
102
RTVSPost2010PropOp49
 70
     1
102
RTVSPost2010Prop50
 90
       50
102
RTVSPost2010PropOp50
 70
     1
102
RTVSPost2010Prop51ColorIndex
 90
      256
102
RTVSPost2010Prop51ColorRGB
 90
-16777216
102
RTVSPost2010PropOp51
 70
     0
102
RTVSPost2010Prop52
140
1.0
102
RTVSPost2010PropOp52
 70
     0
102
RTVSPost2010Prop53
 90
        2
102
RTVSPost2010PropOp53
 70
     1
102
RTVSPost2010Prop54
  1
strokes_ogs.tif
102
RTVSPost2010PropOp54
 70
     1
102
RTVSPost2010Prop55
280
     0
102
RTVSPost2010PropOp55
 70
     1
102
RTVSPost2010Prop56
140
1.0
102
RTVSPost2010PropOp56
 70
     1
102
RTVSPost2010Prop57
140
1.0
102
RTVSPost2010PropOp57
 70
     1
  0
XRECORD
  5
22F
102
{ACAD_REACTORS
330
22E
102
}
330
22E
100
AcDbXrecord
280
     1
102
RTVSPropertyOp0
 70
     1
102
RTVSPropertyOp1
 70
     1
102
RTVSPropertyOp2
 70
     1
102
RTVSPropertyOp3
 70
     1
102
RTVSPropertyOp4
 70
     1
102
RTVSPropertyOp5
 70
     1
102
RTVSPropertyOp6
 70
     1
102
RTVSPropertyOp7
 70
     1
102
RTVSPropertyOp8
 70
     1
102
RTVSPropertyOp9
 70
     1
102
RTVSPropertyOp10
 70
     1
102
RTVSPropertyOp11
 70
     1
102
RTVSPropertyOp12
 70
     1
102
RTVSPropertyOp13
 70
     1
102
RTVSPropertyOp14
 70
     1
102
RTVSPropertyOp15
 70
     1
102
RTVSPropertyOp16
 70
     1
102
RTVSPropertyOp17
 70
     1
102
RTVSPropertyOp18
 70
     1
102
RTVSPropertyOp19
 70
     1
102
RTVSPropertyOp20
 70
     1
102
RTVSPropertyOp21
 70
     1
102
RTVSPropertyOp22
 70
     1
102
RTVSPropertyOp23
 70
     1
102
RTVSPropertyOp24
 70
     1
102
RTVSPropertyOp25
 70
     1
102
RTVSPropertyOp26
 70
     1
102
RTVSPropertyOp27
 70
     1
102
RTVSPropertyOp28
 70
     1
102
RTVSPropertyOp29
 70
     1
102
RTVSPropertyOp30
 70
     1
102
RTVSPropertyOp31
 70
     1
102
RTVSPropertyOp32
 70
     1
102
RTVSPropertyOp33
 70
     1
102
RTVSPropertyOp34
 70
     1
102
RTVSPropertyOp35
 70
     1
102
RTVSPropertyOp36
 70
     1
102
RTVSPropertyOp37
 70
     1
102
RTVSPropertyOp38
 70
     1
102
RTVSPropertyOp39
 70
     1
102
RTVSPropertyOp40
 70
     1
102
RTVSPropertyOp41
 70
     1
102
RTVSPropertyOp42
 70
     1
102
RTVSPropertyOp43
 70
     1
102
RTVSPropertyOp44
 70
     1
102
RTVSPropertyOp45
 70
     1
102
RTVSPropertyOp46
 70
     1
102
RTVSPropertyOp47
 70
     1
102
RTVSPropertyOp48
 70
     1
102
RTVSPropertyOp49
 70
     1
102
RTVSPropertyOp50
 70
     1
102
RTVSPropertyOp51
 70
     0
102
RTVSPropertyOp52
 70
     0
102
RTVSPropertyOp53
 70
     1
102
RTVSPropertyOp54
 70
     1
102
RTVSPropertyOp55
 70
     1
102
RTVSPropertyOp56
 70
     1
102
RTVSPropertyOp57
 70
     1
102
RTVSPost2010Prop28
280
     0
102
RTVSPost2010PropOp28
 70
     1
102
RTVSPost2010Prop29
280
     1
102
RTVSPost2010PropOp29
 70
     1
102
RTVSPost2010Prop30
280
     1
102
RTVSPost2010PropOp30
 70
     1
102
RTVSPost2010Prop31
280
     0
102
RTVSPost2010PropOp31
 70
     1
102
RTVSPost2010Prop32
280
     0
102
RTVSPost2010PropOp32
 70
     1
102
RTVSPost2010Prop33
280
     0
102
RTVSPost2010PropOp33
 70
     1
102
RTVSPost2010Prop34
280
     0
102
RTVSPost2010PropOp34
 70
     1
102
RTVSPost2010Prop35
280
     0
102
RTVSPost2010PropOp35
 70
     1
102
RTVSPost2010Prop36
280
     0
102
RTVSPost2010PropOp36
 70
     1
102
RTVSPost2010Prop37
 90
       50
102
RTVSPost2010PropOp37
 70
     1
102
RTVSPost2010Prop38
140
0.0
102
RTVSPost2010PropOp38
 70
     1
102
RTVSPost2010Prop39
140
1.0
102
RTVSPost2010PropOp39
 70
     1
102
RTVSPost2010Prop40
 90
        0
102
RTVSPost2010PropOp40
 70
     1
102
RTVSPost2010Prop41ColorIndex
 90
       18
102
RTVSPost2010Prop41ColorRGB
 90
        0
102
RTVSPost2010PropOp41
 70
     1
102
RTVSPost2010Prop42
 90
       50
102
RTVSPost2010PropOp42
 70
     1
102
RTVSPost2010Prop43
 90
        3
102
RTVSPost2010PropOp43
 70
     1
102
RTVSPost2010Prop44ColorIndex
 90
        5
102
RTVSPost2010Prop44ColorRGB
 90
      255
102
RTVSPost2010PropOp44
 70
     1
102
RTVSPost2010Prop45
280
     0
102
RTVSPost2010PropOp45
 70
     1
102
RTVSPost2010Prop46
 90
       50
102
RTVSPost2010PropOp46
 70
     1
102
RTVSPost2010Prop47
 90
       50
102
RTVSPost2010PropOp47
 70
     1
102
RTVSPost2010Prop48
 90
       50
102
RTVSPost2010PropOp48
 70
     1
102
RTVSPost2010Prop49
280
     0
102
RTVSPost2010PropOp49
 70
     1
102
RTVSPost2010Prop50
 90
       50
102
RTVSPost2010PropOp50
 70
     1
102
RTVSPost2010Prop51ColorIndex
 90
      256
102
RTVSPost2010Prop51ColorRGB
 90
-16777216
102
RTVSPost2010PropOp51
 70
     0
102
RTVSPost2010Prop52
140
1.0
102
RTVSPost2010PropOp52
 70
     0
102
RTVSPost2010Prop53
 90
        2
102
RTVSPost2010PropOp53
 70
     1
102
RTVSPost2010Prop54
  1
strokes_ogs.tif
102
RTVSPost2010PropOp54
 70
     1
102
RTVSPost2010Prop55
280
     0
102
RTVSPost2010PropOp55
 70
     1
102
RTVSPost2010Prop56
140
1.0
102
RTVSPost2010PropOp56
 70
     1
102
RTVSPost2010Prop57
140
1.0
102
RTVSPost2010PropOp57
 70
     1
  0
XRECORD
  5
231
102
{ACAD_REACTORS
330
230
102
}
330
230
100
AcDbXrecord
280
     1
102
RTVSPropertyOp0
 70
     1
102
RTVSPropertyOp1
 70
     1
102
RTVSPropertyOp2
 70
     1
102
RTVSPropertyOp3
 70
     1
102
RTVSPropertyOp4
 70
     1
102
RTVSPropertyOp5
 70
     1
102
RTVSPropertyOp6
 70
     1
102
RTVSPropertyOp7
 70
     1
102
RTVSPropertyOp8
 70
     1
102
RTVSPropertyOp9
 70
     1
102
RTVSPropertyOp10
 70
     1
102
RTVSPropertyOp11
 70
     1
102
RTVSPropertyOp12
 70
     1
102
RTVSPropertyOp13
 70
     1
102
RTVSPropertyOp14
 70
     1
102
RTVSPropertyOp15
 70
     1
102
RTVSPropertyOp16
 70
     1
102
RTVSPropertyOp17
 70
     1
102
RTVSPropertyOp18
 70
     1
102
RTVSPropertyOp19
 70
     1
102
RTVSPropertyOp20
 70
     1
102
RTVSPropertyOp21
 70
     1
102
RTVSPropertyOp22
 70
     1
102
RTVSPropertyOp23
 70
     1
102
RTVSPropertyOp24
 70
     1
102
RTVSPropertyOp25
 70
     1
102
RTVSPropertyOp26
 70
     1
102
RTVSPropertyOp27
 70
     1
102
RTVSPropertyOp28
 70
     1
102
RTVSPropertyOp29
 70
     1
102
RTVSPropertyOp30
 70
     1
102
RTVSPropertyOp31
 70
     1
102
RTVSPropertyOp32
 70
     1
102
RTVSPropertyOp33
 70
     1
102
RTVSPropertyOp34
 70
     1
102
RTVSPropertyOp35
 70
     1
102
RTVSPropertyOp36
 70
     1
102
RTVSPropertyOp37
 70
     1
102
RTVSPropertyOp38
 70
     1
102
RTVSPropertyOp39
 70
     1
102
RTVSPropertyOp40
 70
     1
102
RTVSPropertyOp41
 70
     1
102
RTVSPropertyOp42
 70
     1
102
RTVSPropertyOp43
 70
     1
102
RTVSPropertyOp44
 70
     1
102
RTVSPropertyOp45
 70
     1
102
RTVSPropertyOp46
 70
     1
102
RTVSPropertyOp47
 70
     1
102
RTVSPropertyOp48
 70
     1
102
RTVSPropertyOp49
 70
     1
102
RTVSPropertyOp50
 70
     1
102
RTVSPropertyOp51
 70
     0
102
RTVSPropertyOp52
 70
     0
102
RTVSPropertyOp53
 70
     1
102
RTVSPropertyOp54
 70
     1
102
RTVSPropertyOp55
 70
     1
102
RTVSPropertyOp56
 70
     1
102
RTVSPropertyOp57
 70
     1
102
RTVSPost2010Prop28
280
     0
102
RTVSPost2010PropOp28
 70
     1
102
RTVSPost2010Prop29
280
     1
102
RTVSPost2010PropOp29
 70
     1
102
RTVSPost2010Prop30
280
     1
102
RTVSPost2010PropOp30
 70
     1
102
RTVSPost2010Prop31
280
     0
102
RTVSPost2010PropOp31
 70
     1
102
RTVSPost2010Prop32
280
     0
102
RTVSPost2010PropOp32
 70
     1
102
RTVSPost2010Prop33
280
     0
102
RTVSPost2010PropOp33
 70
     1
102
RTVSPost2010Prop34
280
     0
102
RTVSPost2010PropOp34
 70
     1
102
RTVSPost2010Prop35
280
     0
102
RTVSPost2010PropOp35
 70
     1
102
RTVSPost2010Prop36
280
     0
102
RTVSPost2010PropOp36
 70
     1
102
RTVSPost2010Prop37
 90
       50
102
RTVSPost2010PropOp37
 70
     1
102
RTVSPost2010Prop38
140
0.0
102
RTVSPost2010PropOp38
 70
     1
102
RTVSPost2010Prop39
140
1.0
102
RTVSPost2010PropOp39
 70
     1
102
RTVSPost2010Prop40
 90
        0
102
RTVSPost2010PropOp40
 70
     1
102
RTVSPost2010Prop41ColorIndex
 90
       18
102
RTVSPost2010Prop41ColorRGB
 90
        0
102
RTVSPost2010PropOp41
 70
     1
102
RTVSPost2010Prop42
 90
       50
102
RTVSPost2010PropOp42
 70
     1
102
RTVSPost2010Prop43
 90
        3
102
RTVSPost2010PropOp43
 70
     1
102
RTVSPost2010Prop44ColorIndex
 90
        5
102
RTVSPost2010Prop44ColorRGB
 90
      255
102
RTVSPost2010PropOp44
 70
     1
102
RTVSPost2010Prop45
280
     0
102
RTVSPost2010PropOp45
 70
     1
102
RTVSPost2010Prop46
 90
       50
102
RTVSPost2010PropOp46
 70
     1
102
RTVSPost2010Prop47
 90
       50
102
RTVSPost2010PropOp47
 70
     1
102
RTVSPost2010Prop48
 90
       50
102
RTVSPost2010PropOp48
 70
     1
102
RTVSPost2010Prop49
280
     0
102
RTVSPost2010PropOp49
 70
     1
102
RTVSPost2010Prop50
 90
       50
102
RTVSPost2010PropOp50
 70
     1
102
RTVSPost2010Prop51ColorIndex
 90
      256
102
RTVSPost2010Prop51ColorRGB
 90
-16777216
102
RTVSPost2010PropOp51
 70
     0
102
RTVSPost2010Prop52
140
1.0
102
RTVSPost2010PropOp52
 70
     0
102
RTVSPost2010Prop53
 90
        2
102
RTVSPost2010PropOp53
 70
     1
102
RTVSPost2010Prop54
  1
strokes_ogs.tif
102
RTVSPost2010PropOp54
 70
     1
102
RTVSPost2010Prop55
280
     0
102
RTVSPost2010PropOp55
 70
     1
102
RTVSPost2010Prop56
140
1.0
102
RTVSPost2010PropOp56
 70
     1
102
RTVSPost2010Prop57
140
1.0
102
RTVSPost2010PropOp57
 70
     1
  0
XRECORD
  5
233
102
{ACAD_REACTORS
330
232
102
}
330
232
100
AcDbXrecord
280
     1
102
RTVSPropertyOp0
 70
     1
102
RTVSPropertyOp1
 70
     1
102
RTVSPropertyOp2
 70
     1
102
RTVSPropertyOp3
 70
     1
102
RTVSPropertyOp4
 70
     1
102
RTVSPropertyOp5
 70
     1
102
RTVSPropertyOp6
 70
     1
102
RTVSPropertyOp7
 70
     1
102
RTVSPropertyOp8
 70
     1
102
RTVSPropertyOp9
 70
     1
102
RTVSPropertyOp10
 70
     1
102
RTVSPropertyOp11
 70
     1
102
RTVSPropertyOp12
 70
     1
102
RTVSPropertyOp13
 70
     1
102
RTVSPropertyOp14
 70
     1
102
RTVSPropertyOp15
 70
     1
102
RTVSPropertyOp16
 70
     1
102
RTVSPropertyOp17
 70
     1
102
RTVSPropertyOp18
 70
     1
102
RTVSPropertyOp19
 70
     1
102
RTVSPropertyOp20
 70
     1
102
RTVSPropertyOp21
 70
     1
102
RTVSPropertyOp22
 70
     1
102
RTVSPropertyOp23
 70
     1
102
RTVSPropertyOp24
 70
     1
102
RTVSPropertyOp25
 70
     1
102
RTVSPropertyOp26
 70
     1
102
RTVSPropertyOp27
 70
     1
102
RTVSPropertyOp28
 70
     1
102
RTVSPropertyOp29
 70
     1
102
RTVSPropertyOp30
 70
     1
102
RTVSPropertyOp31
 70
     1
102
RTVSPropertyOp32
 70
     1
102
RTVSPropertyOp33
 70
     1
102
RTVSPropertyOp34
 70
     1
102
RTVSPropertyOp35
 70
     1
102
RTVSPropertyOp36
 70
     1
102
RTVSPropertyOp37
 70
     1
102
RTVSPropertyOp38
 70
     1
102
RTVSPropertyOp39
 70
     1
102
RTVSPropertyOp40
 70
     1
102
RTVSPropertyOp41
 70
     1
102
RTVSPropertyOp42
 70
     1
102
RTVSPropertyOp43
 70
     1
102
RTVSPropertyOp44
 70
     1
102
RTVSPropertyOp45
 70
     1
102
RTVSPropertyOp46
 70
     1
102
RTVSPropertyOp47
 70
     1
102
RTVSPropertyOp48
 70
     1
102
RTVSPropertyOp49
 70
     1
102
RTVSPropertyOp50
 70
     1
102
RTVSPropertyOp51
 70
     0
102
RTVSPropertyOp52
 70
     0
102
RTVSPropertyOp53
 70
     1
102
RTVSPropertyOp54
 70
     1
102
RTVSPropertyOp55
 70
     1
102
RTVSPropertyOp56
 70
     1
102
RTVSPropertyOp57
 70
     1
102
RTVSPost2010Prop28
280
     0
102
RTVSPost2010PropOp28
 70
     1
102
RTVSPost2010Prop29
280
     1
102
RTVSPost2010PropOp29
 70
     1
102
RTVSPost2010Prop30
280
     1
102
RTVSPost2010PropOp30
 70
     1
102
RTVSPost2010Prop31
280
     0
102
RTVSPost2010PropOp31
 70
     1
102
RTVSPost2010Prop32
280
     0
102
RTVSPost2010PropOp32
 70
     1
102
RTVSPost2010Prop33
280
     0
102
RTVSPost2010PropOp33
 70
     1
102
RTVSPost2010Prop34
280
     0
102
RTVSPost2010PropOp34
 70
     1
102
RTVSPost2010Prop35
280
     0
102
RTVSPost2010PropOp35
 70
     1
102
RTVSPost2010Prop36
280
     0
102
RTVSPost2010PropOp36
 70
     1
102
RTVSPost2010Prop37
 90
       50
102
RTVSPost2010PropOp37
 70
     1
102
RTVSPost2010Prop38
140
0.0
102
RTVSPost2010PropOp38
 70
     1
102
RTVSPost2010Prop39
140
1.0
102
RTVSPost2010PropOp39
 70
     1
102
RTVSPost2010Prop40
 90
        0
102
RTVSPost2010PropOp40
 70
     1
102
RTVSPost2010Prop41ColorIndex
 90
       18
102
RTVSPost2010Prop41ColorRGB
 90
        0
102
RTVSPost2010PropOp41
 70
     1
102
RTVSPost2010Prop42
 90
       50
102
RTVSPost2010PropOp42
 70
     1
102
RTVSPost2010Prop43
 90
        3
102
RTVSPost2010PropOp43
 70
     1
102
RTVSPost2010Prop44ColorIndex
 90
        5
102
RTVSPost2010Prop44ColorRGB
 90
      255
102
RTVSPost2010PropOp44
 70
     1
102
RTVSPost2010Prop45
280
     0
102
RTVSPost2010PropOp45
 70
     1
102
RTVSPost2010Prop46
 90
       50
102
RTVSPost2010PropOp46
 70
     1
102
RTVSPost2010Prop47
 90
       50
102
RTVSPost2010PropOp47
 70
     1
102
RTVSPost2010Prop48
 90
       50
102
RTVSPost2010PropOp48
 70
     1
102
RTVSPost2010Prop49
280
     0
102
RTVSPost2010PropOp49
 70
     1
102
RTVSPost2010Prop50
 90
       50
102
RTVSPost2010PropOp50
 70
     1
102
RTVSPost2010Prop51ColorIndex
 90
      256
102
RTVSPost2010Prop51ColorRGB
 90
-16777216
102
RTVSPost2010PropOp51
 70
     0
102
RTVSPost2010Prop52
140
1.0
102
RTVSPost2010PropOp52
 70
     0
102
RTVSPost2010Prop53
 90
        2
102
RTVSPost2010PropOp53
 70
     1
102
RTVSPost2010Prop54
  1
strokes_ogs.tif
102
RTVSPost2010PropOp54
 70
     1
102
RTVSPost2010Prop55
280
     0
102
RTVSPost2010PropOp55
 70
     1
102
RTVSPost2010Prop56
140
1.0
102
RTVSPost2010PropOp56
 70
     1
102
RTVSPost2010Prop57
140
1.0
102
RTVSPost2010PropOp57
 70
     1
  0
XRECORD
  5
239
102
{ACAD_REACTORS
330
238
102
}
330
238
100
AcDbXrecord
280
     1
102
RTVSPropertyOp0
 70
     1
102
RTVSPropertyOp1
 70
     1
102
RTVSPropertyOp2
 70
     1
102
RTVSPropertyOp3
 70
     1
102
RTVSPropertyOp4
 70
     1
102
RTVSPropertyOp5
 70
     1
102
RTVSPropertyOp6
 70
     1
102
RTVSPropertyOp7
 70
     1
102
RTVSPropertyOp8
 70
     1
102
RTVSPropertyOp9
 70
     1
102
RTVSPropertyOp10
 70
     1
102
RTVSPropertyOp11
 70
     1
102
RTVSPropertyOp12
 70
     1
102
RTVSPropertyOp13
 70
     1
102
RTVSPropertyOp14
 70
     1
102
RTVSPropertyOp15
 70
     1
102
RTVSPropertyOp16
 70
     1
102
RTVSPropertyOp17
 70
     1
102
RTVSPropertyOp18
 70
     1
102
RTVSPropertyOp19
 70
     1
102
RTVSPropertyOp20
 70
     1
102
RTVSPropertyOp21
 70
     1
102
RTVSPropertyOp22
 70
     1
102
RTVSPropertyOp23
 70
     1
102
RTVSPropertyOp24
 70
     1
102
RTVSPropertyOp25
 70
     1
102
RTVSPropertyOp26
 70
     1
102
RTVSPropertyOp27
 70
     1
102
RTVSPropertyOp28
 70
     1
102
RTVSPropertyOp29
 70
     1
102
RTVSPropertyOp30
 70
     1
102
RTVSPropertyOp31
 70
     1
102
RTVSPropertyOp32
 70
     1
102
RTVSPropertyOp33
 70
     1
102
RTVSPropertyOp34
 70
     1
102
RTVSPropertyOp35
 70
     1
102
RTVSPropertyOp36
 70
     1
102
RTVSPropertyOp37
 70
     1
102
RTVSPropertyOp38
 70
     1
102
RTVSPropertyOp39
 70
     1
102
RTVSPropertyOp40
 70
     1
102
RTVSPropertyOp41
 70
     1
102
RTVSPropertyOp42
 70
     1
102
RTVSPropertyOp43
 70
     1
102
RTVSPropertyOp44
 70
     1
102
RTVSPropertyOp45
 70
     1
102
RTVSPropertyOp46
 70
     1
102
RTVSPropertyOp47
 70
     1
102
RTVSPropertyOp48
 70
     1
102
RTVSPropertyOp49
 70
     1
102
RTVSPropertyOp50
 70
     1
102
RTVSPropertyOp51
 70
     0
102
RTVSPropertyOp52
 70
     0
102
RTVSPropertyOp53
 70
     1
102
RTVSPropertyOp54
 70
     1
102
RTVSPropertyOp55
 70
     1
102
RTVSPropertyOp56
 70
     1
102
RTVSPropertyOp57
 70
     1
102
RTVSPost2010Prop28
280
     0
102
RTVSPost2010PropOp28
 70
     1
102
RTVSPost2010Prop29
280
     1
102
RTVSPost2010PropOp29
 70
     1
102
RTVSPost2010Prop30
280
     1
102
RTVSPost2010PropOp30
 70
     1
102
RTVSPost2010Prop31
280
     0
102
RTVSPost2010PropOp31
 70
     1
102
RTVSPost2010Prop32
280
     0
102
RTVSPost2010PropOp32
 70
     1
102
RTVSPost2010Prop33
280
     0
102
RTVSPost2010PropOp33
 70
     1
102
RTVSPost2010Prop34
280
     0
102
RTVSPost2010PropOp34
 70
     1
102
RTVSPost2010Prop35
280
     0
102
RTVSPost2010PropOp35
 70
     1
102
RTVSPost2010Prop36
280
     0
102
RTVSPost2010PropOp36
 70
     1
102
RTVSPost2010Prop37
 90
       50
102
RTVSPost2010PropOp37
 70
     1
102
RTVSPost2010Prop38
140
0.0
102
RTVSPost2010PropOp38
 70
     1
102
RTVSPost2010Prop39
140
1.0
102
RTVSPost2010PropOp39
 70
     1
102
RTVSPost2010Prop40
 90
        0
102
RTVSPost2010PropOp40
 70
     1
102
RTVSPost2010Prop41ColorIndex
 90
       18
102
RTVSPost2010Prop41ColorRGB
 90
        0
102
RTVSPost2010PropOp41
 70
     1
102
RTVSPost2010Prop42
 90
       50
102
RTVSPost2010PropOp42
 70
     1
102
RTVSPost2010Prop43
 90
        3
102
RTVSPost2010PropOp43
 70
     1
102
RTVSPost2010Prop44ColorIndex
 90
        5
102
RTVSPost2010Prop44ColorRGB
 90
      255
102
RTVSPost2010PropOp44
 70
     1
102
RTVSPost2010Prop45
280
     0
102
RTVSPost2010PropOp45
 70
     1
102
RTVSPost2010Prop46
 90
       50
102
RTVSPost2010PropOp46
 70
     1
102
RTVSPost2010Prop47
 90
       50
102
RTVSPost2010PropOp47
 70
     1
102
RTVSPost2010Prop48
 90
       50
102
RTVSPost2010PropOp48
 70
     1
102
RTVSPost2010Prop49
280
     0
102
RTVSPost2010PropOp49
 70
     1
102
RTVSPost2010Prop50
 90
       50
102
RTVSPost2010PropOp50
 70
     1
102
RTVSPost2010Prop51ColorIndex
 90
      256
102
RTVSPost2010Prop51ColorRGB
 90
-16777216
102
RTVSPost2010PropOp51
 70
     0
102
RTVSPost2010Prop52
140
1.0
102
RTVSPost2010PropOp52
 70
     0
102
RTVSPost2010Prop53
 90
        2
102
RTVSPost2010PropOp53
 70
     1
102
RTVSPost2010Prop54
  1
strokes_ogs.tif
102
RTVSPost2010PropOp54
 70
     1
102
RTVSPost2010Prop55
280
     0
102
RTVSPost2010PropOp55
 70
     1
102
RTVSPost2010Prop56
140
1.0
102
RTVSPost2010PropOp56
 70
     1
102
RTVSPost2010Prop57
140
1.0
102
RTVSPost2010PropOp57
 70
     1
  0
XRECORD
  5
24D
102
{ACAD_REACTORS
330
24C
102
}
330
24C
100
AcDbXrecord
280
     1
102
RTVSPropertyOp0
 70
     0
102
RTVSPropertyOp1
 70
     0
102
RTVSPropertyOp2
 70
     0
102
RTVSPropertyOp3
 70
     0
102
RTVSPropertyOp4
 70
     0
102
RTVSPropertyOp5
 70
     0
102
RTVSPropertyOp6
 70
     0
102
RTVSPropertyOp7
 70
     0
102
RTVSPropertyOp8
 70
     0
102
RTVSPropertyOp9
 70
     0
102
RTVSPropertyOp10
 70
     0
102
RTVSPropertyOp11
 70
     0
102
RTVSPropertyOp12
 70
     0
102
RTVSPropertyOp13
 70
     0
102
RTVSPropertyOp14
 70
     2
102
RTVSPropertyOp15
 70
     0
102
RTVSPropertyOp16
 70
     0
102
RTVSPropertyOp17
 70
     0
102
RTVSPropertyOp18
 70
     0
102
RTVSPropertyOp19
 70
     0
102
RTVSPropertyOp20
 70
     0
102
RTVSPropertyOp21
 70
     0
102
RTVSPropertyOp22
 70
     0
102
RTVSPropertyOp23
 70
     0
102
RTVSPropertyOp24
 70
     0
102
RTVSPropertyOp25
 70
     0
102
RTVSPropertyOp26
 70
     0
102
RTVSPropertyOp27
 70
     0
102
RTVSPropertyOp28
 70
     0
102
RTVSPropertyOp29
 70
     0
102
RTVSPropertyOp30
 70
     0
102
RTVSPropertyOp31
 70
     0
102
RTVSPropertyOp32
 70
     0
102
RTVSPropertyOp33
 70
     0
102
RTVSPropertyOp34
 70
     0
102
RTVSPropertyOp35
 70
     0
102
RTVSPropertyOp36
 70
     0
102
RTVSPropertyOp37
 70
     0
102
RTVSPropertyOp38
 70
     0
102
RTVSPropertyOp39
 70
     0
102
RTVSPropertyOp40
 70
     0
102
RTVSPropertyOp41
 70
     0
102
RTVSPropertyOp42
 70
     0
102
RTVSPropertyOp43
 70
     0
102
RTVSPropertyOp44
 70
     0
102
RTVSPropertyOp45
 70
     0
102
RTVSPropertyOp46
 70
     0
102
RTVSPropertyOp47
 70
     0
102
RTVSPropertyOp48
 70
     0
102
RTVSPropertyOp49
 70
     0
102
RTVSPropertyOp50
 70
     0
102
RTVSPropertyOp51
 70
     0
102
RTVSPropertyOp52
 70
     0
102
RTVSPropertyOp53
 70
     0
102
RTVSPropertyOp54
 70
     0
102
RTVSPropertyOp55
 70
     0
102
RTVSPropertyOp56
 70
     0
102
RTVSPropertyOp57
 70
     0
102
RTVSPost2010Prop28
280
     0
102
RTVSPost2010PropOp28
 70
     0
102
RTVSPost2010Prop29
280
     1
102
RTVSPost2010PropOp29
 70
     0
102
RTVSPost2010Prop30
280
     1
102
RTVSPost2010PropOp30
 70
     0
102
RTVSPost2010Prop31
280
     0
102
RTVSPost2010PropOp31
 70
     0
102
RTVSPost2010Prop32
280
     0
102
RTVSPost2010PropOp32
 70
     0
102
RTVSPost2010Prop33
280
     0
102
RTVSPost2010PropOp33
 70
     0
102
RTVSPost2010Prop34
280
     0
102
RTVSPost2010PropOp34
 70
     0
102
RTVSPost2010Prop35
280
     0
102
RTVSPost2010PropOp35
 70
     0
102
RTVSPost2010Prop36
280
     0
102
RTVSPost2010PropOp36
 70
     0
102
RTVSPost2010Prop37
 90
       50
102
RTVSPost2010PropOp37
 70
     0
102
RTVSPost2010Prop38
140
0.0
102
RTVSPost2010PropOp38
 70
     0
102
RTVSPost2010Prop39
140
1.0
102
RTVSPost2010PropOp39
 70
     0
102
RTVSPost2010Prop40
 90
        0
102
RTVSPost2010PropOp40
 70
     0
102
RTVSPost2010Prop41ColorIndex
 90
       18
102
RTVSPost2010Prop41ColorRGB
 90
        0
102
RTVSPost2010PropOp41
 70
     0
102
RTVSPost2010Prop42
 90
       50
102
RTVSPost2010PropOp42
 70
     0
102
RTVSPost2010Prop43
 90
        3
102
RTVSPost2010PropOp43
 70
     0
102
RTVSPost2010Prop44ColorIndex
 90
        5
102
RTVSPost2010Prop44ColorRGB
 90
      255
102
RTVSPost2010PropOp44
 70
     0
102
RTVSPost2010Prop45
280
     0
102
RTVSPost2010PropOp45
 70
     0
102
RTVSPost2010Prop46
 90
       50
102
RTVSPost2010PropOp46
 70
     0
102
RTVSPost2010Prop47
 90
       50
102
RTVSPost2010PropOp47
 70
     0
102
RTVSPost2010Prop48
 90
       50
102
RTVSPost2010PropOp48
 70
     0
102
RTVSPost2010Prop49
280
     0
102
RTVSPost2010PropOp49
 70
     0
102
RTVSPost2010Prop50
 90
       50
102
RTVSPost2010PropOp50
 70
     0
102
RTVSPost2010Prop51ColorIndex
 90
      256
102
RTVSPost2010Prop51ColorRGB
 90
-16777216
102
RTVSPost2010PropOp51
 70
     0
102
RTVSPost2010Prop52
140
1.0
102
RTVSPost2010PropOp52
 70
     0
102
RTVSPost2010Prop53
 90
        2
102
RTVSPost2010PropOp53
 70
     0
102
RTVSPost2010Prop54
  1
strokes_ogs.tif
102
RTVSPost2010PropOp54
 70
     0
102
RTVSPost2010Prop55
280
     0
102
RTVSPost2010PropOp55
 70
     0
102
RTVSPost2010Prop56
140
1.0
102
RTVSPost2010PropOp56
 70
     0
102
RTVSPost2010Prop57
140
1.0
102
RTVSPost2010PropOp57
 70
     0
  0
XRECORD
  5
247
102
{ACAD_REACTORS
330
246
102
}
330
246
100
AcDbXrecord
280
     1
102
RTVSPropertyOp0
 70
     1
102
RTVSPropertyOp1
 70
     1
102
RTVSPropertyOp2
 70
     1
102
RTVSPropertyOp3
 70
     1
102
RTVSPropertyOp4
 70
     1
102
RTVSPropertyOp5
 70
     1
102
RTVSPropertyOp6
 70
     1
102
RTVSPropertyOp7
 70
     1
102
RTVSPropertyOp8
 70
     1
102
RTVSPropertyOp9
 70
     1
102
RTVSPropertyOp10
 70
     1
102
RTVSPropertyOp11
 70
     1
102
RTVSPropertyOp12
 70
     1
102
RTVSPropertyOp13
 70
     1
102
RTVSPropertyOp14
 70
     1
102
RTVSPropertyOp15
 70
     1
102
RTVSPropertyOp16
 70
     1
102
RTVSPropertyOp17
 70
     1
102
RTVSPropertyOp18
 70
     1
102
RTVSPropertyOp19
 70
     1
102
RTVSPropertyOp20
 70
     1
102
RTVSPropertyOp21
 70
     1
102
RTVSPropertyOp22
 70
     1
102
RTVSPropertyOp23
 70
     1
102
RTVSPropertyOp24
 70
     1
102
RTVSPropertyOp25
 70
     1
102
RTVSPropertyOp26
 70
     1
102
RTVSPropertyOp27
 70
     1
102
RTVSPropertyOp28
 70
     1
102
RTVSPropertyOp29
 70
     1
102
RTVSPropertyOp30
 70
     1
102
RTVSPropertyOp31
 70
     1
102
RTVSPropertyOp32
 70
     1
102
RTVSPropertyOp33
 70
     1
102
RTVSPropertyOp34
 70
     1
102
RTVSPropertyOp35
 70
     1
102
RTVSPropertyOp36
 70
     1
102
RTVSPropertyOp37
 70
     1
102
RTVSPropertyOp38
 70
     1
102
RTVSPropertyOp39
 70
     1
102
RTVSPropertyOp40
 70
     1
102
RTVSPropertyOp41
 70
     1
102
RTVSPropertyOp42
 70
     1
102
RTVSPropertyOp43
 70
     1
102
RTVSPropertyOp44
 70
     1
102
RTVSPropertyOp45
 70
     1
102
RTVSPropertyOp46
 70
     1
102
RTVSPropertyOp47
 70
     1
102
RTVSPropertyOp48
 70
     1
102
RTVSPropertyOp49
 70
     1
102
RTVSPropertyOp50
 70
     1
102
RTVSPropertyOp51
 70
     0
102
RTVSPropertyOp52
 70
     0
102
RTVSPropertyOp53
 70
     1
102
RTVSPropertyOp54
 70
     1
102
RTVSPropertyOp55
 70
     1
102
RTVSPropertyOp56
 70
     1
102
RTVSPropertyOp57
 70
     1
102
RTVSPost2010Prop28
280
     0
102
RTVSPost2010PropOp28
 70
     1
102
RTVSPost2010Prop29
280
     1
102
RTVSPost2010PropOp29
 70
     1
102
RTVSPost2010Prop30
280
     1
102
RTVSPost2010PropOp30
 70
     1
102
RTVSPost2010Prop31
280
     0
102
RTVSPost2010PropOp31
 70
     1
102
RTVSPost2010Prop32
280
     0
102
RTVSPost2010PropOp32
 70
     1
102
RTVSPost2010Prop33
280
     0
102
RTVSPost2010PropOp33
 70
     1
102
RTVSPost2010Prop34
280
     0
102
RTVSPost2010PropOp34
 70
     1
102
RTVSPost2010Prop35
280
     0
102
RTVSPost2010PropOp35
 70
     1
102
RTVSPost2010Prop36
280
     0
102
RTVSPost2010PropOp36
 70
     1
102
RTVSPost2010Prop37
 90
       50
102
RTVSPost2010PropOp37
 70
     1
102
RTVSPost2010Prop38
140
0.0
102
RTVSPost2010PropOp38
 70
     1
102
RTVSPost2010Prop39
140
1.0
102
RTVSPost2010PropOp39
 70
     1
102
RTVSPost2010Prop40
 90
        0
102
RTVSPost2010PropOp40
 70
     1
102
RTVSPost2010Prop41ColorIndex
 90
       18
102
RTVSPost2010Prop41ColorRGB
 90
        0
102
RTVSPost2010PropOp41
 70
     1
102
RTVSPost2010Prop42
 90
       50
102
RTVSPost2010PropOp42
 70
     1
102
RTVSPost2010Prop43
 90
        3
102
RTVSPost2010PropOp43
 70
     1
102
RTVSPost2010Prop44ColorIndex
 90
        5
102
RTVSPost2010Prop44ColorRGB
 90
      255
102
RTVSPost2010PropOp44
 70
     1
102
RTVSPost2010Prop45
280
     0
102
RTVSPost2010PropOp45
 70
     1
102
RTVSPost2010Prop46
 90
       50
102
RTVSPost2010PropOp46
 70
     1
102
RTVSPost2010Prop47
 90
       50
102
RTVSPost2010PropOp47
 70
     1
102
RTVSPost2010Prop48
 90
       50
102
RTVSPost2010PropOp48
 70
     1
102
RTVSPost2010Prop49
280
     0
102
RTVSPost2010PropOp49
 70
     1
102
RTVSPost2010Prop50
 90
       50
102
RTVSPost2010PropOp50
 70
     1
102
RTVSPost2010Prop51ColorIndex
 90
      256
102
RTVSPost2010Prop51ColorRGB
 90
-16777216
102
RTVSPost2010PropOp51
 70
     0
102
RTVSPost2010Prop52
140
1.0
102
RTVSPost2010PropOp52
 70
     0
102
RTVSPost2010Prop53
 90
        2
102
RTVSPost2010PropOp53
 70
     1
102
RTVSPost2010Prop54
  1
strokes_ogs.tif
102
RTVSPost2010PropOp54
 70
     1
102
RTVSPost2010Prop55
280
     0
102
RTVSPost2010PropOp55
 70
     1
102
RTVSPost2010Prop56
140
1.0
102
RTVSPost2010PropOp56
 70
     1
102
RTVSPost2010Prop57
140
1.0
102
RTVSPost2010PropOp57
 70
     1
  0
XRECORD
  5
24F
102
{ACAD_REACTORS
330
24E
102
}
330
24E
100
AcDbXrecord
280
     1
102
RTVSPropertyOp0
 70
     0
102
RTVSPropertyOp1
 70
     0
102
RTVSPropertyOp2
 70
     0
102
RTVSPropertyOp3
 70
     0
102
RTVSPropertyOp4
 70
     0
102
RTVSPropertyOp5
 70
     0
102
RTVSPropertyOp6
 70
     0
102
RTVSPropertyOp7
 70
     0
102
RTVSPropertyOp8
 70
     0
102
RTVSPropertyOp9
 70
     0
102
RTVSPropertyOp10
 70
     0
102
RTVSPropertyOp11
 70
     0
102
RTVSPropertyOp12
 70
     0
102
RTVSPropertyOp13
 70
     0
102
RTVSPropertyOp14
 70
     2
102
RTVSPropertyOp15
 70
     0
102
RTVSPropertyOp16
 70
     0
102
RTVSPropertyOp17
 70
     0
102
RTVSPropertyOp18
 70
     0
102
RTVSPropertyOp19
 70
     0
102
RTVSPropertyOp20
 70
     0
102
RTVSPropertyOp21
 70
     0
102
RTVSPropertyOp22
 70
     0
102
RTVSPropertyOp23
 70
     0
102
RTVSPropertyOp24
 70
     0
102
RTVSPropertyOp25
 70
     0
102
RTVSPropertyOp26
 70
     0
102
RTVSPropertyOp27
 70
     0
102
RTVSPropertyOp28
 70
     0
102
RTVSPropertyOp29
 70
     0
102
RTVSPropertyOp30
 70
     0
102
RTVSPropertyOp31
 70
     0
102
RTVSPropertyOp32
 70
     0
102
RTVSPropertyOp33
 70
     0
102
RTVSPropertyOp34
 70
     0
102
RTVSPropertyOp35
 70
     0
102
RTVSPropertyOp36
 70
     0
102
RTVSPropertyOp37
 70
     0
102
RTVSPropertyOp38
 70
     0
102
RTVSPropertyOp39
 70
     0
102
RTVSPropertyOp40
 70
     0
102
RTVSPropertyOp41
 70
     0
102
RTVSPropertyOp42
 70
     0
102
RTVSPropertyOp43
 70
     0
102
RTVSPropertyOp44
 70
     0
102
RTVSPropertyOp45
 70
     0
102
RTVSPropertyOp46
 70
     0
102
RTVSPropertyOp47
 70
     0
102
RTVSPropertyOp48
 70
     0
102
RTVSPropertyOp49
 70
     0
102
RTVSPropertyOp50
 70
     0
102
RTVSPropertyOp51
 70
     0
102
RTVSPropertyOp52
 70
     0
102
RTVSPropertyOp53
 70
     0
102
RTVSPropertyOp54
 70
     0
102
RTVSPropertyOp55
 70
     0
102
RTVSPropertyOp56
 70
     0
102
RTVSPropertyOp57
 70
     0
102
RTVSPost2010Prop28
280
     0
102
RTVSPost2010PropOp28
 70
     0
102
RTVSPost2010Prop29
280
     1
102
RTVSPost2010PropOp29
 70
     0
102
RTVSPost2010Prop30
280
     1
102
RTVSPost2010PropOp30
 70
     0
102
RTVSPost2010Prop31
280
     0
102
RTVSPost2010PropOp31
 70
     0
102
RTVSPost2010Prop32
280
     0
102
RTVSPost2010PropOp32
 70
     0
102
RTVSPost2010Prop33
280
     0
102
RTVSPost2010PropOp33
 70
     0
102
RTVSPost2010Prop34
280
     0
102
RTVSPost2010PropOp34
 70
     0
102
RTVSPost2010Prop35
280
     0
102
RTVSPost2010PropOp35
 70
     0
102
RTVSPost2010Prop36
280
     0
102
RTVSPost2010PropOp36
 70
     0
102
RTVSPost2010Prop37
 90
       50
102
RTVSPost2010PropOp37
 70
     0
102
RTVSPost2010Prop38
140
0.0
102
RTVSPost2010PropOp38
 70
     0
102
RTVSPost2010Prop39
140
1.0
102
RTVSPost2010PropOp39
 70
     0
102
RTVSPost2010Prop40
 90
        0
102
RTVSPost2010PropOp40
 70
     0
102
RTVSPost2010Prop41ColorIndex
 90
       18
102
RTVSPost2010Prop41ColorRGB
 90
        0
102
RTVSPost2010PropOp41
 70
     0
102
RTVSPost2010Prop42
 90
       50
102
RTVSPost2010PropOp42
 70
     0
102
RTVSPost2010Prop43
 90
        3
102
RTVSPost2010PropOp43
 70
     0
102
RTVSPost2010Prop44ColorIndex
 90
        5
102
RTVSPost2010Prop44ColorRGB
 90
      255
102
RTVSPost2010PropOp44
 70
     0
102
RTVSPost2010Prop45
280
     0
102
RTVSPost2010PropOp45
 70
     0
102
RTVSPost2010Prop46
 90
       50
102
RTVSPost2010PropOp46
 70
     0
102
RTVSPost2010Prop47
 90
       50
102
RTVSPost2010PropOp47
 70
     0
102
RTVSPost2010Prop48
 90
       50
102
RTVSPost2010PropOp48
 70
     0
102
RTVSPost2010Prop49
280
     0
102
RTVSPost2010PropOp49
 70
     0
102
RTVSPost2010Prop50
 90
       50
102
RTVSPost2010PropOp50
 70
     0
102
RTVSPost2010Prop51ColorIndex
 90
      256
102
RTVSPost2010Prop51ColorRGB
 90
-16777216
102
RTVSPost2010PropOp51
 70
     0
102
RTVSPost2010Prop52
140
1.0
102
RTVSPost2010PropOp52
 70
     0
102
RTVSPost2010Prop53
 90
        2
102
RTVSPost2010PropOp53
 70
     0
102
RTVSPost2010Prop54
  1
strokes_ogs.tif
102
RTVSPost2010PropOp54
 70
     0
102
RTVSPost2010Prop55
280
     0
102
RTVSPost2010PropOp55
 70
     0
102
RTVSPost2010Prop56
140
1.0
102
RTVSPost2010PropOp56
 70
     0
102
RTVSPost2010Prop57
140
1.0
102
RTVSPost2010PropOp57
 70
     0
  0
XRECORD
  5
23D
102
{ACAD_REACTORS
330
23C
102
}
330
23C
100
AcDbXrecord
280
     1
102
RTVSPropertyOp0
 70
     1
102
RTVSPropertyOp1
 70
     1
102
RTVSPropertyOp2
 70
     1
102
RTVSPropertyOp3
 70
     1
102
RTVSPropertyOp4
 70
     1
102
RTVSPropertyOp5
 70
     1
102
RTVSPropertyOp6
 70
     1
102
RTVSPropertyOp7
 70
     1
102
RTVSPropertyOp8
 70
     1
102
RTVSPropertyOp9
 70
     1
102
RTVSPropertyOp10
 70
     1
102
RTVSPropertyOp11
 70
     1
102
RTVSPropertyOp12
 70
     1
102
RTVSPropertyOp13
 70
     1
102
RTVSPropertyOp14
 70
     1
102
RTVSPropertyOp15
 70
     1
102
RTVSPropertyOp16
 70
     1
102
RTVSPropertyOp17
 70
     1
102
RTVSPropertyOp18
 70
     1
102
RTVSPropertyOp19
 70
     1
102
RTVSPropertyOp20
 70
     1
102
RTVSPropertyOp21
 70
     1
102
RTVSPropertyOp22
 70
     1
102
RTVSPropertyOp23
 70
     1
102
RTVSPropertyOp24
 70
     1
102
RTVSPropertyOp25
 70
     1
102
RTVSPropertyOp26
 70
     1
102
RTVSPropertyOp27
 70
     1
102
RTVSPropertyOp28
 70
     1
102
RTVSPropertyOp29
 70
     1
102
RTVSPropertyOp30
 70
     1
102
RTVSPropertyOp31
 70
     1
102
RTVSPropertyOp32
 70
     1
102
RTVSPropertyOp33
 70
     1
102
RTVSPropertyOp34
 70
     1
102
RTVSPropertyOp35
 70
     1
102
RTVSPropertyOp36
 70
     1
102
RTVSPropertyOp37
 70
     1
102
RTVSPropertyOp38
 70
     1
102
RTVSPropertyOp39
 70
     1
102
RTVSPropertyOp40
 70
     1
102
RTVSPropertyOp41
 70
     1
102
RTVSPropertyOp42
 70
     1
102
RTVSPropertyOp43
 70
     1
102
RTVSPropertyOp44
 70
     1
102
RTVSPropertyOp45
 70
     1
102
RTVSPropertyOp46
 70
     1
102
RTVSPropertyOp47
 70
     1
102
RTVSPropertyOp48
 70
     1
102
RTVSPropertyOp49
 70
     1
102
RTVSPropertyOp50
 70
     1
102
RTVSPropertyOp51
 70
     0
102
RTVSPropertyOp52
 70
     0
102
RTVSPropertyOp53
 70
     1
102
RTVSPropertyOp54
 70
     1
102
RTVSPropertyOp55
 70
     1
102
RTVSPropertyOp56
 70
     1
102
RTVSPropertyOp57
 70
     1
102
RTVSPost2010Prop28
280
     0
102
RTVSPost2010PropOp28
 70
     1
102
RTVSPost2010Prop29
280
     1
102
RTVSPost2010PropOp29
 70
     1
102
RTVSPost2010Prop30
280
     1
102
RTVSPost2010PropOp30
 70
     1
102
RTVSPost2010Prop31
280
     0
102
RTVSPost2010PropOp31
 70
     1
102
RTVSPost2010Prop32
280
     0
102
RTVSPost2010PropOp32
 70
     1
102
RTVSPost2010Prop33
280
     0
102
RTVSPost2010PropOp33
 70
     1
102
RTVSPost2010Prop34
280
     0
102
RTVSPost2010PropOp34
 70
     1
102
RTVSPost2010Prop35
280
     0
102
RTVSPost2010PropOp35
 70
     1
102
RTVSPost2010Prop36
280
     0
102
RTVSPost2010PropOp36
 70
     1
102
RTVSPost2010Prop37
 90
       50
102
RTVSPost2010PropOp37
 70
     1
102
RTVSPost2010Prop38
140
0.0
102
RTVSPost2010PropOp38
 70
     1
102
RTVSPost2010Prop39
140
1.0
102
RTVSPost2010PropOp39
 70
     1
102
RTVSPost2010Prop40
 90
        0
102
RTVSPost2010PropOp40
 70
     1
102
RTVSPost2010Prop41ColorIndex
 90
       18
102
RTVSPost2010Prop41ColorRGB
 90
        0
102
RTVSPost2010PropOp41
 70
     1
102
RTVSPost2010Prop42
 90
       50
102
RTVSPost2010PropOp42
 70
     1
102
RTVSPost2010Prop43
 90
        3
102
RTVSPost2010PropOp43
 70
     1
102
RTVSPost2010Prop44ColorIndex
 90
        5
102
RTVSPost2010Prop44ColorRGB
 90
      255
102
RTVSPost2010PropOp44
 70
     1
102
RTVSPost2010Prop45
280
     0
102
RTVSPost2010PropOp45
 70
     1
102
RTVSPost2010Prop46
 90
       50
102
RTVSPost2010PropOp46
 70
     1
102
RTVSPost2010Prop47
 90
       50
102
RTVSPost2010PropOp47
 70
     1
102
RTVSPost2010Prop48
 90
       50
102
RTVSPost2010PropOp48
 70
     1
102
RTVSPost2010Prop49
280
     0
102
RTVSPost2010PropOp49
 70
     1
102
RTVSPost2010Prop50
 90
       50
102
RTVSPost2010PropOp50
 70
     1
102
RTVSPost2010Prop51ColorIndex
 90
      256
102
RTVSPost2010Prop51ColorRGB
 90
-16777216
102
RTVSPost2010PropOp51
 70
     0
102
RTVSPost2010Prop52
140
1.0
102
RTVSPost2010PropOp52
 70
     0
102
RTVSPost2010Prop53
 90
        2
102
RTVSPost2010PropOp53
 70
     1
102
RTVSPost2010Prop54
  1
strokes_ogs.tif
102
RTVSPost2010PropOp54
 70
     1
102
RTVSPost2010Prop55
280
     0
102
RTVSPost2010PropOp55
 70
     1
102
RTVSPost2010Prop56
140
1.0
102
RTVSPost2010PropOp56
 70
     1
102
RTVSPost2010Prop57
140
1.0
102
RTVSPost2010PropOp57
 70
     1
  0
XRECORD
  5
25B
102
{ACAD_REACTORS
330
25A
102
}
330
25A
100
AcDbXrecord
280
     1
102
RTVSPropertyOp0
 70
     1
102
RTVSPropertyOp1
 70
     1
102
RTVSPropertyOp2
 70
     1
102
RTVSPropertyOp3
 70
     1
102
RTVSPropertyOp4
 70
     1
102
RTVSPropertyOp5
 70
     1
102
RTVSPropertyOp6
 70
     1
102
RTVSPropertyOp7
 70
     1
102
RTVSPropertyOp8
 70
     1
102
RTVSPropertyOp9
 70
     1
102
RTVSPropertyOp10
 70
     1
102
RTVSPropertyOp11
 70
     1
102
RTVSPropertyOp12
 70
     1
102
RTVSPropertyOp13
 70
     1
102
RTVSPropertyOp14
 70
     1
102
RTVSPropertyOp15
 70
     1
102
RTVSPropertyOp16
 70
     1
102
RTVSPropertyOp17
 70
     1
102
RTVSPropertyOp18
 70
     1
102
RTVSPropertyOp19
 70
     1
102
RTVSPropertyOp20
 70
     1
102
RTVSPropertyOp21
 70
     1
102
RTVSPropertyOp22
 70
     1
102
RTVSPropertyOp23
 70
     1
102
RTVSPropertyOp24
 70
     1
102
RTVSPropertyOp25
 70
     1
102
RTVSPropertyOp26
 70
     1
102
RTVSPropertyOp27
 70
     1
102
RTVSPropertyOp28
 70
     1
102
RTVSPropertyOp29
 70
     1
102
RTVSPropertyOp30
 70
     1
102
RTVSPropertyOp31
 70
     1
102
RTVSPropertyOp32
 70
     1
102
RTVSPropertyOp33
 70
     1
102
RTVSPropertyOp34
 70
     1
102
RTVSPropertyOp35
 70
     1
102
RTVSPropertyOp36
 70
     1
102
RTVSPropertyOp37
 70
     1
102
RTVSPropertyOp38
 70
     1
102
RTVSPropertyOp39
 70
     1
102
RTVSPropertyOp40
 70
     1
102
RTVSPropertyOp41
 70
     1
102
RTVSPropertyOp42
 70
     1
102
RTVSPropertyOp43
 70
     1
102
RTVSPropertyOp44
 70
     1
102
RTVSPropertyOp45
 70
     1
102
RTVSPropertyOp46
 70
     1
102
RTVSPropertyOp47
 70
     1
102
RTVSPropertyOp48
 70
     1
102
RTVSPropertyOp49
 70
     1
102
RTVSPropertyOp50
 70
     1
102
RTVSPropertyOp51
 70
     0
102
RTVSPropertyOp52
 70
     0
102
RTVSPropertyOp53
 70
     1
102
RTVSPropertyOp54
 70
     1
102
RTVSPropertyOp55
 70
     1
102
RTVSPropertyOp56
 70
     1
102
RTVSPropertyOp57
 70
     1
102
RTVSPost2010Prop28
280
     0
102
RTVSPost2010PropOp28
 70
     1
102
RTVSPost2010Prop29
280
     1
102
RTVSPost2010PropOp29
 70
     1
102
RTVSPost2010Prop30
280
     1
102
RTVSPost2010PropOp30
 70
     1
102
RTVSPost2010Prop31
280
     0
102
RTVSPost2010PropOp31
 70
     1
102
RTVSPost2010Prop32
280
     0
102
RTVSPost2010PropOp32
 70
     1
102
RTVSPost2010Prop33
280
     0
102
RTVSPost2010PropOp33
 70
     1
102
RTVSPost2010Prop34
280
     0
102
RTVSPost2010PropOp34
 70
     1
102
RTVSPost2010Prop35
280
     0
102
RTVSPost2010PropOp35
 70
     1
102
RTVSPost2010Prop36
280
     0
102
RTVSPost2010PropOp36
 70
     1
102
RTVSPost2010Prop37
 90
       50
102
RTVSPost2010PropOp37
 70
     1
102
RTVSPost2010Prop38
140
0.0
102
RTVSPost2010PropOp38
 70
     1
102
RTVSPost2010Prop39
140
1.0
102
RTVSPost2010PropOp39
 70
     1
102
RTVSPost2010Prop40
 90
        0
102
RTVSPost2010PropOp40
 70
     1
102
RTVSPost2010Prop41ColorIndex
 90
       18
102
RTVSPost2010Prop41ColorRGB
 90
        0
102
RTVSPost2010PropOp41
 70
     1
102
RTVSPost2010Prop42
 90
       50
102
RTVSPost2010PropOp42
 70
     1
102
RTVSPost2010Prop43
 90
        3
102
RTVSPost2010PropOp43
 70
     1
102
RTVSPost2010Prop44ColorIndex
 90
        5
102
RTVSPost2010Prop44ColorRGB
 90
      255
102
RTVSPost2010PropOp44
 70
     1
102
RTVSPost2010Prop45
280
     0
102
RTVSPost2010PropOp45
 70
     1
102
RTVSPost2010Prop46
 90
       50
102
RTVSPost2010PropOp46
 70
     1
102
RTVSPost2010Prop47
 90
       50
102
RTVSPost2010PropOp47
 70
     1
102
RTVSPost2010Prop48
 90
       50
102
RTVSPost2010PropOp48
 70
     1
102
RTVSPost2010Prop49
280
     0
102
RTVSPost2010PropOp49
 70
     1
102
RTVSPost2010Prop50
 90
       50
102
RTVSPost2010PropOp50
 70
     1
102
RTVSPost2010Prop51ColorIndex
 90
      256
102
RTVSPost2010Prop51ColorRGB
 90
-16777216
102
RTVSPost2010PropOp51
 70
     0
102
RTVSPost2010Prop52
140
1.0
102
RTVSPost2010PropOp52
 70
     0
102
RTVSPost2010Prop53
 90
        2
102
RTVSPost2010PropOp53
 70
     1
102
RTVSPost2010Prop54
  1
strokes_ogs.tif
102
RTVSPost2010PropOp54
 70
     1
102
RTVSPost2010Prop55
280
     0
102
RTVSPost2010PropOp55
 70
     1
102
RTVSPost2010Prop56
140
1.0
102
RTVSPost2010PropOp56
 70
     1
102
RTVSPost2010Prop57
140
1.0
102
RTVSPost2010PropOp57
 70
     1
  0
XRECORD
  5
259
102
{ACAD_REACTORS
330
258
102
}
330
258
100
AcDbXrecord
280
     1
102
RTVSPropertyOp0
 70
     1
102
RTVSPropertyOp1
 70
     1
102
RTVSPropertyOp2
 70
     1
102
RTVSPropertyOp3
 70
     1
102
RTVSPropertyOp4
 70
     1
102
RTVSPropertyOp5
 70
     1
102
RTVSPropertyOp6
 70
     1
102
RTVSPropertyOp7
 70
     1
102
RTVSPropertyOp8
 70
     1
102
RTVSPropertyOp9
 70
     1
102
RTVSPropertyOp10
 70
     1
102
RTVSPropertyOp11
 70
     1
102
RTVSPropertyOp12
 70
     1
102
RTVSPropertyOp13
 70
     1
102
RTVSPropertyOp14
 70
     1
102
RTVSPropertyOp15
 70
     1
102
RTVSPropertyOp16
 70
     1
102
RTVSPropertyOp17
 70
     1
102
RTVSPropertyOp18
 70
     1
102
RTVSPropertyOp19
 70
     1
102
RTVSPropertyOp20
 70
     1
102
RTVSPropertyOp21
 70
     1
102
RTVSPropertyOp22
 70
     1
102
RTVSPropertyOp23
 70
     1
102
RTVSPropertyOp24
 70
     1
102
RTVSPropertyOp25
 70
     1
102
RTVSPropertyOp26
 70
     1
102
RTVSPropertyOp27
 70
     1
102
RTVSPropertyOp28
 70
     1
102
RTVSPropertyOp29
 70
     1
102
RTVSPropertyOp30
 70
     1
102
RTVSPropertyOp31
 70
     1
102
RTVSPropertyOp32
 70
     1
102
RTVSPropertyOp33
 70
     1
102
RTVSPropertyOp34
 70
     1
102
RTVSPropertyOp35
 70
     1
102
RTVSPropertyOp36
 70
     1
102
RTVSPropertyOp37
 70
     1
102
RTVSPropertyOp38
 70
     1
102
RTVSPropertyOp39
 70
     1
102
RTVSPropertyOp40
 70
     1
102
RTVSPropertyOp41
 70
     1
102
RTVSPropertyOp42
 70
     1
102
RTVSPropertyOp43
 70
     1
102
RTVSPropertyOp44
 70
     1
102
RTVSPropertyOp45
 70
     1
102
RTVSPropertyOp46
 70
     1
102
RTVSPropertyOp47
 70
     1
102
RTVSPropertyOp48
 70
     1
102
RTVSPropertyOp49
 70
     1
102
RTVSPropertyOp50
 70
     1
102
RTVSPropertyOp51
 70
     0
102
RTVSPropertyOp52
 70
     0
102
RTVSPropertyOp53
 70
     1
102
RTVSPropertyOp54
 70
     1
102
RTVSPropertyOp55
 70
     1
102
RTVSPropertyOp56
 70
     1
102
RTVSPropertyOp57
 70
     1
102
RTVSPost2010Prop28
280
     0
102
RTVSPost2010PropOp28
 70
     1
102
RTVSPost2010Prop29
280
     1
102
RTVSPost2010PropOp29
 70
     1
102
RTVSPost2010Prop30
280
     1
102
RTVSPost2010PropOp30
 70
     1
102
RTVSPost2010Prop31
280
     0
102
RTVSPost2010PropOp31
 70
     1
102
RTVSPost2010Prop32
280
     0
102
RTVSPost2010PropOp32
 70
     1
102
RTVSPost2010Prop33
280
     0
102
RTVSPost2010PropOp33
 70
     1
102
RTVSPost2010Prop34
280
     0
102
RTVSPost2010PropOp34
 70
     1
102
RTVSPost2010Prop35
280
     0
102
RTVSPost2010PropOp35
 70
     1
102
RTVSPost2010Prop36
280
     0
102
RTVSPost2010PropOp36
 70
     1
102
RTVSPost2010Prop37
 90
       50
102
RTVSPost2010PropOp37
 70
     1
102
RTVSPost2010Prop38
140
0.0
102
RTVSPost2010PropOp38
 70
     1
102
RTVSPost2010Prop39
140
1.0
102
RTVSPost2010PropOp39
 70
     1
102
RTVSPost2010Prop40
 90
        0
102
RTVSPost2010PropOp40
 70
     1
102
RTVSPost2010Prop41ColorIndex
 90
       18
102
RTVSPost2010Prop41ColorRGB
 90
        0
102
RTVSPost2010PropOp41
 70
     1
102
RTVSPost2010Prop42
 90
       50
102
RTVSPost2010PropOp42
 70
     1
102
RTVSPost2010Prop43
 90
        3
102
RTVSPost2010PropOp43
 70
     1
102
RTVSPost2010Prop44ColorIndex
 90
        5
102
RTVSPost2010Prop44ColorRGB
 90
      255
102
RTVSPost2010PropOp44
 70
     1
102
RTVSPost2010Prop45
280
     0
102
RTVSPost2010PropOp45
 70
     1
102
RTVSPost2010Prop46
 90
       50
102
RTVSPost2010PropOp46
 70
     1
102
RTVSPost2010Prop47
 90
       50
102
RTVSPost2010PropOp47
 70
     1
102
RTVSPost2010Prop48
 90
       50
102
RTVSPost2010PropOp48
 70
     1
102
RTVSPost2010Prop49
280
     0
102
RTVSPost2010PropOp49
 70
     1
102
RTVSPost2010Prop50
 90
       50
102
RTVSPost2010PropOp50
 70
     1
102
RTVSPost2010Prop51ColorIndex
 90
      256
102
RTVSPost2010Prop51ColorRGB
 90
-16777216
102
RTVSPost2010PropOp51
 70
     0
102
RTVSPost2010Prop52
140
1.0
102
RTVSPost2010PropOp52
 70
     0
102
RTVSPost2010Prop53
 90
        2
102
RTVSPost2010PropOp53
 70
     1
102
RTVSPost2010Prop54
  1
strokes_ogs.tif
102
RTVSPost2010PropOp54
 70
     1
102
RTVSPost2010Prop55
280
     0
102
RTVSPost2010PropOp55
 70
     1
102
RTVSPost2010Prop56
140
1.0
102
RTVSPost2010PropOp56
 70
     1
102
RTVSPost2010Prop57
140
1.0
102
RTVSPost2010PropOp57
 70
     1
  0
XRECORD
  5
253
102
{ACAD_REACTORS
330
252
102
}
330
252
100
AcDbXrecord
280
     1
102
RTVSPropertyOp0
 70
     1
102
RTVSPropertyOp1
 70
     1
102
RTVSPropertyOp2
 70
     1
102
RTVSPropertyOp3
 70
     1
102
RTVSPropertyOp4
 70
     1
102
RTVSPropertyOp5
 70
     1
102
RTVSPropertyOp6
 70
     1
102
RTVSPropertyOp7
 70
     1
102
RTVSPropertyOp8
 70
     1
102
RTVSPropertyOp9
 70
     1
102
RTVSPropertyOp10
 70
     1
102
RTVSPropertyOp11
 70
     1
102
RTVSPropertyOp12
 70
     1
102
RTVSPropertyOp13
 70
     1
102
RTVSPropertyOp14
 70
     1
102
RTVSPropertyOp15
 70
     1
102
RTVSPropertyOp16
 70
     1
102
RTVSPropertyOp17
 70
     1
102
RTVSPropertyOp18
 70
     1
102
RTVSPropertyOp19
 70
     1
102
RTVSPropertyOp20
 70
     1
102
RTVSPropertyOp21
 70
     1
102
RTVSPropertyOp22
 70
     1
102
RTVSPropertyOp23
 70
     1
102
RTVSPropertyOp24
 70
     1
102
RTVSPropertyOp25
 70
     1
102
RTVSPropertyOp26
 70
     1
102
RTVSPropertyOp27
 70
     1
102
RTVSPropertyOp28
 70
     1
102
RTVSPropertyOp29
 70
     1
102
RTVSPropertyOp30
 70
     1
102
RTVSPropertyOp31
 70
     1
102
RTVSPropertyOp32
 70
     1
102
RTVSPropertyOp33
 70
     1
102
RTVSPropertyOp34
 70
     1
102
RTVSPropertyOp35
 70
     1
102
RTVSPropertyOp36
 70
     1
102
RTVSPropertyOp37
 70
     1
102
RTVSPropertyOp38
 70
     1
102
RTVSPropertyOp39
 70
     1
102
RTVSPropertyOp40
 70
     1
102
RTVSPropertyOp41
 70
     1
102
RTVSPropertyOp42
 70
     1
102
RTVSPropertyOp43
 70
     1
102
RTVSPropertyOp44
 70
     1
102
RTVSPropertyOp45
 70
     1
102
RTVSPropertyOp46
 70
     1
102
RTVSPropertyOp47
 70
     1
102
RTVSPropertyOp48
 70
     1
102
RTVSPropertyOp49
 70
     1
102
RTVSPropertyOp50
 70
     1
102
RTVSPropertyOp51
 70
     0
102
RTVSPropertyOp52
 70
     0
102
RTVSPropertyOp53
 70
     1
102
RTVSPropertyOp54
 70
     1
102
RTVSPropertyOp55
 70
     1
102
RTVSPropertyOp56
 70
     1
102
RTVSPropertyOp57
 70
     1
102
RTVSPost2010Prop28
280
     0
102
RTVSPost2010PropOp28
 70
     1
102
RTVSPost2010Prop29
280
     1
102
RTVSPost2010PropOp29
 70
     1
102
RTVSPost2010Prop30
280
     1
102
RTVSPost2010PropOp30
 70
     1
102
RTVSPost2010Prop31
280
     0
102
RTVSPost2010PropOp31
 70
     1
102
RTVSPost2010Prop32
280
     0
102
RTVSPost2010PropOp32
 70
     1
102
RTVSPost2010Prop33
280
     0
102
RTVSPost2010PropOp33
 70
     1
102
RTVSPost2010Prop34
280
     0
102
RTVSPost2010PropOp34
 70
     1
102
RTVSPost2010Prop35
280
     0
102
RTVSPost2010PropOp35
 70
     1
102
RTVSPost2010Prop36
280
     0
102
RTVSPost2010PropOp36
 70
     1
102
RTVSPost2010Prop37
 90
       50
102
RTVSPost2010PropOp37
 70
     1
102
RTVSPost2010Prop38
140
0.0
102
RTVSPost2010PropOp38
 70
     1
102
RTVSPost2010Prop39
140
1.0
102
RTVSPost2010PropOp39
 70
     1
102
RTVSPost2010Prop40
 90
        0
102
RTVSPost2010PropOp40
 70
     1
102
RTVSPost2010Prop41ColorIndex
 90
       18
102
RTVSPost2010Prop41ColorRGB
 90
        0
102
RTVSPost2010PropOp41
 70
     1
102
RTVSPost2010Prop42
 90
       50
102
RTVSPost2010PropOp42
 70
     1
102
RTVSPost2010Prop43
 90
        3
102
RTVSPost2010PropOp43
 70
     1
102
RTVSPost2010Prop44ColorIndex
 90
        5
102
RTVSPost2010Prop44ColorRGB
 90
      255
102
RTVSPost2010PropOp44
 70
     1
102
RTVSPost2010Prop45
280
     0
102
RTVSPost2010PropOp45
 70
     1
102
RTVSPost2010Prop46
 90
       50
102
RTVSPost2010PropOp46
 70
     1
102
RTVSPost2010Prop47
 90
       50
102
RTVSPost2010PropOp47
 70
     1
102
RTVSPost2010Prop48
 90
       50
102
RTVSPost2010PropOp48
 70
     1
102
RTVSPost2010Prop49
280
     0
102
RTVSPost2010PropOp49
 70
     1
102
RTVSPost2010Prop50
 90
       50
102
RTVSPost2010PropOp50
 70
     1
102
RTVSPost2010Prop51ColorIndex
 90
      256
102
RTVSPost2010Prop51ColorRGB
 90
-16777216
102
RTVSPost2010PropOp51
 70
     0
102
RTVSPost2010Prop52
140
1.0
102
RTVSPost2010PropOp52
 70
     0
102
RTVSPost2010Prop53
 90
        2
102
RTVSPost2010PropOp53
 70
     1
102
RTVSPost2010Prop54
  1
strokes_ogs.tif
102
RTVSPost2010PropOp54
 70
     1
102
RTVSPost2010Prop55
280
     0
102
RTVSPost2010PropOp55
 70
     1
102
RTVSPost2010Prop56
140
1.0
102
RTVSPost2010PropOp56
 70
     1
102
RTVSPost2010Prop57
140
1.0
102
RTVSPost2010PropOp57
 70
     1
  0
XRECORD
  5
255
102
{ACAD_REACTORS
330
254
102
}
330
254
100
AcDbXrecord
280
     1
102
RTVSPropertyOp0
 70
     1
102
RTVSPropertyOp1
 70
     1
102
RTVSPropertyOp2
 70
     1
102
RTVSPropertyOp3
 70
     1
102
RTVSPropertyOp4
 70
     1
102
RTVSPropertyOp5
 70
     1
102
RTVSPropertyOp6
 70
     1
102
RTVSPropertyOp7
 70
     1
102
RTVSPropertyOp8
 70
     1
102
RTVSPropertyOp9
 70
     1
102
RTVSPropertyOp10
 70
     1
102
RTVSPropertyOp11
 70
     1
102
RTVSPropertyOp12
 70
     1
102
RTVSPropertyOp13
 70
     1
102
RTVSPropertyOp14
 70
     1
102
RTVSPropertyOp15
 70
     1
102
RTVSPropertyOp16
 70
     1
102
RTVSPropertyOp17
 70
     1
102
RTVSPropertyOp18
 70
     1
102
RTVSPropertyOp19
 70
     1
102
RTVSPropertyOp20
 70
     1
102
RTVSPropertyOp21
 70
     1
102
RTVSPropertyOp22
 70
     1
102
RTVSPropertyOp23
 70
     1
102
RTVSPropertyOp24
 70
     1
102
RTVSPropertyOp25
 70
     1
102
RTVSPropertyOp26
 70
     1
102
RTVSPropertyOp27
 70
     1
102
RTVSPropertyOp28
 70
     1
102
RTVSPropertyOp29
 70
     1
102
RTVSPropertyOp30
 70
     1
102
RTVSPropertyOp31
 70
     1
102
RTVSPropertyOp32
 70
     1
102
RTVSPropertyOp33
 70
     1
102
RTVSPropertyOp34
 70
     1
102
RTVSPropertyOp35
 70
     1
102
RTVSPropertyOp36
 70
     1
102
RTVSPropertyOp37
 70
     1
102
RTVSPropertyOp38
 70
     1
102
RTVSPropertyOp39
 70
     1
102
RTVSPropertyOp40
 70
     1
102
RTVSPropertyOp41
 70
     1
102
RTVSPropertyOp42
 70
     1
102
RTVSPropertyOp43
 70
     1
102
RTVSPropertyOp44
 70
     1
102
RTVSPropertyOp45
 70
     1
102
RTVSPropertyOp46
 70
     1
102
RTVSPropertyOp47
 70
     1
102
RTVSPropertyOp48
 70
     1
102
RTVSPropertyOp49
 70
     1
102
RTVSPropertyOp50
 70
     1
102
RTVSPropertyOp51
 70
     0
102
RTVSPropertyOp52
 70
     0
102
RTVSPropertyOp53
 70
     1
102
RTVSPropertyOp54
 70
     1
102
RTVSPropertyOp55
 70
     1
102
RTVSPropertyOp56
 70
     1
102
RTVSPropertyOp57
 70
     1
102
RTVSPost2010Prop28
280
     0
102
RTVSPost2010PropOp28
 70
     1
102
RTVSPost2010Prop29
280
     1
102
RTVSPost2010PropOp29
 70
     1
102
RTVSPost2010Prop30
280
     1
102
RTVSPost2010PropOp30
 70
     1
102
RTVSPost2010Prop31
280
     0
102
RTVSPost2010PropOp31
 70
     1
102
RTVSPost2010Prop32
280
     0
102
RTVSPost2010PropOp32
 70
     1
102
RTVSPost2010Prop33
280
     0
102
RTVSPost2010PropOp33
 70
     1
102
RTVSPost2010Prop34
280
     0
102
RTVSPost2010PropOp34
 70
     1
102
RTVSPost2010Prop35
280
     0
102
RTVSPost2010PropOp35
 70
     1
102
RTVSPost2010Prop36
280
     0
102
RTVSPost2010PropOp36
 70
     1
102
RTVSPost2010Prop37
 90
       50
102
RTVSPost2010PropOp37
 70
     1
102
RTVSPost2010Prop38
140
0.0
102
RTVSPost2010PropOp38
 70
     1
102
RTVSPost2010Prop39
140
1.0
102
RTVSPost2010PropOp39
 70
     1
102
RTVSPost2010Prop40
 90
        0
102
RTVSPost2010PropOp40
 70
     1
102
RTVSPost2010Prop41ColorIndex
 90
       18
102
RTVSPost2010Prop41ColorRGB
 90
        0
102
RTVSPost2010PropOp41
 70
     1
102
RTVSPost2010Prop42
 90
       50
102
RTVSPost2010PropOp42
 70
     1
102
RTVSPost2010Prop43
 90
        3
102
RTVSPost2010PropOp43
 70
     1
102
RTVSPost2010Prop44ColorIndex
 90
        5
102
RTVSPost2010Prop44ColorRGB
 90
      255
102
RTVSPost2010PropOp44
 70
     1
102
RTVSPost2010Prop45
280
     0
102
RTVSPost2010PropOp45
 70
     1
102
RTVSPost2010Prop46
 90
       50
102
RTVSPost2010PropOp46
 70
     1
102
RTVSPost2010Prop47
 90
       50
102
RTVSPost2010PropOp47
 70
     1
102
RTVSPost2010Prop48
 90
       50
102
RTVSPost2010PropOp48
 70
     1
102
RTVSPost2010Prop49
280
     0
102
RTVSPost2010PropOp49
 70
     1
102
RTVSPost2010Prop50
 90
       50
102
RTVSPost2010PropOp50
 70
     1
102
RTVSPost2010Prop51ColorIndex
 90
      256
102
RTVSPost2010Prop51ColorRGB
 90
-16777216
102
RTVSPost2010PropOp51
 70
     0
102
RTVSPost2010Prop52
140
1.0
102
RTVSPost2010PropOp52
 70
     0
102
RTVSPost2010Prop53
 90
        2
102
RTVSPost2010PropOp53
 70
     1
102
RTVSPost2010Prop54
  1
strokes_ogs.tif
102
RTVSPost2010PropOp54
 70
     1
102
RTVSPost2010Prop55
280
     0
102
RTVSPost2010PropOp55
 70
     1
102
RTVSPost2010Prop56
140
1.0
102
RTVSPost2010PropOp56
 70
     1
102
RTVSPost2010Prop57
140
1.0
102
RTVSPost2010PropOp57
 70
     1
  0
XRECORD
  5
245
102
{ACAD_REACTORS
330
244
102
}
330
244
100
AcDbXrecord
280
     1
102
RTVSPropertyOp0
 70
     1
102
RTVSPropertyOp1
 70
     1
102
RTVSPropertyOp2
 70
     1
102
RTVSPropertyOp3
 70
     1
102
RTVSPropertyOp4
 70
     1
102
RTVSPropertyOp5
 70
     1
102
RTVSPropertyOp6
 70
     1
102
RTVSPropertyOp7
 70
     1
102
RTVSPropertyOp8
 70
     1
102
RTVSPropertyOp9
 70
     1
102
RTVSPropertyOp10
 70
     1
102
RTVSPropertyOp11
 70
     1
102
RTVSPropertyOp12
 70
     1
102
RTVSPropertyOp13
 70
     1
102
RTVSPropertyOp14
 70
     1
102
RTVSPropertyOp15
 70
     1
102
RTVSPropertyOp16
 70
     1
102
RTVSPropertyOp17
 70
     1
102
RTVSPropertyOp18
 70
     1
102
RTVSPropertyOp19
 70
     1
102
RTVSPropertyOp20
 70
     1
102
RTVSPropertyOp21
 70
     1
102
RTVSPropertyOp22
 70
     1
102
RTVSPropertyOp23
 70
     1
102
RTVSPropertyOp24
 70
     1
102
RTVSPropertyOp25
 70
     1
102
RTVSPropertyOp26
 70
     1
102
RTVSPropertyOp27
 70
     1
102
RTVSPropertyOp28
 70
     1
102
RTVSPropertyOp29
 70
     1
102
RTVSPropertyOp30
 70
     1
102
RTVSPropertyOp31
 70
     1
102
RTVSPropertyOp32
 70
     1
102
RTVSPropertyOp33
 70
     1
102
RTVSPropertyOp34
 70
     1
102
RTVSPropertyOp35
 70
     1
102
RTVSPropertyOp36
 70
     1
102
RTVSPropertyOp37
 70
     1
102
RTVSPropertyOp38
 70
     1
102
RTVSPropertyOp39
 70
     1
102
RTVSPropertyOp40
 70
     1
102
RTVSPropertyOp41
 70
     1
102
RTVSPropertyOp42
 70
     1
102
RTVSPropertyOp43
 70
     1
102
RTVSPropertyOp44
 70
     1
102
RTVSPropertyOp45
 70
     1
102
RTVSPropertyOp46
 70
     1
102
RTVSPropertyOp47
 70
     1
102
RTVSPropertyOp48
 70
     1
102
RTVSPropertyOp49
 70
     1
102
RTVSPropertyOp50
 70
     1
102
RTVSPropertyOp51
 70
     0
102
RTVSPropertyOp52
 70
     0
102
RTVSPropertyOp53
 70
     1
102
RTVSPropertyOp54
 70
     1
102
RTVSPropertyOp55
 70
     1
102
RTVSPropertyOp56
 70
     1
102
RTVSPropertyOp57
 70
     1
102
RTVSPost2010Prop28
280
     0
102
RTVSPost2010PropOp28
 70
     1
102
RTVSPost2010Prop29
280
     1
102
RTVSPost2010PropOp29
 70
     1
102
RTVSPost2010Prop30
280
     1
102
RTVSPost2010PropOp30
 70
     1
102
RTVSPost2010Prop31
280
     0
102
RTVSPost2010PropOp31
 70
     1
102
RTVSPost2010Prop32
280
     0
102
RTVSPost2010PropOp32
 70
     1
102
RTVSPost2010Prop33
280
     0
102
RTVSPost2010PropOp33
 70
     1
102
RTVSPost2010Prop34
280
     0
102
RTVSPost2010PropOp34
 70
     1
102
RTVSPost2010Prop35
280
     0
102
RTVSPost2010PropOp35
 70
     1
102
RTVSPost2010Prop36
280
     0
102
RTVSPost2010PropOp36
 70
     1
102
RTVSPost2010Prop37
 90
       50
102
RTVSPost2010PropOp37
 70
     1
102
RTVSPost2010Prop38
140
0.0
102
RTVSPost2010PropOp38
 70
     1
102
RTVSPost2010Prop39
140
1.0
102
RTVSPost2010PropOp39
 70
     1
102
RTVSPost2010Prop40
 90
        0
102
RTVSPost2010PropOp40
 70
     1
102
RTVSPost2010Prop41ColorIndex
 90
       18
102
RTVSPost2010Prop41ColorRGB
 90
        0
102
RTVSPost2010PropOp41
 70
     1
102
RTVSPost2010Prop42
 90
       50
102
RTVSPost2010PropOp42
 70
     1
102
RTVSPost2010Prop43
 90
        3
102
RTVSPost2010PropOp43
 70
     1
102
RTVSPost2010Prop44ColorIndex
 90
        5
102
RTVSPost2010Prop44ColorRGB
 90
      255
102
RTVSPost2010PropOp44
 70
     1
102
RTVSPost2010Prop45
280
     0
102
RTVSPost2010PropOp45
 70
     1
102
RTVSPost2010Prop46
 90
       50
102
RTVSPost2010PropOp46
 70
     1
102
RTVSPost2010Prop47
 90
       50
102
RTVSPost2010PropOp47
 70
     1
102
RTVSPost2010Prop48
 90
       50
102
RTVSPost2010PropOp48
 70
     1
102
RTVSPost2010Prop49
280
     0
102
RTVSPost2010PropOp49
 70
     1
102
RTVSPost2010Prop50
 90
       50
102
RTVSPost2010PropOp50
 70
     1
102
RTVSPost2010Prop51ColorIndex
 90
      256
102
RTVSPost2010Prop51ColorRGB
 90
-16777216
102
RTVSPost2010PropOp51
 70
     0
102
RTVSPost2010Prop52
140
1.0
102
RTVSPost2010PropOp52
 70
     0
102
RTVSPost2010Prop53
 90
        2
102
RTVSPost2010PropOp53
 70
     1
102
RTVSPost2010Prop54
  1
strokes_ogs.tif
102
RTVSPost2010PropOp54
 70
     1
102
RTVSPost2010Prop55
280
     0
102
RTVSPost2010PropOp55
 70
     1
102
RTVSPost2010Prop56
140
1.0
102
RTVSPost2010PropOp56
 70
     1
102
RTVSPost2010Prop57
140
1.0
102
RTVSPost2010PropOp57
 70
     1
  0
XRECORD
  5
237
102
{ACAD_REACTORS
330
236
102
}
330
236
100
AcDbXrecord
280
     1
102
RTVSPropertyOp0
 70
     1
102
RTVSPropertyOp1
 70
     1
102
RTVSPropertyOp2
 70
     1
102
RTVSPropertyOp3
 70
     1
102
RTVSPropertyOp4
 70
     1
102
RTVSPropertyOp5
 70
     1
102
RTVSPropertyOp6
 70
     1
102
RTVSPropertyOp7
 70
     1
102
RTVSPropertyOp8
 70
     1
102
RTVSPropertyOp9
 70
     1
102
RTVSPropertyOp10
 70
     1
102
RTVSPropertyOp11
 70
     1
102
RTVSPropertyOp12
 70
     1
102
RTVSPropertyOp13
 70
     1
102
RTVSPropertyOp14
 70
     1
102
RTVSPropertyOp15
 70
     1
102
RTVSPropertyOp16
 70
     1
102
RTVSPropertyOp17
 70
     1
102
RTVSPropertyOp18
 70
     1
102
RTVSPropertyOp19
 70
     1
102
RTVSPropertyOp20
 70
     1
102
RTVSPropertyOp21
 70
     1
102
RTVSPropertyOp22
 70
     1
102
RTVSPropertyOp23
 70
     1
102
RTVSPropertyOp24
 70
     1
102
RTVSPropertyOp25
 70
     1
102
RTVSPropertyOp26
 70
     1
102
RTVSPropertyOp27
 70
     1
102
RTVSPropertyOp28
 70
     1
102
RTVSPropertyOp29
 70
     1
102
RTVSPropertyOp30
 70
     1
102
RTVSPropertyOp31
 70
     1
102
RTVSPropertyOp32
 70
     1
102
RTVSPropertyOp33
 70
     1
102
RTVSPropertyOp34
 70
     1
102
RTVSPropertyOp35
 70
     1
102
RTVSPropertyOp36
 70
     1
102
RTVSPropertyOp37
 70
     1
102
RTVSPropertyOp38
 70
     1
102
RTVSPropertyOp39
 70
     1
102
RTVSPropertyOp40
 70
     1
102
RTVSPropertyOp41
 70
     1
102
RTVSPropertyOp42
 70
     1
102
RTVSPropertyOp43
 70
     1
102
RTVSPropertyOp44
 70
     1
102
RTVSPropertyOp45
 70
     1
102
RTVSPropertyOp46
 70
     1
102
RTVSPropertyOp47
 70
     1
102
RTVSPropertyOp48
 70
     1
102
RTVSPropertyOp49
 70
     1
102
RTVSPropertyOp50
 70
     1
102
RTVSPropertyOp51
 70
     0
102
RTVSPropertyOp52
 70
     0
102
RTVSPropertyOp53
 70
     1
102
RTVSPropertyOp54
 70
     1
102
RTVSPropertyOp55
 70
     1
102
RTVSPropertyOp56
 70
     1
102
RTVSPropertyOp57
 70
     1
102
RTVSPost2010Prop28
280
     0
102
RTVSPost2010PropOp28
 70
     1
102
RTVSPost2010Prop29
280
     1
102
RTVSPost2010PropOp29
 70
     1
102
RTVSPost2010Prop30
280
     1
102
RTVSPost2010PropOp30
 70
     1
102
RTVSPost2010Prop31
280
     0
102
RTVSPost2010PropOp31
 70
     1
102
RTVSPost2010Prop32
280
     0
102
RTVSPost2010PropOp32
 70
     1
102
RTVSPost2010Prop33
280
     0
102
RTVSPost2010PropOp33
 70
     1
102
RTVSPost2010Prop34
280
     0
102
RTVSPost2010PropOp34
 70
     1
102
RTVSPost2010Prop35
280
     0
102
RTVSPost2010PropOp35
 70
     1
102
RTVSPost2010Prop36
280
     0
102
RTVSPost2010PropOp36
 70
     1
102
RTVSPost2010Prop37
 90
       50
102
RTVSPost2010PropOp37
 70
     1
102
RTVSPost2010Prop38
140
0.0
102
RTVSPost2010PropOp38
 70
     1
102
RTVSPost2010Prop39
140
1.0
102
RTVSPost2010PropOp39
 70
     1
102
RTVSPost2010Prop40
 90
        0
102
RTVSPost2010PropOp40
 70
     1
102
RTVSPost2010Prop41ColorIndex
 90
       18
102
RTVSPost2010Prop41ColorRGB
 90
        0
102
RTVSPost2010PropOp41
 70
     1
102
RTVSPost2010Prop42
 90
       50
102
RTVSPost2010PropOp42
 70
     1
102
RTVSPost2010Prop43
 90
        3
102
RTVSPost2010PropOp43
 70
     1
102
RTVSPost2010Prop44ColorIndex
 90
        5
102
RTVSPost2010Prop44ColorRGB
 90
      255
102
RTVSPost2010PropOp44
 70
     1
102
RTVSPost2010Prop45
280
     0
102
RTVSPost2010PropOp45
 70
     1
102
RTVSPost2010Prop46
 90
       50
102
RTVSPost2010PropOp46
 70
     1
102
RTVSPost2010Prop47
 90
       50
102
RTVSPost2010PropOp47
 70
     1
102
RTVSPost2010Prop48
 90
       50
102
RTVSPost2010PropOp48
 70
     1
102
RTVSPost2010Prop49
280
     0
102
RTVSPost2010PropOp49
 70
     1
102
RTVSPost2010Prop50
 90
       50
102
RTVSPost2010PropOp50
 70
     1
102
RTVSPost2010Prop51ColorIndex
 90
      256
102
RTVSPost2010Prop51ColorRGB
 90
-16777216
102
RTVSPost2010PropOp51
 70
     0
102
RTVSPost2010Prop52
140
1.0
102
RTVSPost2010PropOp52
 70
     0
102
RTVSPost2010Prop53
 90
        2
102
RTVSPost2010PropOp53
 70
     1
102
RTVSPost2010Prop54
  1
strokes_ogs.tif
102
RTVSPost2010PropOp54
 70
     1
102
RTVSPost2010Prop55
280
     0
102
RTVSPost2010PropOp55
 70
     1
102
RTVSPost2010Prop56
140
1.0
102
RTVSPost2010PropOp56
 70
     1
102
RTVSPost2010Prop57
140
1.0
102
RTVSPost2010PropOp57
 70
     1
  0
XRECORD
  5
257
102
{ACAD_REACTORS
330
256
102
}
330
256
100
AcDbXrecord
280
     1
102
RTVSPropertyOp0
 70
     1
102
RTVSPropertyOp1
 70
     1
102
RTVSPropertyOp2
 70
     1
102
RTVSPropertyOp3
 70
     1
102
RTVSPropertyOp4
 70
     1
102
RTVSPropertyOp5
 70
     1
102
RTVSPropertyOp6
 70
     1
102
RTVSPropertyOp7
 70
     1
102
RTVSPropertyOp8
 70
     1
102
RTVSPropertyOp9
 70
     1
102
RTVSPropertyOp10
 70
     1
102
RTVSPropertyOp11
 70
     1
102
RTVSPropertyOp12
 70
     1
102
RTVSPropertyOp13
 70
     1
102
RTVSPropertyOp14
 70
     1
102
RTVSPropertyOp15
 70
     1
102
RTVSPropertyOp16
 70
     1
102
RTVSPropertyOp17
 70
     1
102
RTVSPropertyOp18
 70
     1
102
RTVSPropertyOp19
 70
     1
102
RTVSPropertyOp20
 70
     1
102
RTVSPropertyOp21
 70
     1
102
RTVSPropertyOp22
 70
     1
102
RTVSPropertyOp23
 70
     1
102
RTVSPropertyOp24
 70
     1
102
RTVSPropertyOp25
 70
     1
102
RTVSPropertyOp26
 70
     1
102
RTVSPropertyOp27
 70
     1
102
RTVSPropertyOp28
 70
     1
102
RTVSPropertyOp29
 70
     1
102
RTVSPropertyOp30
 70
     1
102
RTVSPropertyOp31
 70
     1
102
RTVSPropertyOp32
 70
     1
102
RTVSPropertyOp33
 70
     1
102
RTVSPropertyOp34
 70
     1
102
RTVSPropertyOp35
 70
     1
102
RTVSPropertyOp36
 70
     1
102
RTVSPropertyOp37
 70
     1
102
RTVSPropertyOp38
 70
     1
102
RTVSPropertyOp39
 70
     1
102
RTVSPropertyOp40
 70
     1
102
RTVSPropertyOp41
 70
     1
102
RTVSPropertyOp42
 70
     1
102
RTVSPropertyOp43
 70
     1
102
RTVSPropertyOp44
 70
     1
102
RTVSPropertyOp45
 70
     1
102
RTVSPropertyOp46
 70
     1
102
RTVSPropertyOp47
 70
     1
102
RTVSPropertyOp48
 70
     1
102
RTVSPropertyOp49
 70
     1
102
RTVSPropertyOp50
 70
     1
102
RTVSPropertyOp51
 70
     0
102
RTVSPropertyOp52
 70
     0
102
RTVSPropertyOp53
 70
     1
102
RTVSPropertyOp54
 70
     1
102
RTVSPropertyOp55
 70
     1
102
RTVSPropertyOp56
 70
     1
102
RTVSPropertyOp57
 70
     1
102
RTVSPost2010Prop28
280
     0
102
RTVSPost2010PropOp28
 70
     1
102
RTVSPost2010Prop29
280
     1
102
RTVSPost2010PropOp29
 70
     1
102
RTVSPost2010Prop30
280
     1
102
RTVSPost2010PropOp30
 70
     1
102
RTVSPost2010Prop31
280
     0
102
RTVSPost2010PropOp31
 70
     1
102
RTVSPost2010Prop32
280
     0
102
RTVSPost2010PropOp32
 70
     1
102
RTVSPost2010Prop33
280
     0
102
RTVSPost2010PropOp33
 70
     1
102
RTVSPost2010Prop34
280
     0
102
RTVSPost2010PropOp34
 70
     1
102
RTVSPost2010Prop35
280
     0
102
RTVSPost2010PropOp35
 70
     1
102
RTVSPost2010Prop36
280
     0
102
RTVSPost2010PropOp36
 70
     1
102
RTVSPost2010Prop37
 90
       50
102
RTVSPost2010PropOp37
 70
     1
102
RTVSPost2010Prop38
140
0.0
102
RTVSPost2010PropOp38
 70
     1
102
RTVSPost2010Prop39
140
1.0
102
RTVSPost2010PropOp39
 70
     1
102
RTVSPost2010Prop40
 90
        0
102
RTVSPost2010PropOp40
 70
     1
102
RTVSPost2010Prop41ColorIndex
 90
       18
102
RTVSPost2010Prop41ColorRGB
 90
        0
102
RTVSPost2010PropOp41
 70
     1
102
RTVSPost2010Prop42
 90
       50
102
RTVSPost2010PropOp42
 70
     1
102
RTVSPost2010Prop43
 90
        3
102
RTVSPost2010PropOp43
 70
     1
102
RTVSPost2010Prop44ColorIndex
 90
        5
102
RTVSPost2010Prop44ColorRGB
 90
      255
102
RTVSPost2010PropOp44
 70
     1
102
RTVSPost2010Prop45
280
     0
102
RTVSPost2010PropOp45
 70
     1
102
RTVSPost2010Prop46
 90
       50
102
RTVSPost2010PropOp46
 70
     1
102
RTVSPost2010Prop47
 90
       50
102
RTVSPost2010PropOp47
 70
     1
102
RTVSPost2010Prop48
 90
       50
102
RTVSPost2010PropOp48
 70
     1
102
RTVSPost2010Prop49
280
     0
102
RTVSPost2010PropOp49
 70
     1
102
RTVSPost2010Prop50
 90
       50
102
RTVSPost2010PropOp50
 70
     1
102
RTVSPost2010Prop51ColorIndex
 90
      256
102
RTVSPost2010Prop51ColorRGB
 90
-16777216
102
RTVSPost2010PropOp51
 70
     0
102
RTVSPost2010Prop52
140
1.0
102
RTVSPost2010PropOp52
 70
     0
102
RTVSPost2010Prop53
 90
        2
102
RTVSPost2010PropOp53
 70
     1
102
RTVSPost2010Prop54
  1
strokes_ogs.tif
102
RTVSPost2010PropOp54
 70
     1
102
RTVSPost2010Prop55
280
     0
102
RTVSPost2010PropOp55
 70
     1
102
RTVSPost2010Prop56
140
1.0
102
RTVSPost2010PropOp56
 70
     1
102
RTVSPost2010Prop57
140
1.0
102
RTVSPost2010PropOp57
 70
     1
  0
ENDSEC
  0
EOF
