  0
SECTION
  2
HEADER
  9
$ACADVER
  1
AC1018
  9
$ACADMAINTVER
 70
     0
  9
$DWGCODEPAGE
  3
ANSI_932
  9
$INSBASE
 10
0.0
 20
0.0
 30
0.0
  9
$EXTMIN
 10
-1050.0
 20
-742.5
 30
0.0
  9
$EXTMAX
 10
1050.0
 20
742.5
 30
0.0
  9
$LIMMIN
 10
-1050.0
 20
-742.5
  9
$LIMMAX
 10
1050.0
 20
742.5
  9
$ORTHOMODE
 70
     0
  9
$REGENMODE
 70
     1
  9
$FILLMODE
 70
     1
  9
$QTEXTMODE
 70
     0
  9
$MIRRTEXT
 70
     1
  9
$LTSCALE
 40
5.0
  9
$ATTMODE
 70
     1
  9
$TEXTSIZE
 40
2.5
  9
$TRACEWID
 40
1.0
  9
$TEXTSTYLE
  7
Standard
  9
$CLAYER
  8
0
  9
$CELTYPE
  6
ByLayer
  9
$CECOLOR
 62
   256
  9
$CELTSCALE
 40
1.0
  9
$DISPSILH
 70
     0
  9
$DIMSCALE
 40
1.0
  9
$DIMASZ
 40
2.5
  9
$DIMEXO
 40
0.625
  9
$DIMDLI
 40
3.75
  9
$DIMRND
 40
0.0
  9
$DIMDLE
 40
0.0
  9
$DIMEXE
 40
1.25
  9
$DIMTP
 40
0.0
  9
$DIMTM
 40
0.0
  9
$DIMTXT
 40
2.5
  9
$DIMCEN
 40
2.5
  9
$DIMTSZ
 40
0.0
  9
$DIMTOL
 70
     0
  9
$DIMLIM
 70
     0
  9
$DIMTIH
 70
     0
  9
$DIMTOH
 70
     0
  9
$DIMSE1
 70
     0
  9
$DIMSE2
 70
     0
  9
$DIMTAD
 70
     1
  9
$DIMZIN
 70
     8
  9
$DIMBLK
  1

  9
$DIMASO
 70
     1
  9
$DIMSHO
 70
     1
  9
$DIMPOST
  1

  9
$DIMAPOST
  1

  9
$DIMALT
 70
     0
  9
$DIMALTD
 70
     3
  9
$DIMALTF
 40
0.03937007874016
  9
$DIMLFAC
 40
1.0
  9
$DIMTOFL
 70
     1
  9
$DIMTVP
 40
0.0
  9
$DIMTIX
 70
     0
  9
$DIMSOXD
 70
     0
  9
$DIMSAH
 70
     0
  9
$DIMBLK1
  1

  9
$DIMBLK2
  1

  9
$DIMSTYLE
  2
ISO-25
  9
$DIMCLRD
 70
     0
  9
$DIMCLRE
 70
     0
  9
$DIMCLRT
 70
     0
  9
$DIMTFAC
 40
1.0
  9
$DIMGAP
 40
0.625
  9
$DIMJUST
 70
     0
  9
$DIMSD1
 70
     0
  9
$DIMSD2
 70
     0
  9
$DIMTOLJ
 70
     0
  9
$DIMTZIN
 70
     8
  9
$DIMALTZ
 70
     0
  9
$DIMALTTZ
 70
     0
  9
$DIMUPT
 70
     0
  9
$DIMDEC
 70
     2
  9
$DIMTDEC
 70
     2
  9
$DIMALTU
 70
     2
  9
$DIMALTTD
 70
     3
  9
$DIMTXSTY
  7
Standard
  9
$DIMAUNIT
 70
     0
  9
$DIMADEC
 70
     0
  9
$DIMALTRND
 40
0.0
  9
$DIMAZIN
 70
     0
  9
$DIMDSEP
 70
    44
  9
$DIMATFIT
 70
     3
  9
$DIMFRAC
 70
     0
  9
$DIMLDRBLK
  1

  9
$DIMLUNIT
 70
     2
  9
$DIMLWD
 70
    -2
  9
$DIMLWE
 70
    -2
  9
$DIMTMOVE
 70
     0
  9
$LUNITS
 70
     2
  9
$LUPREC
 70
     4
  9
$SKETCHINC
 40
1.0
  9
$FILLETRAD
 40
10.0
  9
$AUNITS
 70
     0
  9
$AUPREC
 70
     0
  9
$MENU
  1
.
  9
$ELEVATION
 40
0.0
  9
$PELEVATION
 40
0.0
  9
$THICKNESS
 40
0.0
  9
$LIMCHECK
 70
     0
  9
$CHAMFERA
 40
0.0
  9
$CHAMFERB
 40
0.0
  9
$CHAMFERC
 40
0.0
  9
$CHAMFERD
 40
0.0
  9
$SKPOLY
 70
     0
  9
$TDCREATE
 40
2459475.712034965
  9
$TDUCREATE
 40
2459475.337034965
  9
$TDUPDATE
 40
2459475.712035093
  9
$TDUUPDATE
 40
2459475.337035093
  9
$TDINDWG
 40
0.0000000116
  9
$TDUSRTIMER
 40
0.0000000116
  9
$USRTIMER
 70
     1
  9
$ANGBASE
 50
0.0
  9
$ANGDIR
 70
     0
  9
$PDMODE
 70
     0
  9
$PDSIZE
 40
0.0
  9
$PLINEWID
 40
0.0
  9
$SPLFRAME
 70
     0
  9
$SPLINETYPE
 70
     6
  9
$SPLINESEGS
 70
     8
  9
$HANDSEED
  5
33C
  9
$SURFTAB1
 70
     6
  9
$SURFTAB2
 70
     6
  9
$SURFTYPE
 70
     6
  9
$SURFU
 70
     6
  9
$SURFV
 70
     6
  9
$UCSBASE
  2

  9
$UCSNAME
  2

  9
$UCSORG
 10
0.0
 20
0.0
 30
0.0
  9
$UCSXDIR
 10
1.0
 20
0.0
 30
0.0
  9
$UCSYDIR
 10
0.0
 20
1.0
 30
0.0
  9
$UCSORTHOREF
  2

  9
$UCSORTHOVIEW
 70
     0
  9
$UCSORGTOP
 10
0.0
 20
0.0
 30
0.0
  9
$UCSORGBOTTOM
 10
0.0
 20
0.0
 30
0.0
  9
$UCSORGLEFT
 10
0.0
 20
0.0
 30
0.0
  9
$UCSORGRIGHT
 10
0.0
 20
0.0
 30
0.0
  9
$UCSORGFRONT
 10
0.0
 20
0.0
 30
0.0
  9
$UCSORGBACK
 10
0.0
 20
0.0
 30
0.0
  9
$PUCSBASE
  2

  9
$PUCSNAME
  2

  9
$PUCSORG
 10
0.0
 20
0.0
 30
0.0
  9
$PUCSXDIR
 10
1.0
 20
0.0
 30
0.0
  9
$PUCSYDIR
 10
0.0
 20
1.0
 30
0.0
  9
$PUCSORTHOREF
  2

  9
$PUCSORTHOVIEW
 70
     0
  9
$PUCSORGTOP
 10
0.0
 20
0.0
 30
0.0
  9
$PUCSORGBOTTOM
 10
0.0
 20
0.0
 30
0.0
  9
$PUCSORGLEFT
 10
0.0
 20
0.0
 30
0.0
  9
$PUCSORGRIGHT
 10
0.0
 20
0.0
 30
0.0
  9
$PUCSORGFRONT
 10
0.0
 20
0.0
 30
0.0
  9
$PUCSORGBACK
 10
0.0
 20
0.0
 30
0.0
  9
$USERI1
 70
     0
  9
$USERI2
 70
     0
  9
$USERI3
 70
     0
  9
$USERI4
 70
     0
  9
$USERI5
 70
     0
  9
$USERR1
 40
0.0
  9
$USERR2
 40
0.0
  9
$USERR3
 40
0.0
  9
$USERR4
 40
0.0
  9
$USERR5
 40
0.0
  9
$WORLDVIEW
 70
     1
  9
$SHADEDGE
 70
     3
  9
$SHADEDIF
 70
    70
  9
$TILEMODE
 70
     1
  9
$MAXACTVP
 70
    64
  9
$PINSBASE
 10
0.0
 20
0.0
 30
0.0
  9
$PLIMCHECK
 70
     0
  9
$PEXTMIN
 10
1.000000000000000E+20
 20
1.000000000000000E+20
 30
1.000000000000000E+20
  9
$PEXTMAX
 10
-1.000000000000000E+20
 20
-1.000000000000000E+20
 30
-1.000000000000000E+20
  9
$PLIMMIN
 10
0.0
 20
0.0
  9
$PLIMMAX
 10
420.0
 20
297.0
  9
$UNITMODE
 70
     0
  9
$VISRETAIN
 70
     1
  9
$PLINEGEN
 70
     0
  9
$PSLTSCALE
 70
     1
  9
$TREEDEPTH
 70
  3020
  9
$CMLSTYLE
  2
Standard
  9
$CMLJUST
 70
     0
  9
$CMLSCALE
 40
20.0
  9
$PROXYGRAPHICS
 70
     1
  9
$MEASUREMENT
 70
     1
  9
$CELWEIGHT
370
    -1
  9
$ENDCAPS
280
     0
  9
$JOINSTYLE
280
     0
  9
$LWDISPLAY
290
     0
  9
$INSUNITS
 70
     4
  9
$HYPERLINKBASE
  1

  9
$STYLESHEET
  1

  9
$XEDIT
290
     1
  9
$CEPSNTYPE
380
     0
  9
$PSTYLEMODE
290
     1
  9
$FINGERPRINTGUID
  2
{26C48402-9FC4-4E8A-B480-57C3568BABA3}
  9
$VERSIONGUID
  2
{FAEB1C32-E019-11D5-929B-00C0DF256EC4}
  9
$EXTNAMES
290
     1
  9
$PSVPSCALE
 40
0.0
  9
$OLESTARTUP
290
     0
  9
$SORTENTS
280
   127
  9
$INDEXCTL
280
     0
  9
$HIDETEXT
280
     1
  9
$XCLIPFRAME
290
     0
  9
$HALOGAP
280
     0
  9
$OBSCOLOR
 70
   257
  9
$OBSLTYPE
280
     0
  9
$INTERSECTIONDISPLAY
280
     0
  9
$INTERSECTIONCOLOR
 70
   257
  9
$DIMASSOC
280
     2
  9
$PROJECTNAME
  1

  0
ENDSEC
  0
SECTION
  2
CLASSES
  0
CLASS
  1
ACDBDICTIONARYWDFLT
  2
AcDbDictionaryWithDefault
  3
ObjectDBX Classes
 90
        0
 91
        4
280
     0
281
     0
  0
CLASS
  1
VISUALSTYLE
  2
AcDbVisualStyle
  3
ObjectDBX Classes
 90
     4095
 91
        4
280
     0
281
     0
  0
CLASS
  1
MATERIAL
  2
AcDbMaterial
  3
ObjectDBX Classes
 90
     1153
 91
        4
280
     0
281
     0
  0
CLASS
  1
SCALE
  2
AcDbScale
  3
ObjectDBX Classes
 90
     1153
 91
        4
280
     0
281
     0
  0
CLASS
  1
TABLESTYLE
  2
AcDbTableStyle
  3
ObjectDBX Classes
 90
     4095
 91
        4
280
     0
281
     0
  0
CLASS
  1
MLEADERSTYLE
  2
AcDbMLeaderStyle
  3
ACDB_MLEADERSTYLE_CLASS
 90
     4095
 91
        4
280
     0
281
     0
  0
CLASS
  1
SUN
  2
AcDbSun
  3
SCENEOE
 90
     1153
 91
        4
280
     0
281
     0
  0
CLASS
  1
DICTIONARYVAR
  2
AcDbDictionaryVar
  3
ObjectDBX Classes
 90
        0
 91
        4
280
     0
281
     0
  0
CLASS
  1
CELLSTYLEMAP
  2
AcDbCellStyleMap
  3
ObjectDBX Classes
 90
     1152
 91
        4
280
     0
281
     0
  0
ENDSEC
  0
SECTION
  2
TABLES
  0
TABLE
  2
VPORT
  5
8
102
{ACAD_XDICTIONARY
360
2F3
102
}
330
0
100
AcDbSymbolTable
 70
     1
  0
VPORT
  5
29
330
8
100
AcDbSymbolTableRecord
100
AcDbViewportTableRecord
  2
*Active
 70
     0
 10
0.0
 20
0.0
 11
1.0
 21
1.0
 12
0.0
 22
0.0
 13
0.0
 23
0.0
 14
10.0
 24
10.0
 15
10.0
 25
10.0
 16
0.0
 26
0.0
 36
1.0
 17
0.0
 27
0.0
 37
0.0
 40
1633.5
 41
1.414141414141414
 42
50.0
 43
0.0
 44
0.0
 50
0.0
 51
0.0
 71
     0
 72
 10000
 73
     1
 74
     3
 75
     0
 76
     0
 77
     0
 78
     0
281
     0
 65
     1
110
0.0
120
0.0
130
0.0
111
1.0
121
0.0
131
0.0
112
0.0
122
1.0
132
0.0
 79
     0
146
0.0
  0
ENDTAB
  0
TABLE
  2
LTYPE
  5
5
330
0
100
AcDbSymbolTable
 70
     3
  0
LTYPE
  5
14
330
5
100
AcDbSymbolTableRecord
100
AcDbLinetypeTableRecord
  2
ByBlock
 70
     0
  3

 72
    65
 73
     0
 40
0.0
  0
LTYPE
  5
15
330
5
100
AcDbSymbolTableRecord
100
AcDbLinetypeTableRecord
  2
ByLayer
 70
     0
  3

 72
    65
 73
     0
 40
0.0
  0
LTYPE
  5
16
330
5
100
AcDbSymbolTableRecord
100
AcDbLinetypeTableRecord
  2
Continuous
 70
     0
  3
Solid line
 72
    65
 73
     0
 40
0.0
  0
LTYPE
  5
6F
330
5
100
AcDbSymbolTableRecord
100
AcDbLinetypeTableRecord
  2
JWW_DASHED1
 70
     0
  3
-  --  --  --  --  --  --  --  -
 72
    65
 73
     2
 40
1.693333333333333
 49
0.8466666666666667
 74
     0
 49
-0.8466666666666667
 74
     0
  0
LTYPE
  5
70
330
5
100
AcDbSymbolTableRecord
100
AcDbLinetypeTableRecord
  2
JWW_CENTER1
 70
     0
  3
-----  --  ----------  --  -----
 72
    65
 73
     4
 40
6.773333333333333
 49
4.233333333333333
 74
     0
 49
-0.8466666666666667
 74
     0
 49
0.8466666666666667
 74
     0
 49
-0.8466666666666667
 74
     0
  0
ENDTAB
  0
TABLE
  2
LAYER
  5
2
330
0
100
AcDbSymbolTable
 70
     6
  0
LAYER
  5
10
330
2
100
AcDbSymbolTableRecord
100
AcDbLayerTableRecord
  2
0
 70
     0
 62
     7
  6
Continuous
370
    -3
390
F
  0
LAYER
  5
71
330
2
100
AcDbSymbolTableRecord
100
AcDbLayerTableRecord
  2
F-4ﾚｲﾔ
 70
     0
 62
     7
  6
Continuous
370
    -3
390
F
  0
LAYER
  5
72
330
2
100
AcDbSymbolTableRecord
100
AcDbLayerTableRecord
  2
F-5ﾚｲﾔ
 70
     0
 62
     7
  6
Continuous
370
    -3
390
F
  0
LAYER
  5
73
330
2
100
AcDbSymbolTableRecord
100
AcDbLayerTableRecord
  2
1-4ﾚｲﾔ
 70
     0
 62
     7
  6
Continuous
370
    -3
390
F
  0
LAYER
  5
74
330
2
100
AcDbSymbolTableRecord
100
AcDbLayerTableRecord
  2
1-2ﾚｲﾔ
 70
     0
 62
     7
  6
Continuous
370
    -3
390
F
  0
LAYER
  5
75
330
2
100
AcDbSymbolTableRecord
100
AcDbLayerTableRecord
  2
1-1ﾚｲﾔ
 70
     0
 62
     7
  6
Continuous
370
    -3
390
F
  0
ENDTAB
  0
TABLE
  2
STYLE
  5
3
330
0
100
AcDbSymbolTable
 70
     2
  0
STYLE
  5
11
330
3
100
AcDbSymbolTableRecord
100
AcDbTextStyleTableRecord
  2
Standard
 70
     0
 40
0.0
 41
1.0
 50
0.0
 71
     0
 42
2.5
  3
txt
  4

  0
STYLE
  5
6E
330
3
100
AcDbSymbolTableRecord
100
AcDbTextStyleTableRecord
  2
ＭＳ ゴシック
 70
     0
 40
1.0
 41
1.0
 50
0.0
 71
     0
 42
2.5
  3

  4

1001
ACAD
1000
MS Gothic
1071
    32817
  0
ENDTAB
  0
TABLE
  2
VIEW
  5
6
330
0
100
AcDbSymbolTable
 70
     0
  0
ENDTAB
  0
TABLE
  2
UCS
  5
7
330
0
100
AcDbSymbolTable
 70
     0
  0
ENDTAB
  0
TABLE
  2
APPID
  5
9
330
0
100
AcDbSymbolTable
 70
     2
  0
APPID
  5
12
330
9
100
AcDbSymbolTableRecord
100
AcDbRegAppTableRecord
  2
ACAD
 70
     0
  0
APPID
  5
332
330
9
100
AcDbSymbolTableRecord
100
AcDbRegAppTableRecord
  2
ACAD_MLEADERVER
 70
     0
  0
ENDTAB
  0
TABLE
  2
DIMSTYLE
  5
A
330
0
100
AcDbSymbolTable
 70
     1
100
AcDbDimStyleTable
  0
DIMSTYLE
105
27
330
A
100
AcDbSymbolTableRecord
100
AcDbDimStyleTableRecord
  2
ISO-25
 70
     0
 41
2.5
 42
0.625
 43
3.75
 44
1.25
 73
     0
 74
     0
 77
     1
 78
     8
140
2.5
141
2.5
143
0.03937007874016
147
0.625
171
     3
172
     1
178
     0
271
     2
272
     2
274
     3
278
    44
283
     0
284
     8
340
11
  0
ENDTAB
  0
TABLE
  2
BLOCK_RECORD
  5
1
330
0
100
AcDbSymbolTable
 70
     1
  0
BLOCK_RECORD
  5
1F
330
1
100
AcDbSymbolTableRecord
100
AcDbBlockTableRecord
  2
*Model_Space
340
22
  0
BLOCK_RECORD
  5
1B
330
1
100
AcDbSymbolTableRecord
100
AcDbBlockTableRecord
  2
*Paper_Space
340
1E
  0
BLOCK_RECORD
  5
23
330
1
100
AcDbSymbolTableRecord
100
AcDbBlockTableRecord
  2
*Paper_Space0
340
26
  0
ENDTAB
  0
ENDSEC
  0
SECTION
  2
BLOCKS
  0
BLOCK
  5
20
330
1F
100
AcDbEntity
  8
0
100
AcDbBlockBegin
  2
*Model_Space
 70
     0
 10
0.0
 20
0.0
 30
0.0
  3
*Model_Space
  1

  0
ENDBLK
  5
21
330
1F
100
AcDbEntity
  8
0
100
AcDbBlockEnd
  0
BLOCK
  5
1C
330
1B
100
AcDbEntity
 67
     1
  8
0
100
AcDbBlockBegin
  2
*Paper_Space
 70
     0
 10
0.0
 20
0.0
 30
0.0
  3
*Paper_Space
  1

  0
ENDBLK
  5
1D
330
1B
100
AcDbEntity
 67
     1
  8
0
100
AcDbBlockEnd
  0
BLOCK
  5
24
330
23
100
AcDbEntity
  8
0
100
AcDbBlockBegin
  2
*Paper_Space0
 70
     0
 10
0.0
 20
0.0
 30
0.0
  3
*Paper_Space0
  1

  0
ENDBLK
  5
25
330
23
100
AcDbEntity
  8
0
100
AcDbBlockEnd
  0
ENDSEC
  0
SECTION
  2
ENTITIES
  0
LINE
  5
76
330
1F
100
AcDbEntity
  8
F-4ﾚｲﾔ
  6
Continuous
 62
     2
370
     9
100
AcDbLine
 10
184.5360420845651
 20
-335.1878233213682
 30
0.0
 11
184.5360420845651
 21
-310.18798828125
 31
0.0
  0
LINE
  5
77
330
1F
100
AcDbEntity
  8
F-4ﾚｲﾔ
  6
Continuous
 62
     2
370
     9
100
AcDbLine
 10
184.5360420845651
 20
-310.18798828125
 30
0.0
 11
297.0360420845651
 21
-310.18798828125
 31
0.0
  0
LINE
  5
78
330
1F
100
AcDbEntity
  8
F-4ﾚｲﾔ
  6
Continuous
 62
     2
370
     9
100
AcDbLine
 10
297.0360420845651
 20
-310.18798828125
 30
0.0
 11
297.0360420845651
 21
-335.1878233213682
 31
0.0
  0
LINE
  5
79
330
1F
100
AcDbEntity
  8
F-4ﾚｲﾔ
  6
Continuous
 62
     2
370
     9
100
AcDbLine
 10
297.0360420845651
 20
-335.1878233213682
 30
0.0
 11
184.5360420845651
 21
-335.1878233213682
 31
0.0
  0
TEXT
  5
7A
330
1F
100
AcDbEntity
  8
F-4ﾚｲﾔ
  6
Continuous
 62
     2
370
     9
100
AcDbText
 10
208.2860585805533
 20
-329.8682480930638
 30
0.0
 40
15.24
  1
仕　様
 41
1.083333333333333
  7
ＭＳ ゴシック
100
AcDbText
  0
TEXT
  5
7B
330
1F
100
AcDbEntity
  8
F-4ﾚｲﾔ
  6
Continuous
 62
     2
370
     9
100
AcDbText
 10
265.4369869747677
 20
-445.4869754762003
 30
0.0
 40
15.24
  1
処理：溶融亜鉛めっき
 41
1.1125
  7
ＭＳ ゴシック
100
AcDbText
  0
TEXT
  5
7C
330
1F
100
AcDbEntity
  8
F-4ﾚｲﾔ
  6
Continuous
 62
     2
370
     9
100
AcDbText
 10
265.4372344145904
 20
-417.0995780006918
 30
0.0
 40
15.24
  1
材質：ＳＳ４００＋ＳＴＫＲ４００
 41
1.1171875
  7
ＭＳ ゴシック
100
AcDbText
  0
TEXT
  5
7D
330
1F
100
AcDbEntity
  8
F-4ﾚｲﾔ
  6
Continuous
 62
     2
370
     9
100
AcDbText
 10
235.580774255701
 20
-361.3280564426731
 30
0.0
 40
15.24
  1
スチール製グレーチング　かさあげ型　プレーンタイプ
 41
1.12
  7
ＭＳ ゴシック
100
AcDbText
  0
TEXT
  5
7E
330
1F
100
AcDbEntity
  8
F-5ﾚｲﾔ
  6
Continuous
 62
     3
370
     9
100
AcDbText
 10
322.0360420845651
 20
-331.6628233213683
 30
0.0
 40
19.05
  1
※適用荷重：Ｔ－２
 41
1.088888888888889
  7
ＭＳ ゴシック
100
AcDbText
  0
TEXT
  5
7F
330
1F
100
AcDbEntity
  8
F-5ﾚｲﾔ
  6
Continuous
 62
     2
370
     9
100
AcDbText
 10
-464.3785216003345
 20
-684.2887089051902
 30
0.0
 40
15.24
  1
スチール製グレーチング　かさあげ型　プレーンタイプ　ＪＩＳ型側溝用　ＨＳＪ　４１２５Ｂ
 41
0.7744186046511629
  7
ＭＳ ゴシック
100
AcDbText
  0
TEXT
  5
80
330
1F
100
AcDbEntity
  8
F-4ﾚｲﾔ
  6
Continuous
 62
     2
370
     9
100
AcDbText
 10
235.580774255701
 20
-387.9861986644701
 30
0.0
 40
15.24
  1
ＪＩＳ型側溝用　ＨＳＪ　４１２５Ｂ
 41
1.117647058823529
  7
ＭＳ ゴシック
100
AcDbText
  0
TEXT
  5
81
330
1F
100
AcDbEntity
  8
F-4ﾚｲﾔ
  6
Continuous
 62
     2
370
     9
100
AcDbText
 10
265.4369869747677
 20
-473.8342132509425
 30
0.0
 40
15.24
  1
定尺：９９５
 41
1.104166666666667
  7
ＭＳ ゴシック
100
AcDbText
  0
LWPOLYLINE
  5
82
330
1F
100
AcDbEntity
  8
1-4ﾚｲﾔ
  6
Continuous
 62
     7
370
     9
100
AcDbPolyline
 90
        4
 70
     1
 43
1.0
 10
-830.581081081081
 20
21.75244532505081
 42
0.4142135623731
 10
-831.081081081081
 20
22.25244532505081
 42
0.4142135623731
 10
-831.5810810810809
 20
21.75244532505081
 42
0.4142135623731
 10
-831.081081081081
 20
21.25244532505081
 42
0.4142135623731
  0
LWPOLYLINE
  5
83
330
1F
100
AcDbEntity
  8
1-4ﾚｲﾔ
  6
Continuous
 62
     7
370
     9
100
AcDbPolyline
 90
        4
 70
     1
 43
1.0
 10
164.4188611829604
 20
21.75244532505081
 42
0.4142135623731
 10
163.9188611829604
 20
22.25244532505081
 42
0.4142135623731
 10
163.4188611829604
 20
21.75244532505081
 42
0.4142135623731
 10
163.9188611829604
 20
21.25244532505081
 42
0.4142135623731
  0
LWPOLYLINE
  5
84
330
1F
100
AcDbEntity
  8
1-4ﾚｲﾔ
  6
Continuous
 62
     7
370
     9
100
AcDbPolyline
 90
        4
 70
     1
 43
1.0
 10
349.1486486486486
 20
71.75242470506552
 42
0.4142135623731
 10
348.6486486486487
 20
72.25242470506552
 42
0.4142135623731
 10
348.1486486486488
 20
71.75242470506552
 42
0.4142135623731
 10
348.6486486486487
 20
71.25242470506552
 42
0.4142135623731
  0
LWPOLYLINE
  5
85
330
1F
100
AcDbEntity
  8
1-4ﾚｲﾔ
  6
Continuous
 62
     7
370
     9
100
AcDbPolyline
 90
        4
 70
     1
 43
1.0
 10
349.1486486486486
 20
481.7523545971158
 42
0.4142135623731
 10
348.6486486486487
 20
482.2523545971158
 42
0.4142135623731
 10
348.1486486486488
 20
481.7523545971158
 42
0.4142135623731
 10
348.6486486486487
 20
481.2523545971158
 42
0.4142135623731
  0
LWPOLYLINE
  5
86
330
1F
100
AcDbEntity
  8
1-4ﾚｲﾔ
  6
Continuous
 62
     7
370
     9
100
AcDbPolyline
 90
        4
 70
     1
 43
1.0
 10
399.1486898886193
 20
21.75244532505081
 42
0.4142135623731
 10
398.6486898886193
 20
22.25244532505081
 42
0.4142135623731
 10
398.1486898886193
 20
21.75244532505081
 42
0.4142135623731
 10
398.6486898886193
 20
21.25244532505081
 42
0.4142135623731
  0
LWPOLYLINE
  5
87
330
1F
100
AcDbEntity
  8
1-4ﾚｲﾔ
  6
Continuous
 62
     7
370
     9
100
AcDbPolyline
 90
        4
 70
     1
 43
1.0
 10
424.1486486486486
 20
21.75244532505081
 42
0.4142135623731
 10
423.6486486486487
 20
22.25244532505081
 42
0.4142135623731
 10
423.1486486486488
 20
21.75244532505081
 42
0.4142135623731
 10
423.6486486486487
 20
21.25244532505081
 42
0.4142135623731
  0
LWPOLYLINE
  5
88
330
1F
100
AcDbEntity
  8
1-4ﾚｲﾔ
  6
Continuous
 62
     7
370
     9
100
AcDbPolyline
 90
        4
 70
     1
 43
1.0
 10
494.1485084327492
 20
21.75244532505081
 42
0.4142135623731
 10
493.6485084327492
 20
22.25244532505081
 42
0.4142135623731
 10
493.1485084327493
 20
21.75244532505081
 42
0.4142135623731
 10
493.6485084327492
 20
21.25244532505081
 42
0.4142135623731
  0
LWPOLYLINE
  5
89
330
1F
100
AcDbEntity
  8
1-4ﾚｲﾔ
  6
Continuous
 62
     7
370
     9
100
AcDbPolyline
 90
        4
 70
     1
 43
1.0
 10
399.1486898886193
 20
-18.24756292294333
 42
0.4142135623731
 10
398.6486898886193
 20
-17.74756292294333
 42
0.4142135623731
 10
398.1486898886193
 20
-18.24756292294333
 42
0.4142135623731
 10
398.6486898886193
 20
-18.74756292294333
 42
0.4142135623731
  0
LWPOLYLINE
  5
8A
330
1F
100
AcDbEntity
  8
1-4ﾚｲﾔ
  6
Continuous
 62
     7
370
     9
100
AcDbPolyline
 90
        4
 70
     1
 43
1.0
 10
494.1485084327492
 20
-18.24756292294333
 42
0.4142135623731
 10
493.6485084327492
 20
-17.74756292294333
 42
0.4142135623731
 10
493.1485084327493
 20
-18.24756292294333
 42
0.4142135623731
 10
493.6485084327492
 20
-18.74756292294333
 42
0.4142135623731
  0
LWPOLYLINE
  5
8B
330
1F
100
AcDbEntity
  8
1-4ﾚｲﾔ
  6
Continuous
 62
     7
370
     9
100
AcDbPolyline
 90
        4
 70
     1
 43
1.0
 10
544.1485496727198
 20
71.75242470506552
 42
0.4142135623731
 10
543.6485496727198
 20
72.25242470506552
 42
0.4142135623731
 10
543.1485496727198
 20
71.75242470506552
 42
0.4142135623731
 10
543.6485496727198
 20
71.25242470506552
 42
0.4142135623731
  0
LWPOLYLINE
  5
8C
330
1F
100
AcDbEntity
  8
1-4ﾚｲﾔ
  6
Continuous
 62
     7
370
     9
100
AcDbPolyline
 90
        4
 70
     1
 43
1.0
 10
544.1485496727198
 20
78.75249728741358
 42
0.4142135623731
 10
543.6485496727198
 20
79.25249728741358
 42
0.4142135623731
 10
543.1485496727198
 20
78.75249728741358
 42
0.4142135623731
 10
543.6485496727198
 20
78.25249728741358
 42
0.4142135623731
  0
LWPOLYLINE
  5
8D
330
1F
100
AcDbEntity
  8
1-4ﾚｲﾔ
  6
Continuous
 62
     7
370
     9
100
AcDbPolyline
 90
        4
 70
     1
 43
1.0
 10
544.1485496727198
 20
118.7525055354076
 42
0.4142135623731
 10
543.6485496727198
 20
119.2525055354076
 42
0.4142135623731
 10
543.1485496727198
 20
118.7525055354076
 42
0.4142135623731
 10
543.6485496727198
 20
118.2525055354076
 42
0.4142135623731
  0
LWPOLYLINE
  5
8E
330
1F
100
AcDbEntity
  8
1-4ﾚｲﾔ
  6
Continuous
 62
     7
370
     9
100
AcDbPolyline
 90
        4
 70
     1
 43
1.0
 10
544.1485496727198
 20
434.7522737667737
 42
0.4142135623731
 10
543.6485496727198
 20
435.2522737667737
 42
0.4142135623731
 10
543.1485496727198
 20
434.7522737667737
 42
0.4142135623731
 10
543.6485496727198
 20
434.2522737667738
 42
0.4142135623731
  0
LWPOLYLINE
  5
8F
330
1F
100
AcDbEntity
  8
1-4ﾚｲﾔ
  6
Continuous
 62
     7
370
     9
100
AcDbPolyline
 90
        4
 70
     1
 43
1.0
 10
544.1485496727198
 20
474.7524057346792
 42
0.4142135623731
 10
543.6485496727198
 20
475.2524057346792
 42
0.4142135623731
 10
543.1485496727198
 20
474.7524057346792
 42
0.4142135623731
 10
543.6485496727198
 20
474.2524057346793
 42
0.4142135623731
  0
LWPOLYLINE
  5
90
330
1F
100
AcDbEntity
  8
1-4ﾚｲﾔ
  6
Continuous
 62
     7
370
     9
100
AcDbPolyline
 90
        4
 70
     1
 43
1.0
 10
544.1485496727198
 20
481.7523545971158
 42
0.4142135623731
 10
543.6485496727198
 20
482.2523545971158
 42
0.4142135623731
 10
543.1485496727198
 20
481.7523545971158
 42
0.4142135623731
 10
543.6485496727198
 20
481.2523545971158
 42
0.4142135623731
  0
LWPOLYLINE
  5
91
330
1F
100
AcDbEntity
  8
1-4ﾚｲﾔ
  6
Continuous
 62
     7
370
     9
100
AcDbPolyline
 90
        4
 70
     1
 43
1.0
 10
-648.0807882772909
 20
511.3768399222848
 42
0.4142135623731
 10
-648.5807882772908
 20
511.8768399222848
 42
0.4142135623731
 10
-649.0807882772908
 20
511.3768399222848
 42
0.4142135623731
 10
-648.5807882772908
 20
510.8768399222848
 42
0.4142135623731
  0
LWPOLYLINE
  5
92
330
1F
100
AcDbEntity
  8
1-4ﾚｲﾔ
  6
Continuous
 62
     7
370
     9
100
AcDbPolyline
 90
        4
 70
     1
 43
1.0
 10
-618.080689301362
 20
511.3768399222848
 42
0.4142135623731
 10
-618.5806893013619
 20
511.8768399222848
 42
0.4142135623731
 10
-619.0806893013619
 20
511.3768399222848
 42
0.4142135623731
 10
-618.5806893013619
 20
510.8768399222848
 42
0.4142135623731
  0
LINE
  5
93
330
1F
100
AcDbEntity
  8
1-2ﾚｲﾔ
  6
Continuous
 62
     3
370
     9
100
AcDbLine
 10
-496.0807181693412
 20
430.992054502099
 30
0.0
 11
-526.0809408651816
 21
422.5125392202156
 31
0.0
  0
LINE
  5
94
330
1F
100
AcDbEntity
  8
1-2ﾚｲﾔ
  6
Continuous
 62
     3
370
     9
100
AcDbLine
 10
-526.0809408651816
 20
430.992054502099
 30
0.0
 11
-556.0810398411106
 21
422.5125392202156
 31
0.0
  0
LINE
  5
95
330
1F
100
AcDbEntity
  8
1-2ﾚｲﾔ
  6
Continuous
 62
     3
370
     9
100
AcDbLine
 10
-556.0810398411106
 20
430.992054502099
 30
0.0
 11
-586.0811388170397
 21
422.5125392202156
 31
0.0
  0
LINE
  5
96
330
1F
100
AcDbEntity
  8
1-2ﾚｲﾔ
  6
Continuous
 62
     3
370
     9
100
AcDbLine
 10
-586.0806439373944
 20
430.992054502099
 30
0.0
 11
-616.0812377929688
 21
422.5125392202156
 31
0.0
  0
LINE
  5
97
330
1F
100
AcDbEntity
  8
1-2ﾚｲﾔ
  6
Continuous
 62
     3
370
     9
100
AcDbLine
 10
-616.0807429133234
 20
430.992054502099
 30
0.0
 11
-646.0809656091637
 21
422.5125392202156
 31
0.0
  0
LINE
  5
98
330
1F
100
AcDbEntity
  8
1-2ﾚｲﾔ
  6
Continuous
 62
     3
370
     9
100
AcDbLine
 10
-646.0809656091637
 20
430.992054502099
 30
0.0
 11
-676.0805697054477
 21
422.5125392202156
 31
0.0
  0
LINE
  5
99
330
1F
100
AcDbEntity
  8
1-2ﾚｲﾔ
  6
Continuous
 62
     3
370
     9
100
AcDbLine
 10
-676.0805697054477
 20
430.992054502099
 30
0.0
 11
-706.0812872809333
 21
422.5125392202156
 31
0.0
  0
LINE
  5
9A
330
1F
100
AcDbEntity
  8
1-2ﾚｲﾔ
  6
Continuous
 62
     3
370
     9
100
AcDbLine
 10
-706.0812872809333
 20
430.992054502099
 30
0.0
 11
-736.0808913772171
 21
422.5125392202156
 31
0.0
  0
LINE
  5
9B
330
1F
100
AcDbEntity
  8
1-2ﾚｲﾔ
  6
Continuous
 62
     3
370
     9
100
AcDbLine
 10
-736.0808913772171
 20
430.992054502099
 30
0.0
 11
-766.0804954735008
 21
422.5125392202156
 31
0.0
  0
LINE
  5
9C
330
1F
100
AcDbEntity
  8
1-2ﾚｲﾔ
  6
Continuous
 62
     3
370
     9
100
AcDbLine
 10
-766.0804954735008
 20
430.992054502099
 30
0.0
 11
-796.0810893290751
 21
422.5125392202156
 31
0.0
  0
LINE
  5
9D
330
1F
100
AcDbEntity
  8
1-2ﾚｲﾔ
  6
Continuous
 62
     3
370
     9
100
AcDbLine
 10
-796.0810893290751
 20
430.992054502099
 30
0.0
 11
-826.080693425359
 21
422.5125392202156
 31
0.0
  0
LINE
  5
9E
330
1F
100
AcDbEntity
  8
1-2ﾚｲﾔ
  6
Continuous
 62
     3
370
     9
100
AcDbLine
 10
-826.080693425359
 20
430.992054502099
 30
0.0
 11
-831.081081081081
 21
429.9921501788304
 31
0.0
  0
LINE
  5
9F
330
1F
100
AcDbEntity
  8
1-2ﾚｲﾔ
  6
Continuous
 62
     3
370
     9
100
AcDbLine
 10
-801.0803635055954
 20
477.2526614224959
 30
0.0
 11
-801.0803635055954
 21
430.992054502099
 31
0.0
  0
LINE
  5
A0
330
1F
100
AcDbEntity
  8
1-2ﾚｲﾔ
  6
Continuous
 62
     3
370
     9
100
AcDbLine
 10
-796.0810893290751
 20
477.2526614224959
 30
0.0
 11
-796.0810893290751
 21
430.992054502099
 31
0.0
  0
LINE
  5
A1
330
1F
100
AcDbEntity
  8
1-2ﾚｲﾔ
  6
Continuous
 62
     3
370
     9
100
AcDbLine
 10
-531.0807099213471
 20
477.2526614224959
 30
0.0
 11
-531.0807099213471
 21
430.992054502099
 31
0.0
  0
LINE
  5
A2
330
1F
100
AcDbEntity
  8
1-2ﾚｲﾔ
  6
Continuous
 62
     3
370
     9
100
AcDbLine
 10
-526.0809408651816
 20
477.2526614224959
 30
0.0
 11
-526.0809408651816
 21
430.992054502099
 31
0.0
  0
LINE
  5
A3
330
1F
100
AcDbEntity
  8
1-2ﾚｲﾔ
  6
Continuous
 62
     3
370
     9
100
AcDbLine
 10
-561.0808088972761
 20
477.2526614224959
 30
0.0
 11
-561.0808088972761
 21
430.992054502099
 31
0.0
  0
LINE
  5
A4
330
1F
100
AcDbEntity
  8
1-2ﾚｲﾔ
  6
Continuous
 62
     3
370
     9
100
AcDbLine
 10
-556.0810398411106
 20
477.2526614224959
 30
0.0
 11
-556.0810398411106
 21
430.992054502099
 31
0.0
  0
LINE
  5
A5
330
1F
100
AcDbEntity
  8
1-2ﾚｲﾔ
  6
Continuous
 62
     3
370
     9
100
AcDbLine
 10
-591.0809078732052
 20
477.2526614224959
 30
0.0
 11
-591.0809078732052
 21
430.992054502099
 31
0.0
  0
LINE
  5
A6
330
1F
100
AcDbEntity
  8
1-2ﾚｲﾔ
  6
Continuous
 62
     3
370
     9
100
AcDbLine
 10
-586.0811388170397
 20
477.2526614224959
 30
0.0
 11
-586.0811388170397
 21
430.992054502099
 31
0.0
  0
LINE
  5
A7
330
1F
100
AcDbEntity
  8
1-2ﾚｲﾔ
  6
Continuous
 62
     3
370
     9
100
AcDbLine
 10
-621.080511969489
 20
477.2526614224959
 30
0.0
 11
-621.080511969489
 21
430.992054502099
 31
0.0
  0
LINE
  5
A8
330
1F
100
AcDbEntity
  8
1-2ﾚｲﾔ
  6
Continuous
 62
     3
370
     9
100
AcDbLine
 10
-616.0812377929688
 20
477.2526614224959
 30
0.0
 11
-616.0812377929688
 21
430.992054502099
 31
0.0
  0
LINE
  5
A9
330
1F
100
AcDbEntity
  8
1-2ﾚｲﾔ
  6
Continuous
 62
     3
370
     9
100
AcDbLine
 10
-651.0802397856842
 20
477.2526614224959
 30
0.0
 11
-651.0802397856842
 21
430.992054502099
 31
0.0
  0
LINE
  5
AA
330
1F
100
AcDbEntity
  8
1-2ﾚｲﾔ
  6
Continuous
 62
     3
370
     9
100
AcDbLine
 10
-646.0809656091637
 20
477.2526614224959
 30
0.0
 11
-646.0809656091637
 21
430.992054502099
 31
0.0
  0
LINE
  5
AB
330
1F
100
AcDbEntity
  8
1-2ﾚｲﾔ
  6
Continuous
 62
     3
370
     9
100
AcDbLine
 10
-681.0808336412583
 20
477.2526614224959
 30
0.0
 11
-681.0808336412583
 21
430.992054502099
 31
0.0
  0
LINE
  5
AC
330
1F
100
AcDbEntity
  8
1-2ﾚｲﾔ
  6
Continuous
 62
     3
370
     9
100
AcDbLine
 10
-676.0805697054477
 20
477.2526614224959
 30
0.0
 11
-676.0805697054477
 21
430.992054502099
 31
0.0
  0
LINE
  5
AD
330
1F
100
AcDbEntity
  8
1-2ﾚｲﾔ
  6
Continuous
 62
     3
370
     9
100
AcDbLine
 10
-711.0805614574535
 20
477.2526614224959
 30
0.0
 11
-711.0805614574535
 21
430.992054502099
 31
0.0
  0
LINE
  5
AE
330
1F
100
AcDbEntity
  8
1-2ﾚｲﾔ
  6
Continuous
 62
     3
370
     9
100
AcDbLine
 10
-706.0812872809333
 20
477.2526614224959
 30
0.0
 11
-706.0812872809333
 21
430.992054502099
 31
0.0
  0
LINE
  5
AF
330
1F
100
AcDbEntity
  8
1-2ﾚｲﾔ
  6
Continuous
 62
     3
370
     9
100
AcDbLine
 10
-741.0811553130279
 20
477.2526614224959
 30
0.0
 11
-741.0811553130279
 21
430.992054502099
 31
0.0
  0
LINE
  5
B0
330
1F
100
AcDbEntity
  8
1-2ﾚｲﾔ
  6
Continuous
 62
     3
370
     9
100
AcDbLine
 10
-736.0808913772171
 20
477.2526614224959
 30
0.0
 11
-736.0808913772171
 21
430.992054502099
 31
0.0
  0
LINE
  5
B1
330
1F
100
AcDbEntity
  8
1-2ﾚｲﾔ
  6
Continuous
 62
     3
370
     9
100
AcDbLine
 10
-771.0807594093117
 20
477.2526614224959
 30
0.0
 11
-771.0807594093117
 21
430.992054502099
 31
0.0
  0
LINE
  5
B2
330
1F
100
AcDbEntity
  8
1-2ﾚｲﾔ
  6
Continuous
 62
     3
370
     9
100
AcDbLine
 10
-766.0804954735008
 20
477.2526614224959
 30
0.0
 11
-766.0804954735008
 21
430.992054502099
 31
0.0
  0
LINE
  5
B3
330
1F
100
AcDbEntity
  8
1-2ﾚｲﾔ
  6
Continuous
 62
     3
370
     9
100
AcDbLine
 10
-826.080693425359
 20
430.992054502099
 30
0.0
 11
-826.080693425359
 21
477.2526614224959
 31
0.0
  0
LINE
  5
B4
330
1F
100
AcDbEntity
  8
1-2ﾚｲﾔ
  6
Continuous
 62
     3
370
     9
100
AcDbLine
 10
158.9190921267948
 20
477.2526614224959
 30
0.0
 11
158.9190921267948
 21
430.992054502099
 31
0.0
  0
LINE
  5
B5
330
1F
100
AcDbEntity
  8
1-2ﾚｲﾔ
  6
Continuous
 62
     3
370
     9
100
AcDbLine
 10
398.6486898886193
 20
481.7523545971158
 30
0.0
 11
417.6487278293919
 21
481.7523545971158
 31
0.0
  0
LINE
  5
B6
330
1F
100
AcDbEntity
  8
1-2ﾚｲﾔ
  6
Continuous
 62
     3
370
     9
100
AcDbLine
 10
417.6487278293919
 20
477.252290262762
 30
0.0
 11
417.6487278293919
 21
481.7523545971158
 31
0.0
  0
LINE
  5
B7
330
1F
100
AcDbEntity
  8
1-2ﾚｲﾔ
  6
Continuous
 62
     3
370
     9
100
AcDbLine
 10
398.6486898886193
 20
477.252290262762
 30
0.0
 11
423.6486486486487
 21
477.252290262762
 31
0.0
  0
LINE
  5
B8
330
1F
100
AcDbEntity
  8
1-2ﾚｲﾔ
  6
Continuous
 62
     3
370
     9
100
AcDbLine
 10
407.1338962864232
 20
426.7522968611572
 30
0.0
 11
402.8912930875211
 21
422.5096936622552
 31
0.0
  0
LINE
  5
B9
330
1F
100
AcDbEntity
  8
1-2ﾚｲﾔ
  6
Continuous
 62
     3
370
     9
100
AcDbLine
 10
402.8912930875211
 20
422.5096936622552
 30
0.0
 11
398.6486898886193
 21
426.7522968611572
 31
0.0
  0
LINE
  5
BA
330
1F
100
AcDbEntity
  8
1-2ﾚｲﾔ
  6
Continuous
 62
     3
370
     9
100
AcDbLine
 10
398.6486898886193
 20
426.7522968611572
 30
0.0
 11
402.8912930875211
 21
430.9949000600593
 31
0.0
  0
LINE
  5
BB
330
1F
100
AcDbEntity
  8
1-2ﾚｲﾔ
  6
Continuous
 62
     3
370
     9
100
AcDbLine
 10
402.8912930875211
 20
430.9949000600593
 30
0.0
 11
407.1338962864232
 21
426.7522968611572
 31
0.0
  0
LINE
  5
BC
330
1F
100
AcDbEntity
  8
1-2ﾚｲﾔ
  6
Continuous
 62
     3
370
     9
100
AcDbLine
 10
403.1487542229732
 20
477.252290262762
 30
0.0
 11
403.1487542229732
 21
430.7374389246075
 31
0.0
  0
LINE
  5
BD
330
1F
100
AcDbEntity
  8
1-2ﾚｲﾔ
  6
Continuous
 62
     3
370
     9
100
AcDbLine
 10
404.1487822661529
 20
477.252290262762
 30
0.0
 11
404.1487822661529
 21
429.7374108814275
 31
0.0
  0
LINE
  5
BE
330
1F
100
AcDbEntity
  8
1-2ﾚｲﾔ
  6
Continuous
 62
     3
370
     9
100
AcDbLine
 10
398.6486898886193
 20
71.75236284510993
 30
0.0
 11
417.6487278293919
 21
71.75236284510993
 31
0.0
  0
LINE
  5
BF
330
1F
100
AcDbEntity
  8
1-2ﾚｲﾔ
  6
Continuous
 62
     3
370
     9
100
AcDbLine
 10
417.6487278293919
 20
76.25242717946384
 30
0.0
 11
417.6487278293919
 21
71.75236284510993
 31
0.0
  0
LINE
  5
C0
330
1F
100
AcDbEntity
  8
1-2ﾚｲﾔ
  6
Continuous
 62
     3
370
     9
100
AcDbLine
 10
398.6486898886193
 20
76.25242717946384
 30
0.0
 11
423.6486486486487
 21
76.25242717946384
 31
0.0
  0
LINE
  5
C1
330
1F
100
AcDbEntity
  8
1-1ﾚｲﾔ
  6
JWW_DASHED1
 62
     2
370
     9
100
AcDbLine
 10
158.9188446869721
 20
474.7524057346792
 30
0.0
 11
158.9188446869721
 21
434.7523974866851
 31
0.0
  0
LINE
  5
C2
330
1F
100
AcDbEntity
  8
1-1ﾚｲﾔ
  6
JWW_DASHED1
 62
     2
370
     9
100
AcDbLine
 10
-826.0810645850929
 20
434.7523974866851
 30
0.0
 11
158.9188446869721
 21
434.7523974866851
 31
0.0
  0
LINE
  5
C3
330
1F
100
AcDbEntity
  8
1-1ﾚｲﾔ
  6
JWW_DASHED1
 62
     2
370
     9
100
AcDbLine
 10
-826.0810645850929
 20
434.7523974866851
 30
0.0
 11
-826.0810645850929
 21
474.7524057346792
 31
0.0
  0
LINE
  5
C4
330
1F
100
AcDbEntity
  8
1-1ﾚｲﾔ
  6
JWW_DASHED1
 62
     2
370
     9
100
AcDbLine
 10
-826.0810645850929
 20
474.7524057346792
 30
0.0
 11
158.9188446869721
 21
474.7524057346792
 31
0.0
  0
LINE
  5
C5
330
1F
100
AcDbEntity
  8
1-1ﾚｲﾔ
  6
JWW_DASHED1
 62
     2
370
     9
100
AcDbLine
 10
158.9188446869721
 20
78.75237356750225
 30
0.0
 11
158.9188446869721
 21
118.7523818154962
 31
0.0
  0
LINE
  5
C6
330
1F
100
AcDbEntity
  8
1-1ﾚｲﾔ
  6
JWW_DASHED1
 62
     2
370
     9
100
AcDbLine
 10
-826.0810645850929
 20
118.7523818154962
 30
0.0
 11
158.9188446869721
 21
118.7523818154962
 31
0.0
  0
LINE
  5
C7
330
1F
100
AcDbEntity
  8
1-1ﾚｲﾔ
  6
JWW_DASHED1
 62
     2
370
     9
100
AcDbLine
 10
-826.0810645850929
 20
118.7523818154962
 30
0.0
 11
-826.0810645850929
 21
78.75237356750225
 31
0.0
  0
LINE
  5
C8
330
1F
100
AcDbEntity
  8
1-1ﾚｲﾔ
  6
JWW_DASHED1
 62
     2
370
     9
100
AcDbLine
 10
-826.0810645850929
 20
78.75237356750225
 30
0.0
 11
158.9188446869721
 21
78.75237356750225
 31
0.0
  0
LINE
  5
C9
330
1F
100
AcDbEntity
  8
1-4ﾚｲﾔ
  6
Continuous
 62
     7
370
     9
100
AcDbLine
 10
-831.081081081081
 20
21.75244532505081
 30
0.0
 11
163.9188611829604
 21
21.75244532505081
 31
0.0
  0
LINE
  5
CA
330
1F
100
AcDbEntity
  8
1-4ﾚｲﾔ
  6
Continuous
 62
     7
370
     9
100
AcDbLine
 10
-831.081081081081
 20
59.25244532505081
 30
0.0
 11
-831.081081081081
 21
20.25246512023662
 31
0.0
  0
LINE
  5
CB
330
1F
100
AcDbEntity
  8
1-4ﾚｲﾔ
  6
Continuous
 62
     7
370
     9
100
AcDbLine
 10
163.9188611829604
 20
59.25244532505081
 30
0.0
 11
163.9188611829604
 21
20.25246512023662
 31
0.0
  0
LINE
  5
CC
330
1F
100
AcDbEntity
  8
1-4ﾚｲﾔ
  6
Continuous
 62
     7
370
     9
100
AcDbLine
 10
348.6486486486487
 20
71.75242470506552
 30
0.0
 11
348.6486486486487
 21
481.7523545971158
 31
0.0
  0
LINE
  5
CD
330
1F
100
AcDbEntity
  8
1-4ﾚｲﾔ
  6
Continuous
 62
     7
370
     9
100
AcDbLine
 10
386.1486486486487
 20
71.75242470506552
 30
0.0
 11
347.1486684438347
 21
71.75242470506552
 31
0.0
  0
LINE
  5
CE
330
1F
100
AcDbEntity
  8
1-4ﾚｲﾔ
  6
Continuous
 62
     7
370
     9
100
AcDbLine
 10
386.1486486486487
 20
481.7523545971158
 30
0.0
 11
347.1486684438347
 21
481.7523545971158
 31
0.0
  0
LINE
  5
CF
330
1F
100
AcDbEntity
  8
1-2ﾚｲﾔ
  6
Continuous
 62
     3
370
     9
100
AcDbLine
 10
403.1487542229732
 20
422.7671547977071
 30
0.0
 11
403.1487542229732
 21
330.7376038844891
 31
0.0
  0
LINE
  5
D0
330
1F
100
AcDbEntity
  8
1-2ﾚｲﾔ
  6
Continuous
 62
     3
370
     9
100
AcDbLine
 10
404.1487822661529
 20
423.767182840887
 30
0.0
 11
404.1487822661529
 21
329.7375758413093
 31
0.0
  0
LINE
  5
D1
330
1F
100
AcDbEntity
  8
1-2ﾚｲﾔ
  6
Continuous
 62
     3
370
     9
100
AcDbLine
 10
398.6486898886193
 20
481.7523545971158
 30
0.0
 11
398.6486898886193
 21
71.75236284510993
 31
0.0
  0
LINE
  5
D2
330
1F
100
AcDbEntity
  8
1-2ﾚｲﾔ
  6
Continuous
 62
     3
370
     9
100
AcDbLine
 10
-616.0812377929688
 20
422.5125392202156
 30
0.0
 11
-616.0812377929688
 21
330.9924669018033
 31
0.0
  0
LINE
  5
D3
330
1F
100
AcDbEntity
  8
1-2ﾚｲﾔ
  6
Continuous
 62
     3
370
     9
100
AcDbLine
 10
-621.080511969489
 20
422.5125392202156
 30
0.0
 11
-621.080511969489
 21
330.9924669018033
 31
0.0
  0
LINE
  5
D4
330
1F
100
AcDbEntity
  8
1-2ﾚｲﾔ
  6
Continuous
 62
     3
370
     9
100
AcDbLine
 10
-646.0809656091637
 20
422.5125392202156
 30
0.0
 11
-646.0809656091637
 21
330.9924669018033
 31
0.0
  0
LINE
  5
D5
330
1F
100
AcDbEntity
  8
1-2ﾚｲﾔ
  6
Continuous
 62
     3
370
     9
100
AcDbLine
 10
-651.0802397856842
 20
422.5125392202156
 30
0.0
 11
-651.0802397856842
 21
330.9924669018033
 31
0.0
  0
LINE
  5
D6
330
1F
100
AcDbEntity
  8
1-2ﾚｲﾔ
  6
Continuous
 62
     3
370
     9
100
AcDbLine
 10
-676.0805697054477
 20
422.5125392202156
 30
0.0
 11
-676.0805697054477
 21
330.9924669018033
 31
0.0
  0
LINE
  5
D7
330
1F
100
AcDbEntity
  8
1-2ﾚｲﾔ
  6
Continuous
 62
     3
370
     9
100
AcDbLine
 10
-681.0808336412583
 20
422.5125392202156
 30
0.0
 11
-681.0808336412583
 21
330.9924669018033
 31
0.0
  0
LINE
  5
D8
330
1F
100
AcDbEntity
  8
1-2ﾚｲﾔ
  6
Continuous
 62
     3
370
     9
100
AcDbLine
 10
-706.0812872809333
 20
422.5125392202156
 30
0.0
 11
-706.0812872809333
 21
330.9924669018033
 31
0.0
  0
LINE
  5
D9
330
1F
100
AcDbEntity
  8
1-2ﾚｲﾔ
  6
Continuous
 62
     3
370
     9
100
AcDbLine
 10
-711.0805614574535
 20
422.5125392202156
 30
0.0
 11
-711.0805614574535
 21
330.9924669018033
 31
0.0
  0
LINE
  5
DA
330
1F
100
AcDbEntity
  8
1-2ﾚｲﾔ
  6
Continuous
 62
     3
370
     9
100
AcDbLine
 10
-736.0808913772171
 20
422.5125392202156
 30
0.0
 11
-736.0808913772171
 21
330.9924669018033
 31
0.0
  0
LINE
  5
DB
330
1F
100
AcDbEntity
  8
1-2ﾚｲﾔ
  6
Continuous
 62
     3
370
     9
100
AcDbLine
 10
-741.0811553130279
 20
422.5125392202156
 30
0.0
 11
-741.0811553130279
 21
330.9924669018033
 31
0.0
  0
LINE
  5
DC
330
1F
100
AcDbEntity
  8
1-2ﾚｲﾔ
  6
Continuous
 62
     3
370
     9
100
AcDbLine
 10
-766.0804954735008
 20
422.5125392202156
 30
0.0
 11
-766.0804954735008
 21
330.9924669018033
 31
0.0
  0
LINE
  5
DD
330
1F
100
AcDbEntity
  8
1-2ﾚｲﾔ
  6
Continuous
 62
     3
370
     9
100
AcDbLine
 10
-771.0807594093117
 20
422.5125392202156
 30
0.0
 11
-771.0807594093117
 21
330.9924669018033
 31
0.0
  0
LINE
  5
DE
330
1F
100
AcDbEntity
  8
1-2ﾚｲﾔ
  6
Continuous
 62
     3
370
     9
100
AcDbLine
 10
-796.0810893290751
 20
422.5125392202156
 30
0.0
 11
-796.0810893290751
 21
330.9924669018033
 31
0.0
  0
LINE
  5
DF
330
1F
100
AcDbEntity
  8
1-2ﾚｲﾔ
  6
Continuous
 62
     3
370
     9
100
AcDbLine
 10
-801.0803635055954
 20
422.5125392202156
 30
0.0
 11
-801.0803635055954
 21
330.9924669018033
 31
0.0
  0
LINE
  5
E0
330
1F
100
AcDbEntity
  8
1-2ﾚｲﾔ
  6
Continuous
 62
     3
370
     9
100
AcDbLine
 10
-826.080693425359
 20
330.9924669018033
 30
0.0
 11
-826.080693425359
 21
422.5125392202156
 31
0.0
  0
LINE
  5
E1
330
1F
100
AcDbEntity
  8
1-2ﾚｲﾔ
  6
Continuous
 62
     3
370
     9
100
AcDbLine
 10
-586.0811388170397
 20
422.5125392202156
 30
0.0
 11
-586.0811388170397
 21
330.9924669018033
 31
0.0
  0
LINE
  5
E2
330
1F
100
AcDbEntity
  8
1-2ﾚｲﾔ
  6
Continuous
 62
     3
370
     9
100
AcDbLine
 10
-591.0809078732052
 20
422.5125392202156
 30
0.0
 11
-591.0809078732052
 21
330.9924669018033
 31
0.0
  0
LINE
  5
E3
330
1F
100
AcDbEntity
  8
1-2ﾚｲﾔ
  6
Continuous
 62
     3
370
     9
100
AcDbLine
 10
-526.0809408651816
 20
422.5125392202156
 30
0.0
 11
-526.0809408651816
 21
330.9924669018033
 31
0.0
  0
LINE
  5
E4
330
1F
100
AcDbEntity
  8
1-2ﾚｲﾔ
  6
Continuous
 62
     3
370
     9
100
AcDbLine
 10
-531.0807099213471
 20
422.5125392202156
 30
0.0
 11
-531.0807099213471
 21
330.9924669018033
 31
0.0
  0
LINE
  5
E5
330
1F
100
AcDbEntity
  8
1-2ﾚｲﾔ
  6
Continuous
 62
     3
370
     9
100
AcDbLine
 10
-556.0810398411106
 20
422.5125392202156
 30
0.0
 11
-556.0810398411106
 21
330.9924669018033
 31
0.0
  0
LINE
  5
E6
330
1F
100
AcDbEntity
  8
1-2ﾚｲﾔ
  6
Continuous
 62
     3
370
     9
100
AcDbLine
 10
-561.0808088972761
 20
422.5125392202156
 30
0.0
 11
-561.0808088972761
 21
330.9924669018033
 31
0.0
  0
LINE
  5
E7
330
1F
100
AcDbEntity
  8
1-2ﾚｲﾔ
  6
Continuous
 62
     3
370
     9
100
AcDbLine
 10
158.9190921267948
 20
422.5125392202156
 30
0.0
 11
158.9190921267948
 21
330.9924669018033
 31
0.0
  0
LINE
  5
E8
330
1F
100
AcDbEntity
  8
1-1ﾚｲﾔ
  6
Continuous
 62
     2
370
     9
100
AcDbLine
 10
487.2486011402029
 20
434.7523974866851
 30
0.0
 11
430.0486796611065
 21
434.7523974866851
 31
0.0
  0
LINE
  5
E9
330
1F
100
AcDbEntity
  8
1-1ﾚｲﾔ
  6
Continuous
 62
     2
370
     9
100
AcDbLine
 10
487.2484774202914
 20
471.5523902284503
 30
0.0
 11
430.048555941195
 21
471.5523902284503
 31
0.0
  0
LINE
  5
EA
330
1F
100
AcDbEntity
  8
1-1ﾚｲﾔ
  6
Continuous
 62
     2
370
     9
100
AcDbLine
 10
490.4486166464318
 20
441.1524284991429
 30
0.0
 11
490.4486166464318
 21
468.3522510023101
 31
0.0
  0
LINE
  5
EB
330
1F
100
AcDbEntity
  8
1-1ﾚｲﾔ
  6
Continuous
 62
     2
370
     9
100
AcDbLine
 10
487.2486011402029
 20
474.7522820147679
 30
0.0
 11
430.0486796611065
 21
474.7522820147679
 31
0.0
  0
LINE
  5
EC
330
1F
100
AcDbEntity
  8
1-1ﾚｲﾔ
  6
Continuous
 62
     2
370
     9
100
AcDbLine
 10
493.6485084327492
 20
441.1523047792315
 30
0.0
 11
493.6485084327492
 21
468.3523747222214
 31
0.0
  0
LINE
  5
ED
330
1F
100
AcDbEntity
  8
1-1ﾚｲﾔ
  6
Continuous
 62
     2
370
     9
100
AcDbLine
 10
430.0486796611065
 20
437.9522892730026
 30
0.0
 11
487.2484774202914
 21
437.9522892730026
 31
0.0
  0
LINE
  5
EE
330
1F
100
AcDbEntity
  8
1-1ﾚｲﾔ
  6
Continuous
 62
     2
370
     9
100
AcDbLine
 10
426.8485404349664
 20
441.1524284991429
 30
0.0
 11
426.8485404349664
 21
468.3522510023101
 31
0.0
  0
LINE
  5
EF
330
1F
100
AcDbEntity
  8
1-1ﾚｲﾔ
  6
Continuous
 62
     2
370
     9
100
AcDbLine
 10
487.2486011402029
 20
118.752443675452
 30
0.0
 11
430.0486796611065
 21
118.752443675452
 31
0.0
  0
LINE
  5
F0
330
1F
100
AcDbEntity
  8
1-1ﾚｲﾔ
  6
Continuous
 62
     2
370
     9
100
AcDbLine
 10
487.2484774202914
 20
81.95245093368675
 30
0.0
 11
430.048555941195
 21
81.95245093368675
 31
0.0
  0
LINE
  5
F1
330
1F
100
AcDbEntity
  8
1-1ﾚｲﾔ
  6
Continuous
 62
     2
370
     9
100
AcDbLine
 10
490.4486166464318
 20
112.3524126629942
 30
0.0
 11
490.4486166464318
 21
85.15259015982699
 31
0.0
  0
LINE
  5
F2
330
1F
100
AcDbEntity
  8
1-1ﾚｲﾔ
  6
Continuous
 62
     2
370
     9
100
AcDbLine
 10
487.2486011402029
 20
78.75255914736917
 30
0.0
 11
430.0486796611065
 21
78.75255914736917
 31
0.0
  0
LINE
  5
F3
330
1F
100
AcDbEntity
  8
1-1ﾚｲﾔ
  6
Continuous
 62
     2
370
     9
100
AcDbLine
 10
493.6485084327492
 20
112.3525363829055
 30
0.0
 11
493.6485084327492
 21
85.15246643991566
 31
0.0
  0
LINE
  5
F4
330
1F
100
AcDbEntity
  8
1-1ﾚｲﾔ
  6
Continuous
 62
     2
370
     9
100
AcDbLine
 10
430.0486796611065
 20
115.5525518891344
 30
0.0
 11
487.2484774202914
 21
115.5525518891344
 31
0.0
  0
LINE
  5
F5
330
1F
100
AcDbEntity
  8
1-1ﾚｲﾔ
  6
Continuous
 62
     2
370
     9
100
AcDbLine
 10
426.8485404349664
 20
112.3524126629942
 30
0.0
 11
426.8485404349664
 21
85.15259015982699
 31
0.0
  0
LINE
  5
F6
330
1F
100
AcDbEntity
  8
1-4ﾚｲﾔ
  6
Continuous
 62
     7
370
     9
100
AcDbLine
 10
423.6486486486487
 20
63.75244779944899
 30
0.0
 11
423.6486486486487
 21
20.25246512023662
 31
0.0
  0
LINE
  5
F7
330
1F
100
AcDbEntity
  8
1-4ﾚｲﾔ
  6
Continuous
 62
     7
370
     9
100
AcDbLine
 10
493.6485084327492
 20
72.6524870599008
 30
0.0
 11
493.6485084327492
 21
-19.74754312775753
 31
0.0
  0
LINE
  5
F8
330
1F
100
AcDbEntity
  8
1-4ﾚｲﾔ
  6
Continuous
 62
     7
370
     9
100
AcDbLine
 10
398.6486898886193
 20
-18.24756292294333
 30
0.0
 11
493.6485084327492
 21
-18.24756292294333
 31
0.0
  0
LINE
  5
F9
330
1F
100
AcDbEntity
  8
1-4ﾚｲﾔ
  6
Continuous
 62
     7
370
     9
100
AcDbLine
 10
430.1487690693625
 20
71.75242470506552
 30
0.0
 11
545.1485298775339
 21
71.75242470506552
 31
0.0
  0
LINE
  5
FA
330
1F
100
AcDbEntity
  8
1-4ﾚｲﾔ
  6
Continuous
 62
     7
370
     9
100
AcDbLine
 10
499.7486423801732
 20
78.75249728741358
 30
0.0
 11
545.1485298775339
 21
78.75249728741358
 31
0.0
  0
LINE
  5
FB
330
1F
100
AcDbEntity
  8
1-4ﾚｲﾔ
  6
Continuous
 62
     7
370
     9
100
AcDbLine
 10
499.7486423801732
 20
118.7525055354076
 30
0.0
 11
545.1485298775339
 21
118.7525055354076
 31
0.0
  0
LINE
  5
FC
330
1F
100
AcDbEntity
  8
1-4ﾚｲﾔ
  6
Continuous
 62
     7
370
     9
100
AcDbLine
 10
499.7486423801732
 20
434.7522737667737
 30
0.0
 11
545.1485298775339
 21
434.7522737667737
 31
0.0
  0
LINE
  5
FD
330
1F
100
AcDbEntity
  8
1-4ﾚｲﾔ
  6
Continuous
 62
     7
370
     9
100
AcDbLine
 10
499.7486423801732
 20
474.7524057346792
 30
0.0
 11
545.1485298775339
 21
474.7524057346792
 31
0.0
  0
LINE
  5
FE
330
1F
100
AcDbEntity
  8
1-4ﾚｲﾔ
  6
Continuous
 62
     7
370
     9
100
AcDbLine
 10
430.1487690693625
 20
481.7523545971158
 30
0.0
 11
545.1485298775339
 21
481.7523545971158
 31
0.0
  0
LINE
  5
FF
330
1F
100
AcDbEntity
  8
1-4ﾚｲﾔ
  6
Continuous
 62
     7
370
     9
100
AcDbLine
 10
398.6486898886193
 20
59.25244532505081
 30
0.0
 11
398.6486898886193
 21
-19.74754312775753
 31
0.0
  0
LINE
  5
100
330
1F
100
AcDbEntity
  8
1-4ﾚｲﾔ
  6
Continuous
 62
     7
370
     9
100
AcDbLine
 10
543.6485496727198
 20
45.5489186477387
 30
0.0
 11
543.6485496727198
 21
506.6690498568287
 31
0.0
  0
LINE
  5
101
330
1F
100
AcDbEntity
  8
1-2ﾚｲﾔ
  6
Continuous
 62
     3
370
     9
100
AcDbLine
 10
-466.0806191934121
 20
430.992054502099
 30
0.0
 11
-496.0808418892525
 21
422.5125392202156
 31
0.0
  0
LINE
  5
102
330
1F
100
AcDbEntity
  8
1-2ﾚｲﾔ
  6
Continuous
 62
     3
370
     9
100
AcDbLine
 10
-501.080610945418
 20
477.2526614224959
 30
0.0
 11
-501.080610945418
 21
430.992054502099
 31
0.0
  0
LINE
  5
103
330
1F
100
AcDbEntity
  8
1-2ﾚｲﾔ
  6
Continuous
 62
     3
370
     9
100
AcDbLine
 10
-496.0808418892525
 20
477.2526614224959
 30
0.0
 11
-496.0808418892525
 21
430.992054502099
 31
0.0
  0
LINE
  5
104
330
1F
100
AcDbEntity
  8
1-2ﾚｲﾔ
  6
Continuous
 62
     3
370
     9
100
AcDbLine
 10
-496.0808418892525
 20
422.5125392202156
 30
0.0
 11
-496.0808418892525
 21
330.9924669018033
 31
0.0
  0
LINE
  5
105
330
1F
100
AcDbEntity
  8
1-2ﾚｲﾔ
  6
Continuous
 62
     3
370
     9
100
AcDbLine
 10
-501.080610945418
 20
422.5125392202156
 30
0.0
 11
-501.080610945418
 21
330.9924669018033
 31
0.0
  0
LINE
  5
106
330
1F
100
AcDbEntity
  8
1-2ﾚｲﾔ
  6
Continuous
 62
     3
370
     9
100
AcDbLine
 10
-436.0805202174831
 20
430.992054502099
 30
0.0
 11
-466.0807429133234
 21
422.5125392202156
 31
0.0
  0
LINE
  5
107
330
1F
100
AcDbEntity
  8
1-2ﾚｲﾔ
  6
Continuous
 62
     3
370
     9
100
AcDbLine
 10
-471.080511969489
 20
477.2526614224959
 30
0.0
 11
-471.080511969489
 21
430.992054502099
 31
0.0
  0
LINE
  5
108
330
1F
100
AcDbEntity
  8
1-2ﾚｲﾔ
  6
Continuous
 62
     3
370
     9
100
AcDbLine
 10
-466.0807429133234
 20
477.2526614224959
 30
0.0
 11
-466.0807429133234
 21
430.992054502099
 31
0.0
  0
LINE
  5
109
330
1F
100
AcDbEntity
  8
1-2ﾚｲﾔ
  6
Continuous
 62
     3
370
     9
100
AcDbLine
 10
-466.0807429133234
 20
422.5125392202156
 30
0.0
 11
-466.0807429133234
 21
330.9924669018033
 31
0.0
  0
LINE
  5
10A
330
1F
100
AcDbEntity
  8
1-2ﾚｲﾔ
  6
Continuous
 62
     3
370
     9
100
AcDbLine
 10
-471.080511969489
 20
422.5125392202156
 30
0.0
 11
-471.080511969489
 21
330.9924669018033
 31
0.0
  0
LINE
  5
10B
330
1F
100
AcDbEntity
  8
1-2ﾚｲﾔ
  6
Continuous
 62
     3
370
     9
100
AcDbLine
 10
-406.0804212415541
 20
430.992054502099
 30
0.0
 11
-436.0806439373944
 21
422.5125392202156
 31
0.0
  0
LINE
  5
10C
330
1F
100
AcDbEntity
  8
1-2ﾚｲﾔ
  6
Continuous
 62
     3
370
     9
100
AcDbLine
 10
-441.0804129935599
 20
477.2526614224959
 30
0.0
 11
-441.0804129935599
 21
430.992054502099
 31
0.0
  0
LINE
  5
10D
330
1F
100
AcDbEntity
  8
1-2ﾚｲﾔ
  6
Continuous
 62
     3
370
     9
100
AcDbLine
 10
-436.0806439373944
 20
477.2526614224959
 30
0.0
 11
-436.0806439373944
 21
430.992054502099
 31
0.0
  0
LINE
  5
10E
330
1F
100
AcDbEntity
  8
1-2ﾚｲﾔ
  6
Continuous
 62
     3
370
     9
100
AcDbLine
 10
-436.0806439373944
 20
422.5125392202156
 30
0.0
 11
-436.0806439373944
 21
330.9924669018033
 31
0.0
  0
LINE
  5
10F
330
1F
100
AcDbEntity
  8
1-2ﾚｲﾔ
  6
Continuous
 62
     3
370
     9
100
AcDbLine
 10
-441.0804129935599
 20
422.5125392202156
 30
0.0
 11
-441.0804129935599
 21
330.9924669018033
 31
0.0
  0
LINE
  5
110
330
1F
100
AcDbEntity
  8
1-2ﾚｲﾔ
  6
Continuous
 62
     3
370
     9
100
AcDbLine
 10
-376.080322265625
 20
430.992054502099
 30
0.0
 11
-406.0805449614654
 21
422.5125392202156
 31
0.0
  0
LINE
  5
111
330
1F
100
AcDbEntity
  8
1-2ﾚｲﾔ
  6
Continuous
 62
     3
370
     9
100
AcDbLine
 10
-411.0803140176308
 20
477.2526614224959
 30
0.0
 11
-411.0803140176308
 21
430.992054502099
 31
0.0
  0
LINE
  5
112
330
1F
100
AcDbEntity
  8
1-2ﾚｲﾔ
  6
Continuous
 62
     3
370
     9
100
AcDbLine
 10
-406.0805449614654
 20
477.2526614224959
 30
0.0
 11
-406.0805449614654
 21
430.992054502099
 31
0.0
  0
LINE
  5
113
330
1F
100
AcDbEntity
  8
1-2ﾚｲﾔ
  6
Continuous
 62
     3
370
     9
100
AcDbLine
 10
-406.0805449614654
 20
422.5125392202156
 30
0.0
 11
-406.0805449614654
 21
330.9924669018033
 31
0.0
  0
LINE
  5
114
330
1F
100
AcDbEntity
  8
1-2ﾚｲﾔ
  6
Continuous
 62
     3
370
     9
100
AcDbLine
 10
-411.0803140176308
 20
422.5125392202156
 30
0.0
 11
-411.0803140176308
 21
330.9924669018033
 31
0.0
  0
LINE
  5
115
330
1F
100
AcDbEntity
  8
1-2ﾚｲﾔ
  6
Continuous
 62
     3
370
     9
100
AcDbLine
 10
-381.0802150417018
 20
477.2526614224959
 30
0.0
 11
-381.0802150417018
 21
430.992054502099
 31
0.0
  0
LINE
  5
116
330
1F
100
AcDbEntity
  8
1-2ﾚｲﾔ
  6
Continuous
 62
     3
370
     9
100
AcDbLine
 10
-376.0804459855364
 20
477.2526614224959
 30
0.0
 11
-376.0804459855364
 21
430.992054502099
 31
0.0
  0
LINE
  5
117
330
1F
100
AcDbEntity
  8
1-2ﾚｲﾔ
  6
Continuous
 62
     3
370
     9
100
AcDbLine
 10
-376.0804459855364
 20
422.5125392202156
 30
0.0
 11
-376.0804459855364
 21
330.9924669018033
 31
0.0
  0
LINE
  5
118
330
1F
100
AcDbEntity
  8
1-2ﾚｲﾔ
  6
Continuous
 62
     3
370
     9
100
AcDbLine
 10
-381.0802150417018
 20
422.5125392202156
 30
0.0
 11
-381.0802150417018
 21
330.9924669018033
 31
0.0
  0
LINE
  5
119
330
1F
100
AcDbEntity
  8
1-4ﾚｲﾔ
  6
Continuous
 62
     7
370
     9
100
AcDbLine
 10
-516.1875544367609
 20
481.7523545971158
 30
0.0
 11
-514.5559362463049
 21
494.1453781137967
 31
0.0
  0
LINE
  5
11A
330
1F
100
AcDbEntity
  8
1-4ﾚｲﾔ
  6
Continuous
 62
     7
370
     9
100
AcDbLine
 10
-516.1875544367609
 20
481.7523545971158
 30
0.0
 11
-511.4040477855785
 21
493.3008659991429
 31
0.0
  0
LINE
  5
11B
330
1F
100
AcDbEntity
  8
1-4ﾚｲﾔ
  6
Continuous
 62
     7
370
     9
100
AcDbLine
 10
-516.1875544367609
 20
481.7523545971158
 30
0.0
 11
-481.3542134052998
 21
611.7524123330745
 31
0.0
  0
LINE
  5
11C
330
1F
100
AcDbEntity
  8
1-4ﾚｲﾔ
  6
Continuous
 62
     7
370
     9
100
AcDbLine
 10
-481.3542134052998
 20
611.7524123330745
 30
0.0
 11
-247.1209964236697
 21
611.7524123330745
 31
0.0
  0
LINE
  5
11D
330
1F
100
AcDbEntity
  8
1-4ﾚｲﾔ
  6
Continuous
 62
     7
370
     9
100
AcDbLine
 10
-414.7998294314822
 20
531.7523958370863
 30
0.0
 11
-192.5869297336887
 21
531.7523958370863
 31
0.0
  0
LINE
  5
11E
330
1F
100
AcDbEntity
  8
1-4ﾚｲﾔ
  6
Continuous
 62
     7
370
     9
100
AcDbLine
 10
361.6545806059966
 20
21.75244532505081
 30
0.0
 11
493.6485084327492
 21
21.75244532505081
 31
0.0
  0
LINE
  5
11F
330
1F
100
AcDbEntity
  8
1-2ﾚｲﾔ
  6
Continuous
 62
     3
370
     9
100
AcDbLine
 10
163.9188611829604
 20
71.75236284510993
 30
0.0
 11
-831.081081081081
 21
71.75236284510993
 31
0.0
  0
LINE
  5
120
330
1F
100
AcDbEntity
  8
1-2ﾚｲﾔ
  6
Continuous
 62
     3
370
     9
100
AcDbLine
 10
163.9188611829604
 20
76.25217973964118
 30
0.0
 11
-831.081081081081
 21
76.25217973964118
 31
0.0
  0
LINE
  5
121
330
1F
100
AcDbEntity
  8
1-2ﾚｲﾔ
  6
Continuous
 62
     3
370
     9
100
AcDbLine
 10
-831.081081081081
 20
430.992054502099
 30
0.0
 11
163.9188611829604
 21
430.992054502099
 31
0.0
  0
LINE
  5
122
330
1F
100
AcDbEntity
  8
1-2ﾚｲﾔ
  6
Continuous
 62
     3
370
     9
100
AcDbLine
 10
-831.081081081081
 20
422.5125392202156
 30
0.0
 11
163.9188611829604
 21
422.5125392202156
 31
0.0
  0
LINE
  5
123
330
1F
100
AcDbEntity
  8
1-2ﾚｲﾔ
  6
Continuous
 62
     3
370
     9
100
AcDbLine
 10
-831.081081081081
 20
477.2526614224959
 30
0.0
 11
163.9188611829604
 21
477.2526614224959
 31
0.0
  0
LINE
  5
124
330
1F
100
AcDbEntity
  8
1-2ﾚｲﾔ
  6
Continuous
 62
     3
370
     9
100
AcDbLine
 10
-831.081081081081
 20
481.7523545971158
 30
0.0
 11
163.9188611829604
 21
481.7523545971158
 31
0.0
  0
LINE
  5
125
330
1F
100
AcDbEntity
  8
1-2ﾚｲﾔ
  6
Continuous
 62
     3
370
     9
100
AcDbLine
 10
-346.079852129962
 20
430.992054502099
 30
0.0
 11
-376.0800748258023
 21
422.5125392202156
 31
0.0
  0
LINE
  5
126
330
1F
100
AcDbEntity
  8
1-2ﾚｲﾔ
  6
Continuous
 62
     3
370
     9
100
AcDbLine
 10
-496.0807181693412
 20
330.9920957420695
 30
0.0
 11
-526.0809408651816
 21
322.512580460186
 31
0.0
  0
LINE
  5
127
330
1F
100
AcDbEntity
  8
1-2ﾚｲﾔ
  6
Continuous
 62
     3
370
     9
100
AcDbLine
 10
-526.0809408651816
 20
330.9920957420695
 30
0.0
 11
-556.0810398411106
 21
322.512580460186
 31
0.0
  0
LINE
  5
128
330
1F
100
AcDbEntity
  8
1-2ﾚｲﾔ
  6
Continuous
 62
     3
370
     9
100
AcDbLine
 10
-556.0810398411106
 20
330.9920957420695
 30
0.0
 11
-586.0811388170397
 21
322.512580460186
 31
0.0
  0
LINE
  5
129
330
1F
100
AcDbEntity
  8
1-2ﾚｲﾔ
  6
Continuous
 62
     3
370
     9
100
AcDbLine
 10
-586.0806439373944
 20
330.9920957420695
 30
0.0
 11
-616.0812377929688
 21
322.512580460186
 31
0.0
  0
LINE
  5
12A
330
1F
100
AcDbEntity
  8
1-2ﾚｲﾔ
  6
Continuous
 62
     3
370
     9
100
AcDbLine
 10
-616.0807429133234
 20
330.9920957420695
 30
0.0
 11
-646.0809656091637
 21
322.512580460186
 31
0.0
  0
LINE
  5
12B
330
1F
100
AcDbEntity
  8
1-2ﾚｲﾔ
  6
Continuous
 62
     3
370
     9
100
AcDbLine
 10
-646.0809656091637
 20
330.9920957420695
 30
0.0
 11
-676.0805697054477
 21
322.512580460186
 31
0.0
  0
LINE
  5
12C
330
1F
100
AcDbEntity
  8
1-2ﾚｲﾔ
  6
Continuous
 62
     3
370
     9
100
AcDbLine
 10
-676.0805697054477
 20
330.9920957420695
 30
0.0
 11
-706.0812872809333
 21
322.512580460186
 31
0.0
  0
LINE
  5
12D
330
1F
100
AcDbEntity
  8
1-2ﾚｲﾔ
  6
Continuous
 62
     3
370
     9
100
AcDbLine
 10
-706.0812872809333
 20
330.9920957420695
 30
0.0
 11
-736.0808913772171
 21
322.512580460186
 31
0.0
  0
LINE
  5
12E
330
1F
100
AcDbEntity
  8
1-2ﾚｲﾔ
  6
Continuous
 62
     3
370
     9
100
AcDbLine
 10
-736.0808913772171
 20
330.9920957420695
 30
0.0
 11
-766.0804954735008
 21
322.512580460186
 31
0.0
  0
LINE
  5
12F
330
1F
100
AcDbEntity
  8
1-2ﾚｲﾔ
  6
Continuous
 62
     3
370
     9
100
AcDbLine
 10
-766.0804954735008
 20
330.9920957420695
 30
0.0
 11
-796.0810893290751
 21
322.512580460186
 31
0.0
  0
LINE
  5
130
330
1F
100
AcDbEntity
  8
1-2ﾚｲﾔ
  6
Continuous
 62
     3
370
     9
100
AcDbLine
 10
-796.0810893290751
 20
330.9920957420695
 30
0.0
 11
-826.080693425359
 21
322.512580460186
 31
0.0
  0
LINE
  5
131
330
1F
100
AcDbEntity
  8
1-2ﾚｲﾔ
  6
Continuous
 62
     3
370
     9
100
AcDbLine
 10
-826.080693425359
 20
330.9920957420695
 30
0.0
 11
-831.081081081081
 21
329.9921914188008
 31
0.0
  0
LINE
  5
132
330
1F
100
AcDbEntity
  8
1-2ﾚｲﾔ
  6
Continuous
 62
     3
370
     9
100
AcDbLine
 10
407.1338962864232
 20
326.7523381011276
 30
0.0
 11
402.8912930875211
 21
322.5097349022257
 31
0.0
  0
LINE
  5
133
330
1F
100
AcDbEntity
  8
1-2ﾚｲﾔ
  6
Continuous
 62
     3
370
     9
100
AcDbLine
 10
402.8912930875211
 20
322.5097349022257
 30
0.0
 11
398.6486898886193
 21
326.7523381011276
 31
0.0
  0
LINE
  5
134
330
1F
100
AcDbEntity
  8
1-2ﾚｲﾔ
  6
Continuous
 62
     3
370
     9
100
AcDbLine
 10
398.6486898886193
 20
326.7523381011276
 30
0.0
 11
402.8912930875211
 21
330.9949413000297
 31
0.0
  0
LINE
  5
135
330
1F
100
AcDbEntity
  8
1-2ﾚｲﾔ
  6
Continuous
 62
     3
370
     9
100
AcDbLine
 10
402.8912930875211
 20
330.9949413000297
 30
0.0
 11
407.1338962864232
 21
326.7523381011276
 31
0.0
  0
LINE
  5
136
330
1F
100
AcDbEntity
  8
1-2ﾚｲﾔ
  6
Continuous
 62
     3
370
     9
100
AcDbLine
 10
403.1487542229732
 20
322.7671960376775
 30
0.0
 11
403.1487542229732
 21
230.7375832645039
 31
0.0
  0
LINE
  5
137
330
1F
100
AcDbEntity
  8
1-2ﾚｲﾔ
  6
Continuous
 62
     3
370
     9
100
AcDbLine
 10
404.1487822661529
 20
323.7672240808573
 30
0.0
 11
404.1487822661529
 21
229.737555221324
 31
0.0
  0
LINE
  5
138
330
1F
100
AcDbEntity
  8
1-2ﾚｲﾔ
  6
Continuous
 62
     3
370
     9
100
AcDbLine
 10
-616.0812377929688
 20
322.512580460186
 30
0.0
 11
-616.0812377929688
 21
230.9925081417737
 31
0.0
  0
LINE
  5
139
330
1F
100
AcDbEntity
  8
1-2ﾚｲﾔ
  6
Continuous
 62
     3
370
     9
100
AcDbLine
 10
-621.080511969489
 20
322.512580460186
 30
0.0
 11
-621.080511969489
 21
230.9925081417737
 31
0.0
  0
LINE
  5
13A
330
1F
100
AcDbEntity
  8
1-2ﾚｲﾔ
  6
Continuous
 62
     3
370
     9
100
AcDbLine
 10
-646.0809656091637
 20
322.512580460186
 30
0.0
 11
-646.0809656091637
 21
230.9925081417737
 31
0.0
  0
LINE
  5
13B
330
1F
100
AcDbEntity
  8
1-2ﾚｲﾔ
  6
Continuous
 62
     3
370
     9
100
AcDbLine
 10
-651.0802397856842
 20
322.512580460186
 30
0.0
 11
-651.0802397856842
 21
230.9925081417737
 31
0.0
  0
LINE
  5
13C
330
1F
100
AcDbEntity
  8
1-2ﾚｲﾔ
  6
Continuous
 62
     3
370
     9
100
AcDbLine
 10
-676.0805697054477
 20
322.512580460186
 30
0.0
 11
-676.0805697054477
 21
230.9925081417737
 31
0.0
  0
LINE
  5
13D
330
1F
100
AcDbEntity
  8
1-2ﾚｲﾔ
  6
Continuous
 62
     3
370
     9
100
AcDbLine
 10
-681.0808336412583
 20
322.512580460186
 30
0.0
 11
-681.0808336412583
 21
230.9925081417737
 31
0.0
  0
LINE
  5
13E
330
1F
100
AcDbEntity
  8
1-2ﾚｲﾔ
  6
Continuous
 62
     3
370
     9
100
AcDbLine
 10
-706.0812872809333
 20
322.512580460186
 30
0.0
 11
-706.0812872809333
 21
230.9925081417737
 31
0.0
  0
LINE
  5
13F
330
1F
100
AcDbEntity
  8
1-2ﾚｲﾔ
  6
Continuous
 62
     3
370
     9
100
AcDbLine
 10
-711.0805614574535
 20
322.512580460186
 30
0.0
 11
-711.0805614574535
 21
230.9925081417737
 31
0.0
  0
LINE
  5
140
330
1F
100
AcDbEntity
  8
1-2ﾚｲﾔ
  6
Continuous
 62
     3
370
     9
100
AcDbLine
 10
-736.0808913772171
 20
322.512580460186
 30
0.0
 11
-736.0808913772171
 21
230.9925081417737
 31
0.0
  0
LINE
  5
141
330
1F
100
AcDbEntity
  8
1-2ﾚｲﾔ
  6
Continuous
 62
     3
370
     9
100
AcDbLine
 10
-741.0811553130279
 20
322.512580460186
 30
0.0
 11
-741.0811553130279
 21
230.9925081417737
 31
0.0
  0
LINE
  5
142
330
1F
100
AcDbEntity
  8
1-2ﾚｲﾔ
  6
Continuous
 62
     3
370
     9
100
AcDbLine
 10
-766.0804954735008
 20
322.512580460186
 30
0.0
 11
-766.0804954735008
 21
230.9925081417737
 31
0.0
  0
LINE
  5
143
330
1F
100
AcDbEntity
  8
1-2ﾚｲﾔ
  6
Continuous
 62
     3
370
     9
100
AcDbLine
 10
-771.0807594093117
 20
322.512580460186
 30
0.0
 11
-771.0807594093117
 21
230.9925081417737
 31
0.0
  0
LINE
  5
144
330
1F
100
AcDbEntity
  8
1-2ﾚｲﾔ
  6
Continuous
 62
     3
370
     9
100
AcDbLine
 10
-796.0810893290751
 20
322.512580460186
 30
0.0
 11
-796.0810893290751
 21
230.9925081417737
 31
0.0
  0
LINE
  5
145
330
1F
100
AcDbEntity
  8
1-2ﾚｲﾔ
  6
Continuous
 62
     3
370
     9
100
AcDbLine
 10
-801.0803635055954
 20
322.512580460186
 30
0.0
 11
-801.0803635055954
 21
230.9925081417737
 31
0.0
  0
LINE
  5
146
330
1F
100
AcDbEntity
  8
1-2ﾚｲﾔ
  6
Continuous
 62
     3
370
     9
100
AcDbLine
 10
-826.080693425359
 20
230.9925081417737
 30
0.0
 11
-826.080693425359
 21
322.512580460186
 31
0.0
  0
LINE
  5
147
330
1F
100
AcDbEntity
  8
1-2ﾚｲﾔ
  6
Continuous
 62
     3
370
     9
100
AcDbLine
 10
-586.0811388170397
 20
322.512580460186
 30
0.0
 11
-586.0811388170397
 21
230.9925081417737
 31
0.0
  0
LINE
  5
148
330
1F
100
AcDbEntity
  8
1-2ﾚｲﾔ
  6
Continuous
 62
     3
370
     9
100
AcDbLine
 10
-591.0809078732052
 20
322.512580460186
 30
0.0
 11
-591.0809078732052
 21
230.9925081417737
 31
0.0
  0
LINE
  5
149
330
1F
100
AcDbEntity
  8
1-2ﾚｲﾔ
  6
Continuous
 62
     3
370
     9
100
AcDbLine
 10
-526.0809408651816
 20
322.512580460186
 30
0.0
 11
-526.0809408651816
 21
230.9925081417737
 31
0.0
  0
LINE
  5
14A
330
1F
100
AcDbEntity
  8
1-2ﾚｲﾔ
  6
Continuous
 62
     3
370
     9
100
AcDbLine
 10
-531.0807099213471
 20
322.512580460186
 30
0.0
 11
-531.0807099213471
 21
230.9925081417737
 31
0.0
  0
LINE
  5
14B
330
1F
100
AcDbEntity
  8
1-2ﾚｲﾔ
  6
Continuous
 62
     3
370
     9
100
AcDbLine
 10
-556.0810398411106
 20
322.512580460186
 30
0.0
 11
-556.0810398411106
 21
230.9925081417737
 31
0.0
  0
LINE
  5
14C
330
1F
100
AcDbEntity
  8
1-2ﾚｲﾔ
  6
Continuous
 62
     3
370
     9
100
AcDbLine
 10
-561.0808088972761
 20
322.512580460186
 30
0.0
 11
-561.0808088972761
 21
230.9925081417737
 31
0.0
  0
LINE
  5
14D
330
1F
100
AcDbEntity
  8
1-2ﾚｲﾔ
  6
Continuous
 62
     3
370
     9
100
AcDbLine
 10
158.9190921267948
 20
322.512580460186
 30
0.0
 11
158.9190921267948
 21
230.9925081417737
 31
0.0
  0
LINE
  5
14E
330
1F
100
AcDbEntity
  8
1-2ﾚｲﾔ
  6
Continuous
 62
     3
370
     9
100
AcDbLine
 10
-466.0806191934121
 20
330.9920957420695
 30
0.0
 11
-496.0808418892525
 21
322.512580460186
 31
0.0
  0
LINE
  5
14F
330
1F
100
AcDbEntity
  8
1-2ﾚｲﾔ
  6
Continuous
 62
     3
370
     9
100
AcDbLine
 10
-496.0808418892525
 20
322.512580460186
 30
0.0
 11
-496.0808418892525
 21
230.9925081417737
 31
0.0
  0
LINE
  5
150
330
1F
100
AcDbEntity
  8
1-2ﾚｲﾔ
  6
Continuous
 62
     3
370
     9
100
AcDbLine
 10
-501.080610945418
 20
322.512580460186
 30
0.0
 11
-501.080610945418
 21
230.9925081417737
 31
0.0
  0
LINE
  5
151
330
1F
100
AcDbEntity
  8
1-2ﾚｲﾔ
  6
Continuous
 62
     3
370
     9
100
AcDbLine
 10
-436.0805202174831
 20
330.9920957420695
 30
0.0
 11
-466.0807429133234
 21
322.512580460186
 31
0.0
  0
LINE
  5
152
330
1F
100
AcDbEntity
  8
1-2ﾚｲﾔ
  6
Continuous
 62
     3
370
     9
100
AcDbLine
 10
-466.0807429133234
 20
322.512580460186
 30
0.0
 11
-466.0807429133234
 21
230.9925081417737
 31
0.0
  0
LINE
  5
153
330
1F
100
AcDbEntity
  8
1-2ﾚｲﾔ
  6
Continuous
 62
     3
370
     9
100
AcDbLine
 10
-471.080511969489
 20
322.512580460186
 30
0.0
 11
-471.080511969489
 21
230.9925081417737
 31
0.0
  0
LINE
  5
154
330
1F
100
AcDbEntity
  8
1-2ﾚｲﾔ
  6
Continuous
 62
     3
370
     9
100
AcDbLine
 10
-406.0804212415541
 20
330.9920957420695
 30
0.0
 11
-436.0806439373944
 21
322.512580460186
 31
0.0
  0
LINE
  5
155
330
1F
100
AcDbEntity
  8
1-2ﾚｲﾔ
  6
Continuous
 62
     3
370
     9
100
AcDbLine
 10
-436.0806439373944
 20
322.512580460186
 30
0.0
 11
-436.0806439373944
 21
230.9925081417737
 31
0.0
  0
LINE
  5
156
330
1F
100
AcDbEntity
  8
1-2ﾚｲﾔ
  6
Continuous
 62
     3
370
     9
100
AcDbLine
 10
-441.0804129935599
 20
322.512580460186
 30
0.0
 11
-441.0804129935599
 21
230.9925081417737
 31
0.0
  0
LINE
  5
157
330
1F
100
AcDbEntity
  8
1-2ﾚｲﾔ
  6
Continuous
 62
     3
370
     9
100
AcDbLine
 10
-376.080322265625
 20
330.9920957420695
 30
0.0
 11
-406.0805449614654
 21
322.512580460186
 31
0.0
  0
LINE
  5
158
330
1F
100
AcDbEntity
  8
1-2ﾚｲﾔ
  6
Continuous
 62
     3
370
     9
100
AcDbLine
 10
-406.0805449614654
 20
322.512580460186
 30
0.0
 11
-406.0805449614654
 21
230.9925081417737
 31
0.0
  0
LINE
  5
159
330
1F
100
AcDbEntity
  8
1-2ﾚｲﾔ
  6
Continuous
 62
     3
370
     9
100
AcDbLine
 10
-411.0803140176308
 20
322.512580460186
 30
0.0
 11
-411.0803140176308
 21
230.9925081417737
 31
0.0
  0
LINE
  5
15A
330
1F
100
AcDbEntity
  8
1-2ﾚｲﾔ
  6
Continuous
 62
     3
370
     9
100
AcDbLine
 10
-376.0804459855364
 20
322.512580460186
 30
0.0
 11
-376.0804459855364
 21
230.9925081417737
 31
0.0
  0
LINE
  5
15B
330
1F
100
AcDbEntity
  8
1-2ﾚｲﾔ
  6
Continuous
 62
     3
370
     9
100
AcDbLine
 10
-381.0802150417018
 20
322.512580460186
 30
0.0
 11
-381.0802150417018
 21
230.9925081417737
 31
0.0
  0
LINE
  5
15C
330
1F
100
AcDbEntity
  8
1-2ﾚｲﾔ
  6
Continuous
 62
     3
370
     9
100
AcDbLine
 10
-831.081081081081
 20
330.9920957420695
 30
0.0
 11
163.9188611829604
 21
330.9920957420695
 31
0.0
  0
LINE
  5
15D
330
1F
100
AcDbEntity
  8
1-2ﾚｲﾔ
  6
Continuous
 62
     3
370
     9
100
AcDbLine
 10
-831.081081081081
 20
322.512580460186
 30
0.0
 11
163.9188611829604
 21
322.512580460186
 31
0.0
  0
LINE
  5
15E
330
1F
100
AcDbEntity
  8
1-2ﾚｲﾔ
  6
Continuous
 62
     3
370
     9
100
AcDbLine
 10
-346.079852129962
 20
330.9920957420695
 30
0.0
 11
-376.0800748258023
 21
322.512580460186
 31
0.0
  0
LINE
  5
15F
330
1F
100
AcDbEntity
  8
1-2ﾚｲﾔ
  6
Continuous
 62
     3
370
     9
100
AcDbLine
 10
-496.0807181693412
 20
230.9921369820399
 30
0.0
 11
-526.0809408651816
 21
222.5126217001564
 31
0.0
  0
LINE
  5
160
330
1F
100
AcDbEntity
  8
1-2ﾚｲﾔ
  6
Continuous
 62
     3
370
     9
100
AcDbLine
 10
-526.0809408651816
 20
230.9921369820399
 30
0.0
 11
-556.0810398411106
 21
222.5126217001564
 31
0.0
  0
LINE
  5
161
330
1F
100
AcDbEntity
  8
1-2ﾚｲﾔ
  6
Continuous
 62
     3
370
     9
100
AcDbLine
 10
-556.0810398411106
 20
230.9921369820399
 30
0.0
 11
-586.0811388170397
 21
222.5126217001564
 31
0.0
  0
LINE
  5
162
330
1F
100
AcDbEntity
  8
1-2ﾚｲﾔ
  6
Continuous
 62
     3
370
     9
100
AcDbLine
 10
-586.0806439373944
 20
230.9921369820399
 30
0.0
 11
-616.0812377929688
 21
222.5126217001564
 31
0.0
  0
LINE
  5
163
330
1F
100
AcDbEntity
  8
1-2ﾚｲﾔ
  6
Continuous
 62
     3
370
     9
100
AcDbLine
 10
-616.0807429133234
 20
230.9921369820399
 30
0.0
 11
-646.0809656091637
 21
222.5126217001564
 31
0.0
  0
LINE
  5
164
330
1F
100
AcDbEntity
  8
1-2ﾚｲﾔ
  6
Continuous
 62
     3
370
     9
100
AcDbLine
 10
-646.0809656091637
 20
230.9921369820399
 30
0.0
 11
-676.0805697054477
 21
222.5126217001564
 31
0.0
  0
LINE
  5
165
330
1F
100
AcDbEntity
  8
1-2ﾚｲﾔ
  6
Continuous
 62
     3
370
     9
100
AcDbLine
 10
-676.0805697054477
 20
230.9921369820399
 30
0.0
 11
-706.0812872809333
 21
222.5126217001564
 31
0.0
  0
LINE
  5
166
330
1F
100
AcDbEntity
  8
1-2ﾚｲﾔ
  6
Continuous
 62
     3
370
     9
100
AcDbLine
 10
-706.0812872809333
 20
230.9921369820399
 30
0.0
 11
-736.0808913772171
 21
222.5126217001564
 31
0.0
  0
LINE
  5
167
330
1F
100
AcDbEntity
  8
1-2ﾚｲﾔ
  6
Continuous
 62
     3
370
     9
100
AcDbLine
 10
-736.0808913772171
 20
230.9921369820399
 30
0.0
 11
-766.0804954735008
 21
222.5126217001564
 31
0.0
  0
LINE
  5
168
330
1F
100
AcDbEntity
  8
1-2ﾚｲﾔ
  6
Continuous
 62
     3
370
     9
100
AcDbLine
 10
-766.0804954735008
 20
230.9921369820399
 30
0.0
 11
-796.0810893290751
 21
222.5126217001564
 31
0.0
  0
LINE
  5
169
330
1F
100
AcDbEntity
  8
1-2ﾚｲﾔ
  6
Continuous
 62
     3
370
     9
100
AcDbLine
 10
-796.0810893290751
 20
230.9921369820399
 30
0.0
 11
-826.080693425359
 21
222.5126217001564
 31
0.0
  0
LINE
  5
16A
330
1F
100
AcDbEntity
  8
1-2ﾚｲﾔ
  6
Continuous
 62
     3
370
     9
100
AcDbLine
 10
-826.080693425359
 20
230.9921369820399
 30
0.0
 11
-831.081081081081
 21
229.9922326587713
 31
0.0
  0
LINE
  5
16B
330
1F
100
AcDbEntity
  8
1-2ﾚｲﾔ
  6
Continuous
 62
     3
370
     9
100
AcDbLine
 10
407.1338962864232
 20
226.7523793410981
 30
0.0
 11
402.8912930875211
 21
222.5097761421961
 31
0.0
  0
LINE
  5
16C
330
1F
100
AcDbEntity
  8
1-2ﾚｲﾔ
  6
Continuous
 62
     3
370
     9
100
AcDbLine
 10
402.8912930875211
 20
222.5097761421961
 30
0.0
 11
398.6486898886193
 21
226.7523793410981
 31
0.0
  0
LINE
  5
16D
330
1F
100
AcDbEntity
  8
1-2ﾚｲﾔ
  6
Continuous
 62
     3
370
     9
100
AcDbLine
 10
398.6486898886193
 20
226.7523793410981
 30
0.0
 11
402.8912930875211
 21
230.9949825400002
 31
0.0
  0
LINE
  5
16E
330
1F
100
AcDbEntity
  8
1-2ﾚｲﾔ
  6
Continuous
 62
     3
370
     9
100
AcDbLine
 10
402.8912930875211
 20
230.9949825400002
 30
0.0
 11
407.1338962864232
 21
226.7523793410981
 31
0.0
  0
LINE
  5
16F
330
1F
100
AcDbEntity
  8
1-2ﾚｲﾔ
  6
Continuous
 62
     3
370
     9
100
AcDbLine
 10
-466.0806191934121
 20
230.9921369820399
 30
0.0
 11
-496.0808418892525
 21
222.5126217001564
 31
0.0
  0
LINE
  5
170
330
1F
100
AcDbEntity
  8
1-2ﾚｲﾔ
  6
Continuous
 62
     3
370
     9
100
AcDbLine
 10
-436.0805202174831
 20
230.9921369820399
 30
0.0
 11
-466.0807429133234
 21
222.5126217001564
 31
0.0
  0
LINE
  5
171
330
1F
100
AcDbEntity
  8
1-2ﾚｲﾔ
  6
Continuous
 62
     3
370
     9
100
AcDbLine
 10
-406.0804212415541
 20
230.9921369820399
 30
0.0
 11
-436.0806439373944
 21
222.5126217001564
 31
0.0
  0
LINE
  5
172
330
1F
100
AcDbEntity
  8
1-2ﾚｲﾔ
  6
Continuous
 62
     3
370
     9
100
AcDbLine
 10
-376.080322265625
 20
230.9921369820399
 30
0.0
 11
-406.0805449614654
 21
222.5126217001564
 31
0.0
  0
LINE
  5
173
330
1F
100
AcDbEntity
  8
1-2ﾚｲﾔ
  6
Continuous
 62
     3
370
     9
100
AcDbLine
 10
-831.081081081081
 20
230.9921369820399
 30
0.0
 11
163.9188611829604
 21
230.9921369820399
 31
0.0
  0
LINE
  5
174
330
1F
100
AcDbEntity
  8
1-2ﾚｲﾔ
  6
Continuous
 62
     3
370
     9
100
AcDbLine
 10
-831.081081081081
 20
222.5126217001564
 30
0.0
 11
163.9188611829604
 21
222.5126217001564
 31
0.0
  0
LINE
  5
175
330
1F
100
AcDbEntity
  8
1-2ﾚｲﾔ
  6
Continuous
 62
     3
370
     9
100
AcDbLine
 10
-346.079852129962
 20
230.9921369820399
 30
0.0
 11
-376.0800748258023
 21
222.5126217001564
 31
0.0
  0
LINE
  5
176
330
1F
100
AcDbEntity
  8
1-4ﾚｲﾔ
  6
Continuous
 62
     7
370
     9
100
AcDbLine
 10
-485.7796746331292
 20
430.992054502099
 30
0.0
 11
-448.0629173485008
 21
571.7524040850803
 31
0.0
  0
LINE
  5
177
330
1F
100
AcDbEntity
  8
1-4ﾚｲﾔ
  6
Continuous
 62
     7
370
     9
100
AcDbLine
 10
-448.0629173485008
 20
571.7524040850803
 30
0.0
 11
-247.1209964236697
 21
571.7524040850803
 31
0.0
  0
LINE
  5
178
330
1F
100
AcDbEntity
  8
1-4ﾚｲﾔ
  6
Continuous
 62
     7
370
     9
100
AcDbLine
 10
-485.7796746331292
 20
430.992054502099
 30
0.0
 11
-484.1480564426731
 21
443.3850780187797
 31
0.0
  0
LINE
  5
179
330
1F
100
AcDbEntity
  8
1-4ﾚｲﾔ
  6
Continuous
 62
     7
370
     9
100
AcDbLine
 10
-485.7796746331292
 20
430.992054502099
 30
0.0
 11
-480.9960442620354
 21
442.540565904126
 31
0.0
  0
LINE
  5
17A
330
1F
100
AcDbEntity
  8
1-2ﾚｲﾔ
  6
JWW_CENTER1
 62
     3
370
     9
100
AcDbLine
 10
379.3279699377112
 20
276.752358721113
 30
0.0
 11
446.445774387669
 21
276.752358721113
 31
0.0
  0
LINE
  5
17B
330
1F
100
AcDbEntity
  8
1-2ﾚｲﾔ
  6
Continuous
 62
     3
370
     9
100
AcDbLine
 10
423.6486486486487
 20
477.252290262762
 30
0.0
 11
423.6486486486487
 21
76.25242717946384
 31
0.0
  0
LINE
  5
17C
330
1F
100
AcDbEntity
  8
1-2ﾚｲﾔ
  6
Continuous
 62
     3
370
     9
100
AcDbLine
 10
418.1488037109375
 20
477.252290262762
 30
0.0
 11
418.1488037109375
 21
76.25242717946384
 31
0.0
  0
LINE
  5
17D
330
1F
100
AcDbEntity
  8
1-2ﾚｲﾔ
  6
Continuous
 62
     3
370
     9
100
AcDbLine
 10
419.1488317541175
 20
477.252290262762
 30
0.0
 11
419.1488317541175
 21
76.25242717946384
 31
0.0
  0
LINE
  5
17E
330
1F
100
AcDbEntity
  8
1-4ﾚｲﾔ
  6
Continuous
 62
     7
370
     9
100
AcDbLine
 10
487.2486011402029
 20
474.7524057346792
 30
0.0
 11
488.8802193306589
 21
487.1454292513599
 31
0.0
  0
LINE
  5
17F
330
1F
100
AcDbEntity
  8
1-4ﾚｲﾔ
  6
Continuous
 62
     7
370
     9
100
AcDbLine
 10
487.2486011402029
 20
474.7524057346792
 30
0.0
 11
492.0321077913852
 21
486.3009171367062
 31
0.0
  0
LINE
  5
180
330
1F
100
AcDbEntity
  8
1-4ﾚｲﾔ
  6
Continuous
 62
     7
370
     9
100
AcDbLine
 10
487.2486011402029
 20
474.7524057346792
 30
0.0
 11
513.2396801097974
 21
571.7524040850803
 31
0.0
  0
LINE
  5
181
330
1F
100
AcDbEntity
  8
1-4ﾚｲﾔ
  6
Continuous
 62
     7
370
     9
100
AcDbLine
 10
794.293212890625
 20
571.7524040850803
 30
0.0
 11
513.2396801097974
 21
571.7524040850803
 31
0.0
  0
LINE
  5
182
330
1F
100
AcDbEntity
  8
1-2ﾚｲﾔ
  6
Continuous
 62
     3
370
     9
100
AcDbLine
 10
-831.081081081081
 20
71.75236284510993
 30
0.0
 11
-831.081081081081
 21
481.7523545971158
 31
0.0
  0
LINE
  5
183
330
1F
100
AcDbEntity
  8
1-2ﾚｲﾔ
  6
Continuous
 62
     3
370
     9
100
AcDbLine
 10
163.9188611829604
 20
481.7523545971158
 30
0.0
 11
163.9188611829604
 21
71.75236284510993
 31
0.0
  0
LINE
  5
184
330
1F
100
AcDbEntity
  8
1-4ﾚｲﾔ
  6
Continuous
 62
     7
370
     9
100
AcDbLine
 10
-648.5807882772908
 20
511.3768399222848
 30
0.0
 11
-618.5806893013619
 21
511.3768399222848
 31
0.0
  0
LINE
  5
185
330
1F
100
AcDbEntity
  8
1-4ﾚｲﾔ
  6
Continuous
 62
     7
370
     9
100
AcDbLine
 10
-648.5807882772908
 20
446.2469670073776
 30
0.0
 11
-648.5807882772908
 21
512.876820127099
 31
0.0
  0
LINE
  5
186
330
1F
100
AcDbEntity
  8
1-4ﾚｲﾔ
  6
Continuous
 62
     7
370
     9
100
AcDbLine
 10
-618.5806893013619
 20
446.2469670073776
 30
0.0
 11
-618.5806893013619
 21
512.876820127099
 31
0.0
  0
LINE
  5
187
330
1F
100
AcDbEntity
  8
1-2ﾚｲﾔ
  6
Continuous
 62
     3
370
     9
100
AcDbLine
 10
-496.0807181693412
 20
130.9921163620546
 30
0.0
 11
-526.0809408651816
 21
122.5126010801711
 31
0.0
  0
LINE
  5
188
330
1F
100
AcDbEntity
  8
1-2ﾚｲﾔ
  6
Continuous
 62
     3
370
     9
100
AcDbLine
 10
-526.0809408651816
 20
130.9921163620546
 30
0.0
 11
-556.0810398411106
 21
122.5126010801711
 31
0.0
  0
LINE
  5
189
330
1F
100
AcDbEntity
  8
1-2ﾚｲﾔ
  6
Continuous
 62
     3
370
     9
100
AcDbLine
 10
-556.0810398411106
 20
130.9921163620546
 30
0.0
 11
-586.0811388170397
 21
122.5126010801711
 31
0.0
  0
LINE
  5
18A
330
1F
100
AcDbEntity
  8
1-2ﾚｲﾔ
  6
Continuous
 62
     3
370
     9
100
AcDbLine
 10
-586.0806439373944
 20
130.9921163620546
 30
0.0
 11
-616.0812377929688
 21
122.5126010801711
 31
0.0
  0
LINE
  5
18B
330
1F
100
AcDbEntity
  8
1-2ﾚｲﾔ
  6
Continuous
 62
     3
370
     9
100
AcDbLine
 10
-616.0807429133234
 20
130.9921163620546
 30
0.0
 11
-646.0809656091637
 21
122.5126010801711
 31
0.0
  0
LINE
  5
18C
330
1F
100
AcDbEntity
  8
1-2ﾚｲﾔ
  6
Continuous
 62
     3
370
     9
100
AcDbLine
 10
-646.0809656091637
 20
130.9921163620546
 30
0.0
 11
-676.0805697054477
 21
122.5126010801711
 31
0.0
  0
LINE
  5
18D
330
1F
100
AcDbEntity
  8
1-2ﾚｲﾔ
  6
Continuous
 62
     3
370
     9
100
AcDbLine
 10
-676.0805697054477
 20
130.9921163620546
 30
0.0
 11
-706.0812872809333
 21
122.5126010801711
 31
0.0
  0
LINE
  5
18E
330
1F
100
AcDbEntity
  8
1-2ﾚｲﾔ
  6
Continuous
 62
     3
370
     9
100
AcDbLine
 10
-706.0812872809333
 20
130.9921163620546
 30
0.0
 11
-736.0808913772171
 21
122.5126010801711
 31
0.0
  0
LINE
  5
18F
330
1F
100
AcDbEntity
  8
1-2ﾚｲﾔ
  6
Continuous
 62
     3
370
     9
100
AcDbLine
 10
-736.0808913772171
 20
130.9921163620546
 30
0.0
 11
-766.0804954735008
 21
122.5126010801711
 31
0.0
  0
LINE
  5
190
330
1F
100
AcDbEntity
  8
1-2ﾚｲﾔ
  6
Continuous
 62
     3
370
     9
100
AcDbLine
 10
-766.0804954735008
 20
130.9921163620546
 30
0.0
 11
-796.0810893290751
 21
122.5126010801711
 31
0.0
  0
LINE
  5
191
330
1F
100
AcDbEntity
  8
1-2ﾚｲﾔ
  6
Continuous
 62
     3
370
     9
100
AcDbLine
 10
-796.0810893290751
 20
130.9921163620546
 30
0.0
 11
-826.080693425359
 21
122.5126010801711
 31
0.0
  0
LINE
  5
192
330
1F
100
AcDbEntity
  8
1-2ﾚｲﾔ
  6
Continuous
 62
     3
370
     9
100
AcDbLine
 10
-826.080693425359
 20
130.9921163620546
 30
0.0
 11
-831.081081081081
 21
129.992212038786
 31
0.0
  0
LINE
  5
193
330
1F
100
AcDbEntity
  8
1-2ﾚｲﾔ
  6
Continuous
 62
     3
370
     9
100
AcDbLine
 10
407.1338962864232
 20
126.7523587211129
 30
0.0
 11
402.8912930875211
 21
122.5097555222108
 31
0.0
  0
LINE
  5
194
330
1F
100
AcDbEntity
  8
1-2ﾚｲﾔ
  6
Continuous
 62
     3
370
     9
100
AcDbLine
 10
402.8912930875211
 20
122.5097555222108
 30
0.0
 11
398.6486898886193
 21
126.7523587211129
 31
0.0
  0
LINE
  5
195
330
1F
100
AcDbEntity
  8
1-2ﾚｲﾔ
  6
Continuous
 62
     3
370
     9
100
AcDbLine
 10
398.6486898886193
 20
126.7523587211129
 30
0.0
 11
402.8912930875211
 21
130.9949619200149
 31
0.0
  0
LINE
  5
196
330
1F
100
AcDbEntity
  8
1-2ﾚｲﾔ
  6
Continuous
 62
     3
370
     9
100
AcDbLine
 10
402.8912930875211
 20
130.9949619200149
 30
0.0
 11
407.1338962864232
 21
126.7523587211129
 31
0.0
  0
LINE
  5
197
330
1F
100
AcDbEntity
  8
1-2ﾚｲﾔ
  6
Continuous
 62
     3
370
     9
100
AcDbLine
 10
-466.0806191934121
 20
130.9921163620546
 30
0.0
 11
-496.0808418892525
 21
122.5126010801711
 31
0.0
  0
LINE
  5
198
330
1F
100
AcDbEntity
  8
1-2ﾚｲﾔ
  6
Continuous
 62
     3
370
     9
100
AcDbLine
 10
-436.0805202174831
 20
130.9921163620546
 30
0.0
 11
-466.0807429133234
 21
122.5126010801711
 31
0.0
  0
LINE
  5
199
330
1F
100
AcDbEntity
  8
1-2ﾚｲﾔ
  6
Continuous
 62
     3
370
     9
100
AcDbLine
 10
-406.0804212415541
 20
130.9921163620546
 30
0.0
 11
-436.0806439373944
 21
122.5126010801711
 31
0.0
  0
LINE
  5
19A
330
1F
100
AcDbEntity
  8
1-2ﾚｲﾔ
  6
Continuous
 62
     3
370
     9
100
AcDbLine
 10
-376.080322265625
 20
130.9921163620546
 30
0.0
 11
-406.0805449614654
 21
122.5126010801711
 31
0.0
  0
LINE
  5
19B
330
1F
100
AcDbEntity
  8
1-2ﾚｲﾔ
  6
Continuous
 62
     3
370
     9
100
AcDbLine
 10
-831.081081081081
 20
130.9921163620546
 30
0.0
 11
163.9188611829604
 21
130.9921163620546
 31
0.0
  0
LINE
  5
19C
330
1F
100
AcDbEntity
  8
1-2ﾚｲﾔ
  6
Continuous
 62
     3
370
     9
100
AcDbLine
 10
-831.081081081081
 20
122.5126010801711
 30
0.0
 11
163.9188611829604
 21
122.5126010801711
 31
0.0
  0
LINE
  5
19D
330
1F
100
AcDbEntity
  8
1-2ﾚｲﾔ
  6
Continuous
 62
     3
370
     9
100
AcDbLine
 10
-346.079852129962
 20
130.9921163620546
 30
0.0
 11
-376.0800748258023
 21
122.5126010801711
 31
0.0
  0
LINE
  5
19E
330
1F
100
AcDbEntity
  8
1-2ﾚｲﾔ
  6
Continuous
 62
     3
370
     9
100
AcDbLine
 10
-826.080693425359
 20
76.25217973964118
 30
0.0
 11
-826.080693425359
 21
122.5126010801711
 31
0.0
  0
LINE
  5
19F
330
1F
100
AcDbEntity
  8
1-2ﾚｲﾔ
  6
Continuous
 62
     3
370
     9
100
AcDbLine
 10
-826.080693425359
 20
130.9921163620546
 30
0.0
 11
-826.080693425359
 21
222.5126217001564
 31
0.0
  0
LINE
  5
1A0
330
1F
100
AcDbEntity
  8
1-2ﾚｲﾔ
  6
Continuous
 62
     3
370
     9
100
AcDbLine
 10
-801.0803635055954
 20
222.5126217001564
 30
0.0
 11
-801.0803635055954
 21
130.9921163620546
 31
0.0
  0
LINE
  5
1A1
330
1F
100
AcDbEntity
  8
1-2ﾚｲﾔ
  6
Continuous
 62
     3
370
     9
100
AcDbLine
 10
-801.0803635055954
 20
122.5126010801711
 30
0.0
 11
-801.0803635055954
 21
76.25217973964118
 31
0.0
  0
LINE
  5
1A2
330
1F
100
AcDbEntity
  8
1-2ﾚｲﾔ
  6
Continuous
 62
     3
370
     9
100
AcDbLine
 10
-796.0810893290751
 20
222.5126217001564
 30
0.0
 11
-796.0810893290751
 21
130.9921163620546
 31
0.0
  0
LINE
  5
1A3
330
1F
100
AcDbEntity
  8
1-2ﾚｲﾔ
  6
Continuous
 62
     3
370
     9
100
AcDbLine
 10
-796.0810893290751
 20
122.5126010801711
 30
0.0
 11
-796.0810893290751
 21
76.25217973964118
 31
0.0
  0
LINE
  5
1A4
330
1F
100
AcDbEntity
  8
1-2ﾚｲﾔ
  6
Continuous
 62
     3
370
     9
100
AcDbLine
 10
-771.0807594093117
 20
222.5126217001564
 30
0.0
 11
-771.0807594093117
 21
130.9921163620546
 31
0.0
  0
LINE
  5
1A5
330
1F
100
AcDbEntity
  8
1-2ﾚｲﾔ
  6
Continuous
 62
     3
370
     9
100
AcDbLine
 10
-771.0807594093117
 20
122.5126010801711
 30
0.0
 11
-771.0807594093117
 21
76.25217973964118
 31
0.0
  0
LINE
  5
1A6
330
1F
100
AcDbEntity
  8
1-2ﾚｲﾔ
  6
Continuous
 62
     3
370
     9
100
AcDbLine
 10
-766.0804954735008
 20
222.5126217001564
 30
0.0
 11
-766.0804954735008
 21
130.9921163620546
 31
0.0
  0
LINE
  5
1A7
330
1F
100
AcDbEntity
  8
1-2ﾚｲﾔ
  6
Continuous
 62
     3
370
     9
100
AcDbLine
 10
-766.0804954735008
 20
122.5126010801711
 30
0.0
 11
-766.0804954735008
 21
76.25217973964118
 31
0.0
  0
LINE
  5
1A8
330
1F
100
AcDbEntity
  8
1-2ﾚｲﾔ
  6
Continuous
 62
     3
370
     9
100
AcDbLine
 10
-741.0811553130279
 20
222.5126217001564
 30
0.0
 11
-741.0811553130279
 21
130.9921163620546
 31
0.0
  0
LINE
  5
1A9
330
1F
100
AcDbEntity
  8
1-2ﾚｲﾔ
  6
Continuous
 62
     3
370
     9
100
AcDbLine
 10
-741.0811553130279
 20
122.5126010801711
 30
0.0
 11
-741.0811553130279
 21
76.25217973964118
 31
0.0
  0
LINE
  5
1AA
330
1F
100
AcDbEntity
  8
1-2ﾚｲﾔ
  6
Continuous
 62
     3
370
     9
100
AcDbLine
 10
-736.0808913772171
 20
222.5126217001564
 30
0.0
 11
-736.0808913772171
 21
130.9921163620546
 31
0.0
  0
LINE
  5
1AB
330
1F
100
AcDbEntity
  8
1-2ﾚｲﾔ
  6
Continuous
 62
     3
370
     9
100
AcDbLine
 10
-736.0808913772171
 20
122.5126010801711
 30
0.0
 11
-736.0808913772171
 21
76.25217973964118
 31
0.0
  0
LINE
  5
1AC
330
1F
100
AcDbEntity
  8
1-2ﾚｲﾔ
  6
Continuous
 62
     3
370
     9
100
AcDbLine
 10
-711.0805614574535
 20
222.5126217001564
 30
0.0
 11
-711.0805614574535
 21
130.9921163620546
 31
0.0
  0
LINE
  5
1AD
330
1F
100
AcDbEntity
  8
1-2ﾚｲﾔ
  6
Continuous
 62
     3
370
     9
100
AcDbLine
 10
-711.0805614574535
 20
122.5126010801711
 30
0.0
 11
-711.0805614574535
 21
76.25217973964118
 31
0.0
  0
LINE
  5
1AE
330
1F
100
AcDbEntity
  8
1-2ﾚｲﾔ
  6
Continuous
 62
     3
370
     9
100
AcDbLine
 10
-706.0812872809333
 20
222.5126217001564
 30
0.0
 11
-706.0812872809333
 21
130.9921163620546
 31
0.0
  0
LINE
  5
1AF
330
1F
100
AcDbEntity
  8
1-2ﾚｲﾔ
  6
Continuous
 62
     3
370
     9
100
AcDbLine
 10
-706.0812872809333
 20
122.5126010801711
 30
0.0
 11
-706.0812872809333
 21
76.25217973964118
 31
0.0
  0
LINE
  5
1B0
330
1F
100
AcDbEntity
  8
1-2ﾚｲﾔ
  6
Continuous
 62
     3
370
     9
100
AcDbLine
 10
-681.0808336412583
 20
222.5126217001564
 30
0.0
 11
-681.0808336412583
 21
130.9921163620546
 31
0.0
  0
LINE
  5
1B1
330
1F
100
AcDbEntity
  8
1-2ﾚｲﾔ
  6
Continuous
 62
     3
370
     9
100
AcDbLine
 10
-681.0808336412583
 20
122.5126010801711
 30
0.0
 11
-681.0808336412583
 21
76.25217973964118
 31
0.0
  0
LINE
  5
1B2
330
1F
100
AcDbEntity
  8
1-2ﾚｲﾔ
  6
Continuous
 62
     3
370
     9
100
AcDbLine
 10
-676.0805697054477
 20
222.5126217001564
 30
0.0
 11
-676.0805697054477
 21
130.9921163620546
 31
0.0
  0
LINE
  5
1B3
330
1F
100
AcDbEntity
  8
1-2ﾚｲﾔ
  6
Continuous
 62
     3
370
     9
100
AcDbLine
 10
-676.0805697054477
 20
122.5126010801711
 30
0.0
 11
-676.0805697054477
 21
76.25217973964118
 31
0.0
  0
LINE
  5
1B4
330
1F
100
AcDbEntity
  8
1-2ﾚｲﾔ
  6
Continuous
 62
     3
370
     9
100
AcDbLine
 10
-616.0812377929688
 20
222.5126217001564
 30
0.0
 11
-616.0812377929688
 21
130.9921163620546
 31
0.0
  0
LINE
  5
1B5
330
1F
100
AcDbEntity
  8
1-2ﾚｲﾔ
  6
Continuous
 62
     3
370
     9
100
AcDbLine
 10
-616.0812377929688
 20
122.5126010801711
 30
0.0
 11
-616.0812377929688
 21
76.25217973964118
 31
0.0
  0
LINE
  5
1B6
330
1F
100
AcDbEntity
  8
1-2ﾚｲﾔ
  6
Continuous
 62
     3
370
     9
100
AcDbLine
 10
-621.080511969489
 20
222.5126217001564
 30
0.0
 11
-621.080511969489
 21
130.9921163620546
 31
0.0
  0
LINE
  5
1B7
330
1F
100
AcDbEntity
  8
1-2ﾚｲﾔ
  6
Continuous
 62
     3
370
     9
100
AcDbLine
 10
-621.080511969489
 20
122.5126010801711
 30
0.0
 11
-621.080511969489
 21
76.25217973964118
 31
0.0
  0
LINE
  5
1B8
330
1F
100
AcDbEntity
  8
1-2ﾚｲﾔ
  6
Continuous
 62
     3
370
     9
100
AcDbLine
 10
-646.0809656091637
 20
222.5126217001564
 30
0.0
 11
-646.0809656091637
 21
130.9921163620546
 31
0.0
  0
LINE
  5
1B9
330
1F
100
AcDbEntity
  8
1-2ﾚｲﾔ
  6
Continuous
 62
     3
370
     9
100
AcDbLine
 10
-646.0809656091637
 20
122.5126010801711
 30
0.0
 11
-646.0809656091637
 21
76.25217973964118
 31
0.0
  0
LINE
  5
1BA
330
1F
100
AcDbEntity
  8
1-2ﾚｲﾔ
  6
Continuous
 62
     3
370
     9
100
AcDbLine
 10
-651.0802397856842
 20
222.5126217001564
 30
0.0
 11
-651.0802397856842
 21
130.9921163620546
 31
0.0
  0
LINE
  5
1BB
330
1F
100
AcDbEntity
  8
1-2ﾚｲﾔ
  6
Continuous
 62
     3
370
     9
100
AcDbLine
 10
-651.0802397856842
 20
122.5126010801711
 30
0.0
 11
-651.0802397856842
 21
76.25217973964118
 31
0.0
  0
LINE
  5
1BC
330
1F
100
AcDbEntity
  8
1-2ﾚｲﾔ
  6
Continuous
 62
     3
370
     9
100
AcDbLine
 10
-556.0810398411106
 20
222.5126217001564
 30
0.0
 11
-556.0810398411106
 21
130.9921163620546
 31
0.0
  0
LINE
  5
1BD
330
1F
100
AcDbEntity
  8
1-2ﾚｲﾔ
  6
Continuous
 62
     3
370
     9
100
AcDbLine
 10
-556.0810398411106
 20
122.5126010801711
 30
0.0
 11
-556.0810398411106
 21
76.25217973964118
 31
0.0
  0
LINE
  5
1BE
330
1F
100
AcDbEntity
  8
1-2ﾚｲﾔ
  6
Continuous
 62
     3
370
     9
100
AcDbLine
 10
-561.0808088972761
 20
222.5126217001564
 30
0.0
 11
-561.0808088972761
 21
130.9921163620546
 31
0.0
  0
LINE
  5
1BF
330
1F
100
AcDbEntity
  8
1-2ﾚｲﾔ
  6
Continuous
 62
     3
370
     9
100
AcDbLine
 10
-561.0808088972761
 20
122.5126010801711
 30
0.0
 11
-561.0808088972761
 21
76.25217973964118
 31
0.0
  0
LINE
  5
1C0
330
1F
100
AcDbEntity
  8
1-2ﾚｲﾔ
  6
Continuous
 62
     3
370
     9
100
AcDbLine
 10
-586.0811388170397
 20
222.5126217001564
 30
0.0
 11
-586.0811388170397
 21
130.9921163620546
 31
0.0
  0
LINE
  5
1C1
330
1F
100
AcDbEntity
  8
1-2ﾚｲﾔ
  6
Continuous
 62
     3
370
     9
100
AcDbLine
 10
-586.0811388170397
 20
122.5126010801711
 30
0.0
 11
-586.0811388170397
 21
76.25217973964118
 31
0.0
  0
LINE
  5
1C2
330
1F
100
AcDbEntity
  8
1-2ﾚｲﾔ
  6
Continuous
 62
     3
370
     9
100
AcDbLine
 10
-591.0809078732052
 20
222.5126217001564
 30
0.0
 11
-591.0809078732052
 21
130.9921163620546
 31
0.0
  0
LINE
  5
1C3
330
1F
100
AcDbEntity
  8
1-2ﾚｲﾔ
  6
Continuous
 62
     3
370
     9
100
AcDbLine
 10
-591.0809078732052
 20
122.5126010801711
 30
0.0
 11
-591.0809078732052
 21
76.25217973964118
 31
0.0
  0
LINE
  5
1C4
330
1F
100
AcDbEntity
  8
1-2ﾚｲﾔ
  6
Continuous
 62
     3
370
     9
100
AcDbLine
 10
-526.0809408651816
 20
222.5126217001564
 30
0.0
 11
-526.0809408651816
 21
130.9921163620546
 31
0.0
  0
LINE
  5
1C5
330
1F
100
AcDbEntity
  8
1-2ﾚｲﾔ
  6
Continuous
 62
     3
370
     9
100
AcDbLine
 10
-526.0809408651816
 20
122.5126010801711
 30
0.0
 11
-526.0809408651816
 21
76.25217973964118
 31
0.0
  0
LINE
  5
1C6
330
1F
100
AcDbEntity
  8
1-2ﾚｲﾔ
  6
Continuous
 62
     3
370
     9
100
AcDbLine
 10
-531.0807099213471
 20
222.5126217001564
 30
0.0
 11
-531.0807099213471
 21
130.9921163620546
 31
0.0
  0
LINE
  5
1C7
330
1F
100
AcDbEntity
  8
1-2ﾚｲﾔ
  6
Continuous
 62
     3
370
     9
100
AcDbLine
 10
-531.0807099213471
 20
122.5126010801711
 30
0.0
 11
-531.0807099213471
 21
76.25217973964118
 31
0.0
  0
LINE
  5
1C8
330
1F
100
AcDbEntity
  8
1-2ﾚｲﾔ
  6
Continuous
 62
     3
370
     9
100
AcDbLine
 10
-496.0808418892525
 20
222.5126217001564
 30
0.0
 11
-496.0808418892525
 21
130.9921163620546
 31
0.0
  0
LINE
  5
1C9
330
1F
100
AcDbEntity
  8
1-2ﾚｲﾔ
  6
Continuous
 62
     3
370
     9
100
AcDbLine
 10
-496.0808418892525
 20
122.5126010801711
 30
0.0
 11
-496.0808418892525
 21
76.25217973964118
 31
0.0
  0
LINE
  5
1CA
330
1F
100
AcDbEntity
  8
1-2ﾚｲﾔ
  6
Continuous
 62
     3
370
     9
100
AcDbLine
 10
-501.080610945418
 20
222.5126217001564
 30
0.0
 11
-501.080610945418
 21
130.9921163620546
 31
0.0
  0
LINE
  5
1CB
330
1F
100
AcDbEntity
  8
1-2ﾚｲﾔ
  6
Continuous
 62
     3
370
     9
100
AcDbLine
 10
-501.080610945418
 20
122.5126010801711
 30
0.0
 11
-501.080610945418
 21
76.25217973964118
 31
0.0
  0
LINE
  5
1CC
330
1F
100
AcDbEntity
  8
1-2ﾚｲﾔ
  6
Continuous
 62
     3
370
     9
100
AcDbLine
 10
-466.0807429133234
 20
222.5126217001564
 30
0.0
 11
-466.0807429133234
 21
130.9921163620546
 31
0.0
  0
LINE
  5
1CD
330
1F
100
AcDbEntity
  8
1-2ﾚｲﾔ
  6
Continuous
 62
     3
370
     9
100
AcDbLine
 10
-466.0807429133234
 20
122.5126010801711
 30
0.0
 11
-466.0807429133234
 21
76.25217973964118
 31
0.0
  0
LINE
  5
1CE
330
1F
100
AcDbEntity
  8
1-2ﾚｲﾔ
  6
Continuous
 62
     3
370
     9
100
AcDbLine
 10
-471.080511969489
 20
222.5126217001564
 30
0.0
 11
-471.080511969489
 21
130.9921163620546
 31
0.0
  0
LINE
  5
1CF
330
1F
100
AcDbEntity
  8
1-2ﾚｲﾔ
  6
Continuous
 62
     3
370
     9
100
AcDbLine
 10
-471.080511969489
 20
122.5126010801711
 30
0.0
 11
-471.080511969489
 21
76.25217973964118
 31
0.0
  0
LINE
  5
1D0
330
1F
100
AcDbEntity
  8
1-2ﾚｲﾔ
  6
Continuous
 62
     3
370
     9
100
AcDbLine
 10
158.9190921267948
 20
222.5126217001564
 30
0.0
 11
158.9190921267948
 21
130.9921163620546
 31
0.0
  0
LINE
  5
1D1
330
1F
100
AcDbEntity
  8
1-2ﾚｲﾔ
  6
Continuous
 62
     3
370
     9
100
AcDbLine
 10
158.9190921267948
 20
122.5126010801711
 30
0.0
 11
158.9190921267948
 21
76.25217973964118
 31
0.0
  0
LINE
  5
1D2
330
1F
100
AcDbEntity
  8
1-2ﾚｲﾔ
  6
Continuous
 62
     3
370
     9
100
AcDbLine
 10
-436.0806439373944
 20
222.5126217001564
 30
0.0
 11
-436.0806439373944
 21
130.9921163620546
 31
0.0
  0
LINE
  5
1D3
330
1F
100
AcDbEntity
  8
1-2ﾚｲﾔ
  6
Continuous
 62
     3
370
     9
100
AcDbLine
 10
-436.0806439373944
 20
122.5126010801711
 30
0.0
 11
-436.0806439373944
 21
76.25217973964118
 31
0.0
  0
LINE
  5
1D4
330
1F
100
AcDbEntity
  8
1-2ﾚｲﾔ
  6
Continuous
 62
     3
370
     9
100
AcDbLine
 10
-441.0804129935599
 20
222.5126217001564
 30
0.0
 11
-441.0804129935599
 21
130.9921163620546
 31
0.0
  0
LINE
  5
1D5
330
1F
100
AcDbEntity
  8
1-2ﾚｲﾔ
  6
Continuous
 62
     3
370
     9
100
AcDbLine
 10
-441.0804129935599
 20
122.5126010801711
 30
0.0
 11
-441.0804129935599
 21
76.25217973964118
 31
0.0
  0
LINE
  5
1D6
330
1F
100
AcDbEntity
  8
1-2ﾚｲﾔ
  6
Continuous
 62
     3
370
     9
100
AcDbLine
 10
-406.0805449614654
 20
222.5126217001564
 30
0.0
 11
-406.0805449614654
 21
130.9921163620546
 31
0.0
  0
LINE
  5
1D7
330
1F
100
AcDbEntity
  8
1-2ﾚｲﾔ
  6
Continuous
 62
     3
370
     9
100
AcDbLine
 10
-406.0805449614654
 20
122.5126010801711
 30
0.0
 11
-406.0805449614654
 21
76.25217973964118
 31
0.0
  0
LINE
  5
1D8
330
1F
100
AcDbEntity
  8
1-2ﾚｲﾔ
  6
Continuous
 62
     3
370
     9
100
AcDbLine
 10
-411.0803140176308
 20
222.5126217001564
 30
0.0
 11
-411.0803140176308
 21
130.9921163620546
 31
0.0
  0
LINE
  5
1D9
330
1F
100
AcDbEntity
  8
1-2ﾚｲﾔ
  6
Continuous
 62
     3
370
     9
100
AcDbLine
 10
-411.0803140176308
 20
122.5126010801711
 30
0.0
 11
-411.0803140176308
 21
76.25217973964118
 31
0.0
  0
LINE
  5
1DA
330
1F
100
AcDbEntity
  8
1-2ﾚｲﾔ
  6
Continuous
 62
     3
370
     9
100
AcDbLine
 10
-376.0804459855364
 20
222.5126217001564
 30
0.0
 11
-376.0804459855364
 21
130.9921163620546
 31
0.0
  0
LINE
  5
1DB
330
1F
100
AcDbEntity
  8
1-2ﾚｲﾔ
  6
Continuous
 62
     3
370
     9
100
AcDbLine
 10
-376.0804459855364
 20
122.5126010801711
 30
0.0
 11
-376.0804459855364
 21
76.25217973964118
 31
0.0
  0
LINE
  5
1DC
330
1F
100
AcDbEntity
  8
1-2ﾚｲﾔ
  6
Continuous
 62
     3
370
     9
100
AcDbLine
 10
-381.0802150417018
 20
222.5126217001564
 30
0.0
 11
-381.0802150417018
 21
130.9921163620546
 31
0.0
  0
LINE
  5
1DD
330
1F
100
AcDbEntity
  8
1-2ﾚｲﾔ
  6
Continuous
 62
     3
370
     9
100
AcDbLine
 10
-381.0802150417018
 20
122.5126010801711
 30
0.0
 11
-381.0802150417018
 21
76.25217973964118
 31
0.0
  0
LINE
  5
1DE
330
1F
100
AcDbEntity
  8
1-2ﾚｲﾔ
  6
Continuous
 62
     3
370
     9
100
AcDbLine
 10
403.1487542229732
 20
76.25242717946384
 30
0.0
 11
403.1487542229732
 21
122.5097555222108
 31
0.0
  0
LINE
  5
1DF
330
1F
100
AcDbEntity
  8
1-2ﾚｲﾔ
  6
Continuous
 62
     3
370
     9
100
AcDbLine
 10
403.1487542229732
 20
130.7375007845631
 30
0.0
 11
403.1487542229732
 21
222.767237277648
 31
0.0
  0
LINE
  5
1E0
330
1F
100
AcDbEntity
  8
1-2ﾚｲﾔ
  6
Continuous
 62
     3
370
     9
100
AcDbLine
 10
404.1487822661529
 20
76.25242717946384
 30
0.0
 11
404.1487822661529
 21
123.7672447008426
 31
0.0
  0
LINE
  5
1E1
330
1F
100
AcDbEntity
  8
1-2ﾚｲﾔ
  6
Continuous
 62
     3
370
     9
100
AcDbLine
 10
404.1487822661529
 20
129.7374727413831
 30
0.0
 11
404.1487822661529
 21
223.7672653208278
 31
0.0
  0
LINE
  5
1E2
330
1F
100
AcDbEntity
  8
1-2ﾚｲﾔ
  6
Continuous
 62
     3
370
     9
100
AcDbLine
 10
-351.0801160657728
 20
477.2526614224959
 30
0.0
 11
-351.0801160657728
 21
430.992054502099
 31
0.0
  0
LINE
  5
1E3
330
1F
100
AcDbEntity
  8
1-2ﾚｲﾔ
  6
Continuous
 62
     3
370
     9
100
AcDbLine
 10
-346.0803470096073
 20
477.2526614224959
 30
0.0
 11
-346.0803470096073
 21
430.992054502099
 31
0.0
  0
LINE
  5
1E4
330
1F
100
AcDbEntity
  8
1-2ﾚｲﾔ
  6
Continuous
 62
     3
370
     9
100
AcDbLine
 10
-346.0803470096073
 20
422.5125392202156
 30
0.0
 11
-346.0803470096073
 21
330.9924669018033
 31
0.0
  0
LINE
  5
1E5
330
1F
100
AcDbEntity
  8
1-2ﾚｲﾔ
  6
Continuous
 62
     3
370
     9
100
AcDbLine
 10
-351.0801160657728
 20
422.5125392202156
 30
0.0
 11
-351.0801160657728
 21
330.9924669018033
 31
0.0
  0
LINE
  5
1E6
330
1F
100
AcDbEntity
  8
1-2ﾚｲﾔ
  6
Continuous
 62
     3
370
     9
100
AcDbLine
 10
-316.0797531540329
 20
430.992054502099
 30
0.0
 11
-346.0799758498733
 21
422.5125392202156
 31
0.0
  0
LINE
  5
1E7
330
1F
100
AcDbEntity
  8
1-2ﾚｲﾔ
  6
Continuous
 62
     3
370
     9
100
AcDbLine
 10
-346.0803470096073
 20
322.512580460186
 30
0.0
 11
-346.0803470096073
 21
230.9925081417737
 31
0.0
  0
LINE
  5
1E8
330
1F
100
AcDbEntity
  8
1-2ﾚｲﾔ
  6
Continuous
 62
     3
370
     9
100
AcDbLine
 10
-351.0801160657728
 20
322.512580460186
 30
0.0
 11
-351.0801160657728
 21
230.9925081417737
 31
0.0
  0
LINE
  5
1E9
330
1F
100
AcDbEntity
  8
1-2ﾚｲﾔ
  6
Continuous
 62
     3
370
     9
100
AcDbLine
 10
-316.0797531540329
 20
330.9920957420695
 30
0.0
 11
-346.0799758498733
 21
322.512580460186
 31
0.0
  0
LINE
  5
1EA
330
1F
100
AcDbEntity
  8
1-2ﾚｲﾔ
  6
Continuous
 62
     3
370
     9
100
AcDbLine
 10
-316.0797531540329
 20
230.9921369820399
 30
0.0
 11
-346.0799758498733
 21
222.5126217001564
 31
0.0
  0
LINE
  5
1EB
330
1F
100
AcDbEntity
  8
1-2ﾚｲﾔ
  6
Continuous
 62
     3
370
     9
100
AcDbLine
 10
-316.0797531540329
 20
130.9921163620546
 30
0.0
 11
-346.0799758498733
 21
122.5126010801711
 31
0.0
  0
LINE
  5
1EC
330
1F
100
AcDbEntity
  8
1-2ﾚｲﾔ
  6
Continuous
 62
     3
370
     9
100
AcDbLine
 10
-346.0803470096073
 20
222.5126217001564
 30
0.0
 11
-346.0803470096073
 21
130.9921163620546
 31
0.0
  0
LINE
  5
1ED
330
1F
100
AcDbEntity
  8
1-2ﾚｲﾔ
  6
Continuous
 62
     3
370
     9
100
AcDbLine
 10
-346.0803470096073
 20
122.5126010801711
 30
0.0
 11
-346.0803470096073
 21
76.25217973964118
 31
0.0
  0
LINE
  5
1EE
330
1F
100
AcDbEntity
  8
1-2ﾚｲﾔ
  6
Continuous
 62
     3
370
     9
100
AcDbLine
 10
-351.0801160657728
 20
222.5126217001564
 30
0.0
 11
-351.0801160657728
 21
130.9921163620546
 31
0.0
  0
LINE
  5
1EF
330
1F
100
AcDbEntity
  8
1-2ﾚｲﾔ
  6
Continuous
 62
     3
370
     9
100
AcDbLine
 10
-351.0801160657728
 20
122.5126010801711
 30
0.0
 11
-351.0801160657728
 21
76.25217973964118
 31
0.0
  0
LINE
  5
1F0
330
1F
100
AcDbEntity
  8
1-2ﾚｲﾔ
  6
Continuous
 62
     3
370
     9
100
AcDbLine
 10
-321.0800170898438
 20
477.2526614224959
 30
0.0
 11
-321.0800170898438
 21
430.992054502099
 31
0.0
  0
LINE
  5
1F1
330
1F
100
AcDbEntity
  8
1-2ﾚｲﾔ
  6
Continuous
 62
     3
370
     9
100
AcDbLine
 10
-316.0802480336781
 20
477.2526614224959
 30
0.0
 11
-316.0802480336781
 21
430.992054502099
 31
0.0
  0
LINE
  5
1F2
330
1F
100
AcDbEntity
  8
1-2ﾚｲﾔ
  6
Continuous
 62
     3
370
     9
100
AcDbLine
 10
-316.0802480336781
 20
422.5125392202156
 30
0.0
 11
-316.0802480336781
 21
330.9924669018033
 31
0.0
  0
LINE
  5
1F3
330
1F
100
AcDbEntity
  8
1-2ﾚｲﾔ
  6
Continuous
 62
     3
370
     9
100
AcDbLine
 10
-321.0800170898438
 20
422.5125392202156
 30
0.0
 11
-321.0800170898438
 21
330.9924669018033
 31
0.0
  0
LINE
  5
1F4
330
1F
100
AcDbEntity
  8
1-2ﾚｲﾔ
  6
Continuous
 62
     3
370
     9
100
AcDbLine
 10
-286.0796541781039
 20
430.992054502099
 30
0.0
 11
-316.0798768739443
 21
422.5125392202156
 31
0.0
  0
LINE
  5
1F5
330
1F
100
AcDbEntity
  8
1-2ﾚｲﾔ
  6
Continuous
 62
     3
370
     9
100
AcDbLine
 10
-316.0802480336781
 20
322.512580460186
 30
0.0
 11
-316.0802480336781
 21
230.9925081417737
 31
0.0
  0
LINE
  5
1F6
330
1F
100
AcDbEntity
  8
1-2ﾚｲﾔ
  6
Continuous
 62
     3
370
     9
100
AcDbLine
 10
-321.0800170898438
 20
322.512580460186
 30
0.0
 11
-321.0800170898438
 21
230.9925081417737
 31
0.0
  0
LINE
  5
1F7
330
1F
100
AcDbEntity
  8
1-2ﾚｲﾔ
  6
Continuous
 62
     3
370
     9
100
AcDbLine
 10
-286.0796541781039
 20
330.9920957420695
 30
0.0
 11
-316.0798768739443
 21
322.512580460186
 31
0.0
  0
LINE
  5
1F8
330
1F
100
AcDbEntity
  8
1-2ﾚｲﾔ
  6
Continuous
 62
     3
370
     9
100
AcDbLine
 10
-286.0796541781039
 20
230.9921369820399
 30
0.0
 11
-316.0798768739443
 21
222.5126217001564
 31
0.0
  0
LINE
  5
1F9
330
1F
100
AcDbEntity
  8
1-2ﾚｲﾔ
  6
Continuous
 62
     3
370
     9
100
AcDbLine
 10
-286.0796541781039
 20
130.9921163620546
 30
0.0
 11
-316.0798768739443
 21
122.5126010801711
 31
0.0
  0
LINE
  5
1FA
330
1F
100
AcDbEntity
  8
1-2ﾚｲﾔ
  6
Continuous
 62
     3
370
     9
100
AcDbLine
 10
-316.0802480336781
 20
222.5126217001564
 30
0.0
 11
-316.0802480336781
 21
130.9921163620546
 31
0.0
  0
LINE
  5
1FB
330
1F
100
AcDbEntity
  8
1-2ﾚｲﾔ
  6
Continuous
 62
     3
370
     9
100
AcDbLine
 10
-316.0802480336781
 20
122.5126010801711
 30
0.0
 11
-316.0802480336781
 21
76.25217973964118
 31
0.0
  0
LINE
  5
1FC
330
1F
100
AcDbEntity
  8
1-2ﾚｲﾔ
  6
Continuous
 62
     3
370
     9
100
AcDbLine
 10
-321.0800170898438
 20
222.5126217001564
 30
0.0
 11
-321.0800170898438
 21
130.9921163620546
 31
0.0
  0
LINE
  5
1FD
330
1F
100
AcDbEntity
  8
1-2ﾚｲﾔ
  6
Continuous
 62
     3
370
     9
100
AcDbLine
 10
-321.0800170898438
 20
122.5126010801711
 30
0.0
 11
-321.0800170898438
 21
76.25217973964118
 31
0.0
  0
LINE
  5
1FE
330
1F
100
AcDbEntity
  8
1-2ﾚｲﾔ
  6
Continuous
 62
     3
370
     9
100
AcDbLine
 10
-291.0799181139147
 20
477.2526614224959
 30
0.0
 11
-291.0799181139147
 21
430.992054502099
 31
0.0
  0
LINE
  5
1FF
330
1F
100
AcDbEntity
  8
1-2ﾚｲﾔ
  6
Continuous
 62
     3
370
     9
100
AcDbLine
 10
-286.0801490577491
 20
477.2526614224959
 30
0.0
 11
-286.0801490577491
 21
430.992054502099
 31
0.0
  0
LINE
  5
200
330
1F
100
AcDbEntity
  8
1-2ﾚｲﾔ
  6
Continuous
 62
     3
370
     9
100
AcDbLine
 10
-286.0801490577491
 20
422.5125392202156
 30
0.0
 11
-286.0801490577491
 21
330.9924669018033
 31
0.0
  0
LINE
  5
201
330
1F
100
AcDbEntity
  8
1-2ﾚｲﾔ
  6
Continuous
 62
     3
370
     9
100
AcDbLine
 10
-291.0799181139147
 20
422.5125392202156
 30
0.0
 11
-291.0799181139147
 21
330.9924669018033
 31
0.0
  0
LINE
  5
202
330
1F
100
AcDbEntity
  8
1-2ﾚｲﾔ
  6
Continuous
 62
     3
370
     9
100
AcDbLine
 10
-256.0795552021747
 20
430.992054502099
 30
0.0
 11
-286.0797778980151
 21
422.5125392202156
 31
0.0
  0
LINE
  5
203
330
1F
100
AcDbEntity
  8
1-2ﾚｲﾔ
  6
Continuous
 62
     3
370
     9
100
AcDbLine
 10
-286.0801490577491
 20
322.512580460186
 30
0.0
 11
-286.0801490577491
 21
230.9925081417737
 31
0.0
  0
LINE
  5
204
330
1F
100
AcDbEntity
  8
1-2ﾚｲﾔ
  6
Continuous
 62
     3
370
     9
100
AcDbLine
 10
-291.0799181139147
 20
322.512580460186
 30
0.0
 11
-291.0799181139147
 21
230.9925081417737
 31
0.0
  0
LINE
  5
205
330
1F
100
AcDbEntity
  8
1-2ﾚｲﾔ
  6
Continuous
 62
     3
370
     9
100
AcDbLine
 10
-256.0795552021747
 20
330.9920957420695
 30
0.0
 11
-286.0797778980151
 21
322.512580460186
 31
0.0
  0
LINE
  5
206
330
1F
100
AcDbEntity
  8
1-2ﾚｲﾔ
  6
Continuous
 62
     3
370
     9
100
AcDbLine
 10
-256.0795552021747
 20
230.9921369820399
 30
0.0
 11
-286.0797778980151
 21
222.5126217001564
 31
0.0
  0
LINE
  5
207
330
1F
100
AcDbEntity
  8
1-2ﾚｲﾔ
  6
Continuous
 62
     3
370
     9
100
AcDbLine
 10
-256.0795552021747
 20
130.9921163620546
 30
0.0
 11
-286.0797778980151
 21
122.5126010801711
 31
0.0
  0
LINE
  5
208
330
1F
100
AcDbEntity
  8
1-2ﾚｲﾔ
  6
Continuous
 62
     3
370
     9
100
AcDbLine
 10
-286.0801490577491
 20
222.5126217001564
 30
0.0
 11
-286.0801490577491
 21
130.9921163620546
 31
0.0
  0
LINE
  5
209
330
1F
100
AcDbEntity
  8
1-2ﾚｲﾔ
  6
Continuous
 62
     3
370
     9
100
AcDbLine
 10
-286.0801490577491
 20
122.5126010801711
 30
0.0
 11
-286.0801490577491
 21
76.25217973964118
 31
0.0
  0
LINE
  5
20A
330
1F
100
AcDbEntity
  8
1-2ﾚｲﾔ
  6
Continuous
 62
     3
370
     9
100
AcDbLine
 10
-291.0799181139147
 20
222.5126217001564
 30
0.0
 11
-291.0799181139147
 21
130.9921163620546
 31
0.0
  0
LINE
  5
20B
330
1F
100
AcDbEntity
  8
1-2ﾚｲﾔ
  6
Continuous
 62
     3
370
     9
100
AcDbLine
 10
-291.0799181139147
 20
122.5126010801711
 30
0.0
 11
-291.0799181139147
 21
76.25217973964118
 31
0.0
  0
LINE
  5
20C
330
1F
100
AcDbEntity
  8
1-2ﾚｲﾔ
  6
Continuous
 62
     3
370
     9
100
AcDbLine
 10
-261.0798191379855
 20
477.2526614224959
 30
0.0
 11
-261.0798191379855
 21
430.992054502099
 31
0.0
  0
LINE
  5
20D
330
1F
100
AcDbEntity
  8
1-2ﾚｲﾔ
  6
Continuous
 62
     3
370
     9
100
AcDbLine
 10
-256.08005008182
 20
477.2526614224959
 30
0.0
 11
-256.08005008182
 21
430.992054502099
 31
0.0
  0
LINE
  5
20E
330
1F
100
AcDbEntity
  8
1-2ﾚｲﾔ
  6
Continuous
 62
     3
370
     9
100
AcDbLine
 10
-256.08005008182
 20
422.5125392202156
 30
0.0
 11
-256.08005008182
 21
330.9924669018033
 31
0.0
  0
LINE
  5
20F
330
1F
100
AcDbEntity
  8
1-2ﾚｲﾔ
  6
Continuous
 62
     3
370
     9
100
AcDbLine
 10
-261.0798191379855
 20
422.5125392202156
 30
0.0
 11
-261.0798191379855
 21
330.9924669018033
 31
0.0
  0
LINE
  5
210
330
1F
100
AcDbEntity
  8
1-2ﾚｲﾔ
  6
Continuous
 62
     3
370
     9
100
AcDbLine
 10
-226.0794562262457
 20
430.992054502099
 30
0.0
 11
-256.079678922086
 21
422.5125392202156
 31
0.0
  0
LINE
  5
211
330
1F
100
AcDbEntity
  8
1-2ﾚｲﾔ
  6
Continuous
 62
     3
370
     9
100
AcDbLine
 10
-256.08005008182
 20
322.512580460186
 30
0.0
 11
-256.08005008182
 21
230.9925081417737
 31
0.0
  0
LINE
  5
212
330
1F
100
AcDbEntity
  8
1-2ﾚｲﾔ
  6
Continuous
 62
     3
370
     9
100
AcDbLine
 10
-261.0798191379855
 20
322.512580460186
 30
0.0
 11
-261.0798191379855
 21
230.9925081417737
 31
0.0
  0
LINE
  5
213
330
1F
100
AcDbEntity
  8
1-2ﾚｲﾔ
  6
Continuous
 62
     3
370
     9
100
AcDbLine
 10
-226.0794562262457
 20
330.9920957420695
 30
0.0
 11
-256.079678922086
 21
322.512580460186
 31
0.0
  0
LINE
  5
214
330
1F
100
AcDbEntity
  8
1-2ﾚｲﾔ
  6
Continuous
 62
     3
370
     9
100
AcDbLine
 10
-226.0794562262457
 20
230.9921369820399
 30
0.0
 11
-256.079678922086
 21
222.5126217001564
 31
0.0
  0
LINE
  5
215
330
1F
100
AcDbEntity
  8
1-2ﾚｲﾔ
  6
Continuous
 62
     3
370
     9
100
AcDbLine
 10
-226.0794562262457
 20
130.9921163620546
 30
0.0
 11
-256.079678922086
 21
122.5126010801711
 31
0.0
  0
LINE
  5
216
330
1F
100
AcDbEntity
  8
1-2ﾚｲﾔ
  6
Continuous
 62
     3
370
     9
100
AcDbLine
 10
-256.08005008182
 20
222.5126217001564
 30
0.0
 11
-256.08005008182
 21
130.9921163620546
 31
0.0
  0
LINE
  5
217
330
1F
100
AcDbEntity
  8
1-2ﾚｲﾔ
  6
Continuous
 62
     3
370
     9
100
AcDbLine
 10
-256.08005008182
 20
122.5126010801711
 30
0.0
 11
-256.08005008182
 21
76.25217973964118
 31
0.0
  0
LINE
  5
218
330
1F
100
AcDbEntity
  8
1-2ﾚｲﾔ
  6
Continuous
 62
     3
370
     9
100
AcDbLine
 10
-261.0798191379855
 20
222.5126217001564
 30
0.0
 11
-261.0798191379855
 21
130.9921163620546
 31
0.0
  0
LINE
  5
219
330
1F
100
AcDbEntity
  8
1-2ﾚｲﾔ
  6
Continuous
 62
     3
370
     9
100
AcDbLine
 10
-261.0798191379855
 20
122.5126010801711
 30
0.0
 11
-261.0798191379855
 21
76.25217973964118
 31
0.0
  0
LINE
  5
21A
330
1F
100
AcDbEntity
  8
1-2ﾚｲﾔ
  6
Continuous
 62
     3
370
     9
100
AcDbLine
 10
-231.0797201620565
 20
477.2526614224959
 30
0.0
 11
-231.0797201620565
 21
430.992054502099
 31
0.0
  0
LINE
  5
21B
330
1F
100
AcDbEntity
  8
1-2ﾚｲﾔ
  6
Continuous
 62
     3
370
     9
100
AcDbLine
 10
-226.079951105891
 20
477.2526614224959
 30
0.0
 11
-226.079951105891
 21
430.992054502099
 31
0.0
  0
LINE
  5
21C
330
1F
100
AcDbEntity
  8
1-2ﾚｲﾔ
  6
Continuous
 62
     3
370
     9
100
AcDbLine
 10
-226.079951105891
 20
422.5125392202156
 30
0.0
 11
-226.079951105891
 21
330.9924669018033
 31
0.0
  0
LINE
  5
21D
330
1F
100
AcDbEntity
  8
1-2ﾚｲﾔ
  6
Continuous
 62
     3
370
     9
100
AcDbLine
 10
-231.0797201620565
 20
422.5125392202156
 30
0.0
 11
-231.0797201620565
 21
330.9924669018033
 31
0.0
  0
LINE
  5
21E
330
1F
100
AcDbEntity
  8
1-2ﾚｲﾔ
  6
Continuous
 62
     3
370
     9
100
AcDbLine
 10
-196.0793572503167
 20
430.992054502099
 30
0.0
 11
-226.079579946157
 21
422.5125392202156
 31
0.0
  0
LINE
  5
21F
330
1F
100
AcDbEntity
  8
1-2ﾚｲﾔ
  6
Continuous
 62
     3
370
     9
100
AcDbLine
 10
-226.079951105891
 20
322.512580460186
 30
0.0
 11
-226.079951105891
 21
230.9925081417737
 31
0.0
  0
LINE
  5
220
330
1F
100
AcDbEntity
  8
1-2ﾚｲﾔ
  6
Continuous
 62
     3
370
     9
100
AcDbLine
 10
-231.0797201620565
 20
322.512580460186
 30
0.0
 11
-231.0797201620565
 21
230.9925081417737
 31
0.0
  0
LINE
  5
221
330
1F
100
AcDbEntity
  8
1-2ﾚｲﾔ
  6
Continuous
 62
     3
370
     9
100
AcDbLine
 10
-196.0793572503167
 20
330.9920957420695
 30
0.0
 11
-226.079579946157
 21
322.512580460186
 31
0.0
  0
LINE
  5
222
330
1F
100
AcDbEntity
  8
1-2ﾚｲﾔ
  6
Continuous
 62
     3
370
     9
100
AcDbLine
 10
-196.0793572503167
 20
230.9921369820399
 30
0.0
 11
-226.079579946157
 21
222.5126217001564
 31
0.0
  0
LINE
  5
223
330
1F
100
AcDbEntity
  8
1-2ﾚｲﾔ
  6
Continuous
 62
     3
370
     9
100
AcDbLine
 10
-196.0793572503167
 20
130.9921163620546
 30
0.0
 11
-226.079579946157
 21
122.5126010801711
 31
0.0
  0
LINE
  5
224
330
1F
100
AcDbEntity
  8
1-2ﾚｲﾔ
  6
Continuous
 62
     3
370
     9
100
AcDbLine
 10
-226.079951105891
 20
222.5126217001564
 30
0.0
 11
-226.079951105891
 21
130.9921163620546
 31
0.0
  0
LINE
  5
225
330
1F
100
AcDbEntity
  8
1-2ﾚｲﾔ
  6
Continuous
 62
     3
370
     9
100
AcDbLine
 10
-226.079951105891
 20
122.5126010801711
 30
0.0
 11
-226.079951105891
 21
76.25217973964118
 31
0.0
  0
LINE
  5
226
330
1F
100
AcDbEntity
  8
1-2ﾚｲﾔ
  6
Continuous
 62
     3
370
     9
100
AcDbLine
 10
-231.0797201620565
 20
222.5126217001564
 30
0.0
 11
-231.0797201620565
 21
130.9921163620546
 31
0.0
  0
LINE
  5
227
330
1F
100
AcDbEntity
  8
1-2ﾚｲﾔ
  6
Continuous
 62
     3
370
     9
100
AcDbLine
 10
-231.0797201620565
 20
122.5126010801711
 30
0.0
 11
-231.0797201620565
 21
76.25217973964118
 31
0.0
  0
LINE
  5
228
330
1F
100
AcDbEntity
  8
1-2ﾚｲﾔ
  6
Continuous
 62
     3
370
     9
100
AcDbLine
 10
-201.0796211861275
 20
477.2526614224959
 30
0.0
 11
-201.0796211861275
 21
430.992054502099
 31
0.0
  0
LINE
  5
229
330
1F
100
AcDbEntity
  8
1-2ﾚｲﾔ
  6
Continuous
 62
     3
370
     9
100
AcDbLine
 10
-196.079852129962
 20
477.2526614224959
 30
0.0
 11
-196.079852129962
 21
430.992054502099
 31
0.0
  0
LINE
  5
22A
330
1F
100
AcDbEntity
  8
1-2ﾚｲﾔ
  6
Continuous
 62
     3
370
     9
100
AcDbLine
 10
-196.079852129962
 20
422.5125392202156
 30
0.0
 11
-196.079852129962
 21
330.9924669018033
 31
0.0
  0
LINE
  5
22B
330
1F
100
AcDbEntity
  8
1-2ﾚｲﾔ
  6
Continuous
 62
     3
370
     9
100
AcDbLine
 10
-201.0796211861275
 20
422.5125392202156
 30
0.0
 11
-201.0796211861275
 21
330.9924669018033
 31
0.0
  0
LINE
  5
22C
330
1F
100
AcDbEntity
  8
1-2ﾚｲﾔ
  6
Continuous
 62
     3
370
     9
100
AcDbLine
 10
-166.0792582743876
 20
430.992054502099
 30
0.0
 11
-196.079480970228
 21
422.5125392202156
 31
0.0
  0
LINE
  5
22D
330
1F
100
AcDbEntity
  8
1-2ﾚｲﾔ
  6
Continuous
 62
     3
370
     9
100
AcDbLine
 10
-196.079852129962
 20
322.512580460186
 30
0.0
 11
-196.079852129962
 21
230.9925081417737
 31
0.0
  0
LINE
  5
22E
330
1F
100
AcDbEntity
  8
1-2ﾚｲﾔ
  6
Continuous
 62
     3
370
     9
100
AcDbLine
 10
-201.0796211861275
 20
322.512580460186
 30
0.0
 11
-201.0796211861275
 21
230.9925081417737
 31
0.0
  0
LINE
  5
22F
330
1F
100
AcDbEntity
  8
1-2ﾚｲﾔ
  6
Continuous
 62
     3
370
     9
100
AcDbLine
 10
-166.0792582743876
 20
330.9920957420695
 30
0.0
 11
-196.079480970228
 21
322.512580460186
 31
0.0
  0
LINE
  5
230
330
1F
100
AcDbEntity
  8
1-2ﾚｲﾔ
  6
Continuous
 62
     3
370
     9
100
AcDbLine
 10
-166.0792582743876
 20
230.9921369820399
 30
0.0
 11
-196.079480970228
 21
222.5126217001564
 31
0.0
  0
LINE
  5
231
330
1F
100
AcDbEntity
  8
1-2ﾚｲﾔ
  6
Continuous
 62
     3
370
     9
100
AcDbLine
 10
-166.0792582743876
 20
130.9921163620546
 30
0.0
 11
-196.079480970228
 21
122.5126010801711
 31
0.0
  0
LINE
  5
232
330
1F
100
AcDbEntity
  8
1-2ﾚｲﾔ
  6
Continuous
 62
     3
370
     9
100
AcDbLine
 10
-196.079852129962
 20
222.5126217001564
 30
0.0
 11
-196.079852129962
 21
130.9921163620546
 31
0.0
  0
LINE
  5
233
330
1F
100
AcDbEntity
  8
1-2ﾚｲﾔ
  6
Continuous
 62
     3
370
     9
100
AcDbLine
 10
-196.079852129962
 20
122.5126010801711
 30
0.0
 11
-196.079852129962
 21
76.25217973964118
 31
0.0
  0
LINE
  5
234
330
1F
100
AcDbEntity
  8
1-2ﾚｲﾔ
  6
Continuous
 62
     3
370
     9
100
AcDbLine
 10
-201.0796211861275
 20
222.5126217001564
 30
0.0
 11
-201.0796211861275
 21
130.9921163620546
 31
0.0
  0
LINE
  5
235
330
1F
100
AcDbEntity
  8
1-2ﾚｲﾔ
  6
Continuous
 62
     3
370
     9
100
AcDbLine
 10
-201.0796211861275
 20
122.5126010801711
 30
0.0
 11
-201.0796211861275
 21
76.25217973964118
 31
0.0
  0
LINE
  5
236
330
1F
100
AcDbEntity
  8
1-2ﾚｲﾔ
  6
Continuous
 62
     3
370
     9
100
AcDbLine
 10
-171.0795222101984
 20
477.2526614224959
 30
0.0
 11
-171.0795222101984
 21
430.992054502099
 31
0.0
  0
LINE
  5
237
330
1F
100
AcDbEntity
  8
1-2ﾚｲﾔ
  6
Continuous
 62
     3
370
     9
100
AcDbLine
 10
-166.0797531540329
 20
477.2526614224959
 30
0.0
 11
-166.0797531540329
 21
430.992054502099
 31
0.0
  0
LINE
  5
238
330
1F
100
AcDbEntity
  8
1-2ﾚｲﾔ
  6
Continuous
 62
     3
370
     9
100
AcDbLine
 10
-166.0797531540329
 20
422.5125392202156
 30
0.0
 11
-166.0797531540329
 21
330.9924669018033
 31
0.0
  0
LINE
  5
239
330
1F
100
AcDbEntity
  8
1-2ﾚｲﾔ
  6
Continuous
 62
     3
370
     9
100
AcDbLine
 10
-171.0795222101984
 20
422.5125392202156
 30
0.0
 11
-171.0795222101984
 21
330.9924669018033
 31
0.0
  0
LINE
  5
23A
330
1F
100
AcDbEntity
  8
1-2ﾚｲﾔ
  6
Continuous
 62
     3
370
     9
100
AcDbLine
 10
-136.0791592984586
 20
430.992054502099
 30
0.0
 11
-166.079381994299
 21
422.5125392202156
 31
0.0
  0
LINE
  5
23B
330
1F
100
AcDbEntity
  8
1-2ﾚｲﾔ
  6
Continuous
 62
     3
370
     9
100
AcDbLine
 10
-166.0797531540329
 20
322.512580460186
 30
0.0
 11
-166.0797531540329
 21
230.9925081417737
 31
0.0
  0
LINE
  5
23C
330
1F
100
AcDbEntity
  8
1-2ﾚｲﾔ
  6
Continuous
 62
     3
370
     9
100
AcDbLine
 10
-171.0795222101984
 20
322.512580460186
 30
0.0
 11
-171.0795222101984
 21
230.9925081417737
 31
0.0
  0
LINE
  5
23D
330
1F
100
AcDbEntity
  8
1-2ﾚｲﾔ
  6
Continuous
 62
     3
370
     9
100
AcDbLine
 10
-136.0791592984586
 20
330.9920957420695
 30
0.0
 11
-166.079381994299
 21
322.512580460186
 31
0.0
  0
LINE
  5
23E
330
1F
100
AcDbEntity
  8
1-2ﾚｲﾔ
  6
Continuous
 62
     3
370
     9
100
AcDbLine
 10
-136.0791592984586
 20
230.9921369820399
 30
0.0
 11
-166.079381994299
 21
222.5126217001564
 31
0.0
  0
LINE
  5
23F
330
1F
100
AcDbEntity
  8
1-2ﾚｲﾔ
  6
Continuous
 62
     3
370
     9
100
AcDbLine
 10
-136.0791592984586
 20
130.9921163620546
 30
0.0
 11
-166.079381994299
 21
122.5126010801711
 31
0.0
  0
LINE
  5
240
330
1F
100
AcDbEntity
  8
1-2ﾚｲﾔ
  6
Continuous
 62
     3
370
     9
100
AcDbLine
 10
-166.0797531540329
 20
222.5126217001564
 30
0.0
 11
-166.0797531540329
 21
130.9921163620546
 31
0.0
  0
LINE
  5
241
330
1F
100
AcDbEntity
  8
1-2ﾚｲﾔ
  6
Continuous
 62
     3
370
     9
100
AcDbLine
 10
-166.0797531540329
 20
122.5126010801711
 30
0.0
 11
-166.0797531540329
 21
76.25217973964118
 31
0.0
  0
LINE
  5
242
330
1F
100
AcDbEntity
  8
1-2ﾚｲﾔ
  6
Continuous
 62
     3
370
     9
100
AcDbLine
 10
-171.0795222101984
 20
222.5126217001564
 30
0.0
 11
-171.0795222101984
 21
130.9921163620546
 31
0.0
  0
LINE
  5
243
330
1F
100
AcDbEntity
  8
1-2ﾚｲﾔ
  6
Continuous
 62
     3
370
     9
100
AcDbLine
 10
-171.0795222101984
 20
122.5126010801711
 30
0.0
 11
-171.0795222101984
 21
76.25217973964118
 31
0.0
  0
LINE
  5
244
330
1F
100
AcDbEntity
  8
1-2ﾚｲﾔ
  6
Continuous
 62
     3
370
     9
100
AcDbLine
 10
-141.0794232342694
 20
477.2526614224959
 30
0.0
 11
-141.0794232342694
 21
430.992054502099
 31
0.0
  0
LINE
  5
245
330
1F
100
AcDbEntity
  8
1-2ﾚｲﾔ
  6
Continuous
 62
     3
370
     9
100
AcDbLine
 10
-136.0796541781038
 20
477.2526614224959
 30
0.0
 11
-136.0796541781038
 21
430.992054502099
 31
0.0
  0
LINE
  5
246
330
1F
100
AcDbEntity
  8
1-2ﾚｲﾔ
  6
Continuous
 62
     3
370
     9
100
AcDbLine
 10
-136.0796541781038
 20
422.5125392202156
 30
0.0
 11
-136.0796541781038
 21
330.9924669018033
 31
0.0
  0
LINE
  5
247
330
1F
100
AcDbEntity
  8
1-2ﾚｲﾔ
  6
Continuous
 62
     3
370
     9
100
AcDbLine
 10
-141.0794232342694
 20
422.5125392202156
 30
0.0
 11
-141.0794232342694
 21
330.9924669018033
 31
0.0
  0
LINE
  5
248
330
1F
100
AcDbEntity
  8
1-2ﾚｲﾔ
  6
Continuous
 62
     3
370
     9
100
AcDbLine
 10
-106.0790603225296
 20
430.992054502099
 30
0.0
 11
-136.0792830183699
 21
422.5125392202156
 31
0.0
  0
LINE
  5
249
330
1F
100
AcDbEntity
  8
1-2ﾚｲﾔ
  6
Continuous
 62
     3
370
     9
100
AcDbLine
 10
-136.0796541781038
 20
322.512580460186
 30
0.0
 11
-136.0796541781038
 21
230.9925081417737
 31
0.0
  0
LINE
  5
24A
330
1F
100
AcDbEntity
  8
1-2ﾚｲﾔ
  6
Continuous
 62
     3
370
     9
100
AcDbLine
 10
-141.0794232342694
 20
322.512580460186
 30
0.0
 11
-141.0794232342694
 21
230.9925081417737
 31
0.0
  0
LINE
  5
24B
330
1F
100
AcDbEntity
  8
1-2ﾚｲﾔ
  6
Continuous
 62
     3
370
     9
100
AcDbLine
 10
-106.0790603225296
 20
330.9920957420695
 30
0.0
 11
-136.0792830183699
 21
322.512580460186
 31
0.0
  0
LINE
  5
24C
330
1F
100
AcDbEntity
  8
1-2ﾚｲﾔ
  6
Continuous
 62
     3
370
     9
100
AcDbLine
 10
-106.0790603225296
 20
230.9921369820399
 30
0.0
 11
-136.0792830183699
 21
222.5126217001564
 31
0.0
  0
LINE
  5
24D
330
1F
100
AcDbEntity
  8
1-2ﾚｲﾔ
  6
Continuous
 62
     3
370
     9
100
AcDbLine
 10
-106.0790603225296
 20
130.9921163620546
 30
0.0
 11
-136.0792830183699
 21
122.5126010801711
 31
0.0
  0
LINE
  5
24E
330
1F
100
AcDbEntity
  8
1-2ﾚｲﾔ
  6
Continuous
 62
     3
370
     9
100
AcDbLine
 10
-136.0796541781038
 20
222.5126217001564
 30
0.0
 11
-136.0796541781038
 21
130.9921163620546
 31
0.0
  0
LINE
  5
24F
330
1F
100
AcDbEntity
  8
1-2ﾚｲﾔ
  6
Continuous
 62
     3
370
     9
100
AcDbLine
 10
-136.0796541781038
 20
122.5126010801711
 30
0.0
 11
-136.0796541781038
 21
76.25217973964118
 31
0.0
  0
LINE
  5
250
330
1F
100
AcDbEntity
  8
1-2ﾚｲﾔ
  6
Continuous
 62
     3
370
     9
100
AcDbLine
 10
-141.0794232342694
 20
222.5126217001564
 30
0.0
 11
-141.0794232342694
 21
130.9921163620546
 31
0.0
  0
LINE
  5
251
330
1F
100
AcDbEntity
  8
1-2ﾚｲﾔ
  6
Continuous
 62
     3
370
     9
100
AcDbLine
 10
-141.0794232342694
 20
122.5126010801711
 30
0.0
 11
-141.0794232342694
 21
76.25217973964118
 31
0.0
  0
LINE
  5
252
330
1F
100
AcDbEntity
  8
1-2ﾚｲﾔ
  6
Continuous
 62
     3
370
     9
100
AcDbLine
 10
-111.0793242583404
 20
477.2526614224959
 30
0.0
 11
-111.0793242583404
 21
430.992054502099
 31
0.0
  0
LINE
  5
253
330
1F
100
AcDbEntity
  8
1-2ﾚｲﾔ
  6
Continuous
 62
     3
370
     9
100
AcDbLine
 10
-106.0795552021747
 20
477.2526614224959
 30
0.0
 11
-106.0795552021747
 21
430.992054502099
 31
0.0
  0
LINE
  5
254
330
1F
100
AcDbEntity
  8
1-2ﾚｲﾔ
  6
Continuous
 62
     3
370
     9
100
AcDbLine
 10
-106.0795552021747
 20
422.5125392202156
 30
0.0
 11
-106.0795552021747
 21
330.9924669018033
 31
0.0
  0
LINE
  5
255
330
1F
100
AcDbEntity
  8
1-2ﾚｲﾔ
  6
Continuous
 62
     3
370
     9
100
AcDbLine
 10
-111.0793242583404
 20
422.5125392202156
 30
0.0
 11
-111.0793242583404
 21
330.9924669018033
 31
0.0
  0
LINE
  5
256
330
1F
100
AcDbEntity
  8
1-2ﾚｲﾔ
  6
Continuous
 62
     3
370
     9
100
AcDbLine
 10
-76.07896134660052
 20
430.992054502099
 30
0.0
 11
-106.0791840424409
 21
422.5125392202156
 31
0.0
  0
LINE
  5
257
330
1F
100
AcDbEntity
  8
1-2ﾚｲﾔ
  6
Continuous
 62
     3
370
     9
100
AcDbLine
 10
-106.0795552021747
 20
322.512580460186
 30
0.0
 11
-106.0795552021747
 21
230.9925081417737
 31
0.0
  0
LINE
  5
258
330
1F
100
AcDbEntity
  8
1-2ﾚｲﾔ
  6
Continuous
 62
     3
370
     9
100
AcDbLine
 10
-111.0793242583404
 20
322.512580460186
 30
0.0
 11
-111.0793242583404
 21
230.9925081417737
 31
0.0
  0
LINE
  5
259
330
1F
100
AcDbEntity
  8
1-2ﾚｲﾔ
  6
Continuous
 62
     3
370
     9
100
AcDbLine
 10
-76.07896134660052
 20
330.9920957420695
 30
0.0
 11
-106.0791840424409
 21
322.512580460186
 31
0.0
  0
LINE
  5
25A
330
1F
100
AcDbEntity
  8
1-2ﾚｲﾔ
  6
Continuous
 62
     3
370
     9
100
AcDbLine
 10
-76.07896134660052
 20
230.9921369820399
 30
0.0
 11
-106.0791840424409
 21
222.5126217001564
 31
0.0
  0
LINE
  5
25B
330
1F
100
AcDbEntity
  8
1-2ﾚｲﾔ
  6
Continuous
 62
     3
370
     9
100
AcDbLine
 10
-76.07896134660052
 20
130.9921163620546
 30
0.0
 11
-106.0791840424409
 21
122.5126010801711
 31
0.0
  0
LINE
  5
25C
330
1F
100
AcDbEntity
  8
1-2ﾚｲﾔ
  6
Continuous
 62
     3
370
     9
100
AcDbLine
 10
-106.0795552021747
 20
222.5126217001564
 30
0.0
 11
-106.0795552021747
 21
130.9921163620546
 31
0.0
  0
LINE
  5
25D
330
1F
100
AcDbEntity
  8
1-2ﾚｲﾔ
  6
Continuous
 62
     3
370
     9
100
AcDbLine
 10
-106.0795552021747
 20
122.5126010801711
 30
0.0
 11
-106.0795552021747
 21
76.25217973964118
 31
0.0
  0
LINE
  5
25E
330
1F
100
AcDbEntity
  8
1-2ﾚｲﾔ
  6
Continuous
 62
     3
370
     9
100
AcDbLine
 10
-111.0793242583404
 20
222.5126217001564
 30
0.0
 11
-111.0793242583404
 21
130.9921163620546
 31
0.0
  0
LINE
  5
25F
330
1F
100
AcDbEntity
  8
1-2ﾚｲﾔ
  6
Continuous
 62
     3
370
     9
100
AcDbLine
 10
-111.0793242583404
 20
122.5126010801711
 30
0.0
 11
-111.0793242583404
 21
76.25217973964118
 31
0.0
  0
LINE
  5
260
330
1F
100
AcDbEntity
  8
1-2ﾚｲﾔ
  6
Continuous
 62
     3
370
     9
100
AcDbLine
 10
-81.07922528241133
 20
477.2526614224959
 30
0.0
 11
-81.07922528241133
 21
430.992054502099
 31
0.0
  0
LINE
  5
261
330
1F
100
AcDbEntity
  8
1-2ﾚｲﾔ
  6
Continuous
 62
     3
370
     9
100
AcDbLine
 10
-76.0794562262457
 20
477.2526614224959
 30
0.0
 11
-76.0794562262457
 21
430.992054502099
 31
0.0
  0
LINE
  5
262
330
1F
100
AcDbEntity
  8
1-2ﾚｲﾔ
  6
Continuous
 62
     3
370
     9
100
AcDbLine
 10
-76.0794562262457
 20
422.5125392202156
 30
0.0
 11
-76.0794562262457
 21
330.9924669018033
 31
0.0
  0
LINE
  5
263
330
1F
100
AcDbEntity
  8
1-2ﾚｲﾔ
  6
Continuous
 62
     3
370
     9
100
AcDbLine
 10
-81.07922528241133
 20
422.5125392202156
 30
0.0
 11
-81.07922528241133
 21
330.9924669018033
 31
0.0
  0
LINE
  5
264
330
1F
100
AcDbEntity
  8
1-2ﾚｲﾔ
  6
Continuous
 62
     3
370
     9
100
AcDbLine
 10
-46.07886237067135
 20
430.992054502099
 30
0.0
 11
-76.07908506651171
 21
422.5125392202156
 31
0.0
  0
LINE
  5
265
330
1F
100
AcDbEntity
  8
1-2ﾚｲﾔ
  6
Continuous
 62
     3
370
     9
100
AcDbLine
 10
-76.0794562262457
 20
322.512580460186
 30
0.0
 11
-76.0794562262457
 21
230.9925081417737
 31
0.0
  0
LINE
  5
266
330
1F
100
AcDbEntity
  8
1-2ﾚｲﾔ
  6
Continuous
 62
     3
370
     9
100
AcDbLine
 10
-81.07922528241133
 20
322.512580460186
 30
0.0
 11
-81.07922528241133
 21
230.9925081417737
 31
0.0
  0
LINE
  5
267
330
1F
100
AcDbEntity
  8
1-2ﾚｲﾔ
  6
Continuous
 62
     3
370
     9
100
AcDbLine
 10
-46.07886237067135
 20
330.9920957420695
 30
0.0
 11
-76.07908506651171
 21
322.512580460186
 31
0.0
  0
LINE
  5
268
330
1F
100
AcDbEntity
  8
1-2ﾚｲﾔ
  6
Continuous
 62
     3
370
     9
100
AcDbLine
 10
-46.07886237067135
 20
230.9921369820399
 30
0.0
 11
-76.07908506651171
 21
222.5126217001564
 31
0.0
  0
LINE
  5
269
330
1F
100
AcDbEntity
  8
1-2ﾚｲﾔ
  6
Continuous
 62
     3
370
     9
100
AcDbLine
 10
-46.07886237067135
 20
130.9921163620546
 30
0.0
 11
-76.07908506651171
 21
122.5126010801711
 31
0.0
  0
LINE
  5
26A
330
1F
100
AcDbEntity
  8
1-2ﾚｲﾔ
  6
Continuous
 62
     3
370
     9
100
AcDbLine
 10
-76.0794562262457
 20
222.5126217001564
 30
0.0
 11
-76.0794562262457
 21
130.9921163620546
 31
0.0
  0
LINE
  5
26B
330
1F
100
AcDbEntity
  8
1-2ﾚｲﾔ
  6
Continuous
 62
     3
370
     9
100
AcDbLine
 10
-76.0794562262457
 20
122.5126010801711
 30
0.0
 11
-76.0794562262457
 21
76.25217973964118
 31
0.0
  0
LINE
  5
26C
330
1F
100
AcDbEntity
  8
1-2ﾚｲﾔ
  6
Continuous
 62
     3
370
     9
100
AcDbLine
 10
-81.07922528241133
 20
222.5126217001564
 30
0.0
 11
-81.07922528241133
 21
130.9921163620546
 31
0.0
  0
LINE
  5
26D
330
1F
100
AcDbEntity
  8
1-2ﾚｲﾔ
  6
Continuous
 62
     3
370
     9
100
AcDbLine
 10
-81.07922528241133
 20
122.5126010801711
 30
0.0
 11
-81.07922528241133
 21
76.25217973964118
 31
0.0
  0
LINE
  5
26E
330
1F
100
AcDbEntity
  8
1-2ﾚｲﾔ
  6
Continuous
 62
     3
370
     9
100
AcDbLine
 10
-51.07912630648215
 20
477.2526614224959
 30
0.0
 11
-51.07912630648215
 21
430.992054502099
 31
0.0
  0
LINE
  5
26F
330
1F
100
AcDbEntity
  8
1-2ﾚｲﾔ
  6
Continuous
 62
     3
370
     9
100
AcDbLine
 10
-46.07935725031666
 20
477.2526614224959
 30
0.0
 11
-46.07935725031666
 21
430.992054502099
 31
0.0
  0
LINE
  5
270
330
1F
100
AcDbEntity
  8
1-2ﾚｲﾔ
  6
Continuous
 62
     3
370
     9
100
AcDbLine
 10
-46.07935725031666
 20
422.5125392202156
 30
0.0
 11
-46.07935725031666
 21
330.9924669018033
 31
0.0
  0
LINE
  5
271
330
1F
100
AcDbEntity
  8
1-2ﾚｲﾔ
  6
Continuous
 62
     3
370
     9
100
AcDbLine
 10
-51.07912630648215
 20
422.5125392202156
 30
0.0
 11
-51.07912630648215
 21
330.9924669018033
 31
0.0
  0
LINE
  5
272
330
1F
100
AcDbEntity
  8
1-2ﾚｲﾔ
  6
Continuous
 62
     3
370
     9
100
AcDbLine
 10
-16.07876339474231
 20
430.992054502099
 30
0.0
 11
-46.07898609058267
 21
422.5125392202156
 31
0.0
  0
LINE
  5
273
330
1F
100
AcDbEntity
  8
1-2ﾚｲﾔ
  6
Continuous
 62
     3
370
     9
100
AcDbLine
 10
-46.07935725031666
 20
322.512580460186
 30
0.0
 11
-46.07935725031666
 21
230.9925081417737
 31
0.0
  0
LINE
  5
274
330
1F
100
AcDbEntity
  8
1-2ﾚｲﾔ
  6
Continuous
 62
     3
370
     9
100
AcDbLine
 10
-51.07912630648215
 20
322.512580460186
 30
0.0
 11
-51.07912630648215
 21
230.9925081417737
 31
0.0
  0
LINE
  5
275
330
1F
100
AcDbEntity
  8
1-2ﾚｲﾔ
  6
Continuous
 62
     3
370
     9
100
AcDbLine
 10
-16.07876339474231
 20
330.9920957420695
 30
0.0
 11
-46.07898609058267
 21
322.512580460186
 31
0.0
  0
LINE
  5
276
330
1F
100
AcDbEntity
  8
1-2ﾚｲﾔ
  6
Continuous
 62
     3
370
     9
100
AcDbLine
 10
-16.07876339474231
 20
230.9921369820399
 30
0.0
 11
-46.07898609058267
 21
222.5126217001564
 31
0.0
  0
LINE
  5
277
330
1F
100
AcDbEntity
  8
1-2ﾚｲﾔ
  6
Continuous
 62
     3
370
     9
100
AcDbLine
 10
-16.07876339474231
 20
130.9921163620546
 30
0.0
 11
-46.07898609058267
 21
122.5126010801711
 31
0.0
  0
LINE
  5
278
330
1F
100
AcDbEntity
  8
1-2ﾚｲﾔ
  6
Continuous
 62
     3
370
     9
100
AcDbLine
 10
-46.07935725031666
 20
222.5126217001564
 30
0.0
 11
-46.07935725031666
 21
130.9921163620546
 31
0.0
  0
LINE
  5
279
330
1F
100
AcDbEntity
  8
1-2ﾚｲﾔ
  6
Continuous
 62
     3
370
     9
100
AcDbLine
 10
-46.07935725031666
 20
122.5126010801711
 30
0.0
 11
-46.07935725031666
 21
76.25217973964118
 31
0.0
  0
LINE
  5
27A
330
1F
100
AcDbEntity
  8
1-2ﾚｲﾔ
  6
Continuous
 62
     3
370
     9
100
AcDbLine
 10
-51.07912630648215
 20
222.5126217001564
 30
0.0
 11
-51.07912630648215
 21
130.9921163620546
 31
0.0
  0
LINE
  5
27B
330
1F
100
AcDbEntity
  8
1-2ﾚｲﾔ
  6
Continuous
 62
     3
370
     9
100
AcDbLine
 10
-51.07912630648215
 20
122.5126010801711
 30
0.0
 11
-51.07912630648215
 21
76.25217973964118
 31
0.0
  0
LINE
  5
27C
330
1F
100
AcDbEntity
  8
1-2ﾚｲﾔ
  6
Continuous
 62
     3
370
     9
100
AcDbLine
 10
-21.07902733055312
 20
477.2526614224959
 30
0.0
 11
-21.07902733055312
 21
430.992054502099
 31
0.0
  0
LINE
  5
27D
330
1F
100
AcDbEntity
  8
1-2ﾚｲﾔ
  6
Continuous
 62
     3
370
     9
100
AcDbLine
 10
-16.07925827438763
 20
477.2526614224959
 30
0.0
 11
-16.07925827438763
 21
430.992054502099
 31
0.0
  0
LINE
  5
27E
330
1F
100
AcDbEntity
  8
1-2ﾚｲﾔ
  6
Continuous
 62
     3
370
     9
100
AcDbLine
 10
-16.07925827438763
 20
422.5125392202156
 30
0.0
 11
-16.07925827438763
 21
330.9924669018033
 31
0.0
  0
LINE
  5
27F
330
1F
100
AcDbEntity
  8
1-2ﾚｲﾔ
  6
Continuous
 62
     3
370
     9
100
AcDbLine
 10
-21.07902733055312
 20
422.5125392202156
 30
0.0
 11
-21.07902733055312
 21
330.9924669018033
 31
0.0
  0
LINE
  5
280
330
1F
100
AcDbEntity
  8
1-2ﾚｲﾔ
  6
Continuous
 62
     3
370
     9
100
AcDbLine
 10
13.92133558118672
 20
430.992054502099
 30
0.0
 11
-16.07888711465364
 21
422.5125392202156
 31
0.0
  0
LINE
  5
281
330
1F
100
AcDbEntity
  8
1-2ﾚｲﾔ
  6
Continuous
 62
     3
370
     9
100
AcDbLine
 10
-16.07925827438763
 20
322.512580460186
 30
0.0
 11
-16.07925827438763
 21
230.9925081417737
 31
0.0
  0
LINE
  5
282
330
1F
100
AcDbEntity
  8
1-2ﾚｲﾔ
  6
Continuous
 62
     3
370
     9
100
AcDbLine
 10
-21.07902733055312
 20
322.512580460186
 30
0.0
 11
-21.07902733055312
 21
230.9925081417737
 31
0.0
  0
LINE
  5
283
330
1F
100
AcDbEntity
  8
1-2ﾚｲﾔ
  6
Continuous
 62
     3
370
     9
100
AcDbLine
 10
13.92133558118672
 20
330.9920957420695
 30
0.0
 11
-16.07888711465364
 21
322.512580460186
 31
0.0
  0
LINE
  5
284
330
1F
100
AcDbEntity
  8
1-2ﾚｲﾔ
  6
Continuous
 62
     3
370
     9
100
AcDbLine
 10
13.92133558118672
 20
230.9921369820399
 30
0.0
 11
-16.07888711465364
 21
222.5126217001564
 31
0.0
  0
LINE
  5
285
330
1F
100
AcDbEntity
  8
1-2ﾚｲﾔ
  6
Continuous
 62
     3
370
     9
100
AcDbLine
 10
13.92133558118672
 20
130.9921163620546
 30
0.0
 11
-16.07888711465364
 21
122.5126010801711
 31
0.0
  0
LINE
  5
286
330
1F
100
AcDbEntity
  8
1-2ﾚｲﾔ
  6
Continuous
 62
     3
370
     9
100
AcDbLine
 10
-16.07925827438763
 20
222.5126217001564
 30
0.0
 11
-16.07925827438763
 21
130.9921163620546
 31
0.0
  0
LINE
  5
287
330
1F
100
AcDbEntity
  8
1-2ﾚｲﾔ
  6
Continuous
 62
     3
370
     9
100
AcDbLine
 10
-16.07925827438763
 20
122.5126010801711
 30
0.0
 11
-16.07925827438763
 21
76.25217973964118
 31
0.0
  0
LINE
  5
288
330
1F
100
AcDbEntity
  8
1-2ﾚｲﾔ
  6
Continuous
 62
     3
370
     9
100
AcDbLine
 10
-21.07902733055312
 20
222.5126217001564
 30
0.0
 11
-21.07902733055312
 21
130.9921163620546
 31
0.0
  0
LINE
  5
289
330
1F
100
AcDbEntity
  8
1-2ﾚｲﾔ
  6
Continuous
 62
     3
370
     9
100
AcDbLine
 10
-21.07902733055312
 20
122.5126010801711
 30
0.0
 11
-21.07902733055312
 21
76.25217973964118
 31
0.0
  0
LINE
  5
28A
330
1F
100
AcDbEntity
  8
1-2ﾚｲﾔ
  6
Continuous
 62
     3
370
     9
100
AcDbLine
 10
8.921071645375918
 20
477.2526614224959
 30
0.0
 11
8.921071645375918
 21
430.992054502099
 31
0.0
  0
LINE
  5
28B
330
1F
100
AcDbEntity
  8
1-2ﾚｲﾔ
  6
Continuous
 62
     3
370
     9
100
AcDbLine
 10
13.92084070154141
 20
477.2526614224959
 30
0.0
 11
13.92084070154141
 21
430.992054502099
 31
0.0
  0
LINE
  5
28C
330
1F
100
AcDbEntity
  8
1-2ﾚｲﾔ
  6
Continuous
 62
     3
370
     9
100
AcDbLine
 10
13.92084070154141
 20
422.5125392202156
 30
0.0
 11
13.92084070154141
 21
330.9924669018033
 31
0.0
  0
LINE
  5
28D
330
1F
100
AcDbEntity
  8
1-2ﾚｲﾔ
  6
Continuous
 62
     3
370
     9
100
AcDbLine
 10
8.921071645375918
 20
422.5125392202156
 30
0.0
 11
8.921071645375918
 21
330.9924669018033
 31
0.0
  0
LINE
  5
28E
330
1F
100
AcDbEntity
  8
1-2ﾚｲﾔ
  6
Continuous
 62
     3
370
     9
100
AcDbLine
 10
43.92143455711576
 20
430.992054502099
 30
0.0
 11
13.9212118612754
 21
422.5125392202156
 31
0.0
  0
LINE
  5
28F
330
1F
100
AcDbEntity
  8
1-2ﾚｲﾔ
  6
Continuous
 62
     3
370
     9
100
AcDbLine
 10
13.92084070154141
 20
322.512580460186
 30
0.0
 11
13.92084070154141
 21
230.9925081417737
 31
0.0
  0
LINE
  5
290
330
1F
100
AcDbEntity
  8
1-2ﾚｲﾔ
  6
Continuous
 62
     3
370
     9
100
AcDbLine
 10
8.921071645375918
 20
322.512580460186
 30
0.0
 11
8.921071645375918
 21
230.9925081417737
 31
0.0
  0
LINE
  5
291
330
1F
100
AcDbEntity
  8
1-2ﾚｲﾔ
  6
Continuous
 62
     3
370
     9
100
AcDbLine
 10
43.92143455711576
 20
330.9920957420695
 30
0.0
 11
13.9212118612754
 21
322.512580460186
 31
0.0
  0
LINE
  5
292
330
1F
100
AcDbEntity
  8
1-2ﾚｲﾔ
  6
Continuous
 62
     3
370
     9
100
AcDbLine
 10
43.92143455711576
 20
230.9921369820399
 30
0.0
 11
13.9212118612754
 21
222.5126217001564
 31
0.0
  0
LINE
  5
293
330
1F
100
AcDbEntity
  8
1-2ﾚｲﾔ
  6
Continuous
 62
     3
370
     9
100
AcDbLine
 10
43.92143455711576
 20
130.9921163620546
 30
0.0
 11
13.9212118612754
 21
122.5126010801711
 31
0.0
  0
LINE
  5
294
330
1F
100
AcDbEntity
  8
1-2ﾚｲﾔ
  6
Continuous
 62
     3
370
     9
100
AcDbLine
 10
13.92084070154141
 20
222.5126217001564
 30
0.0
 11
13.92084070154141
 21
130.9921163620546
 31
0.0
  0
LINE
  5
295
330
1F
100
AcDbEntity
  8
1-2ﾚｲﾔ
  6
Continuous
 62
     3
370
     9
100
AcDbLine
 10
13.92084070154141
 20
122.5126010801711
 30
0.0
 11
13.92084070154141
 21
76.25217973964118
 31
0.0
  0
LINE
  5
296
330
1F
100
AcDbEntity
  8
1-2ﾚｲﾔ
  6
Continuous
 62
     3
370
     9
100
AcDbLine
 10
8.921071645375918
 20
222.5126217001564
 30
0.0
 11
8.921071645375918
 21
130.9921163620546
 31
0.0
  0
LINE
  5
297
330
1F
100
AcDbEntity
  8
1-2ﾚｲﾔ
  6
Continuous
 62
     3
370
     9
100
AcDbLine
 10
8.921071645375918
 20
122.5126010801711
 30
0.0
 11
8.921071645375918
 21
76.25217973964118
 31
0.0
  0
LINE
  5
298
330
1F
100
AcDbEntity
  8
1-2ﾚｲﾔ
  6
Continuous
 62
     3
370
     9
100
AcDbLine
 10
38.92117062130495
 20
477.2526614224959
 30
0.0
 11
38.92117062130495
 21
430.992054502099
 31
0.0
  0
LINE
  5
299
330
1F
100
AcDbEntity
  8
1-2ﾚｲﾔ
  6
Continuous
 62
     3
370
     9
100
AcDbLine
 10
43.92093967747044
 20
477.2526614224959
 30
0.0
 11
43.92093967747044
 21
430.992054502099
 31
0.0
  0
LINE
  5
29A
330
1F
100
AcDbEntity
  8
1-2ﾚｲﾔ
  6
Continuous
 62
     3
370
     9
100
AcDbLine
 10
43.92093967747044
 20
422.5125392202156
 30
0.0
 11
43.92093967747044
 21
330.9924669018033
 31
0.0
  0
LINE
  5
29B
330
1F
100
AcDbEntity
  8
1-2ﾚｲﾔ
  6
Continuous
 62
     3
370
     9
100
AcDbLine
 10
38.92117062130495
 20
422.5125392202156
 30
0.0
 11
38.92117062130495
 21
330.9924669018033
 31
0.0
  0
LINE
  5
29C
330
1F
100
AcDbEntity
  8
1-2ﾚｲﾔ
  6
Continuous
 62
     3
370
     9
100
AcDbLine
 10
73.9215335330448
 20
430.992054502099
 30
0.0
 11
43.92131083720443
 21
422.5125392202156
 31
0.0
  0
LINE
  5
29D
330
1F
100
AcDbEntity
  8
1-2ﾚｲﾔ
  6
Continuous
 62
     3
370
     9
100
AcDbLine
 10
43.92093967747044
 20
322.512580460186
 30
0.0
 11
43.92093967747044
 21
230.9925081417737
 31
0.0
  0
LINE
  5
29E
330
1F
100
AcDbEntity
  8
1-2ﾚｲﾔ
  6
Continuous
 62
     3
370
     9
100
AcDbLine
 10
38.92117062130495
 20
322.512580460186
 30
0.0
 11
38.92117062130495
 21
230.9925081417737
 31
0.0
  0
LINE
  5
29F
330
1F
100
AcDbEntity
  8
1-2ﾚｲﾔ
  6
Continuous
 62
     3
370
     9
100
AcDbLine
 10
73.9215335330448
 20
330.9920957420695
 30
0.0
 11
43.92131083720443
 21
322.512580460186
 31
0.0
  0
LINE
  5
2A0
330
1F
100
AcDbEntity
  8
1-2ﾚｲﾔ
  6
Continuous
 62
     3
370
     9
100
AcDbLine
 10
73.9215335330448
 20
230.9921369820399
 30
0.0
 11
43.92131083720443
 21
222.5126217001564
 31
0.0
  0
LINE
  5
2A1
330
1F
100
AcDbEntity
  8
1-2ﾚｲﾔ
  6
Continuous
 62
     3
370
     9
100
AcDbLine
 10
73.9215335330448
 20
130.9921163620546
 30
0.0
 11
43.92131083720443
 21
122.5126010801711
 31
0.0
  0
LINE
  5
2A2
330
1F
100
AcDbEntity
  8
1-2ﾚｲﾔ
  6
Continuous
 62
     3
370
     9
100
AcDbLine
 10
43.92093967747044
 20
222.5126217001564
 30
0.0
 11
43.92093967747044
 21
130.9921163620546
 31
0.0
  0
LINE
  5
2A3
330
1F
100
AcDbEntity
  8
1-2ﾚｲﾔ
  6
Continuous
 62
     3
370
     9
100
AcDbLine
 10
43.92093967747044
 20
122.5126010801711
 30
0.0
 11
43.92093967747044
 21
76.25217973964118
 31
0.0
  0
LINE
  5
2A4
330
1F
100
AcDbEntity
  8
1-2ﾚｲﾔ
  6
Continuous
 62
     3
370
     9
100
AcDbLine
 10
38.92117062130495
 20
222.5126217001564
 30
0.0
 11
38.92117062130495
 21
130.9921163620546
 31
0.0
  0
LINE
  5
2A5
330
1F
100
AcDbEntity
  8
1-2ﾚｲﾔ
  6
Continuous
 62
     3
370
     9
100
AcDbLine
 10
38.92117062130495
 20
122.5126010801711
 30
0.0
 11
38.92117062130495
 21
76.25217973964118
 31
0.0
  0
LINE
  5
2A6
330
1F
100
AcDbEntity
  8
1-2ﾚｲﾔ
  6
Continuous
 62
     3
370
     9
100
AcDbLine
 10
68.92126959723399
 20
477.2526614224959
 30
0.0
 11
68.92126959723399
 21
430.992054502099
 31
0.0
  0
LINE
  5
2A7
330
1F
100
AcDbEntity
  8
1-2ﾚｲﾔ
  6
Continuous
 62
     3
370
     9
100
AcDbLine
 10
73.92103865339962
 20
477.2526614224959
 30
0.0
 11
73.92103865339962
 21
430.992054502099
 31
0.0
  0
LINE
  5
2A8
330
1F
100
AcDbEntity
  8
1-2ﾚｲﾔ
  6
Continuous
 62
     3
370
     9
100
AcDbLine
 10
73.92103865339962
 20
422.5125392202156
 30
0.0
 11
73.92103865339962
 21
330.9924669018033
 31
0.0
  0
LINE
  5
2A9
330
1F
100
AcDbEntity
  8
1-2ﾚｲﾔ
  6
Continuous
 62
     3
370
     9
100
AcDbLine
 10
68.92126959723399
 20
422.5125392202156
 30
0.0
 11
68.92126959723399
 21
330.9924669018033
 31
0.0
  0
LINE
  5
2AA
330
1F
100
AcDbEntity
  8
1-2ﾚｲﾔ
  6
Continuous
 62
     3
370
     9
100
AcDbLine
 10
103.9216325089738
 20
430.992054502099
 30
0.0
 11
73.92140981313347
 21
422.5125392202156
 31
0.0
  0
LINE
  5
2AB
330
1F
100
AcDbEntity
  8
1-2ﾚｲﾔ
  6
Continuous
 62
     3
370
     9
100
AcDbLine
 10
73.92103865339962
 20
322.512580460186
 30
0.0
 11
73.92103865339962
 21
230.9925081417737
 31
0.0
  0
LINE
  5
2AC
330
1F
100
AcDbEntity
  8
1-2ﾚｲﾔ
  6
Continuous
 62
     3
370
     9
100
AcDbLine
 10
68.92126959723399
 20
322.512580460186
 30
0.0
 11
68.92126959723399
 21
230.9925081417737
 31
0.0
  0
LINE
  5
2AD
330
1F
100
AcDbEntity
  8
1-2ﾚｲﾔ
  6
Continuous
 62
     3
370
     9
100
AcDbLine
 10
103.9216325089738
 20
330.9920957420695
 30
0.0
 11
73.92140981313347
 21
322.512580460186
 31
0.0
  0
LINE
  5
2AE
330
1F
100
AcDbEntity
  8
1-2ﾚｲﾔ
  6
Continuous
 62
     3
370
     9
100
AcDbLine
 10
103.9216325089738
 20
230.9921369820399
 30
0.0
 11
73.92140981313347
 21
222.5126217001564
 31
0.0
  0
LINE
  5
2AF
330
1F
100
AcDbEntity
  8
1-2ﾚｲﾔ
  6
Continuous
 62
     3
370
     9
100
AcDbLine
 10
103.9216325089738
 20
130.9921163620546
 30
0.0
 11
73.92140981313347
 21
122.5126010801711
 31
0.0
  0
LINE
  5
2B0
330
1F
100
AcDbEntity
  8
1-2ﾚｲﾔ
  6
Continuous
 62
     3
370
     9
100
AcDbLine
 10
73.92103865339962
 20
222.5126217001564
 30
0.0
 11
73.92103865339962
 21
130.9921163620546
 31
0.0
  0
LINE
  5
2B1
330
1F
100
AcDbEntity
  8
1-2ﾚｲﾔ
  6
Continuous
 62
     3
370
     9
100
AcDbLine
 10
73.92103865339962
 20
122.5126010801711
 30
0.0
 11
73.92103865339962
 21
76.25217973964118
 31
0.0
  0
LINE
  5
2B2
330
1F
100
AcDbEntity
  8
1-2ﾚｲﾔ
  6
Continuous
 62
     3
370
     9
100
AcDbLine
 10
68.92126959723399
 20
222.5126217001564
 30
0.0
 11
68.92126959723399
 21
130.9921163620546
 31
0.0
  0
LINE
  5
2B3
330
1F
100
AcDbEntity
  8
1-2ﾚｲﾔ
  6
Continuous
 62
     3
370
     9
100
AcDbLine
 10
68.92126959723399
 20
122.5126010801711
 30
0.0
 11
68.92126959723399
 21
76.25217973964118
 31
0.0
  0
LINE
  5
2B4
330
1F
100
AcDbEntity
  8
1-2ﾚｲﾔ
  6
Continuous
 62
     3
370
     9
100
AcDbLine
 10
98.92136857316302
 20
477.2526614224959
 30
0.0
 11
98.92136857316302
 21
430.992054502099
 31
0.0
  0
LINE
  5
2B5
330
1F
100
AcDbEntity
  8
1-2ﾚｲﾔ
  6
Continuous
 62
     3
370
     9
100
AcDbLine
 10
103.9211376293287
 20
477.2526614224959
 30
0.0
 11
103.9211376293287
 21
430.992054502099
 31
0.0
  0
LINE
  5
2B6
330
1F
100
AcDbEntity
  8
1-2ﾚｲﾔ
  6
Continuous
 62
     3
370
     9
100
AcDbLine
 10
103.9211376293287
 20
422.5125392202156
 30
0.0
 11
103.9211376293287
 21
330.9924669018033
 31
0.0
  0
LINE
  5
2B7
330
1F
100
AcDbEntity
  8
1-2ﾚｲﾔ
  6
Continuous
 62
     3
370
     9
100
AcDbLine
 10
98.92136857316302
 20
422.5125392202156
 30
0.0
 11
98.92136857316302
 21
330.9924669018033
 31
0.0
  0
LINE
  5
2B8
330
1F
100
AcDbEntity
  8
1-2ﾚｲﾔ
  6
Continuous
 62
     3
370
     9
100
AcDbLine
 10
133.921731484903
 20
430.992054502099
 30
0.0
 11
103.9215087890625
 21
422.5125392202156
 31
0.0
  0
LINE
  5
2B9
330
1F
100
AcDbEntity
  8
1-2ﾚｲﾔ
  6
Continuous
 62
     3
370
     9
100
AcDbLine
 10
103.9211376293287
 20
322.512580460186
 30
0.0
 11
103.9211376293287
 21
230.9925081417737
 31
0.0
  0
LINE
  5
2BA
330
1F
100
AcDbEntity
  8
1-2ﾚｲﾔ
  6
Continuous
 62
     3
370
     9
100
AcDbLine
 10
98.92136857316302
 20
322.512580460186
 30
0.0
 11
98.92136857316302
 21
230.9925081417737
 31
0.0
  0
LINE
  5
2BB
330
1F
100
AcDbEntity
  8
1-2ﾚｲﾔ
  6
Continuous
 62
     3
370
     9
100
AcDbLine
 10
133.921731484903
 20
330.9920957420695
 30
0.0
 11
103.9215087890625
 21
322.512580460186
 31
0.0
  0
LINE
  5
2BC
330
1F
100
AcDbEntity
  8
1-2ﾚｲﾔ
  6
Continuous
 62
     3
370
     9
100
AcDbLine
 10
133.921731484903
 20
230.9921369820399
 30
0.0
 11
103.9215087890625
 21
222.5126217001564
 31
0.0
  0
LINE
  5
2BD
330
1F
100
AcDbEntity
  8
1-2ﾚｲﾔ
  6
Continuous
 62
     3
370
     9
100
AcDbLine
 10
133.921731484903
 20
130.9921163620546
 30
0.0
 11
103.9215087890625
 21
122.5126010801711
 31
0.0
  0
LINE
  5
2BE
330
1F
100
AcDbEntity
  8
1-2ﾚｲﾔ
  6
Continuous
 62
     3
370
     9
100
AcDbLine
 10
103.9211376293287
 20
222.5126217001564
 30
0.0
 11
103.9211376293287
 21
130.9921163620546
 31
0.0
  0
LINE
  5
2BF
330
1F
100
AcDbEntity
  8
1-2ﾚｲﾔ
  6
Continuous
 62
     3
370
     9
100
AcDbLine
 10
103.9211376293287
 20
122.5126010801711
 30
0.0
 11
103.9211376293287
 21
76.25217973964118
 31
0.0
  0
LINE
  5
2C0
330
1F
100
AcDbEntity
  8
1-2ﾚｲﾔ
  6
Continuous
 62
     3
370
     9
100
AcDbLine
 10
98.92136857316302
 20
222.5126217001564
 30
0.0
 11
98.92136857316302
 21
130.9921163620546
 31
0.0
  0
LINE
  5
2C1
330
1F
100
AcDbEntity
  8
1-2ﾚｲﾔ
  6
Continuous
 62
     3
370
     9
100
AcDbLine
 10
98.92136857316302
 20
122.5126010801711
 30
0.0
 11
98.92136857316302
 21
76.25217973964118
 31
0.0
  0
LINE
  5
2C2
330
1F
100
AcDbEntity
  8
1-2ﾚｲﾔ
  6
Continuous
 62
     3
370
     9
100
AcDbLine
 10
128.9214675490921
 20
477.2526614224959
 30
0.0
 11
128.9214675490921
 21
430.992054502099
 31
0.0
  0
LINE
  5
2C3
330
1F
100
AcDbEntity
  8
1-2ﾚｲﾔ
  6
Continuous
 62
     3
370
     9
100
AcDbLine
 10
133.9212366052577
 20
477.2526614224959
 30
0.0
 11
133.9212366052577
 21
430.992054502099
 31
0.0
  0
LINE
  5
2C4
330
1F
100
AcDbEntity
  8
1-2ﾚｲﾔ
  6
Continuous
 62
     3
370
     9
100
AcDbLine
 10
133.9212366052577
 20
422.5125392202156
 30
0.0
 11
133.9212366052577
 21
330.9924669018033
 31
0.0
  0
LINE
  5
2C5
330
1F
100
AcDbEntity
  8
1-2ﾚｲﾔ
  6
Continuous
 62
     3
370
     9
100
AcDbLine
 10
128.9214675490921
 20
422.5125392202156
 30
0.0
 11
128.9214675490921
 21
330.9924669018033
 31
0.0
  0
LINE
  5
2C6
330
1F
100
AcDbEntity
  8
1-2ﾚｲﾔ
  6
Continuous
 62
     3
370
     9
100
AcDbLine
 10
163.921830460832
 20
430.992054502099
 30
0.0
 11
133.9216077649917
 21
422.5125392202156
 31
0.0
  0
LINE
  5
2C7
330
1F
100
AcDbEntity
  8
1-2ﾚｲﾔ
  6
Continuous
 62
     3
370
     9
100
AcDbLine
 10
133.9212366052577
 20
322.512580460186
 30
0.0
 11
133.9212366052577
 21
230.9925081417737
 31
0.0
  0
LINE
  5
2C8
330
1F
100
AcDbEntity
  8
1-2ﾚｲﾔ
  6
Continuous
 62
     3
370
     9
100
AcDbLine
 10
128.9214675490921
 20
322.512580460186
 30
0.0
 11
128.9214675490921
 21
230.9925081417737
 31
0.0
  0
LINE
  5
2C9
330
1F
100
AcDbEntity
  8
1-2ﾚｲﾔ
  6
Continuous
 62
     3
370
     9
100
AcDbLine
 10
163.921830460832
 20
330.9920957420695
 30
0.0
 11
133.9216077649917
 21
322.512580460186
 31
0.0
  0
LINE
  5
2CA
330
1F
100
AcDbEntity
  8
1-2ﾚｲﾔ
  6
Continuous
 62
     3
370
     9
100
AcDbLine
 10
163.921830460832
 20
230.9921369820399
 30
0.0
 11
133.9216077649917
 21
222.5126217001564
 31
0.0
  0
LINE
  5
2CB
330
1F
100
AcDbEntity
  8
1-2ﾚｲﾔ
  6
Continuous
 62
     3
370
     9
100
AcDbLine
 10
163.921830460832
 20
130.9921163620546
 30
0.0
 11
133.9216077649917
 21
122.5126010801711
 31
0.0
  0
LINE
  5
2CC
330
1F
100
AcDbEntity
  8
1-2ﾚｲﾔ
  6
Continuous
 62
     3
370
     9
100
AcDbLine
 10
133.9212366052577
 20
222.5126217001564
 30
0.0
 11
133.9212366052577
 21
130.9921163620546
 31
0.0
  0
LINE
  5
2CD
330
1F
100
AcDbEntity
  8
1-2ﾚｲﾔ
  6
Continuous
 62
     3
370
     9
100
AcDbLine
 10
133.9212366052577
 20
122.5126010801711
 30
0.0
 11
133.9212366052577
 21
76.25217973964118
 31
0.0
  0
LINE
  5
2CE
330
1F
100
AcDbEntity
  8
1-2ﾚｲﾔ
  6
Continuous
 62
     3
370
     9
100
AcDbLine
 10
128.9214675490921
 20
222.5126217001564
 30
0.0
 11
128.9214675490921
 21
130.9921163620546
 31
0.0
  0
LINE
  5
2CF
330
1F
100
AcDbEntity
  8
1-2ﾚｲﾔ
  6
Continuous
 62
     3
370
     9
100
AcDbLine
 10
128.9214675490921
 20
122.5126010801711
 30
0.0
 11
128.9214675490921
 21
76.25217973964118
 31
0.0
  0
ARC
  5
2D0
330
1F
100
AcDbEntity
  8
1-1ﾚｲﾔ
  6
Continuous
 62
     2
370
     9
100
AcDbCircle
 10
430.0486796611065
 20
441.1523047792315
 30
0.0
 40
6.399999599199038
100
AcDbArc
 50
180.0
 51
270.0
  0
ARC
  5
2D1
330
1F
100
AcDbEntity
  8
1-1ﾚｲﾔ
  6
Continuous
 62
     2
370
     9
100
AcDbCircle
 10
487.2486011402029
 20
441.1523047792315
 30
0.0
 40
6.399999599199038
100
AcDbArc
 50
270.0
 51
0.0
  0
ARC
  5
2D2
330
1F
100
AcDbEntity
  8
1-1ﾚｲﾔ
  6
Continuous
 62
     2
370
     9
100
AcDbCircle
 10
487.2484774202914
 20
441.1524284991429
 30
0.0
 40
3.199999799599519
100
AcDbArc
 50
270.0
 51
0.0
  0
ARC
  5
2D3
330
1F
100
AcDbEntity
  8
1-1ﾚｲﾔ
  6
Continuous
 62
     2
370
     9
100
AcDbCircle
 10
430.0486796611065
 20
468.3523747222214
 30
0.0
 40
6.399999599199038
100
AcDbArc
 50
90.0
 51
180.0
  0
ARC
  5
2D4
330
1F
100
AcDbEntity
  8
1-1ﾚｲﾔ
  6
Continuous
 62
     2
370
     9
100
AcDbCircle
 10
430.048555941195
 20
468.3522510023101
 30
0.0
 40
3.199999799599519
100
AcDbArc
 50
90.0
 51
180.0
  0
ARC
  5
2D5
330
1F
100
AcDbEntity
  8
1-1ﾚｲﾔ
  6
Continuous
 62
     2
370
     9
100
AcDbCircle
 10
487.2484774202914
 20
468.3522510023101
 30
0.0
 40
3.199999799599519
100
AcDbArc
 50
0.0
 51
90.0
  0
ARC
  5
2D6
330
1F
100
AcDbEntity
  8
1-1ﾚｲﾔ
  6
Continuous
 62
     2
370
     9
100
AcDbCircle
 10
487.2486011402029
 20
468.3523747222214
 30
0.0
 40
6.399999599199038
100
AcDbArc
 50
0.0
 51
90.0
  0
ARC
  5
2D7
330
1F
100
AcDbEntity
  8
1-1ﾚｲﾔ
  6
Continuous
 62
     2
370
     9
100
AcDbCircle
 10
430.0486796611065
 20
441.1524284991429
 30
0.0
 40
3.199999799599519
100
AcDbArc
 50
180.0
 51
270.0
  0
ARC
  5
2D8
330
1F
100
AcDbEntity
  8
1-1ﾚｲﾔ
  6
Continuous
 62
     2
370
     9
100
AcDbCircle
 10
430.0486796611065
 20
112.3525363829055
 30
0.0
 40
6.399999599199038
100
AcDbArc
 50
90.0
 51
180.0
  0
ARC
  5
2D9
330
1F
100
AcDbEntity
  8
1-1ﾚｲﾔ
  6
Continuous
 62
     2
370
     9
100
AcDbCircle
 10
487.2486011402029
 20
112.3525363829055
 30
0.0
 40
6.399999599199038
100
AcDbArc
 50
0.0
 51
90.0
  0
ARC
  5
2DA
330
1F
100
AcDbEntity
  8
1-1ﾚｲﾔ
  6
Continuous
 62
     2
370
     9
100
AcDbCircle
 10
487.2484774202914
 20
112.3524126629942
 30
0.0
 40
3.199999799599519
100
AcDbArc
 50
0.0
 51
90.0
  0
ARC
  5
2DB
330
1F
100
AcDbEntity
  8
1-1ﾚｲﾔ
  6
Continuous
 62
     2
370
     9
100
AcDbCircle
 10
430.0486796611065
 20
85.15246643991566
 30
0.0
 40
6.399999599199038
100
AcDbArc
 50
180.0
 51
270.0
  0
ARC
  5
2DC
330
1F
100
AcDbEntity
  8
1-1ﾚｲﾔ
  6
Continuous
 62
     2
370
     9
100
AcDbCircle
 10
430.048555941195
 20
85.15259015982699
 30
0.0
 40
3.199999799599519
100
AcDbArc
 50
180.0
 51
270.0
  0
ARC
  5
2DD
330
1F
100
AcDbEntity
  8
1-1ﾚｲﾔ
  6
Continuous
 62
     2
370
     9
100
AcDbCircle
 10
487.2484774202914
 20
85.15259015982699
 30
0.0
 40
3.199999799599519
100
AcDbArc
 50
270.0
 51
0.0
  0
ARC
  5
2DE
330
1F
100
AcDbEntity
  8
1-1ﾚｲﾔ
  6
Continuous
 62
     2
370
     9
100
AcDbCircle
 10
487.2486011402029
 20
85.15246643991566
 30
0.0
 40
6.399999599199038
100
AcDbArc
 50
270.0
 51
0.0
  0
ARC
  5
2DF
330
1F
100
AcDbEntity
  8
1-1ﾚｲﾔ
  6
Continuous
 62
     2
370
     9
100
AcDbCircle
 10
430.0486796611065
 20
112.3524126629942
 30
0.0
 40
3.199999799599519
100
AcDbArc
 50
90.0
 51
180.0
  0
TEXT
  5
2E0
330
1F
100
AcDbEntity
  8
1-4ﾚｲﾔ
  6
Continuous
 62
     7
370
     9
100
AcDbText
 10
-436.9414870803421
 20
578.1420507410137
 30
0.0
 40
11.43
  1
クロスバー □６ ＠100
 41
1.158730158730159
  7
ＭＳ ゴシック
100
AcDbText
  0
TEXT
  5
2E1
330
1F
100
AcDbEntity
  8
1-4ﾚｲﾔ
  6
Continuous
 62
     7
370
     9
100
AcDbText
 10
-408.6257109770904
 20
538.2881557082856
 30
0.0
 40
11.43
  1
メインバー Ⅰ－２５ ＠30
 41
1.159722222222222
  7
ＭＳ ゴシック
100
AcDbText
  0
TEXT
  5
2E2
330
1F
100
AcDbEntity
  8
1-4ﾚｲﾔ
  6
Continuous
 62
     2
370
     9
100
AcDbText
 10
367.3477997650971
 20
29.57246182103896
 30
0.0
 40
15.24
  1
25
 41
1.0625
  7
ＭＳ ゴシック
100
AcDbText
  0
TEXT
  5
2E3
330
1F
100
AcDbEntity
  8
1-4ﾚｲﾔ
  6
Continuous
 62
     2
370
     9
100
AcDbText
 10
535.8285331767314
 20
51.00162629923793
 30
0.0
 40
15.24
  1
7
 50
90.0
 41
0.9999999999999998
  7
ＭＳ ゴシック
100
AcDbText
  0
TEXT
  5
2E4
330
1F
100
AcDbEntity
  8
1-4ﾚｲﾔ
  6
Continuous
 62
     2
370
     9
100
AcDbText
 10
535.8285331767314
 20
88.12749728741358
 30
0.0
 40
15.24
  1
40
 50
90.0
 41
1.0625
  7
ＭＳ ゴシック
100
AcDbText
  0
TEXT
  5
2E5
330
1F
100
AcDbEntity
  8
1-4ﾚｲﾔ
  6
Continuous
 62
     2
370
     9
100
AcDbText
 10
535.8285331767314
 20
444.1273974866851
 30
0.0
 40
15.24
  1
40
 50
90.0
 41
1.0625
  7
ＭＳ ゴシック
100
AcDbText
  0
TEXT
  5
2E6
330
1F
100
AcDbEntity
  8
1-4ﾚｲﾔ
  6
Continuous
 62
     2
370
     9
100
AcDbText
 10
535.8285331767314
 20
490.4784436622552
 30
0.0
 40
15.24
  1
7
 50
90.0
 41
0.9999999999999998
  7
ＭＳ ゴシック
100
AcDbText
  0
TEXT
  5
2E7
330
1F
100
AcDbEntity
  8
1-4ﾚｲﾔ
  6
Continuous
 62
     2
370
     9
100
AcDbText
 10
-644.2057429133234
 20
517.1968003319132
 30
0.0
 40
15.24
  1
30
 41
1.0625
  7
ＭＳ ゴシック
100
AcDbText
  0
TEXT
  5
2E8
330
1F
100
AcDbEntity
  8
1-4ﾚｲﾔ
  6
Continuous
 62
     2
370
     9
100
AcDbText
 10
448.0235744167018
 20
27.57246759463479
 30
0.0
 40
15.24
  1
70
 41
1.0625
  7
ＭＳ ゴシック
100
AcDbText
  0
TEXT
  5
2E9
330
1F
100
AcDbEntity
  8
1-4ﾚｲﾔ
  6
Continuous
 62
     2
370
     9
100
AcDbText
 10
435.5236568966427
 20
-12.42754065335928
 30
0.0
 40
15.24
  1
95
 41
1.0625
  7
ＭＳ ゴシック
100
AcDbText
  0
TEXT
  5
2EA
330
1F
100
AcDbEntity
  8
1-4ﾚｲﾔ
  6
Continuous
 62
     2
370
     9
100
AcDbText
 10
537.8285892630914
 20
260.502366969107
 30
0.0
 40
15.24
  1
316
 50
90.0
 41
1.083333333333333
  7
ＭＳ ゴシック
100
AcDbText
  0
TEXT
  5
2EB
330
1F
100
AcDbEntity
  8
1-4ﾚｲﾔ
  6
Continuous
 62
     2
370
     9
100
AcDbText
 10
-349.8311017010662
 20
27.57246759463479
 30
0.0
 40
15.24
  1
995
 41
1.083333333333333
  7
ＭＳ ゴシック
100
AcDbText
  0
TEXT
  5
2EC
330
1F
100
AcDbEntity
  8
1-4ﾚｲﾔ
  6
Continuous
 62
     7
370
     9
100
AcDbText
 10
599.8676196948904
 20
551.5925000917316
 30
0.0
 40
11.43
  1
（Ｌ＝９８５）
 41
1.142857142857143
  7
ＭＳ ゴシック
100
AcDbText
  0
TEXT
  5
2ED
330
1F
100
AcDbEntity
  8
1-4ﾚｲﾔ
  6
Continuous
 62
     7
370
     9
100
AcDbText
 10
518.7382878483953
 20
582.0706528049917
 30
0.0
 40
11.43
  1
かさ上げ材：□７０×４０×３．２
 41
1.15625
  7
ＭＳ ゴシック
100
AcDbText
  0
TEXT
  5
2EE
330
1F
100
AcDbEntity
  8
1-4ﾚｲﾔ
  6
Continuous
 62
     2
370
     9
100
AcDbText
 10
342.8286882390203
 20
260.502366969107
 30
0.0
 40
15.24
  1
410
 50
90.0
 41
1.083333333333333
  7
ＭＳ ゴシック
100
AcDbText
  0
TEXT
  5
2EF
330
1F
100
AcDbEntity
  8
1-4ﾚｲﾔ
  6
Continuous
 62
     7
370
     9
100
AcDbText
 10
-483.0857972841005
 20
620.5451945464401
 30
0.0
 40
11.43
  1
エンドプレート ＦＢ4.5×19
 41
1.16025641025641
  7
ＭＳ ゴシック
100
AcDbText
  0
LINE
  5
2F0
330
1F
100
AcDbEntity
  8
1-4ﾚｲﾔ
  6
Continuous
 62
     7
370
     9
100
AcDbLine
 10
-436.0806439373944
 20
452.3310900040109
 30
0.0
 11
-414.7998294314822
 21
531.7523958370863
 31
0.0
  0
LINE
  5
2F1
330
1F
100
AcDbEntity
  8
1-4ﾚｲﾔ
  6
Continuous
 62
     7
370
     9
100
AcDbLine
 10
-436.0806439373944
 20
452.3310900040109
 30
0.0
 11
-434.4490753069599
 21
464.7241519260777
 31
0.0
  0
LINE
  5
2F2
330
1F
100
AcDbEntity
  8
1-4ﾚｲﾔ
  6
Continuous
 62
     7
370
     9
100
AcDbLine
 10
-436.0806439373944
 20
452.3310900040109
 30
0.0
 11
-431.2971092073288
 21
463.8795875463866
 31
0.0
  0
ENDSEC
  0
SECTION
  2
OBJECTS
  0
DICTIONARY
  5
C
330
0
100
AcDbDictionary
281
     1
  3
ACAD_DETAILVIEWSTYLE
350
338
  3
ACAD_GROUP
350
D
  3
ACAD_LAYOUT
350
1A
  3
ACAD_MATERIAL
350
43
  3
ACAD_MLEADERSTYLE
350
6B
  3
ACAD_MLINESTYLE
350
17
  3
ACAD_PLOTSETTINGS
350
19
  3
ACAD_PLOTSTYLENAME
350
E
  3
ACAD_SCALELIST
350
47
  3
ACAD_SECTIONVIEWSTYLE
350
339
  3
ACAD_TABLESTYLE
350
69
  3
ACAD_VISUALSTYLE
350
2A
  3
ACDB_RECOMPOSE_DATA
350
335
  3
AcDbVariableDictionary
350
2F5
  0
DICTIONARY
  5
2F3
330
8
100
AcDbDictionary
280
     1
281
     1
  3
ACAD_XREC_ROUNDTRIP
360
2F4
  0
DICTIONARY
  5
338
102
{ACAD_REACTORS
330
C
102
}
330
C
100
AcDbDictionary
281
     1
  0
DICTIONARY
  5
D
102
{ACAD_REACTORS
330
C
102
}
330
C
100
AcDbDictionary
281
     1
  0
DICTIONARY
  5
1A
102
{ACAD_REACTORS
330
C
102
}
330
C
100
AcDbDictionary
281
     1
  3
Layout1
350
1E
  3
Layout2
350
26
  3
Model
350
22
  0
DICTIONARY
  5
43
102
{ACAD_REACTORS
330
C
102
}
330
C
100
AcDbDictionary
281
     1
  3
ByBlock
350
45
  3
ByLayer
350
44
  3
Global
350
46
  0
DICTIONARY
  5
6B
102
{ACAD_REACTORS
330
C
102
}
330
C
100
AcDbDictionary
281
     1
  3
Standard
350
6C
  0
DICTIONARY
  5
17
102
{ACAD_REACTORS
330
C
102
}
330
C
100
AcDbDictionary
281
     1
  3
Standard
350
18
  0
DICTIONARY
  5
19
102
{ACAD_REACTORS
330
C
102
}
330
C
100
AcDbDictionary
281
     1
  0
ACDBDICTIONARYWDFLT
  5
E
102
{ACAD_REACTORS
330
C
102
}
330
C
100
AcDbDictionary
281
     1
  3
Normal
350
F
100
AcDbDictionaryWithDefault
340
F
  0
DICTIONARY
  5
47
102
{ACAD_REACTORS
330
C
102
}
330
C
100
AcDbDictionary
281
     1
  3
A0
350
48
  3
A1
350
49
  3
A2
350
4A
  3
A3
350
4B
  3
A4
350
4C
  3
A5
350
4D
  3
A6
350
4E
  3
A7
350
4F
  3
A8
350
50
  3
A9
350
51
  3
B0
350
52
  3
B1
350
53
  3
B2
350
54
  3
B3
350
55
  3
B4
350
56
  3
B5
350
57
  3
B6
350
58
  3
B7
350
59
  3
B8
350
5A
  3
B9
350
5B
  3
C0
350
5C
  3
C1
350
5D
  3
C2
350
5E
  3
C3
350
5F
  3
C4
350
60
  3
C5
350
61
  3
C6
350
62
  3
C7
350
63
  3
C8
350
64
  3
C9
350
65
  3
D0
350
66
  3
D1
350
67
  3
D2
350
68
  0
DICTIONARY
  5
339
102
{ACAD_REACTORS
330
C
102
}
330
C
100
AcDbDictionary
281
     1
  0
DICTIONARY
  5
69
102
{ACAD_REACTORS
330
C
102
}
330
C
100
AcDbDictionary
281
     1
  3
Standard
350
6A
  0
DICTIONARY
  5
2A
102
{ACAD_REACTORS
330
C
102
}
330
C
100
AcDbDictionary
281
     1
  3
2dWireframe
350
2F
  3
Basic
350
32
  3
Brighten
350
36
  3
ColorChange
350
3A
  3
Conceptual
350
34
  3
Dim
350
35
  3
EdgeColorOff
350
3D
  3
Facepattern
350
39
  3
Flat
350
2B
  3
FlatWithEdges
350
2C
  3
Gouraud
350
2D
  3
GouraudWithEdges
350
2E
  3
Hidden
350
31
  3
JitterOff
350
3B
  3
Linepattern
350
38
  3
OverhangOff
350
3C
  3
Realistic
350
33
  3
Shaded
350
42
  3
Shaded with edges
350
41
  3
Shades of Gray
350
3E
  3
Sketchy
350
3F
  3
Thicken
350
37
  3
Wireframe
350
30
  3
X-Ray
350
40
  0
XRECORD
  5
335
102
{ACAD_REACTORS
330
C
102
}
330
C
100
AcDbXrecord
280
     1
 90
        1
330
6A
  0
DICTIONARY
  5
2F5
102
{ACAD_REACTORS
330
C
102
}
330
C
100
AcDbDictionary
281
     1
  3
CANNOSCALE
350
2F6
  3
CENTEREXE
350
33A
  3
CENTERLTYPEFILE
350
33B
  3
CMLEADERSTYLE
350
337
  3
CTABLESTYLE
350
336
  3
MSLTSCALE
350
2F7
  3
XCLIPFRAME
350
2F8
  0
XRECORD
  5
2F4
102
{ACAD_REACTORS
330
2F3
102
}
330
2F3
100
AcDbXrecord
280
     1
102
VTR_0.000_0.000_1.000_1.000_VISUALSTYLE
340
2F
102
VTR_0.000_0.000_1.000_1.000_GRIDDISPLAY
 70
     3
102
VTR_0.000_0.000_1.000_1.000_GRIDMAJOR
 70
     5
102
VTR_0.000_0.000_1.000_1.000_DEFAULTLIGHTING
280
     1
102
VTR_0.000_0.000_1.000_1.000_DEFAULTLIGHTINGTYPE
 70
     1
102
VTR_0.000_0.000_1.000_1.000_BRIGHTNESS
141
0.0
102
VTR_0.000_0.000_1.000_1.000_CONTRAST
142
0.0
  0
LAYOUT
  5
1E
102
{ACAD_REACTORS
330
1A
102
}
330
1A
100
AcDbPlotSettings
  1

  2
none_device
  4

  6

 40
0.0
 41
0.0
 42
0.0
 43
0.0
 44
0.0
 45
0.0
 46
0.0
 47
0.0
 48
0.0
 49
0.0
140
0.0
141
0.0
142
1.0
143
1.0
 70
   688
 72
     1
 73
     0
 74
     5
  7

 75
    16
 76
     0
 77
     5
 78
   300
147
1.0
148
0.0
149
0.0
100
AcDbLayout
  1
Layout1
 70
     1
 71
     1
 10
0.0
 20
0.0
 11
420.0
 21
297.0
 12
0.0
 22
0.0
 32
0.0
 14
1.000000000000000E+20
 24
1.000000000000000E+20
 34
1.000000000000000E+20
 15
-1.000000000000000E+20
 25
-1.000000000000000E+20
 35
-1.000000000000000E+20
146
0.0
 13
0.0
 23
0.0
 33
0.0
 16
1.0
 26
0.0
 36
0.0
 17
0.0
 27
1.0
 37
0.0
 76
     0
330
1B
  0
LAYOUT
  5
26
102
{ACAD_REACTORS
330
1A
102
}
330
1A
100
AcDbPlotSettings
  1

  2
none_device
  4

  6

 40
0.0
 41
0.0
 42
0.0
 43
0.0
 44
0.0
 45
0.0
 46
0.0
 47
0.0
 48
0.0
 49
0.0
140
0.0
141
0.0
142
1.0
143
1.0
 70
   688
 72
     1
 73
     0
 74
     5
  7

 75
    16
 76
     0
 77
     5
 78
   300
147
1.0
148
0.0
149
0.0
100
AcDbLayout
  1
Layout2
 70
     1
 71
     2
 10
0.0
 20
0.0
 11
0.0
 21
0.0
 12
0.0
 22
0.0
 32
0.0
 14
0.0
 24
0.0
 34
0.0
 15
0.0
 25
0.0
 35
0.0
146
0.0
 13
0.0
 23
0.0
 33
0.0
 16
1.0
 26
0.0
 36
0.0
 17
0.0
 27
1.0
 37
0.0
 76
     0
330
23
  0
LAYOUT
  5
22
102
{ACAD_REACTORS
330
1A
102
}
330
1A
100
AcDbPlotSettings
  1

  2
none_device
  4
Letter_(8.50_x_11.00_Inches)
  6

 40
6.35
 41
6.35
 42
6.35000508
 43
6.35000508
 44
215.9
 45
279.4
 46
0.0
 47
0.0
 48
0.0
 49
0.0
140
0.0
141
0.0
142
1.0
143
1.0
 70
  1712
 72
     1
 73
     0
 74
     0
  7

 75
     0
 76
     0
 77
     5
 78
   300
147
1.0
148
0.0
149
0.0
100
AcDbLayout
  1
Model
 70
     1
 71
     0
 10
-1050.0
 20
-742.5
 11
1050.0
 21
742.5
 12
0.0
 22
0.0
 32
0.0
 14
-1050.0
 24
-742.5
 34
0.0
 15
1050.0
 25
742.5
 35
0.0
146
0.0
 13
0.0
 23
0.0
 33
0.0
 16
1.0
 26
0.0
 36
0.0
 17
0.0
 27
1.0
 37
0.0
 76
     0
330
1F
331
29
  0
MATERIAL
  5
45
102
{ACAD_REACTORS
330
43
102
}
102
{ACAD_XDICTIONARY
360
32B
102
}
330
43
100
AcDbMaterial
  1
ByBlock
  0
MATERIAL
  5
44
102
{ACAD_REACTORS
330
43
102
}
102
{ACAD_XDICTIONARY
360
329
102
}
330
43
100
AcDbMaterial
  1
ByLayer
  0
MATERIAL
  5
46
102
{ACAD_REACTORS
330
43
102
}
102
{ACAD_XDICTIONARY
360
32D
102
}
330
43
100
AcDbMaterial
  1
Global
  0
MLEADERSTYLE
  5
6C
102
{ACAD_REACTORS
330
6B
102
}
102
{ACAD_XDICTIONARY
360
333
102
}
330
6B
100
AcDbMLeaderStyle
170
     2
171
     1
172
     0
 90
        2
 40
0.0
 41
0.0
173
     1
 91
-1056964608
340
14
 92
       -2
290
     1
 42
2.0
291
     1
 43
8.0
  3
Standard
341
0
 44
4.0
300

342
11
174
     1
178
     6
175
     1
176
     0
 93
-1056964608
 45
4.0
292
     0
297
     0
 46
4.0
343
0
 94
-1056964608
 47
1.0
 49
1.0
140
1.0
293
     1
141
0.0
294
     1
177
     0
142
1.0
295
     0
296
     0
143
3.75
1001
ACAD_MLEADERVER
1070
     2
  0
MLINESTYLE
  5
18
102
{ACAD_REACTORS
330
17
102
}
330
17
100
AcDbMlineStyle
  2
Standard
 70
     0
  3

 62
   256
 51
90.0
 52
90.0
 71
     2
 49
0.5
 62
   256
  6
BYLAYER
 49
-0.5
 62
   256
  6
BYLAYER
  0
ACDBPLACEHOLDER
  5
F
102
{ACAD_REACTORS
330
E
102
}
330
E
  0
SCALE
  5
48
102
{ACAD_REACTORS
330
47
102
}
330
47
100
AcDbScale
 70
     0
300
1:1
140
1.0
141
1.0
290
     1
  0
SCALE
  5
49
102
{ACAD_REACTORS
330
47
102
}
330
47
100
AcDbScale
 70
     0
300
1:2
140
1.0
141
2.0
290
     0
  0
SCALE
  5
4A
102
{ACAD_REACTORS
330
47
102
}
330
47
100
AcDbScale
 70
     0
300
1:4
140
1.0
141
4.0
290
     0
  0
SCALE
  5
4B
102
{ACAD_REACTORS
330
47
102
}
330
47
100
AcDbScale
 70
     0
300
1:5
140
1.0
141
5.0
290
     0
  0
SCALE
  5
4C
102
{ACAD_REACTORS
330
47
102
}
330
47
100
AcDbScale
 70
     0
300
1:8
140
1.0
141
8.0
290
     0
  0
SCALE
  5
4D
102
{ACAD_REACTORS
330
47
102
}
330
47
100
AcDbScale
 70
     0
300
1:10
140
1.0
141
10.0
290
     0
  0
SCALE
  5
4E
102
{ACAD_REACTORS
330
47
102
}
330
47
100
AcDbScale
 70
     0
300
1:16
140
1.0
141
16.0
290
     0
  0
SCALE
  5
4F
102
{ACAD_REACTORS
330
47
102
}
330
47
100
AcDbScale
 70
     0
300
1:20
140
1.0
141
20.0
290
     0
  0
SCALE
  5
50
102
{ACAD_REACTORS
330
47
102
}
330
47
100
AcDbScale
 70
     0
300
1:30
140
1.0
141
30.0
290
     0
  0
SCALE
  5
51
102
{ACAD_REACTORS
330
47
102
}
330
47
100
AcDbScale
 70
     0
300
1:40
140
1.0
141
40.0
290
     0
  0
SCALE
  5
52
102
{ACAD_REACTORS
330
47
102
}
330
47
100
AcDbScale
 70
     0
300
1:50
140
1.0
141
50.0
290
     0
  0
SCALE
  5
53
102
{ACAD_REACTORS
330
47
102
}
330
47
100
AcDbScale
 70
     0
300
1:100
140
1.0
141
100.0
290
     0
  0
SCALE
  5
54
102
{ACAD_REACTORS
330
47
102
}
330
47
100
AcDbScale
 70
     0
300
2:1
140
2.0
141
1.0
290
     0
  0
SCALE
  5
55
102
{ACAD_REACTORS
330
47
102
}
330
47
100
AcDbScale
 70
     0
300
4:1
140
4.0
141
1.0
290
     0
  0
SCALE
  5
56
102
{ACAD_REACTORS
330
47
102
}
330
47
100
AcDbScale
 70
     0
300
8:1
140
8.0
141
1.0
290
     0
  0
SCALE
  5
57
102
{ACAD_REACTORS
330
47
102
}
330
47
100
AcDbScale
 70
     0
300
10:1
140
10.0
141
1.0
290
     0
  0
SCALE
  5
58
102
{ACAD_REACTORS
330
47
102
}
330
47
100
AcDbScale
 70
     0
300
100:1
140
100.0
141
1.0
290
     0
  0
SCALE
  5
59
102
{ACAD_REACTORS
330
47
102
}
330
47
100
AcDbScale
 70
     0
300
1/128" = 1'-0"
140
0.0078125
141
12.0
290
     0
  0
SCALE
  5
5A
102
{ACAD_REACTORS
330
47
102
}
330
47
100
AcDbScale
 70
     0
300
1/64" = 1'-0"
140
0.015625
141
12.0
290
     0
  0
SCALE
  5
5B
102
{ACAD_REACTORS
330
47
102
}
330
47
100
AcDbScale
 70
     0
300
1/32" = 1'-0"
140
0.03125
141
12.0
290
     0
  0
SCALE
  5
5C
102
{ACAD_REACTORS
330
47
102
}
330
47
100
AcDbScale
 70
     0
300
1/16" = 1'-0"
140
0.0625
141
12.0
290
     0
  0
SCALE
  5
5D
102
{ACAD_REACTORS
330
47
102
}
330
47
100
AcDbScale
 70
     0
300
3/32" = 1'-0"
140
0.09375
141
12.0
290
     0
  0
SCALE
  5
5E
102
{ACAD_REACTORS
330
47
102
}
330
47
100
AcDbScale
 70
     0
300
1/8" = 1'-0"
140
0.125
141
12.0
290
     0
  0
SCALE
  5
5F
102
{ACAD_REACTORS
330
47
102
}
330
47
100
AcDbScale
 70
     0
300
3/16" = 1'-0"
140
0.1875
141
12.0
290
     0
  0
SCALE
  5
60
102
{ACAD_REACTORS
330
47
102
}
330
47
100
AcDbScale
 70
     0
300
1/4" = 1'-0"
140
0.25
141
12.0
290
     0
  0
SCALE
  5
61
102
{ACAD_REACTORS
330
47
102
}
330
47
100
AcDbScale
 70
     0
300
3/8" = 1'-0"
140
0.375
141
12.0
290
     0
  0
SCALE
  5
62
102
{ACAD_REACTORS
330
47
102
}
330
47
100
AcDbScale
 70
     0
300
1/2" = 1'-0"
140
0.5
141
12.0
290
     0
  0
SCALE
  5
63
102
{ACAD_REACTORS
330
47
102
}
330
47
100
AcDbScale
 70
     0
300
3/4" = 1'-0"
140
0.75
141
12.0
290
     0
  0
SCALE
  5
64
102
{ACAD_REACTORS
330
47
102
}
330
47
100
AcDbScale
 70
     0
300
1" = 1'-0"
140
1.0
141
12.0
290
     0
  0
SCALE
  5
65
102
{ACAD_REACTORS
330
47
102
}
330
47
100
AcDbScale
 70
     0
300
1-1/2" = 1'-0"
140
1.5
141
12.0
290
     0
  0
SCALE
  5
66
102
{ACAD_REACTORS
330
47
102
}
330
47
100
AcDbScale
 70
     0
300
3" = 1'-0"
140
3.0
141
12.0
290
     0
  0
SCALE
  5
67
102
{ACAD_REACTORS
330
47
102
}
330
47
100
AcDbScale
 70
     0
300
6" = 1'-0"
140
6.0
141
12.0
290
     0
  0
SCALE
  5
68
102
{ACAD_REACTORS
330
47
102
}
330
47
100
AcDbScale
 70
     0
300
1'-0" = 1'-0"
140
12.0
141
12.0
290
     0
  0
TABLESTYLE
  5
6A
102
{ACAD_REACTORS
330
69
102
}
102
{ACAD_XDICTIONARY
360
32F
102
}
330
69
100
AcDbTableStyle
  3
Standard
 70
     0
 71
     0
 40
0.06
 41
0.06
280
     0
281
     0
  7
Standard
140
4.5
170
     2
 62
     0
 63
   257
283
     0
274
    -2
284
     1
 64
     0
275
    -2
285
     1
 65
     0
276
    -2
286
     1
 66
     0
277
    -2
287
     1
 67
     0
278
    -2
288
     1
 68
     0
279
    -2
289
     1
 69
     0
  7
Standard
140
6.0
170
     5
 62
     0
 63
   257
283
     0
274
    -2
284
     1
 64
     0
275
    -2
285
     1
 65
     0
276
    -2
286
     1
 66
     0
277
    -2
287
     1
 67
     0
278
    -2
288
     1
 68
     0
279
    -2
289
     1
 69
     0
  7
Standard
140
4.5
170
     5
 62
     0
 63
   257
283
     0
274
    -2
284
     1
 64
     0
275
    -2
285
     1
 65
     0
276
    -2
286
     1
 66
     0
277
    -2
287
     1
 67
     0
278
    -2
288
     1
 68
     0
279
    -2
289
     1
 69
     0
  0
VISUALSTYLE
  5
2F
102
{ACAD_REACTORS
330
2A
102
}
102
{ACAD_XDICTIONARY
360
301
102
}
330
2A
100
AcDbVisualStyle
  2
2dWireframe
 70
     4
 71
     0
 72
     2
 73
     0
 90
        0
 40
0.6
 41
30.0
 62
     5
 63
     7
421
 16777215
 74
     1
 91
        4
 64
     7
 65
   257
 75
     1
175
     1
 42
1.0
 92
        0
 66
   257
 43
1.0
 76
     1
 77
     6
 78
     2
 67
     7
 79
     5
170
     0
171
     0
290
     0
174
     0
 93
        1
 44
0.0
173
     0
291
     0
 45
0.0
1001
ACAD
1000
AcDbSavedByObjectVersion
1070
     0
  0
VISUALSTYLE
  5
32
102
{ACAD_REACTORS
330
2A
102
}
102
{ACAD_XDICTIONARY
360
307
102
}
330
2A
100
AcDbVisualStyle
  2
Basic
 70
     7
 71
     1
 72
     0
 73
     1
 90
        0
 40
0.6
 41
30.0
 62
     5
 63
     7
421
 16777215
 74
     0
 91
        4
 64
     7
 65
   257
 75
     1
175
     1
 42
1.0
 92
        8
 66
     7
 43
1.0
 76
     1
 77
     6
 78
     2
 67
     7
 79
     5
170
     0
171
     0
290
     0
174
     0
 93
        1
 44
0.0
173
     0
291
     1
 45
0.0
1001
ACAD
1000
AcDbSavedByObjectVersion
1070
     0
  0
VISUALSTYLE
  5
36
102
{ACAD_REACTORS
330
2A
102
}
102
{ACAD_XDICTIONARY
360
30F
102
}
330
2A
100
AcDbVisualStyle
  2
Brighten
 70
    12
 71
     2
 72
     2
 73
     0
 90
        0
 40
0.6
 41
30.0
 62
     5
 63
     7
421
 16777215
 74
     1
 91
        4
 64
     7
 65
   257
 75
     1
175
     1
 42
1.0
 92
        8
 66
     7
 43
1.0
 76
     1
 77
     6
 78
     2
 67
     7
 79
     5
170
     0
171
     0
290
     0
174
     0
 93
        1
 44
50.0
173
     0
291
     1
 45
0.0
1001
ACAD
1000
AcDbSavedByObjectVersion
1070
     0
  0
VISUALSTYLE
  5
3A
102
{ACAD_REACTORS
330
2A
102
}
102
{ACAD_XDICTIONARY
360
317
102
}
330
2A
100
AcDbVisualStyle
  2
ColorChange
 70
    16
 71
     2
 72
     2
 73
     3
 90
        0
 40
0.6
 41
30.0
 62
     5
 63
     8
421
  8421504
 74
     1
 91
        4
 64
     7
 65
   257
 75
     1
175
     1
 42
1.0
 92
        8
 66
     8
424
  8421504
 43
1.0
 76
     1
 77
     6
 78
     2
 67
     7
 79
     5
170
     0
171
     0
290
     0
174
     0
 93
        1
 44
0.0
173
     0
291
     1
 45
0.0
1001
ACAD
1000
AcDbSavedByObjectVersion
1070
     0
  0
VISUALSTYLE
  5
34
102
{ACAD_REACTORS
330
2A
102
}
102
{ACAD_XDICTIONARY
360
30B
102
}
330
2A
100
AcDbVisualStyle
  2
Conceptual
 70
     9
 71
     3
 72
     2
 73
     0
 90
        0
 40
0.6
 41
30.0
 62
     5
 63
     7
421
 16777215
 74
     2
 91
        2
 64
     7
 65
   257
 75
     1
175
     1
 42
179.0
 92
        8
 66
     7
 43
1.0
 76
     1
 77
     6
 78
     2
 67
     7
 79
     3
170
     0
171
     0
290
     0
174
     0
 93
        1
 44
0.0
173
     0
291
     0
 45
0.0
1001
ACAD
1000
AcDbSavedByObjectVersion
1070
     0
  0
VISUALSTYLE
  5
35
102
{ACAD_REACTORS
330
2A
102
}
102
{ACAD_XDICTIONARY
360
30D
102
}
330
2A
100
AcDbVisualStyle
  2
Dim
 70
    11
 71
     2
 72
     2
 73
     0
 90
        0
 40
0.6
 41
30.0
 62
     5
 63
     7
421
 16777215
 74
     1
 91
        4
 64
     7
 65
   257
 75
     1
175
     1
 42
1.0
 92
        8
 66
     7
 43
1.0
 76
     1
 77
     6
 78
     2
 67
     7
 79
     5
170
     0
171
     0
290
     0
174
     0
 93
        1
 44
-50.0
173
     0
291
     1
 45
0.0
1001
ACAD
1000
AcDbSavedByObjectVersion
1070
     0
  0
VISUALSTYLE
  5
3D
102
{ACAD_REACTORS
330
2A
102
}
102
{ACAD_XDICTIONARY
360
31D
102
}
330
2A
100
AcDbVisualStyle
  2
EdgeColorOff
 70
    22
 71
     2
 72
     2
 73
     0
 90
        0
 40
0.6
 41
30.0
 62
     5
 63
     7
421
 16777215
 74
     1
 91
        4
 64
     7
 65
   257
 75
     1
175
     1
 42
1.0
 92
        8
 66
     7
 43
1.0
 76
     1
 77
     6
 78
     2
 67
     7
 79
     5
170
     0
171
     0
290
     0
174
     0
 93
        1
 44
0.0
173
     0
291
     1
 45
0.0
1001
ACAD
1000
AcDbSavedByObjectVersion
1070
     0
  0
VISUALSTYLE
  5
39
102
{ACAD_REACTORS
330
2A
102
}
102
{ACAD_XDICTIONARY
360
315
102
}
330
2A
100
AcDbVisualStyle
  2
Facepattern
 70
    15
 71
     2
 72
     2
 73
     0
 90
        0
 40
0.6
 41
30.0
 62
     5
 63
     7
421
 16777215
 74
     1
 91
        4
 64
     7
 65
   257
 75
     1
175
     1
 42
1.0
 92
        8
 66
     7
 43
1.0
 76
     1
 77
     6
 78
     2
 67
     7
 79
     5
170
     0
171
     0
290
     0
174
     0
 93
        1
 44
0.0
173
     0
291
     1
 45
0.0
1001
ACAD
1000
AcDbSavedByObjectVersion
1070
     0
  0
VISUALSTYLE
  5
2B
102
{ACAD_REACTORS
330
2A
102
}
102
{ACAD_XDICTIONARY
360
2F9
102
}
330
2A
100
AcDbVisualStyle
  2
Flat
 70
     0
 71
     2
 72
     1
 73
     1
 90
        2
 40
0.6
 41
30.0
 62
     5
 63
     7
421
 16777215
 74
     0
 91
        0
 64
     7
 65
   257
 75
     1
175
     1
 42
1.0
 92
        8
 66
     7
 43
1.0
 76
     1
 77
     6
 78
     2
 67
     7
 79
     5
170
     0
171
     0
290
     0
174
     0
 93
       13
 44
0.0
173
     0
291
     1
 45
0.0
1001
ACAD
1000
AcDbSavedByObjectVersion
1070
     0
  0
VISUALSTYLE
  5
2C
102
{ACAD_REACTORS
330
2A
102
}
102
{ACAD_XDICTIONARY
360
2FB
102
}
330
2A
100
AcDbVisualStyle
  2
FlatWithEdges
 70
     1
 71
     2
 72
     1
 73
     1
 90
        2
 40
0.6
 41
30.0
 62
     5
 63
     7
421
 16777215
 74
     1
 91
        0
 64
     7
 65
   257
 75
     1
175
     1
 42
1.0
 92
        0
 66
   257
 43
1.0
 76
     1
 77
     6
 78
     2
 67
     7
 79
     5
170
     0
171
     0
290
     0
174
     0
 93
       13
 44
0.0
173
     0
291
     1
 45
0.0
1001
ACAD
1000
AcDbSavedByObjectVersion
1070
     0
  0
VISUALSTYLE
  5
2D
102
{ACAD_REACTORS
330
2A
102
}
102
{ACAD_XDICTIONARY
360
2FD
102
}
330
2A
100
AcDbVisualStyle
  2
Gouraud
 70
     2
 71
     2
 72
     2
 73
     1
 90
        2
 40
0.6
 41
30.0
 62
     5
 63
     7
421
 16777215
 74
     0
 91
        0
 64
     7
 65
   257
 75
     1
175
     1
 42
1.0
 92
        0
 66
     7
 43
1.0
 76
     1
 77
     6
 78
     2
 67
     7
 79
     5
170
     0
171
     0
290
     0
174
     0
 93
       13
 44
0.0
173
     0
291
     1
 45
0.0
1001
ACAD
1000
AcDbSavedByObjectVersion
1070
     0
  0
VISUALSTYLE
  5
2E
102
{ACAD_REACTORS
330
2A
102
}
102
{ACAD_XDICTIONARY
360
2FF
102
}
330
2A
100
AcDbVisualStyle
  2
GouraudWithEdges
 70
     3
 71
     2
 72
     2
 73
     1
 90
        2
 40
0.6
 41
30.0
 62
     5
 63
     7
421
 16777215
 74
     1
 91
        0
 64
     7
 65
   257
 75
     1
175
     1
 42
1.0
 92
        0
 66
   257
 43
1.0
 76
     1
 77
     6
 78
     2
 67
     7
 79
     5
170
     0
171
     0
290
     0
174
     0
 93
       13
 44
0.0
173
     0
291
     1
 45
0.0
1001
ACAD
1000
AcDbSavedByObjectVersion
1070
     0
  0
VISUALSTYLE
  5
31
102
{ACAD_REACTORS
330
2A
102
}
102
{ACAD_XDICTIONARY
360
305
102
}
330
2A
100
AcDbVisualStyle
  2
Hidden
 70
     6
 71
     1
 72
     2
 73
     2
 90
        0
 40
0.6
 41
30.0
 62
     5
 63
     7
421
 16777215
 74
     2
 91
        2
 64
     7
 65
   257
 75
     2
175
     1
 42
40.0
 92
        0
 66
   257
 43
1.0
 76
     1
 77
     6
 78
     2
 67
     7
 79
     3
170
     0
171
     0
290
     0
174
     0
 93
        1
 44
0.0
173
     0
291
     0
 45
0.0
1001
ACAD
1000
AcDbSavedByObjectVersion
1070
     0
  0
VISUALSTYLE
  5
3B
102
{ACAD_REACTORS
330
2A
102
}
102
{ACAD_XDICTIONARY
360
319
102
}
330
2A
100
AcDbVisualStyle
  2
JitterOff
 70
    20
 71
     2
 72
     2
 73
     0
 90
        0
 40
0.6
 41
30.0
 62
     5
 63
     7
421
 16777215
 74
     1
 91
        4
 64
     7
 65
   257
 75
     1
175
     1
 42
1.0
 92
       10
 66
     7
 43
1.0
 76
     1
 77
     6
 78
     2
 67
     7
 79
     5
170
     0
171
     0
290
     0
174
     0
 93
        1
 44
0.0
173
     0
291
     1
 45
0.0
1001
ACAD
1000
AcDbSavedByObjectVersion
1070
     0
  0
VISUALSTYLE
  5
38
102
{ACAD_REACTORS
330
2A
102
}
102
{ACAD_XDICTIONARY
360
313
102
}
330
2A
100
AcDbVisualStyle
  2
Linepattern
 70
    14
 71
     2
 72
     2
 73
     0
 90
        0
 40
0.6
 41
30.0
 62
     5
 63
     7
421
 16777215
 74
     1
 91
        4
 64
     7
 65
   257
 75
     7
175
     7
 42
1.0
 92
        8
 66
     7
 43
1.0
 76
     1
 77
     6
 78
     2
 67
     7
 79
     5
170
     0
171
     0
290
     0
174
     0
 93
        1
 44
0.0
173
     0
291
     1
 45
0.0
1001
ACAD
1000
AcDbSavedByObjectVersion
1070
     0
  0
VISUALSTYLE
  5
3C
102
{ACAD_REACTORS
330
2A
102
}
102
{ACAD_XDICTIONARY
360
31B
102
}
330
2A
100
AcDbVisualStyle
  2
OverhangOff
 70
    21
 71
     2
 72
     2
 73
     0
 90
        0
 40
0.6
 41
30.0
 62
     5
 63
     7
421
 16777215
 74
     1
 91
        4
 64
     7
 65
   257
 75
     1
175
     1
 42
1.0
 92
        9
 66
     7
 43
1.0
 76
     1
 77
     6
 78
     2
 67
     7
 79
     5
170
     0
171
     0
290
     0
174
     0
 93
        1
 44
0.0
173
     0
291
     1
 45
0.0
1001
ACAD
1000
AcDbSavedByObjectVersion
1070
     0
  0
VISUALSTYLE
  5
33
102
{ACAD_REACTORS
330
2A
102
}
102
{ACAD_XDICTIONARY
360
309
102
}
330
2A
100
AcDbVisualStyle
  2
Realistic
 70
     8
 71
     2
 72
     3
 73
     0
 90
        2
 40
0.6
 41
30.0
 62
     5
 63
     7
421
 16777215
 74
     0
 91
        0
 64
     7
 65
   257
 75
     1
175
     1
 42
1.0
 92
        8
 66
   257
 43
1.0
 76
     1
 77
     6
 78
     2
 67
     7
 79
     3
170
     0
171
     0
290
     0
174
     0
 93
       13
 44
0.0
173
     0
291
     0
 45
0.0
1001
ACAD
1000
AcDbSavedByObjectVersion
1070
     0
  0
VISUALSTYLE
  5
42
102
{ACAD_REACTORS
330
2A
102
}
102
{ACAD_XDICTIONARY
360
327
102
}
330
2A
100
AcDbVisualStyle
  2
Shaded
 70
    27
 71
     2
 72
     2
 73
     1
 90
        2
 40
0.6
 41
30.0
 62
     5
 63
     7
421
 16777215
 74
     0
 91
        4
 64
     7
 65
   257
 75
     1
175
     1
 42
1.0
 92
        8
 66
   257
 43
1.0
 76
     1
 77
     6
 78
     2
 67
     8
425
  7895160
 79
     3
170
     0
171
     0
290
     0
174
     0
 93
        5
 44
0.0
173
     0
291
     0
 45
0.0
1001
ACAD
1000
AcDbSavedByObjectVersion
1070
     0
  0
VISUALSTYLE
  5
41
102
{ACAD_REACTORS
330
2A
102
}
102
{ACAD_XDICTIONARY
360
325
102
}
330
2A
100
AcDbVisualStyle
  2
Shaded with edges
 70
    26
 71
     2
 72
     2
 73
     1
 90
        2
 40
0.6
 41
30.0
 62
     5
 63
     7
421
 16777215
 74
     1
 91
       10
 64
     7
 65
   257
 75
     2
175
     1
 42
1.0
 92
        8
 66
   257
 43
1.0
 76
     1
 77
     6
 78
     2
 67
     7
 79
     3
170
     0
171
     0
290
     0
174
     0
 93
        5
 44
0.0
173
     0
291
     0
 45
0.0
1001
ACAD
1000
AcDbSavedByObjectVersion
1070
     0
  0
VISUALSTYLE
  5
3E
102
{ACAD_REACTORS
330
2A
102
}
102
{ACAD_XDICTIONARY
360
31F
102
}
330
2A
100
AcDbVisualStyle
  2
Shades of Gray
 70
    23
 71
     2
 72
     2
 73
     3
 90
        0
 40
0.6
 41
30.0
 62
     5
 63
     7
421
 16777215
 74
     2
 91
        2
 64
     7
 65
     7
 75
     1
175
     1
 42
40.0
 92
        8
 66
     7
 43
1.0
 76
     1
 77
     6
 78
     2
 67
     7
 79
     3
170
     0
171
     0
290
     0
174
     0
 93
        1
 44
0.0
173
     0
291
     0
 45
0.0
1001
ACAD
1000
AcDbSavedByObjectVersion
1070
     0
  0
VISUALSTYLE
  5
3F
102
{ACAD_REACTORS
330
2A
102
}
102
{ACAD_XDICTIONARY
360
321
102
}
330
2A
100
AcDbVisualStyle
  2
Sketchy
 70
    24
 71
     1
 72
     2
 73
     2
 90
        0
 40
0.6
 41
30.0
 62
     5
 63
     7
421
 16777215
 74
     2
 91
        2
 64
     7
 65
     7
 75
     1
175
     1
 42
40.0
 92
       11
 66
     7
 43
1.0
 76
     1
 77
     6
 78
     2
 67
     7
 79
     6
170
     0
171
     0
290
     0
174
     0
 93
        1
 44
0.0
173
     0
291
     0
 45
0.0
1001
ACAD
1000
AcDbSavedByObjectVersion
1070
     0
  0
VISUALSTYLE
  5
37
102
{ACAD_REACTORS
330
2A
102
}
102
{ACAD_XDICTIONARY
360
311
102
}
330
2A
100
AcDbVisualStyle
  2
Thicken
 70
    13
 71
     2
 72
     2
 73
     0
 90
        0
 40
0.6
 41
30.0
 62
     5
 63
     7
421
 16777215
 74
     1
 91
        4
 64
     7
 65
   257
 75
     1
175
     1
 42
1.0
 92
       12
 66
     7
 43
1.0
 76
     1
 77
     6
 78
     2
 67
     7
 79
     5
170
     0
171
     0
290
     0
174
     0
 93
        1
 44
0.0
173
     0
291
     1
 45
0.0
1001
ACAD
1000
AcDbSavedByObjectVersion
1070
     0
  0
VISUALSTYLE
  5
30
102
{ACAD_REACTORS
330
2A
102
}
102
{ACAD_XDICTIONARY
360
303
102
}
330
2A
100
AcDbVisualStyle
  2
Wireframe
 70
     5
 71
     0
 72
     2
 73
     0
 90
        0
 40
0.6
 41
30.0
 62
     5
 63
     7
421
 16777215
 74
     1
 91
        4
 64
     7
 65
   257
 75
     1
175
     1
 42
1.0
 92
        0
 66
   257
 43
1.0
 76
     1
 77
     6
 78
     2
 67
     7
 79
     3
170
     0
171
     0
290
     0
174
     0
 93
        1
 44
0.0
173
     0
291
     0
 45
0.0
1001
ACAD
1000
AcDbSavedByObjectVersion
1070
     0
  0
VISUALSTYLE
  5
40
102
{ACAD_REACTORS
330
2A
102
}
102
{ACAD_XDICTIONARY
360
323
102
}
330
2A
100
AcDbVisualStyle
  2
X-Ray
 70
    25
 71
     2
 72
     2
 73
     1
 90
        1
 40
0.5
 41
30.0
 62
     5
 63
     7
421
 16777215
 74
     1
 91
        0
 64
     7
 65
   257
 75
     1
175
     1
 42
1.0
 92
        8
 66
     7
 43
1.0
 76
     1
 77
     6
 78
     2
 67
     7
 79
     3
170
     0
171
     0
290
     0
174
     0
 93
       13
 44
0.0
173
     0
291
     0
 45
0.0
1001
ACAD
1000
AcDbSavedByObjectVersion
1070
     0
  0
DICTIONARYVAR
  5
2F6
102
{ACAD_REACTORS
330
2F5
102
}
330
2F5
100
DictionaryVariables
280
     0
  1
1:1
  0
DICTIONARYVAR
  5
33A
102
{ACAD_REACTORS
330
2F5
102
}
330
2F5
100
DictionaryVariables
280
     0
  1
3.500000
  0
DICTIONARYVAR
  5
33B
102
{ACAD_REACTORS
330
2F5
102
}
330
2F5
100
DictionaryVariables
280
     0
  1
acadiso.lin
  0
DICTIONARYVAR
  5
337
102
{ACAD_REACTORS
330
2F5
102
}
330
2F5
100
DictionaryVariables
280
     0
  1
Standard
  0
DICTIONARYVAR
  5
336
102
{ACAD_REACTORS
330
2F5
102
}
330
2F5
100
DictionaryVariables
280
     0
  1
Standard
  0
DICTIONARYVAR
  5
2F7
102
{ACAD_REACTORS
330
2F5
102
}
330
2F5
100
DictionaryVariables
280
     0
  1
1
  0
DICTIONARYVAR
  5
2F8
102
{ACAD_REACTORS
330
2F5
102
}
330
2F5
100
DictionaryVariables
280
     0
  1
2
  0
DICTIONARY
  5
32B
330
45
100
AcDbDictionary
280
     1
281
     1
  3
ACAD_XREC_ROUNDTRIP
360
32C
  0
DICTIONARY
  5
329
330
44
100
AcDbDictionary
280
     1
281
     1
  3
ACAD_XREC_ROUNDTRIP
360
32A
  0
DICTIONARY
  5
32D
330
46
100
AcDbDictionary
280
     1
281
     1
  3
ACAD_XREC_ROUNDTRIP
360
32E
  0
DICTIONARY
  5
333
330
6C
100
AcDbDictionary
280
     1
281
     1
  3
ACAD_XREC_ROUNDTRIP
360
334
  0
DICTIONARY
  5
32F
330
6A
100
AcDbDictionary
280
     1
281
     1
  3
ACAD_ROUNDTRIP_2008_TABLESTYLE_CELLSTYLEMAP
360
331
  3
ACAD_XREC_ROUNDTRIP
360
330
  0
DICTIONARY
  5
301
330
2F
100
AcDbDictionary
280
     1
281
     1
  3
ACAD_XREC_ROUNDTRIP
360
302
  0
DICTIONARY
  5
307
330
32
100
AcDbDictionary
280
     1
281
     1
  3
ACAD_XREC_ROUNDTRIP
360
308
  0
DICTIONARY
  5
30F
330
36
100
AcDbDictionary
280
     1
281
     1
  3
ACAD_XREC_ROUNDTRIP
360
310
  0
DICTIONARY
  5
317
330
3A
100
AcDbDictionary
280
     1
281
     1
  3
ACAD_XREC_ROUNDTRIP
360
318
  0
DICTIONARY
  5
30B
330
34
100
AcDbDictionary
280
     1
281
     1
  3
ACAD_XREC_ROUNDTRIP
360
30C
  0
DICTIONARY
  5
30D
330
35
100
AcDbDictionary
280
     1
281
     1
  3
ACAD_XREC_ROUNDTRIP
360
30E
  0
DICTIONARY
  5
31D
330
3D
100
AcDbDictionary
280
     1
281
     1
  3
ACAD_XREC_ROUNDTRIP
360
31E
  0
DICTIONARY
  5
315
330
39
100
AcDbDictionary
280
     1
281
     1
  3
ACAD_XREC_ROUNDTRIP
360
316
  0
DICTIONARY
  5
2F9
330
2B
100
AcDbDictionary
280
     1
281
     1
  3
ACAD_XREC_ROUNDTRIP
360
2FA
  0
DICTIONARY
  5
2FB
330
2C
100
AcDbDictionary
280
     1
281
     1
  3
ACAD_XREC_ROUNDTRIP
360
2FC
  0
DICTIONARY
  5
2FD
330
2D
100
AcDbDictionary
280
     1
281
     1
  3
ACAD_XREC_ROUNDTRIP
360
2FE
  0
DICTIONARY
  5
2FF
330
2E
100
AcDbDictionary
280
     1
281
     1
  3
ACAD_XREC_ROUNDTRIP
360
300
  0
DICTIONARY
  5
305
330
31
100
AcDbDictionary
280
     1
281
     1
  3
ACAD_XREC_ROUNDTRIP
360
306
  0
DICTIONARY
  5
319
330
3B
100
AcDbDictionary
280
     1
281
     1
  3
ACAD_XREC_ROUNDTRIP
360
31A
  0
DICTIONARY
  5
313
330
38
100
AcDbDictionary
280
     1
281
     1
  3
ACAD_XREC_ROUNDTRIP
360
314
  0
DICTIONARY
  5
31B
330
3C
100
AcDbDictionary
280
     1
281
     1
  3
ACAD_XREC_ROUNDTRIP
360
31C
  0
DICTIONARY
  5
309
330
33
100
AcDbDictionary
280
     1
281
     1
  3
ACAD_XREC_ROUNDTRIP
360
30A
  0
DICTIONARY
  5
327
330
42
100
AcDbDictionary
280
     1
281
     1
  3
ACAD_XREC_ROUNDTRIP
360
328
  0
DICTIONARY
  5
325
330
41
100
AcDbDictionary
280
     1
281
     1
  3
ACAD_XREC_ROUNDTRIP
360
326
  0
DICTIONARY
  5
31F
330
3E
100
AcDbDictionary
280
     1
281
     1
  3
ACAD_XREC_ROUNDTRIP
360
320
  0
DICTIONARY
  5
321
330
3F
100
AcDbDictionary
280
     1
281
     1
  3
ACAD_XREC_ROUNDTRIP
360
322
  0
DICTIONARY
  5
311
330
37
100
AcDbDictionary
280
     1
281
     1
  3
ACAD_XREC_ROUNDTRIP
360
312
  0
DICTIONARY
  5
303
330
30
100
AcDbDictionary
280
     1
281
     1
  3
ACAD_XREC_ROUNDTRIP
360
304
  0
DICTIONARY
  5
323
330
40
100
AcDbDictionary
280
     1
281
     1
  3
ACAD_XREC_ROUNDTRIP
360
324
  0
XRECORD
  5
32C
102
{ACAD_REACTORS
330
32B
102
}
330
32B
100
AcDbXrecord
280
     1
102
MATERIAL
148
0.0
149
0.0
149
0.0
 93
        0
 94
      127
282
     0
 72
     1
 77
     1
171
     1
175
     1
179
     1
273
     0
  0
XRECORD
  5
32A
102
{ACAD_REACTORS
330
329
102
}
330
329
100
AcDbXrecord
280
     1
102
MATERIAL
148
0.0
149
0.0
149
0.0
 93
        0
 94
      127
282
     0
 72
     1
 77
     1
171
     1
175
     1
179
     1
273
     0
  0
XRECORD
  5
32E
102
{ACAD_REACTORS
330
32D
102
}
330
32D
100
AcDbXrecord
280
     1
102
MATERIAL
148
0.0
149
0.0
149
0.0
 93
        0
 94
      127
282
     0
 72
     1
 77
     1
171
     1
175
     1
179
     1
273
     0
  0
XRECORD
  5
334
102
{ACAD_REACTORS
330
333
102
}
330
333
100
AcDbXrecord
280
     1
102
ACAD_ROUNDTRIP_2010_MLEADER_STYLE
  0
CELLSTYLEMAP
  5
331
102
{ACAD_REACTORS
330
32F
102
}
330
32F
100
AcDbCellStyleMap
 90
        3
300
CELLSTYLE
  1
TABLEFORMAT_BEGIN
 90
        5
170
     1
 91
        0
 92
    32768
 62
   257
 93
        1
300
CONTENTFORMAT
  1
CONTENTFORMAT_BEGIN
 90
        0
 91
        0
 92
        4
 93
        0
300

 40
0.0
140
1.0
 94
        5
 62
     0
340
11
144
6.0
309
CONTENTFORMAT_END
171
     1
301
MARGIN
  1
CELLMARGIN_BEGIN
 40
1.5
 40
1.5
 40
1.5
 40
1.5
 40
1.5
 40
1.5
309
CELLMARGIN_END
 94
        6
 95
        1
302
GRIDFORMAT
  1
GRIDFORMAT_BEGIN
 90
        0
 91
        1
 62
     0
 92
       -2
340
14
 93
        0
 40
0.045
309
GRIDFORMAT_END
 95
        2
302
GRIDFORMAT
  1
GRIDFORMAT_BEGIN
 90
        0
 91
        1
 62
     0
 92
       -2
340
14
 93
        0
 40
0.045
309
GRIDFORMAT_END
 95
        4
302
GRIDFORMAT
  1
GRIDFORMAT_BEGIN
 90
        0
 91
        1
 62
     0
 92
       -2
340
14
 93
        0
 40
0.045
309
GRIDFORMAT_END
 95
        8
302
GRIDFORMAT
  1
GRIDFORMAT_BEGIN
 90
        0
 91
        1
 62
     0
 92
       -2
340
14
 93
        0
 40
0.045
309
GRIDFORMAT_END
 95
       16
302
GRIDFORMAT
  1
GRIDFORMAT_BEGIN
 90
        0
 91
        1
 62
     0
 92
       -2
340
14
 93
        0
 40
0.045
309
GRIDFORMAT_END
 95
       32
302
GRIDFORMAT
  1
GRIDFORMAT_BEGIN
 90
        0
 91
        1
 62
     0
 92
       -2
340
14
 93
        0
 40
0.045
309
GRIDFORMAT_END
309
TABLEFORMAT_END
  1
CELLSTYLE_BEGIN
 90
        1
 91
        1
300
_TITLE
309
CELLSTYLE_END
300
CELLSTYLE
  1
TABLEFORMAT_BEGIN
 90
        5
170
     1
 91
        0
 92
        0
 62
   257
 93
        1
300
CONTENTFORMAT
  1
CONTENTFORMAT_BEGIN
 90
        0
 91
        0
 92
        4
 93
        0
300

 40
0.0
140
1.0
 94
        5
 62
     0
340
11
144
4.5
309
CONTENTFORMAT_END
171
     1
301
MARGIN
  1
CELLMARGIN_BEGIN
 40
1.5
 40
1.5
 40
1.5
 40
1.5
 40
1.5
 40
1.5
309
CELLMARGIN_END
 94
        6
 95
        1
302
GRIDFORMAT
  1
GRIDFORMAT_BEGIN
 90
        0
 91
        1
 62
     0
 92
       -2
340
14
 93
        0
 40
0.045
309
GRIDFORMAT_END
 95
        2
302
GRIDFORMAT
  1
GRIDFORMAT_BEGIN
 90
        0
 91
        1
 62
     0
 92
       -2
340
14
 93
        0
 40
0.045
309
GRIDFORMAT_END
 95
        4
302
GRIDFORMAT
  1
GRIDFORMAT_BEGIN
 90
        0
 91
        1
 62
     0
 92
       -2
340
14
 93
        0
 40
0.045
309
GRIDFORMAT_END
 95
        8
302
GRIDFORMAT
  1
GRIDFORMAT_BEGIN
 90
        0
 91
        1
 62
     0
 92
       -2
340
14
 93
        0
 40
0.045
309
GRIDFORMAT_END
 95
       16
302
GRIDFORMAT
  1
GRIDFORMAT_BEGIN
 90
        0
 91
        1
 62
     0
 92
       -2
340
14
 93
        0
 40
0.045
309
GRIDFORMAT_END
 95
       32
302
GRIDFORMAT
  1
GRIDFORMAT_BEGIN
 90
        0
 91
        1
 62
     0
 92
       -2
340
14
 93
        0
 40
0.045
309
GRIDFORMAT_END
309
TABLEFORMAT_END
  1
CELLSTYLE_BEGIN
 90
        2
 91
        1
300
_HEADER
309
CELLSTYLE_END
300
CELLSTYLE
  1
TABLEFORMAT_BEGIN
 90
        5
170
     1
 91
        0
 92
        0
 62
   257
 93
        1
300
CONTENTFORMAT
  1
CONTENTFORMAT_BEGIN
 90
        0
 91
        0
 92
        4
 93
        0
300

 40
0.0
140
1.0
 94
        2
 62
     0
340
11
144
4.5
309
CONTENTFORMAT_END
171
     1
301
MARGIN
  1
CELLMARGIN_BEGIN
 40
1.5
 40
1.5
 40
1.5
 40
1.5
 40
1.5
 40
1.5
309
CELLMARGIN_END
 94
        6
 95
        1
302
GRIDFORMAT
  1
GRIDFORMAT_BEGIN
 90
        0
 91
        1
 62
     0
 92
       -2
340
14
 93
        0
 40
0.045
309
GRIDFORMAT_END
 95
        2
302
GRIDFORMAT
  1
GRIDFORMAT_BEGIN
 90
        0
 91
        1
 62
     0
 92
       -2
340
14
 93
        0
 40
0.045
309
GRIDFORMAT_END
 95
        4
302
GRIDFORMAT
  1
GRIDFORMAT_BEGIN
 90
        0
 91
        1
 62
     0
 92
       -2
340
14
 93
        0
 40
0.045
309
GRIDFORMAT_END
 95
        8
302
GRIDFORMAT
  1
GRIDFORMAT_BEGIN
 90
        0
 91
        1
 62
     0
 92
       -2
340
14
 93
        0
 40
0.045
309
GRIDFORMAT_END
 95
       16
302
GRIDFORMAT
  1
GRIDFORMAT_BEGIN
 90
        0
 91
        1
 62
     0
 92
       -2
340
14
 93
        0
 40
0.045
309
GRIDFORMAT_END
 95
       32
302
GRIDFORMAT
  1
GRIDFORMAT_BEGIN
 90
        0
 91
        1
 62
     0
 92
       -2
340
14
 93
        0
 40
0.045
309
GRIDFORMAT_END
309
TABLEFORMAT_END
  1
CELLSTYLE_BEGIN
 90
        3
 91
        2
300
_DATA
309
CELLSTYLE_END
  0
XRECORD
  5
330
102
{ACAD_REACTORS
330
32F
102
}
330
32F
100
AcDbXrecord
280
     1
102
ACAD_ROUNDTRIP_PRE2007_TABLESTYLE
 90
        4
 91
        0
  1

 92
        4
 93
        0
  2

 94
        4
 95
        0
  3

  0
XRECORD
  5
302
102
{ACAD_REACTORS
330
301
102
}
330
301
100
AcDbXrecord
280
     1
102
RTVSPropertyOp0
 70
     1
102
RTVSPropertyOp1
 70
     1
102
RTVSPropertyOp2
 70
     1
102
RTVSPropertyOp3
 70
     1
102
RTVSPropertyOp4
 70
     1
102
RTVSPropertyOp5
 70
     1
102
RTVSPropertyOp6
 70
     1
102
RTVSPropertyOp7
 70
     1
102
RTVSPropertyOp8
 70
     1
102
RTVSPropertyOp9
 70
     1
102
RTVSPropertyOp10
 70
     1
102
RTVSPropertyOp11
 70
     1
102
RTVSPropertyOp12
 70
     1
102
RTVSPropertyOp13
 70
     1
102
RTVSPropertyOp14
 70
     1
102
RTVSPropertyOp15
 70
     1
102
RTVSPropertyOp16
 70
     1
102
RTVSPropertyOp17
 70
     1
102
RTVSPropertyOp18
 70
     1
102
RTVSPropertyOp19
 70
     1
102
RTVSPropertyOp20
 70
     1
102
RTVSPropertyOp21
 70
     1
102
RTVSPropertyOp22
 70
     1
102
RTVSPropertyOp23
 70
     1
102
RTVSPropertyOp24
 70
     1
102
RTVSPropertyOp25
 70
     1
102
RTVSPropertyOp26
 70
     1
102
RTVSPropertyOp27
 70
     1
102
RTVSPropertyOp28
 70
     1
102
RTVSPropertyOp29
 70
     1
102
RTVSPropertyOp30
 70
     1
102
RTVSPropertyOp31
 70
     1
102
RTVSPropertyOp32
 70
     1
102
RTVSPropertyOp33
 70
     1
102
RTVSPropertyOp34
 70
     1
102
RTVSPropertyOp35
 70
     1
102
RTVSPropertyOp36
 70
     1
102
RTVSPropertyOp37
 70
     1
102
RTVSPropertyOp38
 70
     1
102
RTVSPropertyOp39
 70
     1
102
RTVSPropertyOp40
 70
     1
102
RTVSPropertyOp41
 70
     1
102
RTVSPropertyOp42
 70
     1
102
RTVSPropertyOp43
 70
     1
102
RTVSPropertyOp44
 70
     1
102
RTVSPropertyOp45
 70
     1
102
RTVSPropertyOp46
 70
     1
102
RTVSPropertyOp47
 70
     1
102
RTVSPropertyOp48
 70
     1
102
RTVSPropertyOp49
 70
     1
102
RTVSPropertyOp50
 70
     1
102
RTVSPropertyOp51
 70
     0
102
RTVSPropertyOp52
 70
     0
102
RTVSPropertyOp53
 70
     1
102
RTVSPropertyOp54
 70
     1
102
RTVSPropertyOp55
 70
     1
102
RTVSPropertyOp56
 70
     1
102
RTVSPropertyOp57
 70
     1
102
RTVSPost2010Prop28
280
     1
102
RTVSPost2010PropOp28
 70
     1
102
RTVSPost2010Prop29
280
     1
102
RTVSPost2010PropOp29
 70
     1
102
RTVSPost2010Prop30
280
     0
102
RTVSPost2010PropOp30
 70
     1
102
RTVSPost2010Prop31
280
     0
102
RTVSPost2010PropOp31
 70
     1
102
RTVSPost2010Prop32
280
     0
102
RTVSPost2010PropOp32
 70
     1
102
RTVSPost2010Prop33
280
     0
102
RTVSPost2010PropOp33
 70
     1
102
RTVSPost2010Prop34
280
     0
102
RTVSPost2010PropOp34
 70
     1
102
RTVSPost2010Prop35
280
     0
102
RTVSPost2010PropOp35
 70
     1
102
RTVSPost2010Prop36
280
     0
102
RTVSPost2010PropOp36
 70
     1
102
RTVSPost2010Prop37
 90
       50
102
RTVSPost2010PropOp37
 70
     1
102
RTVSPost2010Prop38
140
0.0
102
RTVSPost2010PropOp38
 70
     1
102
RTVSPost2010Prop39
140
1.0
102
RTVSPost2010PropOp39
 70
     1
102
RTVSPost2010Prop40
 90
        0
102
RTVSPost2010PropOp40
 70
     1
102
RTVSPost2010Prop41ColorIndex
 90
       18
102
RTVSPost2010Prop41ColorRGB
 90
        0
102
RTVSPost2010PropOp41
 70
     1
102
RTVSPost2010Prop42
 90
       50
102
RTVSPost2010PropOp42
 70
     1
102
RTVSPost2010Prop43
 90
        3
102
RTVSPost2010PropOp43
 70
     1
102
RTVSPost2010Prop44ColorIndex
 90
        5
102
RTVSPost2010Prop44ColorRGB
 90
      255
102
RTVSPost2010PropOp44
 70
     1
102
RTVSPost2010Prop45
280
     0
102
RTVSPost2010PropOp45
 70
     1
102
RTVSPost2010Prop46
 90
       50
102
RTVSPost2010PropOp46
 70
     1
102
RTVSPost2010Prop47
 90
       50
102
RTVSPost2010PropOp47
 70
     1
102
RTVSPost2010Prop48
 90
       50
102
RTVSPost2010PropOp48
 70
     1
102
RTVSPost2010Prop49
280
     0
102
RTVSPost2010PropOp49
 70
     1
102
RTVSPost2010Prop50
 90
       50
102
RTVSPost2010PropOp50
 70
     1
102
RTVSPost2010Prop51ColorIndex
 90
      256
102
RTVSPost2010Prop51ColorRGB
 90
-16777216
102
RTVSPost2010PropOp51
 70
     0
102
RTVSPost2010Prop52
140
1.0
102
RTVSPost2010PropOp52
 70
     0
102
RTVSPost2010Prop53
 90
        2
102
RTVSPost2010PropOp53
 70
     1
102
RTVSPost2010Prop54
  1
strokes_ogs.tif
102
RTVSPost2010PropOp54
 70
     1
102
RTVSPost2010Prop55
280
     0
102
RTVSPost2010PropOp55
 70
     1
102
RTVSPost2010Prop56
140
1.0
102
RTVSPost2010PropOp56
 70
     1
102
RTVSPost2010Prop57
140
1.0
102
RTVSPost2010PropOp57
 70
     1
  0
XRECORD
  5
308
102
{ACAD_REACTORS
330
307
102
}
330
307
100
AcDbXrecord
280
     1
102
RTVSPropertyOp0
 70
     1
102
RTVSPropertyOp1
 70
     1
102
RTVSPropertyOp2
 70
     1
102
RTVSPropertyOp3
 70
     1
102
RTVSPropertyOp4
 70
     1
102
RTVSPropertyOp5
 70
     1
102
RTVSPropertyOp6
 70
     1
102
RTVSPropertyOp7
 70
     1
102
RTVSPropertyOp8
 70
     1
102
RTVSPropertyOp9
 70
     1
102
RTVSPropertyOp10
 70
     1
102
RTVSPropertyOp11
 70
     1
102
RTVSPropertyOp12
 70
     1
102
RTVSPropertyOp13
 70
     1
102
RTVSPropertyOp14
 70
     1
102
RTVSPropertyOp15
 70
     1
102
RTVSPropertyOp16
 70
     1
102
RTVSPropertyOp17
 70
     1
102
RTVSPropertyOp18
 70
     1
102
RTVSPropertyOp19
 70
     1
102
RTVSPropertyOp20
 70
     1
102
RTVSPropertyOp21
 70
     1
102
RTVSPropertyOp22
 70
     1
102
RTVSPropertyOp23
 70
     1
102
RTVSPropertyOp24
 70
     1
102
RTVSPropertyOp25
 70
     1
102
RTVSPropertyOp26
 70
     1
102
RTVSPropertyOp27
 70
     1
102
RTVSPropertyOp28
 70
     1
102
RTVSPropertyOp29
 70
     1
102
RTVSPropertyOp30
 70
     1
102
RTVSPropertyOp31
 70
     1
102
RTVSPropertyOp32
 70
     1
102
RTVSPropertyOp33
 70
     1
102
RTVSPropertyOp34
 70
     1
102
RTVSPropertyOp35
 70
     1
102
RTVSPropertyOp36
 70
     1
102
RTVSPropertyOp37
 70
     1
102
RTVSPropertyOp38
 70
     1
102
RTVSPropertyOp39
 70
     1
102
RTVSPropertyOp40
 70
     1
102
RTVSPropertyOp41
 70
     1
102
RTVSPropertyOp42
 70
     1
102
RTVSPropertyOp43
 70
     1
102
RTVSPropertyOp44
 70
     1
102
RTVSPropertyOp45
 70
     1
102
RTVSPropertyOp46
 70
     1
102
RTVSPropertyOp47
 70
     1
102
RTVSPropertyOp48
 70
     1
102
RTVSPropertyOp49
 70
     1
102
RTVSPropertyOp50
 70
     1
102
RTVSPropertyOp51
 70
     0
102
RTVSPropertyOp52
 70
     0
102
RTVSPropertyOp53
 70
     1
102
RTVSPropertyOp54
 70
     1
102
RTVSPropertyOp55
 70
     1
102
RTVSPropertyOp56
 70
     1
102
RTVSPropertyOp57
 70
     1
102
RTVSPost2010Prop28
280
     0
102
RTVSPost2010PropOp28
 70
     1
102
RTVSPost2010Prop29
280
     1
102
RTVSPost2010PropOp29
 70
     1
102
RTVSPost2010Prop30
280
     1
102
RTVSPost2010PropOp30
 70
     1
102
RTVSPost2010Prop31
280
     0
102
RTVSPost2010PropOp31
 70
     1
102
RTVSPost2010Prop32
280
     0
102
RTVSPost2010PropOp32
 70
     1
102
RTVSPost2010Prop33
280
     0
102
RTVSPost2010PropOp33
 70
     1
102
RTVSPost2010Prop34
280
     0
102
RTVSPost2010PropOp34
 70
     1
102
RTVSPost2010Prop35
280
     0
102
RTVSPost2010PropOp35
 70
     1
102
RTVSPost2010Prop36
280
     0
102
RTVSPost2010PropOp36
 70
     1
102
RTVSPost2010Prop37
 90
       50
102
RTVSPost2010PropOp37
 70
     1
102
RTVSPost2010Prop38
140
0.0
102
RTVSPost2010PropOp38
 70
     1
102
RTVSPost2010Prop39
140
1.0
102
RTVSPost2010PropOp39
 70
     1
102
RTVSPost2010Prop40
 90
        0
102
RTVSPost2010PropOp40
 70
     1
102
RTVSPost2010Prop41ColorIndex
 90
       18
102
RTVSPost2010Prop41ColorRGB
 90
        0
102
RTVSPost2010PropOp41
 70
     1
102
RTVSPost2010Prop42
 90
       50
102
RTVSPost2010PropOp42
 70
     1
102
RTVSPost2010Prop43
 90
        3
102
RTVSPost2010PropOp43
 70
     1
102
RTVSPost2010Prop44ColorIndex
 90
        5
102
RTVSPost2010Prop44ColorRGB
 90
      255
102
RTVSPost2010PropOp44
 70
     1
102
RTVSPost2010Prop45
280
     0
102
RTVSPost2010PropOp45
 70
     1
102
RTVSPost2010Prop46
 90
       50
102
RTVSPost2010PropOp46
 70
     1
102
RTVSPost2010Prop47
 90
       50
102
RTVSPost2010PropOp47
 70
     1
102
RTVSPost2010Prop48
 90
       50
102
RTVSPost2010PropOp48
 70
     1
102
RTVSPost2010Prop49
280
     0
102
RTVSPost2010PropOp49
 70
     1
102
RTVSPost2010Prop50
 90
       50
102
RTVSPost2010PropOp50
 70
     1
102
RTVSPost2010Prop51ColorIndex
 90
      256
102
RTVSPost2010Prop51ColorRGB
 90
-16777216
102
RTVSPost2010PropOp51
 70
     0
102
RTVSPost2010Prop52
140
1.0
102
RTVSPost2010PropOp52
 70
     0
102
RTVSPost2010Prop53
 90
        2
102
RTVSPost2010PropOp53
 70
     1
102
RTVSPost2010Prop54
  1
strokes_ogs.tif
102
RTVSPost2010PropOp54
 70
     1
102
RTVSPost2010Prop55
280
     0
102
RTVSPost2010PropOp55
 70
     1
102
RTVSPost2010Prop56
140
1.0
102
RTVSPost2010PropOp56
 70
     1
102
RTVSPost2010Prop57
140
1.0
102
RTVSPost2010PropOp57
 70
     1
  0
XRECORD
  5
310
102
{ACAD_REACTORS
330
30F
102
}
330
30F
100
AcDbXrecord
280
     1
102
RTVSPropertyOp0
 70
     1
102
RTVSPropertyOp1
 70
     1
102
RTVSPropertyOp2
 70
     1
102
RTVSPropertyOp3
 70
     1
102
RTVSPropertyOp4
 70
     1
102
RTVSPropertyOp5
 70
     1
102
RTVSPropertyOp6
 70
     1
102
RTVSPropertyOp7
 70
     1
102
RTVSPropertyOp8
 70
     1
102
RTVSPropertyOp9
 70
     1
102
RTVSPropertyOp10
 70
     1
102
RTVSPropertyOp11
 70
     1
102
RTVSPropertyOp12
 70
     1
102
RTVSPropertyOp13
 70
     1
102
RTVSPropertyOp14
 70
     1
102
RTVSPropertyOp15
 70
     1
102
RTVSPropertyOp16
 70
     1
102
RTVSPropertyOp17
 70
     1
102
RTVSPropertyOp18
 70
     1
102
RTVSPropertyOp19
 70
     1
102
RTVSPropertyOp20
 70
     1
102
RTVSPropertyOp21
 70
     1
102
RTVSPropertyOp22
 70
     1
102
RTVSPropertyOp23
 70
     1
102
RTVSPropertyOp24
 70
     1
102
RTVSPropertyOp25
 70
     1
102
RTVSPropertyOp26
 70
     1
102
RTVSPropertyOp27
 70
     1
102
RTVSPropertyOp28
 70
     1
102
RTVSPropertyOp29
 70
     1
102
RTVSPropertyOp30
 70
     1
102
RTVSPropertyOp31
 70
     1
102
RTVSPropertyOp32
 70
     1
102
RTVSPropertyOp33
 70
     1
102
RTVSPropertyOp34
 70
     1
102
RTVSPropertyOp35
 70
     1
102
RTVSPropertyOp36
 70
     1
102
RTVSPropertyOp37
 70
     1
102
RTVSPropertyOp38
 70
     1
102
RTVSPropertyOp39
 70
     1
102
RTVSPropertyOp40
 70
     1
102
RTVSPropertyOp41
 70
     1
102
RTVSPropertyOp42
 70
     1
102
RTVSPropertyOp43
 70
     1
102
RTVSPropertyOp44
 70
     1
102
RTVSPropertyOp45
 70
     1
102
RTVSPropertyOp46
 70
     1
102
RTVSPropertyOp47
 70
     1
102
RTVSPropertyOp48
 70
     1
102
RTVSPropertyOp49
 70
     1
102
RTVSPropertyOp50
 70
     1
102
RTVSPropertyOp51
 70
     0
102
RTVSPropertyOp52
 70
     0
102
RTVSPropertyOp53
 70
     1
102
RTVSPropertyOp54
 70
     1
102
RTVSPropertyOp55
 70
     1
102
RTVSPropertyOp56
 70
     1
102
RTVSPropertyOp57
 70
     1
102
RTVSPost2010Prop28
280
     0
102
RTVSPost2010PropOp28
 70
     1
102
RTVSPost2010Prop29
280
     1
102
RTVSPost2010PropOp29
 70
     1
102
RTVSPost2010Prop30
280
     1
102
RTVSPost2010PropOp30
 70
     1
102
RTVSPost2010Prop31
280
     0
102
RTVSPost2010PropOp31
 70
     1
102
RTVSPost2010Prop32
280
     0
102
RTVSPost2010PropOp32
 70
     1
102
RTVSPost2010Prop33
280
     0
102
RTVSPost2010PropOp33
 70
     1
102
RTVSPost2010Prop34
280
     0
102
RTVSPost2010PropOp34
 70
     1
102
RTVSPost2010Prop35
280
     0
102
RTVSPost2010PropOp35
 70
     1
102
RTVSPost2010Prop36
280
     0
102
RTVSPost2010PropOp36
 70
     1
102
RTVSPost2010Prop37
 90
       50
102
RTVSPost2010PropOp37
 70
     1
102
RTVSPost2010Prop38
140
0.0
102
RTVSPost2010PropOp38
 70
     1
102
RTVSPost2010Prop39
140
1.0
102
RTVSPost2010PropOp39
 70
     1
102
RTVSPost2010Prop40
 90
        0
102
RTVSPost2010PropOp40
 70
     1
102
RTVSPost2010Prop41ColorIndex
 90
       18
102
RTVSPost2010Prop41ColorRGB
 90
        0
102
RTVSPost2010PropOp41
 70
     1
102
RTVSPost2010Prop42
 90
       50
102
RTVSPost2010PropOp42
 70
     1
102
RTVSPost2010Prop43
 90
        3
102
RTVSPost2010PropOp43
 70
     1
102
RTVSPost2010Prop44ColorIndex
 90
        5
102
RTVSPost2010Prop44ColorRGB
 90
      255
102
RTVSPost2010PropOp44
 70
     1
102
RTVSPost2010Prop45
280
     0
102
RTVSPost2010PropOp45
 70
     1
102
RTVSPost2010Prop46
 90
       50
102
RTVSPost2010PropOp46
 70
     1
102
RTVSPost2010Prop47
 90
       50
102
RTVSPost2010PropOp47
 70
     1
102
RTVSPost2010Prop48
 90
       50
102
RTVSPost2010PropOp48
 70
     1
102
RTVSPost2010Prop49
280
     0
102
RTVSPost2010PropOp49
 70
     1
102
RTVSPost2010Prop50
 90
       50
102
RTVSPost2010PropOp50
 70
     1
102
RTVSPost2010Prop51ColorIndex
 90
      256
102
RTVSPost2010Prop51ColorRGB
 90
-16777216
102
RTVSPost2010PropOp51
 70
     0
102
RTVSPost2010Prop52
140
1.0
102
RTVSPost2010PropOp52
 70
     0
102
RTVSPost2010Prop53
 90
        2
102
RTVSPost2010PropOp53
 70
     1
102
RTVSPost2010Prop54
  1
strokes_ogs.tif
102
RTVSPost2010PropOp54
 70
     1
102
RTVSPost2010Prop55
280
     0
102
RTVSPost2010PropOp55
 70
     1
102
RTVSPost2010Prop56
140
1.0
102
RTVSPost2010PropOp56
 70
     1
102
RTVSPost2010Prop57
140
1.0
102
RTVSPost2010PropOp57
 70
     1
  0
XRECORD
  5
318
102
{ACAD_REACTORS
330
317
102
}
330
317
100
AcDbXrecord
280
     1
102
RTVSPropertyOp0
 70
     1
102
RTVSPropertyOp1
 70
     1
102
RTVSPropertyOp2
 70
     1
102
RTVSPropertyOp3
 70
     1
102
RTVSPropertyOp4
 70
     1
102
RTVSPropertyOp5
 70
     1
102
RTVSPropertyOp6
 70
     1
102
RTVSPropertyOp7
 70
     1
102
RTVSPropertyOp8
 70
     1
102
RTVSPropertyOp9
 70
     1
102
RTVSPropertyOp10
 70
     1
102
RTVSPropertyOp11
 70
     1
102
RTVSPropertyOp12
 70
     1
102
RTVSPropertyOp13
 70
     1
102
RTVSPropertyOp14
 70
     1
102
RTVSPropertyOp15
 70
     1
102
RTVSPropertyOp16
 70
     1
102
RTVSPropertyOp17
 70
     1
102
RTVSPropertyOp18
 70
     1
102
RTVSPropertyOp19
 70
     1
102
RTVSPropertyOp20
 70
     1
102
RTVSPropertyOp21
 70
     1
102
RTVSPropertyOp22
 70
     1
102
RTVSPropertyOp23
 70
     1
102
RTVSPropertyOp24
 70
     1
102
RTVSPropertyOp25
 70
     1
102
RTVSPropertyOp26
 70
     1
102
RTVSPropertyOp27
 70
     1
102
RTVSPropertyOp28
 70
     1
102
RTVSPropertyOp29
 70
     1
102
RTVSPropertyOp30
 70
     1
102
RTVSPropertyOp31
 70
     1
102
RTVSPropertyOp32
 70
     1
102
RTVSPropertyOp33
 70
     1
102
RTVSPropertyOp34
 70
     1
102
RTVSPropertyOp35
 70
     1
102
RTVSPropertyOp36
 70
     1
102
RTVSPropertyOp37
 70
     1
102
RTVSPropertyOp38
 70
     1
102
RTVSPropertyOp39
 70
     1
102
RTVSPropertyOp40
 70
     1
102
RTVSPropertyOp41
 70
     1
102
RTVSPropertyOp42
 70
     1
102
RTVSPropertyOp43
 70
     1
102
RTVSPropertyOp44
 70
     1
102
RTVSPropertyOp45
 70
     1
102
RTVSPropertyOp46
 70
     1
102
RTVSPropertyOp47
 70
     1
102
RTVSPropertyOp48
 70
     1
102
RTVSPropertyOp49
 70
     1
102
RTVSPropertyOp50
 70
     1
102
RTVSPropertyOp51
 70
     0
102
RTVSPropertyOp52
 70
     0
102
RTVSPropertyOp53
 70
     1
102
RTVSPropertyOp54
 70
     1
102
RTVSPropertyOp55
 70
     1
102
RTVSPropertyOp56
 70
     1
102
RTVSPropertyOp57
 70
     1
102
RTVSPost2010Prop28
280
     0
102
RTVSPost2010PropOp28
 70
     1
102
RTVSPost2010Prop29
280
     1
102
RTVSPost2010PropOp29
 70
     1
102
RTVSPost2010Prop30
280
     1
102
RTVSPost2010PropOp30
 70
     1
102
RTVSPost2010Prop31
280
     0
102
RTVSPost2010PropOp31
 70
     1
102
RTVSPost2010Prop32
280
     0
102
RTVSPost2010PropOp32
 70
     1
102
RTVSPost2010Prop33
280
     0
102
RTVSPost2010PropOp33
 70
     1
102
RTVSPost2010Prop34
280
     0
102
RTVSPost2010PropOp34
 70
     1
102
RTVSPost2010Prop35
280
     0
102
RTVSPost2010PropOp35
 70
     1
102
RTVSPost2010Prop36
280
     0
102
RTVSPost2010PropOp36
 70
     1
102
RTVSPost2010Prop37
 90
       50
102
RTVSPost2010PropOp37
 70
     1
102
RTVSPost2010Prop38
140
0.0
102
RTVSPost2010PropOp38
 70
     1
102
RTVSPost2010Prop39
140
1.0
102
RTVSPost2010PropOp39
 70
     1
102
RTVSPost2010Prop40
 90
        0
102
RTVSPost2010PropOp40
 70
     1
102
RTVSPost2010Prop41ColorIndex
 90
       18
102
RTVSPost2010Prop41ColorRGB
 90
        0
102
RTVSPost2010PropOp41
 70
     1
102
RTVSPost2010Prop42
 90
       50
102
RTVSPost2010PropOp42
 70
     1
102
RTVSPost2010Prop43
 90
        3
102
RTVSPost2010PropOp43
 70
     1
102
RTVSPost2010Prop44ColorIndex
 90
        5
102
RTVSPost2010Prop44ColorRGB
 90
      255
102
RTVSPost2010PropOp44
 70
     1
102
RTVSPost2010Prop45
280
     0
102
RTVSPost2010PropOp45
 70
     1
102
RTVSPost2010Prop46
 90
       50
102
RTVSPost2010PropOp46
 70
     1
102
RTVSPost2010Prop47
 90
       50
102
RTVSPost2010PropOp47
 70
     1
102
RTVSPost2010Prop48
 90
       50
102
RTVSPost2010PropOp48
 70
     1
102
RTVSPost2010Prop49
280
     0
102
RTVSPost2010PropOp49
 70
     1
102
RTVSPost2010Prop50
 90
       50
102
RTVSPost2010PropOp50
 70
     1
102
RTVSPost2010Prop51ColorIndex
 90
      256
102
RTVSPost2010Prop51ColorRGB
 90
-16777216
102
RTVSPost2010PropOp51
 70
     0
102
RTVSPost2010Prop52
140
1.0
102
RTVSPost2010PropOp52
 70
     0
102
RTVSPost2010Prop53
 90
        2
102
RTVSPost2010PropOp53
 70
     1
102
RTVSPost2010Prop54
  1
strokes_ogs.tif
102
RTVSPost2010PropOp54
 70
     1
102
RTVSPost2010Prop55
280
     0
102
RTVSPost2010PropOp55
 70
     1
102
RTVSPost2010Prop56
140
1.0
102
RTVSPost2010PropOp56
 70
     1
102
RTVSPost2010Prop57
140
1.0
102
RTVSPost2010PropOp57
 70
     1
  0
XRECORD
  5
30C
102
{ACAD_REACTORS
330
30B
102
}
330
30B
100
AcDbXrecord
280
     1
102
RTVSPropertyOp0
 70
     1
102
RTVSPropertyOp1
 70
     1
102
RTVSPropertyOp2
 70
     1
102
RTVSPropertyOp3
 70
     1
102
RTVSPropertyOp4
 70
     1
102
RTVSPropertyOp5
 70
     1
102
RTVSPropertyOp6
 70
     1
102
RTVSPropertyOp7
 70
     1
102
RTVSPropertyOp8
 70
     1
102
RTVSPropertyOp9
 70
     1
102
RTVSPropertyOp10
 70
     1
102
RTVSPropertyOp11
 70
     1
102
RTVSPropertyOp12
 70
     1
102
RTVSPropertyOp13
 70
     1
102
RTVSPropertyOp14
 70
     1
102
RTVSPropertyOp15
 70
     1
102
RTVSPropertyOp16
 70
     1
102
RTVSPropertyOp17
 70
     1
102
RTVSPropertyOp18
 70
     1
102
RTVSPropertyOp19
 70
     1
102
RTVSPropertyOp20
 70
     1
102
RTVSPropertyOp21
 70
     1
102
RTVSPropertyOp22
 70
     1
102
RTVSPropertyOp23
 70
     1
102
RTVSPropertyOp24
 70
     1
102
RTVSPropertyOp25
 70
     1
102
RTVSPropertyOp26
 70
     1
102
RTVSPropertyOp27
 70
     1
102
RTVSPropertyOp28
 70
     1
102
RTVSPropertyOp29
 70
     1
102
RTVSPropertyOp30
 70
     1
102
RTVSPropertyOp31
 70
     1
102
RTVSPropertyOp32
 70
     1
102
RTVSPropertyOp33
 70
     1
102
RTVSPropertyOp34
 70
     1
102
RTVSPropertyOp35
 70
     1
102
RTVSPropertyOp36
 70
     1
102
RTVSPropertyOp37
 70
     1
102
RTVSPropertyOp38
 70
     1
102
RTVSPropertyOp39
 70
     1
102
RTVSPropertyOp40
 70
     1
102
RTVSPropertyOp41
 70
     1
102
RTVSPropertyOp42
 70
     1
102
RTVSPropertyOp43
 70
     1
102
RTVSPropertyOp44
 70
     1
102
RTVSPropertyOp45
 70
     1
102
RTVSPropertyOp46
 70
     1
102
RTVSPropertyOp47
 70
     1
102
RTVSPropertyOp48
 70
     1
102
RTVSPropertyOp49
 70
     1
102
RTVSPropertyOp50
 70
     1
102
RTVSPropertyOp51
 70
     0
102
RTVSPropertyOp52
 70
     0
102
RTVSPropertyOp53
 70
     1
102
RTVSPropertyOp54
 70
     1
102
RTVSPropertyOp55
 70
     1
102
RTVSPropertyOp56
 70
     1
102
RTVSPropertyOp57
 70
     1
102
RTVSPost2010Prop28
280
     0
102
RTVSPost2010PropOp28
 70
     1
102
RTVSPost2010Prop29
280
     1
102
RTVSPost2010PropOp29
 70
     1
102
RTVSPost2010Prop30
280
     1
102
RTVSPost2010PropOp30
 70
     1
102
RTVSPost2010Prop31
280
     0
102
RTVSPost2010PropOp31
 70
     1
102
RTVSPost2010Prop32
280
     0
102
RTVSPost2010PropOp32
 70
     1
102
RTVSPost2010Prop33
280
     0
102
RTVSPost2010PropOp33
 70
     1
102
RTVSPost2010Prop34
280
     0
102
RTVSPost2010PropOp34
 70
     1
102
RTVSPost2010Prop35
280
     0
102
RTVSPost2010PropOp35
 70
     1
102
RTVSPost2010Prop36
280
     0
102
RTVSPost2010PropOp36
 70
     1
102
RTVSPost2010Prop37
 90
       50
102
RTVSPost2010PropOp37
 70
     1
102
RTVSPost2010Prop38
140
0.0
102
RTVSPost2010PropOp38
 70
     1
102
RTVSPost2010Prop39
140
1.0
102
RTVSPost2010PropOp39
 70
     1
102
RTVSPost2010Prop40
 90
        0
102
RTVSPost2010PropOp40
 70
     1
102
RTVSPost2010Prop41ColorIndex
 90
       18
102
RTVSPost2010Prop41ColorRGB
 90
        0
102
RTVSPost2010PropOp41
 70
     1
102
RTVSPost2010Prop42
 90
       50
102
RTVSPost2010PropOp42
 70
     1
102
RTVSPost2010Prop43
 90
        3
102
RTVSPost2010PropOp43
 70
     1
102
RTVSPost2010Prop44ColorIndex
 90
        5
102
RTVSPost2010Prop44ColorRGB
 90
      255
102
RTVSPost2010PropOp44
 70
     1
102
RTVSPost2010Prop45
280
     0
102
RTVSPost2010PropOp45
 70
     1
102
RTVSPost2010Prop46
 90
       50
102
RTVSPost2010PropOp46
 70
     1
102
RTVSPost2010Prop47
 90
       50
102
RTVSPost2010PropOp47
 70
     1
102
RTVSPost2010Prop48
 90
       50
102
RTVSPost2010PropOp48
 70
     1
102
RTVSPost2010Prop49
280
     0
102
RTVSPost2010PropOp49
 70
     1
102
RTVSPost2010Prop50
 90
       50
102
RTVSPost2010PropOp50
 70
     1
102
RTVSPost2010Prop51ColorIndex
 90
      256
102
RTVSPost2010Prop51ColorRGB
 90
-16777216
102
RTVSPost2010PropOp51
 70
     0
102
RTVSPost2010Prop52
140
1.0
102
RTVSPost2010PropOp52
 70
     0
102
RTVSPost2010Prop53
 90
        2
102
RTVSPost2010PropOp53
 70
     1
102
RTVSPost2010Prop54
  1
strokes_ogs.tif
102
RTVSPost2010PropOp54
 70
     1
102
RTVSPost2010Prop55
280
     0
102
RTVSPost2010PropOp55
 70
     1
102
RTVSPost2010Prop56
140
1.0
102
RTVSPost2010PropOp56
 70
     1
102
RTVSPost2010Prop57
140
1.0
102
RTVSPost2010PropOp57
 70
     1
  0
XRECORD
  5
30E
102
{ACAD_REACTORS
330
30D
102
}
330
30D
100
AcDbXrecord
280
     1
102
RTVSPropertyOp0
 70
     1
102
RTVSPropertyOp1
 70
     1
102
RTVSPropertyOp2
 70
     1
102
RTVSPropertyOp3
 70
     1
102
RTVSPropertyOp4
 70
     1
102
RTVSPropertyOp5
 70
     1
102
RTVSPropertyOp6
 70
     1
102
RTVSPropertyOp7
 70
     1
102
RTVSPropertyOp8
 70
     1
102
RTVSPropertyOp9
 70
     1
102
RTVSPropertyOp10
 70
     1
102
RTVSPropertyOp11
 70
     1
102
RTVSPropertyOp12
 70
     1
102
RTVSPropertyOp13
 70
     1
102
RTVSPropertyOp14
 70
     1
102
RTVSPropertyOp15
 70
     1
102
RTVSPropertyOp16
 70
     1
102
RTVSPropertyOp17
 70
     1
102
RTVSPropertyOp18
 70
     1
102
RTVSPropertyOp19
 70
     1
102
RTVSPropertyOp20
 70
     1
102
RTVSPropertyOp21
 70
     1
102
RTVSPropertyOp22
 70
     1
102
RTVSPropertyOp23
 70
     1
102
RTVSPropertyOp24
 70
     1
102
RTVSPropertyOp25
 70
     1
102
RTVSPropertyOp26
 70
     1
102
RTVSPropertyOp27
 70
     1
102
RTVSPropertyOp28
 70
     1
102
RTVSPropertyOp29
 70
     1
102
RTVSPropertyOp30
 70
     1
102
RTVSPropertyOp31
 70
     1
102
RTVSPropertyOp32
 70
     1
102
RTVSPropertyOp33
 70
     1
102
RTVSPropertyOp34
 70
     1
102
RTVSPropertyOp35
 70
     1
102
RTVSPropertyOp36
 70
     1
102
RTVSPropertyOp37
 70
     1
102
RTVSPropertyOp38
 70
     1
102
RTVSPropertyOp39
 70
     1
102
RTVSPropertyOp40
 70
     1
102
RTVSPropertyOp41
 70
     1
102
RTVSPropertyOp42
 70
     1
102
RTVSPropertyOp43
 70
     1
102
RTVSPropertyOp44
 70
     1
102
RTVSPropertyOp45
 70
     1
102
RTVSPropertyOp46
 70
     1
102
RTVSPropertyOp47
 70
     1
102
RTVSPropertyOp48
 70
     1
102
RTVSPropertyOp49
 70
     1
102
RTVSPropertyOp50
 70
     1
102
RTVSPropertyOp51
 70
     0
102
RTVSPropertyOp52
 70
     0
102
RTVSPropertyOp53
 70
     1
102
RTVSPropertyOp54
 70
     1
102
RTVSPropertyOp55
 70
     1
102
RTVSPropertyOp56
 70
     1
102
RTVSPropertyOp57
 70
     1
102
RTVSPost2010Prop28
280
     0
102
RTVSPost2010PropOp28
 70
     1
102
RTVSPost2010Prop29
280
     1
102
RTVSPost2010PropOp29
 70
     1
102
RTVSPost2010Prop30
280
     1
102
RTVSPost2010PropOp30
 70
     1
102
RTVSPost2010Prop31
280
     0
102
RTVSPost2010PropOp31
 70
     1
102
RTVSPost2010Prop32
280
     0
102
RTVSPost2010PropOp32
 70
     1
102
RTVSPost2010Prop33
280
     0
102
RTVSPost2010PropOp33
 70
     1
102
RTVSPost2010Prop34
280
     0
102
RTVSPost2010PropOp34
 70
     1
102
RTVSPost2010Prop35
280
     0
102
RTVSPost2010PropOp35
 70
     1
102
RTVSPost2010Prop36
280
     0
102
RTVSPost2010PropOp36
 70
     1
102
RTVSPost2010Prop37
 90
       50
102
RTVSPost2010PropOp37
 70
     1
102
RTVSPost2010Prop38
140
0.0
102
RTVSPost2010PropOp38
 70
     1
102
RTVSPost2010Prop39
140
1.0
102
RTVSPost2010PropOp39
 70
     1
102
RTVSPost2010Prop40
 90
        0
102
RTVSPost2010PropOp40
 70
     1
102
RTVSPost2010Prop41ColorIndex
 90
       18
102
RTVSPost2010Prop41ColorRGB
 90
        0
102
RTVSPost2010PropOp41
 70
     1
102
RTVSPost2010Prop42
 90
       50
102
RTVSPost2010PropOp42
 70
     1
102
RTVSPost2010Prop43
 90
        3
102
RTVSPost2010PropOp43
 70
     1
102
RTVSPost2010Prop44ColorIndex
 90
        5
102
RTVSPost2010Prop44ColorRGB
 90
      255
102
RTVSPost2010PropOp44
 70
     1
102
RTVSPost2010Prop45
280
     0
102
RTVSPost2010PropOp45
 70
     1
102
RTVSPost2010Prop46
 90
       50
102
RTVSPost2010PropOp46
 70
     1
102
RTVSPost2010Prop47
 90
       50
102
RTVSPost2010PropOp47
 70
     1
102
RTVSPost2010Prop48
 90
       50
102
RTVSPost2010PropOp48
 70
     1
102
RTVSPost2010Prop49
280
     0
102
RTVSPost2010PropOp49
 70
     1
102
RTVSPost2010Prop50
 90
       50
102
RTVSPost2010PropOp50
 70
     1
102
RTVSPost2010Prop51ColorIndex
 90
      256
102
RTVSPost2010Prop51ColorRGB
 90
-16777216
102
RTVSPost2010PropOp51
 70
     0
102
RTVSPost2010Prop52
140
1.0
102
RTVSPost2010PropOp52
 70
     0
102
RTVSPost2010Prop53
 90
        2
102
RTVSPost2010PropOp53
 70
     1
102
RTVSPost2010Prop54
  1
strokes_ogs.tif
102
RTVSPost2010PropOp54
 70
     1
102
RTVSPost2010Prop55
280
     0
102
RTVSPost2010PropOp55
 70
     1
102
RTVSPost2010Prop56
140
1.0
102
RTVSPost2010PropOp56
 70
     1
102
RTVSPost2010Prop57
140
1.0
102
RTVSPost2010PropOp57
 70
     1
  0
XRECORD
  5
31E
102
{ACAD_REACTORS
330
31D
102
}
330
31D
100
AcDbXrecord
280
     1
102
RTVSPropertyOp0
 70
     0
102
RTVSPropertyOp1
 70
     0
102
RTVSPropertyOp2
 70
     0
102
RTVSPropertyOp3
 70
     0
102
RTVSPropertyOp4
 70
     0
102
RTVSPropertyOp5
 70
     0
102
RTVSPropertyOp6
 70
     0
102
RTVSPropertyOp7
 70
     0
102
RTVSPropertyOp8
 70
     0
102
RTVSPropertyOp9
 70
     0
102
RTVSPropertyOp10
 70
     0
102
RTVSPropertyOp11
 70
     0
102
RTVSPropertyOp12
 70
     0
102
RTVSPropertyOp13
 70
     0
102
RTVSPropertyOp14
 70
     2
102
RTVSPropertyOp15
 70
     0
102
RTVSPropertyOp16
 70
     0
102
RTVSPropertyOp17
 70
     0
102
RTVSPropertyOp18
 70
     0
102
RTVSPropertyOp19
 70
     0
102
RTVSPropertyOp20
 70
     0
102
RTVSPropertyOp21
 70
     0
102
RTVSPropertyOp22
 70
     0
102
RTVSPropertyOp23
 70
     0
102
RTVSPropertyOp24
 70
     0
102
RTVSPropertyOp25
 70
     0
102
RTVSPropertyOp26
 70
     0
102
RTVSPropertyOp27
 70
     0
102
RTVSPropertyOp28
 70
     0
102
RTVSPropertyOp29
 70
     0
102
RTVSPropertyOp30
 70
     0
102
RTVSPropertyOp31
 70
     0
102
RTVSPropertyOp32
 70
     0
102
RTVSPropertyOp33
 70
     0
102
RTVSPropertyOp34
 70
     0
102
RTVSPropertyOp35
 70
     0
102
RTVSPropertyOp36
 70
     0
102
RTVSPropertyOp37
 70
     0
102
RTVSPropertyOp38
 70
     0
102
RTVSPropertyOp39
 70
     0
102
RTVSPropertyOp40
 70
     0
102
RTVSPropertyOp41
 70
     0
102
RTVSPropertyOp42
 70
     0
102
RTVSPropertyOp43
 70
     0
102
RTVSPropertyOp44
 70
     0
102
RTVSPropertyOp45
 70
     0
102
RTVSPropertyOp46
 70
     0
102
RTVSPropertyOp47
 70
     0
102
RTVSPropertyOp48
 70
     0
102
RTVSPropertyOp49
 70
     0
102
RTVSPropertyOp50
 70
     0
102
RTVSPropertyOp51
 70
     0
102
RTVSPropertyOp52
 70
     0
102
RTVSPropertyOp53
 70
     0
102
RTVSPropertyOp54
 70
     0
102
RTVSPropertyOp55
 70
     0
102
RTVSPropertyOp56
 70
     0
102
RTVSPropertyOp57
 70
     0
102
RTVSPost2010Prop28
280
     0
102
RTVSPost2010PropOp28
 70
     0
102
RTVSPost2010Prop29
280
     1
102
RTVSPost2010PropOp29
 70
     0
102
RTVSPost2010Prop30
280
     1
102
RTVSPost2010PropOp30
 70
     0
102
RTVSPost2010Prop31
280
     0
102
RTVSPost2010PropOp31
 70
     0
102
RTVSPost2010Prop32
280
     0
102
RTVSPost2010PropOp32
 70
     0
102
RTVSPost2010Prop33
280
     0
102
RTVSPost2010PropOp33
 70
     0
102
RTVSPost2010Prop34
280
     0
102
RTVSPost2010PropOp34
 70
     0
102
RTVSPost2010Prop35
280
     0
102
RTVSPost2010PropOp35
 70
     0
102
RTVSPost2010Prop36
280
     0
102
RTVSPost2010PropOp36
 70
     0
102
RTVSPost2010Prop37
 90
       50
102
RTVSPost2010PropOp37
 70
     0
102
RTVSPost2010Prop38
140
0.0
102
RTVSPost2010PropOp38
 70
     0
102
RTVSPost2010Prop39
140
1.0
102
RTVSPost2010PropOp39
 70
     0
102
RTVSPost2010Prop40
 90
        0
102
RTVSPost2010PropOp40
 70
     0
102
RTVSPost2010Prop41ColorIndex
 90
       18
102
RTVSPost2010Prop41ColorRGB
 90
        0
102
RTVSPost2010PropOp41
 70
     0
102
RTVSPost2010Prop42
 90
       50
102
RTVSPost2010PropOp42
 70
     0
102
RTVSPost2010Prop43
 90
        3
102
RTVSPost2010PropOp43
 70
     0
102
RTVSPost2010Prop44ColorIndex
 90
        5
102
RTVSPost2010Prop44ColorRGB
 90
      255
102
RTVSPost2010PropOp44
 70
     0
102
RTVSPost2010Prop45
280
     0
102
RTVSPost2010PropOp45
 70
     0
102
RTVSPost2010Prop46
 90
       50
102
RTVSPost2010PropOp46
 70
     0
102
RTVSPost2010Prop47
 90
       50
102
RTVSPost2010PropOp47
 70
     0
102
RTVSPost2010Prop48
 90
       50
102
RTVSPost2010PropOp48
 70
     0
102
RTVSPost2010Prop49
280
     0
102
RTVSPost2010PropOp49
 70
     0
102
RTVSPost2010Prop50
 90
       50
102
RTVSPost2010PropOp50
 70
     0
102
RTVSPost2010Prop51ColorIndex
 90
      256
102
RTVSPost2010Prop51ColorRGB
 90
-16777216
102
RTVSPost2010PropOp51
 70
     0
102
RTVSPost2010Prop52
140
1.0
102
RTVSPost2010PropOp52
 70
     0
102
RTVSPost2010Prop53
 90
        2
102
RTVSPost2010PropOp53
 70
     0
102
RTVSPost2010Prop54
  1
strokes_ogs.tif
102
RTVSPost2010PropOp54
 70
     0
102
RTVSPost2010Prop55
280
     0
102
RTVSPost2010PropOp55
 70
     0
102
RTVSPost2010Prop56
140
1.0
102
RTVSPost2010PropOp56
 70
     0
102
RTVSPost2010Prop57
140
1.0
102
RTVSPost2010PropOp57
 70
     0
  0
XRECORD
  5
316
102
{ACAD_REACTORS
330
315
102
}
330
315
100
AcDbXrecord
280
     1
102
RTVSPropertyOp0
 70
     1
102
RTVSPropertyOp1
 70
     1
102
RTVSPropertyOp2
 70
     1
102
RTVSPropertyOp3
 70
     1
102
RTVSPropertyOp4
 70
     1
102
RTVSPropertyOp5
 70
     1
102
RTVSPropertyOp6
 70
     1
102
RTVSPropertyOp7
 70
     1
102
RTVSPropertyOp8
 70
     1
102
RTVSPropertyOp9
 70
     1
102
RTVSPropertyOp10
 70
     1
102
RTVSPropertyOp11
 70
     1
102
RTVSPropertyOp12
 70
     1
102
RTVSPropertyOp13
 70
     1
102
RTVSPropertyOp14
 70
     1
102
RTVSPropertyOp15
 70
     1
102
RTVSPropertyOp16
 70
     1
102
RTVSPropertyOp17
 70
     1
102
RTVSPropertyOp18
 70
     1
102
RTVSPropertyOp19
 70
     1
102
RTVSPropertyOp20
 70
     1
102
RTVSPropertyOp21
 70
     1
102
RTVSPropertyOp22
 70
     1
102
RTVSPropertyOp23
 70
     1
102
RTVSPropertyOp24
 70
     1
102
RTVSPropertyOp25
 70
     1
102
RTVSPropertyOp26
 70
     1
102
RTVSPropertyOp27
 70
     1
102
RTVSPropertyOp28
 70
     1
102
RTVSPropertyOp29
 70
     1
102
RTVSPropertyOp30
 70
     1
102
RTVSPropertyOp31
 70
     1
102
RTVSPropertyOp32
 70
     1
102
RTVSPropertyOp33
 70
     1
102
RTVSPropertyOp34
 70
     1
102
RTVSPropertyOp35
 70
     1
102
RTVSPropertyOp36
 70
     1
102
RTVSPropertyOp37
 70
     1
102
RTVSPropertyOp38
 70
     1
102
RTVSPropertyOp39
 70
     1
102
RTVSPropertyOp40
 70
     1
102
RTVSPropertyOp41
 70
     1
102
RTVSPropertyOp42
 70
     1
102
RTVSPropertyOp43
 70
     1
102
RTVSPropertyOp44
 70
     1
102
RTVSPropertyOp45
 70
     1
102
RTVSPropertyOp46
 70
     1
102
RTVSPropertyOp47
 70
     1
102
RTVSPropertyOp48
 70
     1
102
RTVSPropertyOp49
 70
     1
102
RTVSPropertyOp50
 70
     1
102
RTVSPropertyOp51
 70
     0
102
RTVSPropertyOp52
 70
     0
102
RTVSPropertyOp53
 70
     1
102
RTVSPropertyOp54
 70
     1
102
RTVSPropertyOp55
 70
     1
102
RTVSPropertyOp56
 70
     1
102
RTVSPropertyOp57
 70
     1
102
RTVSPost2010Prop28
280
     0
102
RTVSPost2010PropOp28
 70
     1
102
RTVSPost2010Prop29
280
     1
102
RTVSPost2010PropOp29
 70
     1
102
RTVSPost2010Prop30
280
     1
102
RTVSPost2010PropOp30
 70
     1
102
RTVSPost2010Prop31
280
     0
102
RTVSPost2010PropOp31
 70
     1
102
RTVSPost2010Prop32
280
     0
102
RTVSPost2010PropOp32
 70
     1
102
RTVSPost2010Prop33
280
     0
102
RTVSPost2010PropOp33
 70
     1
102
RTVSPost2010Prop34
280
     0
102
RTVSPost2010PropOp34
 70
     1
102
RTVSPost2010Prop35
280
     0
102
RTVSPost2010PropOp35
 70
     1
102
RTVSPost2010Prop36
280
     0
102
RTVSPost2010PropOp36
 70
     1
102
RTVSPost2010Prop37
 90
       50
102
RTVSPost2010PropOp37
 70
     1
102
RTVSPost2010Prop38
140
0.0
102
RTVSPost2010PropOp38
 70
     1
102
RTVSPost2010Prop39
140
1.0
102
RTVSPost2010PropOp39
 70
     1
102
RTVSPost2010Prop40
 90
        0
102
RTVSPost2010PropOp40
 70
     1
102
RTVSPost2010Prop41ColorIndex
 90
       18
102
RTVSPost2010Prop41ColorRGB
 90
        0
102
RTVSPost2010PropOp41
 70
     1
102
RTVSPost2010Prop42
 90
       50
102
RTVSPost2010PropOp42
 70
     1
102
RTVSPost2010Prop43
 90
        3
102
RTVSPost2010PropOp43
 70
     1
102
RTVSPost2010Prop44ColorIndex
 90
        5
102
RTVSPost2010Prop44ColorRGB
 90
      255
102
RTVSPost2010PropOp44
 70
     1
102
RTVSPost2010Prop45
280
     0
102
RTVSPost2010PropOp45
 70
     1
102
RTVSPost2010Prop46
 90
       50
102
RTVSPost2010PropOp46
 70
     1
102
RTVSPost2010Prop47
 90
       50
102
RTVSPost2010PropOp47
 70
     1
102
RTVSPost2010Prop48
 90
       50
102
RTVSPost2010PropOp48
 70
     1
102
RTVSPost2010Prop49
280
     0
102
RTVSPost2010PropOp49
 70
     1
102
RTVSPost2010Prop50
 90
       50
102
RTVSPost2010PropOp50
 70
     1
102
RTVSPost2010Prop51ColorIndex
 90
      256
102
RTVSPost2010Prop51ColorRGB
 90
-16777216
102
RTVSPost2010PropOp51
 70
     0
102
RTVSPost2010Prop52
140
1.0
102
RTVSPost2010PropOp52
 70
     0
102
RTVSPost2010Prop53
 90
        2
102
RTVSPost2010PropOp53
 70
     1
102
RTVSPost2010Prop54
  1
strokes_ogs.tif
102
RTVSPost2010PropOp54
 70
     1
102
RTVSPost2010Prop55
280
     0
102
RTVSPost2010PropOp55
 70
     1
102
RTVSPost2010Prop56
140
1.0
102
RTVSPost2010PropOp56
 70
     1
102
RTVSPost2010Prop57
140
1.0
102
RTVSPost2010PropOp57
 70
     1
  0
XRECORD
  5
2FA
102
{ACAD_REACTORS
330
2F9
102
}
330
2F9
100
AcDbXrecord
280
     1
102
RTVSPropertyOp0
 70
     1
102
RTVSPropertyOp1
 70
     1
102
RTVSPropertyOp2
 70
     1
102
RTVSPropertyOp3
 70
     1
102
RTVSPropertyOp4
 70
     1
102
RTVSPropertyOp5
 70
     1
102
RTVSPropertyOp6
 70
     1
102
RTVSPropertyOp7
 70
     1
102
RTVSPropertyOp8
 70
     1
102
RTVSPropertyOp9
 70
     1
102
RTVSPropertyOp10
 70
     1
102
RTVSPropertyOp11
 70
     1
102
RTVSPropertyOp12
 70
     1
102
RTVSPropertyOp13
 70
     1
102
RTVSPropertyOp14
 70
     1
102
RTVSPropertyOp15
 70
     1
102
RTVSPropertyOp16
 70
     1
102
RTVSPropertyOp17
 70
     1
102
RTVSPropertyOp18
 70
     1
102
RTVSPropertyOp19
 70
     1
102
RTVSPropertyOp20
 70
     1
102
RTVSPropertyOp21
 70
     1
102
RTVSPropertyOp22
 70
     1
102
RTVSPropertyOp23
 70
     1
102
RTVSPropertyOp24
 70
     1
102
RTVSPropertyOp25
 70
     1
102
RTVSPropertyOp26
 70
     1
102
RTVSPropertyOp27
 70
     1
102
RTVSPropertyOp28
 70
     1
102
RTVSPropertyOp29
 70
     1
102
RTVSPropertyOp30
 70
     1
102
RTVSPropertyOp31
 70
     1
102
RTVSPropertyOp32
 70
     1
102
RTVSPropertyOp33
 70
     1
102
RTVSPropertyOp34
 70
     1
102
RTVSPropertyOp35
 70
     1
102
RTVSPropertyOp36
 70
     1
102
RTVSPropertyOp37
 70
     1
102
RTVSPropertyOp38
 70
     1
102
RTVSPropertyOp39
 70
     1
102
RTVSPropertyOp40
 70
     1
102
RTVSPropertyOp41
 70
     1
102
RTVSPropertyOp42
 70
     1
102
RTVSPropertyOp43
 70
     1
102
RTVSPropertyOp44
 70
     1
102
RTVSPropertyOp45
 70
     1
102
RTVSPropertyOp46
 70
     1
102
RTVSPropertyOp47
 70
     1
102
RTVSPropertyOp48
 70
     1
102
RTVSPropertyOp49
 70
     1
102
RTVSPropertyOp50
 70
     1
102
RTVSPropertyOp51
 70
     0
102
RTVSPropertyOp52
 70
     0
102
RTVSPropertyOp53
 70
     1
102
RTVSPropertyOp54
 70
     1
102
RTVSPropertyOp55
 70
     1
102
RTVSPropertyOp56
 70
     1
102
RTVSPropertyOp57
 70
     1
102
RTVSPost2010Prop28
280
     0
102
RTVSPost2010PropOp28
 70
     1
102
RTVSPost2010Prop29
280
     1
102
RTVSPost2010PropOp29
 70
     1
102
RTVSPost2010Prop30
280
     1
102
RTVSPost2010PropOp30
 70
     1
102
RTVSPost2010Prop31
280
     0
102
RTVSPost2010PropOp31
 70
     1
102
RTVSPost2010Prop32
280
     0
102
RTVSPost2010PropOp32
 70
     1
102
RTVSPost2010Prop33
280
     0
102
RTVSPost2010PropOp33
 70
     1
102
RTVSPost2010Prop34
280
     0
102
RTVSPost2010PropOp34
 70
     1
102
RTVSPost2010Prop35
280
     0
102
RTVSPost2010PropOp35
 70
     1
102
RTVSPost2010Prop36
280
     0
102
RTVSPost2010PropOp36
 70
     1
102
RTVSPost2010Prop37
 90
       50
102
RTVSPost2010PropOp37
 70
     1
102
RTVSPost2010Prop38
140
0.0
102
RTVSPost2010PropOp38
 70
     1
102
RTVSPost2010Prop39
140
1.0
102
RTVSPost2010PropOp39
 70
     1
102
RTVSPost2010Prop40
 90
        0
102
RTVSPost2010PropOp40
 70
     1
102
RTVSPost2010Prop41ColorIndex
 90
       18
102
RTVSPost2010Prop41ColorRGB
 90
        0
102
RTVSPost2010PropOp41
 70
     1
102
RTVSPost2010Prop42
 90
       50
102
RTVSPost2010PropOp42
 70
     1
102
RTVSPost2010Prop43
 90
        3
102
RTVSPost2010PropOp43
 70
     1
102
RTVSPost2010Prop44ColorIndex
 90
        5
102
RTVSPost2010Prop44ColorRGB
 90
      255
102
RTVSPost2010PropOp44
 70
     1
102
RTVSPost2010Prop45
280
     0
102
RTVSPost2010PropOp45
 70
     1
102
RTVSPost2010Prop46
 90
       50
102
RTVSPost2010PropOp46
 70
     1
102
RTVSPost2010Prop47
 90
       50
102
RTVSPost2010PropOp47
 70
     1
102
RTVSPost2010Prop48
 90
       50
102
RTVSPost2010PropOp48
 70
     1
102
RTVSPost2010Prop49
280
     0
102
RTVSPost2010PropOp49
 70
     1
102
RTVSPost2010Prop50
 90
       50
102
RTVSPost2010PropOp50
 70
     1
102
RTVSPost2010Prop51ColorIndex
 90
      256
102
RTVSPost2010Prop51ColorRGB
 90
-16777216
102
RTVSPost2010PropOp51
 70
     0
102
RTVSPost2010Prop52
140
1.0
102
RTVSPost2010PropOp52
 70
     0
102
RTVSPost2010Prop53
 90
        2
102
RTVSPost2010PropOp53
 70
     1
102
RTVSPost2010Prop54
  1
strokes_ogs.tif
102
RTVSPost2010PropOp54
 70
     1
102
RTVSPost2010Prop55
280
     0
102
RTVSPost2010PropOp55
 70
     1
102
RTVSPost2010Prop56
140
1.0
102
RTVSPost2010PropOp56
 70
     1
102
RTVSPost2010Prop57
140
1.0
102
RTVSPost2010PropOp57
 70
     1
  0
XRECORD
  5
2FC
102
{ACAD_REACTORS
330
2FB
102
}
330
2FB
100
AcDbXrecord
280
     1
102
RTVSPropertyOp0
 70
     1
102
RTVSPropertyOp1
 70
     1
102
RTVSPropertyOp2
 70
     1
102
RTVSPropertyOp3
 70
     1
102
RTVSPropertyOp4
 70
     1
102
RTVSPropertyOp5
 70
     1
102
RTVSPropertyOp6
 70
     1
102
RTVSPropertyOp7
 70
     1
102
RTVSPropertyOp8
 70
     1
102
RTVSPropertyOp9
 70
     1
102
RTVSPropertyOp10
 70
     1
102
RTVSPropertyOp11
 70
     1
102
RTVSPropertyOp12
 70
     1
102
RTVSPropertyOp13
 70
     1
102
RTVSPropertyOp14
 70
     1
102
RTVSPropertyOp15
 70
     1
102
RTVSPropertyOp16
 70
     1
102
RTVSPropertyOp17
 70
     1
102
RTVSPropertyOp18
 70
     1
102
RTVSPropertyOp19
 70
     1
102
RTVSPropertyOp20
 70
     1
102
RTVSPropertyOp21
 70
     1
102
RTVSPropertyOp22
 70
     1
102
RTVSPropertyOp23
 70
     1
102
RTVSPropertyOp24
 70
     1
102
RTVSPropertyOp25
 70
     1
102
RTVSPropertyOp26
 70
     1
102
RTVSPropertyOp27
 70
     1
102
RTVSPropertyOp28
 70
     1
102
RTVSPropertyOp29
 70
     1
102
RTVSPropertyOp30
 70
     1
102
RTVSPropertyOp31
 70
     1
102
RTVSPropertyOp32
 70
     1
102
RTVSPropertyOp33
 70
     1
102
RTVSPropertyOp34
 70
     1
102
RTVSPropertyOp35
 70
     1
102
RTVSPropertyOp36
 70
     1
102
RTVSPropertyOp37
 70
     1
102
RTVSPropertyOp38
 70
     1
102
RTVSPropertyOp39
 70
     1
102
RTVSPropertyOp40
 70
     1
102
RTVSPropertyOp41
 70
     1
102
RTVSPropertyOp42
 70
     1
102
RTVSPropertyOp43
 70
     1
102
RTVSPropertyOp44
 70
     1
102
RTVSPropertyOp45
 70
     1
102
RTVSPropertyOp46
 70
     1
102
RTVSPropertyOp47
 70
     1
102
RTVSPropertyOp48
 70
     1
102
RTVSPropertyOp49
 70
     1
102
RTVSPropertyOp50
 70
     1
102
RTVSPropertyOp51
 70
     0
102
RTVSPropertyOp52
 70
     0
102
RTVSPropertyOp53
 70
     1
102
RTVSPropertyOp54
 70
     1
102
RTVSPropertyOp55
 70
     1
102
RTVSPropertyOp56
 70
     1
102
RTVSPropertyOp57
 70
     1
102
RTVSPost2010Prop28
280
     0
102
RTVSPost2010PropOp28
 70
     1
102
RTVSPost2010Prop29
280
     1
102
RTVSPost2010PropOp29
 70
     1
102
RTVSPost2010Prop30
280
     1
102
RTVSPost2010PropOp30
 70
     1
102
RTVSPost2010Prop31
280
     0
102
RTVSPost2010PropOp31
 70
     1
102
RTVSPost2010Prop32
280
     0
102
RTVSPost2010PropOp32
 70
     1
102
RTVSPost2010Prop33
280
     0
102
RTVSPost2010PropOp33
 70
     1
102
RTVSPost2010Prop34
280
     0
102
RTVSPost2010PropOp34
 70
     1
102
RTVSPost2010Prop35
280
     0
102
RTVSPost2010PropOp35
 70
     1
102
RTVSPost2010Prop36
280
     0
102
RTVSPost2010PropOp36
 70
     1
102
RTVSPost2010Prop37
 90
       50
102
RTVSPost2010PropOp37
 70
     1
102
RTVSPost2010Prop38
140
0.0
102
RTVSPost2010PropOp38
 70
     1
102
RTVSPost2010Prop39
140
1.0
102
RTVSPost2010PropOp39
 70
     1
102
RTVSPost2010Prop40
 90
        0
102
RTVSPost2010PropOp40
 70
     1
102
RTVSPost2010Prop41ColorIndex
 90
       18
102
RTVSPost2010Prop41ColorRGB
 90
        0
102
RTVSPost2010PropOp41
 70
     1
102
RTVSPost2010Prop42
 90
       50
102
RTVSPost2010PropOp42
 70
     1
102
RTVSPost2010Prop43
 90
        3
102
RTVSPost2010PropOp43
 70
     1
102
RTVSPost2010Prop44ColorIndex
 90
        5
102
RTVSPost2010Prop44ColorRGB
 90
      255
102
RTVSPost2010PropOp44
 70
     1
102
RTVSPost2010Prop45
280
     0
102
RTVSPost2010PropOp45
 70
     1
102
RTVSPost2010Prop46
 90
       50
102
RTVSPost2010PropOp46
 70
     1
102
RTVSPost2010Prop47
 90
       50
102
RTVSPost2010PropOp47
 70
     1
102
RTVSPost2010Prop48
 90
       50
102
RTVSPost2010PropOp48
 70
     1
102
RTVSPost2010Prop49
280
     0
102
RTVSPost2010PropOp49
 70
     1
102
RTVSPost2010Prop50
 90
       50
102
RTVSPost2010PropOp50
 70
     1
102
RTVSPost2010Prop51ColorIndex
 90
      256
102
RTVSPost2010Prop51ColorRGB
 90
-16777216
102
RTVSPost2010PropOp51
 70
     0
102
RTVSPost2010Prop52
140
1.0
102
RTVSPost2010PropOp52
 70
     0
102
RTVSPost2010Prop53
 90
        2
102
RTVSPost2010PropOp53
 70
     1
102
RTVSPost2010Prop54
  1
strokes_ogs.tif
102
RTVSPost2010PropOp54
 70
     1
102
RTVSPost2010Prop55
280
     0
102
RTVSPost2010PropOp55
 70
     1
102
RTVSPost2010Prop56
140
1.0
102
RTVSPost2010PropOp56
 70
     1
102
RTVSPost2010Prop57
140
1.0
102
RTVSPost2010PropOp57
 70
     1
  0
XRECORD
  5
2FE
102
{ACAD_REACTORS
330
2FD
102
}
330
2FD
100
AcDbXrecord
280
     1
102
RTVSPropertyOp0
 70
     1
102
RTVSPropertyOp1
 70
     1
102
RTVSPropertyOp2
 70
     1
102
RTVSPropertyOp3
 70
     1
102
RTVSPropertyOp4
 70
     1
102
RTVSPropertyOp5
 70
     1
102
RTVSPropertyOp6
 70
     1
102
RTVSPropertyOp7
 70
     1
102
RTVSPropertyOp8
 70
     1
102
RTVSPropertyOp9
 70
     1
102
RTVSPropertyOp10
 70
     1
102
RTVSPropertyOp11
 70
     1
102
RTVSPropertyOp12
 70
     1
102
RTVSPropertyOp13
 70
     1
102
RTVSPropertyOp14
 70
     1
102
RTVSPropertyOp15
 70
     1
102
RTVSPropertyOp16
 70
     1
102
RTVSPropertyOp17
 70
     1
102
RTVSPropertyOp18
 70
     1
102
RTVSPropertyOp19
 70
     1
102
RTVSPropertyOp20
 70
     1
102
RTVSPropertyOp21
 70
     1
102
RTVSPropertyOp22
 70
     1
102
RTVSPropertyOp23
 70
     1
102
RTVSPropertyOp24
 70
     1
102
RTVSPropertyOp25
 70
     1
102
RTVSPropertyOp26
 70
     1
102
RTVSPropertyOp27
 70
     1
102
RTVSPropertyOp28
 70
     1
102
RTVSPropertyOp29
 70
     1
102
RTVSPropertyOp30
 70
     1
102
RTVSPropertyOp31
 70
     1
102
RTVSPropertyOp32
 70
     1
102
RTVSPropertyOp33
 70
     1
102
RTVSPropertyOp34
 70
     1
102
RTVSPropertyOp35
 70
     1
102
RTVSPropertyOp36
 70
     1
102
RTVSPropertyOp37
 70
     1
102
RTVSPropertyOp38
 70
     1
102
RTVSPropertyOp39
 70
     1
102
RTVSPropertyOp40
 70
     1
102
RTVSPropertyOp41
 70
     1
102
RTVSPropertyOp42
 70
     1
102
RTVSPropertyOp43
 70
     1
102
RTVSPropertyOp44
 70
     1
102
RTVSPropertyOp45
 70
     1
102
RTVSPropertyOp46
 70
     1
102
RTVSPropertyOp47
 70
     1
102
RTVSPropertyOp48
 70
     1
102
RTVSPropertyOp49
 70
     1
102
RTVSPropertyOp50
 70
     1
102
RTVSPropertyOp51
 70
     0
102
RTVSPropertyOp52
 70
     0
102
RTVSPropertyOp53
 70
     1
102
RTVSPropertyOp54
 70
     1
102
RTVSPropertyOp55
 70
     1
102
RTVSPropertyOp56
 70
     1
102
RTVSPropertyOp57
 70
     1
102
RTVSPost2010Prop28
280
     0
102
RTVSPost2010PropOp28
 70
     1
102
RTVSPost2010Prop29
280
     1
102
RTVSPost2010PropOp29
 70
     1
102
RTVSPost2010Prop30
280
     1
102
RTVSPost2010PropOp30
 70
     1
102
RTVSPost2010Prop31
280
     0
102
RTVSPost2010PropOp31
 70
     1
102
RTVSPost2010Prop32
280
     0
102
RTVSPost2010PropOp32
 70
     1
102
RTVSPost2010Prop33
280
     0
102
RTVSPost2010PropOp33
 70
     1
102
RTVSPost2010Prop34
280
     0
102
RTVSPost2010PropOp34
 70
     1
102
RTVSPost2010Prop35
280
     0
102
RTVSPost2010PropOp35
 70
     1
102
RTVSPost2010Prop36
280
     0
102
RTVSPost2010PropOp36
 70
     1
102
RTVSPost2010Prop37
 90
       50
102
RTVSPost2010PropOp37
 70
     1
102
RTVSPost2010Prop38
140
0.0
102
RTVSPost2010PropOp38
 70
     1
102
RTVSPost2010Prop39
140
1.0
102
RTVSPost2010PropOp39
 70
     1
102
RTVSPost2010Prop40
 90
        0
102
RTVSPost2010PropOp40
 70
     1
102
RTVSPost2010Prop41ColorIndex
 90
       18
102
RTVSPost2010Prop41ColorRGB
 90
        0
102
RTVSPost2010PropOp41
 70
     1
102
RTVSPost2010Prop42
 90
       50
102
RTVSPost2010PropOp42
 70
     1
102
RTVSPost2010Prop43
 90
        3
102
RTVSPost2010PropOp43
 70
     1
102
RTVSPost2010Prop44ColorIndex
 90
        5
102
RTVSPost2010Prop44ColorRGB
 90
      255
102
RTVSPost2010PropOp44
 70
     1
102
RTVSPost2010Prop45
280
     0
102
RTVSPost2010PropOp45
 70
     1
102
RTVSPost2010Prop46
 90
       50
102
RTVSPost2010PropOp46
 70
     1
102
RTVSPost2010Prop47
 90
       50
102
RTVSPost2010PropOp47
 70
     1
102
RTVSPost2010Prop48
 90
       50
102
RTVSPost2010PropOp48
 70
     1
102
RTVSPost2010Prop49
280
     0
102
RTVSPost2010PropOp49
 70
     1
102
RTVSPost2010Prop50
 90
       50
102
RTVSPost2010PropOp50
 70
     1
102
RTVSPost2010Prop51ColorIndex
 90
      256
102
RTVSPost2010Prop51ColorRGB
 90
-16777216
102
RTVSPost2010PropOp51
 70
     0
102
RTVSPost2010Prop52
140
1.0
102
RTVSPost2010PropOp52
 70
     0
102
RTVSPost2010Prop53
 90
        2
102
RTVSPost2010PropOp53
 70
     1
102
RTVSPost2010Prop54
  1
strokes_ogs.tif
102
RTVSPost2010PropOp54
 70
     1
102
RTVSPost2010Prop55
280
     0
102
RTVSPost2010PropOp55
 70
     1
102
RTVSPost2010Prop56
140
1.0
102
RTVSPost2010PropOp56
 70
     1
102
RTVSPost2010Prop57
140
1.0
102
RTVSPost2010PropOp57
 70
     1
  0
XRECORD
  5
300
102
{ACAD_REACTORS
330
2FF
102
}
330
2FF
100
AcDbXrecord
280
     1
102
RTVSPropertyOp0
 70
     1
102
RTVSPropertyOp1
 70
     1
102
RTVSPropertyOp2
 70
     1
102
RTVSPropertyOp3
 70
     1
102
RTVSPropertyOp4
 70
     1
102
RTVSPropertyOp5
 70
     1
102
RTVSPropertyOp6
 70
     1
102
RTVSPropertyOp7
 70
     1
102
RTVSPropertyOp8
 70
     1
102
RTVSPropertyOp9
 70
     1
102
RTVSPropertyOp10
 70
     1
102
RTVSPropertyOp11
 70
     1
102
RTVSPropertyOp12
 70
     1
102
RTVSPropertyOp13
 70
     1
102
RTVSPropertyOp14
 70
     1
102
RTVSPropertyOp15
 70
     1
102
RTVSPropertyOp16
 70
     1
102
RTVSPropertyOp17
 70
     1
102
RTVSPropertyOp18
 70
     1
102
RTVSPropertyOp19
 70
     1
102
RTVSPropertyOp20
 70
     1
102
RTVSPropertyOp21
 70
     1
102
RTVSPropertyOp22
 70
     1
102
RTVSPropertyOp23
 70
     1
102
RTVSPropertyOp24
 70
     1
102
RTVSPropertyOp25
 70
     1
102
RTVSPropertyOp26
 70
     1
102
RTVSPropertyOp27
 70
     1
102
RTVSPropertyOp28
 70
     1
102
RTVSPropertyOp29
 70
     1
102
RTVSPropertyOp30
 70
     1
102
RTVSPropertyOp31
 70
     1
102
RTVSPropertyOp32
 70
     1
102
RTVSPropertyOp33
 70
     1
102
RTVSPropertyOp34
 70
     1
102
RTVSPropertyOp35
 70
     1
102
RTVSPropertyOp36
 70
     1
102
RTVSPropertyOp37
 70
     1
102
RTVSPropertyOp38
 70
     1
102
RTVSPropertyOp39
 70
     1
102
RTVSPropertyOp40
 70
     1
102
RTVSPropertyOp41
 70
     1
102
RTVSPropertyOp42
 70
     1
102
RTVSPropertyOp43
 70
     1
102
RTVSPropertyOp44
 70
     1
102
RTVSPropertyOp45
 70
     1
102
RTVSPropertyOp46
 70
     1
102
RTVSPropertyOp47
 70
     1
102
RTVSPropertyOp48
 70
     1
102
RTVSPropertyOp49
 70
     1
102
RTVSPropertyOp50
 70
     1
102
RTVSPropertyOp51
 70
     0
102
RTVSPropertyOp52
 70
     0
102
RTVSPropertyOp53
 70
     1
102
RTVSPropertyOp54
 70
     1
102
RTVSPropertyOp55
 70
     1
102
RTVSPropertyOp56
 70
     1
102
RTVSPropertyOp57
 70
     1
102
RTVSPost2010Prop28
280
     0
102
RTVSPost2010PropOp28
 70
     1
102
RTVSPost2010Prop29
280
     1
102
RTVSPost2010PropOp29
 70
     1
102
RTVSPost2010Prop30
280
     1
102
RTVSPost2010PropOp30
 70
     1
102
RTVSPost2010Prop31
280
     0
102
RTVSPost2010PropOp31
 70
     1
102
RTVSPost2010Prop32
280
     0
102
RTVSPost2010PropOp32
 70
     1
102
RTVSPost2010Prop33
280
     0
102
RTVSPost2010PropOp33
 70
     1
102
RTVSPost2010Prop34
280
     0
102
RTVSPost2010PropOp34
 70
     1
102
RTVSPost2010Prop35
280
     0
102
RTVSPost2010PropOp35
 70
     1
102
RTVSPost2010Prop36
280
     0
102
RTVSPost2010PropOp36
 70
     1
102
RTVSPost2010Prop37
 90
       50
102
RTVSPost2010PropOp37
 70
     1
102
RTVSPost2010Prop38
140
0.0
102
RTVSPost2010PropOp38
 70
     1
102
RTVSPost2010Prop39
140
1.0
102
RTVSPost2010PropOp39
 70
     1
102
RTVSPost2010Prop40
 90
        0
102
RTVSPost2010PropOp40
 70
     1
102
RTVSPost2010Prop41ColorIndex
 90
       18
102
RTVSPost2010Prop41ColorRGB
 90
        0
102
RTVSPost2010PropOp41
 70
     1
102
RTVSPost2010Prop42
 90
       50
102
RTVSPost2010PropOp42
 70
     1
102
RTVSPost2010Prop43
 90
        3
102
RTVSPost2010PropOp43
 70
     1
102
RTVSPost2010Prop44ColorIndex
 90
        5
102
RTVSPost2010Prop44ColorRGB
 90
      255
102
RTVSPost2010PropOp44
 70
     1
102
RTVSPost2010Prop45
280
     0
102
RTVSPost2010PropOp45
 70
     1
102
RTVSPost2010Prop46
 90
       50
102
RTVSPost2010PropOp46
 70
     1
102
RTVSPost2010Prop47
 90
       50
102
RTVSPost2010PropOp47
 70
     1
102
RTVSPost2010Prop48
 90
       50
102
RTVSPost2010PropOp48
 70
     1
102
RTVSPost2010Prop49
280
     0
102
RTVSPost2010PropOp49
 70
     1
102
RTVSPost2010Prop50
 90
       50
102
RTVSPost2010PropOp50
 70
     1
102
RTVSPost2010Prop51ColorIndex
 90
      256
102
RTVSPost2010Prop51ColorRGB
 90
-16777216
102
RTVSPost2010PropOp51
 70
     0
102
RTVSPost2010Prop52
140
1.0
102
RTVSPost2010PropOp52
 70
     0
102
RTVSPost2010Prop53
 90
        2
102
RTVSPost2010PropOp53
 70
     1
102
RTVSPost2010Prop54
  1
strokes_ogs.tif
102
RTVSPost2010PropOp54
 70
     1
102
RTVSPost2010Prop55
280
     0
102
RTVSPost2010PropOp55
 70
     1
102
RTVSPost2010Prop56
140
1.0
102
RTVSPost2010PropOp56
 70
     1
102
RTVSPost2010Prop57
140
1.0
102
RTVSPost2010PropOp57
 70
     1
  0
XRECORD
  5
306
102
{ACAD_REACTORS
330
305
102
}
330
305
100
AcDbXrecord
280
     1
102
RTVSPropertyOp0
 70
     1
102
RTVSPropertyOp1
 70
     1
102
RTVSPropertyOp2
 70
     1
102
RTVSPropertyOp3
 70
     1
102
RTVSPropertyOp4
 70
     1
102
RTVSPropertyOp5
 70
     1
102
RTVSPropertyOp6
 70
     1
102
RTVSPropertyOp7
 70
     1
102
RTVSPropertyOp8
 70
     1
102
RTVSPropertyOp9
 70
     1
102
RTVSPropertyOp10
 70
     1
102
RTVSPropertyOp11
 70
     1
102
RTVSPropertyOp12
 70
     1
102
RTVSPropertyOp13
 70
     1
102
RTVSPropertyOp14
 70
     1
102
RTVSPropertyOp15
 70
     1
102
RTVSPropertyOp16
 70
     1
102
RTVSPropertyOp17
 70
     1
102
RTVSPropertyOp18
 70
     1
102
RTVSPropertyOp19
 70
     1
102
RTVSPropertyOp20
 70
     1
102
RTVSPropertyOp21
 70
     1
102
RTVSPropertyOp22
 70
     1
102
RTVSPropertyOp23
 70
     1
102
RTVSPropertyOp24
 70
     1
102
RTVSPropertyOp25
 70
     1
102
RTVSPropertyOp26
 70
     1
102
RTVSPropertyOp27
 70
     1
102
RTVSPropertyOp28
 70
     1
102
RTVSPropertyOp29
 70
     1
102
RTVSPropertyOp30
 70
     1
102
RTVSPropertyOp31
 70
     1
102
RTVSPropertyOp32
 70
     1
102
RTVSPropertyOp33
 70
     1
102
RTVSPropertyOp34
 70
     1
102
RTVSPropertyOp35
 70
     1
102
RTVSPropertyOp36
 70
     1
102
RTVSPropertyOp37
 70
     1
102
RTVSPropertyOp38
 70
     1
102
RTVSPropertyOp39
 70
     1
102
RTVSPropertyOp40
 70
     1
102
RTVSPropertyOp41
 70
     1
102
RTVSPropertyOp42
 70
     1
102
RTVSPropertyOp43
 70
     1
102
RTVSPropertyOp44
 70
     1
102
RTVSPropertyOp45
 70
     1
102
RTVSPropertyOp46
 70
     1
102
RTVSPropertyOp47
 70
     1
102
RTVSPropertyOp48
 70
     1
102
RTVSPropertyOp49
 70
     1
102
RTVSPropertyOp50
 70
     1
102
RTVSPropertyOp51
 70
     0
102
RTVSPropertyOp52
 70
     0
102
RTVSPropertyOp53
 70
     1
102
RTVSPropertyOp54
 70
     1
102
RTVSPropertyOp55
 70
     1
102
RTVSPropertyOp56
 70
     1
102
RTVSPropertyOp57
 70
     1
102
RTVSPost2010Prop28
280
     0
102
RTVSPost2010PropOp28
 70
     1
102
RTVSPost2010Prop29
280
     1
102
RTVSPost2010PropOp29
 70
     1
102
RTVSPost2010Prop30
280
     1
102
RTVSPost2010PropOp30
 70
     1
102
RTVSPost2010Prop31
280
     0
102
RTVSPost2010PropOp31
 70
     1
102
RTVSPost2010Prop32
280
     0
102
RTVSPost2010PropOp32
 70
     1
102
RTVSPost2010Prop33
280
     0
102
RTVSPost2010PropOp33
 70
     1
102
RTVSPost2010Prop34
280
     0
102
RTVSPost2010PropOp34
 70
     1
102
RTVSPost2010Prop35
280
     0
102
RTVSPost2010PropOp35
 70
     1
102
RTVSPost2010Prop36
280
     0
102
RTVSPost2010PropOp36
 70
     1
102
RTVSPost2010Prop37
 90
       50
102
RTVSPost2010PropOp37
 70
     1
102
RTVSPost2010Prop38
140
0.0
102
RTVSPost2010PropOp38
 70
     1
102
RTVSPost2010Prop39
140
1.0
102
RTVSPost2010PropOp39
 70
     1
102
RTVSPost2010Prop40
 90
        0
102
RTVSPost2010PropOp40
 70
     1
102
RTVSPost2010Prop41ColorIndex
 90
       18
102
RTVSPost2010Prop41ColorRGB
 90
        0
102
RTVSPost2010PropOp41
 70
     1
102
RTVSPost2010Prop42
 90
       50
102
RTVSPost2010PropOp42
 70
     1
102
RTVSPost2010Prop43
 90
        3
102
RTVSPost2010PropOp43
 70
     1
102
RTVSPost2010Prop44ColorIndex
 90
        5
102
RTVSPost2010Prop44ColorRGB
 90
      255
102
RTVSPost2010PropOp44
 70
     1
102
RTVSPost2010Prop45
280
     0
102
RTVSPost2010PropOp45
 70
     1
102
RTVSPost2010Prop46
 90
       50
102
RTVSPost2010PropOp46
 70
     1
102
RTVSPost2010Prop47
 90
       50
102
RTVSPost2010PropOp47
 70
     1
102
RTVSPost2010Prop48
 90
       50
102
RTVSPost2010PropOp48
 70
     1
102
RTVSPost2010Prop49
280
     0
102
RTVSPost2010PropOp49
 70
     1
102
RTVSPost2010Prop50
 90
       50
102
RTVSPost2010PropOp50
 70
     1
102
RTVSPost2010Prop51ColorIndex
 90
      256
102
RTVSPost2010Prop51ColorRGB
 90
-16777216
102
RTVSPost2010PropOp51
 70
     0
102
RTVSPost2010Prop52
140
1.0
102
RTVSPost2010PropOp52
 70
     0
102
RTVSPost2010Prop53
 90
        2
102
RTVSPost2010PropOp53
 70
     1
102
RTVSPost2010Prop54
  1
strokes_ogs.tif
102
RTVSPost2010PropOp54
 70
     1
102
RTVSPost2010Prop55
280
     0
102
RTVSPost2010PropOp55
 70
     1
102
RTVSPost2010Prop56
140
1.0
102
RTVSPost2010PropOp56
 70
     1
102
RTVSPost2010Prop57
140
1.0
102
RTVSPost2010PropOp57
 70
     1
  0
XRECORD
  5
31A
102
{ACAD_REACTORS
330
319
102
}
330
319
100
AcDbXrecord
280
     1
102
RTVSPropertyOp0
 70
     0
102
RTVSPropertyOp1
 70
     0
102
RTVSPropertyOp2
 70
     0
102
RTVSPropertyOp3
 70
     0
102
RTVSPropertyOp4
 70
     0
102
RTVSPropertyOp5
 70
     0
102
RTVSPropertyOp6
 70
     0
102
RTVSPropertyOp7
 70
     0
102
RTVSPropertyOp8
 70
     0
102
RTVSPropertyOp9
 70
     0
102
RTVSPropertyOp10
 70
     0
102
RTVSPropertyOp11
 70
     0
102
RTVSPropertyOp12
 70
     0
102
RTVSPropertyOp13
 70
     0
102
RTVSPropertyOp14
 70
     2
102
RTVSPropertyOp15
 70
     0
102
RTVSPropertyOp16
 70
     0
102
RTVSPropertyOp17
 70
     0
102
RTVSPropertyOp18
 70
     0
102
RTVSPropertyOp19
 70
     0
102
RTVSPropertyOp20
 70
     0
102
RTVSPropertyOp21
 70
     0
102
RTVSPropertyOp22
 70
     0
102
RTVSPropertyOp23
 70
     0
102
RTVSPropertyOp24
 70
     0
102
RTVSPropertyOp25
 70
     0
102
RTVSPropertyOp26
 70
     0
102
RTVSPropertyOp27
 70
     0
102
RTVSPropertyOp28
 70
     0
102
RTVSPropertyOp29
 70
     0
102
RTVSPropertyOp30
 70
     0
102
RTVSPropertyOp31
 70
     0
102
RTVSPropertyOp32
 70
     0
102
RTVSPropertyOp33
 70
     0
102
RTVSPropertyOp34
 70
     0
102
RTVSPropertyOp35
 70
     0
102
RTVSPropertyOp36
 70
     0
102
RTVSPropertyOp37
 70
     0
102
RTVSPropertyOp38
 70
     0
102
RTVSPropertyOp39
 70
     0
102
RTVSPropertyOp40
 70
     0
102
RTVSPropertyOp41
 70
     0
102
RTVSPropertyOp42
 70
     0
102
RTVSPropertyOp43
 70
     0
102
RTVSPropertyOp44
 70
     0
102
RTVSPropertyOp45
 70
     0
102
RTVSPropertyOp46
 70
     0
102
RTVSPropertyOp47
 70
     0
102
RTVSPropertyOp48
 70
     0
102
RTVSPropertyOp49
 70
     0
102
RTVSPropertyOp50
 70
     0
102
RTVSPropertyOp51
 70
     0
102
RTVSPropertyOp52
 70
     0
102
RTVSPropertyOp53
 70
     0
102
RTVSPropertyOp54
 70
     0
102
RTVSPropertyOp55
 70
     0
102
RTVSPropertyOp56
 70
     0
102
RTVSPropertyOp57
 70
     0
102
RTVSPost2010Prop28
280
     0
102
RTVSPost2010PropOp28
 70
     0
102
RTVSPost2010Prop29
280
     1
102
RTVSPost2010PropOp29
 70
     0
102
RTVSPost2010Prop30
280
     1
102
RTVSPost2010PropOp30
 70
     0
102
RTVSPost2010Prop31
280
     0
102
RTVSPost2010PropOp31
 70
     0
102
RTVSPost2010Prop32
280
     0
102
RTVSPost2010PropOp32
 70
     0
102
RTVSPost2010Prop33
280
     0
102
RTVSPost2010PropOp33
 70
     0
102
RTVSPost2010Prop34
280
     0
102
RTVSPost2010PropOp34
 70
     0
102
RTVSPost2010Prop35
280
     0
102
RTVSPost2010PropOp35
 70
     0
102
RTVSPost2010Prop36
280
     0
102
RTVSPost2010PropOp36
 70
     0
102
RTVSPost2010Prop37
 90
       50
102
RTVSPost2010PropOp37
 70
     0
102
RTVSPost2010Prop38
140
0.0
102
RTVSPost2010PropOp38
 70
     0
102
RTVSPost2010Prop39
140
1.0
102
RTVSPost2010PropOp39
 70
     0
102
RTVSPost2010Prop40
 90
        0
102
RTVSPost2010PropOp40
 70
     0
102
RTVSPost2010Prop41ColorIndex
 90
       18
102
RTVSPost2010Prop41ColorRGB
 90
        0
102
RTVSPost2010PropOp41
 70
     0
102
RTVSPost2010Prop42
 90
       50
102
RTVSPost2010PropOp42
 70
     0
102
RTVSPost2010Prop43
 90
        3
102
RTVSPost2010PropOp43
 70
     0
102
RTVSPost2010Prop44ColorIndex
 90
        5
102
RTVSPost2010Prop44ColorRGB
 90
      255
102
RTVSPost2010PropOp44
 70
     0
102
RTVSPost2010Prop45
280
     0
102
RTVSPost2010PropOp45
 70
     0
102
RTVSPost2010Prop46
 90
       50
102
RTVSPost2010PropOp46
 70
     0
102
RTVSPost2010Prop47
 90
       50
102
RTVSPost2010PropOp47
 70
     0
102
RTVSPost2010Prop48
 90
       50
102
RTVSPost2010PropOp48
 70
     0
102
RTVSPost2010Prop49
280
     0
102
RTVSPost2010PropOp49
 70
     0
102
RTVSPost2010Prop50
 90
       50
102
RTVSPost2010PropOp50
 70
     0
102
RTVSPost2010Prop51ColorIndex
 90
      256
102
RTVSPost2010Prop51ColorRGB
 90
-16777216
102
RTVSPost2010PropOp51
 70
     0
102
RTVSPost2010Prop52
140
1.0
102
RTVSPost2010PropOp52
 70
     0
102
RTVSPost2010Prop53
 90
        2
102
RTVSPost2010PropOp53
 70
     0
102
RTVSPost2010Prop54
  1
strokes_ogs.tif
102
RTVSPost2010PropOp54
 70
     0
102
RTVSPost2010Prop55
280
     0
102
RTVSPost2010PropOp55
 70
     0
102
RTVSPost2010Prop56
140
1.0
102
RTVSPost2010PropOp56
 70
     0
102
RTVSPost2010Prop57
140
1.0
102
RTVSPost2010PropOp57
 70
     0
  0
XRECORD
  5
314
102
{ACAD_REACTORS
330
313
102
}
330
313
100
AcDbXrecord
280
     1
102
RTVSPropertyOp0
 70
     1
102
RTVSPropertyOp1
 70
     1
102
RTVSPropertyOp2
 70
     1
102
RTVSPropertyOp3
 70
     1
102
RTVSPropertyOp4
 70
     1
102
RTVSPropertyOp5
 70
     1
102
RTVSPropertyOp6
 70
     1
102
RTVSPropertyOp7
 70
     1
102
RTVSPropertyOp8
 70
     1
102
RTVSPropertyOp9
 70
     1
102
RTVSPropertyOp10
 70
     1
102
RTVSPropertyOp11
 70
     1
102
RTVSPropertyOp12
 70
     1
102
RTVSPropertyOp13
 70
     1
102
RTVSPropertyOp14
 70
     1
102
RTVSPropertyOp15
 70
     1
102
RTVSPropertyOp16
 70
     1
102
RTVSPropertyOp17
 70
     1
102
RTVSPropertyOp18
 70
     1
102
RTVSPropertyOp19
 70
     1
102
RTVSPropertyOp20
 70
     1
102
RTVSPropertyOp21
 70
     1
102
RTVSPropertyOp22
 70
     1
102
RTVSPropertyOp23
 70
     1
102
RTVSPropertyOp24
 70
     1
102
RTVSPropertyOp25
 70
     1
102
RTVSPropertyOp26
 70
     1
102
RTVSPropertyOp27
 70
     1
102
RTVSPropertyOp28
 70
     1
102
RTVSPropertyOp29
 70
     1
102
RTVSPropertyOp30
 70
     1
102
RTVSPropertyOp31
 70
     1
102
RTVSPropertyOp32
 70
     1
102
RTVSPropertyOp33
 70
     1
102
RTVSPropertyOp34
 70
     1
102
RTVSPropertyOp35
 70
     1
102
RTVSPropertyOp36
 70
     1
102
RTVSPropertyOp37
 70
     1
102
RTVSPropertyOp38
 70
     1
102
RTVSPropertyOp39
 70
     1
102
RTVSPropertyOp40
 70
     1
102
RTVSPropertyOp41
 70
     1
102
RTVSPropertyOp42
 70
     1
102
RTVSPropertyOp43
 70
     1
102
RTVSPropertyOp44
 70
     1
102
RTVSPropertyOp45
 70
     1
102
RTVSPropertyOp46
 70
     1
102
RTVSPropertyOp47
 70
     1
102
RTVSPropertyOp48
 70
     1
102
RTVSPropertyOp49
 70
     1
102
RTVSPropertyOp50
 70
     1
102
RTVSPropertyOp51
 70
     0
102
RTVSPropertyOp52
 70
     0
102
RTVSPropertyOp53
 70
     1
102
RTVSPropertyOp54
 70
     1
102
RTVSPropertyOp55
 70
     1
102
RTVSPropertyOp56
 70
     1
102
RTVSPropertyOp57
 70
     1
102
RTVSPost2010Prop28
280
     0
102
RTVSPost2010PropOp28
 70
     1
102
RTVSPost2010Prop29
280
     1
102
RTVSPost2010PropOp29
 70
     1
102
RTVSPost2010Prop30
280
     1
102
RTVSPost2010PropOp30
 70
     1
102
RTVSPost2010Prop31
280
     0
102
RTVSPost2010PropOp31
 70
     1
102
RTVSPost2010Prop32
280
     0
102
RTVSPost2010PropOp32
 70
     1
102
RTVSPost2010Prop33
280
     0
102
RTVSPost2010PropOp33
 70
     1
102
RTVSPost2010Prop34
280
     0
102
RTVSPost2010PropOp34
 70
     1
102
RTVSPost2010Prop35
280
     0
102
RTVSPost2010PropOp35
 70
     1
102
RTVSPost2010Prop36
280
     0
102
RTVSPost2010PropOp36
 70
     1
102
RTVSPost2010Prop37
 90
       50
102
RTVSPost2010PropOp37
 70
     1
102
RTVSPost2010Prop38
140
0.0
102
RTVSPost2010PropOp38
 70
     1
102
RTVSPost2010Prop39
140
1.0
102
RTVSPost2010PropOp39
 70
     1
102
RTVSPost2010Prop40
 90
        0
102
RTVSPost2010PropOp40
 70
     1
102
RTVSPost2010Prop41ColorIndex
 90
       18
102
RTVSPost2010Prop41ColorRGB
 90
        0
102
RTVSPost2010PropOp41
 70
     1
102
RTVSPost2010Prop42
 90
       50
102
RTVSPost2010PropOp42
 70
     1
102
RTVSPost2010Prop43
 90
        3
102
RTVSPost2010PropOp43
 70
     1
102
RTVSPost2010Prop44ColorIndex
 90
        5
102
RTVSPost2010Prop44ColorRGB
 90
      255
102
RTVSPost2010PropOp44
 70
     1
102
RTVSPost2010Prop45
280
     0
102
RTVSPost2010PropOp45
 70
     1
102
RTVSPost2010Prop46
 90
       50
102
RTVSPost2010PropOp46
 70
     1
102
RTVSPost2010Prop47
 90
       50
102
RTVSPost2010PropOp47
 70
     1
102
RTVSPost2010Prop48
 90
       50
102
RTVSPost2010PropOp48
 70
     1
102
RTVSPost2010Prop49
280
     0
102
RTVSPost2010PropOp49
 70
     1
102
RTVSPost2010Prop50
 90
       50
102
RTVSPost2010PropOp50
 70
     1
102
RTVSPost2010Prop51ColorIndex
 90
      256
102
RTVSPost2010Prop51ColorRGB
 90
-16777216
102
RTVSPost2010PropOp51
 70
     0
102
RTVSPost2010Prop52
140
1.0
102
RTVSPost2010PropOp52
 70
     0
102
RTVSPost2010Prop53
 90
        2
102
RTVSPost2010PropOp53
 70
     1
102
RTVSPost2010Prop54
  1
strokes_ogs.tif
102
RTVSPost2010PropOp54
 70
     1
102
RTVSPost2010Prop55
280
     0
102
RTVSPost2010PropOp55
 70
     1
102
RTVSPost2010Prop56
140
1.0
102
RTVSPost2010PropOp56
 70
     1
102
RTVSPost2010Prop57
140
1.0
102
RTVSPost2010PropOp57
 70
     1
  0
XRECORD
  5
31C
102
{ACAD_REACTORS
330
31B
102
}
330
31B
100
AcDbXrecord
280
     1
102
RTVSPropertyOp0
 70
     0
102
RTVSPropertyOp1
 70
     0
102
RTVSPropertyOp2
 70
     0
102
RTVSPropertyOp3
 70
     0
102
RTVSPropertyOp4
 70
     0
102
RTVSPropertyOp5
 70
     0
102
RTVSPropertyOp6
 70
     0
102
RTVSPropertyOp7
 70
     0
102
RTVSPropertyOp8
 70
     0
102
RTVSPropertyOp9
 70
     0
102
RTVSPropertyOp10
 70
     0
102
RTVSPropertyOp11
 70
     0
102
RTVSPropertyOp12
 70
     0
102
RTVSPropertyOp13
 70
     0
102
RTVSPropertyOp14
 70
     2
102
RTVSPropertyOp15
 70
     0
102
RTVSPropertyOp16
 70
     0
102
RTVSPropertyOp17
 70
     0
102
RTVSPropertyOp18
 70
     0
102
RTVSPropertyOp19
 70
     0
102
RTVSPropertyOp20
 70
     0
102
RTVSPropertyOp21
 70
     0
102
RTVSPropertyOp22
 70
     0
102
RTVSPropertyOp23
 70
     0
102
RTVSPropertyOp24
 70
     0
102
RTVSPropertyOp25
 70
     0
102
RTVSPropertyOp26
 70
     0
102
RTVSPropertyOp27
 70
     0
102
RTVSPropertyOp28
 70
     0
102
RTVSPropertyOp29
 70
     0
102
RTVSPropertyOp30
 70
     0
102
RTVSPropertyOp31
 70
     0
102
RTVSPropertyOp32
 70
     0
102
RTVSPropertyOp33
 70
     0
102
RTVSPropertyOp34
 70
     0
102
RTVSPropertyOp35
 70
     0
102
RTVSPropertyOp36
 70
     0
102
RTVSPropertyOp37
 70
     0
102
RTVSPropertyOp38
 70
     0
102
RTVSPropertyOp39
 70
     0
102
RTVSPropertyOp40
 70
     0
102
RTVSPropertyOp41
 70
     0
102
RTVSPropertyOp42
 70
     0
102
RTVSPropertyOp43
 70
     0
102
RTVSPropertyOp44
 70
     0
102
RTVSPropertyOp45
 70
     0
102
RTVSPropertyOp46
 70
     0
102
RTVSPropertyOp47
 70
     0
102
RTVSPropertyOp48
 70
     0
102
RTVSPropertyOp49
 70
     0
102
RTVSPropertyOp50
 70
     0
102
RTVSPropertyOp51
 70
     0
102
RTVSPropertyOp52
 70
     0
102
RTVSPropertyOp53
 70
     0
102
RTVSPropertyOp54
 70
     0
102
RTVSPropertyOp55
 70
     0
102
RTVSPropertyOp56
 70
     0
102
RTVSPropertyOp57
 70
     0
102
RTVSPost2010Prop28
280
     0
102
RTVSPost2010PropOp28
 70
     0
102
RTVSPost2010Prop29
280
     1
102
RTVSPost2010PropOp29
 70
     0
102
RTVSPost2010Prop30
280
     1
102
RTVSPost2010PropOp30
 70
     0
102
RTVSPost2010Prop31
280
     0
102
RTVSPost2010PropOp31
 70
     0
102
RTVSPost2010Prop32
280
     0
102
RTVSPost2010PropOp32
 70
     0
102
RTVSPost2010Prop33
280
     0
102
RTVSPost2010PropOp33
 70
     0
102
RTVSPost2010Prop34
280
     0
102
RTVSPost2010PropOp34
 70
     0
102
RTVSPost2010Prop35
280
     0
102
RTVSPost2010PropOp35
 70
     0
102
RTVSPost2010Prop36
280
     0
102
RTVSPost2010PropOp36
 70
     0
102
RTVSPost2010Prop37
 90
       50
102
RTVSPost2010PropOp37
 70
     0
102
RTVSPost2010Prop38
140
0.0
102
RTVSPost2010PropOp38
 70
     0
102
RTVSPost2010Prop39
140
1.0
102
RTVSPost2010PropOp39
 70
     0
102
RTVSPost2010Prop40
 90
        0
102
RTVSPost2010PropOp40
 70
     0
102
RTVSPost2010Prop41ColorIndex
 90
       18
102
RTVSPost2010Prop41ColorRGB
 90
        0
102
RTVSPost2010PropOp41
 70
     0
102
RTVSPost2010Prop42
 90
       50
102
RTVSPost2010PropOp42
 70
     0
102
RTVSPost2010Prop43
 90
        3
102
RTVSPost2010PropOp43
 70
     0
102
RTVSPost2010Prop44ColorIndex
 90
        5
102
RTVSPost2010Prop44ColorRGB
 90
      255
102
RTVSPost2010PropOp44
 70
     0
102
RTVSPost2010Prop45
280
     0
102
RTVSPost2010PropOp45
 70
     0
102
RTVSPost2010Prop46
 90
       50
102
RTVSPost2010PropOp46
 70
     0
102
RTVSPost2010Prop47
 90
       50
102
RTVSPost2010PropOp47
 70
     0
102
RTVSPost2010Prop48
 90
       50
102
RTVSPost2010PropOp48
 70
     0
102
RTVSPost2010Prop49
280
     0
102
RTVSPost2010PropOp49
 70
     0
102
RTVSPost2010Prop50
 90
       50
102
RTVSPost2010PropOp50
 70
     0
102
RTVSPost2010Prop51ColorIndex
 90
      256
102
RTVSPost2010Prop51ColorRGB
 90
-16777216
102
RTVSPost2010PropOp51
 70
     0
102
RTVSPost2010Prop52
140
1.0
102
RTVSPost2010PropOp52
 70
     0
102
RTVSPost2010Prop53
 90
        2
102
RTVSPost2010PropOp53
 70
     0
102
RTVSPost2010Prop54
  1
strokes_ogs.tif
102
RTVSPost2010PropOp54
 70
     0
102
RTVSPost2010Prop55
280
     0
102
RTVSPost2010PropOp55
 70
     0
102
RTVSPost2010Prop56
140
1.0
102
RTVSPost2010PropOp56
 70
     0
102
RTVSPost2010Prop57
140
1.0
102
RTVSPost2010PropOp57
 70
     0
  0
XRECORD
  5
30A
102
{ACAD_REACTORS
330
309
102
}
330
309
100
AcDbXrecord
280
     1
102
RTVSPropertyOp0
 70
     1
102
RTVSPropertyOp1
 70
     1
102
RTVSPropertyOp2
 70
     1
102
RTVSPropertyOp3
 70
     1
102
RTVSPropertyOp4
 70
     1
102
RTVSPropertyOp5
 70
     1
102
RTVSPropertyOp6
 70
     1
102
RTVSPropertyOp7
 70
     1
102
RTVSPropertyOp8
 70
     1
102
RTVSPropertyOp9
 70
     1
102
RTVSPropertyOp10
 70
     1
102
RTVSPropertyOp11
 70
     1
102
RTVSPropertyOp12
 70
     1
102
RTVSPropertyOp13
 70
     1
102
RTVSPropertyOp14
 70
     1
102
RTVSPropertyOp15
 70
     1
102
RTVSPropertyOp16
 70
     1
102
RTVSPropertyOp17
 70
     1
102
RTVSPropertyOp18
 70
     1
102
RTVSPropertyOp19
 70
     1
102
RTVSPropertyOp20
 70
     1
102
RTVSPropertyOp21
 70
     1
102
RTVSPropertyOp22
 70
     1
102
RTVSPropertyOp23
 70
     1
102
RTVSPropertyOp24
 70
     1
102
RTVSPropertyOp25
 70
     1
102
RTVSPropertyOp26
 70
     1
102
RTVSPropertyOp27
 70
     1
102
RTVSPropertyOp28
 70
     1
102
RTVSPropertyOp29
 70
     1
102
RTVSPropertyOp30
 70
     1
102
RTVSPropertyOp31
 70
     1
102
RTVSPropertyOp32
 70
     1
102
RTVSPropertyOp33
 70
     1
102
RTVSPropertyOp34
 70
     1
102
RTVSPropertyOp35
 70
     1
102
RTVSPropertyOp36
 70
     1
102
RTVSPropertyOp37
 70
     1
102
RTVSPropertyOp38
 70
     1
102
RTVSPropertyOp39
 70
     1
102
RTVSPropertyOp40
 70
     1
102
RTVSPropertyOp41
 70
     1
102
RTVSPropertyOp42
 70
     1
102
RTVSPropertyOp43
 70
     1
102
RTVSPropertyOp44
 70
     1
102
RTVSPropertyOp45
 70
     1
102
RTVSPropertyOp46
 70
     1
102
RTVSPropertyOp47
 70
     1
102
RTVSPropertyOp48
 70
     1
102
RTVSPropertyOp49
 70
     1
102
RTVSPropertyOp50
 70
     1
102
RTVSPropertyOp51
 70
     0
102
RTVSPropertyOp52
 70
     0
102
RTVSPropertyOp53
 70
     1
102
RTVSPropertyOp54
 70
     1
102
RTVSPropertyOp55
 70
     1
102
RTVSPropertyOp56
 70
     1
102
RTVSPropertyOp57
 70
     1
102
RTVSPost2010Prop28
280
     0
102
RTVSPost2010PropOp28
 70
     1
102
RTVSPost2010Prop29
280
     1
102
RTVSPost2010PropOp29
 70
     1
102
RTVSPost2010Prop30
280
     1
102
RTVSPost2010PropOp30
 70
     1
102
RTVSPost2010Prop31
280
     0
102
RTVSPost2010PropOp31
 70
     1
102
RTVSPost2010Prop32
280
     0
102
RTVSPost2010PropOp32
 70
     1
102
RTVSPost2010Prop33
280
     0
102
RTVSPost2010PropOp33
 70
     1
102
RTVSPost2010Prop34
280
     0
102
RTVSPost2010PropOp34
 70
     1
102
RTVSPost2010Prop35
280
     0
102
RTVSPost2010PropOp35
 70
     1
102
RTVSPost2010Prop36
280
     0
102
RTVSPost2010PropOp36
 70
     1
102
RTVSPost2010Prop37
 90
       50
102
RTVSPost2010PropOp37
 70
     1
102
RTVSPost2010Prop38
140
0.0
102
RTVSPost2010PropOp38
 70
     1
102
RTVSPost2010Prop39
140
1.0
102
RTVSPost2010PropOp39
 70
     1
102
RTVSPost2010Prop40
 90
        0
102
RTVSPost2010PropOp40
 70
     1
102
RTVSPost2010Prop41ColorIndex
 90
       18
102
RTVSPost2010Prop41ColorRGB
 90
        0
102
RTVSPost2010PropOp41
 70
     1
102
RTVSPost2010Prop42
 90
       50
102
RTVSPost2010PropOp42
 70
     1
102
RTVSPost2010Prop43
 90
        3
102
RTVSPost2010PropOp43
 70
     1
102
RTVSPost2010Prop44ColorIndex
 90
        5
102
RTVSPost2010Prop44ColorRGB
 90
      255
102
RTVSPost2010PropOp44
 70
     1
102
RTVSPost2010Prop45
280
     0
102
RTVSPost2010PropOp45
 70
     1
102
RTVSPost2010Prop46
 90
       50
102
RTVSPost2010PropOp46
 70
     1
102
RTVSPost2010Prop47
 90
       50
102
RTVSPost2010PropOp47
 70
     1
102
RTVSPost2010Prop48
 90
       50
102
RTVSPost2010PropOp48
 70
     1
102
RTVSPost2010Prop49
280
     0
102
RTVSPost2010PropOp49
 70
     1
102
RTVSPost2010Prop50
 90
       50
102
RTVSPost2010PropOp50
 70
     1
102
RTVSPost2010Prop51ColorIndex
 90
      256
102
RTVSPost2010Prop51ColorRGB
 90
-16777216
102
RTVSPost2010PropOp51
 70
     0
102
RTVSPost2010Prop52
140
1.0
102
RTVSPost2010PropOp52
 70
     0
102
RTVSPost2010Prop53
 90
        2
102
RTVSPost2010PropOp53
 70
     1
102
RTVSPost2010Prop54
  1
strokes_ogs.tif
102
RTVSPost2010PropOp54
 70
     1
102
RTVSPost2010Prop55
280
     0
102
RTVSPost2010PropOp55
 70
     1
102
RTVSPost2010Prop56
140
1.0
102
RTVSPost2010PropOp56
 70
     1
102
RTVSPost2010Prop57
140
1.0
102
RTVSPost2010PropOp57
 70
     1
  0
XRECORD
  5
328
102
{ACAD_REACTORS
330
327
102
}
330
327
100
AcDbXrecord
280
     1
102
RTVSPropertyOp0
 70
     1
102
RTVSPropertyOp1
 70
     1
102
RTVSPropertyOp2
 70
     1
102
RTVSPropertyOp3
 70
     1
102
RTVSPropertyOp4
 70
     1
102
RTVSPropertyOp5
 70
     1
102
RTVSPropertyOp6
 70
     1
102
RTVSPropertyOp7
 70
     1
102
RTVSPropertyOp8
 70
     1
102
RTVSPropertyOp9
 70
     1
102
RTVSPropertyOp10
 70
     1
102
RTVSPropertyOp11
 70
     1
102
RTVSPropertyOp12
 70
     1
102
RTVSPropertyOp13
 70
     1
102
RTVSPropertyOp14
 70
     1
102
RTVSPropertyOp15
 70
     1
102
RTVSPropertyOp16
 70
     1
102
RTVSPropertyOp17
 70
     1
102
RTVSPropertyOp18
 70
     1
102
RTVSPropertyOp19
 70
     1
102
RTVSPropertyOp20
 70
     1
102
RTVSPropertyOp21
 70
     1
102
RTVSPropertyOp22
 70
     1
102
RTVSPropertyOp23
 70
     1
102
RTVSPropertyOp24
 70
     1
102
RTVSPropertyOp25
 70
     1
102
RTVSPropertyOp26
 70
     1
102
RTVSPropertyOp27
 70
     1
102
RTVSPropertyOp28
 70
     1
102
RTVSPropertyOp29
 70
     1
102
RTVSPropertyOp30
 70
     1
102
RTVSPropertyOp31
 70
     1
102
RTVSPropertyOp32
 70
     1
102
RTVSPropertyOp33
 70
     1
102
RTVSPropertyOp34
 70
     1
102
RTVSPropertyOp35
 70
     1
102
RTVSPropertyOp36
 70
     1
102
RTVSPropertyOp37
 70
     1
102
RTVSPropertyOp38
 70
     1
102
RTVSPropertyOp39
 70
     1
102
RTVSPropertyOp40
 70
     1
102
RTVSPropertyOp41
 70
     1
102
RTVSPropertyOp42
 70
     1
102
RTVSPropertyOp43
 70
     1
102
RTVSPropertyOp44
 70
     1
102
RTVSPropertyOp45
 70
     1
102
RTVSPropertyOp46
 70
     1
102
RTVSPropertyOp47
 70
     1
102
RTVSPropertyOp48
 70
     1
102
RTVSPropertyOp49
 70
     1
102
RTVSPropertyOp50
 70
     1
102
RTVSPropertyOp51
 70
     0
102
RTVSPropertyOp52
 70
     0
102
RTVSPropertyOp53
 70
     1
102
RTVSPropertyOp54
 70
     1
102
RTVSPropertyOp55
 70
     1
102
RTVSPropertyOp56
 70
     1
102
RTVSPropertyOp57
 70
     1
102
RTVSPost2010Prop28
280
     0
102
RTVSPost2010PropOp28
 70
     1
102
RTVSPost2010Prop29
280
     1
102
RTVSPost2010PropOp29
 70
     1
102
RTVSPost2010Prop30
280
     1
102
RTVSPost2010PropOp30
 70
     1
102
RTVSPost2010Prop31
280
     0
102
RTVSPost2010PropOp31
 70
     1
102
RTVSPost2010Prop32
280
     0
102
RTVSPost2010PropOp32
 70
     1
102
RTVSPost2010Prop33
280
     0
102
RTVSPost2010PropOp33
 70
     1
102
RTVSPost2010Prop34
280
     0
102
RTVSPost2010PropOp34
 70
     1
102
RTVSPost2010Prop35
280
     0
102
RTVSPost2010PropOp35
 70
     1
102
RTVSPost2010Prop36
280
     0
102
RTVSPost2010PropOp36
 70
     1
102
RTVSPost2010Prop37
 90
       50
102
RTVSPost2010PropOp37
 70
     1
102
RTVSPost2010Prop38
140
0.0
102
RTVSPost2010PropOp38
 70
     1
102
RTVSPost2010Prop39
140
1.0
102
RTVSPost2010PropOp39
 70
     1
102
RTVSPost2010Prop40
 90
        0
102
RTVSPost2010PropOp40
 70
     1
102
RTVSPost2010Prop41ColorIndex
 90
       18
102
RTVSPost2010Prop41ColorRGB
 90
        0
102
RTVSPost2010PropOp41
 70
     1
102
RTVSPost2010Prop42
 90
       50
102
RTVSPost2010PropOp42
 70
     1
102
RTVSPost2010Prop43
 90
        3
102
RTVSPost2010PropOp43
 70
     1
102
RTVSPost2010Prop44ColorIndex
 90
        5
102
RTVSPost2010Prop44ColorRGB
 90
      255
102
RTVSPost2010PropOp44
 70
     1
102
RTVSPost2010Prop45
280
     0
102
RTVSPost2010PropOp45
 70
     1
102
RTVSPost2010Prop46
 90
       50
102
RTVSPost2010PropOp46
 70
     1
102
RTVSPost2010Prop47
 90
       50
102
RTVSPost2010PropOp47
 70
     1
102
RTVSPost2010Prop48
 90
       50
102
RTVSPost2010PropOp48
 70
     1
102
RTVSPost2010Prop49
280
     0
102
RTVSPost2010PropOp49
 70
     1
102
RTVSPost2010Prop50
 90
       50
102
RTVSPost2010PropOp50
 70
     1
102
RTVSPost2010Prop51ColorIndex
 90
      256
102
RTVSPost2010Prop51ColorRGB
 90
-16777216
102
RTVSPost2010PropOp51
 70
     0
102
RTVSPost2010Prop52
140
1.0
102
RTVSPost2010PropOp52
 70
     0
102
RTVSPost2010Prop53
 90
        2
102
RTVSPost2010PropOp53
 70
     1
102
RTVSPost2010Prop54
  1
strokes_ogs.tif
102
RTVSPost2010PropOp54
 70
     1
102
RTVSPost2010Prop55
280
     0
102
RTVSPost2010PropOp55
 70
     1
102
RTVSPost2010Prop56
140
1.0
102
RTVSPost2010PropOp56
 70
     1
102
RTVSPost2010Prop57
140
1.0
102
RTVSPost2010PropOp57
 70
     1
  0
XRECORD
  5
326
102
{ACAD_REACTORS
330
325
102
}
330
325
100
AcDbXrecord
280
     1
102
RTVSPropertyOp0
 70
     1
102
RTVSPropertyOp1
 70
     1
102
RTVSPropertyOp2
 70
     1
102
RTVSPropertyOp3
 70
     1
102
RTVSPropertyOp4
 70
     1
102
RTVSPropertyOp5
 70
     1
102
RTVSPropertyOp6
 70
     1
102
RTVSPropertyOp7
 70
     1
102
RTVSPropertyOp8
 70
     1
102
RTVSPropertyOp9
 70
     1
102
RTVSPropertyOp10
 70
     1
102
RTVSPropertyOp11
 70
     1
102
RTVSPropertyOp12
 70
     1
102
RTVSPropertyOp13
 70
     1
102
RTVSPropertyOp14
 70
     1
102
RTVSPropertyOp15
 70
     1
102
RTVSPropertyOp16
 70
     1
102
RTVSPropertyOp17
 70
     1
102
RTVSPropertyOp18
 70
     1
102
RTVSPropertyOp19
 70
     1
102
RTVSPropertyOp20
 70
     1
102
RTVSPropertyOp21
 70
     1
102
RTVSPropertyOp22
 70
     1
102
RTVSPropertyOp23
 70
     1
102
RTVSPropertyOp24
 70
     1
102
RTVSPropertyOp25
 70
     1
102
RTVSPropertyOp26
 70
     1
102
RTVSPropertyOp27
 70
     1
102
RTVSPropertyOp28
 70
     1
102
RTVSPropertyOp29
 70
     1
102
RTVSPropertyOp30
 70
     1
102
RTVSPropertyOp31
 70
     1
102
RTVSPropertyOp32
 70
     1
102
RTVSPropertyOp33
 70
     1
102
RTVSPropertyOp34
 70
     1
102
RTVSPropertyOp35
 70
     1
102
RTVSPropertyOp36
 70
     1
102
RTVSPropertyOp37
 70
     1
102
RTVSPropertyOp38
 70
     1
102
RTVSPropertyOp39
 70
     1
102
RTVSPropertyOp40
 70
     1
102
RTVSPropertyOp41
 70
     1
102
RTVSPropertyOp42
 70
     1
102
RTVSPropertyOp43
 70
     1
102
RTVSPropertyOp44
 70
     1
102
RTVSPropertyOp45
 70
     1
102
RTVSPropertyOp46
 70
     1
102
RTVSPropertyOp47
 70
     1
102
RTVSPropertyOp48
 70
     1
102
RTVSPropertyOp49
 70
     1
102
RTVSPropertyOp50
 70
     1
102
RTVSPropertyOp51
 70
     0
102
RTVSPropertyOp52
 70
     0
102
RTVSPropertyOp53
 70
     1
102
RTVSPropertyOp54
 70
     1
102
RTVSPropertyOp55
 70
     1
102
RTVSPropertyOp56
 70
     1
102
RTVSPropertyOp57
 70
     1
102
RTVSPost2010Prop28
280
     0
102
RTVSPost2010PropOp28
 70
     1
102
RTVSPost2010Prop29
280
     1
102
RTVSPost2010PropOp29
 70
     1
102
RTVSPost2010Prop30
280
     1
102
RTVSPost2010PropOp30
 70
     1
102
RTVSPost2010Prop31
280
     0
102
RTVSPost2010PropOp31
 70
     1
102
RTVSPost2010Prop32
280
     0
102
RTVSPost2010PropOp32
 70
     1
102
RTVSPost2010Prop33
280
     0
102
RTVSPost2010PropOp33
 70
     1
102
RTVSPost2010Prop34
280
     0
102
RTVSPost2010PropOp34
 70
     1
102
RTVSPost2010Prop35
280
     0
102
RTVSPost2010PropOp35
 70
     1
102
RTVSPost2010Prop36
280
     0
102
RTVSPost2010PropOp36
 70
     1
102
RTVSPost2010Prop37
 90
       50
102
RTVSPost2010PropOp37
 70
     1
102
RTVSPost2010Prop38
140
0.0
102
RTVSPost2010PropOp38
 70
     1
102
RTVSPost2010Prop39
140
1.0
102
RTVSPost2010PropOp39
 70
     1
102
RTVSPost2010Prop40
 90
        0
102
RTVSPost2010PropOp40
 70
     1
102
RTVSPost2010Prop41ColorIndex
 90
       18
102
RTVSPost2010Prop41ColorRGB
 90
        0
102
RTVSPost2010PropOp41
 70
     1
102
RTVSPost2010Prop42
 90
       50
102
RTVSPost2010PropOp42
 70
     1
102
RTVSPost2010Prop43
 90
        3
102
RTVSPost2010PropOp43
 70
     1
102
RTVSPost2010Prop44ColorIndex
 90
        5
102
RTVSPost2010Prop44ColorRGB
 90
      255
102
RTVSPost2010PropOp44
 70
     1
102
RTVSPost2010Prop45
280
     0
102
RTVSPost2010PropOp45
 70
     1
102
RTVSPost2010Prop46
 90
       50
102
RTVSPost2010PropOp46
 70
     1
102
RTVSPost2010Prop47
 90
       50
102
RTVSPost2010PropOp47
 70
     1
102
RTVSPost2010Prop48
 90
       50
102
RTVSPost2010PropOp48
 70
     1
102
RTVSPost2010Prop49
280
     0
102
RTVSPost2010PropOp49
 70
     1
102
RTVSPost2010Prop50
 90
       50
102
RTVSPost2010PropOp50
 70
     1
102
RTVSPost2010Prop51ColorIndex
 90
      256
102
RTVSPost2010Prop51ColorRGB
 90
-16777216
102
RTVSPost2010PropOp51
 70
     0
102
RTVSPost2010Prop52
140
1.0
102
RTVSPost2010PropOp52
 70
     0
102
RTVSPost2010Prop53
 90
        2
102
RTVSPost2010PropOp53
 70
     1
102
RTVSPost2010Prop54
  1
strokes_ogs.tif
102
RTVSPost2010PropOp54
 70
     1
102
RTVSPost2010Prop55
280
     0
102
RTVSPost2010PropOp55
 70
     1
102
RTVSPost2010Prop56
140
1.0
102
RTVSPost2010PropOp56
 70
     1
102
RTVSPost2010Prop57
140
1.0
102
RTVSPost2010PropOp57
 70
     1
  0
XRECORD
  5
320
102
{ACAD_REACTORS
330
31F
102
}
330
31F
100
AcDbXrecord
280
     1
102
RTVSPropertyOp0
 70
     1
102
RTVSPropertyOp1
 70
     1
102
RTVSPropertyOp2
 70
     1
102
RTVSPropertyOp3
 70
     1
102
RTVSPropertyOp4
 70
     1
102
RTVSPropertyOp5
 70
     1
102
RTVSPropertyOp6
 70
     1
102
RTVSPropertyOp7
 70
     1
102
RTVSPropertyOp8
 70
     1
102
RTVSPropertyOp9
 70
     1
102
RTVSPropertyOp10
 70
     1
102
RTVSPropertyOp11
 70
     1
102
RTVSPropertyOp12
 70
     1
102
RTVSPropertyOp13
 70
     1
102
RTVSPropertyOp14
 70
     1
102
RTVSPropertyOp15
 70
     1
102
RTVSPropertyOp16
 70
     1
102
RTVSPropertyOp17
 70
     1
102
RTVSPropertyOp18
 70
     1
102
RTVSPropertyOp19
 70
     1
102
RTVSPropertyOp20
 70
     1
102
RTVSPropertyOp21
 70
     1
102
RTVSPropertyOp22
 70
     1
102
RTVSPropertyOp23
 70
     1
102
RTVSPropertyOp24
 70
     1
102
RTVSPropertyOp25
 70
     1
102
RTVSPropertyOp26
 70
     1
102
RTVSPropertyOp27
 70
     1
102
RTVSPropertyOp28
 70
     1
102
RTVSPropertyOp29
 70
     1
102
RTVSPropertyOp30
 70
     1
102
RTVSPropertyOp31
 70
     1
102
RTVSPropertyOp32
 70
     1
102
RTVSPropertyOp33
 70
     1
102
RTVSPropertyOp34
 70
     1
102
RTVSPropertyOp35
 70
     1
102
RTVSPropertyOp36
 70
     1
102
RTVSPropertyOp37
 70
     1
102
RTVSPropertyOp38
 70
     1
102
RTVSPropertyOp39
 70
     1
102
RTVSPropertyOp40
 70
     1
102
RTVSPropertyOp41
 70
     1
102
RTVSPropertyOp42
 70
     1
102
RTVSPropertyOp43
 70
     1
102
RTVSPropertyOp44
 70
     1
102
RTVSPropertyOp45
 70
     1
102
RTVSPropertyOp46
 70
     1
102
RTVSPropertyOp47
 70
     1
102
RTVSPropertyOp48
 70
     1
102
RTVSPropertyOp49
 70
     1
102
RTVSPropertyOp50
 70
     1
102
RTVSPropertyOp51
 70
     0
102
RTVSPropertyOp52
 70
     0
102
RTVSPropertyOp53
 70
     1
102
RTVSPropertyOp54
 70
     1
102
RTVSPropertyOp55
 70
     1
102
RTVSPropertyOp56
 70
     1
102
RTVSPropertyOp57
 70
     1
102
RTVSPost2010Prop28
280
     0
102
RTVSPost2010PropOp28
 70
     1
102
RTVSPost2010Prop29
280
     1
102
RTVSPost2010PropOp29
 70
     1
102
RTVSPost2010Prop30
280
     1
102
RTVSPost2010PropOp30
 70
     1
102
RTVSPost2010Prop31
280
     0
102
RTVSPost2010PropOp31
 70
     1
102
RTVSPost2010Prop32
280
     0
102
RTVSPost2010PropOp32
 70
     1
102
RTVSPost2010Prop33
280
     0
102
RTVSPost2010PropOp33
 70
     1
102
RTVSPost2010Prop34
280
     0
102
RTVSPost2010PropOp34
 70
     1
102
RTVSPost2010Prop35
280
     0
102
RTVSPost2010PropOp35
 70
     1
102
RTVSPost2010Prop36
280
     0
102
RTVSPost2010PropOp36
 70
     1
102
RTVSPost2010Prop37
 90
       50
102
RTVSPost2010PropOp37
 70
     1
102
RTVSPost2010Prop38
140
0.0
102
RTVSPost2010PropOp38
 70
     1
102
RTVSPost2010Prop39
140
1.0
102
RTVSPost2010PropOp39
 70
     1
102
RTVSPost2010Prop40
 90
        0
102
RTVSPost2010PropOp40
 70
     1
102
RTVSPost2010Prop41ColorIndex
 90
       18
102
RTVSPost2010Prop41ColorRGB
 90
        0
102
RTVSPost2010PropOp41
 70
     1
102
RTVSPost2010Prop42
 90
       50
102
RTVSPost2010PropOp42
 70
     1
102
RTVSPost2010Prop43
 90
        3
102
RTVSPost2010PropOp43
 70
     1
102
RTVSPost2010Prop44ColorIndex
 90
        5
102
RTVSPost2010Prop44ColorRGB
 90
      255
102
RTVSPost2010PropOp44
 70
     1
102
RTVSPost2010Prop45
280
     0
102
RTVSPost2010PropOp45
 70
     1
102
RTVSPost2010Prop46
 90
       50
102
RTVSPost2010PropOp46
 70
     1
102
RTVSPost2010Prop47
 90
       50
102
RTVSPost2010PropOp47
 70
     1
102
RTVSPost2010Prop48
 90
       50
102
RTVSPost2010PropOp48
 70
     1
102
RTVSPost2010Prop49
280
     0
102
RTVSPost2010PropOp49
 70
     1
102
RTVSPost2010Prop50
 90
       50
102
RTVSPost2010PropOp50
 70
     1
102
RTVSPost2010Prop51ColorIndex
 90
      256
102
RTVSPost2010Prop51ColorRGB
 90
-16777216
102
RTVSPost2010PropOp51
 70
     0
102
RTVSPost2010Prop52
140
1.0
102
RTVSPost2010PropOp52
 70
     0
102
RTVSPost2010Prop53
 90
        2
102
RTVSPost2010PropOp53
 70
     1
102
RTVSPost2010Prop54
  1
strokes_ogs.tif
102
RTVSPost2010PropOp54
 70
     1
102
RTVSPost2010Prop55
280
     0
102
RTVSPost2010PropOp55
 70
     1
102
RTVSPost2010Prop56
140
1.0
102
RTVSPost2010PropOp56
 70
     1
102
RTVSPost2010Prop57
140
1.0
102
RTVSPost2010PropOp57
 70
     1
  0
XRECORD
  5
322
102
{ACAD_REACTORS
330
321
102
}
330
321
100
AcDbXrecord
280
     1
102
RTVSPropertyOp0
 70
     1
102
RTVSPropertyOp1
 70
     1
102
RTVSPropertyOp2
 70
     1
102
RTVSPropertyOp3
 70
     1
102
RTVSPropertyOp4
 70
     1
102
RTVSPropertyOp5
 70
     1
102
RTVSPropertyOp6
 70
     1
102
RTVSPropertyOp7
 70
     1
102
RTVSPropertyOp8
 70
     1
102
RTVSPropertyOp9
 70
     1
102
RTVSPropertyOp10
 70
     1
102
RTVSPropertyOp11
 70
     1
102
RTVSPropertyOp12
 70
     1
102
RTVSPropertyOp13
 70
     1
102
RTVSPropertyOp14
 70
     1
102
RTVSPropertyOp15
 70
     1
102
RTVSPropertyOp16
 70
     1
102
RTVSPropertyOp17
 70
     1
102
RTVSPropertyOp18
 70
     1
102
RTVSPropertyOp19
 70
     1
102
RTVSPropertyOp20
 70
     1
102
RTVSPropertyOp21
 70
     1
102
RTVSPropertyOp22
 70
     1
102
RTVSPropertyOp23
 70
     1
102
RTVSPropertyOp24
 70
     1
102
RTVSPropertyOp25
 70
     1
102
RTVSPropertyOp26
 70
     1
102
RTVSPropertyOp27
 70
     1
102
RTVSPropertyOp28
 70
     1
102
RTVSPropertyOp29
 70
     1
102
RTVSPropertyOp30
 70
     1
102
RTVSPropertyOp31
 70
     1
102
RTVSPropertyOp32
 70
     1
102
RTVSPropertyOp33
 70
     1
102
RTVSPropertyOp34
 70
     1
102
RTVSPropertyOp35
 70
     1
102
RTVSPropertyOp36
 70
     1
102
RTVSPropertyOp37
 70
     1
102
RTVSPropertyOp38
 70
     1
102
RTVSPropertyOp39
 70
     1
102
RTVSPropertyOp40
 70
     1
102
RTVSPropertyOp41
 70
     1
102
RTVSPropertyOp42
 70
     1
102
RTVSPropertyOp43
 70
     1
102
RTVSPropertyOp44
 70
     1
102
RTVSPropertyOp45
 70
     1
102
RTVSPropertyOp46
 70
     1
102
RTVSPropertyOp47
 70
     1
102
RTVSPropertyOp48
 70
     1
102
RTVSPropertyOp49
 70
     1
102
RTVSPropertyOp50
 70
     1
102
RTVSPropertyOp51
 70
     0
102
RTVSPropertyOp52
 70
     0
102
RTVSPropertyOp53
 70
     1
102
RTVSPropertyOp54
 70
     1
102
RTVSPropertyOp55
 70
     1
102
RTVSPropertyOp56
 70
     1
102
RTVSPropertyOp57
 70
     1
102
RTVSPost2010Prop28
280
     0
102
RTVSPost2010PropOp28
 70
     1
102
RTVSPost2010Prop29
280
     1
102
RTVSPost2010PropOp29
 70
     1
102
RTVSPost2010Prop30
280
     1
102
RTVSPost2010PropOp30
 70
     1
102
RTVSPost2010Prop31
280
     0
102
RTVSPost2010PropOp31
 70
     1
102
RTVSPost2010Prop32
280
     0
102
RTVSPost2010PropOp32
 70
     1
102
RTVSPost2010Prop33
280
     0
102
RTVSPost2010PropOp33
 70
     1
102
RTVSPost2010Prop34
280
     0
102
RTVSPost2010PropOp34
 70
     1
102
RTVSPost2010Prop35
280
     0
102
RTVSPost2010PropOp35
 70
     1
102
RTVSPost2010Prop36
280
     0
102
RTVSPost2010PropOp36
 70
     1
102
RTVSPost2010Prop37
 90
       50
102
RTVSPost2010PropOp37
 70
     1
102
RTVSPost2010Prop38
140
0.0
102
RTVSPost2010PropOp38
 70
     1
102
RTVSPost2010Prop39
140
1.0
102
RTVSPost2010PropOp39
 70
     1
102
RTVSPost2010Prop40
 90
        0
102
RTVSPost2010PropOp40
 70
     1
102
RTVSPost2010Prop41ColorIndex
 90
       18
102
RTVSPost2010Prop41ColorRGB
 90
        0
102
RTVSPost2010PropOp41
 70
     1
102
RTVSPost2010Prop42
 90
       50
102
RTVSPost2010PropOp42
 70
     1
102
RTVSPost2010Prop43
 90
        3
102
RTVSPost2010PropOp43
 70
     1
102
RTVSPost2010Prop44ColorIndex
 90
        5
102
RTVSPost2010Prop44ColorRGB
 90
      255
102
RTVSPost2010PropOp44
 70
     1
102
RTVSPost2010Prop45
280
     0
102
RTVSPost2010PropOp45
 70
     1
102
RTVSPost2010Prop46
 90
       50
102
RTVSPost2010PropOp46
 70
     1
102
RTVSPost2010Prop47
 90
       50
102
RTVSPost2010PropOp47
 70
     1
102
RTVSPost2010Prop48
 90
       50
102
RTVSPost2010PropOp48
 70
     1
102
RTVSPost2010Prop49
280
     0
102
RTVSPost2010PropOp49
 70
     1
102
RTVSPost2010Prop50
 90
       50
102
RTVSPost2010PropOp50
 70
     1
102
RTVSPost2010Prop51ColorIndex
 90
      256
102
RTVSPost2010Prop51ColorRGB
 90
-16777216
102
RTVSPost2010PropOp51
 70
     0
102
RTVSPost2010Prop52
140
1.0
102
RTVSPost2010PropOp52
 70
     0
102
RTVSPost2010Prop53
 90
        2
102
RTVSPost2010PropOp53
 70
     1
102
RTVSPost2010Prop54
  1
strokes_ogs.tif
102
RTVSPost2010PropOp54
 70
     1
102
RTVSPost2010Prop55
280
     0
102
RTVSPost2010PropOp55
 70
     1
102
RTVSPost2010Prop56
140
1.0
102
RTVSPost2010PropOp56
 70
     1
102
RTVSPost2010Prop57
140
1.0
102
RTVSPost2010PropOp57
 70
     1
  0
XRECORD
  5
312
102
{ACAD_REACTORS
330
311
102
}
330
311
100
AcDbXrecord
280
     1
102
RTVSPropertyOp0
 70
     1
102
RTVSPropertyOp1
 70
     1
102
RTVSPropertyOp2
 70
     1
102
RTVSPropertyOp3
 70
     1
102
RTVSPropertyOp4
 70
     1
102
RTVSPropertyOp5
 70
     1
102
RTVSPropertyOp6
 70
     1
102
RTVSPropertyOp7
 70
     1
102
RTVSPropertyOp8
 70
     1
102
RTVSPropertyOp9
 70
     1
102
RTVSPropertyOp10
 70
     1
102
RTVSPropertyOp11
 70
     1
102
RTVSPropertyOp12
 70
     1
102
RTVSPropertyOp13
 70
     1
102
RTVSPropertyOp14
 70
     1
102
RTVSPropertyOp15
 70
     1
102
RTVSPropertyOp16
 70
     1
102
RTVSPropertyOp17
 70
     1
102
RTVSPropertyOp18
 70
     1
102
RTVSPropertyOp19
 70
     1
102
RTVSPropertyOp20
 70
     1
102
RTVSPropertyOp21
 70
     1
102
RTVSPropertyOp22
 70
     1
102
RTVSPropertyOp23
 70
     1
102
RTVSPropertyOp24
 70
     1
102
RTVSPropertyOp25
 70
     1
102
RTVSPropertyOp26
 70
     1
102
RTVSPropertyOp27
 70
     1
102
RTVSPropertyOp28
 70
     1
102
RTVSPropertyOp29
 70
     1
102
RTVSPropertyOp30
 70
     1
102
RTVSPropertyOp31
 70
     1
102
RTVSPropertyOp32
 70
     1
102
RTVSPropertyOp33
 70
     1
102
RTVSPropertyOp34
 70
     1
102
RTVSPropertyOp35
 70
     1
102
RTVSPropertyOp36
 70
     1
102
RTVSPropertyOp37
 70
     1
102
RTVSPropertyOp38
 70
     1
102
RTVSPropertyOp39
 70
     1
102
RTVSPropertyOp40
 70
     1
102
RTVSPropertyOp41
 70
     1
102
RTVSPropertyOp42
 70
     1
102
RTVSPropertyOp43
 70
     1
102
RTVSPropertyOp44
 70
     1
102
RTVSPropertyOp45
 70
     1
102
RTVSPropertyOp46
 70
     1
102
RTVSPropertyOp47
 70
     1
102
RTVSPropertyOp48
 70
     1
102
RTVSPropertyOp49
 70
     1
102
RTVSPropertyOp50
 70
     1
102
RTVSPropertyOp51
 70
     0
102
RTVSPropertyOp52
 70
     0
102
RTVSPropertyOp53
 70
     1
102
RTVSPropertyOp54
 70
     1
102
RTVSPropertyOp55
 70
     1
102
RTVSPropertyOp56
 70
     1
102
RTVSPropertyOp57
 70
     1
102
RTVSPost2010Prop28
280
     0
102
RTVSPost2010PropOp28
 70
     1
102
RTVSPost2010Prop29
280
     1
102
RTVSPost2010PropOp29
 70
     1
102
RTVSPost2010Prop30
280
     1
102
RTVSPost2010PropOp30
 70
     1
102
RTVSPost2010Prop31
280
     0
102
RTVSPost2010PropOp31
 70
     1
102
RTVSPost2010Prop32
280
     0
102
RTVSPost2010PropOp32
 70
     1
102
RTVSPost2010Prop33
280
     0
102
RTVSPost2010PropOp33
 70
     1
102
RTVSPost2010Prop34
280
     0
102
RTVSPost2010PropOp34
 70
     1
102
RTVSPost2010Prop35
280
     0
102
RTVSPost2010PropOp35
 70
     1
102
RTVSPost2010Prop36
280
     0
102
RTVSPost2010PropOp36
 70
     1
102
RTVSPost2010Prop37
 90
       50
102
RTVSPost2010PropOp37
 70
     1
102
RTVSPost2010Prop38
140
0.0
102
RTVSPost2010PropOp38
 70
     1
102
RTVSPost2010Prop39
140
1.0
102
RTVSPost2010PropOp39
 70
     1
102
RTVSPost2010Prop40
 90
        0
102
RTVSPost2010PropOp40
 70
     1
102
RTVSPost2010Prop41ColorIndex
 90
       18
102
RTVSPost2010Prop41ColorRGB
 90
        0
102
RTVSPost2010PropOp41
 70
     1
102
RTVSPost2010Prop42
 90
       50
102
RTVSPost2010PropOp42
 70
     1
102
RTVSPost2010Prop43
 90
        3
102
RTVSPost2010PropOp43
 70
     1
102
RTVSPost2010Prop44ColorIndex
 90
        5
102
RTVSPost2010Prop44ColorRGB
 90
      255
102
RTVSPost2010PropOp44
 70
     1
102
RTVSPost2010Prop45
280
     0
102
RTVSPost2010PropOp45
 70
     1
102
RTVSPost2010Prop46
 90
       50
102
RTVSPost2010PropOp46
 70
     1
102
RTVSPost2010Prop47
 90
       50
102
RTVSPost2010PropOp47
 70
     1
102
RTVSPost2010Prop48
 90
       50
102
RTVSPost2010PropOp48
 70
     1
102
RTVSPost2010Prop49
280
     0
102
RTVSPost2010PropOp49
 70
     1
102
RTVSPost2010Prop50
 90
       50
102
RTVSPost2010PropOp50
 70
     1
102
RTVSPost2010Prop51ColorIndex
 90
      256
102
RTVSPost2010Prop51ColorRGB
 90
-16777216
102
RTVSPost2010PropOp51
 70
     0
102
RTVSPost2010Prop52
140
1.0
102
RTVSPost2010PropOp52
 70
     0
102
RTVSPost2010Prop53
 90
        2
102
RTVSPost2010PropOp53
 70
     1
102
RTVSPost2010Prop54
  1
strokes_ogs.tif
102
RTVSPost2010PropOp54
 70
     1
102
RTVSPost2010Prop55
280
     0
102
RTVSPost2010PropOp55
 70
     1
102
RTVSPost2010Prop56
140
1.0
102
RTVSPost2010PropOp56
 70
     1
102
RTVSPost2010Prop57
140
1.0
102
RTVSPost2010PropOp57
 70
     1
  0
XRECORD
  5
304
102
{ACAD_REACTORS
330
303
102
}
330
303
100
AcDbXrecord
280
     1
102
RTVSPropertyOp0
 70
     1
102
RTVSPropertyOp1
 70
     1
102
RTVSPropertyOp2
 70
     1
102
RTVSPropertyOp3
 70
     1
102
RTVSPropertyOp4
 70
     1
102
RTVSPropertyOp5
 70
     1
102
RTVSPropertyOp6
 70
     1
102
RTVSPropertyOp7
 70
     1
102
RTVSPropertyOp8
 70
     1
102
RTVSPropertyOp9
 70
     1
102
RTVSPropertyOp10
 70
     1
102
RTVSPropertyOp11
 70
     1
102
RTVSPropertyOp12
 70
     1
102
RTVSPropertyOp13
 70
     1
102
RTVSPropertyOp14
 70
     1
102
RTVSPropertyOp15
 70
     1
102
RTVSPropertyOp16
 70
     1
102
RTVSPropertyOp17
 70
     1
102
RTVSPropertyOp18
 70
     1
102
RTVSPropertyOp19
 70
     1
102
RTVSPropertyOp20
 70
     1
102
RTVSPropertyOp21
 70
     1
102
RTVSPropertyOp22
 70
     1
102
RTVSPropertyOp23
 70
     1
102
RTVSPropertyOp24
 70
     1
102
RTVSPropertyOp25
 70
     1
102
RTVSPropertyOp26
 70
     1
102
RTVSPropertyOp27
 70
     1
102
RTVSPropertyOp28
 70
     1
102
RTVSPropertyOp29
 70
     1
102
RTVSPropertyOp30
 70
     1
102
RTVSPropertyOp31
 70
     1
102
RTVSPropertyOp32
 70
     1
102
RTVSPropertyOp33
 70
     1
102
RTVSPropertyOp34
 70
     1
102
RTVSPropertyOp35
 70
     1
102
RTVSPropertyOp36
 70
     1
102
RTVSPropertyOp37
 70
     1
102
RTVSPropertyOp38
 70
     1
102
RTVSPropertyOp39
 70
     1
102
RTVSPropertyOp40
 70
     1
102
RTVSPropertyOp41
 70
     1
102
RTVSPropertyOp42
 70
     1
102
RTVSPropertyOp43
 70
     1
102
RTVSPropertyOp44
 70
     1
102
RTVSPropertyOp45
 70
     1
102
RTVSPropertyOp46
 70
     1
102
RTVSPropertyOp47
 70
     1
102
RTVSPropertyOp48
 70
     1
102
RTVSPropertyOp49
 70
     1
102
RTVSPropertyOp50
 70
     1
102
RTVSPropertyOp51
 70
     0
102
RTVSPropertyOp52
 70
     0
102
RTVSPropertyOp53
 70
     1
102
RTVSPropertyOp54
 70
     1
102
RTVSPropertyOp55
 70
     1
102
RTVSPropertyOp56
 70
     1
102
RTVSPropertyOp57
 70
     1
102
RTVSPost2010Prop28
280
     0
102
RTVSPost2010PropOp28
 70
     1
102
RTVSPost2010Prop29
280
     1
102
RTVSPost2010PropOp29
 70
     1
102
RTVSPost2010Prop30
280
     1
102
RTVSPost2010PropOp30
 70
     1
102
RTVSPost2010Prop31
280
     0
102
RTVSPost2010PropOp31
 70
     1
102
RTVSPost2010Prop32
280
     0
102
RTVSPost2010PropOp32
 70
     1
102
RTVSPost2010Prop33
280
     0
102
RTVSPost2010PropOp33
 70
     1
102
RTVSPost2010Prop34
280
     0
102
RTVSPost2010PropOp34
 70
     1
102
RTVSPost2010Prop35
280
     0
102
RTVSPost2010PropOp35
 70
     1
102
RTVSPost2010Prop36
280
     0
102
RTVSPost2010PropOp36
 70
     1
102
RTVSPost2010Prop37
 90
       50
102
RTVSPost2010PropOp37
 70
     1
102
RTVSPost2010Prop38
140
0.0
102
RTVSPost2010PropOp38
 70
     1
102
RTVSPost2010Prop39
140
1.0
102
RTVSPost2010PropOp39
 70
     1
102
RTVSPost2010Prop40
 90
        0
102
RTVSPost2010PropOp40
 70
     1
102
RTVSPost2010Prop41ColorIndex
 90
       18
102
RTVSPost2010Prop41ColorRGB
 90
        0
102
RTVSPost2010PropOp41
 70
     1
102
RTVSPost2010Prop42
 90
       50
102
RTVSPost2010PropOp42
 70
     1
102
RTVSPost2010Prop43
 90
        3
102
RTVSPost2010PropOp43
 70
     1
102
RTVSPost2010Prop44ColorIndex
 90
        5
102
RTVSPost2010Prop44ColorRGB
 90
      255
102
RTVSPost2010PropOp44
 70
     1
102
RTVSPost2010Prop45
280
     0
102
RTVSPost2010PropOp45
 70
     1
102
RTVSPost2010Prop46
 90
       50
102
RTVSPost2010PropOp46
 70
     1
102
RTVSPost2010Prop47
 90
       50
102
RTVSPost2010PropOp47
 70
     1
102
RTVSPost2010Prop48
 90
       50
102
RTVSPost2010PropOp48
 70
     1
102
RTVSPost2010Prop49
280
     0
102
RTVSPost2010PropOp49
 70
     1
102
RTVSPost2010Prop50
 90
       50
102
RTVSPost2010PropOp50
 70
     1
102
RTVSPost2010Prop51ColorIndex
 90
      256
102
RTVSPost2010Prop51ColorRGB
 90
-16777216
102
RTVSPost2010PropOp51
 70
     0
102
RTVSPost2010Prop52
140
1.0
102
RTVSPost2010PropOp52
 70
     0
102
RTVSPost2010Prop53
 90
        2
102
RTVSPost2010PropOp53
 70
     1
102
RTVSPost2010Prop54
  1
strokes_ogs.tif
102
RTVSPost2010PropOp54
 70
     1
102
RTVSPost2010Prop55
280
     0
102
RTVSPost2010PropOp55
 70
     1
102
RTVSPost2010Prop56
140
1.0
102
RTVSPost2010PropOp56
 70
     1
102
RTVSPost2010Prop57
140
1.0
102
RTVSPost2010PropOp57
 70
     1
  0
XRECORD
  5
324
102
{ACAD_REACTORS
330
323
102
}
330
323
100
AcDbXrecord
280
     1
102
RTVSPropertyOp0
 70
     1
102
RTVSPropertyOp1
 70
     1
102
RTVSPropertyOp2
 70
     1
102
RTVSPropertyOp3
 70
     1
102
RTVSPropertyOp4
 70
     1
102
RTVSPropertyOp5
 70
     1
102
RTVSPropertyOp6
 70
     1
102
RTVSPropertyOp7
 70
     1
102
RTVSPropertyOp8
 70
     1
102
RTVSPropertyOp9
 70
     1
102
RTVSPropertyOp10
 70
     1
102
RTVSPropertyOp11
 70
     1
102
RTVSPropertyOp12
 70
     1
102
RTVSPropertyOp13
 70
     1
102
RTVSPropertyOp14
 70
     1
102
RTVSPropertyOp15
 70
     1
102
RTVSPropertyOp16
 70
     1
102
RTVSPropertyOp17
 70
     1
102
RTVSPropertyOp18
 70
     1
102
RTVSPropertyOp19
 70
     1
102
RTVSPropertyOp20
 70
     1
102
RTVSPropertyOp21
 70
     1
102
RTVSPropertyOp22
 70
     1
102
RTVSPropertyOp23
 70
     1
102
RTVSPropertyOp24
 70
     1
102
RTVSPropertyOp25
 70
     1
102
RTVSPropertyOp26
 70
     1
102
RTVSPropertyOp27
 70
     1
102
RTVSPropertyOp28
 70
     1
102
RTVSPropertyOp29
 70
     1
102
RTVSPropertyOp30
 70
     1
102
RTVSPropertyOp31
 70
     1
102
RTVSPropertyOp32
 70
     1
102
RTVSPropertyOp33
 70
     1
102
RTVSPropertyOp34
 70
     1
102
RTVSPropertyOp35
 70
     1
102
RTVSPropertyOp36
 70
     1
102
RTVSPropertyOp37
 70
     1
102
RTVSPropertyOp38
 70
     1
102
RTVSPropertyOp39
 70
     1
102
RTVSPropertyOp40
 70
     1
102
RTVSPropertyOp41
 70
     1
102
RTVSPropertyOp42
 70
     1
102
RTVSPropertyOp43
 70
     1
102
RTVSPropertyOp44
 70
     1
102
RTVSPropertyOp45
 70
     1
102
RTVSPropertyOp46
 70
     1
102
RTVSPropertyOp47
 70
     1
102
RTVSPropertyOp48
 70
     1
102
RTVSPropertyOp49
 70
     1
102
RTVSPropertyOp50
 70
     1
102
RTVSPropertyOp51
 70
     0
102
RTVSPropertyOp52
 70
     0
102
RTVSPropertyOp53
 70
     1
102
RTVSPropertyOp54
 70
     1
102
RTVSPropertyOp55
 70
     1
102
RTVSPropertyOp56
 70
     1
102
RTVSPropertyOp57
 70
     1
102
RTVSPost2010Prop28
280
     0
102
RTVSPost2010PropOp28
 70
     1
102
RTVSPost2010Prop29
280
     1
102
RTVSPost2010PropOp29
 70
     1
102
RTVSPost2010Prop30
280
     1
102
RTVSPost2010PropOp30
 70
     1
102
RTVSPost2010Prop31
280
     0
102
RTVSPost2010PropOp31
 70
     1
102
RTVSPost2010Prop32
280
     0
102
RTVSPost2010PropOp32
 70
     1
102
RTVSPost2010Prop33
280
     0
102
RTVSPost2010PropOp33
 70
     1
102
RTVSPost2010Prop34
280
     0
102
RTVSPost2010PropOp34
 70
     1
102
RTVSPost2010Prop35
280
     0
102
RTVSPost2010PropOp35
 70
     1
102
RTVSPost2010Prop36
280
     0
102
RTVSPost2010PropOp36
 70
     1
102
RTVSPost2010Prop37
 90
       50
102
RTVSPost2010PropOp37
 70
     1
102
RTVSPost2010Prop38
140
0.0
102
RTVSPost2010PropOp38
 70
     1
102
RTVSPost2010Prop39
140
1.0
102
RTVSPost2010PropOp39
 70
     1
102
RTVSPost2010Prop40
 90
        0
102
RTVSPost2010PropOp40
 70
     1
102
RTVSPost2010Prop41ColorIndex
 90
       18
102
RTVSPost2010Prop41ColorRGB
 90
        0
102
RTVSPost2010PropOp41
 70
     1
102
RTVSPost2010Prop42
 90
       50
102
RTVSPost2010PropOp42
 70
     1
102
RTVSPost2010Prop43
 90
        3
102
RTVSPost2010PropOp43
 70
     1
102
RTVSPost2010Prop44ColorIndex
 90
        5
102
RTVSPost2010Prop44ColorRGB
 90
      255
102
RTVSPost2010PropOp44
 70
     1
102
RTVSPost2010Prop45
280
     0
102
RTVSPost2010PropOp45
 70
     1
102
RTVSPost2010Prop46
 90
       50
102
RTVSPost2010PropOp46
 70
     1
102
RTVSPost2010Prop47
 90
       50
102
RTVSPost2010PropOp47
 70
     1
102
RTVSPost2010Prop48
 90
       50
102
RTVSPost2010PropOp48
 70
     1
102
RTVSPost2010Prop49
280
     0
102
RTVSPost2010PropOp49
 70
     1
102
RTVSPost2010Prop50
 90
       50
102
RTVSPost2010PropOp50
 70
     1
102
RTVSPost2010Prop51ColorIndex
 90
      256
102
RTVSPost2010Prop51ColorRGB
 90
-16777216
102
RTVSPost2010PropOp51
 70
     0
102
RTVSPost2010Prop52
140
1.0
102
RTVSPost2010PropOp52
 70
     0
102
RTVSPost2010Prop53
 90
        2
102
RTVSPost2010PropOp53
 70
     1
102
RTVSPost2010Prop54
  1
strokes_ogs.tif
102
RTVSPost2010PropOp54
 70
     1
102
RTVSPost2010Prop55
280
     0
102
RTVSPost2010PropOp55
 70
     1
102
RTVSPost2010Prop56
140
1.0
102
RTVSPost2010PropOp56
 70
     1
102
RTVSPost2010Prop57
140
1.0
102
RTVSPost2010PropOp57
 70
     1
  0
ENDSEC
  0
EOF
