  0
SECTION
  2
HEADER
  9
$ACADVER
  1
AC1018
  9
$ACADMAINTVER
 70
     0
  9
$DWGCODEPAGE
  3
ANSI_932
  9
$INSBASE
 10
0.0
 20
0.0
 30
0.0
  9
$EXTMIN
 10
-1050.0
 20
-742.5
 30
0.0
  9
$EXTMAX
 10
1050.0
 20
742.5
 30
0.0
  9
$LIMMIN
 10
-1050.0
 20
-742.5
  9
$LIMMAX
 10
1050.0
 20
742.5
  9
$ORTHOMODE
 70
     0
  9
$REGENMODE
 70
     1
  9
$FILLMODE
 70
     1
  9
$QTEXTMODE
 70
     0
  9
$MIRRTEXT
 70
     1
  9
$LTSCALE
 40
5.0
  9
$ATTMODE
 70
     1
  9
$TEXTSIZE
 40
2.5
  9
$TRACEWID
 40
1.0
  9
$TEXTSTYLE
  7
Standard
  9
$CLAYER
  8
0
  9
$CELTYPE
  6
ByLayer
  9
$CECOLOR
 62
   256
  9
$CELTSCALE
 40
1.0
  9
$DISPSILH
 70
     0
  9
$DIMSCALE
 40
1.0
  9
$DIMASZ
 40
2.5
  9
$DIMEXO
 40
0.625
  9
$DIMDLI
 40
3.75
  9
$DIMRND
 40
0.0
  9
$DIMDLE
 40
0.0
  9
$DIMEXE
 40
1.25
  9
$DIMTP
 40
0.0
  9
$DIMTM
 40
0.0
  9
$DIMTXT
 40
2.5
  9
$DIMCEN
 40
2.5
  9
$DIMTSZ
 40
0.0
  9
$DIMTOL
 70
     0
  9
$DIMLIM
 70
     0
  9
$DIMTIH
 70
     0
  9
$DIMTOH
 70
     0
  9
$DIMSE1
 70
     0
  9
$DIMSE2
 70
     0
  9
$DIMTAD
 70
     1
  9
$DIMZIN
 70
     8
  9
$DIMBLK
  1

  9
$DIMASO
 70
     1
  9
$DIMSHO
 70
     1
  9
$DIMPOST
  1

  9
$DIMAPOST
  1

  9
$DIMALT
 70
     0
  9
$DIMALTD
 70
     3
  9
$DIMALTF
 40
0.03937007874016
  9
$DIMLFAC
 40
1.0
  9
$DIMTOFL
 70
     1
  9
$DIMTVP
 40
0.0
  9
$DIMTIX
 70
     0
  9
$DIMSOXD
 70
     0
  9
$DIMSAH
 70
     0
  9
$DIMBLK1
  1

  9
$DIMBLK2
  1

  9
$DIMSTYLE
  2
ISO-25
  9
$DIMCLRD
 70
     0
  9
$DIMCLRE
 70
     0
  9
$DIMCLRT
 70
     0
  9
$DIMTFAC
 40
1.0
  9
$DIMGAP
 40
0.625
  9
$DIMJUST
 70
     0
  9
$DIMSD1
 70
     0
  9
$DIMSD2
 70
     0
  9
$DIMTOLJ
 70
     0
  9
$DIMTZIN
 70
     8
  9
$DIMALTZ
 70
     0
  9
$DIMALTTZ
 70
     0
  9
$DIMUPT
 70
     0
  9
$DIMDEC
 70
     2
  9
$DIMTDEC
 70
     2
  9
$DIMALTU
 70
     2
  9
$DIMALTTD
 70
     3
  9
$DIMTXSTY
  7
Standard
  9
$DIMAUNIT
 70
     0
  9
$DIMADEC
 70
     0
  9
$DIMALTRND
 40
0.0
  9
$DIMAZIN
 70
     0
  9
$DIMDSEP
 70
    44
  9
$DIMATFIT
 70
     3
  9
$DIMFRAC
 70
     0
  9
$DIMLDRBLK
  1

  9
$DIMLUNIT
 70
     2
  9
$DIMLWD
 70
    -2
  9
$DIMLWE
 70
    -2
  9
$DIMTMOVE
 70
     0
  9
$LUNITS
 70
     2
  9
$LUPREC
 70
     4
  9
$SKETCHINC
 40
1.0
  9
$FILLETRAD
 40
10.0
  9
$AUNITS
 70
     0
  9
$AUPREC
 70
     0
  9
$MENU
  1
.
  9
$ELEVATION
 40
0.0
  9
$PELEVATION
 40
0.0
  9
$THICKNESS
 40
0.0
  9
$LIMCHECK
 70
     0
  9
$CHAMFERA
 40
0.0
  9
$CHAMFERB
 40
0.0
  9
$CHAMFERC
 40
0.0
  9
$CHAMFERD
 40
0.0
  9
$SKPOLY
 70
     0
  9
$TDCREATE
 40
2459480.477547165
  9
$TDUCREATE
 40
2459480.102547165
  9
$TDUPDATE
 40
2459480.477547246
  9
$TDUUPDATE
 40
2459480.102547246
  9
$TDINDWG
 40
0.0000000116
  9
$TDUSRTIMER
 40
0.0000000116
  9
$USRTIMER
 70
     1
  9
$ANGBASE
 50
0.0
  9
$ANGDIR
 70
     0
  9
$PDMODE
 70
     0
  9
$PDSIZE
 40
0.0
  9
$PLINEWID
 40
0.0
  9
$SPLFRAME
 70
     0
  9
$SPLINETYPE
 70
     6
  9
$SPLINESEGS
 70
     8
  9
$HANDSEED
  5
2AC
  9
$SURFTAB1
 70
     6
  9
$SURFTAB2
 70
     6
  9
$SURFTYPE
 70
     6
  9
$SURFU
 70
     6
  9
$SURFV
 70
     6
  9
$UCSBASE
  2

  9
$UCSNAME
  2

  9
$UCSORG
 10
0.0
 20
0.0
 30
0.0
  9
$UCSXDIR
 10
1.0
 20
0.0
 30
0.0
  9
$UCSYDIR
 10
0.0
 20
1.0
 30
0.0
  9
$UCSORTHOREF
  2

  9
$UCSORTHOVIEW
 70
     0
  9
$UCSORGTOP
 10
0.0
 20
0.0
 30
0.0
  9
$UCSORGBOTTOM
 10
0.0
 20
0.0
 30
0.0
  9
$UCSORGLEFT
 10
0.0
 20
0.0
 30
0.0
  9
$UCSORGRIGHT
 10
0.0
 20
0.0
 30
0.0
  9
$UCSORGFRONT
 10
0.0
 20
0.0
 30
0.0
  9
$UCSORGBACK
 10
0.0
 20
0.0
 30
0.0
  9
$PUCSBASE
  2

  9
$PUCSNAME
  2

  9
$PUCSORG
 10
0.0
 20
0.0
 30
0.0
  9
$PUCSXDIR
 10
1.0
 20
0.0
 30
0.0
  9
$PUCSYDIR
 10
0.0
 20
1.0
 30
0.0
  9
$PUCSORTHOREF
  2

  9
$PUCSORTHOVIEW
 70
     0
  9
$PUCSORGTOP
 10
0.0
 20
0.0
 30
0.0
  9
$PUCSORGBOTTOM
 10
0.0
 20
0.0
 30
0.0
  9
$PUCSORGLEFT
 10
0.0
 20
0.0
 30
0.0
  9
$PUCSORGRIGHT
 10
0.0
 20
0.0
 30
0.0
  9
$PUCSORGFRONT
 10
0.0
 20
0.0
 30
0.0
  9
$PUCSORGBACK
 10
0.0
 20
0.0
 30
0.0
  9
$USERI1
 70
     0
  9
$USERI2
 70
     0
  9
$USERI3
 70
     0
  9
$USERI4
 70
     0
  9
$USERI5
 70
     0
  9
$USERR1
 40
0.0
  9
$USERR2
 40
0.0
  9
$USERR3
 40
0.0
  9
$USERR4
 40
0.0
  9
$USERR5
 40
0.0
  9
$WORLDVIEW
 70
     1
  9
$SHADEDGE
 70
     3
  9
$SHADEDIF
 70
    70
  9
$TILEMODE
 70
     1
  9
$MAXACTVP
 70
    64
  9
$PINSBASE
 10
0.0
 20
0.0
 30
0.0
  9
$PLIMCHECK
 70
     0
  9
$PEXTMIN
 10
1.000000000000000E+20
 20
1.000000000000000E+20
 30
1.000000000000000E+20
  9
$PEXTMAX
 10
-1.000000000000000E+20
 20
-1.000000000000000E+20
 30
-1.000000000000000E+20
  9
$PLIMMIN
 10
0.0
 20
0.0
  9
$PLIMMAX
 10
420.0
 20
297.0
  9
$UNITMODE
 70
     0
  9
$VISRETAIN
 70
     1
  9
$PLINEGEN
 70
     0
  9
$PSLTSCALE
 70
     1
  9
$TREEDEPTH
 70
  3020
  9
$CMLSTYLE
  2
Standard
  9
$CMLJUST
 70
     0
  9
$CMLSCALE
 40
20.0
  9
$PROXYGRAPHICS
 70
     1
  9
$MEASUREMENT
 70
     1
  9
$CELWEIGHT
370
    -1
  9
$ENDCAPS
280
     0
  9
$JOINSTYLE
280
     0
  9
$LWDISPLAY
290
     0
  9
$INSUNITS
 70
     4
  9
$HYPERLINKBASE
  1

  9
$STYLESHEET
  1

  9
$XEDIT
290
     1
  9
$CEPSNTYPE
380
     0
  9
$PSTYLEMODE
290
     1
  9
$FINGERPRINTGUID
  2
{2D8933AB-B005-45B3-AA60-F2071BEDF4AC}
  9
$VERSIONGUID
  2
{FAEB1C32-E019-11D5-929B-00C0DF256EC4}
  9
$EXTNAMES
290
     1
  9
$PSVPSCALE
 40
0.0
  9
$OLESTARTUP
290
     0
  9
$SORTENTS
280
   127
  9
$INDEXCTL
280
     0
  9
$HIDETEXT
280
     1
  9
$XCLIPFRAME
290
     0
  9
$HALOGAP
280
     0
  9
$OBSCOLOR
 70
   257
  9
$OBSLTYPE
280
     0
  9
$INTERSECTIONDISPLAY
280
     0
  9
$INTERSECTIONCOLOR
 70
   257
  9
$DIMASSOC
280
     2
  9
$PROJECTNAME
  1

  0
ENDSEC
  0
SECTION
  2
CLASSES
  0
CLASS
  1
ACDBDICTIONARYWDFLT
  2
AcDbDictionaryWithDefault
  3
ObjectDBX Classes
 90
        0
 91
        4
280
     0
281
     0
  0
CLASS
  1
VISUALSTYLE
  2
AcDbVisualStyle
  3
ObjectDBX Classes
 90
     4095
 91
        4
280
     0
281
     0
  0
CLASS
  1
MATERIAL
  2
AcDbMaterial
  3
ObjectDBX Classes
 90
     1153
 91
        4
280
     0
281
     0
  0
CLASS
  1
SCALE
  2
AcDbScale
  3
ObjectDBX Classes
 90
     1153
 91
        4
280
     0
281
     0
  0
CLASS
  1
TABLESTYLE
  2
AcDbTableStyle
  3
ObjectDBX Classes
 90
     4095
 91
        4
280
     0
281
     0
  0
CLASS
  1
MLEADERSTYLE
  2
AcDbMLeaderStyle
  3
ACDB_MLEADERSTYLE_CLASS
 90
     4095
 91
        4
280
     0
281
     0
  0
CLASS
  1
SUN
  2
AcDbSun
  3
SCENEOE
 90
     1153
 91
        4
280
     0
281
     0
  0
CLASS
  1
DICTIONARYVAR
  2
AcDbDictionaryVar
  3
ObjectDBX Classes
 90
        0
 91
        4
280
     0
281
     0
  0
CLASS
  1
CELLSTYLEMAP
  2
AcDbCellStyleMap
  3
ObjectDBX Classes
 90
     1152
 91
        4
280
     0
281
     0
  0
ENDSEC
  0
SECTION
  2
TABLES
  0
TABLE
  2
VPORT
  5
8
102
{ACAD_XDICTIONARY
360
263
102
}
330
0
100
AcDbSymbolTable
 70
     1
  0
VPORT
  5
29
330
8
100
AcDbSymbolTableRecord
100
AcDbViewportTableRecord
  2
*Active
 70
     0
 10
0.0
 20
0.0
 11
1.0
 21
1.0
 12
0.0
 22
0.0
 13
0.0
 23
0.0
 14
10.0
 24
10.0
 15
10.0
 25
10.0
 16
0.0
 26
0.0
 36
1.0
 17
0.0
 27
0.0
 37
0.0
 40
1633.5
 41
1.414141414141414
 42
50.0
 43
0.0
 44
0.0
 50
0.0
 51
0.0
 71
     0
 72
 10000
 73
     1
 74
     3
 75
     0
 76
     0
 77
     0
 78
     0
281
     0
 65
     1
110
0.0
120
0.0
130
0.0
111
1.0
121
0.0
131
0.0
112
0.0
122
1.0
132
0.0
 79
     0
146
0.0
  0
ENDTAB
  0
TABLE
  2
LTYPE
  5
5
330
0
100
AcDbSymbolTable
 70
     5
  0
LTYPE
  5
14
330
5
100
AcDbSymbolTableRecord
100
AcDbLinetypeTableRecord
  2
ByBlock
 70
     0
  3

 72
    65
 73
     0
 40
0.0
  0
LTYPE
  5
15
330
5
100
AcDbSymbolTableRecord
100
AcDbLinetypeTableRecord
  2
ByLayer
 70
     0
  3

 72
    65
 73
     0
 40
0.0
  0
LTYPE
  5
16
330
5
100
AcDbSymbolTableRecord
100
AcDbLinetypeTableRecord
  2
Continuous
 70
     0
  3
Solid line
 72
    65
 73
     0
 40
0.0
  0
LTYPE
  5
6F
330
5
100
AcDbSymbolTableRecord
100
AcDbLinetypeTableRecord
  2
JWW_DASHED3
 70
     0
  3
---  ------  ------  ------  ---
 72
    65
 73
     2
 40
3.386666666666667
 49
2.54
 74
     0
 49
-0.8466666666666667
 74
     0
  0
LTYPE
  5
70
330
5
100
AcDbSymbolTableRecord
100
AcDbLinetypeTableRecord
  2
JWW_HOJO
 70
     0
  3
  -   -   -   -   -   -   -   - 
 72
    65
 73
     2
 40
1.693333333333333
 49
-1.27
 74
     0
 49
0.4233333333333333
 74
     0
  0
LTYPE
  5
71
330
5
100
AcDbSymbolTableRecord
100
AcDbLinetypeTableRecord
  2
JWW_CENTER2
 70
     0
  3
-------------  --  -------------
 72
    65
 73
     4
 40
13.54666666666667
 49
11.00666666666667
 74
     0
 49
-0.8466666666666667
 74
     0
 49
0.8466666666666667
 74
     0
 49
-0.8466666666666667
 74
     0
  0
LTYPE
  5
72
330
5
100
AcDbSymbolTableRecord
100
AcDbLinetypeTableRecord
  2
JWW_CENTER1
 70
     0
  3
-----  --  ----------  --  -----
 72
    65
 73
     4
 40
6.773333333333333
 49
4.233333333333333
 74
     0
 49
-0.8466666666666667
 74
     0
 49
0.8466666666666667
 74
     0
 49
-0.8466666666666667
 74
     0
  0
ENDTAB
  0
TABLE
  2
LAYER
  5
2
330
0
100
AcDbSymbolTable
 70
     8
  0
LAYER
  5
10
330
2
100
AcDbSymbolTableRecord
100
AcDbLayerTableRecord
  2
0
 70
     0
 62
     7
  6
Continuous
370
    -3
390
F
  0
LAYER
  5
73
330
2
100
AcDbSymbolTableRecord
100
AcDbLayerTableRecord
  2
B-4
 70
     0
 62
     7
  6
Continuous
370
    -3
390
F
  0
LAYER
  5
74
330
2
100
AcDbSymbolTableRecord
100
AcDbLayerTableRecord
  2
B-1
 70
     0
 62
     7
  6
Continuous
370
    -3
390
F
  0
LAYER
  5
75
330
2
100
AcDbSymbolTableRecord
100
AcDbLayerTableRecord
  2
B-2
 70
     0
 62
     7
  6
Continuous
370
    -3
390
F
  0
LAYER
  5
76
330
2
100
AcDbSymbolTableRecord
100
AcDbLayerTableRecord
  2
B-5
 70
     0
 62
     7
  6
Continuous
370
    -3
390
F
  0
LAYER
  5
77
330
2
100
AcDbSymbolTableRecord
100
AcDbLayerTableRecord
  2
B-8
 70
     0
 62
     7
  6
Continuous
370
    -3
390
F
  0
LAYER
  5
78
330
2
100
AcDbSymbolTableRecord
100
AcDbLayerTableRecord
  2
F-4ﾚｲﾔ
 70
     0
 62
     7
  6
Continuous
370
    -3
390
F
  0
LAYER
  5
79
330
2
100
AcDbSymbolTableRecord
100
AcDbLayerTableRecord
  2
F-5ﾚｲﾔ
 70
     0
 62
     7
  6
Continuous
370
    -3
390
F
  0
ENDTAB
  0
TABLE
  2
STYLE
  5
3
330
0
100
AcDbSymbolTable
 70
     2
  0
STYLE
  5
11
330
3
100
AcDbSymbolTableRecord
100
AcDbTextStyleTableRecord
  2
Standard
 70
     0
 40
0.0
 41
1.0
 50
0.0
 71
     0
 42
2.5
  3
txt
  4

  0
STYLE
  5
6E
330
3
100
AcDbSymbolTableRecord
100
AcDbTextStyleTableRecord
  2
ＭＳ ゴシック
 70
     0
 40
1.0
 41
1.0
 50
0.0
 71
     0
 42
2.5
  3

  4

1001
ACAD
1000
MS Gothic
1071
    32817
  0
ENDTAB
  0
TABLE
  2
VIEW
  5
6
330
0
100
AcDbSymbolTable
 70
     0
  0
ENDTAB
  0
TABLE
  2
UCS
  5
7
330
0
100
AcDbSymbolTable
 70
     0
  0
ENDTAB
  0
TABLE
  2
APPID
  5
9
330
0
100
AcDbSymbolTable
 70
     2
  0
APPID
  5
12
330
9
100
AcDbSymbolTableRecord
100
AcDbRegAppTableRecord
  2
ACAD
 70
     0
  0
APPID
  5
2A2
330
9
100
AcDbSymbolTableRecord
100
AcDbRegAppTableRecord
  2
ACAD_MLEADERVER
 70
     0
  0
ENDTAB
  0
TABLE
  2
DIMSTYLE
  5
A
330
0
100
AcDbSymbolTable
 70
     1
100
AcDbDimStyleTable
  0
DIMSTYLE
105
27
330
A
100
AcDbSymbolTableRecord
100
AcDbDimStyleTableRecord
  2
ISO-25
 70
     0
 41
2.5
 42
0.625
 43
3.75
 44
1.25
 73
     0
 74
     0
 77
     1
 78
     8
140
2.5
141
2.5
143
0.03937007874016
147
0.625
171
     3
172
     1
178
     0
271
     2
272
     2
274
     3
278
    44
283
     0
284
     8
340
11
  0
ENDTAB
  0
TABLE
  2
BLOCK_RECORD
  5
1
330
0
100
AcDbSymbolTable
 70
     1
  0
BLOCK_RECORD
  5
1F
330
1
100
AcDbSymbolTableRecord
100
AcDbBlockTableRecord
  2
*Model_Space
340
22
  0
BLOCK_RECORD
  5
1B
330
1
100
AcDbSymbolTableRecord
100
AcDbBlockTableRecord
  2
*Paper_Space
340
1E
  0
BLOCK_RECORD
  5
23
330
1
100
AcDbSymbolTableRecord
100
AcDbBlockTableRecord
  2
*Paper_Space0
340
26
  0
ENDTAB
  0
ENDSEC
  0
SECTION
  2
BLOCKS
  0
BLOCK
  5
20
330
1F
100
AcDbEntity
  8
0
100
AcDbBlockBegin
  2
*Model_Space
 70
     0
 10
0.0
 20
0.0
 30
0.0
  3
*Model_Space
  1

  0
ENDBLK
  5
21
330
1F
100
AcDbEntity
  8
0
100
AcDbBlockEnd
  0
BLOCK
  5
1C
330
1B
100
AcDbEntity
 67
     1
  8
0
100
AcDbBlockBegin
  2
*Paper_Space
 70
     0
 10
0.0
 20
0.0
 30
0.0
  3
*Paper_Space
  1

  0
ENDBLK
  5
1D
330
1B
100
AcDbEntity
 67
     1
  8
0
100
AcDbBlockEnd
  0
BLOCK
  5
24
330
23
100
AcDbEntity
  8
0
100
AcDbBlockBegin
  2
*Paper_Space0
 70
     0
 10
0.0
 20
0.0
 30
0.0
  3
*Paper_Space0
  1

  0
ENDBLK
  5
25
330
23
100
AcDbEntity
  8
0
100
AcDbBlockEnd
  0
ENDSEC
  0
SECTION
  2
ENTITIES
  0
LWPOLYLINE
  5
7A
330
1F
100
AcDbEntity
  8
B-4
  6
Continuous
 62
     7
370
     9
100
AcDbPolyline
 90
        4
 70
     1
 43
1.0
 10
-560.5135052655194
 20
560.9611045729879
 42
0.4142135623731
 10
-561.0135052655194
 20
561.4611045729879
 42
0.4142135623731
 10
-561.5135052655194
 20
560.9611045729879
 42
0.4142135623731
 10
-561.0135052655194
 20
560.461104572988
 42
0.4142135623731
  0
LWPOLYLINE
  5
7B
330
1F
100
AcDbEntity
  8
B-4
  6
Continuous
 62
     7
370
     9
100
AcDbPolyline
 90
        4
 70
     1
 43
1.0
 10
-347.0135803222656
 20
560.9611045729879
 42
0.4142135623731
 10
-347.5135803222656
 20
561.4611045729879
 42
0.4142135623731
 10
-348.0135803222656
 20
560.9611045729879
 42
0.4142135623731
 10
-347.5135803222656
 20
560.461104572988
 42
0.4142135623731
  0
LWPOLYLINE
  5
7C
330
1F
100
AcDbEntity
  8
B-4
  6
Continuous
 62
     7
370
     9
100
AcDbPolyline
 90
        4
 70
     1
 43
1.0
 10
-133.5135316591005
 20
560.9611045729879
 42
0.4142135623731
 10
-134.0135316591005
 20
561.4611045729879
 42
0.4142135623731
 10
-134.5135316591005
 20
560.9611045729879
 42
0.4142135623731
 10
-134.0135316591005
 20
560.461104572988
 42
0.4142135623731
  0
LWPOLYLINE
  5
7D
330
1F
100
AcDbEntity
  8
B-4
  6
Continuous
 62
     7
370
     9
100
AcDbPolyline
 90
        4
 70
     1
 43
1.0
 10
-506.1131179397171
 20
525.8637452507751
 42
0.4142135623731
 10
-506.6131179397171
 20
526.363745250775
 42
0.4142135623731
 10
-507.113117939717
 20
525.8637452507751
 42
0.4142135623731
 10
-506.6131179397171
 20
525.3637452507751
 42
0.4142135623731
  0
LWPOLYLINE
  5
7E
330
1F
100
AcDbEntity
  8
B-4
  6
Continuous
 62
     7
370
     9
100
AcDbPolyline
 90
        4
 70
     1
 43
1.0
 10
-470.8129198228991
 20
525.8637452507751
 42
0.4142135623731
 10
-471.312919822899
 20
526.363745250775
 42
0.4142135623731
 10
-471.812919822899
 20
525.8637452507751
 42
0.4142135623731
 10
-471.312919822899
 20
525.3637452507751
 42
0.4142135623731
  0
LINE
  5
7F
330
1F
100
AcDbEntity
  8
B-1
  6
JWW_DASHED3
 62
     2
370
     9
100
AcDbLine
 10
-555.0134297963735
 20
437.8072118496982
 30
0.0
 11
-140.0135761982685
 21
437.8072118496982
 31
0.0
  0
LINE
  5
80
330
1F
100
AcDbEntity
  8
B-1
  6
JWW_DASHED3
 62
     2
370
     9
100
AcDbLine
 10
-140.0135761982685
 20
37.80719122971293
 30
0.0
 11
-555.0134297963735
 21
37.80719122971293
 31
0.0
  0
LINE
  5
81
330
1F
100
AcDbEntity
  8
B-4
  6
Continuous
 62
     7
370
     9
100
AcDbLine
 10
-561.0135052655194
 20
560.9611045729879
 30
0.0
 11
-289.0135481550886
 21
560.9611045729879
 31
0.0
  0
LINE
  5
82
330
1F
100
AcDbEntity
  8
B-4
  6
Continuous
 62
     7
370
     9
100
AcDbLine
 10
-561.0135052655194
 20
505.3073108256273
 30
0.0
 11
-561.0135052655194
 21
562.4610847778022
 31
0.0
  0
LINE
  5
83
330
1F
100
AcDbEntity
  8
B-4
  6
Continuous
 62
     7
370
     9
100
AcDbLine
 10
-347.5135803222656
 20
525.9076658192929
 30
0.0
 11
-347.5135803222656
 21
562.4610847778022
 31
0.0
  0
LINE
  5
84
330
1F
100
AcDbEntity
  8
B-4
  6
Continuous
 62
     7
370
     9
100
AcDbLine
 10
-289.0135481550886
 20
560.9611045729879
 30
0.0
 11
-134.0135316591005
 21
560.9611045729879
 31
0.0
  0
LINE
  5
85
330
1F
100
AcDbEntity
  8
B-4
  6
Continuous
 62
     7
370
     9
100
AcDbLine
 10
-134.0135316591005
 20
505.3073108256273
 30
0.0
 11
-134.0135316591005
 21
562.4610847778022
 31
0.0
  0
LINE
  5
86
330
1F
100
AcDbEntity
  8
B-2
  6
Continuous
 62
     3
370
     9
100
AcDbLine
 10
-538.012983992293
 20
291.3072481408722
 30
0.0
 11
-538.012983992293
 21
380.3082593449474
 31
0.0
  0
LINE
  5
87
330
1F
100
AcDbEntity
  8
B-2
  6
Continuous
 62
     3
370
     9
100
AcDbLine
 10
-538.012983992293
 20
391.3077017805471
 30
0.0
 11
-538.012983992293
 21
476.3073636127895
 31
0.0
  0
LINE
  5
88
330
1F
100
AcDbEntity
  8
B-2
  6
Continuous
 62
     3
370
     9
100
AcDbLine
 10
-157.0144240920608
 20
476.3073636127895
 30
0.0
 11
-157.0144240920608
 21
391.3077017805471
 31
0.0
  0
LINE
  5
89
330
1F
100
AcDbEntity
  8
B-2
  6
Continuous
 62
     3
370
     9
100
AcDbLine
 10
-157.0144240920608
 20
380.3082593449474
 30
0.0
 11
-157.0144240920608
 21
291.3072481408722
 31
0.0
  0
LINE
  5
8A
330
1F
100
AcDbEntity
  8
B-2
  6
Continuous
 62
     3
370
     9
100
AcDbLine
 10
-333.612720386402
 20
476.3073636127895
 30
0.0
 11
-333.612720386402
 21
391.3077017805471
 31
0.0
  0
LINE
  5
8B
330
1F
100
AcDbEntity
  8
B-2
  6
Continuous
 62
     3
370
     9
100
AcDbLine
 10
-326.6127096640096
 20
476.3073636127895
 30
0.0
 11
-326.6127096640096
 21
391.3077017805471
 31
0.0
  0
LINE
  5
8C
330
1F
100
AcDbEntity
  8
B-2
  6
Continuous
 62
     3
370
     9
100
AcDbLine
 10
-333.612720386402
 20
380.3082593449474
 30
0.0
 11
-333.612720386402
 21
291.3072481408722
 31
0.0
  0
LINE
  5
8D
330
1F
100
AcDbEntity
  8
B-2
  6
Continuous
 62
     3
370
     9
100
AcDbLine
 10
-326.6127096640096
 20
380.3082593449474
 30
0.0
 11
-326.6127096640096
 21
291.3072481408722
 31
0.0
  0
LINE
  5
8E
330
1F
100
AcDbEntity
  8
B-2
  6
Continuous
 62
     3
370
     9
100
AcDbLine
 10
-368.9128566432643
 20
476.3073636127895
 30
0.0
 11
-368.9128566432643
 21
391.3077017805471
 31
0.0
  0
LINE
  5
8F
330
1F
100
AcDbEntity
  8
B-2
  6
Continuous
 62
     3
370
     9
100
AcDbLine
 10
-361.9129077808276
 20
476.3073636127895
 30
0.0
 11
-361.9129077808276
 21
391.3077017805471
 31
0.0
  0
LINE
  5
90
330
1F
100
AcDbEntity
  8
B-2
  6
Continuous
 62
     3
370
     9
100
AcDbLine
 10
-368.9128566432643
 20
380.3082593449474
 30
0.0
 11
-368.9128566432643
 21
291.3072481408722
 31
0.0
  0
LINE
  5
91
330
1F
100
AcDbEntity
  8
B-2
  6
Continuous
 62
     3
370
     9
100
AcDbLine
 10
-361.9129077808276
 20
380.3082593449474
 30
0.0
 11
-361.9129077808276
 21
291.3072481408722
 31
0.0
  0
LINE
  5
92
330
1F
100
AcDbEntity
  8
B-2
  6
Continuous
 62
     3
370
     9
100
AcDbLine
 10
-404.2130547600823
 20
476.3073636127895
 30
0.0
 11
-404.2130547600823
 21
391.3077017805471
 31
0.0
  0
LINE
  5
93
330
1F
100
AcDbEntity
  8
B-2
  6
Continuous
 62
     3
370
     9
100
AcDbLine
 10
-397.21304403769
 20
476.3073636127895
 30
0.0
 11
-397.21304403769
 21
391.3077017805471
 31
0.0
  0
LINE
  5
94
330
1F
100
AcDbEntity
  8
B-2
  6
Continuous
 62
     3
370
     9
100
AcDbLine
 10
-404.2130547600823
 20
380.3082593449474
 30
0.0
 11
-404.2130547600823
 21
291.3072481408722
 31
0.0
  0
LINE
  5
95
330
1F
100
AcDbEntity
  8
B-2
  6
Continuous
 62
     3
370
     9
100
AcDbLine
 10
-397.21304403769
 20
380.3082593449474
 30
0.0
 11
-397.21304403769
 21
291.3072481408722
 31
0.0
  0
LINE
  5
96
330
1F
100
AcDbEntity
  8
B-2
  6
Continuous
 62
     3
370
     9
100
AcDbLine
 10
-439.5126961372994
 20
476.3073636127895
 30
0.0
 11
-439.5126961372994
 21
391.3077017805471
 31
0.0
  0
LINE
  5
97
330
1F
100
AcDbEntity
  8
B-2
  6
Continuous
 62
     3
370
     9
100
AcDbLine
 10
-432.5127472748627
 20
476.3073636127895
 30
0.0
 11
-432.5127472748627
 21
391.3077017805471
 31
0.0
  0
LINE
  5
98
330
1F
100
AcDbEntity
  8
B-2
  6
Continuous
 62
     3
370
     9
100
AcDbLine
 10
-439.5126961372994
 20
380.3082593449474
 30
0.0
 11
-439.5126961372994
 21
291.3072481408722
 31
0.0
  0
LINE
  5
99
330
1F
100
AcDbEntity
  8
B-2
  6
Continuous
 62
     3
370
     9
100
AcDbLine
 10
-432.5127472748627
 20
380.3082593449474
 30
0.0
 11
-432.5127472748627
 21
291.3072481408722
 31
0.0
  0
LINE
  5
9A
330
1F
100
AcDbEntity
  8
B-2
  6
Continuous
 62
     3
370
     9
100
AcDbLine
 10
-474.8128942541174
 20
476.3073636127895
 30
0.0
 11
-474.8128942541174
 21
391.3077017805471
 31
0.0
  0
LINE
  5
9B
330
1F
100
AcDbEntity
  8
B-2
  6
Continuous
 62
     3
370
     9
100
AcDbLine
 10
-467.8129453916807
 20
476.3073636127895
 30
0.0
 11
-467.8129453916807
 21
391.3077017805471
 31
0.0
  0
LINE
  5
9C
330
1F
100
AcDbEntity
  8
B-2
  6
Continuous
 62
     3
370
     9
100
AcDbLine
 10
-474.8128942541174
 20
380.3082593449474
 30
0.0
 11
-474.8128942541174
 21
291.3072481408722
 31
0.0
  0
LINE
  5
9D
330
1F
100
AcDbEntity
  8
B-2
  6
Continuous
 62
     3
370
     9
100
AcDbLine
 10
-467.8129453916807
 20
380.3082593449474
 30
0.0
 11
-467.8129453916807
 21
291.3072481408722
 31
0.0
  0
LINE
  5
9E
330
1F
100
AcDbEntity
  8
B-2
  6
Continuous
 62
     3
370
     9
100
AcDbLine
 10
-510.113154230891
 20
476.3073636127895
 30
0.0
 11
-510.113154230891
 21
391.3077017805471
 31
0.0
  0
LINE
  5
9F
330
1F
100
AcDbEntity
  8
B-2
  6
Continuous
 62
     3
370
     9
100
AcDbLine
 10
-503.113081648543
 20
476.3073636127895
 30
0.0
 11
-503.113081648543
 21
391.3077017805471
 31
0.0
  0
LINE
  5
A0
330
1F
100
AcDbEntity
  8
B-2
  6
Continuous
 62
     3
370
     9
100
AcDbLine
 10
-510.113154230891
 20
380.3082593449474
 30
0.0
 11
-510.113154230891
 21
291.3072481408722
 31
0.0
  0
LINE
  5
A1
330
1F
100
AcDbEntity
  8
B-2
  6
Continuous
 62
     3
370
     9
100
AcDbLine
 10
-503.113081648543
 20
380.3082593449474
 30
0.0
 11
-503.113081648543
 21
291.3072481408722
 31
0.0
  0
LINE
  5
A2
330
1F
100
AcDbEntity
  8
B-2
  6
Continuous
 62
     3
370
     9
100
AcDbLine
 10
-538.012983992293
 20
380.3082593449474
 30
0.0
 11
-503.113081648543
 21
391.3077017805471
 31
0.0
  0
LINE
  5
A3
330
1F
100
AcDbEntity
  8
B-2
  6
Continuous
 62
     3
370
     9
100
AcDbLine
 10
-502.7127240155194
 20
380.3082593449474
 30
0.0
 11
-467.8133784113703
 21
391.3077017805471
 31
0.0
  0
LINE
  5
A4
330
1F
100
AcDbEntity
  8
B-2
  6
Continuous
 62
     3
370
     9
100
AcDbLine
 10
-467.4130826383023
 20
380.3082593449474
 30
0.0
 11
-432.5131802945523
 21
391.3077017805471
 31
0.0
  0
LINE
  5
A5
330
1F
100
AcDbEntity
  8
B-2
  6
Continuous
 62
     3
370
     9
100
AcDbLine
 10
-432.1128845214844
 20
380.3082593449474
 30
0.0
 11
-397.21304403769
 21
391.3077017805471
 31
0.0
  0
LINE
  5
A6
330
1F
100
AcDbEntity
  8
B-2
  6
Continuous
 62
     3
370
     9
100
AcDbLine
 10
-396.8131812843116
 20
380.3082593449474
 30
0.0
 11
-361.9134026604729
 21
391.3077017805471
 31
0.0
  0
LINE
  5
A7
330
1F
100
AcDbEntity
  8
B-2
  6
Continuous
 62
     3
370
     9
100
AcDbLine
 10
-361.5130450274494
 20
380.3082593449474
 30
0.0
 11
-326.6132664036105
 21
391.3077017805471
 31
0.0
  0
LINE
  5
A8
330
1F
100
AcDbEntity
  8
B-2
  6
Continuous
 62
     3
370
     9
100
AcDbLine
 10
-326.212908770587
 20
380.3082593449474
 30
0.0
 11
-291.3130682867926
 21
391.3077017805471
 31
0.0
  0
LINE
  5
A9
330
1F
100
AcDbEntity
  8
B-2
  6
Continuous
 62
     3
370
     9
100
AcDbLine
 10
-545.013427734375
 20
389.2267328721856
 30
0.0
 11
-538.4132179054054
 21
391.3077017805471
 31
0.0
  0
LINE
  5
AA
330
1F
100
AcDbEntity
  8
B-2
  6
Continuous
 62
     3
370
     9
100
AcDbLine
 10
-538.012983992293
 20
80.30739330556814
 30
0.0
 11
-503.113081648543
 21
91.30782550045838
 31
0.0
  0
LINE
  5
AB
330
1F
100
AcDbEntity
  8
B-2
  6
Continuous
 62
     3
370
     9
100
AcDbLine
 10
-502.7127240155194
 20
80.30739330556814
 30
0.0
 11
-467.8133784113703
 21
91.30782550045838
 31
0.0
  0
LINE
  5
AC
330
1F
100
AcDbEntity
  8
B-2
  6
Continuous
 62
     3
370
     9
100
AcDbLine
 10
-467.4130826383023
 20
80.30739330556814
 30
0.0
 11
-432.5131802945523
 21
91.30782550045838
 31
0.0
  0
LINE
  5
AD
330
1F
100
AcDbEntity
  8
B-2
  6
Continuous
 62
     3
370
     9
100
AcDbLine
 10
-432.1128845214844
 20
80.30739330556814
 30
0.0
 11
-397.21304403769
 21
91.30782550045838
 31
0.0
  0
LINE
  5
AE
330
1F
100
AcDbEntity
  8
B-2
  6
Continuous
 62
     3
370
     9
100
AcDbLine
 10
-396.8131812843116
 20
80.30739330556814
 30
0.0
 11
-361.9134026604729
 21
91.30782550045838
 31
0.0
  0
LINE
  5
AF
330
1F
100
AcDbEntity
  8
B-2
  6
Continuous
 62
     3
370
     9
100
AcDbLine
 10
-361.5130450274494
 20
80.30739330556814
 30
0.0
 11
-326.6132664036105
 21
91.30782550045838
 31
0.0
  0
LINE
  5
B0
330
1F
100
AcDbEntity
  8
B-2
  6
Continuous
 62
     3
370
     9
100
AcDbLine
 10
-326.212908770587
 20
80.30739330556814
 30
0.0
 11
-291.3130682867926
 21
91.30782550045838
 31
0.0
  0
LINE
  5
B1
330
1F
100
AcDbEntity
  8
B-2
  6
Continuous
 62
     3
370
     9
100
AcDbLine
 10
-545.013427734375
 20
89.2267328721856
 30
0.0
 11
-538.4132179054054
 21
91.30782550045838
 31
0.0
  0
LINE
  5
B2
330
1F
100
AcDbEntity
  8
B-2
  6
Continuous
 62
     3
370
     9
100
AcDbLine
 10
-150.0134854703336
 20
-9.193075180496049
 30
0.0
 11
-545.013427734375
 21
-9.193075180496049
 31
0.0
  0
LINE
  5
B3
330
1F
100
AcDbEntity
  8
B-2
  6
Continuous
 62
     3
370
     9
100
AcDbLine
 10
-150.0134854703336
 20
-4.693258285964799
 30
0.0
 11
-545.013427734375
 21
-4.693258285964799
 31
0.0
  0
LINE
  5
B4
330
1F
100
AcDbEntity
  8
B-2
  6
Continuous
 62
     3
370
     9
100
AcDbLine
 10
-545.013427734375
 20
476.3073636127895
 30
0.0
 11
-150.0134854703336
 21
476.3073636127895
 31
0.0
  0
LINE
  5
B5
330
1F
100
AcDbEntity
  8
B-2
  6
Continuous
 62
     3
370
     9
100
AcDbLine
 10
-545.013427734375
 20
480.8071805073207
 30
0.0
 11
-150.0134854703336
 21
480.8071805073207
 31
0.0
  0
LINE
  5
B6
330
1F
100
AcDbEntity
  8
B-2
  6
Continuous
 62
     3
370
     9
100
AcDbLine
 10
-545.013427734375
 20
80.30739330556814
 30
0.0
 11
-150.0134854703336
 21
80.30739330556814
 31
0.0
  0
LINE
  5
B7
330
1F
100
AcDbEntity
  8
B-2
  6
Continuous
 62
     3
370
     9
100
AcDbLine
 10
-545.013427734375
 20
391.3077017805471
 30
0.0
 11
-150.0134854703336
 21
391.3077017805471
 31
0.0
  0
LINE
  5
B8
330
1F
100
AcDbEntity
  8
B-2
  6
Continuous
 62
     3
370
     9
100
AcDbLine
 10
-545.013427734375
 20
-9.193075180496049
 30
0.0
 11
-545.013427734375
 21
480.8071805073207
 31
0.0
  0
LINE
  5
B9
330
1F
100
AcDbEntity
  8
B-2
  6
Continuous
 62
     3
370
     9
100
AcDbLine
 10
-538.012983992293
 20
-4.693258285964799
 30
0.0
 11
-538.012983992293
 21
80.30739330556814
 31
0.0
  0
LINE
  5
BA
330
1F
100
AcDbEntity
  8
B-2
  6
Continuous
 62
     3
370
     9
100
AcDbLine
 10
-333.612720386402
 20
80.30739330556814
 30
0.0
 11
-333.612720386402
 21
-4.693258285964799
 31
0.0
  0
LINE
  5
BB
330
1F
100
AcDbEntity
  8
B-2
  6
Continuous
 62
     3
370
     9
100
AcDbLine
 10
-326.6127096640096
 20
80.30739330556814
 30
0.0
 11
-326.6127096640096
 21
-4.693258285964799
 31
0.0
  0
LINE
  5
BC
330
1F
100
AcDbEntity
  8
B-2
  6
Continuous
 62
     3
370
     9
100
AcDbLine
 10
-368.9128566432643
 20
80.30739330556814
 30
0.0
 11
-368.9128566432643
 21
-4.693258285964799
 31
0.0
  0
LINE
  5
BD
330
1F
100
AcDbEntity
  8
B-2
  6
Continuous
 62
     3
370
     9
100
AcDbLine
 10
-361.9129077808276
 20
80.30739330556814
 30
0.0
 11
-361.9129077808276
 21
-4.693258285964799
 31
0.0
  0
LINE
  5
BE
330
1F
100
AcDbEntity
  8
B-2
  6
Continuous
 62
     3
370
     9
100
AcDbLine
 10
-404.2130547600823
 20
80.30739330556814
 30
0.0
 11
-404.2130547600823
 21
-4.693258285964799
 31
0.0
  0
LINE
  5
BF
330
1F
100
AcDbEntity
  8
B-2
  6
Continuous
 62
     3
370
     9
100
AcDbLine
 10
-397.21304403769
 20
80.30739330556814
 30
0.0
 11
-397.21304403769
 21
-4.693258285964799
 31
0.0
  0
LINE
  5
C0
330
1F
100
AcDbEntity
  8
B-2
  6
Continuous
 62
     3
370
     9
100
AcDbLine
 10
-439.5126961372994
 20
80.30739330556814
 30
0.0
 11
-439.5126961372994
 21
-4.693258285964799
 31
0.0
  0
LINE
  5
C1
330
1F
100
AcDbEntity
  8
B-2
  6
Continuous
 62
     3
370
     9
100
AcDbLine
 10
-432.5127472748627
 20
80.30739330556814
 30
0.0
 11
-432.5127472748627
 21
-4.693258285964799
 31
0.0
  0
LINE
  5
C2
330
1F
100
AcDbEntity
  8
B-2
  6
Continuous
 62
     3
370
     9
100
AcDbLine
 10
-474.8128942541174
 20
80.30739330556814
 30
0.0
 11
-474.8128942541174
 21
-4.693258285964799
 31
0.0
  0
LINE
  5
C3
330
1F
100
AcDbEntity
  8
B-2
  6
Continuous
 62
     3
370
     9
100
AcDbLine
 10
-467.8129453916807
 20
80.30739330556814
 30
0.0
 11
-467.8129453916807
 21
-4.693258285964799
 31
0.0
  0
LINE
  5
C4
330
1F
100
AcDbEntity
  8
B-2
  6
Continuous
 62
     3
370
     9
100
AcDbLine
 10
-510.113154230891
 20
80.30739330556814
 30
0.0
 11
-510.113154230891
 21
-4.693258285964799
 31
0.0
  0
LINE
  5
C5
330
1F
100
AcDbEntity
  8
B-2
  6
Continuous
 62
     3
370
     9
100
AcDbLine
 10
-503.113081648543
 20
80.30739330556814
 30
0.0
 11
-503.113081648543
 21
-4.693258285964799
 31
0.0
  0
LINE
  5
C6
330
1F
100
AcDbEntity
  8
B-2
  6
Continuous
 62
     3
370
     9
100
AcDbLine
 10
-150.0134854703336
 20
480.8071805073207
 30
0.0
 11
-150.0134854703336
 21
-9.193075180496049
 31
0.0
  0
LINE
  5
C7
330
1F
100
AcDbEntity
  8
B-2
  6
Continuous
 62
     3
370
     9
100
AcDbLine
 10
-157.0144240920608
 20
80.30739330556814
 30
0.0
 11
-157.0144240920608
 21
-4.693258285964799
 31
0.0
  0
LINE
  5
C8
330
1F
100
AcDbEntity
  8
B-2
  6
Continuous
 62
     3
370
     9
100
AcDbLine
 10
-538.012983992293
 20
191.3072893808426
 30
0.0
 11
-538.012983992293
 21
280.3083005849179
 31
0.0
  0
LINE
  5
C9
330
1F
100
AcDbEntity
  8
B-2
  6
Continuous
 62
     3
370
     9
100
AcDbLine
 10
-157.0144240920608
 20
280.3083005849179
 30
0.0
 11
-157.0144240920608
 21
191.3072893808426
 31
0.0
  0
LINE
  5
CA
330
1F
100
AcDbEntity
  8
B-2
  6
Continuous
 62
     3
370
     9
100
AcDbLine
 10
-333.612720386402
 20
280.3083005849179
 30
0.0
 11
-333.612720386402
 21
191.3072893808426
 31
0.0
  0
LINE
  5
CB
330
1F
100
AcDbEntity
  8
B-2
  6
Continuous
 62
     3
370
     9
100
AcDbLine
 10
-326.6127096640096
 20
280.3083005849179
 30
0.0
 11
-326.6127096640096
 21
191.3072893808426
 31
0.0
  0
LINE
  5
CC
330
1F
100
AcDbEntity
  8
B-2
  6
Continuous
 62
     3
370
     9
100
AcDbLine
 10
-368.9128566432643
 20
280.3083005849179
 30
0.0
 11
-368.9128566432643
 21
191.3072893808426
 31
0.0
  0
LINE
  5
CD
330
1F
100
AcDbEntity
  8
B-2
  6
Continuous
 62
     3
370
     9
100
AcDbLine
 10
-361.9129077808276
 20
280.3083005849179
 30
0.0
 11
-361.9129077808276
 21
191.3072893808426
 31
0.0
  0
LINE
  5
CE
330
1F
100
AcDbEntity
  8
B-2
  6
Continuous
 62
     3
370
     9
100
AcDbLine
 10
-404.2130547600823
 20
280.3083005849179
 30
0.0
 11
-404.2130547600823
 21
191.3072893808426
 31
0.0
  0
LINE
  5
CF
330
1F
100
AcDbEntity
  8
B-2
  6
Continuous
 62
     3
370
     9
100
AcDbLine
 10
-397.21304403769
 20
280.3083005849179
 30
0.0
 11
-397.21304403769
 21
191.3072893808426
 31
0.0
  0
LINE
  5
D0
330
1F
100
AcDbEntity
  8
B-2
  6
Continuous
 62
     3
370
     9
100
AcDbLine
 10
-439.5126961372994
 20
280.3083005849179
 30
0.0
 11
-439.5126961372994
 21
191.3072893808426
 31
0.0
  0
LINE
  5
D1
330
1F
100
AcDbEntity
  8
B-2
  6
Continuous
 62
     3
370
     9
100
AcDbLine
 10
-432.5127472748627
 20
280.3083005849179
 30
0.0
 11
-432.5127472748627
 21
191.3072893808426
 31
0.0
  0
LINE
  5
D2
330
1F
100
AcDbEntity
  8
B-2
  6
Continuous
 62
     3
370
     9
100
AcDbLine
 10
-474.8128942541174
 20
280.3083005849179
 30
0.0
 11
-474.8128942541174
 21
191.3072893808426
 31
0.0
  0
LINE
  5
D3
330
1F
100
AcDbEntity
  8
B-2
  6
Continuous
 62
     3
370
     9
100
AcDbLine
 10
-467.8129453916807
 20
280.3083005849179
 30
0.0
 11
-467.8129453916807
 21
191.3072893808426
 31
0.0
  0
LINE
  5
D4
330
1F
100
AcDbEntity
  8
B-2
  6
Continuous
 62
     3
370
     9
100
AcDbLine
 10
-510.113154230891
 20
280.3083005849179
 30
0.0
 11
-510.113154230891
 21
191.3072893808426
 31
0.0
  0
LINE
  5
D5
330
1F
100
AcDbEntity
  8
B-2
  6
Continuous
 62
     3
370
     9
100
AcDbLine
 10
-503.113081648543
 20
280.3083005849179
 30
0.0
 11
-503.113081648543
 21
191.3072893808426
 31
0.0
  0
LINE
  5
D6
330
1F
100
AcDbEntity
  8
B-2
  6
Continuous
 62
     3
370
     9
100
AcDbLine
 10
-538.012983992293
 20
280.3083005849179
 30
0.0
 11
-503.113081648543
 21
291.3076193006061
 31
0.0
  0
LINE
  5
D7
330
1F
100
AcDbEntity
  8
B-2
  6
Continuous
 62
     3
370
     9
100
AcDbLine
 10
-502.7127240155194
 20
280.3083005849179
 30
0.0
 11
-467.8133784113703
 21
291.3076193006061
 31
0.0
  0
LINE
  5
D8
330
1F
100
AcDbEntity
  8
B-2
  6
Continuous
 62
     3
370
     9
100
AcDbLine
 10
-467.4130826383023
 20
280.3083005849179
 30
0.0
 11
-432.5131802945523
 21
291.3076193006061
 31
0.0
  0
LINE
  5
D9
330
1F
100
AcDbEntity
  8
B-2
  6
Continuous
 62
     3
370
     9
100
AcDbLine
 10
-432.1128845214844
 20
280.3083005849179
 30
0.0
 11
-397.21304403769
 21
291.3076193006061
 31
0.0
  0
LINE
  5
DA
330
1F
100
AcDbEntity
  8
B-2
  6
Continuous
 62
     3
370
     9
100
AcDbLine
 10
-396.8131812843116
 20
280.3083005849179
 30
0.0
 11
-361.9134026604729
 21
291.3076193006061
 31
0.0
  0
LINE
  5
DB
330
1F
100
AcDbEntity
  8
B-2
  6
Continuous
 62
     3
370
     9
100
AcDbLine
 10
-361.5130450274494
 20
280.3083005849179
 30
0.0
 11
-326.6132664036105
 21
291.3076193006061
 31
0.0
  0
LINE
  5
DC
330
1F
100
AcDbEntity
  8
B-2
  6
Continuous
 62
     3
370
     9
100
AcDbLine
 10
-326.212908770587
 20
280.3083005849179
 30
0.0
 11
-291.3130682867926
 21
291.3076193006061
 31
0.0
  0
LINE
  5
DD
330
1F
100
AcDbEntity
  8
B-2
  6
Continuous
 62
     3
370
     9
100
AcDbLine
 10
-545.013427734375
 20
289.2266503922447
 30
0.0
 11
-538.4132179054054
 21
291.3076193006061
 31
0.0
  0
LINE
  5
DE
330
1F
100
AcDbEntity
  8
B-2
  6
Continuous
 62
     3
370
     9
100
AcDbLine
 10
-538.012983992293
 20
91.30720690090173
 30
0.0
 11
-538.012983992293
 21
180.3083418248882
 31
0.0
  0
LINE
  5
DF
330
1F
100
AcDbEntity
  8
B-2
  6
Continuous
 62
     3
370
     9
100
AcDbLine
 10
-157.0144240920608
 20
180.3083418248882
 30
0.0
 11
-157.0144240920608
 21
91.30720690090173
 31
0.0
  0
LINE
  5
E0
330
1F
100
AcDbEntity
  8
B-2
  6
Continuous
 62
     3
370
     9
100
AcDbLine
 10
-333.612720386402
 20
180.3083418248882
 30
0.0
 11
-333.612720386402
 21
91.30720690090173
 31
0.0
  0
LINE
  5
E1
330
1F
100
AcDbEntity
  8
B-2
  6
Continuous
 62
     3
370
     9
100
AcDbLine
 10
-326.6127096640096
 20
180.3083418248882
 30
0.0
 11
-326.6127096640096
 21
91.30720690090173
 31
0.0
  0
LINE
  5
E2
330
1F
100
AcDbEntity
  8
B-2
  6
Continuous
 62
     3
370
     9
100
AcDbLine
 10
-368.9128566432643
 20
180.3083418248882
 30
0.0
 11
-368.9128566432643
 21
91.30720690090173
 31
0.0
  0
LINE
  5
E3
330
1F
100
AcDbEntity
  8
B-2
  6
Continuous
 62
     3
370
     9
100
AcDbLine
 10
-361.9129077808276
 20
180.3083418248882
 30
0.0
 11
-361.9129077808276
 21
91.30720690090173
 31
0.0
  0
LINE
  5
E4
330
1F
100
AcDbEntity
  8
B-2
  6
Continuous
 62
     3
370
     9
100
AcDbLine
 10
-404.2130547600823
 20
180.3083418248882
 30
0.0
 11
-404.2130547600823
 21
91.30720690090173
 31
0.0
  0
LINE
  5
E5
330
1F
100
AcDbEntity
  8
B-2
  6
Continuous
 62
     3
370
     9
100
AcDbLine
 10
-397.21304403769
 20
180.3083418248882
 30
0.0
 11
-397.21304403769
 21
91.30720690090173
 31
0.0
  0
LINE
  5
E6
330
1F
100
AcDbEntity
  8
B-2
  6
Continuous
 62
     3
370
     9
100
AcDbLine
 10
-439.5126961372994
 20
180.3083418248882
 30
0.0
 11
-439.5126961372994
 21
91.30720690090173
 31
0.0
  0
LINE
  5
E7
330
1F
100
AcDbEntity
  8
B-2
  6
Continuous
 62
     3
370
     9
100
AcDbLine
 10
-432.5127472748627
 20
180.3083418248882
 30
0.0
 11
-432.5127472748627
 21
91.30720690090173
 31
0.0
  0
LINE
  5
E8
330
1F
100
AcDbEntity
  8
B-2
  6
Continuous
 62
     3
370
     9
100
AcDbLine
 10
-474.8128942541174
 20
180.3083418248882
 30
0.0
 11
-474.8128942541174
 21
91.30720690090173
 31
0.0
  0
LINE
  5
E9
330
1F
100
AcDbEntity
  8
B-2
  6
Continuous
 62
     3
370
     9
100
AcDbLine
 10
-467.8129453916807
 20
180.3083418248882
 30
0.0
 11
-467.8129453916807
 21
91.30720690090173
 31
0.0
  0
LINE
  5
EA
330
1F
100
AcDbEntity
  8
B-2
  6
Continuous
 62
     3
370
     9
100
AcDbLine
 10
-510.113154230891
 20
180.3083418248882
 30
0.0
 11
-510.113154230891
 21
91.30720690090173
 31
0.0
  0
LINE
  5
EB
330
1F
100
AcDbEntity
  8
B-2
  6
Continuous
 62
     3
370
     9
100
AcDbLine
 10
-503.113081648543
 20
180.3083418248882
 30
0.0
 11
-503.113081648543
 21
91.30720690090173
 31
0.0
  0
LINE
  5
EC
330
1F
100
AcDbEntity
  8
B-2
  6
Continuous
 62
     3
370
     9
100
AcDbLine
 10
-538.012983992293
 20
180.3083418248882
 30
0.0
 11
-503.113081648543
 21
191.3077842604879
 31
0.0
  0
LINE
  5
ED
330
1F
100
AcDbEntity
  8
B-2
  6
Continuous
 62
     3
370
     9
100
AcDbLine
 10
-502.7127240155194
 20
180.3083418248882
 30
0.0
 11
-467.8133784113703
 21
191.3077842604879
 31
0.0
  0
LINE
  5
EE
330
1F
100
AcDbEntity
  8
B-2
  6
Continuous
 62
     3
370
     9
100
AcDbLine
 10
-467.4130826383023
 20
180.3083418248882
 30
0.0
 11
-432.5131802945523
 21
191.3077842604879
 31
0.0
  0
LINE
  5
EF
330
1F
100
AcDbEntity
  8
B-2
  6
Continuous
 62
     3
370
     9
100
AcDbLine
 10
-432.1128845214844
 20
180.3083418248882
 30
0.0
 11
-397.21304403769
 21
191.3077842604879
 31
0.0
  0
LINE
  5
F0
330
1F
100
AcDbEntity
  8
B-2
  6
Continuous
 62
     3
370
     9
100
AcDbLine
 10
-396.8131812843116
 20
180.3083418248882
 30
0.0
 11
-361.9134026604729
 21
191.3077842604879
 31
0.0
  0
LINE
  5
F1
330
1F
100
AcDbEntity
  8
B-2
  6
Continuous
 62
     3
370
     9
100
AcDbLine
 10
-361.5130450274494
 20
180.3083418248882
 30
0.0
 11
-326.6132664036105
 21
191.3077842604879
 31
0.0
  0
LINE
  5
F2
330
1F
100
AcDbEntity
  8
B-2
  6
Continuous
 62
     3
370
     9
100
AcDbLine
 10
-326.212908770587
 20
180.3083418248882
 30
0.0
 11
-291.3130682867926
 21
191.3077842604879
 31
0.0
  0
LINE
  5
F3
330
1F
100
AcDbEntity
  8
B-2
  6
Continuous
 62
     3
370
     9
100
AcDbLine
 10
-545.013427734375
 20
189.2268153521265
 30
0.0
 11
-538.4132179054054
 21
191.3077842604879
 31
0.0
  0
LINE
  5
F4
330
1F
100
AcDbEntity
  8
B-2
  6
Continuous
 62
     3
370
     9
100
AcDbLine
 10
-298.312522269584
 20
476.3073636127895
 30
0.0
 11
-298.312522269584
 21
391.3077017805471
 31
0.0
  0
LINE
  5
F5
330
1F
100
AcDbEntity
  8
B-2
  6
Continuous
 62
     3
370
     9
100
AcDbLine
 10
-291.3125115471917
 20
476.3073636127895
 30
0.0
 11
-291.3125115471917
 21
391.3077017805471
 31
0.0
  0
LINE
  5
F6
330
1F
100
AcDbEntity
  8
B-2
  6
Continuous
 62
     3
370
     9
100
AcDbLine
 10
-298.312522269584
 20
380.3082593449474
 30
0.0
 11
-298.312522269584
 21
291.3072481408722
 31
0.0
  0
LINE
  5
F7
330
1F
100
AcDbEntity
  8
B-2
  6
Continuous
 62
     3
370
     9
100
AcDbLine
 10
-291.3125115471917
 20
380.3082593449474
 30
0.0
 11
-291.3125115471917
 21
291.3072481408722
 31
0.0
  0
LINE
  5
F8
330
1F
100
AcDbEntity
  8
B-2
  6
Continuous
 62
     3
370
     9
100
AcDbLine
 10
-290.912710653769
 20
380.3082593449474
 30
0.0
 11
-256.0128701699746
 21
391.3077017805471
 31
0.0
  0
LINE
  5
F9
330
1F
100
AcDbEntity
  8
B-2
  6
Continuous
 62
     3
370
     9
100
AcDbLine
 10
-290.912710653769
 20
80.30739330556814
 30
0.0
 11
-256.0128701699746
 21
91.30782550045838
 31
0.0
  0
LINE
  5
FA
330
1F
100
AcDbEntity
  8
B-2
  6
Continuous
 62
     3
370
     9
100
AcDbLine
 10
-298.312522269584
 20
80.30739330556814
 30
0.0
 11
-298.312522269584
 21
-4.693258285964799
 31
0.0
  0
LINE
  5
FB
330
1F
100
AcDbEntity
  8
B-2
  6
Continuous
 62
     3
370
     9
100
AcDbLine
 10
-291.3125115471917
 20
80.30739330556814
 30
0.0
 11
-291.3125115471917
 21
-4.693258285964799
 31
0.0
  0
LINE
  5
FC
330
1F
100
AcDbEntity
  8
B-2
  6
Continuous
 62
     3
370
     9
100
AcDbLine
 10
-298.312522269584
 20
280.3083005849179
 30
0.0
 11
-298.312522269584
 21
191.3072893808426
 31
0.0
  0
LINE
  5
FD
330
1F
100
AcDbEntity
  8
B-2
  6
Continuous
 62
     3
370
     9
100
AcDbLine
 10
-291.3125115471917
 20
280.3083005849179
 30
0.0
 11
-291.3125115471917
 21
191.3072893808426
 31
0.0
  0
LINE
  5
FE
330
1F
100
AcDbEntity
  8
B-2
  6
Continuous
 62
     3
370
     9
100
AcDbLine
 10
-290.912710653769
 20
280.3083005849179
 30
0.0
 11
-256.0128701699746
 21
291.3076193006061
 31
0.0
  0
LINE
  5
FF
330
1F
100
AcDbEntity
  8
B-2
  6
Continuous
 62
     3
370
     9
100
AcDbLine
 10
-298.312522269584
 20
180.3083418248882
 30
0.0
 11
-298.312522269584
 21
91.30720690090173
 31
0.0
  0
LINE
  5
100
330
1F
100
AcDbEntity
  8
B-2
  6
Continuous
 62
     3
370
     9
100
AcDbLine
 10
-291.3125115471917
 20
180.3083418248882
 30
0.0
 11
-291.3125115471917
 21
91.30720690090173
 31
0.0
  0
LINE
  5
101
330
1F
100
AcDbEntity
  8
B-2
  6
Continuous
 62
     3
370
     9
100
AcDbLine
 10
-290.912710653769
 20
180.3083418248882
 30
0.0
 11
-256.0128701699746
 21
191.3077842604879
 31
0.0
  0
LINE
  5
102
330
1F
100
AcDbEntity
  8
B-2
  6
Continuous
 62
     3
370
     9
100
AcDbLine
 10
-263.012324152766
 20
476.3073636127895
 30
0.0
 11
-263.012324152766
 21
391.3077017805471
 31
0.0
  0
LINE
  5
103
330
1F
100
AcDbEntity
  8
B-2
  6
Continuous
 62
     3
370
     9
100
AcDbLine
 10
-256.0123134303737
 20
476.3073636127895
 30
0.0
 11
-256.0123134303737
 21
391.3077017805471
 31
0.0
  0
LINE
  5
104
330
1F
100
AcDbEntity
  8
B-2
  6
Continuous
 62
     3
370
     9
100
AcDbLine
 10
-263.012324152766
 20
380.3082593449474
 30
0.0
 11
-263.012324152766
 21
291.3072481408722
 31
0.0
  0
LINE
  5
105
330
1F
100
AcDbEntity
  8
B-2
  6
Continuous
 62
     3
370
     9
100
AcDbLine
 10
-256.0123134303737
 20
380.3082593449474
 30
0.0
 11
-256.0123134303737
 21
291.3072481408722
 31
0.0
  0
LINE
  5
106
330
1F
100
AcDbEntity
  8
B-2
  6
Continuous
 62
     3
370
     9
100
AcDbLine
 10
-255.6125125369509
 20
380.3082593449474
 30
0.0
 11
-220.7126720531566
 21
391.3077017805471
 31
0.0
  0
LINE
  5
107
330
1F
100
AcDbEntity
  8
B-2
  6
Continuous
 62
     3
370
     9
100
AcDbLine
 10
-255.6125125369509
 20
80.30739330556814
 30
0.0
 11
-220.7126720531566
 21
91.30782550045838
 31
0.0
  0
LINE
  5
108
330
1F
100
AcDbEntity
  8
B-2
  6
Continuous
 62
     3
370
     9
100
AcDbLine
 10
-263.012324152766
 20
80.30739330556814
 30
0.0
 11
-263.012324152766
 21
-4.693258285964799
 31
0.0
  0
LINE
  5
109
330
1F
100
AcDbEntity
  8
B-2
  6
Continuous
 62
     3
370
     9
100
AcDbLine
 10
-256.0123134303737
 20
80.30739330556814
 30
0.0
 11
-256.0123134303737
 21
-4.693258285964799
 31
0.0
  0
LINE
  5
10A
330
1F
100
AcDbEntity
  8
B-2
  6
Continuous
 62
     3
370
     9
100
AcDbLine
 10
-263.012324152766
 20
280.3083005849179
 30
0.0
 11
-263.012324152766
 21
191.3072893808426
 31
0.0
  0
LINE
  5
10B
330
1F
100
AcDbEntity
  8
B-2
  6
Continuous
 62
     3
370
     9
100
AcDbLine
 10
-256.0123134303737
 20
280.3083005849179
 30
0.0
 11
-256.0123134303737
 21
191.3072893808426
 31
0.0
  0
LINE
  5
10C
330
1F
100
AcDbEntity
  8
B-2
  6
Continuous
 62
     3
370
     9
100
AcDbLine
 10
-255.6125125369509
 20
280.3083005849179
 30
0.0
 11
-220.7126720531566
 21
291.3076193006061
 31
0.0
  0
LINE
  5
10D
330
1F
100
AcDbEntity
  8
B-2
  6
Continuous
 62
     3
370
     9
100
AcDbLine
 10
-263.012324152766
 20
180.3083418248882
 30
0.0
 11
-263.012324152766
 21
91.30720690090173
 31
0.0
  0
LINE
  5
10E
330
1F
100
AcDbEntity
  8
B-2
  6
Continuous
 62
     3
370
     9
100
AcDbLine
 10
-256.0123134303737
 20
180.3083418248882
 30
0.0
 11
-256.0123134303737
 21
91.30720690090173
 31
0.0
  0
LINE
  5
10F
330
1F
100
AcDbEntity
  8
B-2
  6
Continuous
 62
     3
370
     9
100
AcDbLine
 10
-255.6125125369509
 20
180.3083418248882
 30
0.0
 11
-220.7126720531566
 21
191.3077842604879
 31
0.0
  0
LINE
  5
110
330
1F
100
AcDbEntity
  8
B-2
  6
Continuous
 62
     3
370
     9
100
AcDbLine
 10
-227.712126035948
 20
476.3073636127895
 30
0.0
 11
-227.712126035948
 21
391.3077017805471
 31
0.0
  0
LINE
  5
111
330
1F
100
AcDbEntity
  8
B-2
  6
Continuous
 62
     3
370
     9
100
AcDbLine
 10
-220.7121153135557
 20
476.3073636127895
 30
0.0
 11
-220.7121153135557
 21
391.3077017805471
 31
0.0
  0
LINE
  5
112
330
1F
100
AcDbEntity
  8
B-2
  6
Continuous
 62
     3
370
     9
100
AcDbLine
 10
-227.712126035948
 20
380.3082593449474
 30
0.0
 11
-227.712126035948
 21
291.3072481408722
 31
0.0
  0
LINE
  5
113
330
1F
100
AcDbEntity
  8
B-2
  6
Continuous
 62
     3
370
     9
100
AcDbLine
 10
-220.7121153135557
 20
380.3082593449474
 30
0.0
 11
-220.7121153135557
 21
291.3072481408722
 31
0.0
  0
LINE
  5
114
330
1F
100
AcDbEntity
  8
B-2
  6
Continuous
 62
     3
370
     9
100
AcDbLine
 10
-220.3123144201329
 20
380.3082593449474
 30
0.0
 11
-185.4124739363387
 21
391.3077017805471
 31
0.0
  0
LINE
  5
115
330
1F
100
AcDbEntity
  8
B-2
  6
Continuous
 62
     3
370
     9
100
AcDbLine
 10
-220.3123144201329
 20
80.30739330556814
 30
0.0
 11
-185.4124739363387
 21
91.30782550045838
 31
0.0
  0
LINE
  5
116
330
1F
100
AcDbEntity
  8
B-2
  6
Continuous
 62
     3
370
     9
100
AcDbLine
 10
-227.712126035948
 20
80.30739330556814
 30
0.0
 11
-227.712126035948
 21
-4.693258285964799
 31
0.0
  0
LINE
  5
117
330
1F
100
AcDbEntity
  8
B-2
  6
Continuous
 62
     3
370
     9
100
AcDbLine
 10
-220.7121153135557
 20
80.30739330556814
 30
0.0
 11
-220.7121153135557
 21
-4.693258285964799
 31
0.0
  0
LINE
  5
118
330
1F
100
AcDbEntity
  8
B-2
  6
Continuous
 62
     3
370
     9
100
AcDbLine
 10
-227.712126035948
 20
280.3083005849179
 30
0.0
 11
-227.712126035948
 21
191.3072893808426
 31
0.0
  0
LINE
  5
119
330
1F
100
AcDbEntity
  8
B-2
  6
Continuous
 62
     3
370
     9
100
AcDbLine
 10
-220.7121153135557
 20
280.3083005849179
 30
0.0
 11
-220.7121153135557
 21
191.3072893808426
 31
0.0
  0
LINE
  5
11A
330
1F
100
AcDbEntity
  8
B-2
  6
Continuous
 62
     3
370
     9
100
AcDbLine
 10
-220.3123144201329
 20
280.3083005849179
 30
0.0
 11
-185.4124739363387
 21
291.3076193006061
 31
0.0
  0
LINE
  5
11B
330
1F
100
AcDbEntity
  8
B-2
  6
Continuous
 62
     3
370
     9
100
AcDbLine
 10
-227.712126035948
 20
180.3083418248882
 30
0.0
 11
-227.712126035948
 21
91.30720690090173
 31
0.0
  0
LINE
  5
11C
330
1F
100
AcDbEntity
  8
B-2
  6
Continuous
 62
     3
370
     9
100
AcDbLine
 10
-220.7121153135557
 20
180.3083418248882
 30
0.0
 11
-220.7121153135557
 21
91.30720690090173
 31
0.0
  0
LINE
  5
11D
330
1F
100
AcDbEntity
  8
B-2
  6
Continuous
 62
     3
370
     9
100
AcDbLine
 10
-220.3123144201329
 20
180.3083418248882
 30
0.0
 11
-185.4124739363387
 21
191.3077842604879
 31
0.0
  0
LINE
  5
11E
330
1F
100
AcDbEntity
  8
B-2
  6
Continuous
 62
     3
370
     9
100
AcDbLine
 10
-192.4119279191301
 20
476.3073636127895
 30
0.0
 11
-192.4119279191301
 21
391.3077017805471
 31
0.0
  0
LINE
  5
11F
330
1F
100
AcDbEntity
  8
B-2
  6
Continuous
 62
     3
370
     9
100
AcDbLine
 10
-185.4119171967378
 20
476.3073636127895
 30
0.0
 11
-185.4119171967378
 21
391.3077017805471
 31
0.0
  0
LINE
  5
120
330
1F
100
AcDbEntity
  8
B-2
  6
Continuous
 62
     3
370
     9
100
AcDbLine
 10
-192.4119279191301
 20
380.3082593449474
 30
0.0
 11
-192.4119279191301
 21
291.3072481408722
 31
0.0
  0
LINE
  5
121
330
1F
100
AcDbEntity
  8
B-2
  6
Continuous
 62
     3
370
     9
100
AcDbLine
 10
-185.4119171967378
 20
380.3082593449474
 30
0.0
 11
-185.4119171967378
 21
291.3072481408722
 31
0.0
  0
LINE
  5
122
330
1F
100
AcDbEntity
  8
B-2
  6
Continuous
 62
     3
370
     9
100
AcDbLine
 10
-192.4119279191301
 20
80.30739330556814
 30
0.0
 11
-192.4119279191301
 21
-4.693258285964799
 31
0.0
  0
LINE
  5
123
330
1F
100
AcDbEntity
  8
B-2
  6
Continuous
 62
     3
370
     9
100
AcDbLine
 10
-185.4119171967378
 20
80.30739330556814
 30
0.0
 11
-185.4119171967378
 21
-4.693258285964799
 31
0.0
  0
LINE
  5
124
330
1F
100
AcDbEntity
  8
B-2
  6
Continuous
 62
     3
370
     9
100
AcDbLine
 10
-192.4119279191301
 20
280.3083005849179
 30
0.0
 11
-192.4119279191301
 21
191.3072893808426
 31
0.0
  0
LINE
  5
125
330
1F
100
AcDbEntity
  8
B-2
  6
Continuous
 62
     3
370
     9
100
AcDbLine
 10
-185.4119171967378
 20
280.3083005849179
 30
0.0
 11
-185.4119171967378
 21
191.3072893808426
 31
0.0
  0
LINE
  5
126
330
1F
100
AcDbEntity
  8
B-2
  6
Continuous
 62
     3
370
     9
100
AcDbLine
 10
-192.4119279191301
 20
180.3083418248882
 30
0.0
 11
-192.4119279191301
 21
91.30720690090173
 31
0.0
  0
LINE
  5
127
330
1F
100
AcDbEntity
  8
B-2
  6
Continuous
 62
     3
370
     9
100
AcDbLine
 10
-185.4119171967378
 20
180.3083418248882
 30
0.0
 11
-185.4119171967378
 21
91.30720690090173
 31
0.0
  0
LINE
  5
128
330
1F
100
AcDbEntity
  8
B-2
  6
Continuous
 62
     3
370
     9
100
AcDbLine
 10
-545.013427734375
 20
380.3082593449474
 30
0.0
 11
-150.0134854703336
 21
380.3082593449474
 31
0.0
  0
LINE
  5
129
330
1F
100
AcDbEntity
  8
B-2
  6
Continuous
 62
     3
370
     9
100
AcDbLine
 10
-545.013427734375
 20
91.30671202125656
 30
0.0
 11
-150.0134854703336
 21
91.30671202125656
 31
0.0
  0
LINE
  5
12A
330
1F
100
AcDbEntity
  8
B-2
  6
Continuous
 62
     3
370
     9
100
AcDbLine
 10
-545.013427734375
 20
280.3083005849179
 30
0.0
 11
-150.0134854703336
 21
280.3083005849179
 31
0.0
  0
LINE
  5
12B
330
1F
100
AcDbEntity
  8
B-2
  6
Continuous
 62
     3
370
     9
100
AcDbLine
 10
-545.013427734375
 20
291.3076193006061
 30
0.0
 11
-150.0134854703336
 21
291.3076193006061
 31
0.0
  0
LINE
  5
12C
330
1F
100
AcDbEntity
  8
B-2
  6
Continuous
 62
     3
370
     9
100
AcDbLine
 10
-545.013427734375
 20
180.3083418248882
 30
0.0
 11
-150.0134854703336
 21
180.3083418248882
 31
0.0
  0
LINE
  5
12D
330
1F
100
AcDbEntity
  8
B-2
  6
Continuous
 62
     3
370
     9
100
AcDbLine
 10
-545.013427734375
 20
191.3077842604879
 30
0.0
 11
-150.0134854703336
 21
191.3077842604879
 31
0.0
  0
LINE
  5
12E
330
1F
100
AcDbEntity
  8
B-2
  6
Continuous
 62
     3
370
     9
100
AcDbLine
 10
-185.012116303315
 20
380.3082593449474
 30
0.0
 11
-150.0134854703336
 21
391.1812600311805
 31
0.0
  0
LINE
  5
12F
330
1F
100
AcDbEntity
  8
B-2
  6
Continuous
 62
     3
370
     9
100
AcDbLine
 10
-185.012116303315
 20
80.30739330556814
 30
0.0
 11
-150.0134854703336
 21
91.18138375109184
 31
0.0
  0
LINE
  5
130
330
1F
100
AcDbEntity
  8
B-2
  6
Continuous
 62
     3
370
     9
100
AcDbLine
 10
-185.012116303315
 20
280.3083005849179
 30
0.0
 11
-150.0134854703336
 21
291.1811775512396
 31
0.0
  0
LINE
  5
131
330
1F
100
AcDbEntity
  8
B-2
  6
Continuous
 62
     3
370
     9
100
AcDbLine
 10
-185.012116303315
 20
180.3083418248882
 30
0.0
 11
-150.0134854703336
 21
191.1813425111214
 31
0.0
  0
LINE
  5
132
330
1F
100
AcDbEntity
  8
B-4
  6
Continuous
 62
     7
370
     9
100
AcDbLine
 10
-506.6131179397171
 20
525.8637452507751
 30
0.0
 11
-471.312919822899
 21
525.8637452507751
 31
0.0
  0
LINE
  5
133
330
1F
100
AcDbEntity
  8
B-4
  6
Continuous
 62
     7
370
     9
100
AcDbLine
 10
-506.6131179397171
 20
461.7737381904921
 30
0.0
 11
-506.6131179397171
 21
527.3637254555892
 31
0.0
  0
LINE
  5
134
330
1F
100
AcDbEntity
  8
B-4
  6
Continuous
 62
     7
370
     9
100
AcDbLine
 10
-471.312919822899
 20
461.7737381904921
 30
0.0
 11
-471.312919822899
 21
527.3637254555892
 31
0.0
  0
TEXT
  5
135
330
1F
100
AcDbEntity
  8
B-4
  6
Continuous
 62
     2
370
     9
100
AcDbText
 10
-268.2635539286845
 20
566.7810649826164
 30
0.0
 40
15.24
  1
213.5
 41
1.09999991752006
  7
ＭＳ ゴシック
100
AcDbText
  0
TEXT
  5
136
330
1F
100
AcDbEntity
  8
B-4
  6
Continuous
 62
     2
370
     9
100
AcDbText
 10
-481.763540731894
 20
566.7810649826164
 30
0.0
 40
15.24
  1
213.5
 41
1.099999917520058
  7
ＭＳ ゴシック
100
AcDbText
  0
TEXT
  5
137
330
1F
100
AcDbEntity
  8
B-4
  6
Continuous
 62
     2
370
     9
100
AcDbText
 10
-510.8380291913006
 20
531.6837056604035
 30
0.0
 40
15.24
  1
35.3
 41
1.09375
  7
ＭＳ ゴシック
100
AcDbText
  0
LINE
  5
138
330
1F
100
AcDbEntity
  8
B-5
  6
Continuous
 62
     7
370
     9
100
AcDbLine
 10
481.8425358952703
 20
545.9543742098123
 30
0.0
 11
615.0392686998523
 21
545.9543742098123
 31
0.0
  0
TEXT
  5
139
330
1F
100
AcDbEntity
  8
B-5
  6
Continuous
 62
     7
370
     9
100
AcDbText
 10
489.8574829101562
 20
552.19889740977
 30
0.0
 40
11.43
  1
アンカー　φ９
 41
1.142857142857143
  7
ＭＳ ゴシック
100
AcDbText
  0
LINE
  5
13A
330
1F
100
AcDbEntity
  8
B-1
  6
Continuous
 62
     2
370
     9
100
AcDbLine
 10
359.4492731867609
 20
494.3074972302936
 30
0.0
 11
359.4492731867609
 21
497.807286081645
 31
0.0
  0
LINE
  5
13B
330
1F
100
AcDbEntity
  8
B-1
  6
Continuous
 62
     2
370
     9
100
AcDbLine
 10
416.9492154508023
 20
437.8073355696096
 30
0.0
 11
420.4492517419763
 21
437.8073355696096
 31
0.0
  0
LINE
  5
13C
330
1F
100
AcDbEntity
  8
B-1
  6
Continuous
 62
     2
370
     9
100
AcDbLine
 10
414.4492072028083
 20
487.8075005294913
 30
0.0
 11
414.4492072028083
 21
440.307467537515
 31
0.0
  0
LINE
  5
13D
330
1F
100
AcDbEntity
  8
B-1
  6
JWW_HOJO
 62
     2
370
     9
100
AcDbLine
 10
361.9492814347552
 20
491.8073652623883
 30
0.0
 11
357.2953095307221
 21
491.8073652623883
 31
0.0
  0
LINE
  5
13E
330
1F
100
AcDbEntity
  8
B-1
  6
JWW_HOJO
 62
     2
370
     9
100
AcDbLine
 10
359.4492731867609
 20
494.3074972302936
 30
0.0
 11
359.4492731867609
 21
488.9645291401332
 31
0.0
  0
LINE
  5
13F
330
1F
100
AcDbEntity
  8
B-1
  6
Continuous
 62
     2
370
     9
100
AcDbLine
 10
410.4490950300888
 20
491.8073652623883
 30
0.0
 11
361.9492814347552
 21
491.8073652623883
 31
0.0
  0
LINE
  5
140
330
1F
100
AcDbEntity
  8
B-1
  6
Continuous
 62
     2
370
     9
100
AcDbLine
 10
420.4492517419763
 20
497.807286081645
 30
0.0
 11
359.4492731867609
 21
497.807286081645
 31
0.0
  0
LINE
  5
141
330
1F
100
AcDbEntity
  8
B-1
  6
Continuous
 62
     2
370
     9
100
AcDbLine
 10
420.4492517419763
 20
497.807286081645
 30
0.0
 11
420.4492517419763
 21
437.8073355696096
 31
0.0
  0
LINE
  5
142
330
1F
100
AcDbEntity
  8
B-1
  6
Continuous
 62
     2
370
     9
100
AcDbLine
 10
390.4492764859586
 20
497.807286081645
 30
0.0
 11
390.4492764859586
 21
506.8074147503528
 31
0.0
  0
LINE
  5
143
330
1F
100
AcDbEntity
  8
B-1
  6
Continuous
 62
     2
370
     9
100
AcDbLine
 10
404.2644603832349
 20
506.8074147503528
 30
0.0
 11
390.4492764859586
 21
506.8074147503528
 31
0.0
  0
LINE
  5
144
330
1F
100
AcDbEntity
  8
B-1
  6
Continuous
 62
     2
370
     9
100
AcDbLine
 10
408.9230099239865
 20
498.4206894019575
 30
0.0
 11
467.1139278927365
 21
514.0128623854879
 31
0.0
  0
LINE
  5
145
330
1F
100
AcDbEntity
  8
B-1
  6
Continuous
 62
     2
370
     9
100
AcDbLine
 10
406.5938588735222
 20
507.1139926905977
 30
0.0
 11
464.7845294024495
 21
522.7061656741282
 31
0.0
  0
LINE
  5
146
330
1F
100
AcDbEntity
  8
B-1
  6
JWW_CENTER2
 62
     2
370
     9
100
AcDbLine
 10
404.2642129434122
 20
502.3074741359102
 30
0.0
 11
386.644270613387
 21
502.3074741359102
 31
0.0
  0
LINE
  5
147
330
1F
100
AcDbEntity
  8
B-1
  6
JWW_CENTER2
 62
     2
370
     9
100
AcDbLine
 10
407.758310678843
 20
502.7674647661889
 30
0.0
 11
472.9249284074115
 21
520.2285507300825
 31
0.0
  0
LINE
  5
148
330
1F
100
AcDbEntity
  8
B-1
  6
Continuous
 62
     2
370
     9
100
AcDbLine
 10
359.4492731867609
 20
-18.69272299114852
 30
0.0
 11
359.4492731867609
 21
-22.19251184249982
 31
0.0
  0
LINE
  5
149
330
1F
100
AcDbEntity
  8
B-1
  6
Continuous
 62
     2
370
     9
100
AcDbLine
 10
416.9492154508023
 20
37.80731494962426
 30
0.0
 11
420.4492517419763
 21
37.80731494962426
 31
0.0
  0
LINE
  5
14A
330
1F
100
AcDbEntity
  8
B-1
  6
Continuous
 62
     2
370
     9
100
AcDbLine
 10
414.4492072028083
 20
-12.19260257043478
 30
0.0
 11
414.4492072028083
 21
35.30730670163025
 31
0.0
  0
LINE
  5
14B
330
1F
100
AcDbEntity
  8
B-1
  6
JWW_HOJO
 62
     2
370
     9
100
AcDbLine
 10
361.9492814347552
 20
-16.19259102324312
 30
0.0
 11
357.2953095307221
 21
-16.19259102324312
 31
0.0
  0
LINE
  5
14C
330
1F
100
AcDbEntity
  8
B-1
  6
Continuous
 62
     2
370
     9
100
AcDbLine
 10
410.4490950300888
 20
-16.19259102324312
 30
0.0
 11
361.9492814347552
 21
-16.19259102324312
 31
0.0
  0
LINE
  5
14D
330
1F
100
AcDbEntity
  8
B-1
  6
Continuous
 62
     2
370
     9
100
AcDbLine
 10
420.4492517419763
 20
-22.19251184249982
 30
0.0
 11
359.4492731867609
 21
-22.19251184249982
 31
0.0
  0
LINE
  5
14E
330
1F
100
AcDbEntity
  8
B-1
  6
Continuous
 62
     2
370
     9
100
AcDbLine
 10
420.4492517419763
 20
-22.19251184249982
 30
0.0
 11
420.4492517419763
 21
37.80731494962426
 31
0.0
  0
LINE
  5
14F
330
1F
100
AcDbEntity
  8
B-1
  6
Continuous
 62
     2
370
     9
100
AcDbLine
 10
390.4492764859586
 20
-22.19251184249982
 30
0.0
 11
390.4492764859586
 21
-31.19264051120764
 31
0.0
  0
LINE
  5
150
330
1F
100
AcDbEntity
  8
B-1
  6
Continuous
 62
     2
370
     9
100
AcDbLine
 10
404.2644603832349
 20
-31.19264051120764
 30
0.0
 11
390.4492764859586
 21
-31.19264051120764
 31
0.0
  0
LINE
  5
151
330
1F
100
AcDbEntity
  8
B-1
  6
Continuous
 62
     2
370
     9
100
AcDbLine
 10
408.9230099239865
 20
-22.80591516281232
 30
0.0
 11
467.1139278927365
 21
-38.39833558616539
 31
0.0
  0
LINE
  5
152
330
1F
100
AcDbEntity
  8
B-1
  6
Continuous
 62
     2
370
     9
100
AcDbLine
 10
406.5938588735222
 20
-31.49921845145256
 30
0.0
 11
464.7845294024495
 21
-47.09139143498297
 31
0.0
  0
LINE
  5
153
330
1F
100
AcDbEntity
  8
B-1
  6
JWW_CENTER2
 62
     2
370
     9
100
AcDbLine
 10
404.2642129434122
 20
-26.69269989676506
 30
0.0
 11
386.644270613387
 21
-26.69269989676506
 31
0.0
  0
LINE
  5
154
330
1F
100
AcDbEntity
  8
B-1
  6
JWW_CENTER2
 62
     2
370
     9
100
AcDbLine
 10
407.758310678843
 20
-27.15269052704377
 30
0.0
 11
472.9249284074115
 21
-44.61402393075998
 31
0.0
  0
LINE
  5
155
330
1F
100
AcDbEntity
  8
B-1
  6
Continuous
 62
     2
370
     9
100
AcDbLine
 10
-402.5135761982685
 20
-32.79308128401168
 30
0.0
 11
-402.5135761982685
 21
-26.69282361667639
 31
0.0
  0
LINE
  5
156
330
1F
100
AcDbEntity
  8
B-1
  6
Continuous
 62
     2
370
     9
100
AcDbLine
 10
-302.513617438239
 20
-42.79311427598805
 30
0.0
 11
-392.5135432062922
 21
-42.79311427598805
 31
0.0
  0
LINE
  5
157
330
1F
100
AcDbEntity
  8
B-1
  6
Continuous
 62
     2
370
     9
100
AcDbLine
 10
-292.5135844462626
 20
-32.79308128401168
 30
0.0
 11
-292.5135844462626
 21
-26.69282361667639
 31
0.0
  0
LINE
  5
158
330
1F
100
AcDbEntity
  8
B-1
  6
Continuous
 62
     2
370
     9
100
AcDbLine
 10
-301.5135893950591
 20
-32.79308128401168
 30
0.0
 11
-301.5135893950591
 21
-26.69282361667639
 31
0.0
  0
LINE
  5
159
330
1F
100
AcDbEntity
  8
B-1
  6
Continuous
 62
     2
370
     9
100
AcDbLine
 10
-392.5135432062922
 20
-33.79292374732456
 30
0.0
 11
-302.5133699984164
 21
-33.79292374732456
 31
0.0
  0
LINE
  5
15A
330
1F
100
AcDbEntity
  8
B-1
  6
Continuous
 62
     2
370
     9
100
AcDbLine
 10
-393.5136949693834
 20
-32.79308128401168
 30
0.0
 11
-393.5136949693834
 21
-26.69282361667639
 31
0.0
  0
LINE
  5
15B
330
1F
100
AcDbEntity
  8
B-1
  6
JWW_CENTER1
 62
     2
370
     9
100
AcDbLine
 10
-398.0135118639147
 20
-18.58545782803615
 30
0.0
 11
-398.0135118639147
 21
-34.18282704784188
 31
0.0
  0
LINE
  5
15C
330
1F
100
AcDbEntity
  8
B-1
  6
JWW_CENTER1
 62
     2
370
     9
100
AcDbLine
 10
-389.8507195550042
 20
-26.69282361667639
 30
0.0
 11
-406.2577118744721
 21
-26.69282361667639
 31
0.0
  0
LINE
  5
15D
330
1F
100
AcDbEntity
  8
B-1
  6
JWW_CENTER1
 62
     2
370
     9
100
AcDbLine
 10
-297.0135250607052
 20
-18.58545782803615
 30
0.0
 11
-297.0135250607052
 21
-34.18282704784188
 31
0.0
  0
LINE
  5
15E
330
1F
100
AcDbEntity
  8
B-1
  6
JWW_CENTER1
 62
     2
370
     9
100
AcDbLine
 10
-288.8506090318834
 20
-26.69282361667639
 30
0.0
 11
-305.2576013513513
 21
-26.69282361667639
 31
0.0
  0
LINE
  5
15F
330
1F
100
AcDbEntity
  8
B-1
  6
Continuous
 62
     2
370
     9
100
AcDbLine
 10
-402.5135761982685
 20
508.4076080833341
 30
0.0
 11
-402.5135761982685
 21
502.3072266960875
 31
0.0
  0
LINE
  5
160
330
1F
100
AcDbEntity
  8
B-1
  6
Continuous
 62
     2
370
     9
100
AcDbLine
 10
-302.513617438239
 20
518.4076410753106
 30
0.0
 11
-392.5135432062922
 21
518.4076410753106
 31
0.0
  0
LINE
  5
161
330
1F
100
AcDbEntity
  8
B-1
  6
Continuous
 62
     2
370
     9
100
AcDbLine
 10
-292.5135844462626
 20
508.4076080833341
 30
0.0
 11
-292.5135844462626
 21
502.3072266960875
 31
0.0
  0
LINE
  5
162
330
1F
100
AcDbEntity
  8
B-1
  6
Continuous
 62
     2
370
     9
100
AcDbLine
 10
-301.5135893950591
 20
508.4076080833341
 30
0.0
 11
-301.5135893950591
 21
502.3072266960875
 31
0.0
  0
LINE
  5
163
330
1F
100
AcDbEntity
  8
B-1
  6
Continuous
 62
     2
370
     9
100
AcDbLine
 10
-392.5135432062922
 20
509.4072649667801
 30
0.0
 11
-302.5133699984164
 21
509.4072649667801
 31
0.0
  0
LINE
  5
164
330
1F
100
AcDbEntity
  8
B-1
  6
Continuous
 62
     2
370
     9
100
AcDbLine
 10
-393.5136949693834
 20
508.4076080833341
 30
0.0
 11
-393.5136949693834
 21
502.3072266960875
 31
0.0
  0
LINE
  5
165
330
1F
100
AcDbEntity
  8
B-1
  6
JWW_CENTER1
 62
     2
370
     9
100
AcDbLine
 10
-398.0135118639147
 20
494.1998609074474
 30
0.0
 11
-398.0135118639147
 21
509.7972301272532
 31
0.0
  0
LINE
  5
166
330
1F
100
AcDbEntity
  8
B-1
  6
JWW_CENTER1
 62
     2
370
     9
100
AcDbLine
 10
-389.8507195550042
 20
502.3072266960875
 30
0.0
 11
-406.2577118744721
 21
502.3072266960875
 31
0.0
  0
LINE
  5
167
330
1F
100
AcDbEntity
  8
B-1
  6
JWW_CENTER1
 62
     2
370
     9
100
AcDbLine
 10
-297.0135250607052
 20
494.1998609074474
 30
0.0
 11
-297.0135250607052
 21
509.7972301272532
 31
0.0
  0
LINE
  5
168
330
1F
100
AcDbEntity
  8
B-1
  6
JWW_CENTER1
 62
     2
370
     9
100
AcDbLine
 10
-288.8506090318834
 20
502.3072266960875
 30
0.0
 11
-305.2576013513513
 21
502.3072266960875
 31
0.0
  0
ARC
  5
169
330
1F
100
AcDbEntity
  8
B-1
  6
Continuous
 62
     2
370
     9
100
AcDbCircle
 10
361.9492814347552
 20
494.3074972302936
 30
0.0
 40
2.500000515499631
100
AcDbArc
 50
180.0
 51
270.0
  0
ARC
  5
16A
330
1F
100
AcDbEntity
  8
B-1
  6
Continuous
 62
     2
370
     9
100
AcDbCircle
 10
416.9492154508023
 20
440.307467537515
 30
0.0
 40
2.500000515499631
100
AcDbArc
 50
180.0
 51
270.0
  0
ARC
  5
16B
330
1F
100
AcDbEntity
  8
B-1
  6
Continuous
 62
     2
370
     9
100
AcDbCircle
 10
410.4490950300888
 20
487.8075005294913
 30
0.0
 40
4.000000293190415
100
AcDbArc
 50
0.0
 51
90.0
  0
ARC
  5
16C
330
1F
100
AcDbEntity
  8
B-1
  6
Continuous
 62
     2
370
     9
100
AcDbCircle
 10
404.2642129434122
 20
515.8072959792379
 30
0.0
 40
18.00000216509845
100
AcDbArc
 50
270.0
 51
285.0
  0
ARC
  5
16D
330
1F
100
AcDbEntity
  8
B-1
  6
Continuous
 62
     2
370
     9
100
AcDbCircle
 10
465.949228647593
 20
518.3593903098966
 30
0.0
 40
4.500000541274613
100
AcDbArc
 50
285.0001373291016
 51
104.9999084472656
  0
ARC
  5
16E
330
1F
100
AcDbEntity
  8
B-1
  6
JWW_CENTER2
 62
     2
370
     9
100
AcDbCircle
 10
404.2642129434122
 20
515.8072959792379
 30
0.0
 40
13.50000259038564
100
AcDbArc
 50
270.0
 51
284.9999542236328
  0
ARC
  5
16F
330
1F
100
AcDbEntity
  8
B-1
  6
Continuous
 62
     2
370
     9
100
AcDbCircle
 10
404.2644603832349
 20
515.8072959792379
 30
0.0
 40
9.000001082549225
100
AcDbArc
 50
270.0
 51
285.0000152587891
  0
ARC
  5
170
330
1F
100
AcDbEntity
  8
B-1
  6
Continuous
 62
     2
370
     9
100
AcDbCircle
 10
361.9492814347552
 20
-18.69272299114852
 30
0.0
 40
2.500000515499631
100
AcDbArc
 50
90.0
 51
180.0
  0
ARC
  5
171
330
1F
100
AcDbEntity
  8
B-1
  6
Continuous
 62
     2
370
     9
100
AcDbCircle
 10
416.9492154508023
 20
35.30730670163025
 30
0.0
 40
2.500000515499631
100
AcDbArc
 50
90.0
 51
180.0
  0
ARC
  5
172
330
1F
100
AcDbEntity
  8
B-1
  6
Continuous
 62
     2
370
     9
100
AcDbCircle
 10
410.4490950300888
 20
-12.19260257043478
 30
0.0
 40
4.000000293190415
100
AcDbArc
 50
270.0
 51
0.0
  0
ARC
  5
173
330
1F
100
AcDbEntity
  8
B-1
  6
Continuous
 62
     2
370
     9
100
AcDbCircle
 10
404.2642129434122
 20
-40.19276917991539
 30
0.0
 40
18.00000216509845
100
AcDbArc
 50
75.0
 51
89.99999999999999
  0
ARC
  5
174
330
1F
100
AcDbEntity
  8
B-1
  6
Continuous
 62
     2
370
     9
100
AcDbCircle
 10
465.949228647593
 20
-42.74486351057418
 30
0.0
 40
4.500000541274613
100
AcDbArc
 50
255.0000915527344
 51
74.99986267089845
  0
ARC
  5
175
330
1F
100
AcDbEntity
  8
B-1
  6
JWW_CENTER2
 62
     2
370
     9
100
AcDbCircle
 10
404.2642129434122
 20
-40.19252174009273
 30
0.0
 40
13.50000259038564
100
AcDbArc
 50
75.00004577636717
 51
90.0
  0
ARC
  5
176
330
1F
100
AcDbEntity
  8
B-1
  6
Continuous
 62
     2
370
     9
100
AcDbCircle
 10
404.2644603832349
 20
-40.19276917991539
 30
0.0
 40
9.000001082549225
100
AcDbArc
 50
74.99998474121094
 51
90.00000000000001
  0
CIRCLE
  5
177
330
1F
100
AcDbEntity
  8
B-1
  6
Continuous
 62
     2
370
     9
100
AcDbCircle
 10
-398.0135118639147
 20
-26.69282361667639
 30
0.0
 40
4.499999574712805
  0
CIRCLE
  5
178
330
1F
100
AcDbEntity
  8
B-1
  6
Continuous
 62
     2
370
     9
100
AcDbCircle
 10
-297.0137725005279
 20
-26.69282361667639
 30
0.0
 40
4.499999574712805
  0
ARC
  5
179
330
1F
100
AcDbEntity
  8
B-1
  6
Continuous
 62
     2
370
     9
100
AcDbCircle
 10
-392.5135432062922
 20
-32.79308128401168
 30
0.0
 40
9.9999991623131
100
AcDbArc
 50
180.0
 51
270.0
  0
ARC
  5
17A
330
1F
100
AcDbEntity
  8
B-1
  6
Continuous
 62
     2
370
     9
100
AcDbCircle
 10
-302.513617438239
 20
-32.79308128401168
 30
0.0
 40
9.9999991623131
100
AcDbArc
 50
270.0
 51
0.0
  0
ARC
  5
17B
330
1F
100
AcDbEntity
  8
B-1
  6
Continuous
 62
     2
370
     9
100
AcDbCircle
 10
-302.5133699984164
 20
-32.79308128401168
 30
0.0
 40
0.9999999524773778
100
AcDbArc
 50
270.0
 51
0.0
  0
ARC
  5
17C
330
1F
100
AcDbEntity
  8
B-1
  6
Continuous
 62
     2
370
     9
100
AcDbCircle
 10
-392.5135432062922
 20
-32.79308128401168
 30
0.0
 40
0.9999999524773778
100
AcDbArc
 50
180.0
 51
270.0
  0
CIRCLE
  5
17D
330
1F
100
AcDbEntity
  8
B-1
  6
Continuous
 62
     2
370
     9
100
AcDbCircle
 10
-398.0135118639147
 20
502.3072266960875
 30
0.0
 40
4.499999574712805
  0
CIRCLE
  5
17E
330
1F
100
AcDbEntity
  8
B-1
  6
Continuous
 62
     2
370
     9
100
AcDbCircle
 10
-297.0137725005279
 20
502.3072266960875
 30
0.0
 40
4.499999574712805
  0
ARC
  5
17F
330
1F
100
AcDbEntity
  8
B-1
  6
Continuous
 62
     2
370
     9
100
AcDbCircle
 10
-392.5135432062922
 20
508.4076080833341
 30
0.0
 40
9.9999991623131
100
AcDbArc
 50
90.0
 51
180.0
  0
ARC
  5
180
330
1F
100
AcDbEntity
  8
B-1
  6
Continuous
 62
     2
370
     9
100
AcDbCircle
 10
-302.513617438239
 20
508.4076080833341
 30
0.0
 40
9.9999991623131
100
AcDbArc
 50
0.0
 51
90.0
  0
ARC
  5
181
330
1F
100
AcDbEntity
  8
B-1
  6
Continuous
 62
     2
370
     9
100
AcDbCircle
 10
-302.5133699984164
 20
508.4076080833341
 30
0.0
 40
0.9999999524773778
100
AcDbArc
 50
0.0
 51
90.0
  0
ARC
  5
182
330
1F
100
AcDbEntity
  8
B-1
  6
Continuous
 62
     2
370
     9
100
AcDbCircle
 10
-392.5135432062922
 20
508.4076080833341
 30
0.0
 40
0.9999999524773778
100
AcDbArc
 50
90.0
 51
180.0
  0
LINE
  5
183
330
1F
100
AcDbEntity
  8
B-1
  6
Continuous
 62
     2
370
     9
100
AcDbLine
 10
-134.0135316591005
 20
-22.19282114227815
 30
0.0
 11
-561.0135052655194
 21
-22.19282114227815
 31
0.0
  0
LINE
  5
184
330
1F
100
AcDbEntity
  8
B-1
  6
Continuous
 62
     2
370
     9
100
AcDbLine
 10
-561.0135052655194
 20
497.807286081645
 30
0.0
 11
-134.0135316591005
 21
497.807286081645
 31
0.0
  0
LINE
  5
185
330
1F
100
AcDbEntity
  8
B-1
  6
Continuous
 62
     2
370
     9
100
AcDbLine
 10
-555.0134297963735
 20
-16.19277660311004
 30
0.0
 11
-555.0134297963735
 21
491.807241542477
 31
0.0
  0
LINE
  5
186
330
1F
100
AcDbEntity
  8
B-1
  6
Continuous
 62
     2
370
     9
100
AcDbLine
 10
-561.0135052655194
 20
-22.19282114227815
 30
0.0
 11
-561.0135052655194
 21
497.807286081645
 31
0.0
  0
LINE
  5
187
330
1F
100
AcDbEntity
  8
B-1
  6
Continuous
 62
     2
370
     9
100
AcDbLine
 10
-134.0135316591005
 20
497.807286081645
 30
0.0
 11
-134.0135316591005
 21
-22.19282114227815
 31
0.0
  0
LINE
  5
188
330
1F
100
AcDbEntity
  8
B-1
  6
Continuous
 62
     2
370
     9
100
AcDbLine
 10
-140.0135761982685
 20
491.807241542477
 30
0.0
 11
-140.0135761982685
 21
-16.19277660311004
 31
0.0
  0
LINE
  5
189
330
1F
100
AcDbEntity
  8
B-2
  6
Continuous
 62
     3
370
     9
100
AcDbLine
 10
409.44919070682
 20
480.8074279471433
 30
0.0
 11
409.44919070682
 21
476.3074873327008
 31
0.0
  0
LINE
  5
18A
330
1F
100
AcDbEntity
  8
B-2
  6
Continuous
 62
     3
370
     9
100
AcDbLine
 10
365.1061186919341
 20
380.1503927381061
 30
0.0
 11
359.4492731867609
 21
385.8073619631907
 31
0.0
  0
LINE
  5
18B
330
1F
100
AcDbEntity
  8
B-2
  6
Continuous
 62
     3
370
     9
100
AcDbLine
 10
359.4492731867609
 20
385.8073619631907
 30
0.0
 11
365.1061186919341
 21
391.4640837484525
 31
0.0
  0
LINE
  5
18C
330
1F
100
AcDbEntity
  8
B-2
  6
Continuous
 62
     3
370
     9
100
AcDbLine
 10
365.1061186919341
 20
391.4640837484525
 30
0.0
 11
370.7629641971073
 21
385.8073619631907
 31
0.0
  0
LINE
  5
18D
330
1F
100
AcDbEntity
  8
B-2
  6
Continuous
 62
     3
370
     9
100
AcDbLine
 10
359.4492731867609
 20
476.3074873327008
 30
0.0
 11
414.4492072028083
 21
476.3074873327008
 31
0.0
  0
LINE
  5
18E
330
1F
100
AcDbEntity
  8
B-2
  6
Continuous
 62
     3
370
     9
100
AcDbLine
 10
366.4493457691091
 20
476.3074873327008
 30
0.0
 11
366.4493457691091
 21
390.1207329513663
 31
0.0
  0
LINE
  5
18F
330
1F
100
AcDbEntity
  8
B-2
  6
Continuous
 62
     3
370
     9
100
AcDbLine
 10
367.949202254012
 20
476.3074873327008
 30
0.0
 11
367.949202254012
 21
388.6210001863748
 31
0.0
  0
LINE
  5
190
330
1F
100
AcDbEntity
  8
B-2
  6
Continuous
 62
     3
370
     9
100
AcDbLine
 10
370.7629641971073
 20
385.8073619631907
 30
0.0
 11
367.1315373601141
 21
382.1756876863748
 31
0.0
  0
LINE
  5
191
330
1F
100
AcDbEntity
  8
B-2
  6
Continuous
 62
     3
370
     9
100
AcDbLine
 10
367.1315373601141
 20
382.1756876863748
 30
0.0
 11
365.1061186919341
 21
380.1503927381061
 31
0.0
  0
LINE
  5
192
330
1F
100
AcDbEntity
  8
B-2
  6
Continuous
 62
     3
370
     9
100
AcDbLine
 10
409.44919070682
 20
-9.192642160806468
 30
0.0
 11
409.44919070682
 21
-4.692701546363889
 31
0.0
  0
LINE
  5
193
330
1F
100
AcDbEntity
  8
B-2
  6
Continuous
 62
     3
370
     9
100
AcDbLine
 10
359.4492731867609
 20
-4.692701546363889
 30
0.0
 11
414.4492072028083
 21
-4.692701546363889
 31
0.0
  0
LINE
  5
194
330
1F
100
AcDbEntity
  8
B-2
  6
Continuous
 62
     3
370
     9
100
AcDbLine
 10
359.4492731867609
 20
-9.192642160806468
 30
0.0
 11
409.44919070682
 21
-9.192642160806468
 31
0.0
  0
LINE
  5
195
330
1F
100
AcDbEntity
  8
B-2
  6
Continuous
 62
     3
370
     9
100
AcDbLine
 10
405.9492781355576
 20
476.3074873327008
 30
0.0
 11
405.9492781355576
 21
-4.692701546363889
 31
0.0
  0
LINE
  5
196
330
1F
100
AcDbEntity
  8
B-2
  6
Continuous
 62
     3
370
     9
100
AcDbLine
 10
407.4492583403716
 20
476.3074873327008
 30
0.0
 11
407.4492583403716
 21
-4.692701546363889
 31
0.0
  0
LINE
  5
197
330
1F
100
AcDbEntity
  8
B-2
  6
Continuous
 62
     3
370
     9
100
AcDbLine
 10
414.4492072028083
 20
476.3074873327008
 30
0.0
 11
414.4492072028083
 21
-4.692701546363889
 31
0.0
  0
LINE
  5
198
330
1F
100
AcDbEntity
  8
B-2
  6
Continuous
 62
     3
370
     9
100
AcDbLine
 10
359.4492731867609
 20
480.8074279471433
 30
0.0
 11
409.44919070682
 21
480.8074279471433
 31
0.0
  0
LINE
  5
199
330
1F
100
AcDbEntity
  8
B-2
  6
Continuous
 62
     3
370
     9
100
AcDbLine
 10
365.1061186919341
 20
91.46426932831945
 30
0.0
 11
359.4492731867609
 21
85.80742382314627
 31
0.0
  0
LINE
  5
19A
330
1F
100
AcDbEntity
  8
B-2
  6
Continuous
 62
     3
370
     9
100
AcDbLine
 10
359.4492731867609
 20
85.80742382314627
 30
0.0
 11
365.1061186919341
 21
80.15070203788441
 31
0.0
  0
LINE
  5
19B
330
1F
100
AcDbEntity
  8
B-2
  6
Continuous
 62
     3
370
     9
100
AcDbLine
 10
365.1061186919341
 20
80.15070203788441
 30
0.0
 11
370.7629641971073
 21
85.80742382314627
 31
0.0
  0
LINE
  5
19C
330
1F
100
AcDbEntity
  8
B-2
  6
Continuous
 62
     3
370
     9
100
AcDbLine
 10
370.7629641971073
 20
85.80742382314627
 30
0.0
 11
367.1315373601141
 21
89.43897438005082
 31
0.0
  0
LINE
  5
19D
330
1F
100
AcDbEntity
  8
B-2
  6
Continuous
 62
     3
370
     9
100
AcDbLine
 10
367.1315373601141
 20
89.43897438005082
 30
0.0
 11
365.1061186919341
 21
91.46426932831945
 31
0.0
  0
LINE
  5
19E
330
1F
100
AcDbEntity
  8
B-2
  6
Continuous
 62
     3
370
     9
100
AcDbLine
 10
365.1061186919341
 20
191.4641662283933
 30
0.0
 11
359.4492731867609
 21
185.8074444431315
 31
0.0
  0
LINE
  5
19F
330
1F
100
AcDbEntity
  8
B-2
  6
Continuous
 62
     3
370
     9
100
AcDbLine
 10
359.4492731867609
 20
185.8074444431315
 30
0.0
 11
365.1061186919341
 21
180.1507226578697
 31
0.0
  0
LINE
  5
1A0
330
1F
100
AcDbEntity
  8
B-2
  6
Continuous
 62
     3
370
     9
100
AcDbLine
 10
365.1061186919341
 20
180.1507226578697
 30
0.0
 11
370.7629641971073
 21
185.8074444431315
 31
0.0
  0
LINE
  5
1A1
330
1F
100
AcDbEntity
  8
B-2
  6
Continuous
 62
     3
370
     9
100
AcDbLine
 10
370.7629641971073
 20
185.8074444431315
 30
0.0
 11
367.1315373601141
 21
189.4388712801248
 31
0.0
  0
LINE
  5
1A2
330
1F
100
AcDbEntity
  8
B-2
  6
Continuous
 62
     3
370
     9
100
AcDbLine
 10
367.1315373601141
 20
189.4388712801248
 30
0.0
 11
365.1061186919341
 21
191.4641662283933
 31
0.0
  0
LINE
  5
1A3
330
1F
100
AcDbEntity
  8
B-2
  6
Continuous
 62
     3
370
     9
100
AcDbLine
 10
365.1061186919341
 20
291.4642487083341
 30
0.0
 11
359.4492731867609
 21
285.8075269230724
 31
0.0
  0
LINE
  5
1A4
330
1F
100
AcDbEntity
  8
B-2
  6
Continuous
 62
     3
370
     9
100
AcDbLine
 10
359.4492731867609
 20
285.8075269230724
 30
0.0
 11
365.1061186919341
 21
280.1505576979879
 31
0.0
  0
LINE
  5
1A5
330
1F
100
AcDbEntity
  8
B-2
  6
Continuous
 62
     3
370
     9
100
AcDbLine
 10
365.1061186919341
 20
280.1505576979879
 30
0.0
 11
370.7629641971073
 21
285.8075269230724
 31
0.0
  0
LINE
  5
1A6
330
1F
100
AcDbEntity
  8
B-2
  6
Continuous
 62
     3
370
     9
100
AcDbLine
 10
370.7629641971073
 20
285.8075269230724
 30
0.0
 11
367.1315373601141
 21
289.4389537600657
 31
0.0
  0
LINE
  5
1A7
330
1F
100
AcDbEntity
  8
B-2
  6
Continuous
 62
     3
370
     9
100
AcDbLine
 10
367.1315373601141
 20
289.4389537600657
 30
0.0
 11
365.1061186919341
 21
291.4642487083341
 31
0.0
  0
LINE
  5
1A8
330
1F
100
AcDbEntity
  8
B-2
  6
Continuous
 62
     3
370
     9
100
AcDbLine
 10
366.4493457691091
 20
381.4934960953697
 30
0.0
 11
366.4493457691091
 21
290.1211453510707
 31
0.0
  0
LINE
  5
1A9
330
1F
100
AcDbEntity
  8
B-2
  6
Continuous
 62
     3
370
     9
100
AcDbLine
 10
366.4493457691091
 20
281.4936610552514
 30
0.0
 11
366.4493457691091
 21
190.1211865910412
 31
0.0
  0
LINE
  5
1AA
330
1F
100
AcDbEntity
  8
B-2
  6
Continuous
 62
     3
370
     9
100
AcDbLine
 10
367.949202254012
 20
382.9934763001839
 30
0.0
 11
367.949202254012
 21
288.6211651462565
 31
0.0
  0
LINE
  5
1AB
330
1F
100
AcDbEntity
  8
B-2
  6
Continuous
 62
     3
370
     9
100
AcDbLine
 10
367.949202254012
 20
282.9936412600657
 30
0.0
 11
367.949202254012
 21
188.6210826663157
 31
0.0
  0
LINE
  5
1AC
330
1F
100
AcDbEntity
  8
B-2
  6
Continuous
 62
     3
370
     9
100
AcDbLine
 10
366.4493457691091
 20
181.4935785753106
 30
0.0
 11
366.4493457691091
 21
90.1212278310115
 31
0.0
  0
LINE
  5
1AD
330
1F
100
AcDbEntity
  8
B-2
  6
Continuous
 62
     3
370
     9
100
AcDbLine
 10
367.949202254012
 20
182.9938062199474
 30
0.0
 11
367.949202254012
 21
88.6212476261973
 31
0.0
  0
LINE
  5
1AE
330
1F
100
AcDbEntity
  8
B-2
  6
Continuous
 62
     3
370
     9
100
AcDbLine
 10
367.949202254012
 20
82.99366188005082
 30
0.0
 11
367.949202254012
 21
-4.692701546363889
 31
0.0
  0
LINE
  5
1AF
330
1F
100
AcDbEntity
  8
B-2
  6
Continuous
 62
     3
370
     9
100
AcDbLine
 10
366.4493457691091
 20
81.49368167523663
 30
0.0
 11
366.4493457691091
 21
-4.692701546363889
 31
0.0
  0
LINE
  5
1B0
330
1F
100
AcDbEntity
  8
B-2
  6
Continuous
 62
     3
370
     9
100
AcDbLine
 10
359.4492731867609
 20
480.8074279471433
 30
0.0
 11
359.4492731867609
 21
-9.192642160806468
 31
0.0
  0
LINE
  5
1B1
330
1F
100
AcDbEntity
  8
B-5
  6
Continuous
 62
     7
370
     9
100
AcDbLine
 10
481.8425358952703
 20
545.9543742098123
 30
0.0
 11
461.0087214289484
 21
520.5187976420335
 31
0.0
  0
LINE
  5
1B2
330
1F
100
AcDbEntity
  8
B-5
  6
Continuous
 62
     7
370
     9
100
AcDbLine
 10
461.0087214289484
 20
520.5187976420335
 30
0.0
 11
467.5994048247466
 21
531.1401520286466
 31
0.0
  0
LINE
  5
1B3
330
1F
100
AcDbEntity
  8
B-5
  6
Continuous
 62
     7
370
     9
100
AcDbLine
 10
461.0087214289484
 20
520.5187976420335
 30
0.0
 11
470.1239096151818
 21
529.0725448707075
 31
0.0
  0
LINE
  5
1B4
330
1F
100
AcDbEntity
  8
B-8
  6
Continuous
 62
     3
370
     9
100
AcDbLine
 10
-149.5135333086992
 20
431.8071673105301
 30
0.0
 11
-140.5135283599029
 21
431.8071673105301
 31
0.0
  0
LINE
  5
1B5
330
1F
100
AcDbEntity
  8
B-8
  6
Continuous
 62
     3
370
     9
100
AcDbLine
 10
-149.5135333086992
 20
486.8072250464887
 30
0.0
 11
-149.5135333086992
 21
431.8071673105301
 31
0.0
  0
LINE
  5
1B6
330
1F
100
AcDbEntity
  8
B-8
  6
Continuous
 62
     3
370
     9
100
AcDbLine
 10
-149.5135333086992
 20
486.8072250464887
 30
0.0
 11
-140.5135283599029
 21
486.8072250464887
 31
0.0
  0
LINE
  5
1B7
330
1F
100
AcDbEntity
  8
B-8
  6
Continuous
 62
     3
370
     9
100
AcDbLine
 10
-140.5135283599029
 20
486.8072250464887
 30
0.0
 11
-140.5135283599029
 21
431.8071673105301
 31
0.0
  0
LINE
  5
1B8
330
1F
100
AcDbEntity
  8
B-8
  6
JWW_CENTER1
 62
     3
370
     9
100
AcDbLine
 10
-154.1733200485642
 20
475.8072877312438
 30
0.0
 11
-119.9207202808276
 21
475.8072877312438
 31
0.0
  0
LINE
  5
1B9
330
1F
100
AcDbEntity
  8
B-8
  6
JWW_CENTER1
 62
     3
370
     9
100
AcDbLine
 10
-145.0134689743454
 20
447.8166475549347
 30
0.0
 11
-145.0134689743454
 21
439.6355446991492
 31
0.0
  0
LINE
  5
1BA
330
1F
100
AcDbEntity
  8
B-8
  6
Continuous
 62
     3
370
     9
100
AcDbLine
 10
-157.5134483543602
 20
453.8071656609313
 30
0.0
 11
-157.5134483543602
 21
433.8073471168012
 31
0.0
  0
LINE
  5
1BB
330
1F
100
AcDbEntity
  8
B-8
  6
JWW_DASHED3
 62
     3
370
     9
100
AcDbLine
 10
-157.5134483543602
 20
449.8073009280344
 30
0.0
 11
-140.5135283599029
 21
449.8073009280344
 31
0.0
  0
LINE
  5
1BC
330
1F
100
AcDbEntity
  8
B-8
  6
JWW_DASHED3
 62
     3
370
     9
100
AcDbLine
 10
-157.5134483543602
 20
437.8072118496982
 30
0.0
 11
-140.5135283599029
 21
437.8072118496982
 31
0.0
  0
LINE
  5
1BD
330
1F
100
AcDbEntity
  8
B-8
  6
Continuous
 62
     3
370
     9
100
AcDbLine
 10
-545.5135036159206
 20
431.8071673105301
 30
0.0
 11
-554.5135085647171
 21
431.8071673105301
 31
0.0
  0
LINE
  5
1BE
330
1F
100
AcDbEntity
  8
B-8
  6
Continuous
 62
     3
370
     9
100
AcDbLine
 10
-545.5135036159206
 20
486.8072250464887
 30
0.0
 11
-545.5135036159206
 21
431.8071673105301
 31
0.0
  0
LINE
  5
1BF
330
1F
100
AcDbEntity
  8
B-8
  6
Continuous
 62
     3
370
     9
100
AcDbLine
 10
-545.5135036159206
 20
486.8072250464887
 30
0.0
 11
-554.5135085647171
 21
486.8072250464887
 31
0.0
  0
LINE
  5
1C0
330
1F
100
AcDbEntity
  8
B-8
  6
Continuous
 62
     3
370
     9
100
AcDbLine
 10
-554.5135085647171
 20
486.8072250464887
 30
0.0
 11
-554.5135085647171
 21
431.8071673105301
 31
0.0
  0
LINE
  5
1C1
330
1F
100
AcDbEntity
  8
B-8
  6
JWW_CENTER1
 62
     3
370
     9
100
AcDbLine
 10
-540.8537168760557
 20
475.8072877312438
 30
0.0
 11
-575.1063166437922
 21
475.8072877312438
 31
0.0
  0
LINE
  5
1C2
330
1F
100
AcDbEntity
  8
B-8
  6
JWW_CENTER1
 62
     3
370
     9
100
AcDbLine
 10
-550.0135679502745
 20
447.8166475549347
 30
0.0
 11
-550.0135679502745
 21
439.6355446991492
 31
0.0
  0
LINE
  5
1C3
330
1F
100
AcDbEntity
  8
B-8
  6
Continuous
 62
     3
370
     9
100
AcDbLine
 10
-537.5135267103041
 20
453.8071656609313
 30
0.0
 11
-537.5135267103041
 21
433.8073471168012
 31
0.0
  0
LINE
  5
1C4
330
1F
100
AcDbEntity
  8
B-8
  6
JWW_DASHED3
 62
     3
370
     9
100
AcDbLine
 10
-537.5135267103041
 20
449.8073009280344
 30
0.0
 11
-554.5135085647171
 21
449.8073009280344
 31
0.0
  0
LINE
  5
1C5
330
1F
100
AcDbEntity
  8
B-8
  6
JWW_DASHED3
 62
     3
370
     9
100
AcDbLine
 10
-537.5135267103041
 20
437.8072118496982
 30
0.0
 11
-554.5135085647171
 21
437.8072118496982
 31
0.0
  0
LINE
  5
1C6
330
1F
100
AcDbEntity
  8
B-8
  6
JWW_CENTER1
 62
     3
370
     9
100
AcDbLine
 10
-523.4448407147381
 20
443.8072563888663
 30
0.0
 11
-566.253662109375
 21
443.8072563888663
 31
0.0
  0
LINE
  5
1C7
330
1F
100
AcDbEntity
  8
B-8
  6
JWW_CENTER1
 62
     3
370
     9
100
AcDbLine
 10
-169.5822638434332
 20
443.8072563888663
 30
0.0
 11
-140.0135761982685
 21
443.8072563888663
 31
0.0
  0
ARC
  5
1C8
330
1F
100
AcDbEntity
  8
B-8
  6
Continuous
 62
     3
370
     9
100
AcDbCircle
 10
-134.0135316591005
 20
475.8072877312438
 30
0.0
 40
10.00000012887491
100
AcDbArc
 50
270.0
 51
90.0
  0
CIRCLE
  5
1C9
330
1F
100
AcDbEntity
  8
B-8
  6
Continuous
 62
     3
370
     9
100
AcDbCircle
 10
-145.0134689743454
 20
443.8072563888663
 30
0.0
 40
2.000000388235659
  0
ARC
  5
1CA
330
1F
100
AcDbEntity
  8
B-8
  6
Continuous
 62
     3
370
     9
100
AcDbCircle
 10
-157.5134483543602
 20
443.8072563888663
 30
0.0
 40
10.00000012887491
100
AcDbArc
 50
90.0
 51
270.0
  0
ARC
  5
1CB
330
1F
100
AcDbEntity
  8
B-8
  6
Continuous
 62
     3
370
     9
100
AcDbCircle
 10
-561.0135052655194
 20
475.8072877312438
 30
0.0
 40
10.00000012887491
100
AcDbArc
 50
90.0
 51
270.0
  0
CIRCLE
  5
1CC
330
1F
100
AcDbEntity
  8
B-8
  6
Continuous
 62
     3
370
     9
100
AcDbCircle
 10
-550.0135679502745
 20
443.8072563888663
 30
0.0
 40
2.000000388235659
  0
ARC
  5
1CD
330
1F
100
AcDbEntity
  8
B-8
  6
Continuous
 62
     3
370
     9
100
AcDbCircle
 10
-537.5135267103041
 20
443.8072563888663
 30
0.0
 40
10.00000012887491
100
AcDbArc
 50
270.0
 51
90.0
  0
LINE
  5
1CE
330
1F
100
AcDbEntity
  8
B-5
  6
Continuous
 62
     7
370
     9
100
AcDbLine
 10
-134.0135316591005
 20
264.7281902927409
 30
0.0
 11
-128.2732370737436
 21
278.5864287191555
 31
0.0
  0
LINE
  5
1CF
330
1F
100
AcDbEntity
  8
B-5
  6
Continuous
 62
     7
370
     9
100
AcDbLine
 10
-134.0135316591005
 20
264.7281902927409
 30
0.0
 11
-124.8821361644848
 21
276.6284992625993
 31
0.0
  0
LINE
  5
1D0
330
1F
100
AcDbEntity
  8
B-5
  6
Continuous
 62
     7
370
     9
100
AcDbLine
 10
-74.01358114706497
 20
368.6512455806948
 30
0.0
 11
109.2405989363388
 21
368.6512455806948
 31
0.0
  0
LINE
  5
1D1
330
1F
100
AcDbEntity
  8
B-5
  6
Continuous
 62
     7
370
     9
100
AcDbLine
 10
-134.0135316591005
 20
264.7281902927409
 30
0.0
 11
-74.01358114706497
 21
368.6512455806948
 31
0.0
  0
TEXT
  5
1D2
330
1F
100
AcDbEntity
  8
B-5
  6
Continuous
 62
     7
370
     9
100
AcDbText
 10
-69.75180136190872
 20
373.8792859892675
 30
0.0
 40
11.43
  1
プレート：ｔ＝６．０
 41
1.15
  7
ＭＳ ゴシック
100
AcDbText
  0
LWPOLYLINE
  5
1D3
330
1F
100
AcDbEntity
  8
B-4
  6
Continuous
 62
     7
370
     9
100
AcDbPolyline
 90
        4
 70
     1
 43
1.0
 10
292.6343829180745
 20
497.807286081645
 42
0.4142135623731
 10
292.1343829180745
 20
498.3072860816449
 42
0.4142135623731
 10
291.6343829180745
 20
497.807286081645
 42
0.4142135623731
 10
292.1343829180745
 20
497.307286081645
 42
0.4142135623731
  0
LWPOLYLINE
  5
1D4
330
1F
100
AcDbEntity
  8
B-4
  6
Continuous
 62
     7
370
     9
100
AcDbPolyline
 90
        4
 70
     1
 43
1.0
 10
292.6343829180745
 20
491.8073652623883
 42
0.4142135623731
 10
292.1343829180745
 20
492.3073652623883
 42
0.4142135623731
 10
291.6343829180745
 20
491.8073652623883
 42
0.4142135623731
 10
292.1343829180745
 20
491.3073652623883
 42
0.4142135623731
  0
LWPOLYLINE
  5
1D5
330
1F
100
AcDbEntity
  8
B-4
  6
Continuous
 62
     7
370
     9
100
AcDbPolyline
 90
        4
 70
     1
 43
1.0
 10
292.6343829180745
 20
480.8074279471433
 42
0.4142135623731
 10
292.1343829180745
 20
481.3074279471432
 42
0.4142135623731
 10
291.6343829180745
 20
480.8074279471433
 42
0.4142135623731
 10
292.1343829180745
 20
480.3074279471433
 42
0.4142135623731
  0
LWPOLYLINE
  5
1D6
330
1F
100
AcDbEntity
  8
B-4
  6
Continuous
 62
     7
370
     9
100
AcDbPolyline
 90
        4
 70
     1
 43
1.0
 10
292.6343829180745
 20
-9.192642160806468
 42
0.4142135623731
 10
292.1343829180745
 20
-8.692642160806468
 42
0.4142135623731
 10
291.6343829180745
 20
-9.192642160806468
 42
0.4142135623731
 10
292.1343829180745
 20
-9.692642160806468
 42
0.4142135623731
  0
LWPOLYLINE
  5
1D7
330
1F
100
AcDbEntity
  8
B-4
  6
Continuous
 62
     7
370
     9
100
AcDbPolyline
 90
        4
 70
     1
 43
1.0
 10
292.6343829180745
 20
-16.19259102324312
 42
0.4142135623731
 10
292.1343829180745
 20
-15.69259102324312
 42
0.4142135623731
 10
291.6343829180745
 20
-16.19259102324312
 42
0.4142135623731
 10
292.1343829180745
 20
-16.69259102324312
 42
0.4142135623731
  0
LWPOLYLINE
  5
1D8
330
1F
100
AcDbEntity
  8
B-4
  6
Continuous
 62
     7
370
     9
100
AcDbPolyline
 90
        4
 70
     1
 43
1.0
 10
292.6343829180745
 20
-22.19251184249982
 42
0.4142135623731
 10
292.1343829180745
 20
-21.69251184249983
 42
0.4142135623731
 10
291.6343829180745
 20
-22.19251184249982
 42
0.4142135623731
 10
292.1343829180745
 20
-22.69251184249982
 42
0.4142135623731
  0
LWPOLYLINE
  5
1D9
330
1F
100
AcDbEntity
  8
B-4
  6
Continuous
 62
     7
370
     9
100
AcDbPolyline
 90
        4
 70
     1
 43
1.0
 10
243.7432432432432
 20
497.807286081645
 42
0.4142135623731
 10
243.2432432432432
 20
498.3072860816449
 42
0.4142135623731
 10
242.7432432432432
 20
497.807286081645
 42
0.4142135623731
 10
243.2432432432432
 20
497.307286081645
 42
0.4142135623731
  0
LWPOLYLINE
  5
1DA
330
1F
100
AcDbEntity
  8
B-4
  6
Continuous
 62
     7
370
     9
100
AcDbPolyline
 90
        4
 70
     1
 43
1.0
 10
243.7432432432432
 20
-22.19251184249982
 42
0.4142135623731
 10
243.2432432432432
 20
-21.69251184249983
 42
0.4142135623731
 10
242.7432432432432
 20
-22.19251184249982
 42
0.4142135623731
 10
243.2432432432432
 20
-22.69251184249982
 42
0.4142135623731
  0
LWPOLYLINE
  5
1DB
330
1F
100
AcDbEntity
  8
B-4
  6
Continuous
 62
     7
370
     9
100
AcDbPolyline
 90
        4
 70
     1
 43
1.0
 10
498.597847603463
 20
-22.19251184249982
 42
0.4142135623731
 10
498.097847603463
 20
-21.69251184249983
 42
0.4142135623731
 10
497.597847603463
 20
-22.19251184249982
 42
0.4142135623731
 10
498.097847603463
 20
-22.69251184249982
 42
0.4142135623731
  0
LWPOLYLINE
  5
1DC
330
1F
100
AcDbEntity
  8
B-4
  6
Continuous
 62
     7
370
     9
100
AcDbPolyline
 90
        4
 70
     1
 43
1.0
 10
498.597847603463
 20
37.80731494962426
 42
0.4142135623731
 10
498.097847603463
 20
38.30731494962426
 42
0.4142135623731
 10
497.597847603463
 20
37.80731494962426
 42
0.4142135623731
 10
498.097847603463
 20
37.30731494962426
 42
0.4142135623731
  0
LWPOLYLINE
  5
1DD
330
1F
100
AcDbEntity
  8
B-4
  6
Continuous
 62
     7
370
     9
100
AcDbPolyline
 90
        4
 70
     1
 43
1.0
 10
498.597847603463
 20
437.8073355696096
 42
0.4142135623731
 10
498.097847603463
 20
438.3073355696095
 42
0.4142135623731
 10
497.597847603463
 20
437.8073355696096
 42
0.4142135623731
 10
498.097847603463
 20
437.3073355696096
 42
0.4142135623731
  0
LWPOLYLINE
  5
1DE
330
1F
100
AcDbEntity
  8
B-4
  6
Continuous
 62
     7
370
     9
100
AcDbPolyline
 90
        4
 70
     1
 43
1.0
 10
498.597847603463
 20
497.807286081645
 42
0.4142135623731
 10
498.097847603463
 20
498.3072860816449
 42
0.4142135623731
 10
497.597847603463
 20
497.807286081645
 42
0.4142135623731
 10
498.097847603463
 20
497.307286081645
 42
0.4142135623731
  0
LWPOLYLINE
  5
1DF
330
1F
100
AcDbEntity
  8
B-4
  6
Continuous
 62
     7
370
     9
100
AcDbPolyline
 90
        4
 70
     1
 43
1.0
 10
359.9492731867609
 20
-108.5881054341384
 42
0.4142135623731
 10
359.4492731867609
 20
-108.0881054341384
 42
0.4142135623731
 10
358.9492731867609
 20
-108.5881054341384
 42
0.4142135623731
 10
359.4492731867609
 20
-109.0881054341384
 42
0.4142135623731
  0
LWPOLYLINE
  5
1E0
330
1F
100
AcDbEntity
  8
B-4
  6
Continuous
 62
     7
370
     9
100
AcDbPolyline
 90
        4
 70
     1
 43
1.0
 10
414.9492072028083
 20
-108.5881054341384
 42
0.4142135623731
 10
414.4492072028083
 20
-108.0881054341384
 42
0.4142135623731
 10
413.9492072028083
 20
-108.5881054341384
 42
0.4142135623731
 10
414.4492072028083
 20
-109.0881054341384
 42
0.4142135623731
  0
LWPOLYLINE
  5
1E1
330
1F
100
AcDbEntity
  8
B-4
  6
Continuous
 62
     7
370
     9
100
AcDbPolyline
 90
        4
 70
     1
 43
1.0
 10
359.9492731867609
 20
-158.5882085340645
 42
0.4142135623731
 10
359.4492731867609
 20
-158.0882085340645
 42
0.4142135623731
 10
358.9492731867609
 20
-158.5882085340645
 42
0.4142135623731
 10
359.4492731867609
 20
-159.0882085340645
 42
0.4142135623731
  0
LWPOLYLINE
  5
1E2
330
1F
100
AcDbEntity
  8
B-4
  6
Continuous
 62
     7
370
     9
100
AcDbPolyline
 90
        4
 70
     1
 43
1.0
 10
420.9492517419762
 20
-158.5882085340645
 42
0.4142135623731
 10
420.4492517419763
 20
-158.0882085340645
 42
0.4142135623731
 10
419.9492517419764
 20
-158.5882085340645
 42
0.4142135623731
 10
420.4492517419763
 20
-159.0882085340645
 42
0.4142135623731
  0
LWPOLYLINE
  5
1E3
330
1F
100
AcDbEntity
  8
B-4
  6
Continuous
 62
     7
370
     9
100
AcDbPolyline
 90
        4
 70
     1
 43
1.0
 10
-544.5135514542862
 20
-84.47459983869918
 42
0.4142135623731
 10
-545.0135514542862
 20
-83.97459983869916
 42
0.4142135623731
 10
-545.5135514542862
 20
-84.47459983869918
 42
0.4142135623731
 10
-545.0135514542862
 20
-84.97459983869918
 42
0.4142135623731
  0
LWPOLYLINE
  5
1E4
330
1F
100
AcDbEntity
  8
B-4
  6
Continuous
 62
     7
370
     9
100
AcDbPolyline
 90
        4
 70
     1
 43
1.0
 10
-149.5136091902449
 20
-84.47459983869918
 42
0.4142135623731
 10
-150.0136091902449
 20
-83.97459983869916
 42
0.4142135623731
 10
-150.5136091902449
 20
-84.47459983869918
 42
0.4142135623731
 10
-150.0136091902449
 20
-84.97459983869918
 42
0.4142135623731
  0
LWPOLYLINE
  5
1E5
330
1F
100
AcDbEntity
  8
B-4
  6
Continuous
 62
     7
370
     9
100
AcDbPolyline
 90
        4
 70
     1
 43
1.0
 10
-139.5135761982685
 20
-84.47459983869918
 42
0.4142135623731
 10
-140.0135761982685
 20
-83.97459983869916
 42
0.4142135623731
 10
-140.5135761982685
 20
-84.47459983869918
 42
0.4142135623731
 10
-140.0135761982685
 20
-84.97459983869918
 42
0.4142135623731
  0
LWPOLYLINE
  5
1E6
330
1F
100
AcDbEntity
  8
B-4
  6
Continuous
 62
     7
370
     9
100
AcDbPolyline
 90
        4
 70
     1
 43
1.0
 10
-554.5134297963735
 20
-84.47459983869918
 42
0.4142135623731
 10
-555.0134297963735
 20
-83.97459983869916
 42
0.4142135623731
 10
-555.5134297963734
 20
-84.47459983869918
 42
0.4142135623731
 10
-555.0134297963735
 20
-84.97459983869918
 42
0.4142135623731
  0
LWPOLYLINE
  5
1E7
330
1F
100
AcDbEntity
  8
B-4
  6
Continuous
 62
     7
370
     9
100
AcDbPolyline
 90
        4
 70
     1
 43
1.0
 10
-560.5135052655194
 20
-127.8406866438882
 42
0.4142135623731
 10
-561.0135052655194
 20
-127.3406866438882
 42
0.4142135623731
 10
-561.5135052655194
 20
-127.8406866438882
 42
0.4142135623731
 10
-561.0135052655194
 20
-128.3406866438882
 42
0.4142135623731
  0
LWPOLYLINE
  5
1E8
330
1F
100
AcDbEntity
  8
B-4
  6
Continuous
 62
     7
370
     9
100
AcDbPolyline
 90
        4
 70
     1
 43
1.0
 10
-554.5134297963735
 20
-127.8406866438882
 42
0.4142135623731
 10
-555.0134297963735
 20
-127.3406866438882
 42
0.4142135623731
 10
-555.5134297963734
 20
-127.8406866438882
 42
0.4142135623731
 10
-555.0134297963735
 20
-128.3406866438882
 42
0.4142135623731
  0
LWPOLYLINE
  5
1E9
330
1F
100
AcDbEntity
  8
B-4
  6
Continuous
 62
     7
370
     9
100
AcDbPolyline
 90
        4
 70
     1
 43
1.0
 10
-139.5135761982685
 20
-127.8406866438882
 42
0.4142135623731
 10
-140.0135761982685
 20
-127.3406866438882
 42
0.4142135623731
 10
-140.5135761982685
 20
-127.8406866438882
 42
0.4142135623731
 10
-140.0135761982685
 20
-128.3406866438882
 42
0.4142135623731
  0
LWPOLYLINE
  5
1EA
330
1F
100
AcDbEntity
  8
B-4
  6
Continuous
 62
     7
370
     9
100
AcDbPolyline
 90
        4
 70
     1
 43
1.0
 10
-133.5135316591005
 20
-127.8406866438882
 42
0.4142135623731
 10
-134.0135316591005
 20
-127.3406866438882
 42
0.4142135623731
 10
-134.5135316591005
 20
-127.8406866438882
 42
0.4142135623731
 10
-134.0135316591005
 20
-128.3406866438882
 42
0.4142135623731
  0
LWPOLYLINE
  5
1EB
330
1F
100
AcDbEntity
  8
B-4
  6
Continuous
 62
     7
370
     9
100
AcDbPolyline
 90
        4
 70
     1
 43
1.0
 10
-560.5135052655194
 20
-169.156023129055
 42
0.4142135623731
 10
-561.0135052655194
 20
-168.656023129055
 42
0.4142135623731
 10
-561.5135052655194
 20
-169.156023129055
 42
0.4142135623731
 10
-561.0135052655194
 20
-169.656023129055
 42
0.4142135623731
  0
LWPOLYLINE
  5
1EC
330
1F
100
AcDbEntity
  8
B-4
  6
Continuous
 62
     7
370
     9
100
AcDbPolyline
 90
        4
 70
     1
 43
1.0
 10
-133.5135316591005
 20
-169.156023129055
 42
0.4142135623731
 10
-134.0135316591005
 20
-168.656023129055
 42
0.4142135623731
 10
-134.5135316591005
 20
-169.156023129055
 42
0.4142135623731
 10
-134.0135316591005
 20
-169.656023129055
 42
0.4142135623731
  0
LINE
  5
1ED
330
1F
100
AcDbEntity
  8
B-4
  6
Continuous
 62
     7
370
     9
100
AcDbLine
 10
341.3558547561234
 20
497.807286081645
 30
0.0
 11
241.7432630384292
 21
497.807286081645
 31
0.0
  0
LINE
  5
1EE
330
1F
100
AcDbEntity
  8
B-4
  6
Continuous
 62
     7
370
     9
100
AcDbLine
 10
341.3558547561234
 20
491.8073652623883
 30
0.0
 11
290.6344027132602
 21
491.8073652623883
 31
0.0
  0
LINE
  5
1EF
330
1F
100
AcDbEntity
  8
B-4
  6
Continuous
 62
     7
370
     9
100
AcDbLine
 10
292.1343829180745
 20
491.8073652623883
 30
0.0
 11
292.1343829180745
 21
480.8074279471433
 31
0.0
  0
LINE
  5
1F0
330
1F
100
AcDbEntity
  8
B-4
  6
Continuous
 62
     7
370
     9
100
AcDbLine
 10
341.3558547561234
 20
480.8074279471433
 30
0.0
 11
290.6344027132602
 21
480.8074279471433
 31
0.0
  0
LINE
  5
1F1
330
1F
100
AcDbEntity
  8
B-4
  6
Continuous
 62
     7
370
     9
100
AcDbLine
 10
292.1343829180745
 20
480.8074279471433
 30
0.0
 11
292.1343829180745
 21
-9.192642160806468
 31
0.0
  0
LINE
  5
1F2
330
1F
100
AcDbEntity
  8
B-4
  6
Continuous
 62
     7
370
     9
100
AcDbLine
 10
341.3558547561234
 20
-9.192642160806468
 30
0.0
 11
290.6344027132602
 21
-9.192642160806468
 31
0.0
  0
LINE
  5
1F3
330
1F
100
AcDbEntity
  8
B-4
  6
Continuous
 62
     7
370
     9
100
AcDbLine
 10
292.1343829180745
 20
-9.192642160806468
 30
0.0
 11
292.1343829180745
 21
-16.19259102324312
 31
0.0
  0
LINE
  5
1F4
330
1F
100
AcDbEntity
  8
B-4
  6
Continuous
 62
     7
370
     9
100
AcDbLine
 10
341.3558547561234
 20
-16.19259102324312
 30
0.0
 11
290.6344027132602
 21
-16.19259102324312
 31
0.0
  0
LINE
  5
1F5
330
1F
100
AcDbEntity
  8
B-4
  6
Continuous
 62
     7
370
     9
100
AcDbLine
 10
341.3558547561234
 20
-22.19251184249982
 30
0.0
 11
241.7432630384292
 21
-22.19251184249982
 31
0.0
  0
LINE
  5
1F6
330
1F
100
AcDbEntity
  8
B-4
  6
Continuous
 62
     7
370
     9
100
AcDbLine
 10
243.2432432432432
 20
497.807286081645
 30
0.0
 11
243.2432432432432
 21
-22.19251184249982
 31
0.0
  0
LINE
  5
1F7
330
1F
100
AcDbEntity
  8
B-4
  6
Continuous
 62
     7
370
     9
100
AcDbLine
 10
292.1343829180745
 20
-16.19259102324312
 30
0.0
 11
292.1343829180745
 21
-40.87595053021103
 31
0.0
  0
LINE
  5
1F8
330
1F
100
AcDbEntity
  8
B-4
  6
Continuous
 62
     7
370
     9
100
AcDbLine
 10
292.1343829180745
 20
516.2625852528867
 30
0.0
 11
292.1343829180745
 21
491.8073652623883
 31
0.0
  0
LINE
  5
1F9
330
1F
100
AcDbEntity
  8
B-4
  6
Continuous
 62
     7
370
     9
100
AcDbLine
 10
498.097847603463
 20
-22.19251184249982
 30
0.0
 11
498.097847603463
 21
37.80731494962426
 31
0.0
  0
LINE
  5
1FA
330
1F
100
AcDbEntity
  8
B-4
  6
Continuous
 62
     7
370
     9
100
AcDbLine
 10
430.8314555400128
 20
37.80731494962426
 30
0.0
 11
499.5978278082771
 21
37.80731494962426
 31
0.0
  0
LINE
  5
1FB
330
1F
100
AcDbEntity
  8
B-4
  6
Continuous
 62
     7
370
     9
100
AcDbLine
 10
498.097847603463
 20
37.80731494962426
 30
0.0
 11
498.097847603463
 21
437.8073355696096
 31
0.0
  0
LINE
  5
1FC
330
1F
100
AcDbEntity
  8
B-4
  6
Continuous
 62
     7
370
     9
100
AcDbLine
 10
430.8314555400128
 20
437.8073355696096
 30
0.0
 11
499.5978278082771
 21
437.8073355696096
 31
0.0
  0
LINE
  5
1FD
330
1F
100
AcDbEntity
  8
B-4
  6
Continuous
 62
     7
370
     9
100
AcDbLine
 10
498.097847603463
 20
437.8073355696096
 30
0.0
 11
498.097847603463
 21
497.807286081645
 31
0.0
  0
LINE
  5
1FE
330
1F
100
AcDbEntity
  8
B-4
  6
Continuous
 62
     7
370
     9
100
AcDbLine
 10
434.0923412426099
 20
-22.19251184249982
 30
0.0
 11
499.5978278082771
 21
-22.19251184249982
 31
0.0
  0
LINE
  5
1FF
330
1F
100
AcDbEntity
  8
B-4
  6
Continuous
 62
     7
370
     9
100
AcDbLine
 10
432.9245489996833
 20
497.807286081645
 30
0.0
 11
499.5978278082771
 21
497.807286081645
 31
0.0
  0
LINE
  5
200
330
1F
100
AcDbEntity
  8
B-4
  6
Continuous
 62
     7
370
     9
100
AcDbLine
 10
359.4492731867609
 20
-108.5881054341384
 30
0.0
 11
414.4492072028083
 21
-108.5881054341384
 31
0.0
  0
LINE
  5
201
330
1F
100
AcDbEntity
  8
B-4
  6
Continuous
 62
     7
370
     9
100
AcDbLine
 10
359.4492731867609
 20
-38.18405269976337
 30
0.0
 11
359.4492731867609
 21
-160.0881887388787
 31
0.0
  0
LINE
  5
202
330
1F
100
AcDbEntity
  8
B-4
  6
Continuous
 62
     7
370
     9
100
AcDbLine
 10
414.4492072028083
 20
-38.18405269976337
 30
0.0
 11
414.4492072028083
 21
-110.0880856389526
 31
0.0
  0
LINE
  5
203
330
1F
100
AcDbEntity
  8
B-4
  6
Continuous
 62
     7
370
     9
100
AcDbLine
 10
359.4492731867609
 20
-158.5882085340645
 30
0.0
 11
420.4492517419763
 21
-158.5882085340645
 31
0.0
  0
LINE
  5
204
330
1F
100
AcDbEntity
  8
B-4
  6
Continuous
 62
     7
370
     9
100
AcDbLine
 10
420.4492517419763
 20
-41.51038623544748
 30
0.0
 11
420.4492517419763
 21
-160.0881887388787
 31
0.0
  0
LINE
  5
205
330
1F
100
AcDbEntity
  8
B-4
  6
Continuous
 62
     7
370
     9
100
AcDbLine
 10
-542.5135432062922
 20
-84.47459983869918
 30
0.0
 11
-152.5136174382389
 21
-84.47459983869918
 31
0.0
  0
LINE
  5
206
330
1F
100
AcDbEntity
  8
B-4
  6
Continuous
 62
     7
370
     9
100
AcDbLine
 10
-545.0135514542862
 20
-36.48333693883642
 30
0.0
 11
-545.0135514542862
 21
-85.97458004351337
 31
0.0
  0
LINE
  5
207
330
1F
100
AcDbEntity
  8
B-4
  6
Continuous
 62
     7
370
     9
100
AcDbLine
 10
-150.0136091902449
 20
-36.48333693883642
 30
0.0
 11
-150.0136091902449
 21
-85.97458004351337
 31
0.0
  0
LINE
  5
208
330
1F
100
AcDbEntity
  8
B-4
  6
Continuous
 62
     7
370
     9
100
AcDbLine
 10
-152.5136174382389
 20
-84.47459983869918
 30
0.0
 11
-140.0135761982685
 21
-84.47459983869918
 31
0.0
  0
LINE
  5
209
330
1F
100
AcDbEntity
  8
B-4
  6
Continuous
 62
     7
370
     9
100
AcDbLine
 10
-140.0135761982685
 20
-36.48333693883642
 30
0.0
 11
-140.0135761982685
 21
-129.3406668487024
 31
0.0
  0
LINE
  5
20A
330
1F
100
AcDbEntity
  8
B-4
  6
Continuous
 62
     7
370
     9
100
AcDbLine
 10
-555.0134297963735
 20
-84.47459983869918
 30
0.0
 11
-542.5135432062922
 21
-84.47459983869918
 31
0.0
  0
LINE
  5
20B
330
1F
100
AcDbEntity
  8
B-4
  6
Continuous
 62
     7
370
     9
100
AcDbLine
 10
-555.0134297963735
 20
-36.48333693883642
 30
0.0
 11
-555.0134297963735
 21
-129.3406668487024
 31
0.0
  0
LINE
  5
20C
330
1F
100
AcDbEntity
  8
B-4
  6
Continuous
 62
     7
370
     9
100
AcDbLine
 10
-561.0135052655194
 20
-127.8406866438882
 30
0.0
 11
-555.0134297963735
 21
-127.8406866438882
 31
0.0
  0
LINE
  5
20D
330
1F
100
AcDbEntity
  8
B-4
  6
Continuous
 62
     7
370
     9
100
AcDbLine
 10
-555.0134297963735
 20
-127.8406866438882
 30
0.0
 11
-140.0135761982685
 21
-127.8406866438882
 31
0.0
  0
LINE
  5
20E
330
1F
100
AcDbEntity
  8
B-4
  6
Continuous
 62
     7
370
     9
100
AcDbLine
 10
-140.0135761982685
 20
-127.8406866438882
 30
0.0
 11
-134.0135316591005
 21
-127.8406866438882
 31
0.0
  0
LINE
  5
20F
330
1F
100
AcDbEntity
  8
B-4
  6
Continuous
 62
     7
370
     9
100
AcDbLine
 10
-561.0135052655194
 20
-36.48333693883642
 30
0.0
 11
-561.0135052655194
 21
-170.6560033338692
 31
0.0
  0
LINE
  5
210
330
1F
100
AcDbEntity
  8
B-4
  6
Continuous
 62
     7
370
     9
100
AcDbLine
 10
-134.0135316591005
 20
-36.48333693883642
 30
0.0
 11
-134.0135316591005
 21
-170.6560033338692
 31
0.0
  0
LINE
  5
211
330
1F
100
AcDbEntity
  8
B-4
  6
Continuous
 62
     7
370
     9
100
AcDbLine
 10
-561.0135052655194
 20
-169.156023129055
 30
0.0
 11
-134.0135316591005
 21
-169.156023129055
 31
0.0
  0
TEXT
  5
212
330
1F
100
AcDbEntity
  8
B-4
  6
Continuous
 62
     2
370
     9
100
AcDbText
 10
284.7622325010557
 20
505.5721951557582
 30
0.0
 40
15.24
  1
6
 50
90.0
 41
0.9999999999999998
  7
ＭＳ ゴシック
100
AcDbText
  0
TEXT
  5
213
330
1F
100
AcDbEntity
  8
B-4
  6
Continuous
 62
     2
370
     9
100
AcDbText
 10
285.2139338972763
 20
456.9185977106568
 30
0.0
 40
15.24
  1
11
 50
90.0
 41
1.0625
  7
ＭＳ ゴシック
100
AcDbText
  0
TEXT
  5
214
330
1F
100
AcDbEntity
  8
B-4
  6
Continuous
 62
     2
370
     9
100
AcDbText
 10
285.3929566089529
 20
-2.898886552170463
 30
0.0
 40
15.24
  1
7
 50
90.0
 41
0.9999999999999998
  7
ＭＳ ゴシック
100
AcDbText
  0
TEXT
  5
215
330
1F
100
AcDbEntity
  8
B-4
  6
Continuous
 62
     2
370
     9
100
AcDbText
 10
285.0094248838682
 20
-36.44529306610627
 30
0.0
 40
15.24
  1
6
 50
90.0
 41
0.9999999999999998
  7
ＭＳ ゴシック
100
AcDbText
  0
TEXT
  5
216
330
1F
100
AcDbEntity
  8
B-4
  6
Continuous
 62
     2
370
     9
100
AcDbText
 10
492.7778393554688
 20
-0.3175943224407083
 30
0.0
 40
15.24
  1
60
 50
90.0
 41
1.0625
  7
ＭＳ ゴシック
100
AcDbText
  0
TEXT
  5
217
330
1F
100
AcDbEntity
  8
B-4
  6
Continuous
 62
     2
370
     9
100
AcDbText
 10
492.7778393554688
 20
459.6822530896686
 30
0.0
 40
15.24
  1
60
 50
90.0
 41
1.0625
  7
ＭＳ ゴシック
100
AcDbText
  0
TEXT
  5
218
330
1F
100
AcDbEntity
  8
B-4
  6
Continuous
 62
     2
370
     9
100
AcDbText
 10
378.824182458826
 20
-103.2680971861443
 30
0.0
 40
15.24
  1
55
 41
1.0625
  7
ＭＳ ゴシック
100
AcDbText
  0
TEXT
  5
219
330
1F
100
AcDbEntity
  8
B-4
  6
Continuous
 62
     2
370
     9
100
AcDbText
 10
381.8242665883659
 20
-153.2682002860704
 30
0.0
 40
15.24
  1
61
 41
1.0625
  7
ＭＳ ゴシック
100
AcDbText
  0
TEXT
  5
21A
330
1F
100
AcDbEntity
  8
B-4
  6
Continuous
 62
     2
370
     9
100
AcDbText
 10
237.4232828336148
 20
221.5573644375888
 30
0.0
 40
15.24
  1
520
 50
90.0
 41
1.083333333333333
  7
ＭＳ ゴシック
100
AcDbText
  0
TEXT
  5
21B
330
1F
100
AcDbEntity
  8
B-4
  6
Continuous
 62
     2
370
     9
100
AcDbText
 10
286.3144225084461
 20
219.5573702111847
 30
0.0
 40
15.24
  1
490
 50
90.0
 41
1.083333333333333
  7
ＭＳ ゴシック
100
AcDbText
  0
TEXT
  5
21C
330
1F
100
AcDbEntity
  8
B-4
  6
Continuous
 62
     2
370
     9
100
AcDbText
 10
492.2778871938347
 20
221.5573025776332
 30
0.0
 40
15.24
  1
400
 50
90.0
 41
1.083333333333333
  7
ＭＳ ゴシック
100
AcDbText
  0
TEXT
  5
21D
330
1F
100
AcDbEntity
  8
B-4
  6
Continuous
 62
     2
370
     9
100
AcDbText
 10
-551.129150390625
 20
-121.99350785377
 30
0.0
 40
15.24
  1
6
 41
1.000000206199857
  7
ＭＳ ゴシック
100
AcDbText
  0
TEXT
  5
21E
330
1F
100
AcDbEntity
  8
B-4
  6
Continuous
 62
     2
370
     9
100
AcDbText
 10
-152.118208601668
 20
-121.0151926550263
 30
0.0
 40
15.24
  1
6
 41
0.9999999999999998
  7
ＭＳ ゴシック
100
AcDbText
  0
TEXT
  5
21F
330
1F
100
AcDbEntity
  8
B-4
  6
Continuous
 62
     2
370
     9
100
AcDbText
 10
-534.42758096231
 20
-78.65457756911513
 30
0.0
 40
15.24
  1
10
 41
1.0625
  7
ＭＳ ゴシック
100
AcDbText
  0
TEXT
  5
220
330
1F
100
AcDbEntity
  8
B-4
  6
Continuous
 62
     2
370
     9
100
AcDbText
 10
-177.4141053895693
 20
-78.65457756911513
 30
0.0
 40
15.24
  1
10
 41
1.0625
  7
ＭＳ ゴシック
100
AcDbText
  0
TEXT
  5
221
330
1F
100
AcDbEntity
  8
B-4
  6
Continuous
 62
     2
370
     9
100
AcDbText
 10
-363.7635720742715
 20
-78.65457756911513
 30
0.0
 40
15.24
  1
395
 41
1.083333333333333
  7
ＭＳ ゴシック
100
AcDbText
  0
TEXT
  5
222
330
1F
100
AcDbEntity
  8
B-4
  6
Continuous
 62
     2
370
     9
100
AcDbText
 10
-363.7635102143159
 20
-122.0206953042819
 30
0.0
 40
15.24
  1
415
 41
1.083333333333333
  7
ＭＳ ゴシック
100
AcDbText
  0
TEXT
  5
223
330
1F
100
AcDbEntity
  8
B-4
  6
Continuous
 62
     2
370
     9
100
AcDbText
 10
-363.7635102143159
 20
-163.3360317894488
 30
0.0
 40
15.24
  1
427
 41
1.083333333333333
  7
ＭＳ ゴシック
100
AcDbText
  0
LINE
  5
224
330
1F
100
AcDbEntity
  8
B-2
  6
Continuous
 62
     3
370
     9
100
AcDbLine
 10
359.4492731867609
 20
481.8073322704118
 30
0.0
 11
364.449165962838
 21
486.8073487664
 31
0.0
  0
LINE
  5
225
330
1F
100
AcDbEntity
  8
B-2
  6
Continuous
 62
     3
370
     9
100
AcDbLine
 10
359.4492731867609
 20
481.8073322704118
 30
0.0
 11
359.4492731867609
 21
480.8074279471433
 31
0.0
  0
LINE
  5
226
330
1F
100
AcDbEntity
  8
B-2
  6
Continuous
 62
     3
370
     9
100
AcDbLine
 10
364.449165962838
 20
486.8073487664
 30
0.0
 11
384.4492319467906
 21
486.8073487664
 31
0.0
  0
LINE
  5
227
330
1F
100
AcDbEntity
  8
B-2
  6
Continuous
 62
     3
370
     9
100
AcDbLine
 10
384.4492319467906
 20
480.8074279471433
 30
0.0
 11
384.4492319467906
 21
486.8073487664
 31
0.0
  0
LINE
  5
228
330
1F
100
AcDbEntity
  8
B-8
  6
JWW_DASHED3
 62
     3
370
     9
100
AcDbLine
 10
-149.5134714487436
 20
481.8073322704118
 30
0.0
 11
-140.5134664999471
 21
481.8073322704118
 31
0.0
  0
LINE
  5
229
330
1F
100
AcDbEntity
  8
B-8
  6
JWW_DASHED3
 62
     3
370
     9
100
AcDbLine
 10
-149.5134714487436
 20
450.3072530896686
 30
0.0
 11
-140.5134664999471
 21
450.3072530896686
 31
0.0
  0
LINE
  5
22A
330
1F
100
AcDbEntity
  8
B-8
  6
JWW_DASHED3
 62
     3
370
     9
100
AcDbLine
 10
-149.5134714487436
 20
437.3071359681526
 30
0.0
 11
-140.5134664999471
 21
437.3071359681526
 31
0.0
  0
LINE
  5
22B
330
1F
100
AcDbEntity
  8
B-8
  6
JWW_DASHED3
 62
     3
370
     9
100
AcDbLine
 10
-149.5134714487436
 20
482.3072844320462
 30
0.0
 11
-140.5134664999471
 21
482.3072844320462
 31
0.0
  0
LINE
  5
22C
330
1F
100
AcDbEntity
  8
B-8
  6
JWW_DASHED3
 62
     3
370
     9
100
AcDbLine
 10
-149.5134714487436
 20
469.8072431920758
 30
0.0
 11
-140.5134664999471
 21
469.8072431920758
 31
0.0
  0
LINE
  5
22D
330
1F
100
AcDbEntity
  8
B-8
  6
JWW_DASHED3
 62
     3
370
     9
100
AcDbLine
 10
-149.5134714487436
 20
469.3072910304414
 30
0.0
 11
-140.5134664999471
 21
469.3072910304414
 31
0.0
  0
LINE
  5
22E
330
1F
100
AcDbEntity
  8
B-8
  6
Continuous
 62
     3
370
     9
100
AcDbLine
 10
-140.5134664999471
 20
481.8073322704118
 30
0.0
 11
-140.0135143383129
 21
481.8073322704118
 31
0.0
  0
LINE
  5
22F
330
1F
100
AcDbEntity
  8
B-8
  6
Continuous
 62
     3
370
     9
100
AcDbLine
 10
-140.5134664999471
 20
469.8072431920758
 30
0.0
 11
-140.0135143383129
 21
469.8072431920758
 31
0.0
  0
LINE
  5
230
330
1F
100
AcDbEntity
  8
B-8
  6
JWW_DASHED3
 62
     3
370
     9
100
AcDbLine
 10
-545.5135036159206
 20
481.8073322704118
 30
0.0
 11
-554.5135085647171
 21
481.8073322704118
 31
0.0
  0
LINE
  5
231
330
1F
100
AcDbEntity
  8
B-8
  6
JWW_DASHED3
 62
     3
370
     9
100
AcDbLine
 10
-545.5135036159206
 20
450.3072530896686
 30
0.0
 11
-554.5135085647171
 21
450.3072530896686
 31
0.0
  0
LINE
  5
232
330
1F
100
AcDbEntity
  8
B-8
  6
JWW_DASHED3
 62
     3
370
     9
100
AcDbLine
 10
-545.5135036159206
 20
437.3071359681526
 30
0.0
 11
-554.5135085647171
 21
437.3071359681526
 31
0.0
  0
LINE
  5
233
330
1F
100
AcDbEntity
  8
B-8
  6
JWW_DASHED3
 62
     3
370
     9
100
AcDbLine
 10
-545.5135036159206
 20
482.3072844320462
 30
0.0
 11
-554.5135085647171
 21
482.3072844320462
 31
0.0
  0
LINE
  5
234
330
1F
100
AcDbEntity
  8
B-8
  6
JWW_DASHED3
 62
     3
370
     9
100
AcDbLine
 10
-545.5135036159206
 20
469.8072431920758
 30
0.0
 11
-554.5135085647171
 21
469.8072431920758
 31
0.0
  0
LINE
  5
235
330
1F
100
AcDbEntity
  8
B-8
  6
JWW_DASHED3
 62
     3
370
     9
100
AcDbLine
 10
-545.5135036159206
 20
469.3072910304414
 30
0.0
 11
-554.5135085647171
 21
469.3072910304414
 31
0.0
  0
LINE
  5
236
330
1F
100
AcDbEntity
  8
B-8
  6
Continuous
 62
     3
370
     9
100
AcDbLine
 10
-554.5135085647171
 20
481.8073322704118
 30
0.0
 11
-555.0134297963735
 21
481.8073322704118
 31
0.0
  0
LINE
  5
237
330
1F
100
AcDbEntity
  8
B-8
  6
Continuous
 62
     3
370
     9
100
AcDbLine
 10
-554.5135085647171
 20
469.8072431920758
 30
0.0
 11
-555.0134297963735
 21
469.8072431920758
 31
0.0
  0
TEXT
  5
238
330
1F
100
AcDbEntity
  8
B-5
  6
Continuous
 62
     7
370
     9
100
AcDbText
 10
-109.2107092818885
 20
616.6545805553926
 30
0.0
 40
11.43
  1
クロスバー □８ ＠100
 41
1.158730158730159
  7
ＭＳ ゴシック
100
AcDbText
  0
TEXT
  5
239
330
1F
100
AcDbEntity
  8
B-5
  6
Continuous
 62
     7
370
     9
100
AcDbText
 10
-111.4702719173784
 20
573.9700118718771
 30
0.0
 40
11.43
  1
メインバー Ⅰ－５５ ＠35.3
 41
1.16025641025641
  7
ＭＳ ゴシック
100
AcDbText
  0
LINE
  5
23A
330
1F
100
AcDbEntity
  8
B-5
  6
Continuous
 62
     7
370
     9
100
AcDbLine
 10
-109.731815138446
 20
611.8692458470913
 30
0.0
 11
77.09502482407513
 21
611.8692458470913
 31
0.0
  0
LINE
  5
23B
330
1F
100
AcDbEntity
  8
B-5
  6
Continuous
 62
     7
370
     9
100
AcDbLine
 10
-113.1619119599496
 20
567.9587504105066
 30
0.0
 11
112.5149545543446
 21
567.9587504105066
 31
0.0
  0
LINE
  5
23C
330
1F
100
AcDbEntity
  8
B-5
  6
Continuous
 62
     7
370
     9
100
AcDbLine
 10
-100.5342129402089
 20
519.4839319779901
 30
0.0
 11
65.27867636511202
 21
519.4839319779901
 31
0.0
  0
TEXT
  5
23D
330
1F
100
AcDbEntity
  8
B-5
  6
Continuous
 62
     7
370
     9
100
AcDbText
 10
-97.90375876362434
 20
524.7112197621392
 30
0.0
 40
11.43
  1
アーム式ピンヒンジ
 41
1.148148148148148
  7
ＭＳ ゴシック
100
AcDbText
  0
TEXT
  5
23E
330
1F
100
AcDbEntity
  8
B-5
  6
Continuous
 62
     7
370
     9
100
AcDbText
 10
-109.8027212250097
 20
649.0158653889579
 30
0.0
 40
11.43
  1
エンドプレート　ＦＢ4.5×50
 41
1.160493827160494
  7
ＭＳ ゴシック
100
AcDbText
  0
LINE
  5
23F
330
1F
100
AcDbEntity
  8
B-5
  6
Continuous
 62
     7
370
     9
100
AcDbLine
 10
-112.109139404601
 20
643.6587732758883
 30
0.0
 11
130.916304282246
 21
643.6587732758883
 31
0.0
  0
LINE
  5
240
330
1F
100
AcDbEntity
  8
B-5
  6
Continuous
 62
     7
370
     9
100
AcDbLine
 10
-100.5342129402089
 20
519.4839319779901
 30
0.0
 11
-124.3238372964499
 21
478.2790939000027
 31
0.0
  0
LINE
  5
241
330
1F
100
AcDbEntity
  8
B-5
  6
Continuous
 62
     7
370
     9
100
AcDbLine
 10
-124.3238372964499
 20
478.2790939000027
 30
0.0
 11
-119.5402943918863
 21
489.8275880563938
 31
0.0
  0
LINE
  5
242
330
1F
100
AcDbEntity
  8
B-5
  6
Continuous
 62
     7
370
     9
100
AcDbLine
 10
-124.3238372964499
 20
478.2790939000027
 30
0.0
 11
-116.7143194338408
 21
488.1960106536432
 31
0.0
  0
LINE
  5
243
330
1F
100
AcDbEntity
  8
B-5
  6
Continuous
 62
     7
370
     9
100
AcDbLine
 10
-113.1619119599496
 20
567.9587504105066
 30
0.0
 11
-185.4119171967378
 21
442.818070493272
 31
0.0
  0
LINE
  5
244
330
1F
100
AcDbEntity
  8
B-5
  6
Continuous
 62
     7
370
     9
100
AcDbLine
 10
-185.4119171967378
 20
442.818070493272
 30
0.0
 11
-180.6283742921741
 21
454.3665646496631
 31
0.0
  0
LINE
  5
245
330
1F
100
AcDbEntity
  8
B-5
  6
Continuous
 62
     7
370
     9
100
AcDbLine
 10
-185.4119171967378
 20
442.818070493272
 30
0.0
 11
-177.8023993341287
 21
452.7349872469125
 31
0.0
  0
LINE
  5
246
330
1F
100
AcDbEntity
  8
B-5
  6
Continuous
 62
     7
370
     9
100
AcDbLine
 10
-109.731815138446
 20
611.8692458470913
 30
0.0
 11
-237.0730819781449
 21
391.3077017805471
 31
0.0
  0
LINE
  5
247
330
1F
100
AcDbEntity
  8
B-5
  6
Continuous
 62
     7
370
     9
100
AcDbLine
 10
-237.0730819781449
 20
391.3077017805471
 30
0.0
 11
-232.2895390735813
 21
402.8561959369381
 31
0.0
  0
LINE
  5
248
330
1F
100
AcDbEntity
  8
B-5
  6
Continuous
 62
     7
370
     9
100
AcDbLine
 10
-237.0730819781449
 20
391.3077017805471
 30
0.0
 11
-229.4635641155358
 21
401.2246185341875
 31
0.0
  0
LINE
  5
249
330
1F
100
AcDbEntity
  8
B-5
  6
Continuous
 62
     7
370
     9
100
AcDbLine
 10
-112.109139404601
 20
643.6587732758883
 30
0.0
 11
-205.8625282430674
 21
480.8071805073207
 31
0.0
  0
LINE
  5
24A
330
1F
100
AcDbEntity
  8
B-5
  6
Continuous
 62
     7
370
     9
100
AcDbLine
 10
-205.8625282430674
 20
480.8071805073207
 30
0.0
 11
-201.0933073653464
 21
492.3615966422673
 31
0.0
  0
LINE
  5
24B
330
1F
100
AcDbEntity
  8
B-5
  6
Continuous
 62
     7
370
     9
100
AcDbLine
 10
-205.8625282430674
 20
480.8071805073207
 30
0.0
 11
-198.2653116752356
 21
490.7335242663019
 31
0.0
  0
LINE
  5
24C
330
1F
100
AcDbEntity
  8
B-5
  6
Continuous
 62
     7
370
     9
100
AcDbLine
 10
186.1599731596741
 20
590.0129020742647
 30
0.0
 11
316.4454527310423
 21
590.0129020742647
 31
0.0
  0
TEXT
  5
24D
330
1F
100
AcDbEntity
  8
B-5
  6
Continuous
 62
     7
370
     9
100
AcDbText
 10
192.7106950241165
 20
596.7797707398054
 30
0.0
 40
11.43
  1
受枠：Ｌ－５５
 41
1.142857142857143
  7
ＭＳ ゴシック
100
AcDbText
  0
TEXT
  5
24E
330
1F
100
AcDbEntity
  8
B-5
  6
Continuous
 62
     7
370
     9
100
AcDbText
 10
185.4913666519375
 20
572.578955503632
 30
0.0
 40
11.43
  1
（二方受四方枠）
 41
1.145833333333333
  7
ＭＳ ゴシック
100
AcDbText
  0
LINE
  5
24F
330
1F
100
AcDbEntity
  8
B-5
  6
Continuous
 62
     7
370
     9
100
AcDbLine
 10
316.4454527310423
 20
590.0129020742647
 30
0.0
 11
369.6803899451766
 21
497.807286081645
 31
0.0
  0
LINE
  5
250
330
1F
100
AcDbEntity
  8
B-5
  6
Continuous
 62
     7
370
     9
100
AcDbLine
 10
369.6803899451766
 20
497.807286081645
 30
0.0
 11
362.0708720825676
 21
507.7242028352855
 31
0.0
  0
LINE
  5
251
330
1F
100
AcDbEntity
  8
B-5
  6
Continuous
 62
     7
370
     9
100
AcDbLine
 10
369.6803899451766
 20
497.807286081645
 30
0.0
 11
364.896847040613
 21
509.3557802380361
 31
0.0
  0
LINE
  5
252
330
1F
100
AcDbEntity
  8
F-4ﾚｲﾔ
  6
Continuous
 62
     2
370
     9
100
AcDbLine
 10
221.516540106185
 20
-328.7936850873291
 30
0.0
 11
221.516540106185
 21
-303.7932933076099
 31
0.0
  0
LINE
  5
253
330
1F
100
AcDbEntity
  8
F-4ﾚｲﾔ
  6
Continuous
 62
     2
370
     9
100
AcDbLine
 10
221.516540106185
 20
-303.7932933076099
 30
0.0
 11
334.0162926663626
 21
-303.7932933076099
 31
0.0
  0
LINE
  5
254
330
1F
100
AcDbEntity
  8
F-4ﾚｲﾔ
  6
Continuous
 62
     2
370
     9
100
AcDbLine
 10
334.0162926663626
 20
-303.7932933076099
 30
0.0
 11
334.0162926663626
 21
-328.7936850873291
 31
0.0
  0
LINE
  5
255
330
1F
100
AcDbEntity
  8
F-4ﾚｲﾔ
  6
Continuous
 62
     2
370
     9
100
AcDbLine
 10
334.0162926663626
 20
-328.7936850873291
 30
0.0
 11
221.516540106185
 21
-328.7936850873291
 31
0.0
  0
TEXT
  5
256
330
1F
100
AcDbEntity
  8
F-4ﾚｲﾔ
  6
Continuous
 62
     2
370
     9
100
AcDbText
 10
245.2664163862738
 20
-323.4735531194237
 30
0.0
 40
15.24
  1
仕　様
 41
1.083333333333333
  7
ＭＳ ゴシック
100
AcDbText
  0
TEXT
  5
257
330
1F
100
AcDbEntity
  8
F-4ﾚｲﾔ
  6
Continuous
 62
     2
370
     9
100
AcDbText
 10
272.5612681533241
 20
-354.9338563486783
 30
0.0
 40
15.24
  1
スチール製グレーチング　１８０度開閉式　プレーンタイプ
 41
1.12037037037037
  7
ＭＳ ゴシック
100
AcDbText
  0
TEXT
  5
258
330
1F
100
AcDbEntity
  8
F-4ﾚｲﾔ
  6
Continuous
 62
     2
370
     9
100
AcDbText
 10
302.417221060577
 20
-409.9588812916711
 30
0.0
 40
15.24
  1
材質：ＳＳ４００
 41
1.109375000000001
  7
ＭＳ ゴシック
100
AcDbText
  0
TEXT
  5
259
330
1F
100
AcDbEntity
  8
F-4ﾚｲﾔ
  6
Continuous
 62
     2
370
     9
100
AcDbText
 10
302.4172334325682
 20
-437.4594050392956
 30
0.0
 40
15.24
  1
処理：溶融亜鉛めっき
 41
1.1125
  7
ＭＳ ゴシック
100
AcDbText
  0
TEXT
  5
25A
330
1F
100
AcDbEntity
  8
F-4ﾚｲﾔ
  6
Continuous
 62
     2
370
     9
100
AcDbText
 10
302.4174685003998
 20
-524.9596937190887
 30
0.0
 40
15.24
  1
材質：ＳＳ４００
 41
1.109374999999999
  7
ＭＳ ゴシック
100
AcDbText
  0
TEXT
  5
25B
330
1F
100
AcDbEntity
  8
F-4ﾚｲﾔ
  6
Continuous
 62
     2
370
     9
100
AcDbText
 10
302.4174808723909
 20
-552.4596607271124
 30
0.0
 40
15.24
  1
処理：樹脂系塗装
 41
1.109374999999999
  7
ＭＳ ゴシック
100
AcDbText
  0
TEXT
  5
25C
330
1F
100
AcDbEntity
  8
F-5ﾚｲﾔ
  6
Continuous
 62
     2
370
     9
100
AcDbText
 10
-426.1880709347506
 20
-661.4726690346383
 30
0.0
 40
15.24
  1
スチール製グレーチング　１８０度開閉式　プレーンタイプ
 41
0.899074074074074
  7
ＭＳ ゴシック
100
AcDbText
  0
TEXT
  5
25D
330
1F
100
AcDbEntity
  8
F-5ﾚｲﾔ
  6
Continuous
 62
     2
370
     9
100
AcDbText
 10
-39.90464966007345
 20
-687.4397846515357
 30
0.0
 40
15.24
  1
集水桝用　ＨＳＰ　４４５５
 41
0.8980769230769229
  7
ＭＳ ゴシック
100
AcDbText
  0
TEXT
  5
25E
330
1F
100
AcDbEntity
  8
F-4ﾚｲﾔ
  6
Continuous
 62
     2
370
     9
100
AcDbText
 10
272.5612681533241
 20
-379.3070726955621
 30
0.0
 40
15.24
  1
集水桝用　ＨＳＰ　４４５５
 41
1.115384615384615
  7
ＭＳ ゴシック
100
AcDbText
  0
TEXT
  5
25F
330
1F
100
AcDbEntity
  8
F-4ﾚｲﾔ
  6
Continuous
 62
     2
370
     9
100
AcDbText
 10
272.5617754049604
 20
-497.4596648511094
 30
0.0
 40
15.24
  1
スチール製受枠　Ｌ－５５（二方受四方枠）
 41
1.11875
  7
ＭＳ ゴシック
100
AcDbText
  0
TEXT
  5
260
330
1F
100
AcDbEntity
  8
F-5ﾚｲﾔ
  6
Continuous
 62
     3
370
     9
100
AcDbText
 10
359.0162926663626
 20
-325.2686850873291
 30
0.0
 40
19.05
  1
※適用荷重：Ｔ－２５
 41
1.09
  7
ＭＳ ゴシック
100
AcDbText
  0
LINE
  5
261
330
1F
100
AcDbEntity
  8
B-1
  6
Continuous
 62
     2
370
     9
100
AcDbLine
 10
-561.0135052655194
 20
491.807241542477
 30
0.0
 11
-134.0135316591005
 21
491.807241542477
 31
0.0
  0
LINE
  5
262
330
1F
100
AcDbEntity
  8
B-1
  6
Continuous
 62
     2
370
     9
100
AcDbLine
 10
-134.0135316591005
 20
-16.19277660311004
 30
0.0
 11
-561.0135052655194
 21
-16.19277660311004
 31
0.0
  0
ENDSEC
  0
SECTION
  2
OBJECTS
  0
DICTIONARY
  5
C
330
0
100
AcDbDictionary
281
     1
  3
ACAD_DETAILVIEWSTYLE
350
2A8
  3
ACAD_GROUP
350
D
  3
ACAD_LAYOUT
350
1A
  3
ACAD_MATERIAL
350
43
  3
ACAD_MLEADERSTYLE
350
6B
  3
ACAD_MLINESTYLE
350
17
  3
ACAD_PLOTSETTINGS
350
19
  3
ACAD_PLOTSTYLENAME
350
E
  3
ACAD_SCALELIST
350
47
  3
ACAD_SECTIONVIEWSTYLE
350
2A9
  3
ACAD_TABLESTYLE
350
69
  3
ACAD_VISUALSTYLE
350
2A
  3
ACDB_RECOMPOSE_DATA
350
2A5
  3
AcDbVariableDictionary
350
265
  0
DICTIONARY
  5
263
330
8
100
AcDbDictionary
280
     1
281
     1
  3
ACAD_XREC_ROUNDTRIP
360
264
  0
DICTIONARY
  5
2A8
102
{ACAD_REACTORS
330
C
102
}
330
C
100
AcDbDictionary
281
     1
  0
DICTIONARY
  5
D
102
{ACAD_REACTORS
330
C
102
}
330
C
100
AcDbDictionary
281
     1
  0
DICTIONARY
  5
1A
102
{ACAD_REACTORS
330
C
102
}
330
C
100
AcDbDictionary
281
     1
  3
Layout1
350
1E
  3
Layout2
350
26
  3
Model
350
22
  0
DICTIONARY
  5
43
102
{ACAD_REACTORS
330
C
102
}
330
C
100
AcDbDictionary
281
     1
  3
ByBlock
350
45
  3
ByLayer
350
44
  3
Global
350
46
  0
DICTIONARY
  5
6B
102
{ACAD_REACTORS
330
C
102
}
330
C
100
AcDbDictionary
281
     1
  3
Standard
350
6C
  0
DICTIONARY
  5
17
102
{ACAD_REACTORS
330
C
102
}
330
C
100
AcDbDictionary
281
     1
  3
Standard
350
18
  0
DICTIONARY
  5
19
102
{ACAD_REACTORS
330
C
102
}
330
C
100
AcDbDictionary
281
     1
  0
ACDBDICTIONARYWDFLT
  5
E
102
{ACAD_REACTORS
330
C
102
}
330
C
100
AcDbDictionary
281
     1
  3
Normal
350
F
100
AcDbDictionaryWithDefault
340
F
  0
DICTIONARY
  5
47
102
{ACAD_REACTORS
330
C
102
}
330
C
100
AcDbDictionary
281
     1
  3
A0
350
48
  3
A1
350
49
  3
A2
350
4A
  3
A3
350
4B
  3
A4
350
4C
  3
A5
350
4D
  3
A6
350
4E
  3
A7
350
4F
  3
A8
350
50
  3
A9
350
51
  3
B0
350
52
  3
B1
350
53
  3
B2
350
54
  3
B3
350
55
  3
B4
350
56
  3
B5
350
57
  3
B6
350
58
  3
B7
350
59
  3
B8
350
5A
  3
B9
350
5B
  3
C0
350
5C
  3
C1
350
5D
  3
C2
350
5E
  3
C3
350
5F
  3
C4
350
60
  3
C5
350
61
  3
C6
350
62
  3
C7
350
63
  3
C8
350
64
  3
C9
350
65
  3
D0
350
66
  3
D1
350
67
  3
D2
350
68
  0
DICTIONARY
  5
2A9
102
{ACAD_REACTORS
330
C
102
}
330
C
100
AcDbDictionary
281
     1
  0
DICTIONARY
  5
69
102
{ACAD_REACTORS
330
C
102
}
330
C
100
AcDbDictionary
281
     1
  3
Standard
350
6A
  0
DICTIONARY
  5
2A
102
{ACAD_REACTORS
330
C
102
}
330
C
100
AcDbDictionary
281
     1
  3
2dWireframe
350
2F
  3
Basic
350
32
  3
Brighten
350
36
  3
ColorChange
350
3A
  3
Conceptual
350
34
  3
Dim
350
35
  3
EdgeColorOff
350
3D
  3
Facepattern
350
39
  3
Flat
350
2B
  3
FlatWithEdges
350
2C
  3
Gouraud
350
2D
  3
GouraudWithEdges
350
2E
  3
Hidden
350
31
  3
JitterOff
350
3B
  3
Linepattern
350
38
  3
OverhangOff
350
3C
  3
Realistic
350
33
  3
Shaded
350
42
  3
Shaded with edges
350
41
  3
Shades of Gray
350
3E
  3
Sketchy
350
3F
  3
Thicken
350
37
  3
Wireframe
350
30
  3
X-Ray
350
40
  0
XRECORD
  5
2A5
102
{ACAD_REACTORS
330
C
102
}
330
C
100
AcDbXrecord
280
     1
 90
        1
330
6A
  0
DICTIONARY
  5
265
102
{ACAD_REACTORS
330
C
102
}
330
C
100
AcDbDictionary
281
     1
  3
CANNOSCALE
350
266
  3
CENTEREXE
350
2AA
  3
CENTERLTYPEFILE
350
2AB
  3
CMLEADERSTYLE
350
2A7
  3
CTABLESTYLE
350
2A6
  3
MSLTSCALE
350
267
  3
XCLIPFRAME
350
268
  0
XRECORD
  5
264
102
{ACAD_REACTORS
330
263
102
}
330
263
100
AcDbXrecord
280
     1
102
VTR_0.000_0.000_1.000_1.000_VISUALSTYLE
340
2F
102
VTR_0.000_0.000_1.000_1.000_GRIDDISPLAY
 70
     3
102
VTR_0.000_0.000_1.000_1.000_GRIDMAJOR
 70
     5
102
VTR_0.000_0.000_1.000_1.000_DEFAULTLIGHTING
280
     1
102
VTR_0.000_0.000_1.000_1.000_DEFAULTLIGHTINGTYPE
 70
     1
102
VTR_0.000_0.000_1.000_1.000_BRIGHTNESS
141
0.0
102
VTR_0.000_0.000_1.000_1.000_CONTRAST
142
0.0
  0
LAYOUT
  5
1E
102
{ACAD_REACTORS
330
1A
102
}
330
1A
100
AcDbPlotSettings
  1

  2
none_device
  4

  6

 40
0.0
 41
0.0
 42
0.0
 43
0.0
 44
0.0
 45
0.0
 46
0.0
 47
0.0
 48
0.0
 49
0.0
140
0.0
141
0.0
142
1.0
143
1.0
 70
   688
 72
     1
 73
     0
 74
     5
  7

 75
    16
 76
     0
 77
     5
 78
   300
147
1.0
148
0.0
149
0.0
100
AcDbLayout
  1
Layout1
 70
     1
 71
     1
 10
0.0
 20
0.0
 11
420.0
 21
297.0
 12
0.0
 22
0.0
 32
0.0
 14
1.000000000000000E+20
 24
1.000000000000000E+20
 34
1.000000000000000E+20
 15
-1.000000000000000E+20
 25
-1.000000000000000E+20
 35
-1.000000000000000E+20
146
0.0
 13
0.0
 23
0.0
 33
0.0
 16
1.0
 26
0.0
 36
0.0
 17
0.0
 27
1.0
 37
0.0
 76
     0
330
1B
  0
LAYOUT
  5
26
102
{ACAD_REACTORS
330
1A
102
}
330
1A
100
AcDbPlotSettings
  1

  2
none_device
  4

  6

 40
0.0
 41
0.0
 42
0.0
 43
0.0
 44
0.0
 45
0.0
 46
0.0
 47
0.0
 48
0.0
 49
0.0
140
0.0
141
0.0
142
1.0
143
1.0
 70
   688
 72
     1
 73
     0
 74
     5
  7

 75
    16
 76
     0
 77
     5
 78
   300
147
1.0
148
0.0
149
0.0
100
AcDbLayout
  1
Layout2
 70
     1
 71
     2
 10
0.0
 20
0.0
 11
0.0
 21
0.0
 12
0.0
 22
0.0
 32
0.0
 14
0.0
 24
0.0
 34
0.0
 15
0.0
 25
0.0
 35
0.0
146
0.0
 13
0.0
 23
0.0
 33
0.0
 16
1.0
 26
0.0
 36
0.0
 17
0.0
 27
1.0
 37
0.0
 76
     0
330
23
  0
LAYOUT
  5
22
102
{ACAD_REACTORS
330
1A
102
}
330
1A
100
AcDbPlotSettings
  1

  2
none_device
  4
Letter_(8.50_x_11.00_Inches)
  6

 40
6.35
 41
6.35
 42
6.35000508
 43
6.35000508
 44
215.9
 45
279.4
 46
0.0
 47
0.0
 48
0.0
 49
0.0
140
0.0
141
0.0
142
1.0
143
1.0
 70
  1712
 72
     1
 73
     0
 74
     0
  7

 75
     0
 76
     0
 77
     5
 78
   300
147
1.0
148
0.0
149
0.0
100
AcDbLayout
  1
Model
 70
     1
 71
     0
 10
-1050.0
 20
-742.5
 11
1050.0
 21
742.5
 12
0.0
 22
0.0
 32
0.0
 14
-1050.0
 24
-742.5
 34
0.0
 15
1050.0
 25
742.5
 35
0.0
146
0.0
 13
0.0
 23
0.0
 33
0.0
 16
1.0
 26
0.0
 36
0.0
 17
0.0
 27
1.0
 37
0.0
 76
     0
330
1F
331
29
  0
MATERIAL
  5
45
102
{ACAD_REACTORS
330
43
102
}
102
{ACAD_XDICTIONARY
360
29B
102
}
330
43
100
AcDbMaterial
  1
ByBlock
  0
MATERIAL
  5
44
102
{ACAD_REACTORS
330
43
102
}
102
{ACAD_XDICTIONARY
360
299
102
}
330
43
100
AcDbMaterial
  1
ByLayer
  0
MATERIAL
  5
46
102
{ACAD_REACTORS
330
43
102
}
102
{ACAD_XDICTIONARY
360
29D
102
}
330
43
100
AcDbMaterial
  1
Global
  0
MLEADERSTYLE
  5
6C
102
{ACAD_REACTORS
330
6B
102
}
102
{ACAD_XDICTIONARY
360
2A3
102
}
330
6B
100
AcDbMLeaderStyle
170
     2
171
     1
172
     0
 90
        2
 40
0.0
 41
0.0
173
     1
 91
-1056964608
340
14
 92
       -2
290
     1
 42
2.0
291
     1
 43
8.0
  3
Standard
341
0
 44
4.0
300

342
11
174
     1
178
     6
175
     1
176
     0
 93
-1056964608
 45
4.0
292
     0
297
     0
 46
4.0
343
0
 94
-1056964608
 47
1.0
 49
1.0
140
1.0
293
     1
141
0.0
294
     1
177
     0
142
1.0
295
     0
296
     0
143
3.75
1001
ACAD_MLEADERVER
1070
     2
  0
MLINESTYLE
  5
18
102
{ACAD_REACTORS
330
17
102
}
330
17
100
AcDbMlineStyle
  2
Standard
 70
     0
  3

 62
   256
 51
90.0
 52
90.0
 71
     2
 49
0.5
 62
   256
  6
BYLAYER
 49
-0.5
 62
   256
  6
BYLAYER
  0
ACDBPLACEHOLDER
  5
F
102
{ACAD_REACTORS
330
E
102
}
330
E
  0
SCALE
  5
48
102
{ACAD_REACTORS
330
47
102
}
330
47
100
AcDbScale
 70
     0
300
1:1
140
1.0
141
1.0
290
     1
  0
SCALE
  5
49
102
{ACAD_REACTORS
330
47
102
}
330
47
100
AcDbScale
 70
     0
300
1:2
140
1.0
141
2.0
290
     0
  0
SCALE
  5
4A
102
{ACAD_REACTORS
330
47
102
}
330
47
100
AcDbScale
 70
     0
300
1:4
140
1.0
141
4.0
290
     0
  0
SCALE
  5
4B
102
{ACAD_REACTORS
330
47
102
}
330
47
100
AcDbScale
 70
     0
300
1:5
140
1.0
141
5.0
290
     0
  0
SCALE
  5
4C
102
{ACAD_REACTORS
330
47
102
}
330
47
100
AcDbScale
 70
     0
300
1:8
140
1.0
141
8.0
290
     0
  0
SCALE
  5
4D
102
{ACAD_REACTORS
330
47
102
}
330
47
100
AcDbScale
 70
     0
300
1:10
140
1.0
141
10.0
290
     0
  0
SCALE
  5
4E
102
{ACAD_REACTORS
330
47
102
}
330
47
100
AcDbScale
 70
     0
300
1:16
140
1.0
141
16.0
290
     0
  0
SCALE
  5
4F
102
{ACAD_REACTORS
330
47
102
}
330
47
100
AcDbScale
 70
     0
300
1:20
140
1.0
141
20.0
290
     0
  0
SCALE
  5
50
102
{ACAD_REACTORS
330
47
102
}
330
47
100
AcDbScale
 70
     0
300
1:30
140
1.0
141
30.0
290
     0
  0
SCALE
  5
51
102
{ACAD_REACTORS
330
47
102
}
330
47
100
AcDbScale
 70
     0
300
1:40
140
1.0
141
40.0
290
     0
  0
SCALE
  5
52
102
{ACAD_REACTORS
330
47
102
}
330
47
100
AcDbScale
 70
     0
300
1:50
140
1.0
141
50.0
290
     0
  0
SCALE
  5
53
102
{ACAD_REACTORS
330
47
102
}
330
47
100
AcDbScale
 70
     0
300
1:100
140
1.0
141
100.0
290
     0
  0
SCALE
  5
54
102
{ACAD_REACTORS
330
47
102
}
330
47
100
AcDbScale
 70
     0
300
2:1
140
2.0
141
1.0
290
     0
  0
SCALE
  5
55
102
{ACAD_REACTORS
330
47
102
}
330
47
100
AcDbScale
 70
     0
300
4:1
140
4.0
141
1.0
290
     0
  0
SCALE
  5
56
102
{ACAD_REACTORS
330
47
102
}
330
47
100
AcDbScale
 70
     0
300
8:1
140
8.0
141
1.0
290
     0
  0
SCALE
  5
57
102
{ACAD_REACTORS
330
47
102
}
330
47
100
AcDbScale
 70
     0
300
10:1
140
10.0
141
1.0
290
     0
  0
SCALE
  5
58
102
{ACAD_REACTORS
330
47
102
}
330
47
100
AcDbScale
 70
     0
300
100:1
140
100.0
141
1.0
290
     0
  0
SCALE
  5
59
102
{ACAD_REACTORS
330
47
102
}
330
47
100
AcDbScale
 70
     0
300
1/128" = 1'-0"
140
0.0078125
141
12.0
290
     0
  0
SCALE
  5
5A
102
{ACAD_REACTORS
330
47
102
}
330
47
100
AcDbScale
 70
     0
300
1/64" = 1'-0"
140
0.015625
141
12.0
290
     0
  0
SCALE
  5
5B
102
{ACAD_REACTORS
330
47
102
}
330
47
100
AcDbScale
 70
     0
300
1/32" = 1'-0"
140
0.03125
141
12.0
290
     0
  0
SCALE
  5
5C
102
{ACAD_REACTORS
330
47
102
}
330
47
100
AcDbScale
 70
     0
300
1/16" = 1'-0"
140
0.0625
141
12.0
290
     0
  0
SCALE
  5
5D
102
{ACAD_REACTORS
330
47
102
}
330
47
100
AcDbScale
 70
     0
300
3/32" = 1'-0"
140
0.09375
141
12.0
290
     0
  0
SCALE
  5
5E
102
{ACAD_REACTORS
330
47
102
}
330
47
100
AcDbScale
 70
     0
300
1/8" = 1'-0"
140
0.125
141
12.0
290
     0
  0
SCALE
  5
5F
102
{ACAD_REACTORS
330
47
102
}
330
47
100
AcDbScale
 70
     0
300
3/16" = 1'-0"
140
0.1875
141
12.0
290
     0
  0
SCALE
  5
60
102
{ACAD_REACTORS
330
47
102
}
330
47
100
AcDbScale
 70
     0
300
1/4" = 1'-0"
140
0.25
141
12.0
290
     0
  0
SCALE
  5
61
102
{ACAD_REACTORS
330
47
102
}
330
47
100
AcDbScale
 70
     0
300
3/8" = 1'-0"
140
0.375
141
12.0
290
     0
  0
SCALE
  5
62
102
{ACAD_REACTORS
330
47
102
}
330
47
100
AcDbScale
 70
     0
300
1/2" = 1'-0"
140
0.5
141
12.0
290
     0
  0
SCALE
  5
63
102
{ACAD_REACTORS
330
47
102
}
330
47
100
AcDbScale
 70
     0
300
3/4" = 1'-0"
140
0.75
141
12.0
290
     0
  0
SCALE
  5
64
102
{ACAD_REACTORS
330
47
102
}
330
47
100
AcDbScale
 70
     0
300
1" = 1'-0"
140
1.0
141
12.0
290
     0
  0
SCALE
  5
65
102
{ACAD_REACTORS
330
47
102
}
330
47
100
AcDbScale
 70
     0
300
1-1/2" = 1'-0"
140
1.5
141
12.0
290
     0
  0
SCALE
  5
66
102
{ACAD_REACTORS
330
47
102
}
330
47
100
AcDbScale
 70
     0
300
3" = 1'-0"
140
3.0
141
12.0
290
     0
  0
SCALE
  5
67
102
{ACAD_REACTORS
330
47
102
}
330
47
100
AcDbScale
 70
     0
300
6" = 1'-0"
140
6.0
141
12.0
290
     0
  0
SCALE
  5
68
102
{ACAD_REACTORS
330
47
102
}
330
47
100
AcDbScale
 70
     0
300
1'-0" = 1'-0"
140
12.0
141
12.0
290
     0
  0
TABLESTYLE
  5
6A
102
{ACAD_REACTORS
330
69
102
}
102
{ACAD_XDICTIONARY
360
29F
102
}
330
69
100
AcDbTableStyle
  3
Standard
 70
     0
 71
     0
 40
0.06
 41
0.06
280
     0
281
     0
  7
Standard
140
4.5
170
     2
 62
     0
 63
   257
283
     0
274
    -2
284
     1
 64
     0
275
    -2
285
     1
 65
     0
276
    -2
286
     1
 66
     0
277
    -2
287
     1
 67
     0
278
    -2
288
     1
 68
     0
279
    -2
289
     1
 69
     0
  7
Standard
140
6.0
170
     5
 62
     0
 63
   257
283
     0
274
    -2
284
     1
 64
     0
275
    -2
285
     1
 65
     0
276
    -2
286
     1
 66
     0
277
    -2
287
     1
 67
     0
278
    -2
288
     1
 68
     0
279
    -2
289
     1
 69
     0
  7
Standard
140
4.5
170
     5
 62
     0
 63
   257
283
     0
274
    -2
284
     1
 64
     0
275
    -2
285
     1
 65
     0
276
    -2
286
     1
 66
     0
277
    -2
287
     1
 67
     0
278
    -2
288
     1
 68
     0
279
    -2
289
     1
 69
     0
  0
VISUALSTYLE
  5
2F
102
{ACAD_REACTORS
330
2A
102
}
102
{ACAD_XDICTIONARY
360
271
102
}
330
2A
100
AcDbVisualStyle
  2
2dWireframe
 70
     4
 71
     0
 72
     2
 73
     0
 90
        0
 40
0.6
 41
30.0
 62
     5
 63
     7
421
 16777215
 74
     1
 91
        4
 64
     7
 65
   257
 75
     1
175
     1
 42
1.0
 92
        0
 66
   257
 43
1.0
 76
     1
 77
     6
 78
     2
 67
     7
 79
     5
170
     0
171
     0
290
     0
174
     0
 93
        1
 44
0.0
173
     0
291
     0
 45
0.0
1001
ACAD
1000
AcDbSavedByObjectVersion
1070
     0
  0
VISUALSTYLE
  5
32
102
{ACAD_REACTORS
330
2A
102
}
102
{ACAD_XDICTIONARY
360
277
102
}
330
2A
100
AcDbVisualStyle
  2
Basic
 70
     7
 71
     1
 72
     0
 73
     1
 90
        0
 40
0.6
 41
30.0
 62
     5
 63
     7
421
 16777215
 74
     0
 91
        4
 64
     7
 65
   257
 75
     1
175
     1
 42
1.0
 92
        8
 66
     7
 43
1.0
 76
     1
 77
     6
 78
     2
 67
     7
 79
     5
170
     0
171
     0
290
     0
174
     0
 93
        1
 44
0.0
173
     0
291
     1
 45
0.0
1001
ACAD
1000
AcDbSavedByObjectVersion
1070
     0
  0
VISUALSTYLE
  5
36
102
{ACAD_REACTORS
330
2A
102
}
102
{ACAD_XDICTIONARY
360
27F
102
}
330
2A
100
AcDbVisualStyle
  2
Brighten
 70
    12
 71
     2
 72
     2
 73
     0
 90
        0
 40
0.6
 41
30.0
 62
     5
 63
     7
421
 16777215
 74
     1
 91
        4
 64
     7
 65
   257
 75
     1
175
     1
 42
1.0
 92
        8
 66
     7
 43
1.0
 76
     1
 77
     6
 78
     2
 67
     7
 79
     5
170
     0
171
     0
290
     0
174
     0
 93
        1
 44
50.0
173
     0
291
     1
 45
0.0
1001
ACAD
1000
AcDbSavedByObjectVersion
1070
     0
  0
VISUALSTYLE
  5
3A
102
{ACAD_REACTORS
330
2A
102
}
102
{ACAD_XDICTIONARY
360
287
102
}
330
2A
100
AcDbVisualStyle
  2
ColorChange
 70
    16
 71
     2
 72
     2
 73
     3
 90
        0
 40
0.6
 41
30.0
 62
     5
 63
     8
421
  8421504
 74
     1
 91
        4
 64
     7
 65
   257
 75
     1
175
     1
 42
1.0
 92
        8
 66
     8
424
  8421504
 43
1.0
 76
     1
 77
     6
 78
     2
 67
     7
 79
     5
170
     0
171
     0
290
     0
174
     0
 93
        1
 44
0.0
173
     0
291
     1
 45
0.0
1001
ACAD
1000
AcDbSavedByObjectVersion
1070
     0
  0
VISUALSTYLE
  5
34
102
{ACAD_REACTORS
330
2A
102
}
102
{ACAD_XDICTIONARY
360
27B
102
}
330
2A
100
AcDbVisualStyle
  2
Conceptual
 70
     9
 71
     3
 72
     2
 73
     0
 90
        0
 40
0.6
 41
30.0
 62
     5
 63
     7
421
 16777215
 74
     2
 91
        2
 64
     7
 65
   257
 75
     1
175
     1
 42
179.0
 92
        8
 66
     7
 43
1.0
 76
     1
 77
     6
 78
     2
 67
     7
 79
     3
170
     0
171
     0
290
     0
174
     0
 93
        1
 44
0.0
173
     0
291
     0
 45
0.0
1001
ACAD
1000
AcDbSavedByObjectVersion
1070
     0
  0
VISUALSTYLE
  5
35
102
{ACAD_REACTORS
330
2A
102
}
102
{ACAD_XDICTIONARY
360
27D
102
}
330
2A
100
AcDbVisualStyle
  2
Dim
 70
    11
 71
     2
 72
     2
 73
     0
 90
        0
 40
0.6
 41
30.0
 62
     5
 63
     7
421
 16777215
 74
     1
 91
        4
 64
     7
 65
   257
 75
     1
175
     1
 42
1.0
 92
        8
 66
     7
 43
1.0
 76
     1
 77
     6
 78
     2
 67
     7
 79
     5
170
     0
171
     0
290
     0
174
     0
 93
        1
 44
-50.0
173
     0
291
     1
 45
0.0
1001
ACAD
1000
AcDbSavedByObjectVersion
1070
     0
  0
VISUALSTYLE
  5
3D
102
{ACAD_REACTORS
330
2A
102
}
102
{ACAD_XDICTIONARY
360
28D
102
}
330
2A
100
AcDbVisualStyle
  2
EdgeColorOff
 70
    22
 71
     2
 72
     2
 73
     0
 90
        0
 40
0.6
 41
30.0
 62
     5
 63
     7
421
 16777215
 74
     1
 91
        4
 64
     7
 65
   257
 75
     1
175
     1
 42
1.0
 92
        8
 66
     7
 43
1.0
 76
     1
 77
     6
 78
     2
 67
     7
 79
     5
170
     0
171
     0
290
     0
174
     0
 93
        1
 44
0.0
173
     0
291
     1
 45
0.0
1001
ACAD
1000
AcDbSavedByObjectVersion
1070
     0
  0
VISUALSTYLE
  5
39
102
{ACAD_REACTORS
330
2A
102
}
102
{ACAD_XDICTIONARY
360
285
102
}
330
2A
100
AcDbVisualStyle
  2
Facepattern
 70
    15
 71
     2
 72
     2
 73
     0
 90
        0
 40
0.6
 41
30.0
 62
     5
 63
     7
421
 16777215
 74
     1
 91
        4
 64
     7
 65
   257
 75
     1
175
     1
 42
1.0
 92
        8
 66
     7
 43
1.0
 76
     1
 77
     6
 78
     2
 67
     7
 79
     5
170
     0
171
     0
290
     0
174
     0
 93
        1
 44
0.0
173
     0
291
     1
 45
0.0
1001
ACAD
1000
AcDbSavedByObjectVersion
1070
     0
  0
VISUALSTYLE
  5
2B
102
{ACAD_REACTORS
330
2A
102
}
102
{ACAD_XDICTIONARY
360
269
102
}
330
2A
100
AcDbVisualStyle
  2
Flat
 70
     0
 71
     2
 72
     1
 73
     1
 90
        2
 40
0.6
 41
30.0
 62
     5
 63
     7
421
 16777215
 74
     0
 91
        0
 64
     7
 65
   257
 75
     1
175
     1
 42
1.0
 92
        8
 66
     7
 43
1.0
 76
     1
 77
     6
 78
     2
 67
     7
 79
     5
170
     0
171
     0
290
     0
174
     0
 93
       13
 44
0.0
173
     0
291
     1
 45
0.0
1001
ACAD
1000
AcDbSavedByObjectVersion
1070
     0
  0
VISUALSTYLE
  5
2C
102
{ACAD_REACTORS
330
2A
102
}
102
{ACAD_XDICTIONARY
360
26B
102
}
330
2A
100
AcDbVisualStyle
  2
FlatWithEdges
 70
     1
 71
     2
 72
     1
 73
     1
 90
        2
 40
0.6
 41
30.0
 62
     5
 63
     7
421
 16777215
 74
     1
 91
        0
 64
     7
 65
   257
 75
     1
175
     1
 42
1.0
 92
        0
 66
   257
 43
1.0
 76
     1
 77
     6
 78
     2
 67
     7
 79
     5
170
     0
171
     0
290
     0
174
     0
 93
       13
 44
0.0
173
     0
291
     1
 45
0.0
1001
ACAD
1000
AcDbSavedByObjectVersion
1070
     0
  0
VISUALSTYLE
  5
2D
102
{ACAD_REACTORS
330
2A
102
}
102
{ACAD_XDICTIONARY
360
26D
102
}
330
2A
100
AcDbVisualStyle
  2
Gouraud
 70
     2
 71
     2
 72
     2
 73
     1
 90
        2
 40
0.6
 41
30.0
 62
     5
 63
     7
421
 16777215
 74
     0
 91
        0
 64
     7
 65
   257
 75
     1
175
     1
 42
1.0
 92
        0
 66
     7
 43
1.0
 76
     1
 77
     6
 78
     2
 67
     7
 79
     5
170
     0
171
     0
290
     0
174
     0
 93
       13
 44
0.0
173
     0
291
     1
 45
0.0
1001
ACAD
1000
AcDbSavedByObjectVersion
1070
     0
  0
VISUALSTYLE
  5
2E
102
{ACAD_REACTORS
330
2A
102
}
102
{ACAD_XDICTIONARY
360
26F
102
}
330
2A
100
AcDbVisualStyle
  2
GouraudWithEdges
 70
     3
 71
     2
 72
     2
 73
     1
 90
        2
 40
0.6
 41
30.0
 62
     5
 63
     7
421
 16777215
 74
     1
 91
        0
 64
     7
 65
   257
 75
     1
175
     1
 42
1.0
 92
        0
 66
   257
 43
1.0
 76
     1
 77
     6
 78
     2
 67
     7
 79
     5
170
     0
171
     0
290
     0
174
     0
 93
       13
 44
0.0
173
     0
291
     1
 45
0.0
1001
ACAD
1000
AcDbSavedByObjectVersion
1070
     0
  0
VISUALSTYLE
  5
31
102
{ACAD_REACTORS
330
2A
102
}
102
{ACAD_XDICTIONARY
360
275
102
}
330
2A
100
AcDbVisualStyle
  2
Hidden
 70
     6
 71
     1
 72
     2
 73
     2
 90
        0
 40
0.6
 41
30.0
 62
     5
 63
     7
421
 16777215
 74
     2
 91
        2
 64
     7
 65
   257
 75
     2
175
     1
 42
40.0
 92
        0
 66
   257
 43
1.0
 76
     1
 77
     6
 78
     2
 67
     7
 79
     3
170
     0
171
     0
290
     0
174
     0
 93
        1
 44
0.0
173
     0
291
     0
 45
0.0
1001
ACAD
1000
AcDbSavedByObjectVersion
1070
     0
  0
VISUALSTYLE
  5
3B
102
{ACAD_REACTORS
330
2A
102
}
102
{ACAD_XDICTIONARY
360
289
102
}
330
2A
100
AcDbVisualStyle
  2
JitterOff
 70
    20
 71
     2
 72
     2
 73
     0
 90
        0
 40
0.6
 41
30.0
 62
     5
 63
     7
421
 16777215
 74
     1
 91
        4
 64
     7
 65
   257
 75
     1
175
     1
 42
1.0
 92
       10
 66
     7
 43
1.0
 76
     1
 77
     6
 78
     2
 67
     7
 79
     5
170
     0
171
     0
290
     0
174
     0
 93
        1
 44
0.0
173
     0
291
     1
 45
0.0
1001
ACAD
1000
AcDbSavedByObjectVersion
1070
     0
  0
VISUALSTYLE
  5
38
102
{ACAD_REACTORS
330
2A
102
}
102
{ACAD_XDICTIONARY
360
283
102
}
330
2A
100
AcDbVisualStyle
  2
Linepattern
 70
    14
 71
     2
 72
     2
 73
     0
 90
        0
 40
0.6
 41
30.0
 62
     5
 63
     7
421
 16777215
 74
     1
 91
        4
 64
     7
 65
   257
 75
     7
175
     7
 42
1.0
 92
        8
 66
     7
 43
1.0
 76
     1
 77
     6
 78
     2
 67
     7
 79
     5
170
     0
171
     0
290
     0
174
     0
 93
        1
 44
0.0
173
     0
291
     1
 45
0.0
1001
ACAD
1000
AcDbSavedByObjectVersion
1070
     0
  0
VISUALSTYLE
  5
3C
102
{ACAD_REACTORS
330
2A
102
}
102
{ACAD_XDICTIONARY
360
28B
102
}
330
2A
100
AcDbVisualStyle
  2
OverhangOff
 70
    21
 71
     2
 72
     2
 73
     0
 90
        0
 40
0.6
 41
30.0
 62
     5
 63
     7
421
 16777215
 74
     1
 91
        4
 64
     7
 65
   257
 75
     1
175
     1
 42
1.0
 92
        9
 66
     7
 43
1.0
 76
     1
 77
     6
 78
     2
 67
     7
 79
     5
170
     0
171
     0
290
     0
174
     0
 93
        1
 44
0.0
173
     0
291
     1
 45
0.0
1001
ACAD
1000
AcDbSavedByObjectVersion
1070
     0
  0
VISUALSTYLE
  5
33
102
{ACAD_REACTORS
330
2A
102
}
102
{ACAD_XDICTIONARY
360
279
102
}
330
2A
100
AcDbVisualStyle
  2
Realistic
 70
     8
 71
     2
 72
     3
 73
     0
 90
        2
 40
0.6
 41
30.0
 62
     5
 63
     7
421
 16777215
 74
     0
 91
        0
 64
     7
 65
   257
 75
     1
175
     1
 42
1.0
 92
        8
 66
   257
 43
1.0
 76
     1
 77
     6
 78
     2
 67
     7
 79
     3
170
     0
171
     0
290
     0
174
     0
 93
       13
 44
0.0
173
     0
291
     0
 45
0.0
1001
ACAD
1000
AcDbSavedByObjectVersion
1070
     0
  0
VISUALSTYLE
  5
42
102
{ACAD_REACTORS
330
2A
102
}
102
{ACAD_XDICTIONARY
360
297
102
}
330
2A
100
AcDbVisualStyle
  2
Shaded
 70
    27
 71
     2
 72
     2
 73
     1
 90
        2
 40
0.6
 41
30.0
 62
     5
 63
     7
421
 16777215
 74
     0
 91
        4
 64
     7
 65
   257
 75
     1
175
     1
 42
1.0
 92
        8
 66
   257
 43
1.0
 76
     1
 77
     6
 78
     2
 67
     8
425
  7895160
 79
     3
170
     0
171
     0
290
     0
174
     0
 93
        5
 44
0.0
173
     0
291
     0
 45
0.0
1001
ACAD
1000
AcDbSavedByObjectVersion
1070
     0
  0
VISUALSTYLE
  5
41
102
{ACAD_REACTORS
330
2A
102
}
102
{ACAD_XDICTIONARY
360
295
102
}
330
2A
100
AcDbVisualStyle
  2
Shaded with edges
 70
    26
 71
     2
 72
     2
 73
     1
 90
        2
 40
0.6
 41
30.0
 62
     5
 63
     7
421
 16777215
 74
     1
 91
       10
 64
     7
 65
   257
 75
     2
175
     1
 42
1.0
 92
        8
 66
   257
 43
1.0
 76
     1
 77
     6
 78
     2
 67
     7
 79
     3
170
     0
171
     0
290
     0
174
     0
 93
        5
 44
0.0
173
     0
291
     0
 45
0.0
1001
ACAD
1000
AcDbSavedByObjectVersion
1070
     0
  0
VISUALSTYLE
  5
3E
102
{ACAD_REACTORS
330
2A
102
}
102
{ACAD_XDICTIONARY
360
28F
102
}
330
2A
100
AcDbVisualStyle
  2
Shades of Gray
 70
    23
 71
     2
 72
     2
 73
     3
 90
        0
 40
0.6
 41
30.0
 62
     5
 63
     7
421
 16777215
 74
     2
 91
        2
 64
     7
 65
     7
 75
     1
175
     1
 42
40.0
 92
        8
 66
     7
 43
1.0
 76
     1
 77
     6
 78
     2
 67
     7
 79
     3
170
     0
171
     0
290
     0
174
     0
 93
        1
 44
0.0
173
     0
291
     0
 45
0.0
1001
ACAD
1000
AcDbSavedByObjectVersion
1070
     0
  0
VISUALSTYLE
  5
3F
102
{ACAD_REACTORS
330
2A
102
}
102
{ACAD_XDICTIONARY
360
291
102
}
330
2A
100
AcDbVisualStyle
  2
Sketchy
 70
    24
 71
     1
 72
     2
 73
     2
 90
        0
 40
0.6
 41
30.0
 62
     5
 63
     7
421
 16777215
 74
     2
 91
        2
 64
     7
 65
     7
 75
     1
175
     1
 42
40.0
 92
       11
 66
     7
 43
1.0
 76
     1
 77
     6
 78
     2
 67
     7
 79
     6
170
     0
171
     0
290
     0
174
     0
 93
        1
 44
0.0
173
     0
291
     0
 45
0.0
1001
ACAD
1000
AcDbSavedByObjectVersion
1070
     0
  0
VISUALSTYLE
  5
37
102
{ACAD_REACTORS
330
2A
102
}
102
{ACAD_XDICTIONARY
360
281
102
}
330
2A
100
AcDbVisualStyle
  2
Thicken
 70
    13
 71
     2
 72
     2
 73
     0
 90
        0
 40
0.6
 41
30.0
 62
     5
 63
     7
421
 16777215
 74
     1
 91
        4
 64
     7
 65
   257
 75
     1
175
     1
 42
1.0
 92
       12
 66
     7
 43
1.0
 76
     1
 77
     6
 78
     2
 67
     7
 79
     5
170
     0
171
     0
290
     0
174
     0
 93
        1
 44
0.0
173
     0
291
     1
 45
0.0
1001
ACAD
1000
AcDbSavedByObjectVersion
1070
     0
  0
VISUALSTYLE
  5
30
102
{ACAD_REACTORS
330
2A
102
}
102
{ACAD_XDICTIONARY
360
273
102
}
330
2A
100
AcDbVisualStyle
  2
Wireframe
 70
     5
 71
     0
 72
     2
 73
     0
 90
        0
 40
0.6
 41
30.0
 62
     5
 63
     7
421
 16777215
 74
     1
 91
        4
 64
     7
 65
   257
 75
     1
175
     1
 42
1.0
 92
        0
 66
   257
 43
1.0
 76
     1
 77
     6
 78
     2
 67
     7
 79
     3
170
     0
171
     0
290
     0
174
     0
 93
        1
 44
0.0
173
     0
291
     0
 45
0.0
1001
ACAD
1000
AcDbSavedByObjectVersion
1070
     0
  0
VISUALSTYLE
  5
40
102
{ACAD_REACTORS
330
2A
102
}
102
{ACAD_XDICTIONARY
360
293
102
}
330
2A
100
AcDbVisualStyle
  2
X-Ray
 70
    25
 71
     2
 72
     2
 73
     1
 90
        1
 40
0.5
 41
30.0
 62
     5
 63
     7
421
 16777215
 74
     1
 91
        0
 64
     7
 65
   257
 75
     1
175
     1
 42
1.0
 92
        8
 66
     7
 43
1.0
 76
     1
 77
     6
 78
     2
 67
     7
 79
     3
170
     0
171
     0
290
     0
174
     0
 93
       13
 44
0.0
173
     0
291
     0
 45
0.0
1001
ACAD
1000
AcDbSavedByObjectVersion
1070
     0
  0
DICTIONARYVAR
  5
266
102
{ACAD_REACTORS
330
265
102
}
330
265
100
DictionaryVariables
280
     0
  1
1:1
  0
DICTIONARYVAR
  5
2AA
102
{ACAD_REACTORS
330
265
102
}
330
265
100
DictionaryVariables
280
     0
  1
3.500000
  0
DICTIONARYVAR
  5
2AB
102
{ACAD_REACTORS
330
265
102
}
330
265
100
DictionaryVariables
280
     0
  1
acadiso.lin
  0
DICTIONARYVAR
  5
2A7
102
{ACAD_REACTORS
330
265
102
}
330
265
100
DictionaryVariables
280
     0
  1
Standard
  0
DICTIONARYVAR
  5
2A6
102
{ACAD_REACTORS
330
265
102
}
330
265
100
DictionaryVariables
280
     0
  1
Standard
  0
DICTIONARYVAR
  5
267
102
{ACAD_REACTORS
330
265
102
}
330
265
100
DictionaryVariables
280
     0
  1
1
  0
DICTIONARYVAR
  5
268
102
{ACAD_REACTORS
330
265
102
}
330
265
100
DictionaryVariables
280
     0
  1
2
  0
DICTIONARY
  5
29B
330
45
100
AcDbDictionary
280
     1
281
     1
  3
ACAD_XREC_ROUNDTRIP
360
29C
  0
DICTIONARY
  5
299
330
44
100
AcDbDictionary
280
     1
281
     1
  3
ACAD_XREC_ROUNDTRIP
360
29A
  0
DICTIONARY
  5
29D
330
46
100
AcDbDictionary
280
     1
281
     1
  3
ACAD_XREC_ROUNDTRIP
360
29E
  0
DICTIONARY
  5
2A3
330
6C
100
AcDbDictionary
280
     1
281
     1
  3
ACAD_XREC_ROUNDTRIP
360
2A4
  0
DICTIONARY
  5
29F
330
6A
100
AcDbDictionary
280
     1
281
     1
  3
ACAD_ROUNDTRIP_2008_TABLESTYLE_CELLSTYLEMAP
360
2A1
  3
ACAD_XREC_ROUNDTRIP
360
2A0
  0
DICTIONARY
  5
271
330
2F
100
AcDbDictionary
280
     1
281
     1
  3
ACAD_XREC_ROUNDTRIP
360
272
  0
DICTIONARY
  5
277
330
32
100
AcDbDictionary
280
     1
281
     1
  3
ACAD_XREC_ROUNDTRIP
360
278
  0
DICTIONARY
  5
27F
330
36
100
AcDbDictionary
280
     1
281
     1
  3
ACAD_XREC_ROUNDTRIP
360
280
  0
DICTIONARY
  5
287
330
3A
100
AcDbDictionary
280
     1
281
     1
  3
ACAD_XREC_ROUNDTRIP
360
288
  0
DICTIONARY
  5
27B
330
34
100
AcDbDictionary
280
     1
281
     1
  3
ACAD_XREC_ROUNDTRIP
360
27C
  0
DICTIONARY
  5
27D
330
35
100
AcDbDictionary
280
     1
281
     1
  3
ACAD_XREC_ROUNDTRIP
360
27E
  0
DICTIONARY
  5
28D
330
3D
100
AcDbDictionary
280
     1
281
     1
  3
ACAD_XREC_ROUNDTRIP
360
28E
  0
DICTIONARY
  5
285
330
39
100
AcDbDictionary
280
     1
281
     1
  3
ACAD_XREC_ROUNDTRIP
360
286
  0
DICTIONARY
  5
269
330
2B
100
AcDbDictionary
280
     1
281
     1
  3
ACAD_XREC_ROUNDTRIP
360
26A
  0
DICTIONARY
  5
26B
330
2C
100
AcDbDictionary
280
     1
281
     1
  3
ACAD_XREC_ROUNDTRIP
360
26C
  0
DICTIONARY
  5
26D
330
2D
100
AcDbDictionary
280
     1
281
     1
  3
ACAD_XREC_ROUNDTRIP
360
26E
  0
DICTIONARY
  5
26F
330
2E
100
AcDbDictionary
280
     1
281
     1
  3
ACAD_XREC_ROUNDTRIP
360
270
  0
DICTIONARY
  5
275
330
31
100
AcDbDictionary
280
     1
281
     1
  3
ACAD_XREC_ROUNDTRIP
360
276
  0
DICTIONARY
  5
289
330
3B
100
AcDbDictionary
280
     1
281
     1
  3
ACAD_XREC_ROUNDTRIP
360
28A
  0
DICTIONARY
  5
283
330
38
100
AcDbDictionary
280
     1
281
     1
  3
ACAD_XREC_ROUNDTRIP
360
284
  0
DICTIONARY
  5
28B
330
3C
100
AcDbDictionary
280
     1
281
     1
  3
ACAD_XREC_ROUNDTRIP
360
28C
  0
DICTIONARY
  5
279
330
33
100
AcDbDictionary
280
     1
281
     1
  3
ACAD_XREC_ROUNDTRIP
360
27A
  0
DICTIONARY
  5
297
330
42
100
AcDbDictionary
280
     1
281
     1
  3
ACAD_XREC_ROUNDTRIP
360
298
  0
DICTIONARY
  5
295
330
41
100
AcDbDictionary
280
     1
281
     1
  3
ACAD_XREC_ROUNDTRIP
360
296
  0
DICTIONARY
  5
28F
330
3E
100
AcDbDictionary
280
     1
281
     1
  3
ACAD_XREC_ROUNDTRIP
360
290
  0
DICTIONARY
  5
291
330
3F
100
AcDbDictionary
280
     1
281
     1
  3
ACAD_XREC_ROUNDTRIP
360
292
  0
DICTIONARY
  5
281
330
37
100
AcDbDictionary
280
     1
281
     1
  3
ACAD_XREC_ROUNDTRIP
360
282
  0
DICTIONARY
  5
273
330
30
100
AcDbDictionary
280
     1
281
     1
  3
ACAD_XREC_ROUNDTRIP
360
274
  0
DICTIONARY
  5
293
330
40
100
AcDbDictionary
280
     1
281
     1
  3
ACAD_XREC_ROUNDTRIP
360
294
  0
XRECORD
  5
29C
102
{ACAD_REACTORS
330
29B
102
}
330
29B
100
AcDbXrecord
280
     1
102
MATERIAL
148
0.0
149
0.0
149
0.0
 93
        0
 94
      127
282
     0
 72
     1
 77
     1
171
     1
175
     1
179
     1
273
     0
  0
XRECORD
  5
29A
102
{ACAD_REACTORS
330
299
102
}
330
299
100
AcDbXrecord
280
     1
102
MATERIAL
148
0.0
149
0.0
149
0.0
 93
        0
 94
      127
282
     0
 72
     1
 77
     1
171
     1
175
     1
179
     1
273
     0
  0
XRECORD
  5
29E
102
{ACAD_REACTORS
330
29D
102
}
330
29D
100
AcDbXrecord
280
     1
102
MATERIAL
148
0.0
149
0.0
149
0.0
 93
        0
 94
      127
282
     0
 72
     1
 77
     1
171
     1
175
     1
179
     1
273
     0
  0
XRECORD
  5
2A4
102
{ACAD_REACTORS
330
2A3
102
}
330
2A3
100
AcDbXrecord
280
     1
102
ACAD_ROUNDTRIP_2010_MLEADER_STYLE
  0
CELLSTYLEMAP
  5
2A1
102
{ACAD_REACTORS
330
29F
102
}
330
29F
100
AcDbCellStyleMap
 90
        3
300
CELLSTYLE
  1
TABLEFORMAT_BEGIN
 90
        5
170
     1
 91
        0
 92
    32768
 62
   257
 93
        1
300
CONTENTFORMAT
  1
CONTENTFORMAT_BEGIN
 90
        0
 91
        0
 92
        4
 93
        0
300

 40
0.0
140
1.0
 94
        5
 62
     0
340
11
144
6.0
309
CONTENTFORMAT_END
171
     1
301
MARGIN
  1
CELLMARGIN_BEGIN
 40
1.5
 40
1.5
 40
1.5
 40
1.5
 40
1.5
 40
1.5
309
CELLMARGIN_END
 94
        6
 95
        1
302
GRIDFORMAT
  1
GRIDFORMAT_BEGIN
 90
        0
 91
        1
 62
     0
 92
       -2
340
14
 93
        0
 40
0.045
309
GRIDFORMAT_END
 95
        2
302
GRIDFORMAT
  1
GRIDFORMAT_BEGIN
 90
        0
 91
        1
 62
     0
 92
       -2
340
14
 93
        0
 40
0.045
309
GRIDFORMAT_END
 95
        4
302
GRIDFORMAT
  1
GRIDFORMAT_BEGIN
 90
        0
 91
        1
 62
     0
 92
       -2
340
14
 93
        0
 40
0.045
309
GRIDFORMAT_END
 95
        8
302
GRIDFORMAT
  1
GRIDFORMAT_BEGIN
 90
        0
 91
        1
 62
     0
 92
       -2
340
14
 93
        0
 40
0.045
309
GRIDFORMAT_END
 95
       16
302
GRIDFORMAT
  1
GRIDFORMAT_BEGIN
 90
        0
 91
        1
 62
     0
 92
       -2
340
14
 93
        0
 40
0.045
309
GRIDFORMAT_END
 95
       32
302
GRIDFORMAT
  1
GRIDFORMAT_BEGIN
 90
        0
 91
        1
 62
     0
 92
       -2
340
14
 93
        0
 40
0.045
309
GRIDFORMAT_END
309
TABLEFORMAT_END
  1
CELLSTYLE_BEGIN
 90
        1
 91
        1
300
_TITLE
309
CELLSTYLE_END
300
CELLSTYLE
  1
TABLEFORMAT_BEGIN
 90
        5
170
     1
 91
        0
 92
        0
 62
   257
 93
        1
300
CONTENTFORMAT
  1
CONTENTFORMAT_BEGIN
 90
        0
 91
        0
 92
        4
 93
        0
300

 40
0.0
140
1.0
 94
        5
 62
     0
340
11
144
4.5
309
CONTENTFORMAT_END
171
     1
301
MARGIN
  1
CELLMARGIN_BEGIN
 40
1.5
 40
1.5
 40
1.5
 40
1.5
 40
1.5
 40
1.5
309
CELLMARGIN_END
 94
        6
 95
        1
302
GRIDFORMAT
  1
GRIDFORMAT_BEGIN
 90
        0
 91
        1
 62
     0
 92
       -2
340
14
 93
        0
 40
0.045
309
GRIDFORMAT_END
 95
        2
302
GRIDFORMAT
  1
GRIDFORMAT_BEGIN
 90
        0
 91
        1
 62
     0
 92
       -2
340
14
 93
        0
 40
0.045
309
GRIDFORMAT_END
 95
        4
302
GRIDFORMAT
  1
GRIDFORMAT_BEGIN
 90
        0
 91
        1
 62
     0
 92
       -2
340
14
 93
        0
 40
0.045
309
GRIDFORMAT_END
 95
        8
302
GRIDFORMAT
  1
GRIDFORMAT_BEGIN
 90
        0
 91
        1
 62
     0
 92
       -2
340
14
 93
        0
 40
0.045
309
GRIDFORMAT_END
 95
       16
302
GRIDFORMAT
  1
GRIDFORMAT_BEGIN
 90
        0
 91
        1
 62
     0
 92
       -2
340
14
 93
        0
 40
0.045
309
GRIDFORMAT_END
 95
       32
302
GRIDFORMAT
  1
GRIDFORMAT_BEGIN
 90
        0
 91
        1
 62
     0
 92
       -2
340
14
 93
        0
 40
0.045
309
GRIDFORMAT_END
309
TABLEFORMAT_END
  1
CELLSTYLE_BEGIN
 90
        2
 91
        1
300
_HEADER
309
CELLSTYLE_END
300
CELLSTYLE
  1
TABLEFORMAT_BEGIN
 90
        5
170
     1
 91
        0
 92
        0
 62
   257
 93
        1
300
CONTENTFORMAT
  1
CONTENTFORMAT_BEGIN
 90
        0
 91
        0
 92
        4
 93
        0
300

 40
0.0
140
1.0
 94
        2
 62
     0
340
11
144
4.5
309
CONTENTFORMAT_END
171
     1
301
MARGIN
  1
CELLMARGIN_BEGIN
 40
1.5
 40
1.5
 40
1.5
 40
1.5
 40
1.5
 40
1.5
309
CELLMARGIN_END
 94
        6
 95
        1
302
GRIDFORMAT
  1
GRIDFORMAT_BEGIN
 90
        0
 91
        1
 62
     0
 92
       -2
340
14
 93
        0
 40
0.045
309
GRIDFORMAT_END
 95
        2
302
GRIDFORMAT
  1
GRIDFORMAT_BEGIN
 90
        0
 91
        1
 62
     0
 92
       -2
340
14
 93
        0
 40
0.045
309
GRIDFORMAT_END
 95
        4
302
GRIDFORMAT
  1
GRIDFORMAT_BEGIN
 90
        0
 91
        1
 62
     0
 92
       -2
340
14
 93
        0
 40
0.045
309
GRIDFORMAT_END
 95
        8
302
GRIDFORMAT
  1
GRIDFORMAT_BEGIN
 90
        0
 91
        1
 62
     0
 92
       -2
340
14
 93
        0
 40
0.045
309
GRIDFORMAT_END
 95
       16
302
GRIDFORMAT
  1
GRIDFORMAT_BEGIN
 90
        0
 91
        1
 62
     0
 92
       -2
340
14
 93
        0
 40
0.045
309
GRIDFORMAT_END
 95
       32
302
GRIDFORMAT
  1
GRIDFORMAT_BEGIN
 90
        0
 91
        1
 62
     0
 92
       -2
340
14
 93
        0
 40
0.045
309
GRIDFORMAT_END
309
TABLEFORMAT_END
  1
CELLSTYLE_BEGIN
 90
        3
 91
        2
300
_DATA
309
CELLSTYLE_END
  0
XRECORD
  5
2A0
102
{ACAD_REACTORS
330
29F
102
}
330
29F
100
AcDbXrecord
280
     1
102
ACAD_ROUNDTRIP_PRE2007_TABLESTYLE
 90
        4
 91
        0
  1

 92
        4
 93
        0
  2

 94
        4
 95
        0
  3

  0
XRECORD
  5
272
102
{ACAD_REACTORS
330
271
102
}
330
271
100
AcDbXrecord
280
     1
102
RTVSPropertyOp0
 70
     1
102
RTVSPropertyOp1
 70
     1
102
RTVSPropertyOp2
 70
     1
102
RTVSPropertyOp3
 70
     1
102
RTVSPropertyOp4
 70
     1
102
RTVSPropertyOp5
 70
     1
102
RTVSPropertyOp6
 70
     1
102
RTVSPropertyOp7
 70
     1
102
RTVSPropertyOp8
 70
     1
102
RTVSPropertyOp9
 70
     1
102
RTVSPropertyOp10
 70
     1
102
RTVSPropertyOp11
 70
     1
102
RTVSPropertyOp12
 70
     1
102
RTVSPropertyOp13
 70
     1
102
RTVSPropertyOp14
 70
     1
102
RTVSPropertyOp15
 70
     1
102
RTVSPropertyOp16
 70
     1
102
RTVSPropertyOp17
 70
     1
102
RTVSPropertyOp18
 70
     1
102
RTVSPropertyOp19
 70
     1
102
RTVSPropertyOp20
 70
     1
102
RTVSPropertyOp21
 70
     1
102
RTVSPropertyOp22
 70
     1
102
RTVSPropertyOp23
 70
     1
102
RTVSPropertyOp24
 70
     1
102
RTVSPropertyOp25
 70
     1
102
RTVSPropertyOp26
 70
     1
102
RTVSPropertyOp27
 70
     1
102
RTVSPropertyOp28
 70
     1
102
RTVSPropertyOp29
 70
     1
102
RTVSPropertyOp30
 70
     1
102
RTVSPropertyOp31
 70
     1
102
RTVSPropertyOp32
 70
     1
102
RTVSPropertyOp33
 70
     1
102
RTVSPropertyOp34
 70
     1
102
RTVSPropertyOp35
 70
     1
102
RTVSPropertyOp36
 70
     1
102
RTVSPropertyOp37
 70
     1
102
RTVSPropertyOp38
 70
     1
102
RTVSPropertyOp39
 70
     1
102
RTVSPropertyOp40
 70
     1
102
RTVSPropertyOp41
 70
     1
102
RTVSPropertyOp42
 70
     1
102
RTVSPropertyOp43
 70
     1
102
RTVSPropertyOp44
 70
     1
102
RTVSPropertyOp45
 70
     1
102
RTVSPropertyOp46
 70
     1
102
RTVSPropertyOp47
 70
     1
102
RTVSPropertyOp48
 70
     1
102
RTVSPropertyOp49
 70
     1
102
RTVSPropertyOp50
 70
     1
102
RTVSPropertyOp51
 70
     0
102
RTVSPropertyOp52
 70
     0
102
RTVSPropertyOp53
 70
     1
102
RTVSPropertyOp54
 70
     1
102
RTVSPropertyOp55
 70
     1
102
RTVSPropertyOp56
 70
     1
102
RTVSPropertyOp57
 70
     1
102
RTVSPost2010Prop28
280
     1
102
RTVSPost2010PropOp28
 70
     1
102
RTVSPost2010Prop29
280
     1
102
RTVSPost2010PropOp29
 70
     1
102
RTVSPost2010Prop30
280
     0
102
RTVSPost2010PropOp30
 70
     1
102
RTVSPost2010Prop31
280
     0
102
RTVSPost2010PropOp31
 70
     1
102
RTVSPost2010Prop32
280
     0
102
RTVSPost2010PropOp32
 70
     1
102
RTVSPost2010Prop33
280
     0
102
RTVSPost2010PropOp33
 70
     1
102
RTVSPost2010Prop34
280
     0
102
RTVSPost2010PropOp34
 70
     1
102
RTVSPost2010Prop35
280
     0
102
RTVSPost2010PropOp35
 70
     1
102
RTVSPost2010Prop36
280
     0
102
RTVSPost2010PropOp36
 70
     1
102
RTVSPost2010Prop37
 90
       50
102
RTVSPost2010PropOp37
 70
     1
102
RTVSPost2010Prop38
140
0.0
102
RTVSPost2010PropOp38
 70
     1
102
RTVSPost2010Prop39
140
1.0
102
RTVSPost2010PropOp39
 70
     1
102
RTVSPost2010Prop40
 90
        0
102
RTVSPost2010PropOp40
 70
     1
102
RTVSPost2010Prop41ColorIndex
 90
       18
102
RTVSPost2010Prop41ColorRGB
 90
        0
102
RTVSPost2010PropOp41
 70
     1
102
RTVSPost2010Prop42
 90
       50
102
RTVSPost2010PropOp42
 70
     1
102
RTVSPost2010Prop43
 90
        3
102
RTVSPost2010PropOp43
 70
     1
102
RTVSPost2010Prop44ColorIndex
 90
        5
102
RTVSPost2010Prop44ColorRGB
 90
      255
102
RTVSPost2010PropOp44
 70
     1
102
RTVSPost2010Prop45
280
     0
102
RTVSPost2010PropOp45
 70
     1
102
RTVSPost2010Prop46
 90
       50
102
RTVSPost2010PropOp46
 70
     1
102
RTVSPost2010Prop47
 90
       50
102
RTVSPost2010PropOp47
 70
     1
102
RTVSPost2010Prop48
 90
       50
102
RTVSPost2010PropOp48
 70
     1
102
RTVSPost2010Prop49
280
     0
102
RTVSPost2010PropOp49
 70
     1
102
RTVSPost2010Prop50
 90
       50
102
RTVSPost2010PropOp50
 70
     1
102
RTVSPost2010Prop51ColorIndex
 90
      256
102
RTVSPost2010Prop51ColorRGB
 90
-16777216
102
RTVSPost2010PropOp51
 70
     0
102
RTVSPost2010Prop52
140
1.0
102
RTVSPost2010PropOp52
 70
     0
102
RTVSPost2010Prop53
 90
        2
102
RTVSPost2010PropOp53
 70
     1
102
RTVSPost2010Prop54
  1
strokes_ogs.tif
102
RTVSPost2010PropOp54
 70
     1
102
RTVSPost2010Prop55
280
     0
102
RTVSPost2010PropOp55
 70
     1
102
RTVSPost2010Prop56
140
1.0
102
RTVSPost2010PropOp56
 70
     1
102
RTVSPost2010Prop57
140
1.0
102
RTVSPost2010PropOp57
 70
     1
  0
XRECORD
  5
278
102
{ACAD_REACTORS
330
277
102
}
330
277
100
AcDbXrecord
280
     1
102
RTVSPropertyOp0
 70
     1
102
RTVSPropertyOp1
 70
     1
102
RTVSPropertyOp2
 70
     1
102
RTVSPropertyOp3
 70
     1
102
RTVSPropertyOp4
 70
     1
102
RTVSPropertyOp5
 70
     1
102
RTVSPropertyOp6
 70
     1
102
RTVSPropertyOp7
 70
     1
102
RTVSPropertyOp8
 70
     1
102
RTVSPropertyOp9
 70
     1
102
RTVSPropertyOp10
 70
     1
102
RTVSPropertyOp11
 70
     1
102
RTVSPropertyOp12
 70
     1
102
RTVSPropertyOp13
 70
     1
102
RTVSPropertyOp14
 70
     1
102
RTVSPropertyOp15
 70
     1
102
RTVSPropertyOp16
 70
     1
102
RTVSPropertyOp17
 70
     1
102
RTVSPropertyOp18
 70
     1
102
RTVSPropertyOp19
 70
     1
102
RTVSPropertyOp20
 70
     1
102
RTVSPropertyOp21
 70
     1
102
RTVSPropertyOp22
 70
     1
102
RTVSPropertyOp23
 70
     1
102
RTVSPropertyOp24
 70
     1
102
RTVSPropertyOp25
 70
     1
102
RTVSPropertyOp26
 70
     1
102
RTVSPropertyOp27
 70
     1
102
RTVSPropertyOp28
 70
     1
102
RTVSPropertyOp29
 70
     1
102
RTVSPropertyOp30
 70
     1
102
RTVSPropertyOp31
 70
     1
102
RTVSPropertyOp32
 70
     1
102
RTVSPropertyOp33
 70
     1
102
RTVSPropertyOp34
 70
     1
102
RTVSPropertyOp35
 70
     1
102
RTVSPropertyOp36
 70
     1
102
RTVSPropertyOp37
 70
     1
102
RTVSPropertyOp38
 70
     1
102
RTVSPropertyOp39
 70
     1
102
RTVSPropertyOp40
 70
     1
102
RTVSPropertyOp41
 70
     1
102
RTVSPropertyOp42
 70
     1
102
RTVSPropertyOp43
 70
     1
102
RTVSPropertyOp44
 70
     1
102
RTVSPropertyOp45
 70
     1
102
RTVSPropertyOp46
 70
     1
102
RTVSPropertyOp47
 70
     1
102
RTVSPropertyOp48
 70
     1
102
RTVSPropertyOp49
 70
     1
102
RTVSPropertyOp50
 70
     1
102
RTVSPropertyOp51
 70
     0
102
RTVSPropertyOp52
 70
     0
102
RTVSPropertyOp53
 70
     1
102
RTVSPropertyOp54
 70
     1
102
RTVSPropertyOp55
 70
     1
102
RTVSPropertyOp56
 70
     1
102
RTVSPropertyOp57
 70
     1
102
RTVSPost2010Prop28
280
     0
102
RTVSPost2010PropOp28
 70
     1
102
RTVSPost2010Prop29
280
     1
102
RTVSPost2010PropOp29
 70
     1
102
RTVSPost2010Prop30
280
     1
102
RTVSPost2010PropOp30
 70
     1
102
RTVSPost2010Prop31
280
     0
102
RTVSPost2010PropOp31
 70
     1
102
RTVSPost2010Prop32
280
     0
102
RTVSPost2010PropOp32
 70
     1
102
RTVSPost2010Prop33
280
     0
102
RTVSPost2010PropOp33
 70
     1
102
RTVSPost2010Prop34
280
     0
102
RTVSPost2010PropOp34
 70
     1
102
RTVSPost2010Prop35
280
     0
102
RTVSPost2010PropOp35
 70
     1
102
RTVSPost2010Prop36
280
     0
102
RTVSPost2010PropOp36
 70
     1
102
RTVSPost2010Prop37
 90
       50
102
RTVSPost2010PropOp37
 70
     1
102
RTVSPost2010Prop38
140
0.0
102
RTVSPost2010PropOp38
 70
     1
102
RTVSPost2010Prop39
140
1.0
102
RTVSPost2010PropOp39
 70
     1
102
RTVSPost2010Prop40
 90
        0
102
RTVSPost2010PropOp40
 70
     1
102
RTVSPost2010Prop41ColorIndex
 90
       18
102
RTVSPost2010Prop41ColorRGB
 90
        0
102
RTVSPost2010PropOp41
 70
     1
102
RTVSPost2010Prop42
 90
       50
102
RTVSPost2010PropOp42
 70
     1
102
RTVSPost2010Prop43
 90
        3
102
RTVSPost2010PropOp43
 70
     1
102
RTVSPost2010Prop44ColorIndex
 90
        5
102
RTVSPost2010Prop44ColorRGB
 90
      255
102
RTVSPost2010PropOp44
 70
     1
102
RTVSPost2010Prop45
280
     0
102
RTVSPost2010PropOp45
 70
     1
102
RTVSPost2010Prop46
 90
       50
102
RTVSPost2010PropOp46
 70
     1
102
RTVSPost2010Prop47
 90
       50
102
RTVSPost2010PropOp47
 70
     1
102
RTVSPost2010Prop48
 90
       50
102
RTVSPost2010PropOp48
 70
     1
102
RTVSPost2010Prop49
280
     0
102
RTVSPost2010PropOp49
 70
     1
102
RTVSPost2010Prop50
 90
       50
102
RTVSPost2010PropOp50
 70
     1
102
RTVSPost2010Prop51ColorIndex
 90
      256
102
RTVSPost2010Prop51ColorRGB
 90
-16777216
102
RTVSPost2010PropOp51
 70
     0
102
RTVSPost2010Prop52
140
1.0
102
RTVSPost2010PropOp52
 70
     0
102
RTVSPost2010Prop53
 90
        2
102
RTVSPost2010PropOp53
 70
     1
102
RTVSPost2010Prop54
  1
strokes_ogs.tif
102
RTVSPost2010PropOp54
 70
     1
102
RTVSPost2010Prop55
280
     0
102
RTVSPost2010PropOp55
 70
     1
102
RTVSPost2010Prop56
140
1.0
102
RTVSPost2010PropOp56
 70
     1
102
RTVSPost2010Prop57
140
1.0
102
RTVSPost2010PropOp57
 70
     1
  0
XRECORD
  5
280
102
{ACAD_REACTORS
330
27F
102
}
330
27F
100
AcDbXrecord
280
     1
102
RTVSPropertyOp0
 70
     1
102
RTVSPropertyOp1
 70
     1
102
RTVSPropertyOp2
 70
     1
102
RTVSPropertyOp3
 70
     1
102
RTVSPropertyOp4
 70
     1
102
RTVSPropertyOp5
 70
     1
102
RTVSPropertyOp6
 70
     1
102
RTVSPropertyOp7
 70
     1
102
RTVSPropertyOp8
 70
     1
102
RTVSPropertyOp9
 70
     1
102
RTVSPropertyOp10
 70
     1
102
RTVSPropertyOp11
 70
     1
102
RTVSPropertyOp12
 70
     1
102
RTVSPropertyOp13
 70
     1
102
RTVSPropertyOp14
 70
     1
102
RTVSPropertyOp15
 70
     1
102
RTVSPropertyOp16
 70
     1
102
RTVSPropertyOp17
 70
     1
102
RTVSPropertyOp18
 70
     1
102
RTVSPropertyOp19
 70
     1
102
RTVSPropertyOp20
 70
     1
102
RTVSPropertyOp21
 70
     1
102
RTVSPropertyOp22
 70
     1
102
RTVSPropertyOp23
 70
     1
102
RTVSPropertyOp24
 70
     1
102
RTVSPropertyOp25
 70
     1
102
RTVSPropertyOp26
 70
     1
102
RTVSPropertyOp27
 70
     1
102
RTVSPropertyOp28
 70
     1
102
RTVSPropertyOp29
 70
     1
102
RTVSPropertyOp30
 70
     1
102
RTVSPropertyOp31
 70
     1
102
RTVSPropertyOp32
 70
     1
102
RTVSPropertyOp33
 70
     1
102
RTVSPropertyOp34
 70
     1
102
RTVSPropertyOp35
 70
     1
102
RTVSPropertyOp36
 70
     1
102
RTVSPropertyOp37
 70
     1
102
RTVSPropertyOp38
 70
     1
102
RTVSPropertyOp39
 70
     1
102
RTVSPropertyOp40
 70
     1
102
RTVSPropertyOp41
 70
     1
102
RTVSPropertyOp42
 70
     1
102
RTVSPropertyOp43
 70
     1
102
RTVSPropertyOp44
 70
     1
102
RTVSPropertyOp45
 70
     1
102
RTVSPropertyOp46
 70
     1
102
RTVSPropertyOp47
 70
     1
102
RTVSPropertyOp48
 70
     1
102
RTVSPropertyOp49
 70
     1
102
RTVSPropertyOp50
 70
     1
102
RTVSPropertyOp51
 70
     0
102
RTVSPropertyOp52
 70
     0
102
RTVSPropertyOp53
 70
     1
102
RTVSPropertyOp54
 70
     1
102
RTVSPropertyOp55
 70
     1
102
RTVSPropertyOp56
 70
     1
102
RTVSPropertyOp57
 70
     1
102
RTVSPost2010Prop28
280
     0
102
RTVSPost2010PropOp28
 70
     1
102
RTVSPost2010Prop29
280
     1
102
RTVSPost2010PropOp29
 70
     1
102
RTVSPost2010Prop30
280
     1
102
RTVSPost2010PropOp30
 70
     1
102
RTVSPost2010Prop31
280
     0
102
RTVSPost2010PropOp31
 70
     1
102
RTVSPost2010Prop32
280
     0
102
RTVSPost2010PropOp32
 70
     1
102
RTVSPost2010Prop33
280
     0
102
RTVSPost2010PropOp33
 70
     1
102
RTVSPost2010Prop34
280
     0
102
RTVSPost2010PropOp34
 70
     1
102
RTVSPost2010Prop35
280
     0
102
RTVSPost2010PropOp35
 70
     1
102
RTVSPost2010Prop36
280
     0
102
RTVSPost2010PropOp36
 70
     1
102
RTVSPost2010Prop37
 90
       50
102
RTVSPost2010PropOp37
 70
     1
102
RTVSPost2010Prop38
140
0.0
102
RTVSPost2010PropOp38
 70
     1
102
RTVSPost2010Prop39
140
1.0
102
RTVSPost2010PropOp39
 70
     1
102
RTVSPost2010Prop40
 90
        0
102
RTVSPost2010PropOp40
 70
     1
102
RTVSPost2010Prop41ColorIndex
 90
       18
102
RTVSPost2010Prop41ColorRGB
 90
        0
102
RTVSPost2010PropOp41
 70
     1
102
RTVSPost2010Prop42
 90
       50
102
RTVSPost2010PropOp42
 70
     1
102
RTVSPost2010Prop43
 90
        3
102
RTVSPost2010PropOp43
 70
     1
102
RTVSPost2010Prop44ColorIndex
 90
        5
102
RTVSPost2010Prop44ColorRGB
 90
      255
102
RTVSPost2010PropOp44
 70
     1
102
RTVSPost2010Prop45
280
     0
102
RTVSPost2010PropOp45
 70
     1
102
RTVSPost2010Prop46
 90
       50
102
RTVSPost2010PropOp46
 70
     1
102
RTVSPost2010Prop47
 90
       50
102
RTVSPost2010PropOp47
 70
     1
102
RTVSPost2010Prop48
 90
       50
102
RTVSPost2010PropOp48
 70
     1
102
RTVSPost2010Prop49
280
     0
102
RTVSPost2010PropOp49
 70
     1
102
RTVSPost2010Prop50
 90
       50
102
RTVSPost2010PropOp50
 70
     1
102
RTVSPost2010Prop51ColorIndex
 90
      256
102
RTVSPost2010Prop51ColorRGB
 90
-16777216
102
RTVSPost2010PropOp51
 70
     0
102
RTVSPost2010Prop52
140
1.0
102
RTVSPost2010PropOp52
 70
     0
102
RTVSPost2010Prop53
 90
        2
102
RTVSPost2010PropOp53
 70
     1
102
RTVSPost2010Prop54
  1
strokes_ogs.tif
102
RTVSPost2010PropOp54
 70
     1
102
RTVSPost2010Prop55
280
     0
102
RTVSPost2010PropOp55
 70
     1
102
RTVSPost2010Prop56
140
1.0
102
RTVSPost2010PropOp56
 70
     1
102
RTVSPost2010Prop57
140
1.0
102
RTVSPost2010PropOp57
 70
     1
  0
XRECORD
  5
288
102
{ACAD_REACTORS
330
287
102
}
330
287
100
AcDbXrecord
280
     1
102
RTVSPropertyOp0
 70
     1
102
RTVSPropertyOp1
 70
     1
102
RTVSPropertyOp2
 70
     1
102
RTVSPropertyOp3
 70
     1
102
RTVSPropertyOp4
 70
     1
102
RTVSPropertyOp5
 70
     1
102
RTVSPropertyOp6
 70
     1
102
RTVSPropertyOp7
 70
     1
102
RTVSPropertyOp8
 70
     1
102
RTVSPropertyOp9
 70
     1
102
RTVSPropertyOp10
 70
     1
102
RTVSPropertyOp11
 70
     1
102
RTVSPropertyOp12
 70
     1
102
RTVSPropertyOp13
 70
     1
102
RTVSPropertyOp14
 70
     1
102
RTVSPropertyOp15
 70
     1
102
RTVSPropertyOp16
 70
     1
102
RTVSPropertyOp17
 70
     1
102
RTVSPropertyOp18
 70
     1
102
RTVSPropertyOp19
 70
     1
102
RTVSPropertyOp20
 70
     1
102
RTVSPropertyOp21
 70
     1
102
RTVSPropertyOp22
 70
     1
102
RTVSPropertyOp23
 70
     1
102
RTVSPropertyOp24
 70
     1
102
RTVSPropertyOp25
 70
     1
102
RTVSPropertyOp26
 70
     1
102
RTVSPropertyOp27
 70
     1
102
RTVSPropertyOp28
 70
     1
102
RTVSPropertyOp29
 70
     1
102
RTVSPropertyOp30
 70
     1
102
RTVSPropertyOp31
 70
     1
102
RTVSPropertyOp32
 70
     1
102
RTVSPropertyOp33
 70
     1
102
RTVSPropertyOp34
 70
     1
102
RTVSPropertyOp35
 70
     1
102
RTVSPropertyOp36
 70
     1
102
RTVSPropertyOp37
 70
     1
102
RTVSPropertyOp38
 70
     1
102
RTVSPropertyOp39
 70
     1
102
RTVSPropertyOp40
 70
     1
102
RTVSPropertyOp41
 70
     1
102
RTVSPropertyOp42
 70
     1
102
RTVSPropertyOp43
 70
     1
102
RTVSPropertyOp44
 70
     1
102
RTVSPropertyOp45
 70
     1
102
RTVSPropertyOp46
 70
     1
102
RTVSPropertyOp47
 70
     1
102
RTVSPropertyOp48
 70
     1
102
RTVSPropertyOp49
 70
     1
102
RTVSPropertyOp50
 70
     1
102
RTVSPropertyOp51
 70
     0
102
RTVSPropertyOp52
 70
     0
102
RTVSPropertyOp53
 70
     1
102
RTVSPropertyOp54
 70
     1
102
RTVSPropertyOp55
 70
     1
102
RTVSPropertyOp56
 70
     1
102
RTVSPropertyOp57
 70
     1
102
RTVSPost2010Prop28
280
     0
102
RTVSPost2010PropOp28
 70
     1
102
RTVSPost2010Prop29
280
     1
102
RTVSPost2010PropOp29
 70
     1
102
RTVSPost2010Prop30
280
     1
102
RTVSPost2010PropOp30
 70
     1
102
RTVSPost2010Prop31
280
     0
102
RTVSPost2010PropOp31
 70
     1
102
RTVSPost2010Prop32
280
     0
102
RTVSPost2010PropOp32
 70
     1
102
RTVSPost2010Prop33
280
     0
102
RTVSPost2010PropOp33
 70
     1
102
RTVSPost2010Prop34
280
     0
102
RTVSPost2010PropOp34
 70
     1
102
RTVSPost2010Prop35
280
     0
102
RTVSPost2010PropOp35
 70
     1
102
RTVSPost2010Prop36
280
     0
102
RTVSPost2010PropOp36
 70
     1
102
RTVSPost2010Prop37
 90
       50
102
RTVSPost2010PropOp37
 70
     1
102
RTVSPost2010Prop38
140
0.0
102
RTVSPost2010PropOp38
 70
     1
102
RTVSPost2010Prop39
140
1.0
102
RTVSPost2010PropOp39
 70
     1
102
RTVSPost2010Prop40
 90
        0
102
RTVSPost2010PropOp40
 70
     1
102
RTVSPost2010Prop41ColorIndex
 90
       18
102
RTVSPost2010Prop41ColorRGB
 90
        0
102
RTVSPost2010PropOp41
 70
     1
102
RTVSPost2010Prop42
 90
       50
102
RTVSPost2010PropOp42
 70
     1
102
RTVSPost2010Prop43
 90
        3
102
RTVSPost2010PropOp43
 70
     1
102
RTVSPost2010Prop44ColorIndex
 90
        5
102
RTVSPost2010Prop44ColorRGB
 90
      255
102
RTVSPost2010PropOp44
 70
     1
102
RTVSPost2010Prop45
280
     0
102
RTVSPost2010PropOp45
 70
     1
102
RTVSPost2010Prop46
 90
       50
102
RTVSPost2010PropOp46
 70
     1
102
RTVSPost2010Prop47
 90
       50
102
RTVSPost2010PropOp47
 70
     1
102
RTVSPost2010Prop48
 90
       50
102
RTVSPost2010PropOp48
 70
     1
102
RTVSPost2010Prop49
280
     0
102
RTVSPost2010PropOp49
 70
     1
102
RTVSPost2010Prop50
 90
       50
102
RTVSPost2010PropOp50
 70
     1
102
RTVSPost2010Prop51ColorIndex
 90
      256
102
RTVSPost2010Prop51ColorRGB
 90
-16777216
102
RTVSPost2010PropOp51
 70
     0
102
RTVSPost2010Prop52
140
1.0
102
RTVSPost2010PropOp52
 70
     0
102
RTVSPost2010Prop53
 90
        2
102
RTVSPost2010PropOp53
 70
     1
102
RTVSPost2010Prop54
  1
strokes_ogs.tif
102
RTVSPost2010PropOp54
 70
     1
102
RTVSPost2010Prop55
280
     0
102
RTVSPost2010PropOp55
 70
     1
102
RTVSPost2010Prop56
140
1.0
102
RTVSPost2010PropOp56
 70
     1
102
RTVSPost2010Prop57
140
1.0
102
RTVSPost2010PropOp57
 70
     1
  0
XRECORD
  5
27C
102
{ACAD_REACTORS
330
27B
102
}
330
27B
100
AcDbXrecord
280
     1
102
RTVSPropertyOp0
 70
     1
102
RTVSPropertyOp1
 70
     1
102
RTVSPropertyOp2
 70
     1
102
RTVSPropertyOp3
 70
     1
102
RTVSPropertyOp4
 70
     1
102
RTVSPropertyOp5
 70
     1
102
RTVSPropertyOp6
 70
     1
102
RTVSPropertyOp7
 70
     1
102
RTVSPropertyOp8
 70
     1
102
RTVSPropertyOp9
 70
     1
102
RTVSPropertyOp10
 70
     1
102
RTVSPropertyOp11
 70
     1
102
RTVSPropertyOp12
 70
     1
102
RTVSPropertyOp13
 70
     1
102
RTVSPropertyOp14
 70
     1
102
RTVSPropertyOp15
 70
     1
102
RTVSPropertyOp16
 70
     1
102
RTVSPropertyOp17
 70
     1
102
RTVSPropertyOp18
 70
     1
102
RTVSPropertyOp19
 70
     1
102
RTVSPropertyOp20
 70
     1
102
RTVSPropertyOp21
 70
     1
102
RTVSPropertyOp22
 70
     1
102
RTVSPropertyOp23
 70
     1
102
RTVSPropertyOp24
 70
     1
102
RTVSPropertyOp25
 70
     1
102
RTVSPropertyOp26
 70
     1
102
RTVSPropertyOp27
 70
     1
102
RTVSPropertyOp28
 70
     1
102
RTVSPropertyOp29
 70
     1
102
RTVSPropertyOp30
 70
     1
102
RTVSPropertyOp31
 70
     1
102
RTVSPropertyOp32
 70
     1
102
RTVSPropertyOp33
 70
     1
102
RTVSPropertyOp34
 70
     1
102
RTVSPropertyOp35
 70
     1
102
RTVSPropertyOp36
 70
     1
102
RTVSPropertyOp37
 70
     1
102
RTVSPropertyOp38
 70
     1
102
RTVSPropertyOp39
 70
     1
102
RTVSPropertyOp40
 70
     1
102
RTVSPropertyOp41
 70
     1
102
RTVSPropertyOp42
 70
     1
102
RTVSPropertyOp43
 70
     1
102
RTVSPropertyOp44
 70
     1
102
RTVSPropertyOp45
 70
     1
102
RTVSPropertyOp46
 70
     1
102
RTVSPropertyOp47
 70
     1
102
RTVSPropertyOp48
 70
     1
102
RTVSPropertyOp49
 70
     1
102
RTVSPropertyOp50
 70
     1
102
RTVSPropertyOp51
 70
     0
102
RTVSPropertyOp52
 70
     0
102
RTVSPropertyOp53
 70
     1
102
RTVSPropertyOp54
 70
     1
102
RTVSPropertyOp55
 70
     1
102
RTVSPropertyOp56
 70
     1
102
RTVSPropertyOp57
 70
     1
102
RTVSPost2010Prop28
280
     0
102
RTVSPost2010PropOp28
 70
     1
102
RTVSPost2010Prop29
280
     1
102
RTVSPost2010PropOp29
 70
     1
102
RTVSPost2010Prop30
280
     1
102
RTVSPost2010PropOp30
 70
     1
102
RTVSPost2010Prop31
280
     0
102
RTVSPost2010PropOp31
 70
     1
102
RTVSPost2010Prop32
280
     0
102
RTVSPost2010PropOp32
 70
     1
102
RTVSPost2010Prop33
280
     0
102
RTVSPost2010PropOp33
 70
     1
102
RTVSPost2010Prop34
280
     0
102
RTVSPost2010PropOp34
 70
     1
102
RTVSPost2010Prop35
280
     0
102
RTVSPost2010PropOp35
 70
     1
102
RTVSPost2010Prop36
280
     0
102
RTVSPost2010PropOp36
 70
     1
102
RTVSPost2010Prop37
 90
       50
102
RTVSPost2010PropOp37
 70
     1
102
RTVSPost2010Prop38
140
0.0
102
RTVSPost2010PropOp38
 70
     1
102
RTVSPost2010Prop39
140
1.0
102
RTVSPost2010PropOp39
 70
     1
102
RTVSPost2010Prop40
 90
        0
102
RTVSPost2010PropOp40
 70
     1
102
RTVSPost2010Prop41ColorIndex
 90
       18
102
RTVSPost2010Prop41ColorRGB
 90
        0
102
RTVSPost2010PropOp41
 70
     1
102
RTVSPost2010Prop42
 90
       50
102
RTVSPost2010PropOp42
 70
     1
102
RTVSPost2010Prop43
 90
        3
102
RTVSPost2010PropOp43
 70
     1
102
RTVSPost2010Prop44ColorIndex
 90
        5
102
RTVSPost2010Prop44ColorRGB
 90
      255
102
RTVSPost2010PropOp44
 70
     1
102
RTVSPost2010Prop45
280
     0
102
RTVSPost2010PropOp45
 70
     1
102
RTVSPost2010Prop46
 90
       50
102
RTVSPost2010PropOp46
 70
     1
102
RTVSPost2010Prop47
 90
       50
102
RTVSPost2010PropOp47
 70
     1
102
RTVSPost2010Prop48
 90
       50
102
RTVSPost2010PropOp48
 70
     1
102
RTVSPost2010Prop49
280
     0
102
RTVSPost2010PropOp49
 70
     1
102
RTVSPost2010Prop50
 90
       50
102
RTVSPost2010PropOp50
 70
     1
102
RTVSPost2010Prop51ColorIndex
 90
      256
102
RTVSPost2010Prop51ColorRGB
 90
-16777216
102
RTVSPost2010PropOp51
 70
     0
102
RTVSPost2010Prop52
140
1.0
102
RTVSPost2010PropOp52
 70
     0
102
RTVSPost2010Prop53
 90
        2
102
RTVSPost2010PropOp53
 70
     1
102
RTVSPost2010Prop54
  1
strokes_ogs.tif
102
RTVSPost2010PropOp54
 70
     1
102
RTVSPost2010Prop55
280
     0
102
RTVSPost2010PropOp55
 70
     1
102
RTVSPost2010Prop56
140
1.0
102
RTVSPost2010PropOp56
 70
     1
102
RTVSPost2010Prop57
140
1.0
102
RTVSPost2010PropOp57
 70
     1
  0
XRECORD
  5
27E
102
{ACAD_REACTORS
330
27D
102
}
330
27D
100
AcDbXrecord
280
     1
102
RTVSPropertyOp0
 70
     1
102
RTVSPropertyOp1
 70
     1
102
RTVSPropertyOp2
 70
     1
102
RTVSPropertyOp3
 70
     1
102
RTVSPropertyOp4
 70
     1
102
RTVSPropertyOp5
 70
     1
102
RTVSPropertyOp6
 70
     1
102
RTVSPropertyOp7
 70
     1
102
RTVSPropertyOp8
 70
     1
102
RTVSPropertyOp9
 70
     1
102
RTVSPropertyOp10
 70
     1
102
RTVSPropertyOp11
 70
     1
102
RTVSPropertyOp12
 70
     1
102
RTVSPropertyOp13
 70
     1
102
RTVSPropertyOp14
 70
     1
102
RTVSPropertyOp15
 70
     1
102
RTVSPropertyOp16
 70
     1
102
RTVSPropertyOp17
 70
     1
102
RTVSPropertyOp18
 70
     1
102
RTVSPropertyOp19
 70
     1
102
RTVSPropertyOp20
 70
     1
102
RTVSPropertyOp21
 70
     1
102
RTVSPropertyOp22
 70
     1
102
RTVSPropertyOp23
 70
     1
102
RTVSPropertyOp24
 70
     1
102
RTVSPropertyOp25
 70
     1
102
RTVSPropertyOp26
 70
     1
102
RTVSPropertyOp27
 70
     1
102
RTVSPropertyOp28
 70
     1
102
RTVSPropertyOp29
 70
     1
102
RTVSPropertyOp30
 70
     1
102
RTVSPropertyOp31
 70
     1
102
RTVSPropertyOp32
 70
     1
102
RTVSPropertyOp33
 70
     1
102
RTVSPropertyOp34
 70
     1
102
RTVSPropertyOp35
 70
     1
102
RTVSPropertyOp36
 70
     1
102
RTVSPropertyOp37
 70
     1
102
RTVSPropertyOp38
 70
     1
102
RTVSPropertyOp39
 70
     1
102
RTVSPropertyOp40
 70
     1
102
RTVSPropertyOp41
 70
     1
102
RTVSPropertyOp42
 70
     1
102
RTVSPropertyOp43
 70
     1
102
RTVSPropertyOp44
 70
     1
102
RTVSPropertyOp45
 70
     1
102
RTVSPropertyOp46
 70
     1
102
RTVSPropertyOp47
 70
     1
102
RTVSPropertyOp48
 70
     1
102
RTVSPropertyOp49
 70
     1
102
RTVSPropertyOp50
 70
     1
102
RTVSPropertyOp51
 70
     0
102
RTVSPropertyOp52
 70
     0
102
RTVSPropertyOp53
 70
     1
102
RTVSPropertyOp54
 70
     1
102
RTVSPropertyOp55
 70
     1
102
RTVSPropertyOp56
 70
     1
102
RTVSPropertyOp57
 70
     1
102
RTVSPost2010Prop28
280
     0
102
RTVSPost2010PropOp28
 70
     1
102
RTVSPost2010Prop29
280
     1
102
RTVSPost2010PropOp29
 70
     1
102
RTVSPost2010Prop30
280
     1
102
RTVSPost2010PropOp30
 70
     1
102
RTVSPost2010Prop31
280
     0
102
RTVSPost2010PropOp31
 70
     1
102
RTVSPost2010Prop32
280
     0
102
RTVSPost2010PropOp32
 70
     1
102
RTVSPost2010Prop33
280
     0
102
RTVSPost2010PropOp33
 70
     1
102
RTVSPost2010Prop34
280
     0
102
RTVSPost2010PropOp34
 70
     1
102
RTVSPost2010Prop35
280
     0
102
RTVSPost2010PropOp35
 70
     1
102
RTVSPost2010Prop36
280
     0
102
RTVSPost2010PropOp36
 70
     1
102
RTVSPost2010Prop37
 90
       50
102
RTVSPost2010PropOp37
 70
     1
102
RTVSPost2010Prop38
140
0.0
102
RTVSPost2010PropOp38
 70
     1
102
RTVSPost2010Prop39
140
1.0
102
RTVSPost2010PropOp39
 70
     1
102
RTVSPost2010Prop40
 90
        0
102
RTVSPost2010PropOp40
 70
     1
102
RTVSPost2010Prop41ColorIndex
 90
       18
102
RTVSPost2010Prop41ColorRGB
 90
        0
102
RTVSPost2010PropOp41
 70
     1
102
RTVSPost2010Prop42
 90
       50
102
RTVSPost2010PropOp42
 70
     1
102
RTVSPost2010Prop43
 90
        3
102
RTVSPost2010PropOp43
 70
     1
102
RTVSPost2010Prop44ColorIndex
 90
        5
102
RTVSPost2010Prop44ColorRGB
 90
      255
102
RTVSPost2010PropOp44
 70
     1
102
RTVSPost2010Prop45
280
     0
102
RTVSPost2010PropOp45
 70
     1
102
RTVSPost2010Prop46
 90
       50
102
RTVSPost2010PropOp46
 70
     1
102
RTVSPost2010Prop47
 90
       50
102
RTVSPost2010PropOp47
 70
     1
102
RTVSPost2010Prop48
 90
       50
102
RTVSPost2010PropOp48
 70
     1
102
RTVSPost2010Prop49
280
     0
102
RTVSPost2010PropOp49
 70
     1
102
RTVSPost2010Prop50
 90
       50
102
RTVSPost2010PropOp50
 70
     1
102
RTVSPost2010Prop51ColorIndex
 90
      256
102
RTVSPost2010Prop51ColorRGB
 90
-16777216
102
RTVSPost2010PropOp51
 70
     0
102
RTVSPost2010Prop52
140
1.0
102
RTVSPost2010PropOp52
 70
     0
102
RTVSPost2010Prop53
 90
        2
102
RTVSPost2010PropOp53
 70
     1
102
RTVSPost2010Prop54
  1
strokes_ogs.tif
102
RTVSPost2010PropOp54
 70
     1
102
RTVSPost2010Prop55
280
     0
102
RTVSPost2010PropOp55
 70
     1
102
RTVSPost2010Prop56
140
1.0
102
RTVSPost2010PropOp56
 70
     1
102
RTVSPost2010Prop57
140
1.0
102
RTVSPost2010PropOp57
 70
     1
  0
XRECORD
  5
28E
102
{ACAD_REACTORS
330
28D
102
}
330
28D
100
AcDbXrecord
280
     1
102
RTVSPropertyOp0
 70
     0
102
RTVSPropertyOp1
 70
     0
102
RTVSPropertyOp2
 70
     0
102
RTVSPropertyOp3
 70
     0
102
RTVSPropertyOp4
 70
     0
102
RTVSPropertyOp5
 70
     0
102
RTVSPropertyOp6
 70
     0
102
RTVSPropertyOp7
 70
     0
102
RTVSPropertyOp8
 70
     0
102
RTVSPropertyOp9
 70
     0
102
RTVSPropertyOp10
 70
     0
102
RTVSPropertyOp11
 70
     0
102
RTVSPropertyOp12
 70
     0
102
RTVSPropertyOp13
 70
     0
102
RTVSPropertyOp14
 70
     2
102
RTVSPropertyOp15
 70
     0
102
RTVSPropertyOp16
 70
     0
102
RTVSPropertyOp17
 70
     0
102
RTVSPropertyOp18
 70
     0
102
RTVSPropertyOp19
 70
     0
102
RTVSPropertyOp20
 70
     0
102
RTVSPropertyOp21
 70
     0
102
RTVSPropertyOp22
 70
     0
102
RTVSPropertyOp23
 70
     0
102
RTVSPropertyOp24
 70
     0
102
RTVSPropertyOp25
 70
     0
102
RTVSPropertyOp26
 70
     0
102
RTVSPropertyOp27
 70
     0
102
RTVSPropertyOp28
 70
     0
102
RTVSPropertyOp29
 70
     0
102
RTVSPropertyOp30
 70
     0
102
RTVSPropertyOp31
 70
     0
102
RTVSPropertyOp32
 70
     0
102
RTVSPropertyOp33
 70
     0
102
RTVSPropertyOp34
 70
     0
102
RTVSPropertyOp35
 70
     0
102
RTVSPropertyOp36
 70
     0
102
RTVSPropertyOp37
 70
     0
102
RTVSPropertyOp38
 70
     0
102
RTVSPropertyOp39
 70
     0
102
RTVSPropertyOp40
 70
     0
102
RTVSPropertyOp41
 70
     0
102
RTVSPropertyOp42
 70
     0
102
RTVSPropertyOp43
 70
     0
102
RTVSPropertyOp44
 70
     0
102
RTVSPropertyOp45
 70
     0
102
RTVSPropertyOp46
 70
     0
102
RTVSPropertyOp47
 70
     0
102
RTVSPropertyOp48
 70
     0
102
RTVSPropertyOp49
 70
     0
102
RTVSPropertyOp50
 70
     0
102
RTVSPropertyOp51
 70
     0
102
RTVSPropertyOp52
 70
     0
102
RTVSPropertyOp53
 70
     0
102
RTVSPropertyOp54
 70
     0
102
RTVSPropertyOp55
 70
     0
102
RTVSPropertyOp56
 70
     0
102
RTVSPropertyOp57
 70
     0
102
RTVSPost2010Prop28
280
     0
102
RTVSPost2010PropOp28
 70
     0
102
RTVSPost2010Prop29
280
     1
102
RTVSPost2010PropOp29
 70
     0
102
RTVSPost2010Prop30
280
     1
102
RTVSPost2010PropOp30
 70
     0
102
RTVSPost2010Prop31
280
     0
102
RTVSPost2010PropOp31
 70
     0
102
RTVSPost2010Prop32
280
     0
102
RTVSPost2010PropOp32
 70
     0
102
RTVSPost2010Prop33
280
     0
102
RTVSPost2010PropOp33
 70
     0
102
RTVSPost2010Prop34
280
     0
102
RTVSPost2010PropOp34
 70
     0
102
RTVSPost2010Prop35
280
     0
102
RTVSPost2010PropOp35
 70
     0
102
RTVSPost2010Prop36
280
     0
102
RTVSPost2010PropOp36
 70
     0
102
RTVSPost2010Prop37
 90
       50
102
RTVSPost2010PropOp37
 70
     0
102
RTVSPost2010Prop38
140
0.0
102
RTVSPost2010PropOp38
 70
     0
102
RTVSPost2010Prop39
140
1.0
102
RTVSPost2010PropOp39
 70
     0
102
RTVSPost2010Prop40
 90
        0
102
RTVSPost2010PropOp40
 70
     0
102
RTVSPost2010Prop41ColorIndex
 90
       18
102
RTVSPost2010Prop41ColorRGB
 90
        0
102
RTVSPost2010PropOp41
 70
     0
102
RTVSPost2010Prop42
 90
       50
102
RTVSPost2010PropOp42
 70
     0
102
RTVSPost2010Prop43
 90
        3
102
RTVSPost2010PropOp43
 70
     0
102
RTVSPost2010Prop44ColorIndex
 90
        5
102
RTVSPost2010Prop44ColorRGB
 90
      255
102
RTVSPost2010PropOp44
 70
     0
102
RTVSPost2010Prop45
280
     0
102
RTVSPost2010PropOp45
 70
     0
102
RTVSPost2010Prop46
 90
       50
102
RTVSPost2010PropOp46
 70
     0
102
RTVSPost2010Prop47
 90
       50
102
RTVSPost2010PropOp47
 70
     0
102
RTVSPost2010Prop48
 90
       50
102
RTVSPost2010PropOp48
 70
     0
102
RTVSPost2010Prop49
280
     0
102
RTVSPost2010PropOp49
 70
     0
102
RTVSPost2010Prop50
 90
       50
102
RTVSPost2010PropOp50
 70
     0
102
RTVSPost2010Prop51ColorIndex
 90
      256
102
RTVSPost2010Prop51ColorRGB
 90
-16777216
102
RTVSPost2010PropOp51
 70
     0
102
RTVSPost2010Prop52
140
1.0
102
RTVSPost2010PropOp52
 70
     0
102
RTVSPost2010Prop53
 90
        2
102
RTVSPost2010PropOp53
 70
     0
102
RTVSPost2010Prop54
  1
strokes_ogs.tif
102
RTVSPost2010PropOp54
 70
     0
102
RTVSPost2010Prop55
280
     0
102
RTVSPost2010PropOp55
 70
     0
102
RTVSPost2010Prop56
140
1.0
102
RTVSPost2010PropOp56
 70
     0
102
RTVSPost2010Prop57
140
1.0
102
RTVSPost2010PropOp57
 70
     0
  0
XRECORD
  5
286
102
{ACAD_REACTORS
330
285
102
}
330
285
100
AcDbXrecord
280
     1
102
RTVSPropertyOp0
 70
     1
102
RTVSPropertyOp1
 70
     1
102
RTVSPropertyOp2
 70
     1
102
RTVSPropertyOp3
 70
     1
102
RTVSPropertyOp4
 70
     1
102
RTVSPropertyOp5
 70
     1
102
RTVSPropertyOp6
 70
     1
102
RTVSPropertyOp7
 70
     1
102
RTVSPropertyOp8
 70
     1
102
RTVSPropertyOp9
 70
     1
102
RTVSPropertyOp10
 70
     1
102
RTVSPropertyOp11
 70
     1
102
RTVSPropertyOp12
 70
     1
102
RTVSPropertyOp13
 70
     1
102
RTVSPropertyOp14
 70
     1
102
RTVSPropertyOp15
 70
     1
102
RTVSPropertyOp16
 70
     1
102
RTVSPropertyOp17
 70
     1
102
RTVSPropertyOp18
 70
     1
102
RTVSPropertyOp19
 70
     1
102
RTVSPropertyOp20
 70
     1
102
RTVSPropertyOp21
 70
     1
102
RTVSPropertyOp22
 70
     1
102
RTVSPropertyOp23
 70
     1
102
RTVSPropertyOp24
 70
     1
102
RTVSPropertyOp25
 70
     1
102
RTVSPropertyOp26
 70
     1
102
RTVSPropertyOp27
 70
     1
102
RTVSPropertyOp28
 70
     1
102
RTVSPropertyOp29
 70
     1
102
RTVSPropertyOp30
 70
     1
102
RTVSPropertyOp31
 70
     1
102
RTVSPropertyOp32
 70
     1
102
RTVSPropertyOp33
 70
     1
102
RTVSPropertyOp34
 70
     1
102
RTVSPropertyOp35
 70
     1
102
RTVSPropertyOp36
 70
     1
102
RTVSPropertyOp37
 70
     1
102
RTVSPropertyOp38
 70
     1
102
RTVSPropertyOp39
 70
     1
102
RTVSPropertyOp40
 70
     1
102
RTVSPropertyOp41
 70
     1
102
RTVSPropertyOp42
 70
     1
102
RTVSPropertyOp43
 70
     1
102
RTVSPropertyOp44
 70
     1
102
RTVSPropertyOp45
 70
     1
102
RTVSPropertyOp46
 70
     1
102
RTVSPropertyOp47
 70
     1
102
RTVSPropertyOp48
 70
     1
102
RTVSPropertyOp49
 70
     1
102
RTVSPropertyOp50
 70
     1
102
RTVSPropertyOp51
 70
     0
102
RTVSPropertyOp52
 70
     0
102
RTVSPropertyOp53
 70
     1
102
RTVSPropertyOp54
 70
     1
102
RTVSPropertyOp55
 70
     1
102
RTVSPropertyOp56
 70
     1
102
RTVSPropertyOp57
 70
     1
102
RTVSPost2010Prop28
280
     0
102
RTVSPost2010PropOp28
 70
     1
102
RTVSPost2010Prop29
280
     1
102
RTVSPost2010PropOp29
 70
     1
102
RTVSPost2010Prop30
280
     1
102
RTVSPost2010PropOp30
 70
     1
102
RTVSPost2010Prop31
280
     0
102
RTVSPost2010PropOp31
 70
     1
102
RTVSPost2010Prop32
280
     0
102
RTVSPost2010PropOp32
 70
     1
102
RTVSPost2010Prop33
280
     0
102
RTVSPost2010PropOp33
 70
     1
102
RTVSPost2010Prop34
280
     0
102
RTVSPost2010PropOp34
 70
     1
102
RTVSPost2010Prop35
280
     0
102
RTVSPost2010PropOp35
 70
     1
102
RTVSPost2010Prop36
280
     0
102
RTVSPost2010PropOp36
 70
     1
102
RTVSPost2010Prop37
 90
       50
102
RTVSPost2010PropOp37
 70
     1
102
RTVSPost2010Prop38
140
0.0
102
RTVSPost2010PropOp38
 70
     1
102
RTVSPost2010Prop39
140
1.0
102
RTVSPost2010PropOp39
 70
     1
102
RTVSPost2010Prop40
 90
        0
102
RTVSPost2010PropOp40
 70
     1
102
RTVSPost2010Prop41ColorIndex
 90
       18
102
RTVSPost2010Prop41ColorRGB
 90
        0
102
RTVSPost2010PropOp41
 70
     1
102
RTVSPost2010Prop42
 90
       50
102
RTVSPost2010PropOp42
 70
     1
102
RTVSPost2010Prop43
 90
        3
102
RTVSPost2010PropOp43
 70
     1
102
RTVSPost2010Prop44ColorIndex
 90
        5
102
RTVSPost2010Prop44ColorRGB
 90
      255
102
RTVSPost2010PropOp44
 70
     1
102
RTVSPost2010Prop45
280
     0
102
RTVSPost2010PropOp45
 70
     1
102
RTVSPost2010Prop46
 90
       50
102
RTVSPost2010PropOp46
 70
     1
102
RTVSPost2010Prop47
 90
       50
102
RTVSPost2010PropOp47
 70
     1
102
RTVSPost2010Prop48
 90
       50
102
RTVSPost2010PropOp48
 70
     1
102
RTVSPost2010Prop49
280
     0
102
RTVSPost2010PropOp49
 70
     1
102
RTVSPost2010Prop50
 90
       50
102
RTVSPost2010PropOp50
 70
     1
102
RTVSPost2010Prop51ColorIndex
 90
      256
102
RTVSPost2010Prop51ColorRGB
 90
-16777216
102
RTVSPost2010PropOp51
 70
     0
102
RTVSPost2010Prop52
140
1.0
102
RTVSPost2010PropOp52
 70
     0
102
RTVSPost2010Prop53
 90
        2
102
RTVSPost2010PropOp53
 70
     1
102
RTVSPost2010Prop54
  1
strokes_ogs.tif
102
RTVSPost2010PropOp54
 70
     1
102
RTVSPost2010Prop55
280
     0
102
RTVSPost2010PropOp55
 70
     1
102
RTVSPost2010Prop56
140
1.0
102
RTVSPost2010PropOp56
 70
     1
102
RTVSPost2010Prop57
140
1.0
102
RTVSPost2010PropOp57
 70
     1
  0
XRECORD
  5
26A
102
{ACAD_REACTORS
330
269
102
}
330
269
100
AcDbXrecord
280
     1
102
RTVSPropertyOp0
 70
     1
102
RTVSPropertyOp1
 70
     1
102
RTVSPropertyOp2
 70
     1
102
RTVSPropertyOp3
 70
     1
102
RTVSPropertyOp4
 70
     1
102
RTVSPropertyOp5
 70
     1
102
RTVSPropertyOp6
 70
     1
102
RTVSPropertyOp7
 70
     1
102
RTVSPropertyOp8
 70
     1
102
RTVSPropertyOp9
 70
     1
102
RTVSPropertyOp10
 70
     1
102
RTVSPropertyOp11
 70
     1
102
RTVSPropertyOp12
 70
     1
102
RTVSPropertyOp13
 70
     1
102
RTVSPropertyOp14
 70
     1
102
RTVSPropertyOp15
 70
     1
102
RTVSPropertyOp16
 70
     1
102
RTVSPropertyOp17
 70
     1
102
RTVSPropertyOp18
 70
     1
102
RTVSPropertyOp19
 70
     1
102
RTVSPropertyOp20
 70
     1
102
RTVSPropertyOp21
 70
     1
102
RTVSPropertyOp22
 70
     1
102
RTVSPropertyOp23
 70
     1
102
RTVSPropertyOp24
 70
     1
102
RTVSPropertyOp25
 70
     1
102
RTVSPropertyOp26
 70
     1
102
RTVSPropertyOp27
 70
     1
102
RTVSPropertyOp28
 70
     1
102
RTVSPropertyOp29
 70
     1
102
RTVSPropertyOp30
 70
     1
102
RTVSPropertyOp31
 70
     1
102
RTVSPropertyOp32
 70
     1
102
RTVSPropertyOp33
 70
     1
102
RTVSPropertyOp34
 70
     1
102
RTVSPropertyOp35
 70
     1
102
RTVSPropertyOp36
 70
     1
102
RTVSPropertyOp37
 70
     1
102
RTVSPropertyOp38
 70
     1
102
RTVSPropertyOp39
 70
     1
102
RTVSPropertyOp40
 70
     1
102
RTVSPropertyOp41
 70
     1
102
RTVSPropertyOp42
 70
     1
102
RTVSPropertyOp43
 70
     1
102
RTVSPropertyOp44
 70
     1
102
RTVSPropertyOp45
 70
     1
102
RTVSPropertyOp46
 70
     1
102
RTVSPropertyOp47
 70
     1
102
RTVSPropertyOp48
 70
     1
102
RTVSPropertyOp49
 70
     1
102
RTVSPropertyOp50
 70
     1
102
RTVSPropertyOp51
 70
     0
102
RTVSPropertyOp52
 70
     0
102
RTVSPropertyOp53
 70
     1
102
RTVSPropertyOp54
 70
     1
102
RTVSPropertyOp55
 70
     1
102
RTVSPropertyOp56
 70
     1
102
RTVSPropertyOp57
 70
     1
102
RTVSPost2010Prop28
280
     0
102
RTVSPost2010PropOp28
 70
     1
102
RTVSPost2010Prop29
280
     1
102
RTVSPost2010PropOp29
 70
     1
102
RTVSPost2010Prop30
280
     1
102
RTVSPost2010PropOp30
 70
     1
102
RTVSPost2010Prop31
280
     0
102
RTVSPost2010PropOp31
 70
     1
102
RTVSPost2010Prop32
280
     0
102
RTVSPost2010PropOp32
 70
     1
102
RTVSPost2010Prop33
280
     0
102
RTVSPost2010PropOp33
 70
     1
102
RTVSPost2010Prop34
280
     0
102
RTVSPost2010PropOp34
 70
     1
102
RTVSPost2010Prop35
280
     0
102
RTVSPost2010PropOp35
 70
     1
102
RTVSPost2010Prop36
280
     0
102
RTVSPost2010PropOp36
 70
     1
102
RTVSPost2010Prop37
 90
       50
102
RTVSPost2010PropOp37
 70
     1
102
RTVSPost2010Prop38
140
0.0
102
RTVSPost2010PropOp38
 70
     1
102
RTVSPost2010Prop39
140
1.0
102
RTVSPost2010PropOp39
 70
     1
102
RTVSPost2010Prop40
 90
        0
102
RTVSPost2010PropOp40
 70
     1
102
RTVSPost2010Prop41ColorIndex
 90
       18
102
RTVSPost2010Prop41ColorRGB
 90
        0
102
RTVSPost2010PropOp41
 70
     1
102
RTVSPost2010Prop42
 90
       50
102
RTVSPost2010PropOp42
 70
     1
102
RTVSPost2010Prop43
 90
        3
102
RTVSPost2010PropOp43
 70
     1
102
RTVSPost2010Prop44ColorIndex
 90
        5
102
RTVSPost2010Prop44ColorRGB
 90
      255
102
RTVSPost2010PropOp44
 70
     1
102
RTVSPost2010Prop45
280
     0
102
RTVSPost2010PropOp45
 70
     1
102
RTVSPost2010Prop46
 90
       50
102
RTVSPost2010PropOp46
 70
     1
102
RTVSPost2010Prop47
 90
       50
102
RTVSPost2010PropOp47
 70
     1
102
RTVSPost2010Prop48
 90
       50
102
RTVSPost2010PropOp48
 70
     1
102
RTVSPost2010Prop49
280
     0
102
RTVSPost2010PropOp49
 70
     1
102
RTVSPost2010Prop50
 90
       50
102
RTVSPost2010PropOp50
 70
     1
102
RTVSPost2010Prop51ColorIndex
 90
      256
102
RTVSPost2010Prop51ColorRGB
 90
-16777216
102
RTVSPost2010PropOp51
 70
     0
102
RTVSPost2010Prop52
140
1.0
102
RTVSPost2010PropOp52
 70
     0
102
RTVSPost2010Prop53
 90
        2
102
RTVSPost2010PropOp53
 70
     1
102
RTVSPost2010Prop54
  1
strokes_ogs.tif
102
RTVSPost2010PropOp54
 70
     1
102
RTVSPost2010Prop55
280
     0
102
RTVSPost2010PropOp55
 70
     1
102
RTVSPost2010Prop56
140
1.0
102
RTVSPost2010PropOp56
 70
     1
102
RTVSPost2010Prop57
140
1.0
102
RTVSPost2010PropOp57
 70
     1
  0
XRECORD
  5
26C
102
{ACAD_REACTORS
330
26B
102
}
330
26B
100
AcDbXrecord
280
     1
102
RTVSPropertyOp0
 70
     1
102
RTVSPropertyOp1
 70
     1
102
RTVSPropertyOp2
 70
     1
102
RTVSPropertyOp3
 70
     1
102
RTVSPropertyOp4
 70
     1
102
RTVSPropertyOp5
 70
     1
102
RTVSPropertyOp6
 70
     1
102
RTVSPropertyOp7
 70
     1
102
RTVSPropertyOp8
 70
     1
102
RTVSPropertyOp9
 70
     1
102
RTVSPropertyOp10
 70
     1
102
RTVSPropertyOp11
 70
     1
102
RTVSPropertyOp12
 70
     1
102
RTVSPropertyOp13
 70
     1
102
RTVSPropertyOp14
 70
     1
102
RTVSPropertyOp15
 70
     1
102
RTVSPropertyOp16
 70
     1
102
RTVSPropertyOp17
 70
     1
102
RTVSPropertyOp18
 70
     1
102
RTVSPropertyOp19
 70
     1
102
RTVSPropertyOp20
 70
     1
102
RTVSPropertyOp21
 70
     1
102
RTVSPropertyOp22
 70
     1
102
RTVSPropertyOp23
 70
     1
102
RTVSPropertyOp24
 70
     1
102
RTVSPropertyOp25
 70
     1
102
RTVSPropertyOp26
 70
     1
102
RTVSPropertyOp27
 70
     1
102
RTVSPropertyOp28
 70
     1
102
RTVSPropertyOp29
 70
     1
102
RTVSPropertyOp30
 70
     1
102
RTVSPropertyOp31
 70
     1
102
RTVSPropertyOp32
 70
     1
102
RTVSPropertyOp33
 70
     1
102
RTVSPropertyOp34
 70
     1
102
RTVSPropertyOp35
 70
     1
102
RTVSPropertyOp36
 70
     1
102
RTVSPropertyOp37
 70
     1
102
RTVSPropertyOp38
 70
     1
102
RTVSPropertyOp39
 70
     1
102
RTVSPropertyOp40
 70
     1
102
RTVSPropertyOp41
 70
     1
102
RTVSPropertyOp42
 70
     1
102
RTVSPropertyOp43
 70
     1
102
RTVSPropertyOp44
 70
     1
102
RTVSPropertyOp45
 70
     1
102
RTVSPropertyOp46
 70
     1
102
RTVSPropertyOp47
 70
     1
102
RTVSPropertyOp48
 70
     1
102
RTVSPropertyOp49
 70
     1
102
RTVSPropertyOp50
 70
     1
102
RTVSPropertyOp51
 70
     0
102
RTVSPropertyOp52
 70
     0
102
RTVSPropertyOp53
 70
     1
102
RTVSPropertyOp54
 70
     1
102
RTVSPropertyOp55
 70
     1
102
RTVSPropertyOp56
 70
     1
102
RTVSPropertyOp57
 70
     1
102
RTVSPost2010Prop28
280
     0
102
RTVSPost2010PropOp28
 70
     1
102
RTVSPost2010Prop29
280
     1
102
RTVSPost2010PropOp29
 70
     1
102
RTVSPost2010Prop30
280
     1
102
RTVSPost2010PropOp30
 70
     1
102
RTVSPost2010Prop31
280
     0
102
RTVSPost2010PropOp31
 70
     1
102
RTVSPost2010Prop32
280
     0
102
RTVSPost2010PropOp32
 70
     1
102
RTVSPost2010Prop33
280
     0
102
RTVSPost2010PropOp33
 70
     1
102
RTVSPost2010Prop34
280
     0
102
RTVSPost2010PropOp34
 70
     1
102
RTVSPost2010Prop35
280
     0
102
RTVSPost2010PropOp35
 70
     1
102
RTVSPost2010Prop36
280
     0
102
RTVSPost2010PropOp36
 70
     1
102
RTVSPost2010Prop37
 90
       50
102
RTVSPost2010PropOp37
 70
     1
102
RTVSPost2010Prop38
140
0.0
102
RTVSPost2010PropOp38
 70
     1
102
RTVSPost2010Prop39
140
1.0
102
RTVSPost2010PropOp39
 70
     1
102
RTVSPost2010Prop40
 90
        0
102
RTVSPost2010PropOp40
 70
     1
102
RTVSPost2010Prop41ColorIndex
 90
       18
102
RTVSPost2010Prop41ColorRGB
 90
        0
102
RTVSPost2010PropOp41
 70
     1
102
RTVSPost2010Prop42
 90
       50
102
RTVSPost2010PropOp42
 70
     1
102
RTVSPost2010Prop43
 90
        3
102
RTVSPost2010PropOp43
 70
     1
102
RTVSPost2010Prop44ColorIndex
 90
        5
102
RTVSPost2010Prop44ColorRGB
 90
      255
102
RTVSPost2010PropOp44
 70
     1
102
RTVSPost2010Prop45
280
     0
102
RTVSPost2010PropOp45
 70
     1
102
RTVSPost2010Prop46
 90
       50
102
RTVSPost2010PropOp46
 70
     1
102
RTVSPost2010Prop47
 90
       50
102
RTVSPost2010PropOp47
 70
     1
102
RTVSPost2010Prop48
 90
       50
102
RTVSPost2010PropOp48
 70
     1
102
RTVSPost2010Prop49
280
     0
102
RTVSPost2010PropOp49
 70
     1
102
RTVSPost2010Prop50
 90
       50
102
RTVSPost2010PropOp50
 70
     1
102
RTVSPost2010Prop51ColorIndex
 90
      256
102
RTVSPost2010Prop51ColorRGB
 90
-16777216
102
RTVSPost2010PropOp51
 70
     0
102
RTVSPost2010Prop52
140
1.0
102
RTVSPost2010PropOp52
 70
     0
102
RTVSPost2010Prop53
 90
        2
102
RTVSPost2010PropOp53
 70
     1
102
RTVSPost2010Prop54
  1
strokes_ogs.tif
102
RTVSPost2010PropOp54
 70
     1
102
RTVSPost2010Prop55
280
     0
102
RTVSPost2010PropOp55
 70
     1
102
RTVSPost2010Prop56
140
1.0
102
RTVSPost2010PropOp56
 70
     1
102
RTVSPost2010Prop57
140
1.0
102
RTVSPost2010PropOp57
 70
     1
  0
XRECORD
  5
26E
102
{ACAD_REACTORS
330
26D
102
}
330
26D
100
AcDbXrecord
280
     1
102
RTVSPropertyOp0
 70
     1
102
RTVSPropertyOp1
 70
     1
102
RTVSPropertyOp2
 70
     1
102
RTVSPropertyOp3
 70
     1
102
RTVSPropertyOp4
 70
     1
102
RTVSPropertyOp5
 70
     1
102
RTVSPropertyOp6
 70
     1
102
RTVSPropertyOp7
 70
     1
102
RTVSPropertyOp8
 70
     1
102
RTVSPropertyOp9
 70
     1
102
RTVSPropertyOp10
 70
     1
102
RTVSPropertyOp11
 70
     1
102
RTVSPropertyOp12
 70
     1
102
RTVSPropertyOp13
 70
     1
102
RTVSPropertyOp14
 70
     1
102
RTVSPropertyOp15
 70
     1
102
RTVSPropertyOp16
 70
     1
102
RTVSPropertyOp17
 70
     1
102
RTVSPropertyOp18
 70
     1
102
RTVSPropertyOp19
 70
     1
102
RTVSPropertyOp20
 70
     1
102
RTVSPropertyOp21
 70
     1
102
RTVSPropertyOp22
 70
     1
102
RTVSPropertyOp23
 70
     1
102
RTVSPropertyOp24
 70
     1
102
RTVSPropertyOp25
 70
     1
102
RTVSPropertyOp26
 70
     1
102
RTVSPropertyOp27
 70
     1
102
RTVSPropertyOp28
 70
     1
102
RTVSPropertyOp29
 70
     1
102
RTVSPropertyOp30
 70
     1
102
RTVSPropertyOp31
 70
     1
102
RTVSPropertyOp32
 70
     1
102
RTVSPropertyOp33
 70
     1
102
RTVSPropertyOp34
 70
     1
102
RTVSPropertyOp35
 70
     1
102
RTVSPropertyOp36
 70
     1
102
RTVSPropertyOp37
 70
     1
102
RTVSPropertyOp38
 70
     1
102
RTVSPropertyOp39
 70
     1
102
RTVSPropertyOp40
 70
     1
102
RTVSPropertyOp41
 70
     1
102
RTVSPropertyOp42
 70
     1
102
RTVSPropertyOp43
 70
     1
102
RTVSPropertyOp44
 70
     1
102
RTVSPropertyOp45
 70
     1
102
RTVSPropertyOp46
 70
     1
102
RTVSPropertyOp47
 70
     1
102
RTVSPropertyOp48
 70
     1
102
RTVSPropertyOp49
 70
     1
102
RTVSPropertyOp50
 70
     1
102
RTVSPropertyOp51
 70
     0
102
RTVSPropertyOp52
 70
     0
102
RTVSPropertyOp53
 70
     1
102
RTVSPropertyOp54
 70
     1
102
RTVSPropertyOp55
 70
     1
102
RTVSPropertyOp56
 70
     1
102
RTVSPropertyOp57
 70
     1
102
RTVSPost2010Prop28
280
     0
102
RTVSPost2010PropOp28
 70
     1
102
RTVSPost2010Prop29
280
     1
102
RTVSPost2010PropOp29
 70
     1
102
RTVSPost2010Prop30
280
     1
102
RTVSPost2010PropOp30
 70
     1
102
RTVSPost2010Prop31
280
     0
102
RTVSPost2010PropOp31
 70
     1
102
RTVSPost2010Prop32
280
     0
102
RTVSPost2010PropOp32
 70
     1
102
RTVSPost2010Prop33
280
     0
102
RTVSPost2010PropOp33
 70
     1
102
RTVSPost2010Prop34
280
     0
102
RTVSPost2010PropOp34
 70
     1
102
RTVSPost2010Prop35
280
     0
102
RTVSPost2010PropOp35
 70
     1
102
RTVSPost2010Prop36
280
     0
102
RTVSPost2010PropOp36
 70
     1
102
RTVSPost2010Prop37
 90
       50
102
RTVSPost2010PropOp37
 70
     1
102
RTVSPost2010Prop38
140
0.0
102
RTVSPost2010PropOp38
 70
     1
102
RTVSPost2010Prop39
140
1.0
102
RTVSPost2010PropOp39
 70
     1
102
RTVSPost2010Prop40
 90
        0
102
RTVSPost2010PropOp40
 70
     1
102
RTVSPost2010Prop41ColorIndex
 90
       18
102
RTVSPost2010Prop41ColorRGB
 90
        0
102
RTVSPost2010PropOp41
 70
     1
102
RTVSPost2010Prop42
 90
       50
102
RTVSPost2010PropOp42
 70
     1
102
RTVSPost2010Prop43
 90
        3
102
RTVSPost2010PropOp43
 70
     1
102
RTVSPost2010Prop44ColorIndex
 90
        5
102
RTVSPost2010Prop44ColorRGB
 90
      255
102
RTVSPost2010PropOp44
 70
     1
102
RTVSPost2010Prop45
280
     0
102
RTVSPost2010PropOp45
 70
     1
102
RTVSPost2010Prop46
 90
       50
102
RTVSPost2010PropOp46
 70
     1
102
RTVSPost2010Prop47
 90
       50
102
RTVSPost2010PropOp47
 70
     1
102
RTVSPost2010Prop48
 90
       50
102
RTVSPost2010PropOp48
 70
     1
102
RTVSPost2010Prop49
280
     0
102
RTVSPost2010PropOp49
 70
     1
102
RTVSPost2010Prop50
 90
       50
102
RTVSPost2010PropOp50
 70
     1
102
RTVSPost2010Prop51ColorIndex
 90
      256
102
RTVSPost2010Prop51ColorRGB
 90
-16777216
102
RTVSPost2010PropOp51
 70
     0
102
RTVSPost2010Prop52
140
1.0
102
RTVSPost2010PropOp52
 70
     0
102
RTVSPost2010Prop53
 90
        2
102
RTVSPost2010PropOp53
 70
     1
102
RTVSPost2010Prop54
  1
strokes_ogs.tif
102
RTVSPost2010PropOp54
 70
     1
102
RTVSPost2010Prop55
280
     0
102
RTVSPost2010PropOp55
 70
     1
102
RTVSPost2010Prop56
140
1.0
102
RTVSPost2010PropOp56
 70
     1
102
RTVSPost2010Prop57
140
1.0
102
RTVSPost2010PropOp57
 70
     1
  0
XRECORD
  5
270
102
{ACAD_REACTORS
330
26F
102
}
330
26F
100
AcDbXrecord
280
     1
102
RTVSPropertyOp0
 70
     1
102
RTVSPropertyOp1
 70
     1
102
RTVSPropertyOp2
 70
     1
102
RTVSPropertyOp3
 70
     1
102
RTVSPropertyOp4
 70
     1
102
RTVSPropertyOp5
 70
     1
102
RTVSPropertyOp6
 70
     1
102
RTVSPropertyOp7
 70
     1
102
RTVSPropertyOp8
 70
     1
102
RTVSPropertyOp9
 70
     1
102
RTVSPropertyOp10
 70
     1
102
RTVSPropertyOp11
 70
     1
102
RTVSPropertyOp12
 70
     1
102
RTVSPropertyOp13
 70
     1
102
RTVSPropertyOp14
 70
     1
102
RTVSPropertyOp15
 70
     1
102
RTVSPropertyOp16
 70
     1
102
RTVSPropertyOp17
 70
     1
102
RTVSPropertyOp18
 70
     1
102
RTVSPropertyOp19
 70
     1
102
RTVSPropertyOp20
 70
     1
102
RTVSPropertyOp21
 70
     1
102
RTVSPropertyOp22
 70
     1
102
RTVSPropertyOp23
 70
     1
102
RTVSPropertyOp24
 70
     1
102
RTVSPropertyOp25
 70
     1
102
RTVSPropertyOp26
 70
     1
102
RTVSPropertyOp27
 70
     1
102
RTVSPropertyOp28
 70
     1
102
RTVSPropertyOp29
 70
     1
102
RTVSPropertyOp30
 70
     1
102
RTVSPropertyOp31
 70
     1
102
RTVSPropertyOp32
 70
     1
102
RTVSPropertyOp33
 70
     1
102
RTVSPropertyOp34
 70
     1
102
RTVSPropertyOp35
 70
     1
102
RTVSPropertyOp36
 70
     1
102
RTVSPropertyOp37
 70
     1
102
RTVSPropertyOp38
 70
     1
102
RTVSPropertyOp39
 70
     1
102
RTVSPropertyOp40
 70
     1
102
RTVSPropertyOp41
 70
     1
102
RTVSPropertyOp42
 70
     1
102
RTVSPropertyOp43
 70
     1
102
RTVSPropertyOp44
 70
     1
102
RTVSPropertyOp45
 70
     1
102
RTVSPropertyOp46
 70
     1
102
RTVSPropertyOp47
 70
     1
102
RTVSPropertyOp48
 70
     1
102
RTVSPropertyOp49
 70
     1
102
RTVSPropertyOp50
 70
     1
102
RTVSPropertyOp51
 70
     0
102
RTVSPropertyOp52
 70
     0
102
RTVSPropertyOp53
 70
     1
102
RTVSPropertyOp54
 70
     1
102
RTVSPropertyOp55
 70
     1
102
RTVSPropertyOp56
 70
     1
102
RTVSPropertyOp57
 70
     1
102
RTVSPost2010Prop28
280
     0
102
RTVSPost2010PropOp28
 70
     1
102
RTVSPost2010Prop29
280
     1
102
RTVSPost2010PropOp29
 70
     1
102
RTVSPost2010Prop30
280
     1
102
RTVSPost2010PropOp30
 70
     1
102
RTVSPost2010Prop31
280
     0
102
RTVSPost2010PropOp31
 70
     1
102
RTVSPost2010Prop32
280
     0
102
RTVSPost2010PropOp32
 70
     1
102
RTVSPost2010Prop33
280
     0
102
RTVSPost2010PropOp33
 70
     1
102
RTVSPost2010Prop34
280
     0
102
RTVSPost2010PropOp34
 70
     1
102
RTVSPost2010Prop35
280
     0
102
RTVSPost2010PropOp35
 70
     1
102
RTVSPost2010Prop36
280
     0
102
RTVSPost2010PropOp36
 70
     1
102
RTVSPost2010Prop37
 90
       50
102
RTVSPost2010PropOp37
 70
     1
102
RTVSPost2010Prop38
140
0.0
102
RTVSPost2010PropOp38
 70
     1
102
RTVSPost2010Prop39
140
1.0
102
RTVSPost2010PropOp39
 70
     1
102
RTVSPost2010Prop40
 90
        0
102
RTVSPost2010PropOp40
 70
     1
102
RTVSPost2010Prop41ColorIndex
 90
       18
102
RTVSPost2010Prop41ColorRGB
 90
        0
102
RTVSPost2010PropOp41
 70
     1
102
RTVSPost2010Prop42
 90
       50
102
RTVSPost2010PropOp42
 70
     1
102
RTVSPost2010Prop43
 90
        3
102
RTVSPost2010PropOp43
 70
     1
102
RTVSPost2010Prop44ColorIndex
 90
        5
102
RTVSPost2010Prop44ColorRGB
 90
      255
102
RTVSPost2010PropOp44
 70
     1
102
RTVSPost2010Prop45
280
     0
102
RTVSPost2010PropOp45
 70
     1
102
RTVSPost2010Prop46
 90
       50
102
RTVSPost2010PropOp46
 70
     1
102
RTVSPost2010Prop47
 90
       50
102
RTVSPost2010PropOp47
 70
     1
102
RTVSPost2010Prop48
 90
       50
102
RTVSPost2010PropOp48
 70
     1
102
RTVSPost2010Prop49
280
     0
102
RTVSPost2010PropOp49
 70
     1
102
RTVSPost2010Prop50
 90
       50
102
RTVSPost2010PropOp50
 70
     1
102
RTVSPost2010Prop51ColorIndex
 90
      256
102
RTVSPost2010Prop51ColorRGB
 90
-16777216
102
RTVSPost2010PropOp51
 70
     0
102
RTVSPost2010Prop52
140
1.0
102
RTVSPost2010PropOp52
 70
     0
102
RTVSPost2010Prop53
 90
        2
102
RTVSPost2010PropOp53
 70
     1
102
RTVSPost2010Prop54
  1
strokes_ogs.tif
102
RTVSPost2010PropOp54
 70
     1
102
RTVSPost2010Prop55
280
     0
102
RTVSPost2010PropOp55
 70
     1
102
RTVSPost2010Prop56
140
1.0
102
RTVSPost2010PropOp56
 70
     1
102
RTVSPost2010Prop57
140
1.0
102
RTVSPost2010PropOp57
 70
     1
  0
XRECORD
  5
276
102
{ACAD_REACTORS
330
275
102
}
330
275
100
AcDbXrecord
280
     1
102
RTVSPropertyOp0
 70
     1
102
RTVSPropertyOp1
 70
     1
102
RTVSPropertyOp2
 70
     1
102
RTVSPropertyOp3
 70
     1
102
RTVSPropertyOp4
 70
     1
102
RTVSPropertyOp5
 70
     1
102
RTVSPropertyOp6
 70
     1
102
RTVSPropertyOp7
 70
     1
102
RTVSPropertyOp8
 70
     1
102
RTVSPropertyOp9
 70
     1
102
RTVSPropertyOp10
 70
     1
102
RTVSPropertyOp11
 70
     1
102
RTVSPropertyOp12
 70
     1
102
RTVSPropertyOp13
 70
     1
102
RTVSPropertyOp14
 70
     1
102
RTVSPropertyOp15
 70
     1
102
RTVSPropertyOp16
 70
     1
102
RTVSPropertyOp17
 70
     1
102
RTVSPropertyOp18
 70
     1
102
RTVSPropertyOp19
 70
     1
102
RTVSPropertyOp20
 70
     1
102
RTVSPropertyOp21
 70
     1
102
RTVSPropertyOp22
 70
     1
102
RTVSPropertyOp23
 70
     1
102
RTVSPropertyOp24
 70
     1
102
RTVSPropertyOp25
 70
     1
102
RTVSPropertyOp26
 70
     1
102
RTVSPropertyOp27
 70
     1
102
RTVSPropertyOp28
 70
     1
102
RTVSPropertyOp29
 70
     1
102
RTVSPropertyOp30
 70
     1
102
RTVSPropertyOp31
 70
     1
102
RTVSPropertyOp32
 70
     1
102
RTVSPropertyOp33
 70
     1
102
RTVSPropertyOp34
 70
     1
102
RTVSPropertyOp35
 70
     1
102
RTVSPropertyOp36
 70
     1
102
RTVSPropertyOp37
 70
     1
102
RTVSPropertyOp38
 70
     1
102
RTVSPropertyOp39
 70
     1
102
RTVSPropertyOp40
 70
     1
102
RTVSPropertyOp41
 70
     1
102
RTVSPropertyOp42
 70
     1
102
RTVSPropertyOp43
 70
     1
102
RTVSPropertyOp44
 70
     1
102
RTVSPropertyOp45
 70
     1
102
RTVSPropertyOp46
 70
     1
102
RTVSPropertyOp47
 70
     1
102
RTVSPropertyOp48
 70
     1
102
RTVSPropertyOp49
 70
     1
102
RTVSPropertyOp50
 70
     1
102
RTVSPropertyOp51
 70
     0
102
RTVSPropertyOp52
 70
     0
102
RTVSPropertyOp53
 70
     1
102
RTVSPropertyOp54
 70
     1
102
RTVSPropertyOp55
 70
     1
102
RTVSPropertyOp56
 70
     1
102
RTVSPropertyOp57
 70
     1
102
RTVSPost2010Prop28
280
     0
102
RTVSPost2010PropOp28
 70
     1
102
RTVSPost2010Prop29
280
     1
102
RTVSPost2010PropOp29
 70
     1
102
RTVSPost2010Prop30
280
     1
102
RTVSPost2010PropOp30
 70
     1
102
RTVSPost2010Prop31
280
     0
102
RTVSPost2010PropOp31
 70
     1
102
RTVSPost2010Prop32
280
     0
102
RTVSPost2010PropOp32
 70
     1
102
RTVSPost2010Prop33
280
     0
102
RTVSPost2010PropOp33
 70
     1
102
RTVSPost2010Prop34
280
     0
102
RTVSPost2010PropOp34
 70
     1
102
RTVSPost2010Prop35
280
     0
102
RTVSPost2010PropOp35
 70
     1
102
RTVSPost2010Prop36
280
     0
102
RTVSPost2010PropOp36
 70
     1
102
RTVSPost2010Prop37
 90
       50
102
RTVSPost2010PropOp37
 70
     1
102
RTVSPost2010Prop38
140
0.0
102
RTVSPost2010PropOp38
 70
     1
102
RTVSPost2010Prop39
140
1.0
102
RTVSPost2010PropOp39
 70
     1
102
RTVSPost2010Prop40
 90
        0
102
RTVSPost2010PropOp40
 70
     1
102
RTVSPost2010Prop41ColorIndex
 90
       18
102
RTVSPost2010Prop41ColorRGB
 90
        0
102
RTVSPost2010PropOp41
 70
     1
102
RTVSPost2010Prop42
 90
       50
102
RTVSPost2010PropOp42
 70
     1
102
RTVSPost2010Prop43
 90
        3
102
RTVSPost2010PropOp43
 70
     1
102
RTVSPost2010Prop44ColorIndex
 90
        5
102
RTVSPost2010Prop44ColorRGB
 90
      255
102
RTVSPost2010PropOp44
 70
     1
102
RTVSPost2010Prop45
280
     0
102
RTVSPost2010PropOp45
 70
     1
102
RTVSPost2010Prop46
 90
       50
102
RTVSPost2010PropOp46
 70
     1
102
RTVSPost2010Prop47
 90
       50
102
RTVSPost2010PropOp47
 70
     1
102
RTVSPost2010Prop48
 90
       50
102
RTVSPost2010PropOp48
 70
     1
102
RTVSPost2010Prop49
280
     0
102
RTVSPost2010PropOp49
 70
     1
102
RTVSPost2010Prop50
 90
       50
102
RTVSPost2010PropOp50
 70
     1
102
RTVSPost2010Prop51ColorIndex
 90
      256
102
RTVSPost2010Prop51ColorRGB
 90
-16777216
102
RTVSPost2010PropOp51
 70
     0
102
RTVSPost2010Prop52
140
1.0
102
RTVSPost2010PropOp52
 70
     0
102
RTVSPost2010Prop53
 90
        2
102
RTVSPost2010PropOp53
 70
     1
102
RTVSPost2010Prop54
  1
strokes_ogs.tif
102
RTVSPost2010PropOp54
 70
     1
102
RTVSPost2010Prop55
280
     0
102
RTVSPost2010PropOp55
 70
     1
102
RTVSPost2010Prop56
140
1.0
102
RTVSPost2010PropOp56
 70
     1
102
RTVSPost2010Prop57
140
1.0
102
RTVSPost2010PropOp57
 70
     1
  0
XRECORD
  5
28A
102
{ACAD_REACTORS
330
289
102
}
330
289
100
AcDbXrecord
280
     1
102
RTVSPropertyOp0
 70
     0
102
RTVSPropertyOp1
 70
     0
102
RTVSPropertyOp2
 70
     0
102
RTVSPropertyOp3
 70
     0
102
RTVSPropertyOp4
 70
     0
102
RTVSPropertyOp5
 70
     0
102
RTVSPropertyOp6
 70
     0
102
RTVSPropertyOp7
 70
     0
102
RTVSPropertyOp8
 70
     0
102
RTVSPropertyOp9
 70
     0
102
RTVSPropertyOp10
 70
     0
102
RTVSPropertyOp11
 70
     0
102
RTVSPropertyOp12
 70
     0
102
RTVSPropertyOp13
 70
     0
102
RTVSPropertyOp14
 70
     2
102
RTVSPropertyOp15
 70
     0
102
RTVSPropertyOp16
 70
     0
102
RTVSPropertyOp17
 70
     0
102
RTVSPropertyOp18
 70
     0
102
RTVSPropertyOp19
 70
     0
102
RTVSPropertyOp20
 70
     0
102
RTVSPropertyOp21
 70
     0
102
RTVSPropertyOp22
 70
     0
102
RTVSPropertyOp23
 70
     0
102
RTVSPropertyOp24
 70
     0
102
RTVSPropertyOp25
 70
     0
102
RTVSPropertyOp26
 70
     0
102
RTVSPropertyOp27
 70
     0
102
RTVSPropertyOp28
 70
     0
102
RTVSPropertyOp29
 70
     0
102
RTVSPropertyOp30
 70
     0
102
RTVSPropertyOp31
 70
     0
102
RTVSPropertyOp32
 70
     0
102
RTVSPropertyOp33
 70
     0
102
RTVSPropertyOp34
 70
     0
102
RTVSPropertyOp35
 70
     0
102
RTVSPropertyOp36
 70
     0
102
RTVSPropertyOp37
 70
     0
102
RTVSPropertyOp38
 70
     0
102
RTVSPropertyOp39
 70
     0
102
RTVSPropertyOp40
 70
     0
102
RTVSPropertyOp41
 70
     0
102
RTVSPropertyOp42
 70
     0
102
RTVSPropertyOp43
 70
     0
102
RTVSPropertyOp44
 70
     0
102
RTVSPropertyOp45
 70
     0
102
RTVSPropertyOp46
 70
     0
102
RTVSPropertyOp47
 70
     0
102
RTVSPropertyOp48
 70
     0
102
RTVSPropertyOp49
 70
     0
102
RTVSPropertyOp50
 70
     0
102
RTVSPropertyOp51
 70
     0
102
RTVSPropertyOp52
 70
     0
102
RTVSPropertyOp53
 70
     0
102
RTVSPropertyOp54
 70
     0
102
RTVSPropertyOp55
 70
     0
102
RTVSPropertyOp56
 70
     0
102
RTVSPropertyOp57
 70
     0
102
RTVSPost2010Prop28
280
     0
102
RTVSPost2010PropOp28
 70
     0
102
RTVSPost2010Prop29
280
     1
102
RTVSPost2010PropOp29
 70
     0
102
RTVSPost2010Prop30
280
     1
102
RTVSPost2010PropOp30
 70
     0
102
RTVSPost2010Prop31
280
     0
102
RTVSPost2010PropOp31
 70
     0
102
RTVSPost2010Prop32
280
     0
102
RTVSPost2010PropOp32
 70
     0
102
RTVSPost2010Prop33
280
     0
102
RTVSPost2010PropOp33
 70
     0
102
RTVSPost2010Prop34
280
     0
102
RTVSPost2010PropOp34
 70
     0
102
RTVSPost2010Prop35
280
     0
102
RTVSPost2010PropOp35
 70
     0
102
RTVSPost2010Prop36
280
     0
102
RTVSPost2010PropOp36
 70
     0
102
RTVSPost2010Prop37
 90
       50
102
RTVSPost2010PropOp37
 70
     0
102
RTVSPost2010Prop38
140
0.0
102
RTVSPost2010PropOp38
 70
     0
102
RTVSPost2010Prop39
140
1.0
102
RTVSPost2010PropOp39
 70
     0
102
RTVSPost2010Prop40
 90
        0
102
RTVSPost2010PropOp40
 70
     0
102
RTVSPost2010Prop41ColorIndex
 90
       18
102
RTVSPost2010Prop41ColorRGB
 90
        0
102
RTVSPost2010PropOp41
 70
     0
102
RTVSPost2010Prop42
 90
       50
102
RTVSPost2010PropOp42
 70
     0
102
RTVSPost2010Prop43
 90
        3
102
RTVSPost2010PropOp43
 70
     0
102
RTVSPost2010Prop44ColorIndex
 90
        5
102
RTVSPost2010Prop44ColorRGB
 90
      255
102
RTVSPost2010PropOp44
 70
     0
102
RTVSPost2010Prop45
280
     0
102
RTVSPost2010PropOp45
 70
     0
102
RTVSPost2010Prop46
 90
       50
102
RTVSPost2010PropOp46
 70
     0
102
RTVSPost2010Prop47
 90
       50
102
RTVSPost2010PropOp47
 70
     0
102
RTVSPost2010Prop48
 90
       50
102
RTVSPost2010PropOp48
 70
     0
102
RTVSPost2010Prop49
280
     0
102
RTVSPost2010PropOp49
 70
     0
102
RTVSPost2010Prop50
 90
       50
102
RTVSPost2010PropOp50
 70
     0
102
RTVSPost2010Prop51ColorIndex
 90
      256
102
RTVSPost2010Prop51ColorRGB
 90
-16777216
102
RTVSPost2010PropOp51
 70
     0
102
RTVSPost2010Prop52
140
1.0
102
RTVSPost2010PropOp52
 70
     0
102
RTVSPost2010Prop53
 90
        2
102
RTVSPost2010PropOp53
 70
     0
102
RTVSPost2010Prop54
  1
strokes_ogs.tif
102
RTVSPost2010PropOp54
 70
     0
102
RTVSPost2010Prop55
280
     0
102
RTVSPost2010PropOp55
 70
     0
102
RTVSPost2010Prop56
140
1.0
102
RTVSPost2010PropOp56
 70
     0
102
RTVSPost2010Prop57
140
1.0
102
RTVSPost2010PropOp57
 70
     0
  0
XRECORD
  5
284
102
{ACAD_REACTORS
330
283
102
}
330
283
100
AcDbXrecord
280
     1
102
RTVSPropertyOp0
 70
     1
102
RTVSPropertyOp1
 70
     1
102
RTVSPropertyOp2
 70
     1
102
RTVSPropertyOp3
 70
     1
102
RTVSPropertyOp4
 70
     1
102
RTVSPropertyOp5
 70
     1
102
RTVSPropertyOp6
 70
     1
102
RTVSPropertyOp7
 70
     1
102
RTVSPropertyOp8
 70
     1
102
RTVSPropertyOp9
 70
     1
102
RTVSPropertyOp10
 70
     1
102
RTVSPropertyOp11
 70
     1
102
RTVSPropertyOp12
 70
     1
102
RTVSPropertyOp13
 70
     1
102
RTVSPropertyOp14
 70
     1
102
RTVSPropertyOp15
 70
     1
102
RTVSPropertyOp16
 70
     1
102
RTVSPropertyOp17
 70
     1
102
RTVSPropertyOp18
 70
     1
102
RTVSPropertyOp19
 70
     1
102
RTVSPropertyOp20
 70
     1
102
RTVSPropertyOp21
 70
     1
102
RTVSPropertyOp22
 70
     1
102
RTVSPropertyOp23
 70
     1
102
RTVSPropertyOp24
 70
     1
102
RTVSPropertyOp25
 70
     1
102
RTVSPropertyOp26
 70
     1
102
RTVSPropertyOp27
 70
     1
102
RTVSPropertyOp28
 70
     1
102
RTVSPropertyOp29
 70
     1
102
RTVSPropertyOp30
 70
     1
102
RTVSPropertyOp31
 70
     1
102
RTVSPropertyOp32
 70
     1
102
RTVSPropertyOp33
 70
     1
102
RTVSPropertyOp34
 70
     1
102
RTVSPropertyOp35
 70
     1
102
RTVSPropertyOp36
 70
     1
102
RTVSPropertyOp37
 70
     1
102
RTVSPropertyOp38
 70
     1
102
RTVSPropertyOp39
 70
     1
102
RTVSPropertyOp40
 70
     1
102
RTVSPropertyOp41
 70
     1
102
RTVSPropertyOp42
 70
     1
102
RTVSPropertyOp43
 70
     1
102
RTVSPropertyOp44
 70
     1
102
RTVSPropertyOp45
 70
     1
102
RTVSPropertyOp46
 70
     1
102
RTVSPropertyOp47
 70
     1
102
RTVSPropertyOp48
 70
     1
102
RTVSPropertyOp49
 70
     1
102
RTVSPropertyOp50
 70
     1
102
RTVSPropertyOp51
 70
     0
102
RTVSPropertyOp52
 70
     0
102
RTVSPropertyOp53
 70
     1
102
RTVSPropertyOp54
 70
     1
102
RTVSPropertyOp55
 70
     1
102
RTVSPropertyOp56
 70
     1
102
RTVSPropertyOp57
 70
     1
102
RTVSPost2010Prop28
280
     0
102
RTVSPost2010PropOp28
 70
     1
102
RTVSPost2010Prop29
280
     1
102
RTVSPost2010PropOp29
 70
     1
102
RTVSPost2010Prop30
280
     1
102
RTVSPost2010PropOp30
 70
     1
102
RTVSPost2010Prop31
280
     0
102
RTVSPost2010PropOp31
 70
     1
102
RTVSPost2010Prop32
280
     0
102
RTVSPost2010PropOp32
 70
     1
102
RTVSPost2010Prop33
280
     0
102
RTVSPost2010PropOp33
 70
     1
102
RTVSPost2010Prop34
280
     0
102
RTVSPost2010PropOp34
 70
     1
102
RTVSPost2010Prop35
280
     0
102
RTVSPost2010PropOp35
 70
     1
102
RTVSPost2010Prop36
280
     0
102
RTVSPost2010PropOp36
 70
     1
102
RTVSPost2010Prop37
 90
       50
102
RTVSPost2010PropOp37
 70
     1
102
RTVSPost2010Prop38
140
0.0
102
RTVSPost2010PropOp38
 70
     1
102
RTVSPost2010Prop39
140
1.0
102
RTVSPost2010PropOp39
 70
     1
102
RTVSPost2010Prop40
 90
        0
102
RTVSPost2010PropOp40
 70
     1
102
RTVSPost2010Prop41ColorIndex
 90
       18
102
RTVSPost2010Prop41ColorRGB
 90
        0
102
RTVSPost2010PropOp41
 70
     1
102
RTVSPost2010Prop42
 90
       50
102
RTVSPost2010PropOp42
 70
     1
102
RTVSPost2010Prop43
 90
        3
102
RTVSPost2010PropOp43
 70
     1
102
RTVSPost2010Prop44ColorIndex
 90
        5
102
RTVSPost2010Prop44ColorRGB
 90
      255
102
RTVSPost2010PropOp44
 70
     1
102
RTVSPost2010Prop45
280
     0
102
RTVSPost2010PropOp45
 70
     1
102
RTVSPost2010Prop46
 90
       50
102
RTVSPost2010PropOp46
 70
     1
102
RTVSPost2010Prop47
 90
       50
102
RTVSPost2010PropOp47
 70
     1
102
RTVSPost2010Prop48
 90
       50
102
RTVSPost2010PropOp48
 70
     1
102
RTVSPost2010Prop49
280
     0
102
RTVSPost2010PropOp49
 70
     1
102
RTVSPost2010Prop50
 90
       50
102
RTVSPost2010PropOp50
 70
     1
102
RTVSPost2010Prop51ColorIndex
 90
      256
102
RTVSPost2010Prop51ColorRGB
 90
-16777216
102
RTVSPost2010PropOp51
 70
     0
102
RTVSPost2010Prop52
140
1.0
102
RTVSPost2010PropOp52
 70
     0
102
RTVSPost2010Prop53
 90
        2
102
RTVSPost2010PropOp53
 70
     1
102
RTVSPost2010Prop54
  1
strokes_ogs.tif
102
RTVSPost2010PropOp54
 70
     1
102
RTVSPost2010Prop55
280
     0
102
RTVSPost2010PropOp55
 70
     1
102
RTVSPost2010Prop56
140
1.0
102
RTVSPost2010PropOp56
 70
     1
102
RTVSPost2010Prop57
140
1.0
102
RTVSPost2010PropOp57
 70
     1
  0
XRECORD
  5
28C
102
{ACAD_REACTORS
330
28B
102
}
330
28B
100
AcDbXrecord
280
     1
102
RTVSPropertyOp0
 70
     0
102
RTVSPropertyOp1
 70
     0
102
RTVSPropertyOp2
 70
     0
102
RTVSPropertyOp3
 70
     0
102
RTVSPropertyOp4
 70
     0
102
RTVSPropertyOp5
 70
     0
102
RTVSPropertyOp6
 70
     0
102
RTVSPropertyOp7
 70
     0
102
RTVSPropertyOp8
 70
     0
102
RTVSPropertyOp9
 70
     0
102
RTVSPropertyOp10
 70
     0
102
RTVSPropertyOp11
 70
     0
102
RTVSPropertyOp12
 70
     0
102
RTVSPropertyOp13
 70
     0
102
RTVSPropertyOp14
 70
     2
102
RTVSPropertyOp15
 70
     0
102
RTVSPropertyOp16
 70
     0
102
RTVSPropertyOp17
 70
     0
102
RTVSPropertyOp18
 70
     0
102
RTVSPropertyOp19
 70
     0
102
RTVSPropertyOp20
 70
     0
102
RTVSPropertyOp21
 70
     0
102
RTVSPropertyOp22
 70
     0
102
RTVSPropertyOp23
 70
     0
102
RTVSPropertyOp24
 70
     0
102
RTVSPropertyOp25
 70
     0
102
RTVSPropertyOp26
 70
     0
102
RTVSPropertyOp27
 70
     0
102
RTVSPropertyOp28
 70
     0
102
RTVSPropertyOp29
 70
     0
102
RTVSPropertyOp30
 70
     0
102
RTVSPropertyOp31
 70
     0
102
RTVSPropertyOp32
 70
     0
102
RTVSPropertyOp33
 70
     0
102
RTVSPropertyOp34
 70
     0
102
RTVSPropertyOp35
 70
     0
102
RTVSPropertyOp36
 70
     0
102
RTVSPropertyOp37
 70
     0
102
RTVSPropertyOp38
 70
     0
102
RTVSPropertyOp39
 70
     0
102
RTVSPropertyOp40
 70
     0
102
RTVSPropertyOp41
 70
     0
102
RTVSPropertyOp42
 70
     0
102
RTVSPropertyOp43
 70
     0
102
RTVSPropertyOp44
 70
     0
102
RTVSPropertyOp45
 70
     0
102
RTVSPropertyOp46
 70
     0
102
RTVSPropertyOp47
 70
     0
102
RTVSPropertyOp48
 70
     0
102
RTVSPropertyOp49
 70
     0
102
RTVSPropertyOp50
 70
     0
102
RTVSPropertyOp51
 70
     0
102
RTVSPropertyOp52
 70
     0
102
RTVSPropertyOp53
 70
     0
102
RTVSPropertyOp54
 70
     0
102
RTVSPropertyOp55
 70
     0
102
RTVSPropertyOp56
 70
     0
102
RTVSPropertyOp57
 70
     0
102
RTVSPost2010Prop28
280
     0
102
RTVSPost2010PropOp28
 70
     0
102
RTVSPost2010Prop29
280
     1
102
RTVSPost2010PropOp29
 70
     0
102
RTVSPost2010Prop30
280
     1
102
RTVSPost2010PropOp30
 70
     0
102
RTVSPost2010Prop31
280
     0
102
RTVSPost2010PropOp31
 70
     0
102
RTVSPost2010Prop32
280
     0
102
RTVSPost2010PropOp32
 70
     0
102
RTVSPost2010Prop33
280
     0
102
RTVSPost2010PropOp33
 70
     0
102
RTVSPost2010Prop34
280
     0
102
RTVSPost2010PropOp34
 70
     0
102
RTVSPost2010Prop35
280
     0
102
RTVSPost2010PropOp35
 70
     0
102
RTVSPost2010Prop36
280
     0
102
RTVSPost2010PropOp36
 70
     0
102
RTVSPost2010Prop37
 90
       50
102
RTVSPost2010PropOp37
 70
     0
102
RTVSPost2010Prop38
140
0.0
102
RTVSPost2010PropOp38
 70
     0
102
RTVSPost2010Prop39
140
1.0
102
RTVSPost2010PropOp39
 70
     0
102
RTVSPost2010Prop40
 90
        0
102
RTVSPost2010PropOp40
 70
     0
102
RTVSPost2010Prop41ColorIndex
 90
       18
102
RTVSPost2010Prop41ColorRGB
 90
        0
102
RTVSPost2010PropOp41
 70
     0
102
RTVSPost2010Prop42
 90
       50
102
RTVSPost2010PropOp42
 70
     0
102
RTVSPost2010Prop43
 90
        3
102
RTVSPost2010PropOp43
 70
     0
102
RTVSPost2010Prop44ColorIndex
 90
        5
102
RTVSPost2010Prop44ColorRGB
 90
      255
102
RTVSPost2010PropOp44
 70
     0
102
RTVSPost2010Prop45
280
     0
102
RTVSPost2010PropOp45
 70
     0
102
RTVSPost2010Prop46
 90
       50
102
RTVSPost2010PropOp46
 70
     0
102
RTVSPost2010Prop47
 90
       50
102
RTVSPost2010PropOp47
 70
     0
102
RTVSPost2010Prop48
 90
       50
102
RTVSPost2010PropOp48
 70
     0
102
RTVSPost2010Prop49
280
     0
102
RTVSPost2010PropOp49
 70
     0
102
RTVSPost2010Prop50
 90
       50
102
RTVSPost2010PropOp50
 70
     0
102
RTVSPost2010Prop51ColorIndex
 90
      256
102
RTVSPost2010Prop51ColorRGB
 90
-16777216
102
RTVSPost2010PropOp51
 70
     0
102
RTVSPost2010Prop52
140
1.0
102
RTVSPost2010PropOp52
 70
     0
102
RTVSPost2010Prop53
 90
        2
102
RTVSPost2010PropOp53
 70
     0
102
RTVSPost2010Prop54
  1
strokes_ogs.tif
102
RTVSPost2010PropOp54
 70
     0
102
RTVSPost2010Prop55
280
     0
102
RTVSPost2010PropOp55
 70
     0
102
RTVSPost2010Prop56
140
1.0
102
RTVSPost2010PropOp56
 70
     0
102
RTVSPost2010Prop57
140
1.0
102
RTVSPost2010PropOp57
 70
     0
  0
XRECORD
  5
27A
102
{ACAD_REACTORS
330
279
102
}
330
279
100
AcDbXrecord
280
     1
102
RTVSPropertyOp0
 70
     1
102
RTVSPropertyOp1
 70
     1
102
RTVSPropertyOp2
 70
     1
102
RTVSPropertyOp3
 70
     1
102
RTVSPropertyOp4
 70
     1
102
RTVSPropertyOp5
 70
     1
102
RTVSPropertyOp6
 70
     1
102
RTVSPropertyOp7
 70
     1
102
RTVSPropertyOp8
 70
     1
102
RTVSPropertyOp9
 70
     1
102
RTVSPropertyOp10
 70
     1
102
RTVSPropertyOp11
 70
     1
102
RTVSPropertyOp12
 70
     1
102
RTVSPropertyOp13
 70
     1
102
RTVSPropertyOp14
 70
     1
102
RTVSPropertyOp15
 70
     1
102
RTVSPropertyOp16
 70
     1
102
RTVSPropertyOp17
 70
     1
102
RTVSPropertyOp18
 70
     1
102
RTVSPropertyOp19
 70
     1
102
RTVSPropertyOp20
 70
     1
102
RTVSPropertyOp21
 70
     1
102
RTVSPropertyOp22
 70
     1
102
RTVSPropertyOp23
 70
     1
102
RTVSPropertyOp24
 70
     1
102
RTVSPropertyOp25
 70
     1
102
RTVSPropertyOp26
 70
     1
102
RTVSPropertyOp27
 70
     1
102
RTVSPropertyOp28
 70
     1
102
RTVSPropertyOp29
 70
     1
102
RTVSPropertyOp30
 70
     1
102
RTVSPropertyOp31
 70
     1
102
RTVSPropertyOp32
 70
     1
102
RTVSPropertyOp33
 70
     1
102
RTVSPropertyOp34
 70
     1
102
RTVSPropertyOp35
 70
     1
102
RTVSPropertyOp36
 70
     1
102
RTVSPropertyOp37
 70
     1
102
RTVSPropertyOp38
 70
     1
102
RTVSPropertyOp39
 70
     1
102
RTVSPropertyOp40
 70
     1
102
RTVSPropertyOp41
 70
     1
102
RTVSPropertyOp42
 70
     1
102
RTVSPropertyOp43
 70
     1
102
RTVSPropertyOp44
 70
     1
102
RTVSPropertyOp45
 70
     1
102
RTVSPropertyOp46
 70
     1
102
RTVSPropertyOp47
 70
     1
102
RTVSPropertyOp48
 70
     1
102
RTVSPropertyOp49
 70
     1
102
RTVSPropertyOp50
 70
     1
102
RTVSPropertyOp51
 70
     0
102
RTVSPropertyOp52
 70
     0
102
RTVSPropertyOp53
 70
     1
102
RTVSPropertyOp54
 70
     1
102
RTVSPropertyOp55
 70
     1
102
RTVSPropertyOp56
 70
     1
102
RTVSPropertyOp57
 70
     1
102
RTVSPost2010Prop28
280
     0
102
RTVSPost2010PropOp28
 70
     1
102
RTVSPost2010Prop29
280
     1
102
RTVSPost2010PropOp29
 70
     1
102
RTVSPost2010Prop30
280
     1
102
RTVSPost2010PropOp30
 70
     1
102
RTVSPost2010Prop31
280
     0
102
RTVSPost2010PropOp31
 70
     1
102
RTVSPost2010Prop32
280
     0
102
RTVSPost2010PropOp32
 70
     1
102
RTVSPost2010Prop33
280
     0
102
RTVSPost2010PropOp33
 70
     1
102
RTVSPost2010Prop34
280
     0
102
RTVSPost2010PropOp34
 70
     1
102
RTVSPost2010Prop35
280
     0
102
RTVSPost2010PropOp35
 70
     1
102
RTVSPost2010Prop36
280
     0
102
RTVSPost2010PropOp36
 70
     1
102
RTVSPost2010Prop37
 90
       50
102
RTVSPost2010PropOp37
 70
     1
102
RTVSPost2010Prop38
140
0.0
102
RTVSPost2010PropOp38
 70
     1
102
RTVSPost2010Prop39
140
1.0
102
RTVSPost2010PropOp39
 70
     1
102
RTVSPost2010Prop40
 90
        0
102
RTVSPost2010PropOp40
 70
     1
102
RTVSPost2010Prop41ColorIndex
 90
       18
102
RTVSPost2010Prop41ColorRGB
 90
        0
102
RTVSPost2010PropOp41
 70
     1
102
RTVSPost2010Prop42
 90
       50
102
RTVSPost2010PropOp42
 70
     1
102
RTVSPost2010Prop43
 90
        3
102
RTVSPost2010PropOp43
 70
     1
102
RTVSPost2010Prop44ColorIndex
 90
        5
102
RTVSPost2010Prop44ColorRGB
 90
      255
102
RTVSPost2010PropOp44
 70
     1
102
RTVSPost2010Prop45
280
     0
102
RTVSPost2010PropOp45
 70
     1
102
RTVSPost2010Prop46
 90
       50
102
RTVSPost2010PropOp46
 70
     1
102
RTVSPost2010Prop47
 90
       50
102
RTVSPost2010PropOp47
 70
     1
102
RTVSPost2010Prop48
 90
       50
102
RTVSPost2010PropOp48
 70
     1
102
RTVSPost2010Prop49
280
     0
102
RTVSPost2010PropOp49
 70
     1
102
RTVSPost2010Prop50
 90
       50
102
RTVSPost2010PropOp50
 70
     1
102
RTVSPost2010Prop51ColorIndex
 90
      256
102
RTVSPost2010Prop51ColorRGB
 90
-16777216
102
RTVSPost2010PropOp51
 70
     0
102
RTVSPost2010Prop52
140
1.0
102
RTVSPost2010PropOp52
 70
     0
102
RTVSPost2010Prop53
 90
        2
102
RTVSPost2010PropOp53
 70
     1
102
RTVSPost2010Prop54
  1
strokes_ogs.tif
102
RTVSPost2010PropOp54
 70
     1
102
RTVSPost2010Prop55
280
     0
102
RTVSPost2010PropOp55
 70
     1
102
RTVSPost2010Prop56
140
1.0
102
RTVSPost2010PropOp56
 70
     1
102
RTVSPost2010Prop57
140
1.0
102
RTVSPost2010PropOp57
 70
     1
  0
XRECORD
  5
298
102
{ACAD_REACTORS
330
297
102
}
330
297
100
AcDbXrecord
280
     1
102
RTVSPropertyOp0
 70
     1
102
RTVSPropertyOp1
 70
     1
102
RTVSPropertyOp2
 70
     1
102
RTVSPropertyOp3
 70
     1
102
RTVSPropertyOp4
 70
     1
102
RTVSPropertyOp5
 70
     1
102
RTVSPropertyOp6
 70
     1
102
RTVSPropertyOp7
 70
     1
102
RTVSPropertyOp8
 70
     1
102
RTVSPropertyOp9
 70
     1
102
RTVSPropertyOp10
 70
     1
102
RTVSPropertyOp11
 70
     1
102
RTVSPropertyOp12
 70
     1
102
RTVSPropertyOp13
 70
     1
102
RTVSPropertyOp14
 70
     1
102
RTVSPropertyOp15
 70
     1
102
RTVSPropertyOp16
 70
     1
102
RTVSPropertyOp17
 70
     1
102
RTVSPropertyOp18
 70
     1
102
RTVSPropertyOp19
 70
     1
102
RTVSPropertyOp20
 70
     1
102
RTVSPropertyOp21
 70
     1
102
RTVSPropertyOp22
 70
     1
102
RTVSPropertyOp23
 70
     1
102
RTVSPropertyOp24
 70
     1
102
RTVSPropertyOp25
 70
     1
102
RTVSPropertyOp26
 70
     1
102
RTVSPropertyOp27
 70
     1
102
RTVSPropertyOp28
 70
     1
102
RTVSPropertyOp29
 70
     1
102
RTVSPropertyOp30
 70
     1
102
RTVSPropertyOp31
 70
     1
102
RTVSPropertyOp32
 70
     1
102
RTVSPropertyOp33
 70
     1
102
RTVSPropertyOp34
 70
     1
102
RTVSPropertyOp35
 70
     1
102
RTVSPropertyOp36
 70
     1
102
RTVSPropertyOp37
 70
     1
102
RTVSPropertyOp38
 70
     1
102
RTVSPropertyOp39
 70
     1
102
RTVSPropertyOp40
 70
     1
102
RTVSPropertyOp41
 70
     1
102
RTVSPropertyOp42
 70
     1
102
RTVSPropertyOp43
 70
     1
102
RTVSPropertyOp44
 70
     1
102
RTVSPropertyOp45
 70
     1
102
RTVSPropertyOp46
 70
     1
102
RTVSPropertyOp47
 70
     1
102
RTVSPropertyOp48
 70
     1
102
RTVSPropertyOp49
 70
     1
102
RTVSPropertyOp50
 70
     1
102
RTVSPropertyOp51
 70
     0
102
RTVSPropertyOp52
 70
     0
102
RTVSPropertyOp53
 70
     1
102
RTVSPropertyOp54
 70
     1
102
RTVSPropertyOp55
 70
     1
102
RTVSPropertyOp56
 70
     1
102
RTVSPropertyOp57
 70
     1
102
RTVSPost2010Prop28
280
     0
102
RTVSPost2010PropOp28
 70
     1
102
RTVSPost2010Prop29
280
     1
102
RTVSPost2010PropOp29
 70
     1
102
RTVSPost2010Prop30
280
     1
102
RTVSPost2010PropOp30
 70
     1
102
RTVSPost2010Prop31
280
     0
102
RTVSPost2010PropOp31
 70
     1
102
RTVSPost2010Prop32
280
     0
102
RTVSPost2010PropOp32
 70
     1
102
RTVSPost2010Prop33
280
     0
102
RTVSPost2010PropOp33
 70
     1
102
RTVSPost2010Prop34
280
     0
102
RTVSPost2010PropOp34
 70
     1
102
RTVSPost2010Prop35
280
     0
102
RTVSPost2010PropOp35
 70
     1
102
RTVSPost2010Prop36
280
     0
102
RTVSPost2010PropOp36
 70
     1
102
RTVSPost2010Prop37
 90
       50
102
RTVSPost2010PropOp37
 70
     1
102
RTVSPost2010Prop38
140
0.0
102
RTVSPost2010PropOp38
 70
     1
102
RTVSPost2010Prop39
140
1.0
102
RTVSPost2010PropOp39
 70
     1
102
RTVSPost2010Prop40
 90
        0
102
RTVSPost2010PropOp40
 70
     1
102
RTVSPost2010Prop41ColorIndex
 90
       18
102
RTVSPost2010Prop41ColorRGB
 90
        0
102
RTVSPost2010PropOp41
 70
     1
102
RTVSPost2010Prop42
 90
       50
102
RTVSPost2010PropOp42
 70
     1
102
RTVSPost2010Prop43
 90
        3
102
RTVSPost2010PropOp43
 70
     1
102
RTVSPost2010Prop44ColorIndex
 90
        5
102
RTVSPost2010Prop44ColorRGB
 90
      255
102
RTVSPost2010PropOp44
 70
     1
102
RTVSPost2010Prop45
280
     0
102
RTVSPost2010PropOp45
 70
     1
102
RTVSPost2010Prop46
 90
       50
102
RTVSPost2010PropOp46
 70
     1
102
RTVSPost2010Prop47
 90
       50
102
RTVSPost2010PropOp47
 70
     1
102
RTVSPost2010Prop48
 90
       50
102
RTVSPost2010PropOp48
 70
     1
102
RTVSPost2010Prop49
280
     0
102
RTVSPost2010PropOp49
 70
     1
102
RTVSPost2010Prop50
 90
       50
102
RTVSPost2010PropOp50
 70
     1
102
RTVSPost2010Prop51ColorIndex
 90
      256
102
RTVSPost2010Prop51ColorRGB
 90
-16777216
102
RTVSPost2010PropOp51
 70
     0
102
RTVSPost2010Prop52
140
1.0
102
RTVSPost2010PropOp52
 70
     0
102
RTVSPost2010Prop53
 90
        2
102
RTVSPost2010PropOp53
 70
     1
102
RTVSPost2010Prop54
  1
strokes_ogs.tif
102
RTVSPost2010PropOp54
 70
     1
102
RTVSPost2010Prop55
280
     0
102
RTVSPost2010PropOp55
 70
     1
102
RTVSPost2010Prop56
140
1.0
102
RTVSPost2010PropOp56
 70
     1
102
RTVSPost2010Prop57
140
1.0
102
RTVSPost2010PropOp57
 70
     1
  0
XRECORD
  5
296
102
{ACAD_REACTORS
330
295
102
}
330
295
100
AcDbXrecord
280
     1
102
RTVSPropertyOp0
 70
     1
102
RTVSPropertyOp1
 70
     1
102
RTVSPropertyOp2
 70
     1
102
RTVSPropertyOp3
 70
     1
102
RTVSPropertyOp4
 70
     1
102
RTVSPropertyOp5
 70
     1
102
RTVSPropertyOp6
 70
     1
102
RTVSPropertyOp7
 70
     1
102
RTVSPropertyOp8
 70
     1
102
RTVSPropertyOp9
 70
     1
102
RTVSPropertyOp10
 70
     1
102
RTVSPropertyOp11
 70
     1
102
RTVSPropertyOp12
 70
     1
102
RTVSPropertyOp13
 70
     1
102
RTVSPropertyOp14
 70
     1
102
RTVSPropertyOp15
 70
     1
102
RTVSPropertyOp16
 70
     1
102
RTVSPropertyOp17
 70
     1
102
RTVSPropertyOp18
 70
     1
102
RTVSPropertyOp19
 70
     1
102
RTVSPropertyOp20
 70
     1
102
RTVSPropertyOp21
 70
     1
102
RTVSPropertyOp22
 70
     1
102
RTVSPropertyOp23
 70
     1
102
RTVSPropertyOp24
 70
     1
102
RTVSPropertyOp25
 70
     1
102
RTVSPropertyOp26
 70
     1
102
RTVSPropertyOp27
 70
     1
102
RTVSPropertyOp28
 70
     1
102
RTVSPropertyOp29
 70
     1
102
RTVSPropertyOp30
 70
     1
102
RTVSPropertyOp31
 70
     1
102
RTVSPropertyOp32
 70
     1
102
RTVSPropertyOp33
 70
     1
102
RTVSPropertyOp34
 70
     1
102
RTVSPropertyOp35
 70
     1
102
RTVSPropertyOp36
 70
     1
102
RTVSPropertyOp37
 70
     1
102
RTVSPropertyOp38
 70
     1
102
RTVSPropertyOp39
 70
     1
102
RTVSPropertyOp40
 70
     1
102
RTVSPropertyOp41
 70
     1
102
RTVSPropertyOp42
 70
     1
102
RTVSPropertyOp43
 70
     1
102
RTVSPropertyOp44
 70
     1
102
RTVSPropertyOp45
 70
     1
102
RTVSPropertyOp46
 70
     1
102
RTVSPropertyOp47
 70
     1
102
RTVSPropertyOp48
 70
     1
102
RTVSPropertyOp49
 70
     1
102
RTVSPropertyOp50
 70
     1
102
RTVSPropertyOp51
 70
     0
102
RTVSPropertyOp52
 70
     0
102
RTVSPropertyOp53
 70
     1
102
RTVSPropertyOp54
 70
     1
102
RTVSPropertyOp55
 70
     1
102
RTVSPropertyOp56
 70
     1
102
RTVSPropertyOp57
 70
     1
102
RTVSPost2010Prop28
280
     0
102
RTVSPost2010PropOp28
 70
     1
102
RTVSPost2010Prop29
280
     1
102
RTVSPost2010PropOp29
 70
     1
102
RTVSPost2010Prop30
280
     1
102
RTVSPost2010PropOp30
 70
     1
102
RTVSPost2010Prop31
280
     0
102
RTVSPost2010PropOp31
 70
     1
102
RTVSPost2010Prop32
280
     0
102
RTVSPost2010PropOp32
 70
     1
102
RTVSPost2010Prop33
280
     0
102
RTVSPost2010PropOp33
 70
     1
102
RTVSPost2010Prop34
280
     0
102
RTVSPost2010PropOp34
 70
     1
102
RTVSPost2010Prop35
280
     0
102
RTVSPost2010PropOp35
 70
     1
102
RTVSPost2010Prop36
280
     0
102
RTVSPost2010PropOp36
 70
     1
102
RTVSPost2010Prop37
 90
       50
102
RTVSPost2010PropOp37
 70
     1
102
RTVSPost2010Prop38
140
0.0
102
RTVSPost2010PropOp38
 70
     1
102
RTVSPost2010Prop39
140
1.0
102
RTVSPost2010PropOp39
 70
     1
102
RTVSPost2010Prop40
 90
        0
102
RTVSPost2010PropOp40
 70
     1
102
RTVSPost2010Prop41ColorIndex
 90
       18
102
RTVSPost2010Prop41ColorRGB
 90
        0
102
RTVSPost2010PropOp41
 70
     1
102
RTVSPost2010Prop42
 90
       50
102
RTVSPost2010PropOp42
 70
     1
102
RTVSPost2010Prop43
 90
        3
102
RTVSPost2010PropOp43
 70
     1
102
RTVSPost2010Prop44ColorIndex
 90
        5
102
RTVSPost2010Prop44ColorRGB
 90
      255
102
RTVSPost2010PropOp44
 70
     1
102
RTVSPost2010Prop45
280
     0
102
RTVSPost2010PropOp45
 70
     1
102
RTVSPost2010Prop46
 90
       50
102
RTVSPost2010PropOp46
 70
     1
102
RTVSPost2010Prop47
 90
       50
102
RTVSPost2010PropOp47
 70
     1
102
RTVSPost2010Prop48
 90
       50
102
RTVSPost2010PropOp48
 70
     1
102
RTVSPost2010Prop49
280
     0
102
RTVSPost2010PropOp49
 70
     1
102
RTVSPost2010Prop50
 90
       50
102
RTVSPost2010PropOp50
 70
     1
102
RTVSPost2010Prop51ColorIndex
 90
      256
102
RTVSPost2010Prop51ColorRGB
 90
-16777216
102
RTVSPost2010PropOp51
 70
     0
102
RTVSPost2010Prop52
140
1.0
102
RTVSPost2010PropOp52
 70
     0
102
RTVSPost2010Prop53
 90
        2
102
RTVSPost2010PropOp53
 70
     1
102
RTVSPost2010Prop54
  1
strokes_ogs.tif
102
RTVSPost2010PropOp54
 70
     1
102
RTVSPost2010Prop55
280
     0
102
RTVSPost2010PropOp55
 70
     1
102
RTVSPost2010Prop56
140
1.0
102
RTVSPost2010PropOp56
 70
     1
102
RTVSPost2010Prop57
140
1.0
102
RTVSPost2010PropOp57
 70
     1
  0
XRECORD
  5
290
102
{ACAD_REACTORS
330
28F
102
}
330
28F
100
AcDbXrecord
280
     1
102
RTVSPropertyOp0
 70
     1
102
RTVSPropertyOp1
 70
     1
102
RTVSPropertyOp2
 70
     1
102
RTVSPropertyOp3
 70
     1
102
RTVSPropertyOp4
 70
     1
102
RTVSPropertyOp5
 70
     1
102
RTVSPropertyOp6
 70
     1
102
RTVSPropertyOp7
 70
     1
102
RTVSPropertyOp8
 70
     1
102
RTVSPropertyOp9
 70
     1
102
RTVSPropertyOp10
 70
     1
102
RTVSPropertyOp11
 70
     1
102
RTVSPropertyOp12
 70
     1
102
RTVSPropertyOp13
 70
     1
102
RTVSPropertyOp14
 70
     1
102
RTVSPropertyOp15
 70
     1
102
RTVSPropertyOp16
 70
     1
102
RTVSPropertyOp17
 70
     1
102
RTVSPropertyOp18
 70
     1
102
RTVSPropertyOp19
 70
     1
102
RTVSPropertyOp20
 70
     1
102
RTVSPropertyOp21
 70
     1
102
RTVSPropertyOp22
 70
     1
102
RTVSPropertyOp23
 70
     1
102
RTVSPropertyOp24
 70
     1
102
RTVSPropertyOp25
 70
     1
102
RTVSPropertyOp26
 70
     1
102
RTVSPropertyOp27
 70
     1
102
RTVSPropertyOp28
 70
     1
102
RTVSPropertyOp29
 70
     1
102
RTVSPropertyOp30
 70
     1
102
RTVSPropertyOp31
 70
     1
102
RTVSPropertyOp32
 70
     1
102
RTVSPropertyOp33
 70
     1
102
RTVSPropertyOp34
 70
     1
102
RTVSPropertyOp35
 70
     1
102
RTVSPropertyOp36
 70
     1
102
RTVSPropertyOp37
 70
     1
102
RTVSPropertyOp38
 70
     1
102
RTVSPropertyOp39
 70
     1
102
RTVSPropertyOp40
 70
     1
102
RTVSPropertyOp41
 70
     1
102
RTVSPropertyOp42
 70
     1
102
RTVSPropertyOp43
 70
     1
102
RTVSPropertyOp44
 70
     1
102
RTVSPropertyOp45
 70
     1
102
RTVSPropertyOp46
 70
     1
102
RTVSPropertyOp47
 70
     1
102
RTVSPropertyOp48
 70
     1
102
RTVSPropertyOp49
 70
     1
102
RTVSPropertyOp50
 70
     1
102
RTVSPropertyOp51
 70
     0
102
RTVSPropertyOp52
 70
     0
102
RTVSPropertyOp53
 70
     1
102
RTVSPropertyOp54
 70
     1
102
RTVSPropertyOp55
 70
     1
102
RTVSPropertyOp56
 70
     1
102
RTVSPropertyOp57
 70
     1
102
RTVSPost2010Prop28
280
     0
102
RTVSPost2010PropOp28
 70
     1
102
RTVSPost2010Prop29
280
     1
102
RTVSPost2010PropOp29
 70
     1
102
RTVSPost2010Prop30
280
     1
102
RTVSPost2010PropOp30
 70
     1
102
RTVSPost2010Prop31
280
     0
102
RTVSPost2010PropOp31
 70
     1
102
RTVSPost2010Prop32
280
     0
102
RTVSPost2010PropOp32
 70
     1
102
RTVSPost2010Prop33
280
     0
102
RTVSPost2010PropOp33
 70
     1
102
RTVSPost2010Prop34
280
     0
102
RTVSPost2010PropOp34
 70
     1
102
RTVSPost2010Prop35
280
     0
102
RTVSPost2010PropOp35
 70
     1
102
RTVSPost2010Prop36
280
     0
102
RTVSPost2010PropOp36
 70
     1
102
RTVSPost2010Prop37
 90
       50
102
RTVSPost2010PropOp37
 70
     1
102
RTVSPost2010Prop38
140
0.0
102
RTVSPost2010PropOp38
 70
     1
102
RTVSPost2010Prop39
140
1.0
102
RTVSPost2010PropOp39
 70
     1
102
RTVSPost2010Prop40
 90
        0
102
RTVSPost2010PropOp40
 70
     1
102
RTVSPost2010Prop41ColorIndex
 90
       18
102
RTVSPost2010Prop41ColorRGB
 90
        0
102
RTVSPost2010PropOp41
 70
     1
102
RTVSPost2010Prop42
 90
       50
102
RTVSPost2010PropOp42
 70
     1
102
RTVSPost2010Prop43
 90
        3
102
RTVSPost2010PropOp43
 70
     1
102
RTVSPost2010Prop44ColorIndex
 90
        5
102
RTVSPost2010Prop44ColorRGB
 90
      255
102
RTVSPost2010PropOp44
 70
     1
102
RTVSPost2010Prop45
280
     0
102
RTVSPost2010PropOp45
 70
     1
102
RTVSPost2010Prop46
 90
       50
102
RTVSPost2010PropOp46
 70
     1
102
RTVSPost2010Prop47
 90
       50
102
RTVSPost2010PropOp47
 70
     1
102
RTVSPost2010Prop48
 90
       50
102
RTVSPost2010PropOp48
 70
     1
102
RTVSPost2010Prop49
280
     0
102
RTVSPost2010PropOp49
 70
     1
102
RTVSPost2010Prop50
 90
       50
102
RTVSPost2010PropOp50
 70
     1
102
RTVSPost2010Prop51ColorIndex
 90
      256
102
RTVSPost2010Prop51ColorRGB
 90
-16777216
102
RTVSPost2010PropOp51
 70
     0
102
RTVSPost2010Prop52
140
1.0
102
RTVSPost2010PropOp52
 70
     0
102
RTVSPost2010Prop53
 90
        2
102
RTVSPost2010PropOp53
 70
     1
102
RTVSPost2010Prop54
  1
strokes_ogs.tif
102
RTVSPost2010PropOp54
 70
     1
102
RTVSPost2010Prop55
280
     0
102
RTVSPost2010PropOp55
 70
     1
102
RTVSPost2010Prop56
140
1.0
102
RTVSPost2010PropOp56
 70
     1
102
RTVSPost2010Prop57
140
1.0
102
RTVSPost2010PropOp57
 70
     1
  0
XRECORD
  5
292
102
{ACAD_REACTORS
330
291
102
}
330
291
100
AcDbXrecord
280
     1
102
RTVSPropertyOp0
 70
     1
102
RTVSPropertyOp1
 70
     1
102
RTVSPropertyOp2
 70
     1
102
RTVSPropertyOp3
 70
     1
102
RTVSPropertyOp4
 70
     1
102
RTVSPropertyOp5
 70
     1
102
RTVSPropertyOp6
 70
     1
102
RTVSPropertyOp7
 70
     1
102
RTVSPropertyOp8
 70
     1
102
RTVSPropertyOp9
 70
     1
102
RTVSPropertyOp10
 70
     1
102
RTVSPropertyOp11
 70
     1
102
RTVSPropertyOp12
 70
     1
102
RTVSPropertyOp13
 70
     1
102
RTVSPropertyOp14
 70
     1
102
RTVSPropertyOp15
 70
     1
102
RTVSPropertyOp16
 70
     1
102
RTVSPropertyOp17
 70
     1
102
RTVSPropertyOp18
 70
     1
102
RTVSPropertyOp19
 70
     1
102
RTVSPropertyOp20
 70
     1
102
RTVSPropertyOp21
 70
     1
102
RTVSPropertyOp22
 70
     1
102
RTVSPropertyOp23
 70
     1
102
RTVSPropertyOp24
 70
     1
102
RTVSPropertyOp25
 70
     1
102
RTVSPropertyOp26
 70
     1
102
RTVSPropertyOp27
 70
     1
102
RTVSPropertyOp28
 70
     1
102
RTVSPropertyOp29
 70
     1
102
RTVSPropertyOp30
 70
     1
102
RTVSPropertyOp31
 70
     1
102
RTVSPropertyOp32
 70
     1
102
RTVSPropertyOp33
 70
     1
102
RTVSPropertyOp34
 70
     1
102
RTVSPropertyOp35
 70
     1
102
RTVSPropertyOp36
 70
     1
102
RTVSPropertyOp37
 70
     1
102
RTVSPropertyOp38
 70
     1
102
RTVSPropertyOp39
 70
     1
102
RTVSPropertyOp40
 70
     1
102
RTVSPropertyOp41
 70
     1
102
RTVSPropertyOp42
 70
     1
102
RTVSPropertyOp43
 70
     1
102
RTVSPropertyOp44
 70
     1
102
RTVSPropertyOp45
 70
     1
102
RTVSPropertyOp46
 70
     1
102
RTVSPropertyOp47
 70
     1
102
RTVSPropertyOp48
 70
     1
102
RTVSPropertyOp49
 70
     1
102
RTVSPropertyOp50
 70
     1
102
RTVSPropertyOp51
 70
     0
102
RTVSPropertyOp52
 70
     0
102
RTVSPropertyOp53
 70
     1
102
RTVSPropertyOp54
 70
     1
102
RTVSPropertyOp55
 70
     1
102
RTVSPropertyOp56
 70
     1
102
RTVSPropertyOp57
 70
     1
102
RTVSPost2010Prop28
280
     0
102
RTVSPost2010PropOp28
 70
     1
102
RTVSPost2010Prop29
280
     1
102
RTVSPost2010PropOp29
 70
     1
102
RTVSPost2010Prop30
280
     1
102
RTVSPost2010PropOp30
 70
     1
102
RTVSPost2010Prop31
280
     0
102
RTVSPost2010PropOp31
 70
     1
102
RTVSPost2010Prop32
280
     0
102
RTVSPost2010PropOp32
 70
     1
102
RTVSPost2010Prop33
280
     0
102
RTVSPost2010PropOp33
 70
     1
102
RTVSPost2010Prop34
280
     0
102
RTVSPost2010PropOp34
 70
     1
102
RTVSPost2010Prop35
280
     0
102
RTVSPost2010PropOp35
 70
     1
102
RTVSPost2010Prop36
280
     0
102
RTVSPost2010PropOp36
 70
     1
102
RTVSPost2010Prop37
 90
       50
102
RTVSPost2010PropOp37
 70
     1
102
RTVSPost2010Prop38
140
0.0
102
RTVSPost2010PropOp38
 70
     1
102
RTVSPost2010Prop39
140
1.0
102
RTVSPost2010PropOp39
 70
     1
102
RTVSPost2010Prop40
 90
        0
102
RTVSPost2010PropOp40
 70
     1
102
RTVSPost2010Prop41ColorIndex
 90
       18
102
RTVSPost2010Prop41ColorRGB
 90
        0
102
RTVSPost2010PropOp41
 70
     1
102
RTVSPost2010Prop42
 90
       50
102
RTVSPost2010PropOp42
 70
     1
102
RTVSPost2010Prop43
 90
        3
102
RTVSPost2010PropOp43
 70
     1
102
RTVSPost2010Prop44ColorIndex
 90
        5
102
RTVSPost2010Prop44ColorRGB
 90
      255
102
RTVSPost2010PropOp44
 70
     1
102
RTVSPost2010Prop45
280
     0
102
RTVSPost2010PropOp45
 70
     1
102
RTVSPost2010Prop46
 90
       50
102
RTVSPost2010PropOp46
 70
     1
102
RTVSPost2010Prop47
 90
       50
102
RTVSPost2010PropOp47
 70
     1
102
RTVSPost2010Prop48
 90
       50
102
RTVSPost2010PropOp48
 70
     1
102
RTVSPost2010Prop49
280
     0
102
RTVSPost2010PropOp49
 70
     1
102
RTVSPost2010Prop50
 90
       50
102
RTVSPost2010PropOp50
 70
     1
102
RTVSPost2010Prop51ColorIndex
 90
      256
102
RTVSPost2010Prop51ColorRGB
 90
-16777216
102
RTVSPost2010PropOp51
 70
     0
102
RTVSPost2010Prop52
140
1.0
102
RTVSPost2010PropOp52
 70
     0
102
RTVSPost2010Prop53
 90
        2
102
RTVSPost2010PropOp53
 70
     1
102
RTVSPost2010Prop54
  1
strokes_ogs.tif
102
RTVSPost2010PropOp54
 70
     1
102
RTVSPost2010Prop55
280
     0
102
RTVSPost2010PropOp55
 70
     1
102
RTVSPost2010Prop56
140
1.0
102
RTVSPost2010PropOp56
 70
     1
102
RTVSPost2010Prop57
140
1.0
102
RTVSPost2010PropOp57
 70
     1
  0
XRECORD
  5
282
102
{ACAD_REACTORS
330
281
102
}
330
281
100
AcDbXrecord
280
     1
102
RTVSPropertyOp0
 70
     1
102
RTVSPropertyOp1
 70
     1
102
RTVSPropertyOp2
 70
     1
102
RTVSPropertyOp3
 70
     1
102
RTVSPropertyOp4
 70
     1
102
RTVSPropertyOp5
 70
     1
102
RTVSPropertyOp6
 70
     1
102
RTVSPropertyOp7
 70
     1
102
RTVSPropertyOp8
 70
     1
102
RTVSPropertyOp9
 70
     1
102
RTVSPropertyOp10
 70
     1
102
RTVSPropertyOp11
 70
     1
102
RTVSPropertyOp12
 70
     1
102
RTVSPropertyOp13
 70
     1
102
RTVSPropertyOp14
 70
     1
102
RTVSPropertyOp15
 70
     1
102
RTVSPropertyOp16
 70
     1
102
RTVSPropertyOp17
 70
     1
102
RTVSPropertyOp18
 70
     1
102
RTVSPropertyOp19
 70
     1
102
RTVSPropertyOp20
 70
     1
102
RTVSPropertyOp21
 70
     1
102
RTVSPropertyOp22
 70
     1
102
RTVSPropertyOp23
 70
     1
102
RTVSPropertyOp24
 70
     1
102
RTVSPropertyOp25
 70
     1
102
RTVSPropertyOp26
 70
     1
102
RTVSPropertyOp27
 70
     1
102
RTVSPropertyOp28
 70
     1
102
RTVSPropertyOp29
 70
     1
102
RTVSPropertyOp30
 70
     1
102
RTVSPropertyOp31
 70
     1
102
RTVSPropertyOp32
 70
     1
102
RTVSPropertyOp33
 70
     1
102
RTVSPropertyOp34
 70
     1
102
RTVSPropertyOp35
 70
     1
102
RTVSPropertyOp36
 70
     1
102
RTVSPropertyOp37
 70
     1
102
RTVSPropertyOp38
 70
     1
102
RTVSPropertyOp39
 70
     1
102
RTVSPropertyOp40
 70
     1
102
RTVSPropertyOp41
 70
     1
102
RTVSPropertyOp42
 70
     1
102
RTVSPropertyOp43
 70
     1
102
RTVSPropertyOp44
 70
     1
102
RTVSPropertyOp45
 70
     1
102
RTVSPropertyOp46
 70
     1
102
RTVSPropertyOp47
 70
     1
102
RTVSPropertyOp48
 70
     1
102
RTVSPropertyOp49
 70
     1
102
RTVSPropertyOp50
 70
     1
102
RTVSPropertyOp51
 70
     0
102
RTVSPropertyOp52
 70
     0
102
RTVSPropertyOp53
 70
     1
102
RTVSPropertyOp54
 70
     1
102
RTVSPropertyOp55
 70
     1
102
RTVSPropertyOp56
 70
     1
102
RTVSPropertyOp57
 70
     1
102
RTVSPost2010Prop28
280
     0
102
RTVSPost2010PropOp28
 70
     1
102
RTVSPost2010Prop29
280
     1
102
RTVSPost2010PropOp29
 70
     1
102
RTVSPost2010Prop30
280
     1
102
RTVSPost2010PropOp30
 70
     1
102
RTVSPost2010Prop31
280
     0
102
RTVSPost2010PropOp31
 70
     1
102
RTVSPost2010Prop32
280
     0
102
RTVSPost2010PropOp32
 70
     1
102
RTVSPost2010Prop33
280
     0
102
RTVSPost2010PropOp33
 70
     1
102
RTVSPost2010Prop34
280
     0
102
RTVSPost2010PropOp34
 70
     1
102
RTVSPost2010Prop35
280
     0
102
RTVSPost2010PropOp35
 70
     1
102
RTVSPost2010Prop36
280
     0
102
RTVSPost2010PropOp36
 70
     1
102
RTVSPost2010Prop37
 90
       50
102
RTVSPost2010PropOp37
 70
     1
102
RTVSPost2010Prop38
140
0.0
102
RTVSPost2010PropOp38
 70
     1
102
RTVSPost2010Prop39
140
1.0
102
RTVSPost2010PropOp39
 70
     1
102
RTVSPost2010Prop40
 90
        0
102
RTVSPost2010PropOp40
 70
     1
102
RTVSPost2010Prop41ColorIndex
 90
       18
102
RTVSPost2010Prop41ColorRGB
 90
        0
102
RTVSPost2010PropOp41
 70
     1
102
RTVSPost2010Prop42
 90
       50
102
RTVSPost2010PropOp42
 70
     1
102
RTVSPost2010Prop43
 90
        3
102
RTVSPost2010PropOp43
 70
     1
102
RTVSPost2010Prop44ColorIndex
 90
        5
102
RTVSPost2010Prop44ColorRGB
 90
      255
102
RTVSPost2010PropOp44
 70
     1
102
RTVSPost2010Prop45
280
     0
102
RTVSPost2010PropOp45
 70
     1
102
RTVSPost2010Prop46
 90
       50
102
RTVSPost2010PropOp46
 70
     1
102
RTVSPost2010Prop47
 90
       50
102
RTVSPost2010PropOp47
 70
     1
102
RTVSPost2010Prop48
 90
       50
102
RTVSPost2010PropOp48
 70
     1
102
RTVSPost2010Prop49
280
     0
102
RTVSPost2010PropOp49
 70
     1
102
RTVSPost2010Prop50
 90
       50
102
RTVSPost2010PropOp50
 70
     1
102
RTVSPost2010Prop51ColorIndex
 90
      256
102
RTVSPost2010Prop51ColorRGB
 90
-16777216
102
RTVSPost2010PropOp51
 70
     0
102
RTVSPost2010Prop52
140
1.0
102
RTVSPost2010PropOp52
 70
     0
102
RTVSPost2010Prop53
 90
        2
102
RTVSPost2010PropOp53
 70
     1
102
RTVSPost2010Prop54
  1
strokes_ogs.tif
102
RTVSPost2010PropOp54
 70
     1
102
RTVSPost2010Prop55
280
     0
102
RTVSPost2010PropOp55
 70
     1
102
RTVSPost2010Prop56
140
1.0
102
RTVSPost2010PropOp56
 70
     1
102
RTVSPost2010Prop57
140
1.0
102
RTVSPost2010PropOp57
 70
     1
  0
XRECORD
  5
274
102
{ACAD_REACTORS
330
273
102
}
330
273
100
AcDbXrecord
280
     1
102
RTVSPropertyOp0
 70
     1
102
RTVSPropertyOp1
 70
     1
102
RTVSPropertyOp2
 70
     1
102
RTVSPropertyOp3
 70
     1
102
RTVSPropertyOp4
 70
     1
102
RTVSPropertyOp5
 70
     1
102
RTVSPropertyOp6
 70
     1
102
RTVSPropertyOp7
 70
     1
102
RTVSPropertyOp8
 70
     1
102
RTVSPropertyOp9
 70
     1
102
RTVSPropertyOp10
 70
     1
102
RTVSPropertyOp11
 70
     1
102
RTVSPropertyOp12
 70
     1
102
RTVSPropertyOp13
 70
     1
102
RTVSPropertyOp14
 70
     1
102
RTVSPropertyOp15
 70
     1
102
RTVSPropertyOp16
 70
     1
102
RTVSPropertyOp17
 70
     1
102
RTVSPropertyOp18
 70
     1
102
RTVSPropertyOp19
 70
     1
102
RTVSPropertyOp20
 70
     1
102
RTVSPropertyOp21
 70
     1
102
RTVSPropertyOp22
 70
     1
102
RTVSPropertyOp23
 70
     1
102
RTVSPropertyOp24
 70
     1
102
RTVSPropertyOp25
 70
     1
102
RTVSPropertyOp26
 70
     1
102
RTVSPropertyOp27
 70
     1
102
RTVSPropertyOp28
 70
     1
102
RTVSPropertyOp29
 70
     1
102
RTVSPropertyOp30
 70
     1
102
RTVSPropertyOp31
 70
     1
102
RTVSPropertyOp32
 70
     1
102
RTVSPropertyOp33
 70
     1
102
RTVSPropertyOp34
 70
     1
102
RTVSPropertyOp35
 70
     1
102
RTVSPropertyOp36
 70
     1
102
RTVSPropertyOp37
 70
     1
102
RTVSPropertyOp38
 70
     1
102
RTVSPropertyOp39
 70
     1
102
RTVSPropertyOp40
 70
     1
102
RTVSPropertyOp41
 70
     1
102
RTVSPropertyOp42
 70
     1
102
RTVSPropertyOp43
 70
     1
102
RTVSPropertyOp44
 70
     1
102
RTVSPropertyOp45
 70
     1
102
RTVSPropertyOp46
 70
     1
102
RTVSPropertyOp47
 70
     1
102
RTVSPropertyOp48
 70
     1
102
RTVSPropertyOp49
 70
     1
102
RTVSPropertyOp50
 70
     1
102
RTVSPropertyOp51
 70
     0
102
RTVSPropertyOp52
 70
     0
102
RTVSPropertyOp53
 70
     1
102
RTVSPropertyOp54
 70
     1
102
RTVSPropertyOp55
 70
     1
102
RTVSPropertyOp56
 70
     1
102
RTVSPropertyOp57
 70
     1
102
RTVSPost2010Prop28
280
     0
102
RTVSPost2010PropOp28
 70
     1
102
RTVSPost2010Prop29
280
     1
102
RTVSPost2010PropOp29
 70
     1
102
RTVSPost2010Prop30
280
     1
102
RTVSPost2010PropOp30
 70
     1
102
RTVSPost2010Prop31
280
     0
102
RTVSPost2010PropOp31
 70
     1
102
RTVSPost2010Prop32
280
     0
102
RTVSPost2010PropOp32
 70
     1
102
RTVSPost2010Prop33
280
     0
102
RTVSPost2010PropOp33
 70
     1
102
RTVSPost2010Prop34
280
     0
102
RTVSPost2010PropOp34
 70
     1
102
RTVSPost2010Prop35
280
     0
102
RTVSPost2010PropOp35
 70
     1
102
RTVSPost2010Prop36
280
     0
102
RTVSPost2010PropOp36
 70
     1
102
RTVSPost2010Prop37
 90
       50
102
RTVSPost2010PropOp37
 70
     1
102
RTVSPost2010Prop38
140
0.0
102
RTVSPost2010PropOp38
 70
     1
102
RTVSPost2010Prop39
140
1.0
102
RTVSPost2010PropOp39
 70
     1
102
RTVSPost2010Prop40
 90
        0
102
RTVSPost2010PropOp40
 70
     1
102
RTVSPost2010Prop41ColorIndex
 90
       18
102
RTVSPost2010Prop41ColorRGB
 90
        0
102
RTVSPost2010PropOp41
 70
     1
102
RTVSPost2010Prop42
 90
       50
102
RTVSPost2010PropOp42
 70
     1
102
RTVSPost2010Prop43
 90
        3
102
RTVSPost2010PropOp43
 70
     1
102
RTVSPost2010Prop44ColorIndex
 90
        5
102
RTVSPost2010Prop44ColorRGB
 90
      255
102
RTVSPost2010PropOp44
 70
     1
102
RTVSPost2010Prop45
280
     0
102
RTVSPost2010PropOp45
 70
     1
102
RTVSPost2010Prop46
 90
       50
102
RTVSPost2010PropOp46
 70
     1
102
RTVSPost2010Prop47
 90
       50
102
RTVSPost2010PropOp47
 70
     1
102
RTVSPost2010Prop48
 90
       50
102
RTVSPost2010PropOp48
 70
     1
102
RTVSPost2010Prop49
280
     0
102
RTVSPost2010PropOp49
 70
     1
102
RTVSPost2010Prop50
 90
       50
102
RTVSPost2010PropOp50
 70
     1
102
RTVSPost2010Prop51ColorIndex
 90
      256
102
RTVSPost2010Prop51ColorRGB
 90
-16777216
102
RTVSPost2010PropOp51
 70
     0
102
RTVSPost2010Prop52
140
1.0
102
RTVSPost2010PropOp52
 70
     0
102
RTVSPost2010Prop53
 90
        2
102
RTVSPost2010PropOp53
 70
     1
102
RTVSPost2010Prop54
  1
strokes_ogs.tif
102
RTVSPost2010PropOp54
 70
     1
102
RTVSPost2010Prop55
280
     0
102
RTVSPost2010PropOp55
 70
     1
102
RTVSPost2010Prop56
140
1.0
102
RTVSPost2010PropOp56
 70
     1
102
RTVSPost2010Prop57
140
1.0
102
RTVSPost2010PropOp57
 70
     1
  0
XRECORD
  5
294
102
{ACAD_REACTORS
330
293
102
}
330
293
100
AcDbXrecord
280
     1
102
RTVSPropertyOp0
 70
     1
102
RTVSPropertyOp1
 70
     1
102
RTVSPropertyOp2
 70
     1
102
RTVSPropertyOp3
 70
     1
102
RTVSPropertyOp4
 70
     1
102
RTVSPropertyOp5
 70
     1
102
RTVSPropertyOp6
 70
     1
102
RTVSPropertyOp7
 70
     1
102
RTVSPropertyOp8
 70
     1
102
RTVSPropertyOp9
 70
     1
102
RTVSPropertyOp10
 70
     1
102
RTVSPropertyOp11
 70
     1
102
RTVSPropertyOp12
 70
     1
102
RTVSPropertyOp13
 70
     1
102
RTVSPropertyOp14
 70
     1
102
RTVSPropertyOp15
 70
     1
102
RTVSPropertyOp16
 70
     1
102
RTVSPropertyOp17
 70
     1
102
RTVSPropertyOp18
 70
     1
102
RTVSPropertyOp19
 70
     1
102
RTVSPropertyOp20
 70
     1
102
RTVSPropertyOp21
 70
     1
102
RTVSPropertyOp22
 70
     1
102
RTVSPropertyOp23
 70
     1
102
RTVSPropertyOp24
 70
     1
102
RTVSPropertyOp25
 70
     1
102
RTVSPropertyOp26
 70
     1
102
RTVSPropertyOp27
 70
     1
102
RTVSPropertyOp28
 70
     1
102
RTVSPropertyOp29
 70
     1
102
RTVSPropertyOp30
 70
     1
102
RTVSPropertyOp31
 70
     1
102
RTVSPropertyOp32
 70
     1
102
RTVSPropertyOp33
 70
     1
102
RTVSPropertyOp34
 70
     1
102
RTVSPropertyOp35
 70
     1
102
RTVSPropertyOp36
 70
     1
102
RTVSPropertyOp37
 70
     1
102
RTVSPropertyOp38
 70
     1
102
RTVSPropertyOp39
 70
     1
102
RTVSPropertyOp40
 70
     1
102
RTVSPropertyOp41
 70
     1
102
RTVSPropertyOp42
 70
     1
102
RTVSPropertyOp43
 70
     1
102
RTVSPropertyOp44
 70
     1
102
RTVSPropertyOp45
 70
     1
102
RTVSPropertyOp46
 70
     1
102
RTVSPropertyOp47
 70
     1
102
RTVSPropertyOp48
 70
     1
102
RTVSPropertyOp49
 70
     1
102
RTVSPropertyOp50
 70
     1
102
RTVSPropertyOp51
 70
     0
102
RTVSPropertyOp52
 70
     0
102
RTVSPropertyOp53
 70
     1
102
RTVSPropertyOp54
 70
     1
102
RTVSPropertyOp55
 70
     1
102
RTVSPropertyOp56
 70
     1
102
RTVSPropertyOp57
 70
     1
102
RTVSPost2010Prop28
280
     0
102
RTVSPost2010PropOp28
 70
     1
102
RTVSPost2010Prop29
280
     1
102
RTVSPost2010PropOp29
 70
     1
102
RTVSPost2010Prop30
280
     1
102
RTVSPost2010PropOp30
 70
     1
102
RTVSPost2010Prop31
280
     0
102
RTVSPost2010PropOp31
 70
     1
102
RTVSPost2010Prop32
280
     0
102
RTVSPost2010PropOp32
 70
     1
102
RTVSPost2010Prop33
280
     0
102
RTVSPost2010PropOp33
 70
     1
102
RTVSPost2010Prop34
280
     0
102
RTVSPost2010PropOp34
 70
     1
102
RTVSPost2010Prop35
280
     0
102
RTVSPost2010PropOp35
 70
     1
102
RTVSPost2010Prop36
280
     0
102
RTVSPost2010PropOp36
 70
     1
102
RTVSPost2010Prop37
 90
       50
102
RTVSPost2010PropOp37
 70
     1
102
RTVSPost2010Prop38
140
0.0
102
RTVSPost2010PropOp38
 70
     1
102
RTVSPost2010Prop39
140
1.0
102
RTVSPost2010PropOp39
 70
     1
102
RTVSPost2010Prop40
 90
        0
102
RTVSPost2010PropOp40
 70
     1
102
RTVSPost2010Prop41ColorIndex
 90
       18
102
RTVSPost2010Prop41ColorRGB
 90
        0
102
RTVSPost2010PropOp41
 70
     1
102
RTVSPost2010Prop42
 90
       50
102
RTVSPost2010PropOp42
 70
     1
102
RTVSPost2010Prop43
 90
        3
102
RTVSPost2010PropOp43
 70
     1
102
RTVSPost2010Prop44ColorIndex
 90
        5
102
RTVSPost2010Prop44ColorRGB
 90
      255
102
RTVSPost2010PropOp44
 70
     1
102
RTVSPost2010Prop45
280
     0
102
RTVSPost2010PropOp45
 70
     1
102
RTVSPost2010Prop46
 90
       50
102
RTVSPost2010PropOp46
 70
     1
102
RTVSPost2010Prop47
 90
       50
102
RTVSPost2010PropOp47
 70
     1
102
RTVSPost2010Prop48
 90
       50
102
RTVSPost2010PropOp48
 70
     1
102
RTVSPost2010Prop49
280
     0
102
RTVSPost2010PropOp49
 70
     1
102
RTVSPost2010Prop50
 90
       50
102
RTVSPost2010PropOp50
 70
     1
102
RTVSPost2010Prop51ColorIndex
 90
      256
102
RTVSPost2010Prop51ColorRGB
 90
-16777216
102
RTVSPost2010PropOp51
 70
     0
102
RTVSPost2010Prop52
140
1.0
102
RTVSPost2010PropOp52
 70
     0
102
RTVSPost2010Prop53
 90
        2
102
RTVSPost2010PropOp53
 70
     1
102
RTVSPost2010Prop54
  1
strokes_ogs.tif
102
RTVSPost2010PropOp54
 70
     1
102
RTVSPost2010Prop55
280
     0
102
RTVSPost2010PropOp55
 70
     1
102
RTVSPost2010Prop56
140
1.0
102
RTVSPost2010PropOp56
 70
     1
102
RTVSPost2010Prop57
140
1.0
102
RTVSPost2010PropOp57
 70
     1
  0
ENDSEC
  0
EOF
