  0
SECTION
  2
HEADER
  9
$ACADVER
  1
AC1018
  9
$ACADMAINTVER
 70
     0
  9
$DWGCODEPAGE
  3
ANSI_932
  9
$INSBASE
 10
0.0
 20
0.0
 30
0.0
  9
$EXTMIN
 10
-1050.0
 20
-742.5
 30
0.0
  9
$EXTMAX
 10
1050.0
 20
742.5
 30
0.0
  9
$LIMMIN
 10
-1050.0
 20
-742.5
  9
$LIMMAX
 10
1050.0
 20
742.5
  9
$ORTHOMODE
 70
     0
  9
$REGENMODE
 70
     1
  9
$FILLMODE
 70
     1
  9
$QTEXTMODE
 70
     0
  9
$MIRRTEXT
 70
     1
  9
$LTSCALE
 40
5.0
  9
$ATTMODE
 70
     1
  9
$TEXTSIZE
 40
2.5
  9
$TRACEWID
 40
1.0
  9
$TEXTSTYLE
  7
Standard
  9
$CLAYER
  8
0
  9
$CELTYPE
  6
ByLayer
  9
$CECOLOR
 62
   256
  9
$CELTSCALE
 40
1.0
  9
$DISPSILH
 70
     0
  9
$DIMSCALE
 40
1.0
  9
$DIMASZ
 40
2.5
  9
$DIMEXO
 40
0.625
  9
$DIMDLI
 40
3.75
  9
$DIMRND
 40
0.0
  9
$DIMDLE
 40
0.0
  9
$DIMEXE
 40
1.25
  9
$DIMTP
 40
0.0
  9
$DIMTM
 40
0.0
  9
$DIMTXT
 40
2.5
  9
$DIMCEN
 40
2.5
  9
$DIMTSZ
 40
0.0
  9
$DIMTOL
 70
     0
  9
$DIMLIM
 70
     0
  9
$DIMTIH
 70
     0
  9
$DIMTOH
 70
     0
  9
$DIMSE1
 70
     0
  9
$DIMSE2
 70
     0
  9
$DIMTAD
 70
     1
  9
$DIMZIN
 70
     8
  9
$DIMBLK
  1

  9
$DIMASO
 70
     1
  9
$DIMSHO
 70
     1
  9
$DIMPOST
  1

  9
$DIMAPOST
  1

  9
$DIMALT
 70
     0
  9
$DIMALTD
 70
     3
  9
$DIMALTF
 40
0.03937007874016
  9
$DIMLFAC
 40
1.0
  9
$DIMTOFL
 70
     1
  9
$DIMTVP
 40
0.0
  9
$DIMTIX
 70
     0
  9
$DIMSOXD
 70
     0
  9
$DIMSAH
 70
     0
  9
$DIMBLK1
  1

  9
$DIMBLK2
  1

  9
$DIMSTYLE
  2
ISO-25
  9
$DIMCLRD
 70
     0
  9
$DIMCLRE
 70
     0
  9
$DIMCLRT
 70
     0
  9
$DIMTFAC
 40
1.0
  9
$DIMGAP
 40
0.625
  9
$DIMJUST
 70
     0
  9
$DIMSD1
 70
     0
  9
$DIMSD2
 70
     0
  9
$DIMTOLJ
 70
     0
  9
$DIMTZIN
 70
     8
  9
$DIMALTZ
 70
     0
  9
$DIMALTTZ
 70
     0
  9
$DIMUPT
 70
     0
  9
$DIMDEC
 70
     2
  9
$DIMTDEC
 70
     2
  9
$DIMALTU
 70
     2
  9
$DIMALTTD
 70
     3
  9
$DIMTXSTY
  7
Standard
  9
$DIMAUNIT
 70
     0
  9
$DIMADEC
 70
     0
  9
$DIMALTRND
 40
0.0
  9
$DIMAZIN
 70
     0
  9
$DIMDSEP
 70
    44
  9
$DIMATFIT
 70
     3
  9
$DIMFRAC
 70
     0
  9
$DIMLDRBLK
  1

  9
$DIMLUNIT
 70
     2
  9
$DIMLWD
 70
    -2
  9
$DIMLWE
 70
    -2
  9
$DIMTMOVE
 70
     0
  9
$LUNITS
 70
     2
  9
$LUPREC
 70
     4
  9
$SKETCHINC
 40
1.0
  9
$FILLETRAD
 40
10.0
  9
$AUNITS
 70
     0
  9
$AUPREC
 70
     0
  9
$MENU
  1
.
  9
$ELEVATION
 40
0.0
  9
$PELEVATION
 40
0.0
  9
$THICKNESS
 40
0.0
  9
$LIMCHECK
 70
     0
  9
$CHAMFERA
 40
0.0
  9
$CHAMFERB
 40
0.0
  9
$CHAMFERC
 40
0.0
  9
$CHAMFERD
 40
0.0
  9
$SKPOLY
 70
     0
  9
$TDCREATE
 40
2459480.477477442
  9
$TDUCREATE
 40
2459480.102477442
  9
$TDUPDATE
 40
2459480.47747757
  9
$TDUUPDATE
 40
2459480.10247757
  9
$TDINDWG
 40
0.0000000116
  9
$TDUSRTIMER
 40
0.0000000116
  9
$USRTIMER
 70
     1
  9
$ANGBASE
 50
0.0
  9
$ANGDIR
 70
     0
  9
$PDMODE
 70
     0
  9
$PDSIZE
 40
0.0
  9
$PLINEWID
 40
0.0
  9
$SPLFRAME
 70
     0
  9
$SPLINETYPE
 70
     6
  9
$SPLINESEGS
 70
     8
  9
$HANDSEED
  5
36E
  9
$SURFTAB1
 70
     6
  9
$SURFTAB2
 70
     6
  9
$SURFTYPE
 70
     6
  9
$SURFU
 70
     6
  9
$SURFV
 70
     6
  9
$UCSBASE
  2

  9
$UCSNAME
  2

  9
$UCSORG
 10
0.0
 20
0.0
 30
0.0
  9
$UCSXDIR
 10
1.0
 20
0.0
 30
0.0
  9
$UCSYDIR
 10
0.0
 20
1.0
 30
0.0
  9
$UCSORTHOREF
  2

  9
$UCSORTHOVIEW
 70
     0
  9
$UCSORGTOP
 10
0.0
 20
0.0
 30
0.0
  9
$UCSORGBOTTOM
 10
0.0
 20
0.0
 30
0.0
  9
$UCSORGLEFT
 10
0.0
 20
0.0
 30
0.0
  9
$UCSORGRIGHT
 10
0.0
 20
0.0
 30
0.0
  9
$UCSORGFRONT
 10
0.0
 20
0.0
 30
0.0
  9
$UCSORGBACK
 10
0.0
 20
0.0
 30
0.0
  9
$PUCSBASE
  2

  9
$PUCSNAME
  2

  9
$PUCSORG
 10
0.0
 20
0.0
 30
0.0
  9
$PUCSXDIR
 10
1.0
 20
0.0
 30
0.0
  9
$PUCSYDIR
 10
0.0
 20
1.0
 30
0.0
  9
$PUCSORTHOREF
  2

  9
$PUCSORTHOVIEW
 70
     0
  9
$PUCSORGTOP
 10
0.0
 20
0.0
 30
0.0
  9
$PUCSORGBOTTOM
 10
0.0
 20
0.0
 30
0.0
  9
$PUCSORGLEFT
 10
0.0
 20
0.0
 30
0.0
  9
$PUCSORGRIGHT
 10
0.0
 20
0.0
 30
0.0
  9
$PUCSORGFRONT
 10
0.0
 20
0.0
 30
0.0
  9
$PUCSORGBACK
 10
0.0
 20
0.0
 30
0.0
  9
$USERI1
 70
     0
  9
$USERI2
 70
     0
  9
$USERI3
 70
     0
  9
$USERI4
 70
     0
  9
$USERI5
 70
     0
  9
$USERR1
 40
0.0
  9
$USERR2
 40
0.0
  9
$USERR3
 40
0.0
  9
$USERR4
 40
0.0
  9
$USERR5
 40
0.0
  9
$WORLDVIEW
 70
     1
  9
$SHADEDGE
 70
     3
  9
$SHADEDIF
 70
    70
  9
$TILEMODE
 70
     1
  9
$MAXACTVP
 70
    64
  9
$PINSBASE
 10
0.0
 20
0.0
 30
0.0
  9
$PLIMCHECK
 70
     0
  9
$PEXTMIN
 10
1.000000000000000E+20
 20
1.000000000000000E+20
 30
1.000000000000000E+20
  9
$PEXTMAX
 10
-1.000000000000000E+20
 20
-1.000000000000000E+20
 30
-1.000000000000000E+20
  9
$PLIMMIN
 10
0.0
 20
0.0
  9
$PLIMMAX
 10
420.0
 20
297.0
  9
$UNITMODE
 70
     0
  9
$VISRETAIN
 70
     1
  9
$PLINEGEN
 70
     0
  9
$PSLTSCALE
 70
     1
  9
$TREEDEPTH
 70
  3020
  9
$CMLSTYLE
  2
Standard
  9
$CMLJUST
 70
     0
  9
$CMLSCALE
 40
20.0
  9
$PROXYGRAPHICS
 70
     1
  9
$MEASUREMENT
 70
     1
  9
$CELWEIGHT
370
    -1
  9
$ENDCAPS
280
     0
  9
$JOINSTYLE
280
     0
  9
$LWDISPLAY
290
     0
  9
$INSUNITS
 70
     4
  9
$HYPERLINKBASE
  1

  9
$STYLESHEET
  1

  9
$XEDIT
290
     1
  9
$CEPSNTYPE
380
     0
  9
$PSTYLEMODE
290
     1
  9
$FINGERPRINTGUID
  2
{7E11BF7B-5A9E-4E95-8F13-FB783F0260E8}
  9
$VERSIONGUID
  2
{FAEB1C32-E019-11D5-929B-00C0DF256EC4}
  9
$EXTNAMES
290
     1
  9
$PSVPSCALE
 40
0.0
  9
$OLESTARTUP
290
     0
  9
$SORTENTS
280
   127
  9
$INDEXCTL
280
     0
  9
$HIDETEXT
280
     1
  9
$XCLIPFRAME
290
     0
  9
$HALOGAP
280
     0
  9
$OBSCOLOR
 70
   257
  9
$OBSLTYPE
280
     0
  9
$INTERSECTIONDISPLAY
280
     0
  9
$INTERSECTIONCOLOR
 70
   257
  9
$DIMASSOC
280
     2
  9
$PROJECTNAME
  1

  0
ENDSEC
  0
SECTION
  2
CLASSES
  0
CLASS
  1
ACDBDICTIONARYWDFLT
  2
AcDbDictionaryWithDefault
  3
ObjectDBX Classes
 90
        0
 91
        4
280
     0
281
     0
  0
CLASS
  1
VISUALSTYLE
  2
AcDbVisualStyle
  3
ObjectDBX Classes
 90
     4095
 91
        4
280
     0
281
     0
  0
CLASS
  1
MATERIAL
  2
AcDbMaterial
  3
ObjectDBX Classes
 90
     1153
 91
        4
280
     0
281
     0
  0
CLASS
  1
SCALE
  2
AcDbScale
  3
ObjectDBX Classes
 90
     1153
 91
        4
280
     0
281
     0
  0
CLASS
  1
TABLESTYLE
  2
AcDbTableStyle
  3
ObjectDBX Classes
 90
     4095
 91
        4
280
     0
281
     0
  0
CLASS
  1
MLEADERSTYLE
  2
AcDbMLeaderStyle
  3
ACDB_MLEADERSTYLE_CLASS
 90
     4095
 91
        4
280
     0
281
     0
  0
CLASS
  1
SUN
  2
AcDbSun
  3
SCENEOE
 90
     1153
 91
        4
280
     0
281
     0
  0
CLASS
  1
DICTIONARYVAR
  2
AcDbDictionaryVar
  3
ObjectDBX Classes
 90
        0
 91
        4
280
     0
281
     0
  0
CLASS
  1
CELLSTYLEMAP
  2
AcDbCellStyleMap
  3
ObjectDBX Classes
 90
     1152
 91
        4
280
     0
281
     0
  0
ENDSEC
  0
SECTION
  2
TABLES
  0
TABLE
  2
VPORT
  5
8
102
{ACAD_XDICTIONARY
360
325
102
}
330
0
100
AcDbSymbolTable
 70
     1
  0
VPORT
  5
29
330
8
100
AcDbSymbolTableRecord
100
AcDbViewportTableRecord
  2
*Active
 70
     0
 10
0.0
 20
0.0
 11
1.0
 21
1.0
 12
0.0
 22
0.0
 13
0.0
 23
0.0
 14
10.0
 24
10.0
 15
10.0
 25
10.0
 16
0.0
 26
0.0
 36
1.0
 17
0.0
 27
0.0
 37
0.0
 40
1633.5
 41
1.414141414141414
 42
50.0
 43
0.0
 44
0.0
 50
0.0
 51
0.0
 71
     0
 72
 10000
 73
     1
 74
     3
 75
     0
 76
     0
 77
     0
 78
     0
281
     0
 65
     1
110
0.0
120
0.0
130
0.0
111
1.0
121
0.0
131
0.0
112
0.0
122
1.0
132
0.0
 79
     0
146
0.0
  0
ENDTAB
  0
TABLE
  2
LTYPE
  5
5
330
0
100
AcDbSymbolTable
 70
     4
  0
LTYPE
  5
14
330
5
100
AcDbSymbolTableRecord
100
AcDbLinetypeTableRecord
  2
ByBlock
 70
     0
  3

 72
    65
 73
     0
 40
0.0
  0
LTYPE
  5
15
330
5
100
AcDbSymbolTableRecord
100
AcDbLinetypeTableRecord
  2
ByLayer
 70
     0
  3

 72
    65
 73
     0
 40
0.0
  0
LTYPE
  5
16
330
5
100
AcDbSymbolTableRecord
100
AcDbLinetypeTableRecord
  2
Continuous
 70
     0
  3
Solid line
 72
    65
 73
     0
 40
0.0
  0
LTYPE
  5
6F
330
5
100
AcDbSymbolTableRecord
100
AcDbLinetypeTableRecord
  2
JWW_CENTER2
 70
     0
  3
-------------  --  -------------
 72
    65
 73
     4
 40
13.54666666666667
 49
11.00666666666667
 74
     0
 49
-0.8466666666666667
 74
     0
 49
0.8466666666666667
 74
     0
 49
-0.8466666666666667
 74
     0
  0
LTYPE
  5
70
330
5
100
AcDbSymbolTableRecord
100
AcDbLinetypeTableRecord
  2
JWW_DASHED3
 70
     0
  3
---  ------  ------  ------  ---
 72
    65
 73
     2
 40
3.386666666666667
 49
2.54
 74
     0
 49
-0.8466666666666667
 74
     0
  0
LTYPE
  5
71
330
5
100
AcDbSymbolTableRecord
100
AcDbLinetypeTableRecord
  2
JWW_CENTER1
 70
     0
  3
-----  --  ----------  --  -----
 72
    65
 73
     4
 40
6.773333333333333
 49
4.233333333333333
 74
     0
 49
-0.8466666666666667
 74
     0
 49
0.8466666666666667
 74
     0
 49
-0.8466666666666667
 74
     0
  0
ENDTAB
  0
TABLE
  2
LAYER
  5
2
330
0
100
AcDbSymbolTable
 70
     8
  0
LAYER
  5
10
330
2
100
AcDbSymbolTableRecord
100
AcDbLayerTableRecord
  2
0
 70
     0
 62
     7
  6
Continuous
370
    -3
390
F
  0
LAYER
  5
72
330
2
100
AcDbSymbolTableRecord
100
AcDbLayerTableRecord
  2
F-5ﾚｲﾔ
 70
     0
 62
     7
  6
Continuous
370
    -3
390
F
  0
LAYER
  5
73
330
2
100
AcDbSymbolTableRecord
100
AcDbLayerTableRecord
  2
F-4ﾚｲﾔ
 70
     0
 62
     7
  6
Continuous
370
    -3
390
F
  0
LAYER
  5
74
330
2
100
AcDbSymbolTableRecord
100
AcDbLayerTableRecord
  2
B-4
 70
     0
 62
     7
  6
Continuous
370
    -3
390
F
  0
LAYER
  5
75
330
2
100
AcDbSymbolTableRecord
100
AcDbLayerTableRecord
  2
B-5
 70
     0
 62
     7
  6
Continuous
370
    -3
390
F
  0
LAYER
  5
76
330
2
100
AcDbSymbolTableRecord
100
AcDbLayerTableRecord
  2
B-1
 70
     0
 62
     7
  6
Continuous
370
    -3
390
F
  0
LAYER
  5
77
330
2
100
AcDbSymbolTableRecord
100
AcDbLayerTableRecord
  2
B-2
 70
     0
 62
     7
  6
Continuous
370
    -3
390
F
  0
LAYER
  5
78
330
2
100
AcDbSymbolTableRecord
100
AcDbLayerTableRecord
  2
B-8
 70
     0
 62
     7
  6
Continuous
370
    -3
390
F
  0
ENDTAB
  0
TABLE
  2
STYLE
  5
3
330
0
100
AcDbSymbolTable
 70
     2
  0
STYLE
  5
11
330
3
100
AcDbSymbolTableRecord
100
AcDbTextStyleTableRecord
  2
Standard
 70
     0
 40
0.0
 41
1.0
 50
0.0
 71
     0
 42
2.5
  3
txt
  4

  0
STYLE
  5
6E
330
3
100
AcDbSymbolTableRecord
100
AcDbTextStyleTableRecord
  2
ＭＳ ゴシック
 70
     0
 40
1.0
 41
1.0
 50
0.0
 71
     0
 42
2.5
  3

  4

1001
ACAD
1000
MS Gothic
1071
    32817
  0
ENDTAB
  0
TABLE
  2
VIEW
  5
6
330
0
100
AcDbSymbolTable
 70
     0
  0
ENDTAB
  0
TABLE
  2
UCS
  5
7
330
0
100
AcDbSymbolTable
 70
     0
  0
ENDTAB
  0
TABLE
  2
APPID
  5
9
330
0
100
AcDbSymbolTable
 70
     2
  0
APPID
  5
12
330
9
100
AcDbSymbolTableRecord
100
AcDbRegAppTableRecord
  2
ACAD
 70
     0
  0
APPID
  5
364
330
9
100
AcDbSymbolTableRecord
100
AcDbRegAppTableRecord
  2
ACAD_MLEADERVER
 70
     0
  0
ENDTAB
  0
TABLE
  2
DIMSTYLE
  5
A
330
0
100
AcDbSymbolTable
 70
     1
100
AcDbDimStyleTable
  0
DIMSTYLE
105
27
330
A
100
AcDbSymbolTableRecord
100
AcDbDimStyleTableRecord
  2
ISO-25
 70
     0
 41
2.5
 42
0.625
 43
3.75
 44
1.25
 73
     0
 74
     0
 77
     1
 78
     8
140
2.5
141
2.5
143
0.03937007874016
147
0.625
171
     3
172
     1
178
     0
271
     2
272
     2
274
     3
278
    44
283
     0
284
     8
340
11
  0
ENDTAB
  0
TABLE
  2
BLOCK_RECORD
  5
1
330
0
100
AcDbSymbolTable
 70
     1
  0
BLOCK_RECORD
  5
1F
330
1
100
AcDbSymbolTableRecord
100
AcDbBlockTableRecord
  2
*Model_Space
340
22
  0
BLOCK_RECORD
  5
1B
330
1
100
AcDbSymbolTableRecord
100
AcDbBlockTableRecord
  2
*Paper_Space
340
1E
  0
BLOCK_RECORD
  5
23
330
1
100
AcDbSymbolTableRecord
100
AcDbBlockTableRecord
  2
*Paper_Space0
340
26
  0
ENDTAB
  0
ENDSEC
  0
SECTION
  2
BLOCKS
  0
BLOCK
  5
20
330
1F
100
AcDbEntity
  8
0
100
AcDbBlockBegin
  2
*Model_Space
 70
     0
 10
0.0
 20
0.0
 30
0.0
  3
*Model_Space
  1

  0
ENDBLK
  5
21
330
1F
100
AcDbEntity
  8
0
100
AcDbBlockEnd
  0
BLOCK
  5
1C
330
1B
100
AcDbEntity
 67
     1
  8
0
100
AcDbBlockBegin
  2
*Paper_Space
 70
     0
 10
0.0
 20
0.0
 30
0.0
  3
*Paper_Space
  1

  0
ENDBLK
  5
1D
330
1B
100
AcDbEntity
 67
     1
  8
0
100
AcDbBlockEnd
  0
BLOCK
  5
24
330
23
100
AcDbEntity
  8
0
100
AcDbBlockBegin
  2
*Paper_Space0
 70
     0
 10
0.0
 20
0.0
 30
0.0
  3
*Paper_Space0
  1

  0
ENDBLK
  5
25
330
23
100
AcDbEntity
  8
0
100
AcDbBlockEnd
  0
ENDSEC
  0
SECTION
  2
ENTITIES
  0
TEXT
  5
79
330
1F
100
AcDbEntity
  8
F-5ﾚｲﾔ
  6
Continuous
 62
     2
370
     9
100
AcDbText
 10
-426.1880709347506
 20
-661.4726690346383
 30
0.0
 40
15.24
  1
スチール製グレーチング　１８０度開閉式　プレーンタイプ
 41
0.899074074074074
  7
ＭＳ ゴシック
100
AcDbText
  0
TEXT
  5
7A
330
1F
100
AcDbEntity
  8
F-5ﾚｲﾔ
  6
Continuous
 62
     2
370
     9
100
AcDbText
 10
-39.90464966007337
 20
-687.4397846515358
 30
0.0
 40
15.24
  1
集水桝用　ＨＳＰ　７５７５
 41
0.8980769230769232
  7
ＭＳ ゴシック
100
AcDbText
  0
LINE
  5
7B
330
1F
100
AcDbEntity
  8
F-4ﾚｲﾔ
  6
Continuous
 62
     2
370
     9
100
AcDbLine
 10
270.3727448252243
 20
-328.7936850873291
 30
0.0
 11
270.3727448252243
 21
-303.7932933076099
 31
0.0
  0
LINE
  5
7C
330
1F
100
AcDbEntity
  8
F-4ﾚｲﾔ
  6
Continuous
 62
     2
370
     9
100
AcDbLine
 10
270.3727448252243
 20
-303.7932933076099
 30
0.0
 11
382.8724973854019
 21
-303.7932933076099
 31
0.0
  0
LINE
  5
7D
330
1F
100
AcDbEntity
  8
F-4ﾚｲﾔ
  6
Continuous
 62
     2
370
     9
100
AcDbLine
 10
382.8724973854019
 20
-303.7932933076099
 30
0.0
 11
382.8724973854019
 21
-328.7936850873291
 31
0.0
  0
LINE
  5
7E
330
1F
100
AcDbEntity
  8
F-4ﾚｲﾔ
  6
Continuous
 62
     2
370
     9
100
AcDbLine
 10
382.8724973854019
 20
-328.7936850873291
 30
0.0
 11
270.3727448252243
 21
-328.7936850873291
 31
0.0
  0
TEXT
  5
7F
330
1F
100
AcDbEntity
  8
F-4ﾚｲﾔ
  6
Continuous
 62
     2
370
     9
100
AcDbText
 10
294.1226211053131
 20
-323.4735531194237
 30
0.0
 40
15.24
  1
仕　様
 41
1.083333333333333
  7
ＭＳ ゴシック
100
AcDbText
  0
TEXT
  5
80
330
1F
100
AcDbEntity
  8
F-4ﾚｲﾔ
  6
Continuous
 62
     2
370
     9
100
AcDbText
 10
321.4174728723634
 20
-354.9338563486783
 30
0.0
 40
15.24
  1
スチール製グレーチング　１８０度開閉式　プレーンタイプ
 41
1.12037037037037
  7
ＭＳ ゴシック
100
AcDbText
  0
TEXT
  5
81
330
1F
100
AcDbEntity
  8
F-4ﾚｲﾔ
  6
Continuous
 62
     2
370
     9
100
AcDbText
 10
351.2734257796163
 20
-409.9588812916711
 30
0.0
 40
15.24
  1
材質：ＳＳ４００
 41
1.109375000000001
  7
ＭＳ ゴシック
100
AcDbText
  0
TEXT
  5
82
330
1F
100
AcDbEntity
  8
F-4ﾚｲﾔ
  6
Continuous
 62
     2
370
     9
100
AcDbText
 10
351.2734381516075
 20
-437.4594050392956
 30
0.0
 40
15.24
  1
処理：溶融亜鉛めっき
 41
1.1125
  7
ＭＳ ゴシック
100
AcDbText
  0
TEXT
  5
83
330
1F
100
AcDbEntity
  8
F-4ﾚｲﾔ
  6
Continuous
 62
     2
370
     9
100
AcDbText
 10
351.273673219439
 20
-524.9596937190887
 30
0.0
 40
15.24
  1
材質：ＳＳ４００
 41
1.109374999999999
  7
ＭＳ ゴシック
100
AcDbText
  0
TEXT
  5
84
330
1F
100
AcDbEntity
  8
F-4ﾚｲﾔ
  6
Continuous
 62
     2
370
     9
100
AcDbText
 10
351.2736855914301
 20
-552.4596607271124
 30
0.0
 40
15.24
  1
処理：樹脂系塗装
 41
1.109374999999999
  7
ＭＳ ゴシック
100
AcDbText
  0
TEXT
  5
85
330
1F
100
AcDbEntity
  8
F-4ﾚｲﾔ
  6
Continuous
 62
     2
370
     9
100
AcDbText
 10
321.4174728723634
 20
-379.3070726955621
 30
0.0
 40
15.24
  1
集水桝用　ＨＳＰ　７５７５
 41
1.115384615384615
  7
ＭＳ ゴシック
100
AcDbText
  0
TEXT
  5
86
330
1F
100
AcDbEntity
  8
F-4ﾚｲﾔ
  6
Continuous
 62
     2
370
     9
100
AcDbText
 10
321.4179801239997
 20
-497.4596648511094
 30
0.0
 40
15.24
  1
スチール製受枠　Ｌ－７５（二方受四方枠）
 41
1.11875
  7
ＭＳ ゴシック
100
AcDbText
  0
LWPOLYLINE
  5
87
330
1F
100
AcDbEntity
  8
B-4
  6
Continuous
 62
     7
370
     9
100
AcDbPolyline
 90
        4
 70
     1
 43
1.0
 10
-867.5687109188432
 20
575.6371201177627
 42
0.4142135623731
 10
-868.0687109188432
 20
576.1371201177626
 42
0.4142135623731
 10
-868.5687109188432
 20
575.6371201177627
 42
0.4142135623731
 10
-868.0687109188432
 20
575.1371201177627
 42
0.4142135623731
  0
LWPOLYLINE
  5
88
330
1F
100
AcDbEntity
  8
B-4
  6
Continuous
 62
     7
370
     9
100
AcDbPolyline
 90
        4
 70
     1
 43
1.0
 10
-601.0687843259905
 20
575.6371201177627
 42
0.4142135623731
 10
-601.5687843259905
 20
576.1371201177626
 42
0.4142135623731
 10
-602.0687843259905
 20
575.6371201177627
 42
0.4142135623731
 10
-601.5687843259905
 20
575.1371201177627
 42
0.4142135623731
  0
LWPOLYLINE
  5
89
330
1F
100
AcDbEntity
  8
B-4
  6
Continuous
 62
     7
370
     9
100
AcDbPolyline
 90
        4
 70
     1
 43
1.0
 10
-334.5687340132265
 20
575.6371201177627
 42
0.4142135623731
 10
-335.0687340132265
 20
576.1371201177626
 42
0.4142135623731
 10
-335.5687340132265
 20
575.6371201177627
 42
0.4142135623731
 10
-335.0687340132265
 20
575.1371201177627
 42
0.4142135623731
  0
LWPOLYLINE
  5
8A
330
1F
100
AcDbEntity
  8
B-4
  6
Continuous
 62
     7
370
     9
100
AcDbPolyline
 90
        4
 70
     1
 43
1.0
 10
-813.1683235930409
 20
540.5397607955499
 42
0.4142135623731
 10
-813.6683235930409
 20
541.0397607955499
 42
0.4142135623731
 10
-814.1683235930408
 20
540.5397607955499
 42
0.4142135623731
 10
-813.6683235930409
 20
540.0397607955499
 42
0.4142135623731
  0
LWPOLYLINE
  5
8B
330
1F
100
AcDbEntity
  8
B-4
  6
Continuous
 62
     7
370
     9
100
AcDbPolyline
 90
        4
 70
     1
 43
1.0
 10
-777.8681254762228
 20
540.5397607955499
 42
0.4142135623731
 10
-778.3681254762228
 20
541.0397607955499
 42
0.4142135623731
 10
-778.8681254762228
 20
540.5397607955499
 42
0.4142135623731
 10
-778.3681254762228
 20
540.0397607955499
 42
0.4142135623731
  0
LINE
  5
8C
330
1F
100
AcDbEntity
  8
B-5
  6
Continuous
 62
     7
370
     9
100
AcDbLine
 10
120.7710932407852
 20
641.8000542921715
 30
0.0
 11
251.0565728121535
 21
641.8000542921715
 31
0.0
  0
LINE
  5
8D
330
1F
100
AcDbEntity
  8
B-4
  6
Continuous
 62
     7
370
     9
100
AcDbLine
 10
77.78955884994917
 20
512.4830541865972
 30
0.0
 11
80.15013475788837
 21
524.7580489078811
 31
0.0
  0
LINE
  5
8E
330
1F
100
AcDbEntity
  8
B-4
  6
Continuous
 62
     7
370
     9
100
AcDbLine
 10
77.78955884994917
 20
512.4830541865972
 30
0.0
 11
83.24672041825582
 21
523.7286992457188
 31
0.0
  0
LINE
  5
8F
330
1F
100
AcDbEntity
  8
B-4
  6
Continuous
 62
     7
370
     9
100
AcDbLine
 10
162.4164525893918
 20
529.090225322577
 30
0.0
 11
165.4708497599998
 21
541.2113124741817
 31
0.0
  0
LINE
  5
90
330
1F
100
AcDbEntity
  8
B-4
  6
Continuous
 62
     7
370
     9
100
AcDbLine
 10
162.4164525893918
 20
529.090225322577
 30
0.0
 11
168.5038433859501
 21
540.0077651768844
 31
0.0
  0
LINE
  5
91
330
1F
100
AcDbEntity
  8
B-1
  6
Continuous
 62
     2
370
     9
100
AcDbLine
 10
148.6339307487035
 20
512.4833016264198
 30
0.0
 11
67.6340099294467
 21
512.4833016264198
 31
0.0
  0
LINE
  5
92
330
1F
100
AcDbEntity
  8
B-1
  6
Continuous
 62
     2
370
     9
100
AcDbLine
 10
118.6339554926858
 20
512.4833016264198
 30
0.0
 11
118.6339554926858
 21
521.4834302951276
 31
0.0
  0
LINE
  5
93
330
1F
100
AcDbEntity
  8
B-1
  6
Continuous
 62
     2
370
     9
100
AcDbLine
 10
132.4491393899618
 20
521.4834302951276
 30
0.0
 11
118.6339554926858
 21
521.4834302951276
 31
0.0
  0
LINE
  5
94
330
1F
100
AcDbEntity
  8
B-1
  6
Continuous
 62
     2
370
     9
100
AcDbLine
 10
137.1078126506248
 20
513.0967049467323
 30
0.0
 11
195.2986068994636
 21
528.6888779302628
 31
0.0
  0
LINE
  5
95
330
1F
100
AcDbEntity
  8
B-1
  6
Continuous
 62
     2
370
     9
100
AcDbLine
 10
134.778537880249
 20
521.7900082353726
 30
0.0
 11
192.9692084091764
 21
537.3821812189029
 31
0.0
  0
LINE
  5
96
330
1F
100
AcDbEntity
  8
B-1
  6
JWW_CENTER2
 62
     2
370
     9
100
AcDbLine
 10
132.4490156700506
 20
516.9833659607738
 30
0.0
 11
114.8290733400251
 21
516.9833659607738
 31
0.0
  0
LINE
  5
97
330
1F
100
AcDbEntity
  8
B-1
  6
JWW_CENTER2
 62
     2
370
     9
100
AcDbLine
 10
135.9431134054813
 20
517.4433565910524
 30
0.0
 11
201.1097311340498
 21
534.9046899947687
 31
0.0
  0
LINE
  5
98
330
1F
100
AcDbEntity
  8
B-1
  6
Continuous
 62
     2
370
     9
100
AcDbLine
 10
148.6339307487035
 20
512.4833016264198
 30
0.0
 11
148.6339307487035
 21
452.4834748342956
 31
0.0
  0
LINE
  5
99
330
1F
100
AcDbEntity
  8
B-1
  6
Continuous
 62
     2
370
     9
100
AcDbLine
 10
70.63397033907509
 20
506.4833808071631
 30
0.0
 11
137.6339934334584
 21
506.4833808071631
 31
0.0
  0
LINE
  5
9A
330
1F
100
AcDbEntity
  8
B-1
  6
Continuous
 62
     2
370
     9
100
AcDbLine
 10
67.6340099294467
 20
509.4833412167915
 30
0.0
 11
67.6340099294467
 21
512.4833016264198
 31
0.0
  0
LINE
  5
9B
330
1F
100
AcDbEntity
  8
B-1
  6
Continuous
 62
     2
370
     9
100
AcDbLine
 10
145.6339703390751
 20
452.4834748342956
 30
0.0
 11
148.6339307487035
 21
452.4834748342956
 31
0.0
  0
LINE
  5
9C
330
1F
100
AcDbEntity
  8
B-1
  6
Continuous
 62
     2
370
     9
100
AcDbLine
 10
142.6340099294467
 20
455.483435243924
 30
0.0
 11
142.6340099294467
 21
501.4834880310863
 31
0.0
  0
LINE
  5
9D
330
1F
100
AcDbEntity
  8
B-4
  6
Continuous
 62
     7
370
     9
100
AcDbLine
 10
120.7710932407852
 20
641.8000542921715
 30
0.0
 11
77.7896825698605
 21
512.4833016264198
 31
0.0
  0
LINE
  5
9E
330
1F
100
AcDbEntity
  8
B-1
  6
Continuous
 62
     2
370
     9
100
AcDbLine
 10
148.6339307487035
 20
-307.5165890876585
 30
0.0
 11
67.6340099294467
 21
-307.5165890876585
 31
0.0
  0
LINE
  5
9F
330
1F
100
AcDbEntity
  8
B-1
  6
Continuous
 62
     2
370
     9
100
AcDbLine
 10
118.6339554926858
 20
-307.5165890876585
 30
0.0
 11
118.6339554926858
 21
-316.5167177563663
 31
0.0
  0
LINE
  5
A0
330
1F
100
AcDbEntity
  8
B-1
  6
Continuous
 62
     2
370
     9
100
AcDbLine
 10
132.4491393899618
 20
-316.5167177563663
 30
0.0
 11
118.6339554926858
 21
-316.5167177563663
 31
0.0
  0
LINE
  5
A1
330
1F
100
AcDbEntity
  8
B-1
  6
Continuous
 62
     2
370
     9
100
AcDbLine
 10
137.1078126506248
 20
-308.129992407971
 30
0.0
 11
195.2986068994636
 21
-323.7221653915014
 31
0.0
  0
LINE
  5
A2
330
1F
100
AcDbEntity
  8
B-1
  6
Continuous
 62
     2
370
     9
100
AcDbLine
 10
134.778537880249
 20
-316.8232956966112
 30
0.0
 11
192.9692084091764
 21
-332.4154686801416
 31
0.0
  0
LINE
  5
A3
330
1F
100
AcDbEntity
  8
B-1
  6
JWW_CENTER2
 62
     2
370
     9
100
AcDbLine
 10
132.4490156700506
 20
-312.0166534220124
 30
0.0
 11
114.8290733400251
 21
-312.0166534220124
 31
0.0
  0
LINE
  5
A4
330
1F
100
AcDbEntity
  8
B-1
  6
JWW_CENTER2
 62
     2
370
     9
100
AcDbLine
 10
135.9431134054813
 20
-312.4766440522911
 30
0.0
 11
201.1097311340498
 21
-329.9379774560074
 31
0.0
  0
LINE
  5
A5
330
1F
100
AcDbEntity
  8
B-1
  6
Continuous
 62
     2
370
     9
100
AcDbLine
 10
148.6339307487035
 20
-307.5165890876585
 30
0.0
 11
148.6339307487035
 21
-247.5167622955344
 31
0.0
  0
LINE
  5
A6
330
1F
100
AcDbEntity
  8
B-1
  6
Continuous
 62
     2
370
     9
100
AcDbLine
 10
70.63397033907509
 20
-301.5166682684018
 30
0.0
 11
137.6339934334584
 21
-301.5166682684018
 31
0.0
  0
LINE
  5
A7
330
1F
100
AcDbEntity
  8
B-1
  6
Continuous
 62
     2
370
     9
100
AcDbLine
 10
67.6340099294467
 20
-304.5166286780301
 30
0.0
 11
67.6340099294467
 21
-307.5165890876585
 31
0.0
  0
LINE
  5
A8
330
1F
100
AcDbEntity
  8
B-1
  6
Continuous
 62
     2
370
     9
100
AcDbLine
 10
145.6339703390751
 20
-247.5167622955344
 30
0.0
 11
148.6339307487035
 21
-247.5167622955344
 31
0.0
  0
LINE
  5
A9
330
1F
100
AcDbEntity
  8
B-1
  6
Continuous
 62
     2
370
     9
100
AcDbLine
 10
142.6340099294467
 20
-250.5167227051628
 30
0.0
 11
142.6340099294467
 21
-296.5167754923249
 31
0.0
  0
LINE
  5
AA
330
1F
100
AcDbEntity
  8
B-1
  6
JWW_DASHED3
 62
     2
370
     9
100
AcDbLine
 10
-862.0687282396307
 20
452.4832273944731
 30
0.0
 11
-341.0687785523946
 21
452.4832273944731
 31
0.0
  0
LINE
  5
AB
330
1F
100
AcDbEntity
  8
B-1
  6
JWW_DASHED3
 62
     2
370
     9
100
AcDbLine
 10
-341.0687785523946
 20
-247.51682415549
 30
0.0
 11
-862.0687282396307
 21
-247.51682415549
 31
0.0
  0
LINE
  5
AC
330
1F
100
AcDbEntity
  8
B-4
  6
Continuous
 62
     7
370
     9
100
AcDbLine
 10
-868.0687109188432
 20
575.6371201177627
 30
0.0
 11
-543.0687521588135
 21
575.6371201177627
 31
0.0
  0
LINE
  5
AD
330
1F
100
AcDbEntity
  8
B-4
  6
Continuous
 62
     7
370
     9
100
AcDbLine
 10
-868.0687109188432
 20
519.9833263704021
 30
0.0
 11
-868.0687109188432
 21
577.137100322577
 31
0.0
  0
LINE
  5
AE
330
1F
100
AcDbEntity
  8
B-4
  6
Continuous
 62
     7
370
     9
100
AcDbLine
 10
-601.5687843259905
 20
540.5836813640676
 30
0.0
 11
-601.5687843259905
 21
577.137100322577
 31
0.0
  0
LINE
  5
AF
330
1F
100
AcDbEntity
  8
B-4
  6
Continuous
 62
     7
370
     9
100
AcDbLine
 10
-543.0687521588135
 20
575.6371201177627
 30
0.0
 11
-335.0687340132265
 21
575.6371201177627
 31
0.0
  0
LINE
  5
B0
330
1F
100
AcDbEntity
  8
B-4
  6
Continuous
 62
     7
370
     9
100
AcDbLine
 10
-335.0687340132265
 20
519.9833263704021
 30
0.0
 11
-335.0687340132265
 21
577.137100322577
 31
0.0
  0
LINE
  5
B1
330
1F
100
AcDbEntity
  8
B-2
  6
Continuous
 62
     3
370
     9
100
AcDbLine
 10
-845.0681896456167
 20
305.983263685647
 30
0.0
 11
-845.0681896456167
 21
394.9842748897222
 31
0.0
  0
LINE
  5
B2
330
1F
100
AcDbEntity
  8
B-2
  6
Continuous
 62
     3
370
     9
100
AcDbLine
 10
-845.0681896456167
 20
405.9837173253219
 30
0.0
 11
-845.0681896456167
 21
490.9833791575642
 31
0.0
  0
LINE
  5
B3
330
1F
100
AcDbEntity
  8
B-2
  6
Continuous
 62
     3
370
     9
100
AcDbLine
 10
-358.0696264461868
 20
490.9833791575642
 30
0.0
 11
-358.0696264461868
 21
405.9837173253219
 31
0.0
  0
LINE
  5
B4
330
1F
100
AcDbEntity
  8
B-2
  6
Continuous
 62
     3
370
     9
100
AcDbLine
 10
-358.0696264461868
 20
394.9842748897222
 30
0.0
 11
-358.0696264461868
 21
305.983263685647
 31
0.0
  0
LINE
  5
B5
330
1F
100
AcDbEntity
  8
B-2
  6
Continuous
 62
     3
370
     9
100
AcDbLine
 10
-640.6679260397257
 20
490.9833791575642
 30
0.0
 11
-640.6679260397257
 21
405.9837173253219
 31
0.0
  0
LINE
  5
B6
330
1F
100
AcDbEntity
  8
B-2
  6
Continuous
 62
     3
370
     9
100
AcDbLine
 10
-633.6679153173334
 20
490.9833791575642
 30
0.0
 11
-633.6679153173334
 21
405.9837173253219
 31
0.0
  0
LINE
  5
B7
330
1F
100
AcDbEntity
  8
B-2
  6
Continuous
 62
     3
370
     9
100
AcDbLine
 10
-640.6679260397257
 20
394.9842748897222
 30
0.0
 11
-640.6679260397257
 21
305.983263685647
 31
0.0
  0
LINE
  5
B8
330
1F
100
AcDbEntity
  8
B-2
  6
Continuous
 62
     3
370
     9
100
AcDbLine
 10
-633.6679153173334
 20
394.9842748897222
 30
0.0
 11
-633.6679153173334
 21
305.983263685647
 31
0.0
  0
LINE
  5
B9
330
1F
100
AcDbEntity
  8
B-2
  6
Continuous
 62
     3
370
     9
100
AcDbLine
 10
-675.968062296588
 20
490.9833791575642
 30
0.0
 11
-675.968062296588
 21
405.9837173253219
 31
0.0
  0
LINE
  5
BA
330
1F
100
AcDbEntity
  8
B-2
  6
Continuous
 62
     3
370
     9
100
AcDbLine
 10
-668.9681134341514
 20
490.9833791575642
 30
0.0
 11
-668.9681134341514
 21
405.9837173253219
 31
0.0
  0
LINE
  5
BB
330
1F
100
AcDbEntity
  8
B-2
  6
Continuous
 62
     3
370
     9
100
AcDbLine
 10
-675.968062296588
 20
394.9842748897222
 30
0.0
 11
-675.968062296588
 21
305.983263685647
 31
0.0
  0
LINE
  5
BC
330
1F
100
AcDbEntity
  8
B-2
  6
Continuous
 62
     3
370
     9
100
AcDbLine
 10
-668.9681134341514
 20
394.9842748897222
 30
0.0
 11
-668.9681134341514
 21
305.983263685647
 31
0.0
  0
LINE
  5
BD
330
1F
100
AcDbEntity
  8
B-2
  6
Continuous
 62
     3
370
     9
100
AcDbLine
 10
-711.2682604134061
 20
490.9833791575642
 30
0.0
 11
-711.2682604134061
 21
405.9837173253219
 31
0.0
  0
LINE
  5
BE
330
1F
100
AcDbEntity
  8
B-2
  6
Continuous
 62
     3
370
     9
100
AcDbLine
 10
-704.2682496910136
 20
490.9833791575642
 30
0.0
 11
-704.2682496910136
 21
405.9837173253219
 31
0.0
  0
LINE
  5
BF
330
1F
100
AcDbEntity
  8
B-2
  6
Continuous
 62
     3
370
     9
100
AcDbLine
 10
-711.2682604134061
 20
394.9842748897222
 30
0.0
 11
-711.2682604134061
 21
305.983263685647
 31
0.0
  0
LINE
  5
C0
330
1F
100
AcDbEntity
  8
B-2
  6
Continuous
 62
     3
370
     9
100
AcDbLine
 10
-704.2682496910136
 20
394.9842748897222
 30
0.0
 11
-704.2682496910136
 21
305.983263685647
 31
0.0
  0
LINE
  5
C1
330
1F
100
AcDbEntity
  8
B-2
  6
Continuous
 62
     3
370
     9
100
AcDbLine
 10
-746.567901790623
 20
490.9833791575642
 30
0.0
 11
-746.567901790623
 21
405.9837173253219
 31
0.0
  0
LINE
  5
C2
330
1F
100
AcDbEntity
  8
B-2
  6
Continuous
 62
     3
370
     9
100
AcDbLine
 10
-739.5679529281864
 20
490.9833791575642
 30
0.0
 11
-739.5679529281864
 21
405.9837173253219
 31
0.0
  0
LINE
  5
C3
330
1F
100
AcDbEntity
  8
B-2
  6
Continuous
 62
     3
370
     9
100
AcDbLine
 10
-746.567901790623
 20
394.9842748897222
 30
0.0
 11
-746.567901790623
 21
305.983263685647
 31
0.0
  0
LINE
  5
C4
330
1F
100
AcDbEntity
  8
B-2
  6
Continuous
 62
     3
370
     9
100
AcDbLine
 10
-739.5679529281864
 20
394.9842748897222
 30
0.0
 11
-739.5679529281864
 21
305.983263685647
 31
0.0
  0
LINE
  5
C5
330
1F
100
AcDbEntity
  8
B-2
  6
Continuous
 62
     3
370
     9
100
AcDbLine
 10
-781.8680999074411
 20
490.9833791575642
 30
0.0
 11
-781.8680999074411
 21
405.9837173253219
 31
0.0
  0
LINE
  5
C6
330
1F
100
AcDbEntity
  8
B-2
  6
Continuous
 62
     3
370
     9
100
AcDbLine
 10
-774.8681510450045
 20
490.9833791575642
 30
0.0
 11
-774.8681510450045
 21
405.9837173253219
 31
0.0
  0
LINE
  5
C7
330
1F
100
AcDbEntity
  8
B-2
  6
Continuous
 62
     3
370
     9
100
AcDbLine
 10
-781.8680999074411
 20
394.9842748897222
 30
0.0
 11
-781.8680999074411
 21
305.983263685647
 31
0.0
  0
LINE
  5
C8
330
1F
100
AcDbEntity
  8
B-2
  6
Continuous
 62
     3
370
     9
100
AcDbLine
 10
-774.8681510450045
 20
394.9842748897222
 30
0.0
 11
-774.8681510450045
 21
305.983263685647
 31
0.0
  0
LINE
  5
C9
330
1F
100
AcDbEntity
  8
B-2
  6
Continuous
 62
     3
370
     9
100
AcDbLine
 10
-817.1683598842149
 20
490.9833791575642
 30
0.0
 11
-817.1683598842149
 21
405.9837173253219
 31
0.0
  0
LINE
  5
CA
330
1F
100
AcDbEntity
  8
B-2
  6
Continuous
 62
     3
370
     9
100
AcDbLine
 10
-810.1682873018667
 20
490.9833791575642
 30
0.0
 11
-810.1682873018667
 21
405.9837173253219
 31
0.0
  0
LINE
  5
CB
330
1F
100
AcDbEntity
  8
B-2
  6
Continuous
 62
     3
370
     9
100
AcDbLine
 10
-817.1683598842149
 20
394.9842748897222
 30
0.0
 11
-817.1683598842149
 21
305.983263685647
 31
0.0
  0
LINE
  5
CC
330
1F
100
AcDbEntity
  8
B-2
  6
Continuous
 62
     3
370
     9
100
AcDbLine
 10
-810.1682873018667
 20
394.9842748897222
 30
0.0
 11
-810.1682873018667
 21
305.983263685647
 31
0.0
  0
LINE
  5
CD
330
1F
100
AcDbEntity
  8
B-2
  6
Continuous
 62
     3
370
     9
100
AcDbLine
 10
-845.0681896456167
 20
394.9842748897222
 30
0.0
 11
-810.1682873018667
 21
405.9837173253219
 31
0.0
  0
LINE
  5
CE
330
1F
100
AcDbEntity
  8
B-2
  6
Continuous
 62
     3
370
     9
100
AcDbLine
 10
-809.7679296688432
 20
394.9842748897222
 30
0.0
 11
-774.8685840646941
 21
405.9837173253219
 31
0.0
  0
LINE
  5
CF
330
1F
100
AcDbEntity
  8
B-2
  6
Continuous
 62
     3
370
     9
100
AcDbLine
 10
-774.4682882916261
 20
394.9842748897222
 30
0.0
 11
-739.5683859478761
 21
405.9837173253219
 31
0.0
  0
LINE
  5
D0
330
1F
100
AcDbEntity
  8
B-2
  6
Continuous
 62
     3
370
     9
100
AcDbLine
 10
-739.1680901748082
 20
394.9842748897222
 30
0.0
 11
-704.2682496910136
 21
405.9837173253219
 31
0.0
  0
LINE
  5
D1
330
1F
100
AcDbEntity
  8
B-2
  6
Continuous
 62
     3
370
     9
100
AcDbLine
 10
-703.8683869376354
 20
394.9842748897222
 30
0.0
 11
-668.9686083137965
 21
405.9837173253219
 31
0.0
  0
LINE
  5
D2
330
1F
100
AcDbEntity
  8
B-2
  6
Continuous
 62
     3
370
     9
100
AcDbLine
 10
-668.568250680773
 20
394.9842748897222
 30
0.0
 11
-633.6684720569343
 21
405.9837173253219
 31
0.0
  0
LINE
  5
D3
330
1F
100
AcDbEntity
  8
B-2
  6
Continuous
 62
     3
370
     9
100
AcDbLine
 10
-633.2681144239107
 20
394.9842748897222
 30
0.0
 11
-598.3682739401163
 21
405.9837173253219
 31
0.0
  0
LINE
  5
D4
330
1F
100
AcDbEntity
  8
B-2
  6
Continuous
 62
     3
370
     9
100
AcDbLine
 10
-852.0686333876986
 20
403.9027484169603
 30
0.0
 11
-845.4684235587291
 21
405.9837173253219
 31
0.0
  0
LINE
  5
D5
330
1F
100
AcDbEntity
  8
B-2
  6
Continuous
 62
     3
370
     9
100
AcDbLine
 10
-845.0681896456167
 20
-205.0166220796349
 30
0.0
 11
-810.1682873018667
 21
-194.0161898847447
 31
0.0
  0
LINE
  5
D6
330
1F
100
AcDbEntity
  8
B-2
  6
Continuous
 62
     3
370
     9
100
AcDbLine
 10
-809.7679296688432
 20
-205.0166220796349
 30
0.0
 11
-774.8685840646941
 21
-194.0161898847447
 31
0.0
  0
LINE
  5
D7
330
1F
100
AcDbEntity
  8
B-2
  6
Continuous
 62
     3
370
     9
100
AcDbLine
 10
-774.4682882916261
 20
-205.0166220796349
 30
0.0
 11
-739.5683859478761
 21
-194.0161898847447
 31
0.0
  0
LINE
  5
D8
330
1F
100
AcDbEntity
  8
B-2
  6
Continuous
 62
     3
370
     9
100
AcDbLine
 10
-739.1680901748082
 20
-205.0166220796349
 30
0.0
 11
-704.2682496910136
 21
-194.0161898847447
 31
0.0
  0
LINE
  5
D9
330
1F
100
AcDbEntity
  8
B-2
  6
Continuous
 62
     3
370
     9
100
AcDbLine
 10
-703.8683869376354
 20
-205.0166220796349
 30
0.0
 11
-668.9686083137965
 21
-194.0161898847447
 31
0.0
  0
LINE
  5
DA
330
1F
100
AcDbEntity
  8
B-2
  6
Continuous
 62
     3
370
     9
100
AcDbLine
 10
-668.568250680773
 20
-205.0166220796349
 30
0.0
 11
-633.6684720569343
 21
-194.0161898847447
 31
0.0
  0
LINE
  5
DB
330
1F
100
AcDbEntity
  8
B-2
  6
Continuous
 62
     3
370
     9
100
AcDbLine
 10
-633.2681144239107
 20
-205.0166220796349
 30
0.0
 11
-598.3682739401163
 21
-194.0161898847447
 31
0.0
  0
LINE
  5
DC
330
1F
100
AcDbEntity
  8
B-2
  6
Continuous
 62
     3
370
     9
100
AcDbLine
 10
-852.0686333876986
 20
-196.0972825130175
 30
0.0
 11
-845.4684235587291
 21
-194.0161898847447
 31
0.0
  0
LINE
  5
DD
330
1F
100
AcDbEntity
  8
B-2
  6
Continuous
 62
     3
370
     9
100
AcDbLine
 10
-351.0686878244596
 20
-294.5170905656991
 30
0.0
 11
-852.0686333876986
 21
-294.5170905656991
 31
0.0
  0
LINE
  5
DE
330
1F
100
AcDbEntity
  8
B-2
  6
Continuous
 62
     3
370
     9
100
AcDbLine
 10
-351.0686878244596
 20
-290.0172736711679
 30
0.0
 11
-852.0686333876986
 21
-290.0172736711679
 31
0.0
  0
LINE
  5
DF
330
1F
100
AcDbEntity
  8
B-2
  6
Continuous
 62
     3
370
     9
100
AcDbLine
 10
-852.0686333876986
 20
490.9833791575642
 30
0.0
 11
-351.0686878244596
 21
490.9833791575642
 31
0.0
  0
LINE
  5
E0
330
1F
100
AcDbEntity
  8
B-2
  6
Continuous
 62
     3
370
     9
100
AcDbLine
 10
-852.0686333876986
 20
495.4831960520955
 30
0.0
 11
-351.0686878244596
 21
495.4831960520955
 31
0.0
  0
LINE
  5
E1
330
1F
100
AcDbEntity
  8
B-2
  6
Continuous
 62
     3
370
     9
100
AcDbLine
 10
-852.0686333876986
 20
-205.0166220796349
 30
0.0
 11
-351.0686878244596
 21
-205.0166220796349
 31
0.0
  0
LINE
  5
E2
330
1F
100
AcDbEntity
  8
B-2
  6
Continuous
 62
     3
370
     9
100
AcDbLine
 10
-852.0686333876986
 20
405.9837173253219
 30
0.0
 11
-351.0686878244596
 21
405.9837173253219
 31
0.0
  0
LINE
  5
E3
330
1F
100
AcDbEntity
  8
B-2
  6
Continuous
 62
     3
370
     9
100
AcDbLine
 10
-852.0686333876986
 20
-294.5170905656991
 30
0.0
 11
-852.0686333876986
 21
495.4831960520955
 31
0.0
  0
LINE
  5
E4
330
1F
100
AcDbEntity
  8
B-2
  6
Continuous
 62
     3
370
     9
100
AcDbLine
 10
-845.0681896456167
 20
-290.0172736711679
 30
0.0
 11
-845.0681896456167
 21
-205.0166220796349
 31
0.0
  0
LINE
  5
E5
330
1F
100
AcDbEntity
  8
B-2
  6
Continuous
 62
     3
370
     9
100
AcDbLine
 10
-640.6679260397257
 20
-205.0166220796349
 30
0.0
 11
-640.6679260397257
 21
-290.0172736711679
 31
0.0
  0
LINE
  5
E6
330
1F
100
AcDbEntity
  8
B-2
  6
Continuous
 62
     3
370
     9
100
AcDbLine
 10
-633.6679153173334
 20
-205.0166220796349
 30
0.0
 11
-633.6679153173334
 21
-290.0172736711679
 31
0.0
  0
LINE
  5
E7
330
1F
100
AcDbEntity
  8
B-2
  6
Continuous
 62
     3
370
     9
100
AcDbLine
 10
-675.968062296588
 20
-205.0166220796349
 30
0.0
 11
-675.968062296588
 21
-290.0172736711679
 31
0.0
  0
LINE
  5
E8
330
1F
100
AcDbEntity
  8
B-2
  6
Continuous
 62
     3
370
     9
100
AcDbLine
 10
-668.9681134341514
 20
-205.0166220796349
 30
0.0
 11
-668.9681134341514
 21
-290.0172736711679
 31
0.0
  0
LINE
  5
E9
330
1F
100
AcDbEntity
  8
B-2
  6
Continuous
 62
     3
370
     9
100
AcDbLine
 10
-711.2682604134061
 20
-205.0166220796349
 30
0.0
 11
-711.2682604134061
 21
-290.0172736711679
 31
0.0
  0
LINE
  5
EA
330
1F
100
AcDbEntity
  8
B-2
  6
Continuous
 62
     3
370
     9
100
AcDbLine
 10
-704.2682496910136
 20
-205.0166220796349
 30
0.0
 11
-704.2682496910136
 21
-290.0172736711679
 31
0.0
  0
LINE
  5
EB
330
1F
100
AcDbEntity
  8
B-2
  6
Continuous
 62
     3
370
     9
100
AcDbLine
 10
-746.567901790623
 20
-205.0166220796349
 30
0.0
 11
-746.567901790623
 21
-290.0172736711679
 31
0.0
  0
LINE
  5
EC
330
1F
100
AcDbEntity
  8
B-2
  6
Continuous
 62
     3
370
     9
100
AcDbLine
 10
-739.5679529281864
 20
-205.0166220796349
 30
0.0
 11
-739.5679529281864
 21
-290.0172736711679
 31
0.0
  0
LINE
  5
ED
330
1F
100
AcDbEntity
  8
B-2
  6
Continuous
 62
     3
370
     9
100
AcDbLine
 10
-781.8680999074411
 20
-205.0166220796349
 30
0.0
 11
-781.8680999074411
 21
-290.0172736711679
 31
0.0
  0
LINE
  5
EE
330
1F
100
AcDbEntity
  8
B-2
  6
Continuous
 62
     3
370
     9
100
AcDbLine
 10
-774.8681510450045
 20
-205.0166220796349
 30
0.0
 11
-774.8681510450045
 21
-290.0172736711679
 31
0.0
  0
LINE
  5
EF
330
1F
100
AcDbEntity
  8
B-2
  6
Continuous
 62
     3
370
     9
100
AcDbLine
 10
-817.1683598842149
 20
-205.0166220796349
 30
0.0
 11
-817.1683598842149
 21
-290.0172736711679
 31
0.0
  0
LINE
  5
F0
330
1F
100
AcDbEntity
  8
B-2
  6
Continuous
 62
     3
370
     9
100
AcDbLine
 10
-810.1682873018667
 20
-205.0166220796349
 30
0.0
 11
-810.1682873018667
 21
-290.0172736711679
 31
0.0
  0
LINE
  5
F1
330
1F
100
AcDbEntity
  8
B-2
  6
Continuous
 62
     3
370
     9
100
AcDbLine
 10
-351.0686878244596
 20
495.4831960520955
 30
0.0
 11
-351.0686878244596
 21
-294.5170905656991
 31
0.0
  0
LINE
  5
F2
330
1F
100
AcDbEntity
  8
B-2
  6
Continuous
 62
     3
370
     9
100
AcDbLine
 10
-358.0696264461868
 20
-205.0166220796349
 30
0.0
 11
-358.0696264461868
 21
-290.0172736711679
 31
0.0
  0
LINE
  5
F3
330
1F
100
AcDbEntity
  8
B-2
  6
Continuous
 62
     3
370
     9
100
AcDbLine
 10
-845.0681896456167
 20
205.9833049256175
 30
0.0
 11
-845.0681896456167
 21
294.9843161296926
 31
0.0
  0
LINE
  5
F4
330
1F
100
AcDbEntity
  8
B-2
  6
Continuous
 62
     3
370
     9
100
AcDbLine
 10
-358.0696264461868
 20
294.9843161296926
 30
0.0
 11
-358.0696264461868
 21
205.9833049256175
 31
0.0
  0
LINE
  5
F5
330
1F
100
AcDbEntity
  8
B-2
  6
Continuous
 62
     3
370
     9
100
AcDbLine
 10
-640.6679260397257
 20
294.9843161296926
 30
0.0
 11
-640.6679260397257
 21
205.9833049256175
 31
0.0
  0
LINE
  5
F6
330
1F
100
AcDbEntity
  8
B-2
  6
Continuous
 62
     3
370
     9
100
AcDbLine
 10
-633.6679153173334
 20
294.9843161296926
 30
0.0
 11
-633.6679153173334
 21
205.9833049256175
 31
0.0
  0
LINE
  5
F7
330
1F
100
AcDbEntity
  8
B-2
  6
Continuous
 62
     3
370
     9
100
AcDbLine
 10
-675.968062296588
 20
294.9843161296926
 30
0.0
 11
-675.968062296588
 21
205.9833049256175
 31
0.0
  0
LINE
  5
F8
330
1F
100
AcDbEntity
  8
B-2
  6
Continuous
 62
     3
370
     9
100
AcDbLine
 10
-668.9681134341514
 20
294.9843161296926
 30
0.0
 11
-668.9681134341514
 21
205.9833049256175
 31
0.0
  0
LINE
  5
F9
330
1F
100
AcDbEntity
  8
B-2
  6
Continuous
 62
     3
370
     9
100
AcDbLine
 10
-711.2682604134061
 20
294.9843161296926
 30
0.0
 11
-711.2682604134061
 21
205.9833049256175
 31
0.0
  0
LINE
  5
FA
330
1F
100
AcDbEntity
  8
B-2
  6
Continuous
 62
     3
370
     9
100
AcDbLine
 10
-704.2682496910136
 20
294.9843161296926
 30
0.0
 11
-704.2682496910136
 21
205.9833049256175
 31
0.0
  0
LINE
  5
FB
330
1F
100
AcDbEntity
  8
B-2
  6
Continuous
 62
     3
370
     9
100
AcDbLine
 10
-746.567901790623
 20
294.9843161296926
 30
0.0
 11
-746.567901790623
 21
205.9833049256175
 31
0.0
  0
LINE
  5
FC
330
1F
100
AcDbEntity
  8
B-2
  6
Continuous
 62
     3
370
     9
100
AcDbLine
 10
-739.5679529281864
 20
294.9843161296926
 30
0.0
 11
-739.5679529281864
 21
205.9833049256175
 31
0.0
  0
LINE
  5
FD
330
1F
100
AcDbEntity
  8
B-2
  6
Continuous
 62
     3
370
     9
100
AcDbLine
 10
-781.8680999074411
 20
294.9843161296926
 30
0.0
 11
-781.8680999074411
 21
205.9833049256175
 31
0.0
  0
LINE
  5
FE
330
1F
100
AcDbEntity
  8
B-2
  6
Continuous
 62
     3
370
     9
100
AcDbLine
 10
-774.8681510450045
 20
294.9843161296926
 30
0.0
 11
-774.8681510450045
 21
205.9833049256175
 31
0.0
  0
LINE
  5
FF
330
1F
100
AcDbEntity
  8
B-2
  6
Continuous
 62
     3
370
     9
100
AcDbLine
 10
-817.1683598842149
 20
294.9843161296926
 30
0.0
 11
-817.1683598842149
 21
205.9833049256175
 31
0.0
  0
LINE
  5
100
330
1F
100
AcDbEntity
  8
B-2
  6
Continuous
 62
     3
370
     9
100
AcDbLine
 10
-810.1682873018667
 20
294.9843161296926
 30
0.0
 11
-810.1682873018667
 21
205.9833049256175
 31
0.0
  0
LINE
  5
101
330
1F
100
AcDbEntity
  8
B-2
  6
Continuous
 62
     3
370
     9
100
AcDbLine
 10
-845.0681896456167
 20
294.9843161296926
 30
0.0
 11
-810.1682873018667
 21
305.9836348453811
 31
0.0
  0
LINE
  5
102
330
1F
100
AcDbEntity
  8
B-2
  6
Continuous
 62
     3
370
     9
100
AcDbLine
 10
-809.7679296688432
 20
294.9843161296926
 30
0.0
 11
-774.8685840646941
 21
305.9836348453811
 31
0.0
  0
LINE
  5
103
330
1F
100
AcDbEntity
  8
B-2
  6
Continuous
 62
     3
370
     9
100
AcDbLine
 10
-774.4682882916261
 20
294.9843161296926
 30
0.0
 11
-739.5683859478761
 21
305.9836348453811
 31
0.0
  0
LINE
  5
104
330
1F
100
AcDbEntity
  8
B-2
  6
Continuous
 62
     3
370
     9
100
AcDbLine
 10
-739.1680901748082
 20
294.9843161296926
 30
0.0
 11
-704.2682496910136
 21
305.9836348453811
 31
0.0
  0
LINE
  5
105
330
1F
100
AcDbEntity
  8
B-2
  6
Continuous
 62
     3
370
     9
100
AcDbLine
 10
-703.8683869376354
 20
294.9843161296926
 30
0.0
 11
-668.9686083137965
 21
305.9836348453811
 31
0.0
  0
LINE
  5
106
330
1F
100
AcDbEntity
  8
B-2
  6
Continuous
 62
     3
370
     9
100
AcDbLine
 10
-668.568250680773
 20
294.9843161296926
 30
0.0
 11
-633.6684720569343
 21
305.9836348453811
 31
0.0
  0
LINE
  5
107
330
1F
100
AcDbEntity
  8
B-2
  6
Continuous
 62
     3
370
     9
100
AcDbLine
 10
-633.2681144239107
 20
294.9843161296926
 30
0.0
 11
-598.3682739401163
 21
305.9836348453811
 31
0.0
  0
LINE
  5
108
330
1F
100
AcDbEntity
  8
B-2
  6
Continuous
 62
     3
370
     9
100
AcDbLine
 10
-852.0686333876986
 20
303.9026659370194
 30
0.0
 11
-845.4684235587291
 21
305.9836348453811
 31
0.0
  0
LINE
  5
109
330
1F
100
AcDbEntity
  8
B-2
  6
Continuous
 62
     3
370
     9
100
AcDbLine
 10
-845.0681896456167
 20
194.9843573696631
 30
0.0
 11
-810.1682873018667
 21
205.9837998052627
 31
0.0
  0
LINE
  5
10A
330
1F
100
AcDbEntity
  8
B-2
  6
Continuous
 62
     3
370
     9
100
AcDbLine
 10
-809.7679296688432
 20
194.9843573696631
 30
0.0
 11
-774.8685840646941
 21
205.9837998052627
 31
0.0
  0
LINE
  5
10B
330
1F
100
AcDbEntity
  8
B-2
  6
Continuous
 62
     3
370
     9
100
AcDbLine
 10
-774.4682882916261
 20
194.9843573696631
 30
0.0
 11
-739.5683859478761
 21
205.9837998052627
 31
0.0
  0
LINE
  5
10C
330
1F
100
AcDbEntity
  8
B-2
  6
Continuous
 62
     3
370
     9
100
AcDbLine
 10
-739.1680901748082
 20
194.9843573696631
 30
0.0
 11
-704.2682496910136
 21
205.9837998052627
 31
0.0
  0
LINE
  5
10D
330
1F
100
AcDbEntity
  8
B-2
  6
Continuous
 62
     3
370
     9
100
AcDbLine
 10
-703.8683869376354
 20
194.9843573696631
 30
0.0
 11
-668.9686083137965
 21
205.9837998052627
 31
0.0
  0
LINE
  5
10E
330
1F
100
AcDbEntity
  8
B-2
  6
Continuous
 62
     3
370
     9
100
AcDbLine
 10
-668.568250680773
 20
194.9843573696631
 30
0.0
 11
-633.6684720569343
 21
205.9837998052627
 31
0.0
  0
LINE
  5
10F
330
1F
100
AcDbEntity
  8
B-2
  6
Continuous
 62
     3
370
     9
100
AcDbLine
 10
-633.2681144239107
 20
194.9843573696631
 30
0.0
 11
-598.3682739401163
 21
205.9837998052627
 31
0.0
  0
LINE
  5
110
330
1F
100
AcDbEntity
  8
B-2
  6
Continuous
 62
     3
370
     9
100
AcDbLine
 10
-852.0686333876986
 20
203.9028308969012
 30
0.0
 11
-845.4684235587291
 21
205.9837998052627
 31
0.0
  0
LINE
  5
111
330
1F
100
AcDbEntity
  8
B-2
  6
Continuous
 62
     3
370
     9
100
AcDbLine
 10
-605.3677279229076
 20
490.9833791575642
 30
0.0
 11
-605.3677279229076
 21
405.9837173253219
 31
0.0
  0
LINE
  5
112
330
1F
100
AcDbEntity
  8
B-2
  6
Continuous
 62
     3
370
     9
100
AcDbLine
 10
-598.3677172005152
 20
490.9833791575642
 30
0.0
 11
-598.3677172005152
 21
405.9837173253219
 31
0.0
  0
LINE
  5
113
330
1F
100
AcDbEntity
  8
B-2
  6
Continuous
 62
     3
370
     9
100
AcDbLine
 10
-605.3677279229076
 20
394.9842748897222
 30
0.0
 11
-605.3677279229076
 21
305.983263685647
 31
0.0
  0
LINE
  5
114
330
1F
100
AcDbEntity
  8
B-2
  6
Continuous
 62
     3
370
     9
100
AcDbLine
 10
-598.3677172005152
 20
394.9842748897222
 30
0.0
 11
-598.3677172005152
 21
305.983263685647
 31
0.0
  0
LINE
  5
115
330
1F
100
AcDbEntity
  8
B-2
  6
Continuous
 62
     3
370
     9
100
AcDbLine
 10
-597.9679163070927
 20
394.9842748897222
 30
0.0
 11
-563.0680758232983
 21
405.9837173253219
 31
0.0
  0
LINE
  5
116
330
1F
100
AcDbEntity
  8
B-2
  6
Continuous
 62
     3
370
     9
100
AcDbLine
 10
-597.9679163070927
 20
-205.0166220796349
 30
0.0
 11
-563.0680758232983
 21
-194.0161898847447
 31
0.0
  0
LINE
  5
117
330
1F
100
AcDbEntity
  8
B-2
  6
Continuous
 62
     3
370
     9
100
AcDbLine
 10
-605.3677279229076
 20
-205.0166220796349
 30
0.0
 11
-605.3677279229076
 21
-290.0172736711679
 31
0.0
  0
LINE
  5
118
330
1F
100
AcDbEntity
  8
B-2
  6
Continuous
 62
     3
370
     9
100
AcDbLine
 10
-598.3677172005152
 20
-205.0166220796349
 30
0.0
 11
-598.3677172005152
 21
-290.0172736711679
 31
0.0
  0
LINE
  5
119
330
1F
100
AcDbEntity
  8
B-2
  6
Continuous
 62
     3
370
     9
100
AcDbLine
 10
-605.3677279229076
 20
294.9843161296926
 30
0.0
 11
-605.3677279229076
 21
205.9833049256175
 31
0.0
  0
LINE
  5
11A
330
1F
100
AcDbEntity
  8
B-2
  6
Continuous
 62
     3
370
     9
100
AcDbLine
 10
-598.3677172005152
 20
294.9843161296926
 30
0.0
 11
-598.3677172005152
 21
205.9833049256175
 31
0.0
  0
LINE
  5
11B
330
1F
100
AcDbEntity
  8
B-2
  6
Continuous
 62
     3
370
     9
100
AcDbLine
 10
-597.9679163070927
 20
294.9843161296926
 30
0.0
 11
-563.0680758232983
 21
305.9836348453811
 31
0.0
  0
LINE
  5
11C
330
1F
100
AcDbEntity
  8
B-2
  6
Continuous
 62
     3
370
     9
100
AcDbLine
 10
-597.9679163070927
 20
194.9843573696631
 30
0.0
 11
-563.0680758232983
 21
205.9837998052627
 31
0.0
  0
LINE
  5
11D
330
1F
100
AcDbEntity
  8
B-2
  6
Continuous
 62
     3
370
     9
100
AcDbLine
 10
-570.0675298060896
 20
490.9833791575642
 30
0.0
 11
-570.0675298060896
 21
405.9837173253219
 31
0.0
  0
LINE
  5
11E
330
1F
100
AcDbEntity
  8
B-2
  6
Continuous
 62
     3
370
     9
100
AcDbLine
 10
-563.0675190836973
 20
490.9833791575642
 30
0.0
 11
-563.0675190836973
 21
405.9837173253219
 31
0.0
  0
LINE
  5
11F
330
1F
100
AcDbEntity
  8
B-2
  6
Continuous
 62
     3
370
     9
100
AcDbLine
 10
-570.0675298060896
 20
394.9842748897222
 30
0.0
 11
-570.0675298060896
 21
305.983263685647
 31
0.0
  0
LINE
  5
120
330
1F
100
AcDbEntity
  8
B-2
  6
Continuous
 62
     3
370
     9
100
AcDbLine
 10
-563.0675190836973
 20
394.9842748897222
 30
0.0
 11
-563.0675190836973
 21
305.983263685647
 31
0.0
  0
LINE
  5
121
330
1F
100
AcDbEntity
  8
B-2
  6
Continuous
 62
     3
370
     9
100
AcDbLine
 10
-562.6677181902746
 20
394.9842748897222
 30
0.0
 11
-527.7678777064802
 21
405.9837173253219
 31
0.0
  0
LINE
  5
122
330
1F
100
AcDbEntity
  8
B-2
  6
Continuous
 62
     3
370
     9
100
AcDbLine
 10
-562.6677181902746
 20
-205.0166220796349
 30
0.0
 11
-527.7678777064802
 21
-194.0161898847447
 31
0.0
  0
LINE
  5
123
330
1F
100
AcDbEntity
  8
B-2
  6
Continuous
 62
     3
370
     9
100
AcDbLine
 10
-570.0675298060896
 20
-205.0166220796349
 30
0.0
 11
-570.0675298060896
 21
-290.0172736711679
 31
0.0
  0
LINE
  5
124
330
1F
100
AcDbEntity
  8
B-2
  6
Continuous
 62
     3
370
     9
100
AcDbLine
 10
-563.0675190836973
 20
-205.0166220796349
 30
0.0
 11
-563.0675190836973
 21
-290.0172736711679
 31
0.0
  0
LINE
  5
125
330
1F
100
AcDbEntity
  8
B-2
  6
Continuous
 62
     3
370
     9
100
AcDbLine
 10
-570.0675298060896
 20
294.9843161296926
 30
0.0
 11
-570.0675298060896
 21
205.9833049256175
 31
0.0
  0
LINE
  5
126
330
1F
100
AcDbEntity
  8
B-2
  6
Continuous
 62
     3
370
     9
100
AcDbLine
 10
-563.0675190836973
 20
294.9843161296926
 30
0.0
 11
-563.0675190836973
 21
205.9833049256175
 31
0.0
  0
LINE
  5
127
330
1F
100
AcDbEntity
  8
B-2
  6
Continuous
 62
     3
370
     9
100
AcDbLine
 10
-562.6677181902746
 20
294.9843161296926
 30
0.0
 11
-527.7678777064802
 21
305.9836348453811
 31
0.0
  0
LINE
  5
128
330
1F
100
AcDbEntity
  8
B-2
  6
Continuous
 62
     3
370
     9
100
AcDbLine
 10
-562.6677181902746
 20
194.9843573696631
 30
0.0
 11
-527.7678777064802
 21
205.9837998052627
 31
0.0
  0
LINE
  5
129
330
1F
100
AcDbEntity
  8
B-2
  6
Continuous
 62
     3
370
     9
100
AcDbLine
 10
-534.7673316892717
 20
490.9833791575642
 30
0.0
 11
-534.7673316892717
 21
405.9837173253219
 31
0.0
  0
LINE
  5
12A
330
1F
100
AcDbEntity
  8
B-2
  6
Continuous
 62
     3
370
     9
100
AcDbLine
 10
-527.7673209668794
 20
490.9833791575642
 30
0.0
 11
-527.7673209668794
 21
405.9837173253219
 31
0.0
  0
LINE
  5
12B
330
1F
100
AcDbEntity
  8
B-2
  6
Continuous
 62
     3
370
     9
100
AcDbLine
 10
-534.7673316892717
 20
394.9842748897222
 30
0.0
 11
-534.7673316892717
 21
305.983263685647
 31
0.0
  0
LINE
  5
12C
330
1F
100
AcDbEntity
  8
B-2
  6
Continuous
 62
     3
370
     9
100
AcDbLine
 10
-527.7673209668794
 20
394.9842748897222
 30
0.0
 11
-527.7673209668794
 21
305.983263685647
 31
0.0
  0
LINE
  5
12D
330
1F
100
AcDbEntity
  8
B-2
  6
Continuous
 62
     3
370
     9
100
AcDbLine
 10
-527.3675200734567
 20
394.9842748897222
 30
0.0
 11
-492.4676795896623
 21
405.9837173253219
 31
0.0
  0
LINE
  5
12E
330
1F
100
AcDbEntity
  8
B-2
  6
Continuous
 62
     3
370
     9
100
AcDbLine
 10
-527.3675200734567
 20
-205.0166220796349
 30
0.0
 11
-492.4676795896623
 21
-194.0161898847447
 31
0.0
  0
LINE
  5
12F
330
1F
100
AcDbEntity
  8
B-2
  6
Continuous
 62
     3
370
     9
100
AcDbLine
 10
-534.7673316892717
 20
-205.0166220796349
 30
0.0
 11
-534.7673316892717
 21
-290.0172736711679
 31
0.0
  0
LINE
  5
130
330
1F
100
AcDbEntity
  8
B-2
  6
Continuous
 62
     3
370
     9
100
AcDbLine
 10
-527.7673209668794
 20
-205.0166220796349
 30
0.0
 11
-527.7673209668794
 21
-290.0172736711679
 31
0.0
  0
LINE
  5
131
330
1F
100
AcDbEntity
  8
B-2
  6
Continuous
 62
     3
370
     9
100
AcDbLine
 10
-534.7673316892717
 20
294.9843161296926
 30
0.0
 11
-534.7673316892717
 21
205.9833049256175
 31
0.0
  0
LINE
  5
132
330
1F
100
AcDbEntity
  8
B-2
  6
Continuous
 62
     3
370
     9
100
AcDbLine
 10
-527.7673209668794
 20
294.9843161296926
 30
0.0
 11
-527.7673209668794
 21
205.9833049256175
 31
0.0
  0
LINE
  5
133
330
1F
100
AcDbEntity
  8
B-2
  6
Continuous
 62
     3
370
     9
100
AcDbLine
 10
-527.3675200734567
 20
294.9843161296926
 30
0.0
 11
-492.4676795896623
 21
305.9836348453811
 31
0.0
  0
LINE
  5
134
330
1F
100
AcDbEntity
  8
B-2
  6
Continuous
 62
     3
370
     9
100
AcDbLine
 10
-527.3675200734567
 20
194.9843573696631
 30
0.0
 11
-492.4676795896623
 21
205.9837998052627
 31
0.0
  0
LINE
  5
135
330
1F
100
AcDbEntity
  8
B-2
  6
Continuous
 62
     3
370
     9
100
AcDbLine
 10
-852.0686333876986
 20
394.9842748897222
 30
0.0
 11
-351.0686878244596
 21
394.9842748897222
 31
0.0
  0
LINE
  5
136
330
1F
100
AcDbEntity
  8
B-2
  6
Continuous
 62
     3
370
     9
100
AcDbLine
 10
-852.0686333876986
 20
-194.0173033639466
 30
0.0
 11
-351.0686878244596
 21
-194.0173033639466
 31
0.0
  0
LINE
  5
137
330
1F
100
AcDbEntity
  8
B-2
  6
Continuous
 62
     3
370
     9
100
AcDbLine
 10
-852.0686333876986
 20
294.9843161296926
 30
0.0
 11
-351.0686878244596
 21
294.9843161296926
 31
0.0
  0
LINE
  5
138
330
1F
100
AcDbEntity
  8
B-2
  6
Continuous
 62
     3
370
     9
100
AcDbLine
 10
-852.0686333876986
 20
305.9836348453811
 30
0.0
 11
-351.0686878244596
 21
305.9836348453811
 31
0.0
  0
LINE
  5
139
330
1F
100
AcDbEntity
  8
B-2
  6
Continuous
 62
     3
370
     9
100
AcDbLine
 10
-852.0686333876986
 20
194.9843573696631
 30
0.0
 11
-351.0686878244596
 21
194.9843573696631
 31
0.0
  0
LINE
  5
13A
330
1F
100
AcDbEntity
  8
B-2
  6
Continuous
 62
     3
370
     9
100
AcDbLine
 10
-852.0686333876986
 20
205.9837998052627
 30
0.0
 11
-351.0686878244596
 21
205.9837998052627
 31
0.0
  0
LINE
  5
13B
330
1F
100
AcDbEntity
  8
B-2
  6
Continuous
 62
     3
370
     9
100
AcDbLine
 10
-499.4671335724537
 20
490.9833791575642
 30
0.0
 11
-499.4671335724537
 21
405.9837173253219
 31
0.0
  0
LINE
  5
13C
330
1F
100
AcDbEntity
  8
B-2
  6
Continuous
 62
     3
370
     9
100
AcDbLine
 10
-492.4671228500614
 20
490.9833791575642
 30
0.0
 11
-492.4671228500614
 21
405.9837173253219
 31
0.0
  0
LINE
  5
13D
330
1F
100
AcDbEntity
  8
B-2
  6
Continuous
 62
     3
370
     9
100
AcDbLine
 10
-499.4671335724537
 20
394.9842748897222
 30
0.0
 11
-499.4671335724537
 21
305.983263685647
 31
0.0
  0
LINE
  5
13E
330
1F
100
AcDbEntity
  8
B-2
  6
Continuous
 62
     3
370
     9
100
AcDbLine
 10
-492.4671228500614
 20
394.9842748897222
 30
0.0
 11
-492.4671228500614
 21
305.983263685647
 31
0.0
  0
LINE
  5
13F
330
1F
100
AcDbEntity
  8
B-2
  6
Continuous
 62
     3
370
     9
100
AcDbLine
 10
-492.0673219566388
 20
394.9842748897222
 30
0.0
 11
-457.1674814728443
 21
405.9837173253219
 31
0.0
  0
LINE
  5
140
330
1F
100
AcDbEntity
  8
B-2
  6
Continuous
 62
     3
370
     9
100
AcDbLine
 10
-492.0673219566388
 20
-205.0166220796349
 30
0.0
 11
-457.1674814728443
 21
-194.0161898847447
 31
0.0
  0
LINE
  5
141
330
1F
100
AcDbEntity
  8
B-2
  6
Continuous
 62
     3
370
     9
100
AcDbLine
 10
-499.4671335724537
 20
-205.0166220796349
 30
0.0
 11
-499.4671335724537
 21
-290.0172736711679
 31
0.0
  0
LINE
  5
142
330
1F
100
AcDbEntity
  8
B-2
  6
Continuous
 62
     3
370
     9
100
AcDbLine
 10
-492.4671228500614
 20
-205.0166220796349
 30
0.0
 11
-492.4671228500614
 21
-290.0172736711679
 31
0.0
  0
LINE
  5
143
330
1F
100
AcDbEntity
  8
B-2
  6
Continuous
 62
     3
370
     9
100
AcDbLine
 10
-499.4671335724537
 20
294.9843161296926
 30
0.0
 11
-499.4671335724537
 21
205.9833049256175
 31
0.0
  0
LINE
  5
144
330
1F
100
AcDbEntity
  8
B-2
  6
Continuous
 62
     3
370
     9
100
AcDbLine
 10
-492.4671228500614
 20
294.9843161296926
 30
0.0
 11
-492.4671228500614
 21
205.9833049256175
 31
0.0
  0
LINE
  5
145
330
1F
100
AcDbEntity
  8
B-2
  6
Continuous
 62
     3
370
     9
100
AcDbLine
 10
-492.0673219566388
 20
294.9843161296926
 30
0.0
 11
-457.1674814728443
 21
305.9836348453811
 31
0.0
  0
LINE
  5
146
330
1F
100
AcDbEntity
  8
B-2
  6
Continuous
 62
     3
370
     9
100
AcDbLine
 10
-492.0673219566388
 20
194.9843573696631
 30
0.0
 11
-457.1674814728443
 21
205.9837998052627
 31
0.0
  0
LINE
  5
147
330
1F
100
AcDbEntity
  8
B-2
  6
Continuous
 62
     3
370
     9
100
AcDbLine
 10
-464.1669354556358
 20
490.9833791575642
 30
0.0
 11
-464.1669354556358
 21
405.9837173253219
 31
0.0
  0
LINE
  5
148
330
1F
100
AcDbEntity
  8
B-2
  6
Continuous
 62
     3
370
     9
100
AcDbLine
 10
-457.1669247332434
 20
490.9833791575642
 30
0.0
 11
-457.1669247332434
 21
405.9837173253219
 31
0.0
  0
LINE
  5
149
330
1F
100
AcDbEntity
  8
B-2
  6
Continuous
 62
     3
370
     9
100
AcDbLine
 10
-464.1669354556358
 20
394.9842748897222
 30
0.0
 11
-464.1669354556358
 21
305.983263685647
 31
0.0
  0
LINE
  5
14A
330
1F
100
AcDbEntity
  8
B-2
  6
Continuous
 62
     3
370
     9
100
AcDbLine
 10
-457.1669247332434
 20
394.9842748897222
 30
0.0
 11
-457.1669247332434
 21
305.983263685647
 31
0.0
  0
LINE
  5
14B
330
1F
100
AcDbEntity
  8
B-2
  6
Continuous
 62
     3
370
     9
100
AcDbLine
 10
-456.7671238398207
 20
394.9842748897222
 30
0.0
 11
-421.8672833560264
 21
405.9837173253219
 31
0.0
  0
LINE
  5
14C
330
1F
100
AcDbEntity
  8
B-2
  6
Continuous
 62
     3
370
     9
100
AcDbLine
 10
-456.7671238398207
 20
-205.0166220796349
 30
0.0
 11
-421.8672833560264
 21
-194.0161898847447
 31
0.0
  0
LINE
  5
14D
330
1F
100
AcDbEntity
  8
B-2
  6
Continuous
 62
     3
370
     9
100
AcDbLine
 10
-464.1669354556358
 20
-205.0166220796349
 30
0.0
 11
-464.1669354556358
 21
-290.0172736711679
 31
0.0
  0
LINE
  5
14E
330
1F
100
AcDbEntity
  8
B-2
  6
Continuous
 62
     3
370
     9
100
AcDbLine
 10
-457.1669247332434
 20
-205.0166220796349
 30
0.0
 11
-457.1669247332434
 21
-290.0172736711679
 31
0.0
  0
LINE
  5
14F
330
1F
100
AcDbEntity
  8
B-2
  6
Continuous
 62
     3
370
     9
100
AcDbLine
 10
-464.1669354556358
 20
294.9843161296926
 30
0.0
 11
-464.1669354556358
 21
205.9833049256175
 31
0.0
  0
LINE
  5
150
330
1F
100
AcDbEntity
  8
B-2
  6
Continuous
 62
     3
370
     9
100
AcDbLine
 10
-457.1669247332434
 20
294.9843161296926
 30
0.0
 11
-457.1669247332434
 21
205.9833049256175
 31
0.0
  0
LINE
  5
151
330
1F
100
AcDbEntity
  8
B-2
  6
Continuous
 62
     3
370
     9
100
AcDbLine
 10
-456.7671238398207
 20
294.9843161296926
 30
0.0
 11
-421.8672833560264
 21
305.9836348453811
 31
0.0
  0
LINE
  5
152
330
1F
100
AcDbEntity
  8
B-2
  6
Continuous
 62
     3
370
     9
100
AcDbLine
 10
-456.7671238398207
 20
194.9843573696631
 30
0.0
 11
-421.8672833560264
 21
205.9837998052627
 31
0.0
  0
LINE
  5
153
330
1F
100
AcDbEntity
  8
B-2
  6
Continuous
 62
     3
370
     9
100
AcDbLine
 10
-428.8667373388178
 20
490.9833791575642
 30
0.0
 11
-428.8667373388178
 21
405.9837173253219
 31
0.0
  0
LINE
  5
154
330
1F
100
AcDbEntity
  8
B-2
  6
Continuous
 62
     3
370
     9
100
AcDbLine
 10
-421.8667266164255
 20
490.9833791575642
 30
0.0
 11
-421.8667266164255
 21
405.9837173253219
 31
0.0
  0
LINE
  5
155
330
1F
100
AcDbEntity
  8
B-2
  6
Continuous
 62
     3
370
     9
100
AcDbLine
 10
-428.8667373388178
 20
394.9842748897222
 30
0.0
 11
-428.8667373388178
 21
305.983263685647
 31
0.0
  0
LINE
  5
156
330
1F
100
AcDbEntity
  8
B-2
  6
Continuous
 62
     3
370
     9
100
AcDbLine
 10
-421.8667266164255
 20
394.9842748897222
 30
0.0
 11
-421.8667266164255
 21
305.983263685647
 31
0.0
  0
LINE
  5
157
330
1F
100
AcDbEntity
  8
B-2
  6
Continuous
 62
     3
370
     9
100
AcDbLine
 10
-421.4669257230026
 20
394.9842748897222
 30
0.0
 11
-386.5670852392084
 21
405.9837173253219
 31
0.0
  0
LINE
  5
158
330
1F
100
AcDbEntity
  8
B-2
  6
Continuous
 62
     3
370
     9
100
AcDbLine
 10
-421.4669257230026
 20
-205.0166220796349
 30
0.0
 11
-386.5670852392084
 21
-194.0161898847447
 31
0.0
  0
LINE
  5
159
330
1F
100
AcDbEntity
  8
B-2
  6
Continuous
 62
     3
370
     9
100
AcDbLine
 10
-428.8667373388178
 20
-205.0166220796349
 30
0.0
 11
-428.8667373388178
 21
-290.0172736711679
 31
0.0
  0
LINE
  5
15A
330
1F
100
AcDbEntity
  8
B-2
  6
Continuous
 62
     3
370
     9
100
AcDbLine
 10
-421.8667266164255
 20
-205.0166220796349
 30
0.0
 11
-421.8667266164255
 21
-290.0172736711679
 31
0.0
  0
LINE
  5
15B
330
1F
100
AcDbEntity
  8
B-2
  6
Continuous
 62
     3
370
     9
100
AcDbLine
 10
-428.8667373388178
 20
294.9843161296926
 30
0.0
 11
-428.8667373388178
 21
205.9833049256175
 31
0.0
  0
LINE
  5
15C
330
1F
100
AcDbEntity
  8
B-2
  6
Continuous
 62
     3
370
     9
100
AcDbLine
 10
-421.8667266164255
 20
294.9843161296926
 30
0.0
 11
-421.8667266164255
 21
205.9833049256175
 31
0.0
  0
LINE
  5
15D
330
1F
100
AcDbEntity
  8
B-2
  6
Continuous
 62
     3
370
     9
100
AcDbLine
 10
-421.4669257230026
 20
294.9843161296926
 30
0.0
 11
-386.5670852392084
 21
305.9836348453811
 31
0.0
  0
LINE
  5
15E
330
1F
100
AcDbEntity
  8
B-2
  6
Continuous
 62
     3
370
     9
100
AcDbLine
 10
-421.4669257230026
 20
194.9843573696631
 30
0.0
 11
-386.5670852392084
 21
205.9837998052627
 31
0.0
  0
LINE
  5
15F
330
1F
100
AcDbEntity
  8
B-2
  6
Continuous
 62
     3
370
     9
100
AcDbLine
 10
-393.5665392219998
 20
490.9833791575642
 30
0.0
 11
-393.5665392219998
 21
405.9837173253219
 31
0.0
  0
LINE
  5
160
330
1F
100
AcDbEntity
  8
B-2
  6
Continuous
 62
     3
370
     9
100
AcDbLine
 10
-386.5665284996075
 20
490.9833791575642
 30
0.0
 11
-386.5665284996075
 21
405.9837173253219
 31
0.0
  0
LINE
  5
161
330
1F
100
AcDbEntity
  8
B-2
  6
Continuous
 62
     3
370
     9
100
AcDbLine
 10
-393.5665392219998
 20
394.9842748897222
 30
0.0
 11
-393.5665392219998
 21
305.983263685647
 31
0.0
  0
LINE
  5
162
330
1F
100
AcDbEntity
  8
B-2
  6
Continuous
 62
     3
370
     9
100
AcDbLine
 10
-386.5665284996075
 20
394.9842748897222
 30
0.0
 11
-386.5665284996075
 21
305.983263685647
 31
0.0
  0
LINE
  5
163
330
1F
100
AcDbEntity
  8
B-2
  6
Continuous
 62
     3
370
     9
100
AcDbLine
 10
-386.1667276061847
 20
394.9842748897222
 30
0.0
 11
-351.2668871223905
 21
405.9837173253219
 31
0.0
  0
LINE
  5
164
330
1F
100
AcDbEntity
  8
B-2
  6
Continuous
 62
     3
370
     9
100
AcDbLine
 10
-386.1667276061847
 20
-205.0166220796349
 30
0.0
 11
-351.2668871223905
 21
-194.0161898847447
 31
0.0
  0
LINE
  5
165
330
1F
100
AcDbEntity
  8
B-2
  6
Continuous
 62
     3
370
     9
100
AcDbLine
 10
-393.5665392219998
 20
-205.0166220796349
 30
0.0
 11
-393.5665392219998
 21
-290.0172736711679
 31
0.0
  0
LINE
  5
166
330
1F
100
AcDbEntity
  8
B-2
  6
Continuous
 62
     3
370
     9
100
AcDbLine
 10
-386.5665284996075
 20
-205.0166220796349
 30
0.0
 11
-386.5665284996075
 21
-290.0172736711679
 31
0.0
  0
LINE
  5
167
330
1F
100
AcDbEntity
  8
B-2
  6
Continuous
 62
     3
370
     9
100
AcDbLine
 10
-393.5665392219998
 20
294.9843161296926
 30
0.0
 11
-393.5665392219998
 21
205.9833049256175
 31
0.0
  0
LINE
  5
168
330
1F
100
AcDbEntity
  8
B-2
  6
Continuous
 62
     3
370
     9
100
AcDbLine
 10
-386.5665284996075
 20
294.9843161296926
 30
0.0
 11
-386.5665284996075
 21
205.9833049256175
 31
0.0
  0
LINE
  5
169
330
1F
100
AcDbEntity
  8
B-2
  6
Continuous
 62
     3
370
     9
100
AcDbLine
 10
-386.1667276061847
 20
294.9843161296926
 30
0.0
 11
-351.2668871223905
 21
305.9836348453811
 31
0.0
  0
LINE
  5
16A
330
1F
100
AcDbEntity
  8
B-2
  6
Continuous
 62
     3
370
     9
100
AcDbLine
 10
-386.1667276061847
 20
194.9843573696631
 30
0.0
 11
-351.2668871223905
 21
205.9837998052627
 31
0.0
  0
LINE
  5
16B
330
1F
100
AcDbEntity
  8
B-2
  6
Continuous
 62
     3
370
     9
100
AcDbLine
 10
-845.0681896456167
 20
94.98433674967777
 30
0.0
 11
-810.1682873018667
 21
105.9837791852775
 31
0.0
  0
LINE
  5
16C
330
1F
100
AcDbEntity
  8
B-2
  6
Continuous
 62
     3
370
     9
100
AcDbLine
 10
-809.7679296688432
 20
94.98433674967777
 30
0.0
 11
-774.8685840646941
 21
105.9837791852775
 31
0.0
  0
LINE
  5
16D
330
1F
100
AcDbEntity
  8
B-2
  6
Continuous
 62
     3
370
     9
100
AcDbLine
 10
-774.4682882916261
 20
94.98433674967777
 30
0.0
 11
-739.5683859478761
 21
105.9837791852775
 31
0.0
  0
LINE
  5
16E
330
1F
100
AcDbEntity
  8
B-2
  6
Continuous
 62
     3
370
     9
100
AcDbLine
 10
-739.1680901748082
 20
94.98433674967777
 30
0.0
 11
-704.2682496910136
 21
105.9837791852775
 31
0.0
  0
LINE
  5
16F
330
1F
100
AcDbEntity
  8
B-2
  6
Continuous
 62
     3
370
     9
100
AcDbLine
 10
-703.8683869376354
 20
94.98433674967777
 30
0.0
 11
-668.9686083137965
 21
105.9837791852775
 31
0.0
  0
LINE
  5
170
330
1F
100
AcDbEntity
  8
B-2
  6
Continuous
 62
     3
370
     9
100
AcDbLine
 10
-668.568250680773
 20
94.98433674967777
 30
0.0
 11
-633.6684720569343
 21
105.9837791852775
 31
0.0
  0
LINE
  5
171
330
1F
100
AcDbEntity
  8
B-2
  6
Continuous
 62
     3
370
     9
100
AcDbLine
 10
-633.2681144239107
 20
94.98433674967777
 30
0.0
 11
-598.3682739401163
 21
105.9837791852775
 31
0.0
  0
LINE
  5
172
330
1F
100
AcDbEntity
  8
B-2
  6
Continuous
 62
     3
370
     9
100
AcDbLine
 10
-852.0686333876986
 20
103.9028102769161
 30
0.0
 11
-845.4684235587291
 21
105.9837791852775
 31
0.0
  0
LINE
  5
173
330
1F
100
AcDbEntity
  8
B-2
  6
Continuous
 62
     3
370
     9
100
AcDbLine
 10
-597.9679163070927
 20
94.98433674967777
 30
0.0
 11
-563.0680758232983
 21
105.9837791852775
 31
0.0
  0
LINE
  5
174
330
1F
100
AcDbEntity
  8
B-2
  6
Continuous
 62
     3
370
     9
100
AcDbLine
 10
-562.6677181902746
 20
94.98433674967777
 30
0.0
 11
-527.7678777064802
 21
105.9837791852775
 31
0.0
  0
LINE
  5
175
330
1F
100
AcDbEntity
  8
B-2
  6
Continuous
 62
     3
370
     9
100
AcDbLine
 10
-527.3675200734567
 20
94.98433674967777
 30
0.0
 11
-492.4676795896623
 21
105.9837791852775
 31
0.0
  0
LINE
  5
176
330
1F
100
AcDbEntity
  8
B-2
  6
Continuous
 62
     3
370
     9
100
AcDbLine
 10
-852.0686333876986
 20
94.98433674967777
 30
0.0
 11
-351.0686878244596
 21
94.98433674967777
 31
0.0
  0
LINE
  5
177
330
1F
100
AcDbEntity
  8
B-2
  6
Continuous
 62
     3
370
     9
100
AcDbLine
 10
-852.0686333876986
 20
105.9837791852775
 30
0.0
 11
-351.0686878244596
 21
105.9837791852775
 31
0.0
  0
LINE
  5
178
330
1F
100
AcDbEntity
  8
B-2
  6
Continuous
 62
     3
370
     9
100
AcDbLine
 10
-492.0673219566388
 20
94.98433674967777
 30
0.0
 11
-457.1674814728443
 21
105.9837791852775
 31
0.0
  0
LINE
  5
179
330
1F
100
AcDbEntity
  8
B-2
  6
Continuous
 62
     3
370
     9
100
AcDbLine
 10
-456.7671238398207
 20
94.98433674967777
 30
0.0
 11
-421.8672833560264
 21
105.9837791852775
 31
0.0
  0
LINE
  5
17A
330
1F
100
AcDbEntity
  8
B-2
  6
Continuous
 62
     3
370
     9
100
AcDbLine
 10
-421.4669257230026
 20
94.98433674967777
 30
0.0
 11
-386.5670852392084
 21
105.9837791852775
 31
0.0
  0
LINE
  5
17B
330
1F
100
AcDbEntity
  8
B-2
  6
Continuous
 62
     3
370
     9
100
AcDbLine
 10
-386.1667276061847
 20
94.98433674967777
 30
0.0
 11
-351.2668871223905
 21
105.9837791852775
 31
0.0
  0
LINE
  5
17C
330
1F
100
AcDbEntity
  8
B-2
  6
Continuous
 62
     3
370
     9
100
AcDbLine
 10
-845.0681896456167
 20
105.9837791852775
 30
0.0
 11
-845.0681896456167
 21
194.9843573696631
 31
0.0
  0
LINE
  5
17D
330
1F
100
AcDbEntity
  8
B-2
  6
Continuous
 62
     3
370
     9
100
AcDbLine
 10
-358.0696264461868
 20
194.9843573696631
 30
0.0
 11
-358.0696264461868
 21
105.9837791852775
 31
0.0
  0
LINE
  5
17E
330
1F
100
AcDbEntity
  8
B-2
  6
Continuous
 62
     3
370
     9
100
AcDbLine
 10
-640.6679260397257
 20
194.9843573696631
 30
0.0
 11
-640.6679260397257
 21
105.9837791852775
 31
0.0
  0
LINE
  5
17F
330
1F
100
AcDbEntity
  8
B-2
  6
Continuous
 62
     3
370
     9
100
AcDbLine
 10
-633.6679153173334
 20
194.9843573696631
 30
0.0
 11
-633.6679153173334
 21
105.9837791852775
 31
0.0
  0
LINE
  5
180
330
1F
100
AcDbEntity
  8
B-2
  6
Continuous
 62
     3
370
     9
100
AcDbLine
 10
-675.968062296588
 20
194.9843573696631
 30
0.0
 11
-675.968062296588
 21
105.9837791852775
 31
0.0
  0
LINE
  5
181
330
1F
100
AcDbEntity
  8
B-2
  6
Continuous
 62
     3
370
     9
100
AcDbLine
 10
-668.9681134341514
 20
194.9843573696631
 30
0.0
 11
-668.9681134341514
 21
105.9837791852775
 31
0.0
  0
LINE
  5
182
330
1F
100
AcDbEntity
  8
B-2
  6
Continuous
 62
     3
370
     9
100
AcDbLine
 10
-711.2682604134061
 20
194.9843573696631
 30
0.0
 11
-711.2682604134061
 21
105.9837791852775
 31
0.0
  0
LINE
  5
183
330
1F
100
AcDbEntity
  8
B-2
  6
Continuous
 62
     3
370
     9
100
AcDbLine
 10
-704.2682496910136
 20
194.9843573696631
 30
0.0
 11
-704.2682496910136
 21
105.9837791852775
 31
0.0
  0
LINE
  5
184
330
1F
100
AcDbEntity
  8
B-2
  6
Continuous
 62
     3
370
     9
100
AcDbLine
 10
-746.567901790623
 20
194.9843573696631
 30
0.0
 11
-746.567901790623
 21
105.9837791852775
 31
0.0
  0
LINE
  5
185
330
1F
100
AcDbEntity
  8
B-2
  6
Continuous
 62
     3
370
     9
100
AcDbLine
 10
-739.5679529281864
 20
194.9843573696631
 30
0.0
 11
-739.5679529281864
 21
105.9837791852775
 31
0.0
  0
LINE
  5
186
330
1F
100
AcDbEntity
  8
B-2
  6
Continuous
 62
     3
370
     9
100
AcDbLine
 10
-781.8680999074411
 20
194.9843573696631
 30
0.0
 11
-781.8680999074411
 21
105.9837791852775
 31
0.0
  0
LINE
  5
187
330
1F
100
AcDbEntity
  8
B-2
  6
Continuous
 62
     3
370
     9
100
AcDbLine
 10
-774.8681510450045
 20
194.9843573696631
 30
0.0
 11
-774.8681510450045
 21
105.9837791852775
 31
0.0
  0
LINE
  5
188
330
1F
100
AcDbEntity
  8
B-2
  6
Continuous
 62
     3
370
     9
100
AcDbLine
 10
-817.1683598842149
 20
194.9843573696631
 30
0.0
 11
-817.1683598842149
 21
105.9837791852775
 31
0.0
  0
LINE
  5
189
330
1F
100
AcDbEntity
  8
B-2
  6
Continuous
 62
     3
370
     9
100
AcDbLine
 10
-810.1682873018667
 20
194.9843573696631
 30
0.0
 11
-810.1682873018667
 21
105.9837791852775
 31
0.0
  0
LINE
  5
18A
330
1F
100
AcDbEntity
  8
B-2
  6
Continuous
 62
     3
370
     9
100
AcDbLine
 10
-605.3677279229076
 20
194.9843573696631
 30
0.0
 11
-605.3677279229076
 21
105.9837791852775
 31
0.0
  0
LINE
  5
18B
330
1F
100
AcDbEntity
  8
B-2
  6
Continuous
 62
     3
370
     9
100
AcDbLine
 10
-598.3677172005152
 20
194.9843573696631
 30
0.0
 11
-598.3677172005152
 21
105.9837791852775
 31
0.0
  0
LINE
  5
18C
330
1F
100
AcDbEntity
  8
B-2
  6
Continuous
 62
     3
370
     9
100
AcDbLine
 10
-570.0675298060896
 20
194.9843573696631
 30
0.0
 11
-570.0675298060896
 21
105.9837791852775
 31
0.0
  0
LINE
  5
18D
330
1F
100
AcDbEntity
  8
B-2
  6
Continuous
 62
     3
370
     9
100
AcDbLine
 10
-563.0675190836973
 20
194.9843573696631
 30
0.0
 11
-563.0675190836973
 21
105.9837791852775
 31
0.0
  0
LINE
  5
18E
330
1F
100
AcDbEntity
  8
B-2
  6
Continuous
 62
     3
370
     9
100
AcDbLine
 10
-534.7673316892717
 20
194.9843573696631
 30
0.0
 11
-534.7673316892717
 21
105.9837791852775
 31
0.0
  0
LINE
  5
18F
330
1F
100
AcDbEntity
  8
B-2
  6
Continuous
 62
     3
370
     9
100
AcDbLine
 10
-527.7673209668794
 20
194.9843573696631
 30
0.0
 11
-527.7673209668794
 21
105.9837791852775
 31
0.0
  0
LINE
  5
190
330
1F
100
AcDbEntity
  8
B-2
  6
Continuous
 62
     3
370
     9
100
AcDbLine
 10
-499.4671335724537
 20
194.9843573696631
 30
0.0
 11
-499.4671335724537
 21
105.9837791852775
 31
0.0
  0
LINE
  5
191
330
1F
100
AcDbEntity
  8
B-2
  6
Continuous
 62
     3
370
     9
100
AcDbLine
 10
-492.4671228500614
 20
194.9843573696631
 30
0.0
 11
-492.4671228500614
 21
105.9837791852775
 31
0.0
  0
LINE
  5
192
330
1F
100
AcDbEntity
  8
B-2
  6
Continuous
 62
     3
370
     9
100
AcDbLine
 10
-464.1669354556358
 20
194.9843573696631
 30
0.0
 11
-464.1669354556358
 21
105.9837791852775
 31
0.0
  0
LINE
  5
193
330
1F
100
AcDbEntity
  8
B-2
  6
Continuous
 62
     3
370
     9
100
AcDbLine
 10
-457.1669247332434
 20
194.9843573696631
 30
0.0
 11
-457.1669247332434
 21
105.9837791852775
 31
0.0
  0
LINE
  5
194
330
1F
100
AcDbEntity
  8
B-2
  6
Continuous
 62
     3
370
     9
100
AcDbLine
 10
-428.8667373388178
 20
194.9843573696631
 30
0.0
 11
-428.8667373388178
 21
105.9837791852775
 31
0.0
  0
LINE
  5
195
330
1F
100
AcDbEntity
  8
B-2
  6
Continuous
 62
     3
370
     9
100
AcDbLine
 10
-421.8667266164255
 20
194.9843573696631
 30
0.0
 11
-421.8667266164255
 21
105.9837791852775
 31
0.0
  0
LINE
  5
196
330
1F
100
AcDbEntity
  8
B-2
  6
Continuous
 62
     3
370
     9
100
AcDbLine
 10
-393.5665392219998
 20
194.9843573696631
 30
0.0
 11
-393.5665392219998
 21
105.9837791852775
 31
0.0
  0
LINE
  5
197
330
1F
100
AcDbEntity
  8
B-2
  6
Continuous
 62
     3
370
     9
100
AcDbLine
 10
-386.5665284996075
 20
194.9843573696631
 30
0.0
 11
-386.5665284996075
 21
105.9837791852775
 31
0.0
  0
LINE
  5
198
330
1F
100
AcDbEntity
  8
B-2
  6
Continuous
 62
     3
370
     9
100
AcDbLine
 10
-845.0681896456167
 20
-5.015683870307388
 30
0.0
 11
-810.1682873018667
 21
5.983758565292217
 31
0.0
  0
LINE
  5
199
330
1F
100
AcDbEntity
  8
B-2
  6
Continuous
 62
     3
370
     9
100
AcDbLine
 10
-809.7679296688432
 20
-5.015683870307388
 30
0.0
 11
-774.8685840646941
 21
5.983758565292217
 31
0.0
  0
LINE
  5
19A
330
1F
100
AcDbEntity
  8
B-2
  6
Continuous
 62
     3
370
     9
100
AcDbLine
 10
-774.4682882916261
 20
-5.015683870307388
 30
0.0
 11
-739.5683859478761
 21
5.983758565292217
 31
0.0
  0
LINE
  5
19B
330
1F
100
AcDbEntity
  8
B-2
  6
Continuous
 62
     3
370
     9
100
AcDbLine
 10
-739.1680901748082
 20
-5.015683870307388
 30
0.0
 11
-704.2682496910136
 21
5.983758565292217
 31
0.0
  0
LINE
  5
19C
330
1F
100
AcDbEntity
  8
B-2
  6
Continuous
 62
     3
370
     9
100
AcDbLine
 10
-703.8683869376354
 20
-5.015683870307388
 30
0.0
 11
-668.9686083137965
 21
5.983758565292217
 31
0.0
  0
LINE
  5
19D
330
1F
100
AcDbEntity
  8
B-2
  6
Continuous
 62
     3
370
     9
100
AcDbLine
 10
-668.568250680773
 20
-5.015683870307388
 30
0.0
 11
-633.6684720569343
 21
5.983758565292217
 31
0.0
  0
LINE
  5
19E
330
1F
100
AcDbEntity
  8
B-2
  6
Continuous
 62
     3
370
     9
100
AcDbLine
 10
-633.2681144239107
 20
-5.015683870307388
 30
0.0
 11
-598.3682739401163
 21
5.983758565292217
 31
0.0
  0
LINE
  5
19F
330
1F
100
AcDbEntity
  8
B-2
  6
Continuous
 62
     3
370
     9
100
AcDbLine
 10
-852.0686333876986
 20
3.902789656930761
 30
0.0
 11
-845.4684235587291
 21
5.983758565292217
 31
0.0
  0
LINE
  5
1A0
330
1F
100
AcDbEntity
  8
B-2
  6
Continuous
 62
     3
370
     9
100
AcDbLine
 10
-597.9679163070927
 20
-5.015683870307388
 30
0.0
 11
-563.0680758232983
 21
5.983758565292217
 31
0.0
  0
LINE
  5
1A1
330
1F
100
AcDbEntity
  8
B-2
  6
Continuous
 62
     3
370
     9
100
AcDbLine
 10
-562.6677181902746
 20
-5.015683870307388
 30
0.0
 11
-527.7678777064802
 21
5.983758565292217
 31
0.0
  0
LINE
  5
1A2
330
1F
100
AcDbEntity
  8
B-2
  6
Continuous
 62
     3
370
     9
100
AcDbLine
 10
-527.3675200734567
 20
-5.015683870307388
 30
0.0
 11
-492.4676795896623
 21
5.983758565292217
 31
0.0
  0
LINE
  5
1A3
330
1F
100
AcDbEntity
  8
B-2
  6
Continuous
 62
     3
370
     9
100
AcDbLine
 10
-852.0686333876986
 20
-5.015683870307388
 30
0.0
 11
-351.0686878244596
 21
-5.015683870307388
 31
0.0
  0
LINE
  5
1A4
330
1F
100
AcDbEntity
  8
B-2
  6
Continuous
 62
     3
370
     9
100
AcDbLine
 10
-852.0686333876986
 20
5.983758565292217
 30
0.0
 11
-351.0686878244596
 21
5.983758565292217
 31
0.0
  0
LINE
  5
1A5
330
1F
100
AcDbEntity
  8
B-2
  6
Continuous
 62
     3
370
     9
100
AcDbLine
 10
-492.0673219566388
 20
-5.015683870307388
 30
0.0
 11
-457.1674814728443
 21
5.983758565292217
 31
0.0
  0
LINE
  5
1A6
330
1F
100
AcDbEntity
  8
B-2
  6
Continuous
 62
     3
370
     9
100
AcDbLine
 10
-456.7671238398207
 20
-5.015683870307388
 30
0.0
 11
-421.8672833560264
 21
5.983758565292217
 31
0.0
  0
LINE
  5
1A7
330
1F
100
AcDbEntity
  8
B-2
  6
Continuous
 62
     3
370
     9
100
AcDbLine
 10
-421.4669257230026
 20
-5.015683870307388
 30
0.0
 11
-386.5670852392084
 21
5.983758565292217
 31
0.0
  0
LINE
  5
1A8
330
1F
100
AcDbEntity
  8
B-2
  6
Continuous
 62
     3
370
     9
100
AcDbLine
 10
-386.1667276061847
 20
-5.015683870307388
 30
0.0
 11
-351.2668871223905
 21
5.983758565292217
 31
0.0
  0
LINE
  5
1A9
330
1F
100
AcDbEntity
  8
B-2
  6
Continuous
 62
     3
370
     9
100
AcDbLine
 10
-845.0681896456167
 20
5.983758565292217
 30
0.0
 11
-845.0681896456167
 21
94.98433674967777
 31
0.0
  0
LINE
  5
1AA
330
1F
100
AcDbEntity
  8
B-2
  6
Continuous
 62
     3
370
     9
100
AcDbLine
 10
-358.0696264461868
 20
94.98433674967777
 30
0.0
 11
-358.0696264461868
 21
5.983758565292217
 31
0.0
  0
LINE
  5
1AB
330
1F
100
AcDbEntity
  8
B-2
  6
Continuous
 62
     3
370
     9
100
AcDbLine
 10
-640.6679260397257
 20
94.98433674967777
 30
0.0
 11
-640.6679260397257
 21
5.983758565292217
 31
0.0
  0
LINE
  5
1AC
330
1F
100
AcDbEntity
  8
B-2
  6
Continuous
 62
     3
370
     9
100
AcDbLine
 10
-633.6679153173334
 20
94.98433674967777
 30
0.0
 11
-633.6679153173334
 21
5.983758565292217
 31
0.0
  0
LINE
  5
1AD
330
1F
100
AcDbEntity
  8
B-2
  6
Continuous
 62
     3
370
     9
100
AcDbLine
 10
-675.968062296588
 20
94.98433674967777
 30
0.0
 11
-675.968062296588
 21
5.983758565292217
 31
0.0
  0
LINE
  5
1AE
330
1F
100
AcDbEntity
  8
B-2
  6
Continuous
 62
     3
370
     9
100
AcDbLine
 10
-668.9681134341514
 20
94.98433674967777
 30
0.0
 11
-668.9681134341514
 21
5.983758565292217
 31
0.0
  0
LINE
  5
1AF
330
1F
100
AcDbEntity
  8
B-2
  6
Continuous
 62
     3
370
     9
100
AcDbLine
 10
-711.2682604134061
 20
94.98433674967777
 30
0.0
 11
-711.2682604134061
 21
5.983758565292217
 31
0.0
  0
LINE
  5
1B0
330
1F
100
AcDbEntity
  8
B-2
  6
Continuous
 62
     3
370
     9
100
AcDbLine
 10
-704.2682496910136
 20
94.98433674967777
 30
0.0
 11
-704.2682496910136
 21
5.983758565292217
 31
0.0
  0
LINE
  5
1B1
330
1F
100
AcDbEntity
  8
B-2
  6
Continuous
 62
     3
370
     9
100
AcDbLine
 10
-746.567901790623
 20
94.98433674967777
 30
0.0
 11
-746.567901790623
 21
5.983758565292217
 31
0.0
  0
LINE
  5
1B2
330
1F
100
AcDbEntity
  8
B-2
  6
Continuous
 62
     3
370
     9
100
AcDbLine
 10
-739.5679529281864
 20
94.98433674967777
 30
0.0
 11
-739.5679529281864
 21
5.983758565292217
 31
0.0
  0
LINE
  5
1B3
330
1F
100
AcDbEntity
  8
B-2
  6
Continuous
 62
     3
370
     9
100
AcDbLine
 10
-781.8680999074411
 20
94.98433674967777
 30
0.0
 11
-781.8680999074411
 21
5.983758565292217
 31
0.0
  0
LINE
  5
1B4
330
1F
100
AcDbEntity
  8
B-2
  6
Continuous
 62
     3
370
     9
100
AcDbLine
 10
-774.8681510450045
 20
94.98433674967777
 30
0.0
 11
-774.8681510450045
 21
5.983758565292217
 31
0.0
  0
LINE
  5
1B5
330
1F
100
AcDbEntity
  8
B-2
  6
Continuous
 62
     3
370
     9
100
AcDbLine
 10
-817.1683598842149
 20
94.98433674967777
 30
0.0
 11
-817.1683598842149
 21
5.983758565292217
 31
0.0
  0
LINE
  5
1B6
330
1F
100
AcDbEntity
  8
B-2
  6
Continuous
 62
     3
370
     9
100
AcDbLine
 10
-810.1682873018667
 20
94.98433674967777
 30
0.0
 11
-810.1682873018667
 21
5.983758565292217
 31
0.0
  0
LINE
  5
1B7
330
1F
100
AcDbEntity
  8
B-2
  6
Continuous
 62
     3
370
     9
100
AcDbLine
 10
-605.3677279229076
 20
94.98433674967777
 30
0.0
 11
-605.3677279229076
 21
5.983758565292217
 31
0.0
  0
LINE
  5
1B8
330
1F
100
AcDbEntity
  8
B-2
  6
Continuous
 62
     3
370
     9
100
AcDbLine
 10
-598.3677172005152
 20
94.98433674967777
 30
0.0
 11
-598.3677172005152
 21
5.983758565292217
 31
0.0
  0
LINE
  5
1B9
330
1F
100
AcDbEntity
  8
B-2
  6
Continuous
 62
     3
370
     9
100
AcDbLine
 10
-570.0675298060896
 20
94.98433674967777
 30
0.0
 11
-570.0675298060896
 21
5.983758565292217
 31
0.0
  0
LINE
  5
1BA
330
1F
100
AcDbEntity
  8
B-2
  6
Continuous
 62
     3
370
     9
100
AcDbLine
 10
-563.0675190836973
 20
94.98433674967777
 30
0.0
 11
-563.0675190836973
 21
5.983758565292217
 31
0.0
  0
LINE
  5
1BB
330
1F
100
AcDbEntity
  8
B-2
  6
Continuous
 62
     3
370
     9
100
AcDbLine
 10
-534.7673316892717
 20
94.98433674967777
 30
0.0
 11
-534.7673316892717
 21
5.983758565292217
 31
0.0
  0
LINE
  5
1BC
330
1F
100
AcDbEntity
  8
B-2
  6
Continuous
 62
     3
370
     9
100
AcDbLine
 10
-527.7673209668794
 20
94.98433674967777
 30
0.0
 11
-527.7673209668794
 21
5.983758565292217
 31
0.0
  0
LINE
  5
1BD
330
1F
100
AcDbEntity
  8
B-2
  6
Continuous
 62
     3
370
     9
100
AcDbLine
 10
-499.4671335724537
 20
94.98433674967777
 30
0.0
 11
-499.4671335724537
 21
5.983758565292217
 31
0.0
  0
LINE
  5
1BE
330
1F
100
AcDbEntity
  8
B-2
  6
Continuous
 62
     3
370
     9
100
AcDbLine
 10
-492.4671228500614
 20
94.98433674967777
 30
0.0
 11
-492.4671228500614
 21
5.983758565292217
 31
0.0
  0
LINE
  5
1BF
330
1F
100
AcDbEntity
  8
B-2
  6
Continuous
 62
     3
370
     9
100
AcDbLine
 10
-464.1669354556358
 20
94.98433674967777
 30
0.0
 11
-464.1669354556358
 21
5.983758565292217
 31
0.0
  0
LINE
  5
1C0
330
1F
100
AcDbEntity
  8
B-2
  6
Continuous
 62
     3
370
     9
100
AcDbLine
 10
-457.1669247332434
 20
94.98433674967777
 30
0.0
 11
-457.1669247332434
 21
5.983758565292217
 31
0.0
  0
LINE
  5
1C1
330
1F
100
AcDbEntity
  8
B-2
  6
Continuous
 62
     3
370
     9
100
AcDbLine
 10
-428.8667373388178
 20
94.98433674967777
 30
0.0
 11
-428.8667373388178
 21
5.983758565292217
 31
0.0
  0
LINE
  5
1C2
330
1F
100
AcDbEntity
  8
B-2
  6
Continuous
 62
     3
370
     9
100
AcDbLine
 10
-421.8667266164255
 20
94.98433674967777
 30
0.0
 11
-421.8667266164255
 21
5.983758565292217
 31
0.0
  0
LINE
  5
1C3
330
1F
100
AcDbEntity
  8
B-2
  6
Continuous
 62
     3
370
     9
100
AcDbLine
 10
-393.5665392219998
 20
94.98433674967777
 30
0.0
 11
-393.5665392219998
 21
5.983758565292217
 31
0.0
  0
LINE
  5
1C4
330
1F
100
AcDbEntity
  8
B-2
  6
Continuous
 62
     3
370
     9
100
AcDbLine
 10
-386.5665284996075
 20
94.98433674967777
 30
0.0
 11
-386.5665284996075
 21
5.983758565292217
 31
0.0
  0
LINE
  5
1C5
330
1F
100
AcDbEntity
  8
B-4
  6
Continuous
 62
     7
370
     9
100
AcDbLine
 10
-813.6683235930409
 20
540.5397607955499
 30
0.0
 11
-778.3681254762228
 21
540.5397607955499
 31
0.0
  0
LINE
  5
1C6
330
1F
100
AcDbEntity
  8
B-4
  6
Continuous
 62
     7
370
     9
100
AcDbLine
 10
-813.6683235930409
 20
476.449753735267
 30
0.0
 11
-813.6683235930409
 21
542.0397410003641
 31
0.0
  0
LINE
  5
1C7
330
1F
100
AcDbEntity
  8
B-4
  6
Continuous
 62
     7
370
     9
100
AcDbLine
 10
-778.3681254762228
 20
476.449753735267
 30
0.0
 11
-778.3681254762228
 21
542.0397410003641
 31
0.0
  0
LINE
  5
1C8
330
1F
100
AcDbEntity
  8
B-2
  6
Continuous
 62
     3
370
     9
100
AcDbLine
 10
-845.0681896456167
 20
-105.0157044902926
 30
0.0
 11
-810.1682873018667
 21
-94.01626205469293
 31
0.0
  0
LINE
  5
1C9
330
1F
100
AcDbEntity
  8
B-2
  6
Continuous
 62
     3
370
     9
100
AcDbLine
 10
-809.7679296688432
 20
-105.0157044902926
 30
0.0
 11
-774.8685840646941
 21
-94.01626205469293
 31
0.0
  0
LINE
  5
1CA
330
1F
100
AcDbEntity
  8
B-2
  6
Continuous
 62
     3
370
     9
100
AcDbLine
 10
-774.4682882916261
 20
-105.0157044902926
 30
0.0
 11
-739.5683859478761
 21
-94.01626205469293
 31
0.0
  0
LINE
  5
1CB
330
1F
100
AcDbEntity
  8
B-2
  6
Continuous
 62
     3
370
     9
100
AcDbLine
 10
-739.1680901748082
 20
-105.0157044902926
 30
0.0
 11
-704.2682496910136
 21
-94.01626205469293
 31
0.0
  0
LINE
  5
1CC
330
1F
100
AcDbEntity
  8
B-2
  6
Continuous
 62
     3
370
     9
100
AcDbLine
 10
-703.8683869376354
 20
-105.0157044902926
 30
0.0
 11
-668.9686083137965
 21
-94.01626205469293
 31
0.0
  0
LINE
  5
1CD
330
1F
100
AcDbEntity
  8
B-2
  6
Continuous
 62
     3
370
     9
100
AcDbLine
 10
-668.568250680773
 20
-105.0157044902926
 30
0.0
 11
-633.6684720569343
 21
-94.01626205469293
 31
0.0
  0
LINE
  5
1CE
330
1F
100
AcDbEntity
  8
B-2
  6
Continuous
 62
     3
370
     9
100
AcDbLine
 10
-633.2681144239107
 20
-105.0157044902926
 30
0.0
 11
-598.3682739401163
 21
-94.01626205469293
 31
0.0
  0
LINE
  5
1CF
330
1F
100
AcDbEntity
  8
B-2
  6
Continuous
 62
     3
370
     9
100
AcDbLine
 10
-852.0686333876986
 20
-96.09723096305446
 30
0.0
 11
-845.4684235587291
 21
-94.01626205469293
 31
0.0
  0
LINE
  5
1D0
330
1F
100
AcDbEntity
  8
B-2
  6
Continuous
 62
     3
370
     9
100
AcDbLine
 10
-597.9679163070927
 20
-105.0157044902926
 30
0.0
 11
-563.0680758232983
 21
-94.01626205469293
 31
0.0
  0
LINE
  5
1D1
330
1F
100
AcDbEntity
  8
B-2
  6
Continuous
 62
     3
370
     9
100
AcDbLine
 10
-562.6677181902746
 20
-105.0157044902926
 30
0.0
 11
-527.7678777064802
 21
-94.01626205469293
 31
0.0
  0
LINE
  5
1D2
330
1F
100
AcDbEntity
  8
B-2
  6
Continuous
 62
     3
370
     9
100
AcDbLine
 10
-527.3675200734567
 20
-105.0157044902926
 30
0.0
 11
-492.4676795896623
 21
-94.01626205469293
 31
0.0
  0
LINE
  5
1D3
330
1F
100
AcDbEntity
  8
B-2
  6
Continuous
 62
     3
370
     9
100
AcDbLine
 10
-852.0686333876986
 20
-105.0157044902926
 30
0.0
 11
-351.0686878244596
 21
-105.0157044902926
 31
0.0
  0
LINE
  5
1D4
330
1F
100
AcDbEntity
  8
B-2
  6
Continuous
 62
     3
370
     9
100
AcDbLine
 10
-852.0686333876986
 20
-94.01626205469293
 30
0.0
 11
-351.0686878244596
 21
-94.01626205469293
 31
0.0
  0
LINE
  5
1D5
330
1F
100
AcDbEntity
  8
B-2
  6
Continuous
 62
     3
370
     9
100
AcDbLine
 10
-492.0673219566388
 20
-105.0157044902926
 30
0.0
 11
-457.1674814728443
 21
-94.01626205469293
 31
0.0
  0
LINE
  5
1D6
330
1F
100
AcDbEntity
  8
B-2
  6
Continuous
 62
     3
370
     9
100
AcDbLine
 10
-456.7671238398207
 20
-105.0157044902926
 30
0.0
 11
-421.8672833560264
 21
-94.01626205469293
 31
0.0
  0
LINE
  5
1D7
330
1F
100
AcDbEntity
  8
B-2
  6
Continuous
 62
     3
370
     9
100
AcDbLine
 10
-421.4669257230026
 20
-105.0157044902926
 30
0.0
 11
-386.5670852392084
 21
-94.01626205469293
 31
0.0
  0
LINE
  5
1D8
330
1F
100
AcDbEntity
  8
B-2
  6
Continuous
 62
     3
370
     9
100
AcDbLine
 10
-386.1667276061847
 20
-105.0157044902926
 30
0.0
 11
-351.2668871223905
 21
-94.01626205469293
 31
0.0
  0
LINE
  5
1D9
330
1F
100
AcDbEntity
  8
B-2
  6
Continuous
 62
     3
370
     9
100
AcDbLine
 10
-845.0681896456167
 20
-194.0168084843012
 30
0.0
 11
-845.0681896456167
 21
-105.0157044902926
 31
0.0
  0
LINE
  5
1DA
330
1F
100
AcDbEntity
  8
B-2
  6
Continuous
 62
     3
370
     9
100
AcDbLine
 10
-845.0681896456167
 20
-94.01626205469293
 30
0.0
 11
-845.0681896456167
 21
-5.015683870307388
 31
0.0
  0
LINE
  5
1DB
330
1F
100
AcDbEntity
  8
B-2
  6
Continuous
 62
     3
370
     9
100
AcDbLine
 10
-358.0696264461868
 20
-5.015683870307388
 30
0.0
 11
-358.0696264461868
 21
-94.01626205469293
 31
0.0
  0
LINE
  5
1DC
330
1F
100
AcDbEntity
  8
B-2
  6
Continuous
 62
     3
370
     9
100
AcDbLine
 10
-358.0696264461868
 20
-105.0157044902926
 30
0.0
 11
-358.0696264461868
 21
-194.0168084843012
 31
0.0
  0
LINE
  5
1DD
330
1F
100
AcDbEntity
  8
B-2
  6
Continuous
 62
     3
370
     9
100
AcDbLine
 10
-640.6679260397257
 20
-5.015683870307388
 30
0.0
 11
-640.6679260397257
 21
-94.01626205469293
 31
0.0
  0
LINE
  5
1DE
330
1F
100
AcDbEntity
  8
B-2
  6
Continuous
 62
     3
370
     9
100
AcDbLine
 10
-640.6679260397257
 20
-105.0157044902926
 30
0.0
 11
-640.6679260397257
 21
-194.0168084843012
 31
0.0
  0
LINE
  5
1DF
330
1F
100
AcDbEntity
  8
B-2
  6
Continuous
 62
     3
370
     9
100
AcDbLine
 10
-633.6679153173334
 20
-5.015683870307388
 30
0.0
 11
-633.6679153173334
 21
-94.01626205469293
 31
0.0
  0
LINE
  5
1E0
330
1F
100
AcDbEntity
  8
B-2
  6
Continuous
 62
     3
370
     9
100
AcDbLine
 10
-633.6679153173334
 20
-105.0157044902926
 30
0.0
 11
-633.6679153173334
 21
-194.0168084843012
 31
0.0
  0
LINE
  5
1E1
330
1F
100
AcDbEntity
  8
B-2
  6
Continuous
 62
     3
370
     9
100
AcDbLine
 10
-675.968062296588
 20
-5.015683870307388
 30
0.0
 11
-675.968062296588
 21
-94.01626205469293
 31
0.0
  0
LINE
  5
1E2
330
1F
100
AcDbEntity
  8
B-2
  6
Continuous
 62
     3
370
     9
100
AcDbLine
 10
-675.968062296588
 20
-105.0157044902926
 30
0.0
 11
-675.968062296588
 21
-194.0168084843012
 31
0.0
  0
LINE
  5
1E3
330
1F
100
AcDbEntity
  8
B-2
  6
Continuous
 62
     3
370
     9
100
AcDbLine
 10
-668.9681134341514
 20
-5.015683870307388
 30
0.0
 11
-668.9681134341514
 21
-94.01626205469293
 31
0.0
  0
LINE
  5
1E4
330
1F
100
AcDbEntity
  8
B-2
  6
Continuous
 62
     3
370
     9
100
AcDbLine
 10
-668.9681134341514
 20
-105.0157044902926
 30
0.0
 11
-668.9681134341514
 21
-194.0168084843012
 31
0.0
  0
LINE
  5
1E5
330
1F
100
AcDbEntity
  8
B-2
  6
Continuous
 62
     3
370
     9
100
AcDbLine
 10
-711.2682604134061
 20
-5.015683870307388
 30
0.0
 11
-711.2682604134061
 21
-94.01626205469293
 31
0.0
  0
LINE
  5
1E6
330
1F
100
AcDbEntity
  8
B-2
  6
Continuous
 62
     3
370
     9
100
AcDbLine
 10
-711.2682604134061
 20
-105.0157044902926
 30
0.0
 11
-711.2682604134061
 21
-194.0168084843012
 31
0.0
  0
LINE
  5
1E7
330
1F
100
AcDbEntity
  8
B-2
  6
Continuous
 62
     3
370
     9
100
AcDbLine
 10
-704.2682496910136
 20
-5.015683870307388
 30
0.0
 11
-704.2682496910136
 21
-94.01626205469293
 31
0.0
  0
LINE
  5
1E8
330
1F
100
AcDbEntity
  8
B-2
  6
Continuous
 62
     3
370
     9
100
AcDbLine
 10
-704.2682496910136
 20
-105.0157044902926
 30
0.0
 11
-704.2682496910136
 21
-194.0168084843012
 31
0.0
  0
LINE
  5
1E9
330
1F
100
AcDbEntity
  8
B-2
  6
Continuous
 62
     3
370
     9
100
AcDbLine
 10
-746.567901790623
 20
-5.015683870307388
 30
0.0
 11
-746.567901790623
 21
-94.01626205469293
 31
0.0
  0
LINE
  5
1EA
330
1F
100
AcDbEntity
  8
B-2
  6
Continuous
 62
     3
370
     9
100
AcDbLine
 10
-746.567901790623
 20
-105.0157044902926
 30
0.0
 11
-746.567901790623
 21
-194.0168084843012
 31
0.0
  0
LINE
  5
1EB
330
1F
100
AcDbEntity
  8
B-2
  6
Continuous
 62
     3
370
     9
100
AcDbLine
 10
-739.5679529281864
 20
-5.015683870307388
 30
0.0
 11
-739.5679529281864
 21
-94.01626205469293
 31
0.0
  0
LINE
  5
1EC
330
1F
100
AcDbEntity
  8
B-2
  6
Continuous
 62
     3
370
     9
100
AcDbLine
 10
-739.5679529281864
 20
-105.0157044902926
 30
0.0
 11
-739.5679529281864
 21
-194.0168084843012
 31
0.0
  0
LINE
  5
1ED
330
1F
100
AcDbEntity
  8
B-2
  6
Continuous
 62
     3
370
     9
100
AcDbLine
 10
-781.8680999074411
 20
-5.015683870307388
 30
0.0
 11
-781.8680999074411
 21
-94.01626205469293
 31
0.0
  0
LINE
  5
1EE
330
1F
100
AcDbEntity
  8
B-2
  6
Continuous
 62
     3
370
     9
100
AcDbLine
 10
-781.8680999074411
 20
-105.0157044902926
 30
0.0
 11
-781.8680999074411
 21
-194.0168084843012
 31
0.0
  0
LINE
  5
1EF
330
1F
100
AcDbEntity
  8
B-2
  6
Continuous
 62
     3
370
     9
100
AcDbLine
 10
-774.8681510450045
 20
-5.015683870307388
 30
0.0
 11
-774.8681510450045
 21
-94.01626205469293
 31
0.0
  0
LINE
  5
1F0
330
1F
100
AcDbEntity
  8
B-2
  6
Continuous
 62
     3
370
     9
100
AcDbLine
 10
-774.8681510450045
 20
-105.0157044902926
 30
0.0
 11
-774.8681510450045
 21
-194.0168084843012
 31
0.0
  0
LINE
  5
1F1
330
1F
100
AcDbEntity
  8
B-2
  6
Continuous
 62
     3
370
     9
100
AcDbLine
 10
-817.1683598842149
 20
-5.015683870307388
 30
0.0
 11
-817.1683598842149
 21
-94.01626205469293
 31
0.0
  0
LINE
  5
1F2
330
1F
100
AcDbEntity
  8
B-2
  6
Continuous
 62
     3
370
     9
100
AcDbLine
 10
-817.1683598842149
 20
-105.0157044902926
 30
0.0
 11
-817.1683598842149
 21
-194.0168084843012
 31
0.0
  0
LINE
  5
1F3
330
1F
100
AcDbEntity
  8
B-2
  6
Continuous
 62
     3
370
     9
100
AcDbLine
 10
-810.1682873018667
 20
-5.015683870307388
 30
0.0
 11
-810.1682873018667
 21
-94.01626205469293
 31
0.0
  0
LINE
  5
1F4
330
1F
100
AcDbEntity
  8
B-2
  6
Continuous
 62
     3
370
     9
100
AcDbLine
 10
-810.1682873018667
 20
-105.0157044902926
 30
0.0
 11
-810.1682873018667
 21
-194.0168084843012
 31
0.0
  0
LINE
  5
1F5
330
1F
100
AcDbEntity
  8
B-2
  6
Continuous
 62
     3
370
     9
100
AcDbLine
 10
-605.3677279229076
 20
-5.015683870307388
 30
0.0
 11
-605.3677279229076
 21
-94.01626205469293
 31
0.0
  0
LINE
  5
1F6
330
1F
100
AcDbEntity
  8
B-2
  6
Continuous
 62
     3
370
     9
100
AcDbLine
 10
-605.3677279229076
 20
-105.0157044902926
 30
0.0
 11
-605.3677279229076
 21
-194.0168084843012
 31
0.0
  0
LINE
  5
1F7
330
1F
100
AcDbEntity
  8
B-2
  6
Continuous
 62
     3
370
     9
100
AcDbLine
 10
-598.3677172005152
 20
-5.015683870307388
 30
0.0
 11
-598.3677172005152
 21
-94.01626205469293
 31
0.0
  0
LINE
  5
1F8
330
1F
100
AcDbEntity
  8
B-2
  6
Continuous
 62
     3
370
     9
100
AcDbLine
 10
-598.3677172005152
 20
-105.0157044902926
 30
0.0
 11
-598.3677172005152
 21
-194.0168084843012
 31
0.0
  0
LINE
  5
1F9
330
1F
100
AcDbEntity
  8
B-2
  6
Continuous
 62
     3
370
     9
100
AcDbLine
 10
-570.0675298060896
 20
-5.015683870307388
 30
0.0
 11
-570.0675298060896
 21
-94.01626205469293
 31
0.0
  0
LINE
  5
1FA
330
1F
100
AcDbEntity
  8
B-2
  6
Continuous
 62
     3
370
     9
100
AcDbLine
 10
-570.0675298060896
 20
-105.0157044902926
 30
0.0
 11
-570.0675298060896
 21
-194.0168084843012
 31
0.0
  0
LINE
  5
1FB
330
1F
100
AcDbEntity
  8
B-2
  6
Continuous
 62
     3
370
     9
100
AcDbLine
 10
-563.0675190836973
 20
-5.015683870307388
 30
0.0
 11
-563.0675190836973
 21
-94.01626205469293
 31
0.0
  0
LINE
  5
1FC
330
1F
100
AcDbEntity
  8
B-2
  6
Continuous
 62
     3
370
     9
100
AcDbLine
 10
-563.0675190836973
 20
-105.0157044902926
 30
0.0
 11
-563.0675190836973
 21
-194.0168084843012
 31
0.0
  0
LINE
  5
1FD
330
1F
100
AcDbEntity
  8
B-2
  6
Continuous
 62
     3
370
     9
100
AcDbLine
 10
-534.7673316892717
 20
-5.015683870307388
 30
0.0
 11
-534.7673316892717
 21
-94.01626205469293
 31
0.0
  0
LINE
  5
1FE
330
1F
100
AcDbEntity
  8
B-2
  6
Continuous
 62
     3
370
     9
100
AcDbLine
 10
-534.7673316892717
 20
-105.0157044902926
 30
0.0
 11
-534.7673316892717
 21
-194.0168084843012
 31
0.0
  0
LINE
  5
1FF
330
1F
100
AcDbEntity
  8
B-2
  6
Continuous
 62
     3
370
     9
100
AcDbLine
 10
-527.7673209668794
 20
-5.015683870307388
 30
0.0
 11
-527.7673209668794
 21
-94.01626205469293
 31
0.0
  0
LINE
  5
200
330
1F
100
AcDbEntity
  8
B-2
  6
Continuous
 62
     3
370
     9
100
AcDbLine
 10
-527.7673209668794
 20
-105.0157044902926
 30
0.0
 11
-527.7673209668794
 21
-194.0168084843012
 31
0.0
  0
LINE
  5
201
330
1F
100
AcDbEntity
  8
B-2
  6
Continuous
 62
     3
370
     9
100
AcDbLine
 10
-499.4671335724537
 20
-5.015683870307388
 30
0.0
 11
-499.4671335724537
 21
-94.01626205469293
 31
0.0
  0
LINE
  5
202
330
1F
100
AcDbEntity
  8
B-2
  6
Continuous
 62
     3
370
     9
100
AcDbLine
 10
-499.4671335724537
 20
-105.0157044902926
 30
0.0
 11
-499.4671335724537
 21
-194.0168084843012
 31
0.0
  0
LINE
  5
203
330
1F
100
AcDbEntity
  8
B-2
  6
Continuous
 62
     3
370
     9
100
AcDbLine
 10
-492.4671228500614
 20
-5.015683870307388
 30
0.0
 11
-492.4671228500614
 21
-94.01626205469293
 31
0.0
  0
LINE
  5
204
330
1F
100
AcDbEntity
  8
B-2
  6
Continuous
 62
     3
370
     9
100
AcDbLine
 10
-492.4671228500614
 20
-105.0157044902926
 30
0.0
 11
-492.4671228500614
 21
-194.0168084843012
 31
0.0
  0
LINE
  5
205
330
1F
100
AcDbEntity
  8
B-2
  6
Continuous
 62
     3
370
     9
100
AcDbLine
 10
-464.1669354556358
 20
-5.015683870307388
 30
0.0
 11
-464.1669354556358
 21
-94.01626205469293
 31
0.0
  0
LINE
  5
206
330
1F
100
AcDbEntity
  8
B-2
  6
Continuous
 62
     3
370
     9
100
AcDbLine
 10
-464.1669354556358
 20
-105.0157044902926
 30
0.0
 11
-464.1669354556358
 21
-194.0168084843012
 31
0.0
  0
LINE
  5
207
330
1F
100
AcDbEntity
  8
B-2
  6
Continuous
 62
     3
370
     9
100
AcDbLine
 10
-457.1669247332434
 20
-5.015683870307388
 30
0.0
 11
-457.1669247332434
 21
-94.01626205469293
 31
0.0
  0
LINE
  5
208
330
1F
100
AcDbEntity
  8
B-2
  6
Continuous
 62
     3
370
     9
100
AcDbLine
 10
-457.1669247332434
 20
-105.0157044902926
 30
0.0
 11
-457.1669247332434
 21
-194.0168084843012
 31
0.0
  0
LINE
  5
209
330
1F
100
AcDbEntity
  8
B-2
  6
Continuous
 62
     3
370
     9
100
AcDbLine
 10
-428.8667373388178
 20
-5.015683870307388
 30
0.0
 11
-428.8667373388178
 21
-94.01626205469293
 31
0.0
  0
LINE
  5
20A
330
1F
100
AcDbEntity
  8
B-2
  6
Continuous
 62
     3
370
     9
100
AcDbLine
 10
-428.8667373388178
 20
-105.0157044902926
 30
0.0
 11
-428.8667373388178
 21
-194.0168084843012
 31
0.0
  0
LINE
  5
20B
330
1F
100
AcDbEntity
  8
B-2
  6
Continuous
 62
     3
370
     9
100
AcDbLine
 10
-421.8667266164255
 20
-5.015683870307388
 30
0.0
 11
-421.8667266164255
 21
-94.01626205469293
 31
0.0
  0
LINE
  5
20C
330
1F
100
AcDbEntity
  8
B-2
  6
Continuous
 62
     3
370
     9
100
AcDbLine
 10
-421.8667266164255
 20
-105.0157044902926
 30
0.0
 11
-421.8667266164255
 21
-194.0168084843012
 31
0.0
  0
LINE
  5
20D
330
1F
100
AcDbEntity
  8
B-2
  6
Continuous
 62
     3
370
     9
100
AcDbLine
 10
-393.5665392219998
 20
-5.015683870307388
 30
0.0
 11
-393.5665392219998
 21
-94.01626205469293
 31
0.0
  0
LINE
  5
20E
330
1F
100
AcDbEntity
  8
B-2
  6
Continuous
 62
     3
370
     9
100
AcDbLine
 10
-393.5665392219998
 20
-105.0157044902926
 30
0.0
 11
-393.5665392219998
 21
-194.0168084843012
 31
0.0
  0
LINE
  5
20F
330
1F
100
AcDbEntity
  8
B-2
  6
Continuous
 62
     3
370
     9
100
AcDbLine
 10
-386.5665284996075
 20
-5.015683870307388
 30
0.0
 11
-386.5665284996075
 21
-94.01626205469293
 31
0.0
  0
LINE
  5
210
330
1F
100
AcDbEntity
  8
B-2
  6
Continuous
 62
     3
370
     9
100
AcDbLine
 10
-386.5665284996075
 20
-105.0157044902926
 30
0.0
 11
-386.5665284996075
 21
-194.0168084843012
 31
0.0
  0
ARC
  5
211
330
1F
100
AcDbEntity
  8
B-1
  6
Continuous
 62
     2
370
     9
100
AcDbCircle
 10
132.4490156700506
 20
530.4835589638353
 30
0.0
 40
17.99999829885122
100
AcDbArc
 50
270.0
 51
285.0
  0
ARC
  5
212
330
1F
100
AcDbEntity
  8
B-1
  6
Continuous
 62
     2
370
     9
100
AcDbCircle
 10
194.1340313742313
 20
533.0355295745828
 30
0.0
 40
4.499999574712805
100
AcDbArc
 50
285.0001373291016
 51
104.9999084472656
  0
ARC
  5
213
330
1F
100
AcDbEntity
  8
B-1
  6
JWW_CENTER2
 62
     2
370
     9
100
AcDbCircle
 10
132.4490156700506
 20
530.4833115240128
 30
0.0
 40
13.50000065726203
100
AcDbArc
 50
270.0
 51
284.9999542236328
  0
ARC
  5
214
330
1F
100
AcDbEntity
  8
B-1
  6
Continuous
 62
     2
370
     9
100
AcDbCircle
 10
132.4491393899618
 20
530.4835589638353
 30
0.0
 40
8.99999914942561
100
AcDbArc
 50
270.0
 51
285.0000152587891
  0
ARC
  5
215
330
1F
100
AcDbEntity
  8
B-1
  6
Continuous
 62
     2
370
     9
100
AcDbCircle
 10
137.6339934334584
 20
501.4834880310863
 30
0.0
 40
4.99999958115655
100
AcDbArc
 50
0.0
 51
90.0
  0
ARC
  5
216
330
1F
100
AcDbEntity
  8
B-1
  6
Continuous
 62
     2
370
     9
100
AcDbCircle
 10
70.63397033907509
 20
509.4833412167915
 30
0.0
 40
2.999999797022021
100
AcDbArc
 50
180.0
 51
270.0
  0
ARC
  5
217
330
1F
100
AcDbEntity
  8
B-1
  6
Continuous
 62
     2
370
     9
100
AcDbCircle
 10
145.6339703390751
 20
455.483435243924
 30
0.0
 40
2.999999797022021
100
AcDbArc
 50
180.0
 51
270.0
  0
ARC
  5
218
330
1F
100
AcDbEntity
  8
B-1
  6
Continuous
 62
     2
370
     9
100
AcDbCircle
 10
132.4490156700506
 20
-325.5168464250741
 30
0.0
 40
17.99999829885122
100
AcDbArc
 50
75.0
 51
89.99999999999999
  0
ARC
  5
219
330
1F
100
AcDbEntity
  8
B-1
  6
Continuous
 62
     2
370
     9
100
AcDbCircle
 10
194.1340313742313
 20
-328.0688170358216
 30
0.0
 40
4.499999574712805
100
AcDbArc
 50
255.0000915527344
 51
74.99986267089845
  0
ARC
  5
21A
330
1F
100
AcDbEntity
  8
B-1
  6
JWW_CENTER2
 62
     2
370
     9
100
AcDbCircle
 10
132.4490156700506
 20
-325.5165989852514
 30
0.0
 40
13.50000065726203
100
AcDbArc
 50
75.00004577636717
 51
90.0
  0
ARC
  5
21B
330
1F
100
AcDbEntity
  8
B-1
  6
Continuous
 62
     2
370
     9
100
AcDbCircle
 10
132.4491393899618
 20
-325.5168464250741
 30
0.0
 40
8.99999914942561
100
AcDbArc
 50
74.99998474121094
 51
90.00000000000001
  0
ARC
  5
21C
330
1F
100
AcDbEntity
  8
B-1
  6
Continuous
 62
     2
370
     9
100
AcDbCircle
 10
137.6339934334584
 20
-296.5167754923249
 30
0.0
 40
4.99999958115655
100
AcDbArc
 50
270.0
 51
0.0
  0
ARC
  5
21D
330
1F
100
AcDbEntity
  8
B-1
  6
Continuous
 62
     2
370
     9
100
AcDbCircle
 10
70.63397033907509
 20
-304.5166286780301
 30
0.0
 40
2.999999797022021
100
AcDbArc
 50
90.0
 51
180.0
  0
ARC
  5
21E
330
1F
100
AcDbEntity
  8
B-1
  6
Continuous
 62
     2
370
     9
100
AcDbCircle
 10
145.6339703390751
 20
-250.5167227051628
 30
0.0
 40
2.999999797022021
100
AcDbArc
 50
90.0
 51
180.0
  0
TEXT
  5
21F
330
1F
100
AcDbEntity
  8
B-4
  6
Continuous
 62
     2
370
     9
100
AcDbText
 10
-762.3187455604183
 20
581.4570805273911
 30
0.0
 40
15.24
  1
266.5
 41
1.09999991752006
  7
ＭＳ ゴシック
100
AcDbText
  0
TEXT
  5
220
330
1F
100
AcDbEntity
  8
B-4
  6
Continuous
 62
     2
370
     9
100
AcDbText
 10
-495.8187571076099
 20
581.4570805273911
 30
0.0
 40
15.24
  1
266.5
 41
1.09999991752006
  7
ＭＳ ゴシック
100
AcDbText
  0
TEXT
  5
221
330
1F
100
AcDbEntity
  8
B-4
  6
Continuous
 62
     2
370
     9
100
AcDbText
 10
-817.8932348446244
 20
546.3597212051784
 30
0.0
 40
15.24
  1
35.3
 41
1.09375
  7
ＭＳ ゴシック
100
AcDbText
  0
TEXT
  5
222
330
1F
100
AcDbEntity
  8
B-5
  6
Continuous
 62
     7
370
     9
100
AcDbText
 10
127.321815105228
 20
648.5669229577121
 30
0.0
 40
11.43
  1
受枠：Ｌ－７５
 41
1.142857142857143
  7
ＭＳ ゴシック
100
AcDbText
  0
LINE
  5
223
330
1F
100
AcDbEntity
  8
B-8
  6
JWW_DASHED3
 62
     3
370
     9
100
AcDbLine
 10
-350.5686738028697
 20
496.4833478151868
 30
0.0
 11
-341.5686688540733
 21
496.4833478151868
 31
0.0
  0
LINE
  5
224
330
1F
100
AcDbEntity
  8
B-8
  6
JWW_DASHED3
 62
     3
370
     9
100
AcDbLine
 10
-350.5686738028697
 20
464.9832686344436
 30
0.0
 11
-341.5686688540733
 21
464.9832686344436
 31
0.0
  0
LINE
  5
225
330
1F
100
AcDbEntity
  8
B-8
  6
JWW_DASHED3
 62
     3
370
     9
100
AcDbLine
 10
-350.5686738028697
 20
451.9831515129274
 30
0.0
 11
-341.5686688540733
 21
451.9831515129274
 31
0.0
  0
LINE
  5
226
330
1F
100
AcDbEntity
  8
B-8
  6
JWW_DASHED3
 62
     3
370
     9
100
AcDbLine
 10
-350.5686738028697
 20
496.983299976821
 30
0.0
 11
-341.5686688540733
 21
496.983299976821
 31
0.0
  0
LINE
  5
227
330
1F
100
AcDbEntity
  8
B-8
  6
JWW_DASHED3
 62
     3
370
     9
100
AcDbLine
 10
-350.5686738028697
 20
484.4832587368506
 30
0.0
 11
-341.5686688540733
 21
484.4832587368506
 31
0.0
  0
LINE
  5
228
330
1F
100
AcDbEntity
  8
B-8
  6
JWW_DASHED3
 62
     3
370
     9
100
AcDbLine
 10
-350.5686738028697
 20
483.9833065752163
 30
0.0
 11
-341.5686688540733
 21
483.9833065752163
 31
0.0
  0
LINE
  5
229
330
1F
100
AcDbEntity
  8
B-8
  6
Continuous
 62
     3
370
     9
100
AcDbLine
 10
-341.5686688540733
 20
496.4833478151868
 30
0.0
 11
-341.068716692439
 21
496.4833478151868
 31
0.0
  0
LINE
  5
22A
330
1F
100
AcDbEntity
  8
B-8
  6
Continuous
 62
     3
370
     9
100
AcDbLine
 10
-341.5686688540733
 20
484.4832587368506
 30
0.0
 11
-341.068716692439
 21
484.4832587368506
 31
0.0
  0
LINE
  5
22B
330
1F
100
AcDbEntity
  8
B-8
  6
JWW_DASHED3
 62
     3
370
     9
100
AcDbLine
 10
-852.5687092692442
 20
496.4833478151868
 30
0.0
 11
-861.5687142180409
 21
496.4833478151868
 31
0.0
  0
LINE
  5
22C
330
1F
100
AcDbEntity
  8
B-8
  6
JWW_DASHED3
 62
     3
370
     9
100
AcDbLine
 10
-852.5687092692442
 20
464.9832686344436
 30
0.0
 11
-861.5687142180409
 21
464.9832686344436
 31
0.0
  0
LINE
  5
22D
330
1F
100
AcDbEntity
  8
B-8
  6
JWW_DASHED3
 62
     3
370
     9
100
AcDbLine
 10
-852.5687092692442
 20
451.9831515129274
 30
0.0
 11
-861.5687142180409
 21
451.9831515129274
 31
0.0
  0
LINE
  5
22E
330
1F
100
AcDbEntity
  8
B-8
  6
JWW_DASHED3
 62
     3
370
     9
100
AcDbLine
 10
-852.5687092692442
 20
496.983299976821
 30
0.0
 11
-861.5687142180409
 21
496.983299976821
 31
0.0
  0
LINE
  5
22F
330
1F
100
AcDbEntity
  8
B-8
  6
JWW_DASHED3
 62
     3
370
     9
100
AcDbLine
 10
-852.5687092692442
 20
484.4832587368506
 30
0.0
 11
-861.5687142180409
 21
484.4832587368506
 31
0.0
  0
LINE
  5
230
330
1F
100
AcDbEntity
  8
B-8
  6
JWW_DASHED3
 62
     3
370
     9
100
AcDbLine
 10
-852.5687092692442
 20
483.9833065752163
 30
0.0
 11
-861.5687142180409
 21
483.9833065752163
 31
0.0
  0
LINE
  5
231
330
1F
100
AcDbEntity
  8
B-8
  6
Continuous
 62
     3
370
     9
100
AcDbLine
 10
-861.5687142180409
 20
496.4833478151868
 30
0.0
 11
-862.0687282396307
 21
496.4833478151868
 31
0.0
  0
LINE
  5
232
330
1F
100
AcDbEntity
  8
B-8
  6
Continuous
 62
     3
370
     9
100
AcDbLine
 10
-861.5687142180409
 20
484.4832587368506
 30
0.0
 11
-862.0687282396307
 21
484.4832587368506
 31
0.0
  0
LINE
  5
233
330
1F
100
AcDbEntity
  8
B-1
  6
Continuous
 62
     2
370
     9
100
AcDbLine
 10
-656.5687802019934
 20
-318.1170348092591
 30
0.0
 11
-656.5687802019934
 21
-312.0168390018794
 31
0.0
  0
LINE
  5
234
330
1F
100
AcDbEntity
  8
B-1
  6
Continuous
 62
     2
370
     9
100
AcDbLine
 10
-556.5688214419639
 20
-328.1170678012354
 30
0.0
 11
-646.568747210017
 21
-328.1170678012354
 31
0.0
  0
LINE
  5
235
330
1F
100
AcDbEntity
  8
B-1
  6
Continuous
 62
     2
370
     9
100
AcDbLine
 10
-546.5687884499876
 20
-318.1170348092591
 30
0.0
 11
-546.5687884499876
 21
-312.0168390018794
 31
0.0
  0
LINE
  5
236
330
1F
100
AcDbEntity
  8
B-1
  6
Continuous
 62
     2
370
     9
100
AcDbLine
 10
-555.5687933987839
 20
-318.1170348092591
 30
0.0
 11
-555.5687933987839
 21
-312.0168390018794
 31
0.0
  0
LINE
  5
237
330
1F
100
AcDbEntity
  8
B-1
  6
Continuous
 62
     2
370
     9
100
AcDbLine
 10
-646.568747210017
 20
-319.1168154126163
 30
0.0
 11
-556.5685740021412
 21
-319.1168154126163
 31
0.0
  0
LINE
  5
238
330
1F
100
AcDbEntity
  8
B-1
  6
Continuous
 62
     2
370
     9
100
AcDbLine
 10
-647.5688989731083
 20
-318.1170348092591
 30
0.0
 11
-647.5688989731083
 21
-312.0168390018794
 31
0.0
  0
LINE
  5
239
330
1F
100
AcDbEntity
  8
B-1
  6
JWW_CENTER1
 62
     2
370
     9
100
AcDbLine
 10
-652.0687158676395
 20
-303.9094732132392
 30
0.0
 11
-652.0687158676395
 21
-319.5067805730893
 31
0.0
  0
LINE
  5
23A
330
1F
100
AcDbEntity
  8
B-1
  6
JWW_CENTER1
 62
     2
370
     9
100
AcDbLine
 10
-643.905923558729
 20
-312.0168390018794
 30
0.0
 11
-660.3129158781969
 21
-312.0168390018794
 31
0.0
  0
LINE
  5
23B
330
1F
100
AcDbEntity
  8
B-1
  6
JWW_CENTER1
 62
     2
370
     9
100
AcDbLine
 10
-551.06872906443
 20
-303.9094732132392
 30
0.0
 11
-551.06872906443
 21
-319.5067805730893
 31
0.0
  0
LINE
  5
23C
330
1F
100
AcDbEntity
  8
B-1
  6
JWW_CENTER1
 62
     2
370
     9
100
AcDbLine
 10
-542.9058130356083
 20
-312.0168390018794
 30
0.0
 11
-559.3128053550761
 21
-312.0168390018794
 31
0.0
  0
LINE
  5
23D
330
1F
100
AcDbEntity
  8
B-1
  6
Continuous
 62
     2
370
     9
100
AcDbLine
 10
-656.5687802019934
 20
523.0836236281091
 30
0.0
 11
-656.5687802019934
 21
516.9832422408624
 31
0.0
  0
LINE
  5
23E
330
1F
100
AcDbEntity
  8
B-1
  6
Continuous
 62
     2
370
     9
100
AcDbLine
 10
-556.5688214419639
 20
533.0836566200853
 30
0.0
 11
-646.568747210017
 21
533.0836566200853
 31
0.0
  0
LINE
  5
23F
330
1F
100
AcDbEntity
  8
B-1
  6
Continuous
 62
     2
370
     9
100
AcDbLine
 10
-546.5687884499876
 20
523.0836236281091
 30
0.0
 11
-546.5687884499876
 21
516.9832422408624
 31
0.0
  0
LINE
  5
240
330
1F
100
AcDbEntity
  8
B-1
  6
Continuous
 62
     2
370
     9
100
AcDbLine
 10
-555.5687933987839
 20
523.0836236281091
 30
0.0
 11
-555.5687933987839
 21
516.9832422408624
 31
0.0
  0
LINE
  5
241
330
1F
100
AcDbEntity
  8
B-1
  6
Continuous
 62
     2
370
     9
100
AcDbLine
 10
-646.568747210017
 20
524.083280511555
 30
0.0
 11
-556.5685740021412
 21
524.083280511555
 31
0.0
  0
LINE
  5
242
330
1F
100
AcDbEntity
  8
B-1
  6
Continuous
 62
     2
370
     9
100
AcDbLine
 10
-647.5688989731083
 20
523.0836236281091
 30
0.0
 11
-647.5688989731083
 21
516.9832422408624
 31
0.0
  0
LINE
  5
243
330
1F
100
AcDbEntity
  8
B-1
  6
JWW_CENTER1
 62
     2
370
     9
100
AcDbLine
 10
-652.0687158676395
 20
508.8758764522222
 30
0.0
 11
-652.0687158676395
 21
524.4732456720279
 31
0.0
  0
LINE
  5
244
330
1F
100
AcDbEntity
  8
B-1
  6
JWW_CENTER1
 62
     2
370
     9
100
AcDbLine
 10
-643.905923558729
 20
516.9832422408624
 30
0.0
 11
-660.3129158781969
 21
516.9832422408624
 31
0.0
  0
LINE
  5
245
330
1F
100
AcDbEntity
  8
B-1
  6
JWW_CENTER1
 62
     2
370
     9
100
AcDbLine
 10
-551.06872906443
 20
508.8758764522222
 30
0.0
 11
-551.06872906443
 21
524.4732456720279
 31
0.0
  0
LINE
  5
246
330
1F
100
AcDbEntity
  8
B-1
  6
JWW_CENTER1
 62
     2
370
     9
100
AcDbLine
 10
-542.9058130356083
 20
516.9832422408624
 30
0.0
 11
-559.3128053550761
 21
516.9832422408624
 31
0.0
  0
CIRCLE
  5
247
330
1F
100
AcDbEntity
  8
B-1
  6
Continuous
 62
     2
370
     9
100
AcDbCircle
 10
-652.0687158676395
 20
-312.0168390018794
 30
0.0
 40
4.499999574712805
  0
CIRCLE
  5
248
330
1F
100
AcDbEntity
  8
B-1
  6
Continuous
 62
     2
370
     9
100
AcDbCircle
 10
-551.0689765042526
 20
-312.0168390018794
 30
0.0
 40
4.499999574712805
  0
ARC
  5
249
330
1F
100
AcDbEntity
  8
B-1
  6
Continuous
 62
     2
370
     9
100
AcDbCircle
 10
-646.568747210017
 20
-318.1170348092591
 30
0.0
 40
9.9999991623131
100
AcDbArc
 50
180.0
 51
270.0
  0
ARC
  5
24A
330
1F
100
AcDbEntity
  8
B-1
  6
Continuous
 62
     2
370
     9
100
AcDbCircle
 10
-556.5688214419639
 20
-318.1170348092591
 30
0.0
 40
9.9999991623131
100
AcDbArc
 50
270.0
 51
0.0
  0
ARC
  5
24B
330
1F
100
AcDbEntity
  8
B-1
  6
Continuous
 62
     2
370
     9
100
AcDbCircle
 10
-556.5685740021412
 20
-318.1170348092591
 30
0.0
 40
0.9999999524773778
100
AcDbArc
 50
270.0
 51
0.0
  0
ARC
  5
24C
330
1F
100
AcDbEntity
  8
B-1
  6
Continuous
 62
     2
370
     9
100
AcDbCircle
 10
-646.568747210017
 20
-318.1170348092591
 30
0.0
 40
0.9999999524773778
100
AcDbArc
 50
180.0
 51
270.0
  0
CIRCLE
  5
24D
330
1F
100
AcDbEntity
  8
B-1
  6
Continuous
 62
     2
370
     9
100
AcDbCircle
 10
-652.0687158676395
 20
516.9832422408624
 30
0.0
 40
4.499999574712805
  0
CIRCLE
  5
24E
330
1F
100
AcDbEntity
  8
B-1
  6
Continuous
 62
     2
370
     9
100
AcDbCircle
 10
-551.0689765042526
 20
516.9832422408624
 30
0.0
 40
4.499999574712805
  0
ARC
  5
24F
330
1F
100
AcDbEntity
  8
B-1
  6
Continuous
 62
     2
370
     9
100
AcDbCircle
 10
-646.568747210017
 20
523.0836236281091
 30
0.0
 40
9.9999991623131
100
AcDbArc
 50
90.0
 51
180.0
  0
ARC
  5
250
330
1F
100
AcDbEntity
  8
B-1
  6
Continuous
 62
     2
370
     9
100
AcDbCircle
 10
-556.5688214419639
 20
523.0836236281091
 30
0.0
 40
9.9999991623131
100
AcDbArc
 50
0.0
 51
90.0
  0
ARC
  5
251
330
1F
100
AcDbEntity
  8
B-1
  6
Continuous
 62
     2
370
     9
100
AcDbCircle
 10
-556.5685740021412
 20
523.0836236281091
 30
0.0
 40
0.9999999524773778
100
AcDbArc
 50
0.0
 51
90.0
  0
ARC
  5
252
330
1F
100
AcDbEntity
  8
B-1
  6
Continuous
 62
     2
370
     9
100
AcDbCircle
 10
-646.568747210017
 20
523.0836236281091
 30
0.0
 40
0.9999999524773778
100
AcDbArc
 50
90.0
 51
180.0
  0
LINE
  5
253
330
1F
100
AcDbEntity
  8
B-8
  6
Continuous
 62
     3
370
     9
100
AcDbLine
 10
-350.5687356628254
 20
446.483182855305
 30
0.0
 11
-341.5687307140288
 21
446.483182855305
 31
0.0
  0
LINE
  5
254
330
1F
100
AcDbEntity
  8
B-8
  6
Continuous
 62
     3
370
     9
100
AcDbLine
 10
-350.5687356628254
 20
501.4832405912636
 30
0.0
 11
-350.5687356628254
 21
446.483182855305
 31
0.0
  0
LINE
  5
255
330
1F
100
AcDbEntity
  8
B-8
  6
Continuous
 62
     3
370
     9
100
AcDbLine
 10
-350.5687356628254
 20
501.4832405912636
 30
0.0
 11
-341.5687307140288
 21
501.4832405912636
 31
0.0
  0
LINE
  5
256
330
1F
100
AcDbEntity
  8
B-8
  6
Continuous
 62
     3
370
     9
100
AcDbLine
 10
-341.5687307140288
 20
501.4832405912636
 30
0.0
 11
-341.5687307140288
 21
446.483182855305
 31
0.0
  0
LINE
  5
257
330
1F
100
AcDbEntity
  8
B-8
  6
JWW_CENTER1
 62
     3
370
     9
100
AcDbLine
 10
-355.2285224026901
 20
490.4833032760187
 30
0.0
 11
-320.9759226349537
 21
490.4833032760187
 31
0.0
  0
LINE
  5
258
330
1F
100
AcDbEntity
  8
B-8
  6
JWW_CENTER1
 62
     3
370
     9
100
AcDbLine
 10
-346.0686713284714
 20
462.4926630997095
 30
0.0
 11
-346.0686713284714
 21
454.311560243924
 31
0.0
  0
LINE
  5
259
330
1F
100
AcDbEntity
  8
B-8
  6
Continuous
 62
     3
370
     9
100
AcDbLine
 10
-358.5686507084863
 20
468.4831812057062
 30
0.0
 11
-358.5686507084863
 21
448.4833626615761
 31
0.0
  0
LINE
  5
25A
330
1F
100
AcDbEntity
  8
B-8
  6
JWW_DASHED3
 62
     3
370
     9
100
AcDbLine
 10
-358.5686507084863
 20
464.4833164728092
 30
0.0
 11
-341.5687307140288
 21
464.4833164728092
 31
0.0
  0
LINE
  5
25B
330
1F
100
AcDbEntity
  8
B-8
  6
JWW_DASHED3
 62
     3
370
     9
100
AcDbLine
 10
-358.5686507084863
 20
452.4832273944731
 30
0.0
 11
-341.5687307140288
 21
452.4832273944731
 31
0.0
  0
LINE
  5
25C
330
1F
100
AcDbEntity
  8
B-8
  6
Continuous
 62
     3
370
     9
100
AcDbLine
 10
-852.5687092692442
 20
446.483182855305
 30
0.0
 11
-861.5687142180409
 21
446.483182855305
 31
0.0
  0
LINE
  5
25D
330
1F
100
AcDbEntity
  8
B-8
  6
Continuous
 62
     3
370
     9
100
AcDbLine
 10
-852.5687092692442
 20
501.4832405912636
 30
0.0
 11
-852.5687092692442
 21
446.483182855305
 31
0.0
  0
LINE
  5
25E
330
1F
100
AcDbEntity
  8
B-8
  6
Continuous
 62
     3
370
     9
100
AcDbLine
 10
-852.5687092692442
 20
501.4832405912636
 30
0.0
 11
-861.5687142180409
 21
501.4832405912636
 31
0.0
  0
LINE
  5
25F
330
1F
100
AcDbEntity
  8
B-8
  6
Continuous
 62
     3
370
     9
100
AcDbLine
 10
-861.5687142180409
 20
501.4832405912636
 30
0.0
 11
-861.5687142180409
 21
446.483182855305
 31
0.0
  0
LINE
  5
260
330
1F
100
AcDbEntity
  8
B-8
  6
JWW_CENTER1
 62
     3
370
     9
100
AcDbLine
 10
-847.9089225293794
 20
490.4833032760187
 30
0.0
 11
-882.161522297116
 21
490.4833032760187
 31
0.0
  0
LINE
  5
261
330
1F
100
AcDbEntity
  8
B-8
  6
JWW_CENTER1
 62
     3
370
     9
100
AcDbLine
 10
-857.0687736035982
 20
462.4926630997095
 30
0.0
 11
-857.0687736035982
 21
454.311560243924
 31
0.0
  0
LINE
  5
262
330
1F
100
AcDbEntity
  8
B-8
  6
Continuous
 62
     3
370
     9
100
AcDbLine
 10
-844.5687323636278
 20
468.4831812057062
 30
0.0
 11
-844.5687323636278
 21
448.4833626615761
 31
0.0
  0
LINE
  5
263
330
1F
100
AcDbEntity
  8
B-8
  6
JWW_DASHED3
 62
     3
370
     9
100
AcDbLine
 10
-844.5687323636278
 20
464.4833164728092
 30
0.0
 11
-861.5687142180409
 21
464.4833164728092
 31
0.0
  0
LINE
  5
264
330
1F
100
AcDbEntity
  8
B-8
  6
JWW_DASHED3
 62
     3
370
     9
100
AcDbLine
 10
-844.5687323636278
 20
452.4832273944731
 30
0.0
 11
-861.5687142180409
 21
452.4832273944731
 31
0.0
  0
LINE
  5
265
330
1F
100
AcDbEntity
  8
B-8
  6
JWW_CENTER1
 62
     3
370
     9
100
AcDbLine
 10
-830.5000463680619
 20
458.483271933641
 30
0.0
 11
-873.3088677626986
 21
458.483271933641
 31
0.0
  0
LINE
  5
266
330
1F
100
AcDbEntity
  8
B-8
  6
JWW_CENTER1
 62
     3
370
     9
100
AcDbLine
 10
-370.6374661975593
 20
458.483271933641
 30
0.0
 11
-341.0687785523946
 21
458.483271933641
 31
0.0
  0
ARC
  5
267
330
1F
100
AcDbEntity
  8
B-8
  6
Continuous
 62
     3
370
     9
100
AcDbCircle
 10
-335.0687340132265
 20
490.4833032760187
 30
0.0
 40
10.00000012887491
100
AcDbArc
 50
270.0
 51
90.0
  0
CIRCLE
  5
268
330
1F
100
AcDbEntity
  8
B-8
  6
Continuous
 62
     3
370
     9
100
AcDbCircle
 10
-346.0686713284714
 20
458.483271933641
 30
0.0
 40
2.000000388235659
  0
ARC
  5
269
330
1F
100
AcDbEntity
  8
B-8
  6
Continuous
 62
     3
370
     9
100
AcDbCircle
 10
-358.5686507084863
 20
458.483271933641
 30
0.0
 40
10.00000012887491
100
AcDbArc
 50
90.0
 51
270.0
  0
ARC
  5
26A
330
1F
100
AcDbEntity
  8
B-8
  6
Continuous
 62
     3
370
     9
100
AcDbCircle
 10
-868.0687109188432
 20
490.4833032760187
 30
0.0
 40
10.00000012887491
100
AcDbArc
 50
90.0
 51
270.0
  0
CIRCLE
  5
26B
330
1F
100
AcDbEntity
  8
B-8
  6
Continuous
 62
     3
370
     9
100
AcDbCircle
 10
-857.0687736035982
 20
458.483271933641
 30
0.0
 40
2.000000388235659
  0
ARC
  5
26C
330
1F
100
AcDbEntity
  8
B-8
  6
Continuous
 62
     3
370
     9
100
AcDbCircle
 10
-844.5687323636278
 20
458.483271933641
 30
0.0
 40
10.00000012887491
100
AcDbArc
 50
270.0
 51
90.0
  0
LINE
  5
26D
330
1F
100
AcDbEntity
  8
B-2
  6
Continuous
 62
     3
370
     9
100
AcDbLine
 10
67.6340099294467
 20
496.4833478151868
 30
0.0
 11
72.63390270552352
 21
501.4833643111749
 31
0.0
  0
LINE
  5
26E
330
1F
100
AcDbEntity
  8
B-2
  6
Continuous
 62
     3
370
     9
100
AcDbLine
 10
67.6340099294467
 20
496.4833478151868
 30
0.0
 11
67.6340099294467
 21
495.4834434919181
 31
0.0
  0
LINE
  5
26F
330
1F
100
AcDbEntity
  8
B-2
  6
Continuous
 62
     3
370
     9
100
AcDbLine
 10
72.63390270552352
 20
501.4833643111749
 30
0.0
 11
92.63396868947612
 21
501.4833643111749
 31
0.0
  0
LINE
  5
270
330
1F
100
AcDbEntity
  8
B-2
  6
Continuous
 62
     3
370
     9
100
AcDbLine
 10
92.63396868947612
 20
495.4834434919181
 30
0.0
 11
92.63396868947612
 21
501.4833643111749
 31
0.0
  0
LINE
  5
271
330
1F
100
AcDbEntity
  8
B-5
  6
Continuous
 62
     7
370
     9
100
AcDbLine
 10
-297.3914433803084
 20
317.0914559232949
 30
0.0
 11
-195.1735577700888
 21
317.0914559232949
 31
0.0
  0
LINE
  5
272
330
1F
100
AcDbEntity
  8
B-5
  6
Continuous
 62
     7
370
     9
100
AcDbLine
 10
-297.3914433803084
 20
317.0914559232949
 30
0.0
 11
-334.845481433254
 21
260.4726468676572
 31
0.0
  0
LINE
  5
273
330
1F
100
AcDbEntity
  8
B-5
  6
Continuous
 62
     7
370
     9
100
AcDbLine
 10
-334.845481433254
 20
260.4726468676572
 30
0.0
 11
-329.2880448768245
 21
271.669298841897
 31
0.0
  0
LINE
  5
274
330
1F
100
AcDbEntity
  8
B-5
  6
Continuous
 62
     7
370
     9
100
AcDbLine
 10
-334.845481433254
 20
260.4726468676572
 30
0.0
 11
-326.5795067183046
 21
269.8493789464155
 31
0.0
  0
TEXT
  5
275
330
1F
100
AcDbEntity
  8
B-5
  6
Continuous
 62
     7
370
     9
100
AcDbText
 10
-295.9770773541259
 20
322.8397385589579
 30
0.0
 40
11.43
  1
ＦＢ６×７５
 41
1.138888888888889
  7
ＭＳ ゴシック
100
AcDbText
  0
LWPOLYLINE
  5
276
330
1F
100
AcDbEntity
  8
B-4
  6
Continuous
 62
     7
370
     9
100
AcDbPolyline
 90
        4
 70
     1
 43
1.0
 10
0.8191196607599878
 20
512.4833016264198
 42
0.4142135623731
 10
0.3191196607599878
 20
512.9833016264198
 42
0.4142135623731
 10
-0.1808803392400123
 20
512.4833016264198
 42
0.4142135623731
 10
0.3191196607599878
 20
511.9833016264199
 42
0.4142135623731
  0
LWPOLYLINE
  5
277
330
1F
100
AcDbEntity
  8
B-4
  6
Continuous
 62
     7
370
     9
100
AcDbPolyline
 90
        4
 70
     1
 43
1.0
 10
0.8191196607599878
 20
506.4833808071631
 42
0.4142135623731
 10
0.3191196607599878
 20
506.983380807163
 42
0.4142135623731
 10
-0.1808803392400123
 20
506.4833808071631
 42
0.4142135623731
 10
0.3191196607599878
 20
505.9833808071631
 42
0.4142135623731
  0
LWPOLYLINE
  5
278
330
1F
100
AcDbEntity
  8
B-4
  6
Continuous
 62
     7
370
     9
100
AcDbPolyline
 90
        4
 70
     1
 43
1.0
 10
0.8191196607599878
 20
495.4834434919181
 42
0.4142135623731
 10
0.3191196607599878
 20
495.9834434919181
 42
0.4142135623731
 10
-0.1808803392400123
 20
495.4834434919181
 42
0.4142135623731
 10
0.3191196607599878
 20
494.9834434919182
 42
0.4142135623731
  0
LWPOLYLINE
  5
279
330
1F
100
AcDbEntity
  8
B-4
  6
Continuous
 62
     7
370
     9
100
AcDbPolyline
 90
        4
 70
     1
 43
1.0
 10
0.8191196607599878
 20
-294.5167194059651
 42
0.4142135623731
 10
0.3191196607599878
 20
-294.0167194059651
 42
0.4142135623731
 10
-0.1808803392400123
 20
-294.5167194059651
 42
0.4142135623731
 10
0.3191196607599878
 20
-295.0167194059651
 42
0.4142135623731
  0
LWPOLYLINE
  5
27A
330
1F
100
AcDbEntity
  8
B-4
  6
Continuous
 62
     7
370
     9
100
AcDbPolyline
 90
        4
 70
     1
 43
1.0
 10
0.8191196607599878
 20
-301.5166682684018
 42
0.4142135623731
 10
0.3191196607599878
 20
-301.0166682684018
 42
0.4142135623731
 10
-0.1808803392400123
 20
-301.5166682684018
 42
0.4142135623731
 10
0.3191196607599878
 20
-302.0166682684018
 42
0.4142135623731
  0
LWPOLYLINE
  5
27B
330
1F
100
AcDbEntity
  8
B-4
  6
Continuous
 62
     7
370
     9
100
AcDbPolyline
 90
        4
 70
     1
 43
1.0
 10
0.8191196607599878
 20
-307.5165890876585
 42
0.4142135623731
 10
0.3191196607599878
 20
-307.0165890876585
 42
0.4142135623731
 10
-0.1808803392400123
 20
-307.5165890876585
 42
0.4142135623731
 10
0.3191196607599878
 20
-308.0165890876585
 42
0.4142135623731
  0
LWPOLYLINE
  5
27C
330
1F
100
AcDbEntity
  8
B-4
  6
Continuous
 62
     7
370
     9
100
AcDbPolyline
 90
        4
 70
     1
 43
1.0
 10
-48.07202001407114
 20
512.4833016264198
 42
0.4142135623731
 10
-48.57202001407114
 20
512.9833016264198
 42
0.4142135623731
 10
-49.07202001407114
 20
512.4833016264198
 42
0.4142135623731
 10
-48.57202001407114
 20
511.9833016264199
 42
0.4142135623731
  0
LWPOLYLINE
  5
27D
330
1F
100
AcDbEntity
  8
B-4
  6
Continuous
 62
     7
370
     9
100
AcDbPolyline
 90
        4
 70
     1
 43
1.0
 10
-48.07202001407114
 20
-307.5165890876585
 42
0.4142135623731
 10
-48.57202001407114
 20
-307.0165890876585
 42
0.4142135623731
 10
-49.07202001407114
 20
-307.5165890876585
 42
0.4142135623731
 10
-48.57202001407114
 20
-308.0165890876585
 42
0.4142135623731
  0
LWPOLYLINE
  5
27E
330
1F
100
AcDbEntity
  8
B-4
  6
Continuous
 62
     7
370
     9
100
AcDbPolyline
 90
        4
 70
     1
 43
1.0
 10
226.7826503301011
 20
-307.5165890876585
 42
0.4142135623731
 10
226.2826503301011
 20
-307.0165890876585
 42
0.4142135623731
 10
225.7826503301011
 20
-307.5165890876585
 42
0.4142135623731
 10
226.2826503301011
 20
-308.0165890876585
 42
0.4142135623731
  0
LWPOLYLINE
  5
27F
330
1F
100
AcDbEntity
  8
B-4
  6
Continuous
 62
     7
370
     9
100
AcDbPolyline
 90
        4
 70
     1
 43
1.0
 10
226.7826503301011
 20
-247.5167004355787
 42
0.4142135623731
 10
226.2826503301011
 20
-247.0167004355787
 42
0.4142135623731
 10
225.7826503301011
 20
-247.5167004355787
 42
0.4142135623731
 10
226.2826503301011
 20
-248.0167004355787
 42
0.4142135623731
  0
LWPOLYLINE
  5
280
330
1F
100
AcDbEntity
  8
B-4
  6
Continuous
 62
     7
370
     9
100
AcDbPolyline
 90
        4
 70
     1
 43
1.0
 10
226.7826503301011
 20
452.4833511143844
 42
0.4142135623731
 10
226.2826503301011
 20
452.9833511143844
 42
0.4142135623731
 10
225.7826503301011
 20
452.4833511143844
 42
0.4142135623731
 10
226.2826503301011
 20
451.9833511143844
 42
0.4142135623731
  0
LWPOLYLINE
  5
281
330
1F
100
AcDbEntity
  8
B-4
  6
Continuous
 62
     7
370
     9
100
AcDbPolyline
 90
        4
 70
     1
 43
1.0
 10
226.7826503301011
 20
512.4833016264198
 42
0.4142135623731
 10
226.2826503301011
 20
512.9833016264198
 42
0.4142135623731
 10
225.7826503301011
 20
512.4833016264198
 42
0.4142135623731
 10
226.2826503301011
 20
511.9833016264199
 42
0.4142135623731
  0
LWPOLYLINE
  5
282
330
1F
100
AcDbEntity
  8
B-4
  6
Continuous
 62
     7
370
     9
100
AcDbPolyline
 90
        4
 70
     1
 43
1.0
 10
68.1340099294467
 20
-375.1675026354837
 42
0.4142135623731
 10
67.6340099294467
 20
-374.6675026354837
 42
0.4142135623731
 10
67.13400992944672
 20
-375.1675026354837
 42
0.4142135623731
 10
67.6340099294467
 20
-375.6675026354836
 42
0.4142135623731
  0
LWPOLYLINE
  5
283
330
1F
100
AcDbEntity
  8
B-4
  6
Continuous
 62
     7
370
     9
100
AcDbPolyline
 90
        4
 70
     1
 43
1.0
 10
143.1340099294467
 20
-375.1675026354837
 42
0.4142135623731
 10
142.6340099294467
 20
-374.6675026354837
 42
0.4142135623731
 10
142.1340099294467
 20
-375.1675026354837
 42
0.4142135623731
 10
142.6340099294467
 20
-375.6675026354836
 42
0.4142135623731
  0
LWPOLYLINE
  5
284
330
1F
100
AcDbEntity
  8
B-4
  6
Continuous
 62
     7
370
     9
100
AcDbPolyline
 90
        4
 70
     1
 43
1.0
 10
68.1340099294467
 20
-434.3820791504753
 42
0.4142135623731
 10
67.6340099294467
 20
-433.8820791504753
 42
0.4142135623731
 10
67.13400992944672
 20
-434.3820791504753
 42
0.4142135623731
 10
67.6340099294467
 20
-434.8820791504752
 42
0.4142135623731
  0
LWPOLYLINE
  5
285
330
1F
100
AcDbEntity
  8
B-4
  6
Continuous
 62
     7
370
     9
100
AcDbPolyline
 90
        4
 70
     1
 43
1.0
 10
149.1340544686147
 20
-434.3820791504753
 42
0.4142135623731
 10
148.6340544686147
 20
-433.8820791504753
 42
0.4142135623731
 10
148.1340544686147
 20
-434.3820791504753
 42
0.4142135623731
 10
148.6340544686147
 20
-434.8820791504752
 42
0.4142135623731
  0
LWPOLYLINE
  5
286
330
1F
100
AcDbEntity
  8
B-4
  6
Continuous
 62
     7
370
     9
100
AcDbPolyline
 90
        4
 70
     1
 43
1.0
 10
-851.56875710761
 20
-369.7985533639466
 42
0.4142135623731
 10
-852.0687571076099
 20
-369.2985533639466
 42
0.4142135623731
 10
-852.5687571076099
 20
-369.7985533639466
 42
0.4142135623731
 10
-852.0687571076099
 20
-370.2985533639466
 42
0.4142135623731
  0
LWPOLYLINE
  5
287
330
1F
100
AcDbEntity
  8
B-4
  6
Continuous
 62
     7
370
     9
100
AcDbPolyline
 90
        4
 70
     1
 43
1.0
 10
-350.5688115443709
 20
-369.7985533639466
 42
0.4142135623731
 10
-351.0688115443709
 20
-369.2985533639466
 42
0.4142135623731
 10
-351.5688115443709
 20
-369.7985533639466
 42
0.4142135623731
 10
-351.0688115443709
 20
-370.2985533639466
 42
0.4142135623731
  0
LWPOLYLINE
  5
288
330
1F
100
AcDbEntity
  8
B-4
  6
Continuous
 62
     7
370
     9
100
AcDbPolyline
 90
        4
 70
     1
 43
1.0
 10
-340.5687785523946
 20
-369.7985533639466
 42
0.4142135623731
 10
-341.0687785523946
 20
-369.2985533639466
 42
0.4142135623731
 10
-341.5687785523946
 20
-369.7985533639466
 42
0.4142135623731
 10
-341.0687785523946
 20
-370.2985533639466
 42
0.4142135623731
  0
LWPOLYLINE
  5
289
330
1F
100
AcDbEntity
  8
B-4
  6
Continuous
 62
     7
370
     9
100
AcDbPolyline
 90
        4
 70
     1
 43
1.0
 10
-861.5687282396307
 20
-369.7985533639466
 42
0.4142135623731
 10
-862.0687282396307
 20
-369.2985533639466
 42
0.4142135623731
 10
-862.5687282396307
 20
-369.7985533639466
 42
0.4142135623731
 10
-862.0687282396307
 20
-370.2985533639466
 42
0.4142135623731
  0
LWPOLYLINE
  5
28A
330
1F
100
AcDbEntity
  8
B-4
  6
Continuous
 62
     7
370
     9
100
AcDbPolyline
 90
        4
 70
     1
 43
1.0
 10
-867.5687109188432
 20
-413.1646092391577
 42
0.4142135623731
 10
-868.0687109188432
 20
-412.6646092391577
 42
0.4142135623731
 10
-868.5687109188432
 20
-413.1646092391577
 42
0.4142135623731
 10
-868.0687109188432
 20
-413.6646092391577
 42
0.4142135623731
  0
LWPOLYLINE
  5
28B
330
1F
100
AcDbEntity
  8
B-4
  6
Continuous
 62
     7
370
     9
100
AcDbPolyline
 90
        4
 70
     1
 43
1.0
 10
-861.5687282396307
 20
-413.1646092391577
 42
0.4142135623731
 10
-862.0687282396307
 20
-412.6646092391577
 42
0.4142135623731
 10
-862.5687282396307
 20
-413.1646092391577
 42
0.4142135623731
 10
-862.0687282396307
 20
-413.6646092391577
 42
0.4142135623731
  0
LWPOLYLINE
  5
28C
330
1F
100
AcDbEntity
  8
B-4
  6
Continuous
 62
     7
370
     9
100
AcDbPolyline
 90
        4
 70
     1
 43
1.0
 10
-340.5687785523946
 20
-413.1646092391577
 42
0.4142135623731
 10
-341.0687785523946
 20
-412.6646092391577
 42
0.4142135623731
 10
-341.5687785523946
 20
-413.1646092391577
 42
0.4142135623731
 10
-341.0687785523946
 20
-413.6646092391577
 42
0.4142135623731
  0
LWPOLYLINE
  5
28D
330
1F
100
AcDbEntity
  8
B-4
  6
Continuous
 62
     7
370
     9
100
AcDbPolyline
 90
        4
 70
     1
 43
1.0
 10
-334.5687340132265
 20
-413.1646092391577
 42
0.4142135623731
 10
-335.0687340132265
 20
-412.6646092391577
 42
0.4142135623731
 10
-335.5687340132265
 20
-413.1646092391577
 42
0.4142135623731
 10
-335.0687340132265
 20
-413.6646092391577
 42
0.4142135623731
  0
LWPOLYLINE
  5
28E
330
1F
100
AcDbEntity
  8
B-4
  6
Continuous
 62
     7
370
     9
100
AcDbPolyline
 90
        4
 70
     1
 43
1.0
 10
-867.5687109188432
 20
-454.4798838643688
 42
0.4142135623731
 10
-868.0687109188432
 20
-453.9798838643688
 42
0.4142135623731
 10
-868.5687109188432
 20
-454.4798838643688
 42
0.4142135623731
 10
-868.0687109188432
 20
-454.9798838643688
 42
0.4142135623731
  0
LWPOLYLINE
  5
28F
330
1F
100
AcDbEntity
  8
B-4
  6
Continuous
 62
     7
370
     9
100
AcDbPolyline
 90
        4
 70
     1
 43
1.0
 10
-334.5687340132265
 20
-454.4798838643688
 42
0.4142135623731
 10
-335.0687340132265
 20
-453.9798838643688
 42
0.4142135623731
 10
-335.5687340132265
 20
-454.4798838643688
 42
0.4142135623731
 10
-335.0687340132265
 20
-454.9798838643688
 42
0.4142135623731
  0
LINE
  5
290
330
1F
100
AcDbEntity
  8
B-4
  6
Continuous
 62
     7
370
     9
100
AcDbLine
 10
49.54059149880894
 20
512.4833016264198
 30
0.0
 11
-50.07200021888533
 21
512.4833016264198
 31
0.0
  0
LINE
  5
291
330
1F
100
AcDbEntity
  8
B-4
  6
Continuous
 62
     7
370
     9
100
AcDbLine
 10
49.54059149880894
 20
506.4833808071631
 30
0.0
 11
-1.180860544054205
 21
506.4833808071631
 31
0.0
  0
LINE
  5
292
330
1F
100
AcDbEntity
  8
B-4
  6
Continuous
 62
     7
370
     9
100
AcDbLine
 10
0.3191196607599878
 20
506.4833808071631
 30
0.0
 11
0.3191196607599878
 21
495.4834434919181
 31
0.0
  0
LINE
  5
293
330
1F
100
AcDbEntity
  8
B-4
  6
Continuous
 62
     7
370
     9
100
AcDbLine
 10
49.54059149880894
 20
495.4834434919181
 30
0.0
 11
-1.180860544054205
 21
495.4834434919181
 31
0.0
  0
LINE
  5
294
330
1F
100
AcDbEntity
  8
B-4
  6
Continuous
 62
     7
370
     9
100
AcDbLine
 10
0.3191196607599878
 20
-294.5167194059651
 30
0.0
 11
0.3191196607599878
 21
-301.5166682684018
 31
0.0
  0
LINE
  5
295
330
1F
100
AcDbEntity
  8
B-4
  6
Continuous
 62
     7
370
     9
100
AcDbLine
 10
49.54059149880894
 20
-301.5166682684018
 30
0.0
 11
-1.180860544054205
 21
-301.5166682684018
 31
0.0
  0
LINE
  5
296
330
1F
100
AcDbEntity
  8
B-4
  6
Continuous
 62
     7
370
     9
100
AcDbLine
 10
49.54059149880894
 20
-307.5165890876585
 30
0.0
 11
-48.57202001407114
 21
-307.5165890876585
 31
0.0
  0
LINE
  5
297
330
1F
100
AcDbEntity
  8
B-4
  6
Continuous
 62
     7
370
     9
100
AcDbLine
 10
0.3191196607599878
 20
-301.5166682684018
 30
0.0
 11
0.3191196607599878
 21
-326.2000277753697
 31
0.0
  0
LINE
  5
298
330
1F
100
AcDbEntity
  8
B-4
  6
Continuous
 62
     7
370
     9
100
AcDbLine
 10
0.3191196607599878
 20
530.9386007976614
 30
0.0
 11
0.3191196607599878
 21
506.4833808071631
 31
0.0
  0
LINE
  5
299
330
1F
100
AcDbEntity
  8
B-4
  6
Continuous
 62
     7
370
     9
100
AcDbLine
 10
226.2826503301011
 20
-307.5165890876585
 30
0.0
 11
226.2826503301011
 21
-247.5167004355787
 31
0.0
  0
LINE
  5
29A
330
1F
100
AcDbEntity
  8
B-4
  6
Continuous
 62
     7
370
     9
100
AcDbLine
 10
159.0162582666511
 20
452.4833511143844
 30
0.0
 11
227.7826305349155
 21
452.4833511143844
 31
0.0
  0
LINE
  5
29B
330
1F
100
AcDbEntity
  8
B-4
  6
Continuous
 62
     7
370
     9
100
AcDbLine
 10
226.2826503301011
 20
452.4833511143844
 30
0.0
 11
226.2826503301011
 21
512.4833016264198
 31
0.0
  0
LINE
  5
29C
330
1F
100
AcDbEntity
  8
B-4
  6
Continuous
 62
     7
370
     9
100
AcDbLine
 10
162.2771439692483
 20
-307.5165890876585
 30
0.0
 11
227.7826305349155
 21
-307.5165890876585
 31
0.0
  0
LINE
  5
29D
330
1F
100
AcDbEntity
  8
B-4
  6
Continuous
 62
     7
370
     9
100
AcDbLine
 10
161.1093517263217
 20
512.4833016264198
 30
0.0
 11
227.7826305349155
 21
512.4833016264198
 31
0.0
  0
LINE
  5
29E
330
1F
100
AcDbEntity
  8
B-4
  6
Continuous
 62
     7
370
     9
100
AcDbLine
 10
67.6340099294467
 20
-375.1675026354837
 30
0.0
 11
142.6340099294467
 21
-375.1675026354837
 31
0.0
  0
LINE
  5
29F
330
1F
100
AcDbEntity
  8
B-4
  6
Continuous
 62
     7
370
     9
100
AcDbLine
 10
67.6340099294467
 20
-323.508129944922
 30
0.0
 11
67.6340099294467
 21
-435.8820593552895
 31
0.0
  0
LINE
  5
2A0
330
1F
100
AcDbEntity
  8
B-4
  6
Continuous
 62
     7
370
     9
100
AcDbLine
 10
142.6340099294467
 20
-323.508129944922
 30
0.0
 11
142.6340099294467
 21
-376.6676065602092
 31
0.0
  0
LINE
  5
2A1
330
1F
100
AcDbEntity
  8
B-4
  6
Continuous
 62
     7
370
     9
100
AcDbLine
 10
67.6340099294467
 20
-434.3820791504753
 30
0.0
 11
148.6340544686147
 21
-434.3820791504753
 31
0.0
  0
LINE
  5
2A2
330
1F
100
AcDbEntity
  8
B-4
  6
Continuous
 62
     7
370
     9
100
AcDbLine
 10
148.6340544686147
 20
-326.8343397606949
 30
0.0
 11
148.6340544686147
 21
-435.8820593552895
 31
0.0
  0
LINE
  5
2A3
330
1F
100
AcDbEntity
  8
B-4
  6
Continuous
 62
     7
370
     9
100
AcDbLine
 10
-48.57202001407114
 20
512.4833016264198
 30
0.0
 11
-48.57202001407114
 21
-307.5165890876585
 31
0.0
  0
LINE
  5
2A4
330
1F
100
AcDbEntity
  8
B-4
  6
Continuous
 62
     7
370
     9
100
AcDbLine
 10
49.54059149880894
 20
-294.5167194059651
 30
0.0
 11
0.3191196607599878
 21
-294.5167194059651
 31
0.0
  0
LINE
  5
2A5
330
1F
100
AcDbEntity
  8
B-4
  6
Continuous
 62
     7
370
     9
100
AcDbLine
 10
0.3191196607599878
 20
495.4834434919181
 30
0.0
 11
0.3191196607599878
 21
-294.5167194059651
 31
0.0
  0
LINE
  5
2A6
330
1F
100
AcDbEntity
  8
B-4
  6
Continuous
 62
     7
370
     9
100
AcDbLine
 10
159.0162582666511
 20
-247.5167004355787
 30
0.0
 11
226.2826503301011
 21
-247.5167004355787
 31
0.0
  0
LINE
  5
2A7
330
1F
100
AcDbEntity
  8
B-4
  6
Continuous
 62
     7
370
     9
100
AcDbLine
 10
226.2826503301011
 20
-247.5167004355787
 30
0.0
 11
226.2826503301011
 21
452.4833511143844
 31
0.0
  0
LINE
  5
2A8
330
1F
100
AcDbEntity
  8
B-4
  6
Continuous
 62
     7
370
     9
100
AcDbLine
 10
-849.5687797895937
 20
-369.7985533639466
 30
0.0
 11
-353.568819792365
 21
-369.7985533639466
 31
0.0
  0
LINE
  5
2A9
330
1F
100
AcDbEntity
  8
B-4
  6
Continuous
 62
     7
370
     9
100
AcDbLine
 10
-852.0687571076099
 20
-321.8073523240395
 30
0.0
 11
-852.0687571076099
 21
-371.2985335687608
 31
0.0
  0
LINE
  5
2AA
330
1F
100
AcDbEntity
  8
B-4
  6
Continuous
 62
     7
370
     9
100
AcDbLine
 10
-351.0688115443709
 20
-321.8073523240395
 30
0.0
 11
-351.0688115443709
 21
-371.2985335687608
 31
0.0
  0
LINE
  5
2AB
330
1F
100
AcDbEntity
  8
B-4
  6
Continuous
 62
     7
370
     9
100
AcDbLine
 10
-353.568819792365
 20
-369.7985533639466
 30
0.0
 11
-341.0687785523946
 21
-369.7985533639466
 31
0.0
  0
LINE
  5
2AC
330
1F
100
AcDbEntity
  8
B-4
  6
Continuous
 62
     7
370
     9
100
AcDbLine
 10
-341.0687785523946
 20
-321.8073523240395
 30
0.0
 11
-341.0687785523946
 21
-414.6645894439719
 31
0.0
  0
LINE
  5
2AD
330
1F
100
AcDbEntity
  8
B-4
  6
Continuous
 62
     7
370
     9
100
AcDbLine
 10
-862.0687282396307
 20
-369.7985533639466
 30
0.0
 11
-849.5687797895937
 21
-369.7985533639466
 31
0.0
  0
LINE
  5
2AE
330
1F
100
AcDbEntity
  8
B-4
  6
Continuous
 62
     7
370
     9
100
AcDbLine
 10
-862.0687282396307
 20
-321.8073523240395
 30
0.0
 11
-862.0687282396307
 21
-414.6645894439719
 31
0.0
  0
LINE
  5
2AF
330
1F
100
AcDbEntity
  8
B-4
  6
Continuous
 62
     7
370
     9
100
AcDbLine
 10
-868.0687109188432
 20
-413.1646092391577
 30
0.0
 11
-862.0687282396307
 21
-413.1646092391577
 31
0.0
  0
LINE
  5
2B0
330
1F
100
AcDbEntity
  8
B-4
  6
Continuous
 62
     7
370
     9
100
AcDbLine
 10
-862.0687282396307
 20
-413.1646092391577
 30
0.0
 11
-341.0687785523946
 21
-413.1646092391577
 31
0.0
  0
LINE
  5
2B1
330
1F
100
AcDbEntity
  8
B-4
  6
Continuous
 62
     7
370
     9
100
AcDbLine
 10
-341.0687785523946
 20
-413.1646092391577
 30
0.0
 11
-335.0687340132265
 21
-413.1646092391577
 31
0.0
  0
LINE
  5
2B2
330
1F
100
AcDbEntity
  8
B-4
  6
Continuous
 62
     7
370
     9
100
AcDbLine
 10
-868.0687109188432
 20
-321.8073523240395
 30
0.0
 11
-868.0687109188432
 21
-455.979864069183
 31
0.0
  0
LINE
  5
2B3
330
1F
100
AcDbEntity
  8
B-4
  6
Continuous
 62
     7
370
     9
100
AcDbLine
 10
-335.0687340132265
 20
-321.8073523240395
 30
0.0
 11
-335.0687340132265
 21
-455.979864069183
 31
0.0
  0
LINE
  5
2B4
330
1F
100
AcDbEntity
  8
B-4
  6
Continuous
 62
     7
370
     9
100
AcDbLine
 10
-868.0687109188432
 20
-454.4798838643688
 30
0.0
 11
-335.0687340132265
 21
-454.4798838643688
 31
0.0
  0
TEXT
  5
2B5
330
1F
100
AcDbEntity
  8
B-4
  6
Continuous
 62
     2
370
     9
100
AcDbText
 10
-7.053030756258636
 20
520.248210700533
 30
0.0
 40
15.24
  1
6
 50
90.0
 41
0.9999999999999998
  7
ＭＳ ゴシック
100
AcDbText
  0
TEXT
  5
2B6
330
1F
100
AcDbEntity
  8
B-4
  6
Continuous
 62
     2
370
     9
100
AcDbText
 10
-6.601329360038193
 20
466.5386753595279
 30
0.0
 40
15.24
  1
11
 50
90.0
 41
1.0625
  7
ＭＳ ゴシック
100
AcDbText
  0
TEXT
  5
2B7
330
1F
100
AcDbEntity
  8
B-4
  6
Continuous
 62
     2
370
     9
100
AcDbText
 10
-6.422306648361626
 20
-287.2370398240395
 30
0.0
 40
15.24
  1
7
 50
90.0
 41
1.000000206199857
  7
ＭＳ ゴシック
100
AcDbText
  0
TEXT
  5
2B8
330
1F
100
AcDbEntity
  8
B-4
  6
Continuous
 62
     2
370
     9
100
AcDbText
 10
-6.805838373446136
 20
-321.7692465913536
 30
0.0
 40
15.24
  1
6
 50
90.0
 41
1.000000206199857
  7
ＭＳ ゴシック
100
AcDbText
  0
TEXT
  5
2B9
330
1F
100
AcDbEntity
  8
B-4
  6
Continuous
 62
     2
370
     9
100
AcDbText
 10
220.9626420821071
 20
-285.6416715675994
 30
0.0
 40
15.24
  1
60
 50
90.0
 41
1.0625
  7
ＭＳ ゴシック
100
AcDbText
  0
TEXT
  5
2BA
330
1F
100
AcDbEntity
  8
B-4
  6
Continuous
 62
     2
370
     9
100
AcDbText
 10
220.9626420821071
 20
474.3582686344436
 30
0.0
 40
15.24
  1
60
 50
90.0
 41
1.0625
  7
ＭＳ ゴシック
100
AcDbText
  0
TEXT
  5
2BB
330
1F
100
AcDbEntity
  8
B-4
  6
Continuous
 62
     2
370
     9
100
AcDbText
 10
94.5090676654053
 20
-369.8476181074009
 30
0.0
 40
15.24
  1
75
 41
1.0625
  7
ＭＳ ゴシック
100
AcDbText
  0
TEXT
  5
2BC
330
1F
100
AcDbEntity
  8
B-4
  6
Continuous
 62
     2
370
     9
100
AcDbText
 10
97.50902807503368
 20
-429.0620709024812
 30
0.0
 40
15.24
  1
81
 41
1.0625
  7
ＭＳ ゴシック
100
AcDbText
  0
TEXT
  5
2BD
330
1F
100
AcDbEntity
  8
B-4
  6
Continuous
 62
     2
370
     9
100
AcDbText
 10
-858.1843560439486
 20
-407.3174304490394
 30
0.0
 40
15.24
  1
6
 41
1.000000206199843
  7
ＭＳ ゴシック
100
AcDbText
  0
TEXT
  5
2BE
330
1F
100
AcDbEntity
  8
B-4
  6
Continuous
 62
     2
370
     9
100
AcDbText
 10
-353.1734109557941
 20
-406.3390533903401
 30
0.0
 40
15.24
  1
6
 41
0.9999999999999998
  7
ＭＳ ゴシック
100
AcDbText
  0
TEXT
  5
2BF
330
1F
100
AcDbEntity
  8
B-4
  6
Continuous
 62
     2
370
     9
100
AcDbText
 10
-841.4828175456114
 20
-363.9785929543182
 30
0.0
 40
15.24
  1
10
 41
1.0625
  7
ＭＳ ゴシック
100
AcDbText
  0
TEXT
  5
2C0
330
1F
100
AcDbEntity
  8
B-4
  6
Continuous
 62
     2
370
     9
100
AcDbText
 10
-378.4693077436953
 20
-363.9785929543182
 30
0.0
 40
15.24
  1
10
 41
1.0625
  7
ＭＳ ゴシック
100
AcDbText
  0
TEXT
  5
2C1
330
1F
100
AcDbEntity
  8
B-4
  6
Continuous
 62
     2
370
     9
100
AcDbText
 10
-617.8187760779963
 20
-363.9785929543182
 30
0.0
 40
15.24
  1
501
 41
1.083333333333333
  7
ＭＳ ゴシック
100
AcDbText
  0
TEXT
  5
2C2
330
1F
100
AcDbEntity
  8
B-4
  6
Continuous
 62
     2
370
     9
100
AcDbText
 10
-617.8187142180407
 20
-407.3446488295293
 30
0.0
 40
15.24
  1
521
 41
1.083333333333333
  7
ＭＳ ゴシック
100
AcDbText
  0
TEXT
  5
2C3
330
1F
100
AcDbEntity
  8
B-4
  6
Continuous
 62
     2
370
     9
100
AcDbText
 10
-617.8187142180407
 20
-448.6599234547405
 30
0.0
 40
15.24
  1
533
 41
1.083333333333333
  7
ＭＳ ゴシック
100
AcDbText
  0
TEXT
  5
2C4
330
1F
100
AcDbEntity
  8
B-4
  6
Continuous
 62
     2
370
     9
100
AcDbText
 10
-54.39198042369938
 20
86.23331812240798
 30
0.0
 40
15.24
  1
820
 50
90.0
 41
1.083333333333333
  7
ＭＳ ゴシック
100
AcDbText
  0
TEXT
  5
2C5
330
1F
100
AcDbEntity
  8
B-4
  6
Continuous
 62
     2
370
     9
100
AcDbText
 10
-5.500840748868399
 20
84.23338575595955
 30
0.0
 40
15.24
  1
790
 50
90.0
 41
1.083333333333333
  7
ＭＳ ゴシック
100
AcDbText
  0
TEXT
  5
2C6
330
1F
100
AcDbEntity
  8
B-4
  6
Continuous
 62
     2
370
     9
100
AcDbText
 10
220.4626899204727
 20
86.23331812240798
 30
0.0
 40
15.24
  1
700
 50
90.0
 41
1.083333333333333
  7
ＭＳ ゴシック
100
AcDbText
  0
LINE
  5
2C7
330
1F
100
AcDbEntity
  8
B-2
  6
Continuous
 62
     3
370
     9
100
AcDbLine
 10
137.6339934334584
 20
495.4834434919181
 30
0.0
 11
137.6339934334584
 21
490.9835028774756
 31
0.0
  0
LINE
  5
2C8
330
1F
100
AcDbEntity
  8
B-2
  6
Continuous
 62
     3
370
     9
100
AcDbLine
 10
73.29085543461974
 20
394.8264082828811
 30
0.0
 11
67.6340099294467
 21
400.4833775079654
 31
0.0
  0
LINE
  5
2C9
330
1F
100
AcDbEntity
  8
B-2
  6
Continuous
 62
     3
370
     9
100
AcDbLine
 10
67.6340099294467
 20
400.4833775079654
 30
0.0
 11
73.29085543461974
 21
406.1400992932273
 31
0.0
  0
LINE
  5
2CA
330
1F
100
AcDbEntity
  8
B-2
  6
Continuous
 62
     3
370
     9
100
AcDbLine
 10
73.29085543461974
 20
406.1400992932273
 30
0.0
 11
78.94770093979292
 21
400.4833775079654
 31
0.0
  0
LINE
  5
2CB
330
1F
100
AcDbEntity
  8
B-2
  6
Continuous
 62
     3
370
     9
100
AcDbLine
 10
67.6340099294467
 20
490.9835028774756
 30
0.0
 11
142.6340099294467
 21
490.9835028774756
 31
0.0
  0
LINE
  5
2CC
330
1F
100
AcDbEntity
  8
B-2
  6
Continuous
 62
     3
370
     9
100
AcDbLine
 10
74.63408251179462
 20
490.9835028774756
 30
0.0
 11
74.63408251179462
 21
404.796748496141
 31
0.0
  0
LINE
  5
2CD
330
1F
100
AcDbEntity
  8
B-2
  6
Continuous
 62
     3
370
     9
100
AcDbLine
 10
76.13393899669748
 20
490.9835028774756
 30
0.0
 11
76.13393899669748
 21
403.2970157311495
 31
0.0
  0
LINE
  5
2CE
330
1F
100
AcDbEntity
  8
B-2
  6
Continuous
 62
     3
370
     9
100
AcDbLine
 10
78.94770093979292
 20
400.4833775079654
 30
0.0
 11
75.3162741027997
 21
396.8517032311495
 31
0.0
  0
LINE
  5
2CF
330
1F
100
AcDbEntity
  8
B-2
  6
Continuous
 62
     3
370
     9
100
AcDbLine
 10
75.3162741027997
 20
396.8517032311495
 30
0.0
 11
73.29085543461974
 21
394.8264082828811
 31
0.0
  0
LINE
  5
2D0
330
1F
100
AcDbEntity
  8
B-2
  6
Continuous
 62
     3
370
     9
100
AcDbLine
 10
137.6339934334584
 20
-294.5167194059651
 30
0.0
 11
137.6339934334584
 21
-290.0167787915225
 31
0.0
  0
LINE
  5
2D1
330
1F
100
AcDbEntity
  8
B-2
  6
Continuous
 62
     3
370
     9
100
AcDbLine
 10
67.6340099294467
 20
-290.0167787915225
 30
0.0
 11
142.6340099294467
 21
-290.0167787915225
 31
0.0
  0
LINE
  5
2D2
330
1F
100
AcDbEntity
  8
B-2
  6
Continuous
 62
     3
370
     9
100
AcDbLine
 10
67.6340099294467
 20
-294.5167194059651
 30
0.0
 11
137.6339934334584
 21
-294.5167194059651
 31
0.0
  0
LINE
  5
2D3
330
1F
100
AcDbEntity
  8
B-2
  6
Continuous
 62
     3
370
     9
100
AcDbLine
 10
67.6340099294467
 20
495.4834434919181
 30
0.0
 11
137.6339934334584
 21
495.4834434919181
 31
0.0
  0
LINE
  5
2D4
330
1F
100
AcDbEntity
  8
B-2
  6
Continuous
 62
     3
370
     9
100
AcDbLine
 10
73.29085543461974
 20
-193.8596223369723
 30
0.0
 11
67.6340099294467
 21
-199.5165915620568
 31
0.0
  0
LINE
  5
2D5
330
1F
100
AcDbEntity
  8
B-2
  6
Continuous
 62
     3
370
     9
100
AcDbLine
 10
67.6340099294467
 20
-199.5165915620568
 30
0.0
 11
73.29085543461974
 21
-205.1733133473186
 31
0.0
  0
LINE
  5
2D6
330
1F
100
AcDbEntity
  8
B-2
  6
Continuous
 62
     3
370
     9
100
AcDbLine
 10
73.29085543461974
 20
-205.1733133473186
 30
0.0
 11
78.94770093979292
 21
-199.5165915620568
 31
0.0
  0
LINE
  5
2D7
330
1F
100
AcDbEntity
  8
B-2
  6
Continuous
 62
     3
370
     9
100
AcDbLine
 10
78.94770093979292
 20
-199.5165915620568
 30
0.0
 11
75.3162741027997
 21
-195.8851647250635
 31
0.0
  0
LINE
  5
2D8
330
1F
100
AcDbEntity
  8
B-2
  6
Continuous
 62
     3
370
     9
100
AcDbLine
 10
75.3162741027997
 20
-195.8851647250635
 30
0.0
 11
73.29085543461974
 21
-193.8596223369723
 31
0.0
  0
LINE
  5
2D9
330
1F
100
AcDbEntity
  8
B-2
  6
Continuous
 62
     3
370
     9
100
AcDbLine
 10
73.29085543461974
 20
6.14026425310902
 30
0.0
 11
67.6340099294467
 21
0.4835424678471689
 31
0.0
  0
LINE
  5
2DA
330
1F
100
AcDbEntity
  8
B-2
  6
Continuous
 62
     3
370
     9
100
AcDbLine
 10
67.6340099294467
 20
0.4835424678471689
 30
0.0
 11
73.29085543461974
 21
-5.17342675723734
 31
0.0
  0
LINE
  5
2DB
330
1F
100
AcDbEntity
  8
B-2
  6
Continuous
 62
     3
370
     9
100
AcDbLine
 10
73.29085543461974
 20
-5.17342675723734
 30
0.0
 11
78.94770093979292
 21
0.4835424678471689
 31
0.0
  0
LINE
  5
2DC
330
1F
100
AcDbEntity
  8
B-2
  6
Continuous
 62
     3
370
     9
100
AcDbLine
 10
78.94770093979292
 20
0.4835424678471689
 30
0.0
 11
75.3162741027997
 21
4.114969304840397
 31
0.0
  0
LINE
  5
2DD
330
1F
100
AcDbEntity
  8
B-2
  6
Continuous
 62
     3
370
     9
100
AcDbLine
 10
75.3162741027997
 20
4.114969304840397
 30
0.0
 11
73.29085543461974
 21
6.14026425310902
 31
0.0
  0
LINE
  5
2DE
330
1F
100
AcDbEntity
  8
B-2
  6
Continuous
 62
     3
370
     9
100
AcDbLine
 10
73.29085543461974
 20
106.1403467330499
 30
0.0
 11
67.6340099294467
 21
100.4833775079654
 31
0.0
  0
LINE
  5
2DF
330
1F
100
AcDbEntity
  8
B-2
  6
Continuous
 62
     3
370
     9
100
AcDbLine
 10
67.6340099294467
 20
100.4833775079654
 30
0.0
 11
73.29085543461974
 21
94.82665572270355
 31
0.0
  0
LINE
  5
2E0
330
1F
100
AcDbEntity
  8
B-2
  6
Continuous
 62
     3
370
     9
100
AcDbLine
 10
73.29085543461974
 20
94.82665572270355
 30
0.0
 11
78.94770093979292
 21
100.4833775079654
 31
0.0
  0
LINE
  5
2E1
330
1F
100
AcDbEntity
  8
B-2
  6
Continuous
 62
     3
370
     9
100
AcDbLine
 10
78.94770093979292
 20
100.4833775079654
 30
0.0
 11
75.3162741027997
 21
104.1148043449586
 31
0.0
  0
LINE
  5
2E2
330
1F
100
AcDbEntity
  8
B-2
  6
Continuous
 62
     3
370
     9
100
AcDbLine
 10
75.3162741027997
 20
104.1148043449586
 30
0.0
 11
73.29085543461974
 21
106.1403467330499
 31
0.0
  0
LINE
  5
2E3
330
1F
100
AcDbEntity
  8
B-2
  6
Continuous
 62
     3
370
     9
100
AcDbLine
 10
73.29085543461974
 20
206.1401817731681
 30
0.0
 11
67.6340099294467
 21
200.4834599879063
 31
0.0
  0
LINE
  5
2E4
330
1F
100
AcDbEntity
  8
B-2
  6
Continuous
 62
     3
370
     9
100
AcDbLine
 10
67.6340099294467
 20
200.4834599879063
 30
0.0
 11
73.29085543461974
 21
194.8267382026444
 31
0.0
  0
LINE
  5
2E5
330
1F
100
AcDbEntity
  8
B-2
  6
Continuous
 62
     3
370
     9
100
AcDbLine
 10
73.29085543461974
 20
194.8267382026444
 30
0.0
 11
78.94770093979292
 21
200.4834599879063
 31
0.0
  0
LINE
  5
2E6
330
1F
100
AcDbEntity
  8
B-2
  6
Continuous
 62
     3
370
     9
100
AcDbLine
 10
78.94770093979292
 20
200.4834599879063
 30
0.0
 11
75.3162741027997
 21
204.1148868248995
 31
0.0
  0
LINE
  5
2E7
330
1F
100
AcDbEntity
  8
B-2
  6
Continuous
 62
     3
370
     9
100
AcDbLine
 10
75.3162741027997
 20
204.1148868248995
 30
0.0
 11
73.29085543461974
 21
206.1401817731681
 31
0.0
  0
LINE
  5
2E8
330
1F
100
AcDbEntity
  8
B-2
  6
Continuous
 62
     3
370
     9
100
AcDbLine
 10
73.29085543461974
 20
306.140264253109
 30
0.0
 11
67.6340099294467
 21
300.4835424678472
 31
0.0
  0
LINE
  5
2E9
330
1F
100
AcDbEntity
  8
B-2
  6
Continuous
 62
     3
370
     9
100
AcDbLine
 10
67.6340099294467
 20
300.4835424678472
 30
0.0
 11
73.29085543461974
 21
294.8265732427627
 31
0.0
  0
LINE
  5
2EA
330
1F
100
AcDbEntity
  8
B-2
  6
Continuous
 62
     3
370
     9
100
AcDbLine
 10
73.29085543461974
 20
294.8265732427627
 30
0.0
 11
78.94770093979292
 21
300.4835424678472
 31
0.0
  0
LINE
  5
2EB
330
1F
100
AcDbEntity
  8
B-2
  6
Continuous
 62
     3
370
     9
100
AcDbLine
 10
78.94770093979292
 20
300.4835424678472
 30
0.0
 11
75.3162741027997
 21
304.1149693048404
 31
0.0
  0
LINE
  5
2EC
330
1F
100
AcDbEntity
  8
B-2
  6
Continuous
 62
     3
370
     9
100
AcDbLine
 10
75.3162741027997
 20
304.1149693048404
 30
0.0
 11
73.29085543461974
 21
306.140264253109
 31
0.0
  0
LINE
  5
2ED
330
1F
100
AcDbEntity
  8
B-2
  6
Continuous
 62
     3
370
     9
100
AcDbLine
 10
74.63408251179462
 20
196.169841559908
 30
0.0
 11
74.63408251179462
 21
104.7972433757864
 31
0.0
  0
LINE
  5
2EE
330
1F
100
AcDbEntity
  8
B-2
  6
Continuous
 62
     3
370
     9
100
AcDbLine
 10
76.13393899669748
 20
197.6698217647222
 30
0.0
 11
76.13393899669748
 21
103.2972631709722
 31
0.0
  0
LINE
  5
2EF
330
1F
100
AcDbEntity
  8
B-2
  6
Continuous
 62
     3
370
     9
100
AcDbLine
 10
74.63408251179462
 20
396.1695116401444
 30
0.0
 11
74.63408251179462
 21
304.7971608958455
 31
0.0
  0
LINE
  5
2F0
330
1F
100
AcDbEntity
  8
B-2
  6
Continuous
 62
     3
370
     9
100
AcDbLine
 10
74.63408251179462
 20
296.1696766000262
 30
0.0
 11
74.63408251179462
 21
204.7970784159046
 31
0.0
  0
LINE
  5
2F1
330
1F
100
AcDbEntity
  8
B-2
  6
Continuous
 62
     3
370
     9
100
AcDbLine
 10
76.13393899669748
 20
397.6694918449587
 30
0.0
 11
76.13393899669748
 21
303.2971806910313
 31
0.0
  0
LINE
  5
2F2
330
1F
100
AcDbEntity
  8
B-2
  6
Continuous
 62
     3
370
     9
100
AcDbLine
 10
76.13393899669748
 20
297.6696568048404
 30
0.0
 11
76.13393899669748
 21
203.2970982110904
 31
0.0
  0
LINE
  5
2F3
330
1F
100
AcDbEntity
  8
B-2
  6
Continuous
 62
     3
370
     9
100
AcDbLine
 10
74.63408251179462
 20
96.16951164014444
 30
0.0
 11
74.63408251179462
 21
4.797160895845476
 31
0.0
  0
LINE
  5
2F4
330
1F
100
AcDbEntity
  8
B-2
  6
Continuous
 62
     3
370
     9
100
AcDbLine
 10
76.13393899669748
 20
97.66973928478129
 30
0.0
 11
76.13393899669748
 21
3.297180691031283
 31
0.0
  0
LINE
  5
2F5
330
1F
100
AcDbEntity
  8
B-2
  6
Continuous
 62
     3
370
     9
100
AcDbLine
 10
76.13393899669748
 20
-202.3302297852409
 30
0.0
 11
76.13393899669748
 21
-290.0167787915225
 31
0.0
  0
LINE
  5
2F6
330
1F
100
AcDbEntity
  8
B-2
  6
Continuous
 62
     3
370
     9
100
AcDbLine
 10
74.63408251179462
 20
-203.8302099900551
 30
0.0
 11
74.63408251179462
 21
-290.0167787915225
 31
0.0
  0
LINE
  5
2F7
330
1F
100
AcDbEntity
  8
B-2
  6
Continuous
 62
     3
370
     9
100
AcDbLine
 10
67.6340099294467
 20
495.4834434919181
 30
0.0
 11
67.6340099294467
 21
-294.5167194059651
 31
0.0
  0
LINE
  5
2F8
330
1F
100
AcDbEntity
  8
B-2
  6
Continuous
 62
     3
370
     9
100
AcDbLine
 10
134.1340808621959
 20
490.9835028774756
 30
0.0
 11
134.1340808621959
 21
-290.0167787915225
 31
0.0
  0
LINE
  5
2F9
330
1F
100
AcDbEntity
  8
B-2
  6
Continuous
 62
     3
370
     9
100
AcDbLine
 10
135.63406106701
 20
490.9835028774756
 30
0.0
 11
135.63406106701
 21
-290.0167787915225
 31
0.0
  0
LINE
  5
2FA
330
1F
100
AcDbEntity
  8
B-2
  6
Continuous
 62
     3
370
     9
100
AcDbLine
 10
142.6340099294467
 20
490.9835028774756
 30
0.0
 11
142.6340099294467
 21
-290.0167787915225
 31
0.0
  0
LINE
  5
2FB
330
1F
100
AcDbEntity
  8
B-2
  6
Continuous
 62
     3
370
     9
100
AcDbLine
 10
73.29085543461974
 20
-93.8597563668762
 30
0.0
 11
67.6340099294467
 21
-99.51647815213805
 31
0.0
  0
LINE
  5
2FC
330
1F
100
AcDbEntity
  8
B-2
  6
Continuous
 62
     3
370
     9
100
AcDbLine
 10
67.6340099294467
 20
-99.51647815213805
 30
0.0
 11
73.29085543461974
 21
-105.1734473772225
 31
0.0
  0
LINE
  5
2FD
330
1F
100
AcDbEntity
  8
B-2
  6
Continuous
 62
     3
370
     9
100
AcDbLine
 10
73.29085543461974
 20
-105.1734473772225
 30
0.0
 11
78.94770093979292
 21
-99.51647815213805
 31
0.0
  0
LINE
  5
2FE
330
1F
100
AcDbEntity
  8
B-2
  6
Continuous
 62
     3
370
     9
100
AcDbLine
 10
78.94770093979292
 20
-99.51647815213805
 30
0.0
 11
75.3162741027997
 21
-95.88505131514482
 31
0.0
  0
LINE
  5
2FF
330
1F
100
AcDbEntity
  8
B-2
  6
Continuous
 62
     3
370
     9
100
AcDbLine
 10
75.3162741027997
 20
-95.88505131514482
 30
0.0
 11
73.29085543461974
 21
-93.8597563668762
 31
0.0
  0
LINE
  5
300
330
1F
100
AcDbEntity
  8
B-2
  6
Continuous
 62
     3
370
     9
100
AcDbLine
 10
74.63408251179462
 20
-3.830323399973796
 30
0.0
 11
74.63408251179462
 21
-95.2029215840954
 31
0.0
  0
LINE
  5
301
330
1F
100
AcDbEntity
  8
B-2
  6
Continuous
 62
     3
370
     9
100
AcDbLine
 10
74.63408251179462
 20
-103.8302203000477
 30
0.0
 11
74.63408251179462
 21
-195.2029112741028
 31
0.0
  0
LINE
  5
302
330
1F
100
AcDbEntity
  8
B-2
  6
Continuous
 62
     3
370
     9
100
AcDbLine
 10
76.13393899669748
 20
-2.330343195159603
 30
0.0
 11
76.13393899669748
 21
-96.7027162090426
 31
0.0
  0
LINE
  5
303
330
1F
100
AcDbEntity
  8
B-2
  6
Continuous
 62
     3
370
     9
100
AcDbLine
 10
76.13393899669748
 20
-102.3303019551892
 30
0.0
 11
76.13393899669748
 21
-196.7028914789169
 31
0.0
  0
LINE
  5
304
330
1F
100
AcDbEntity
  8
B-1
  6
Continuous
 62
     2
370
     9
100
AcDbLine
 10
-335.0687340132265
 20
-307.5168365274812
 30
0.0
 11
-868.0687109188432
 21
-307.5168365274812
 31
0.0
  0
LINE
  5
305
330
1F
100
AcDbEntity
  8
B-1
  6
Continuous
 62
     2
370
     9
100
AcDbLine
 10
-868.0687109188432
 20
512.4833016264198
 30
0.0
 11
-335.0687340132265
 21
512.4833016264198
 31
0.0
  0
LINE
  5
306
330
1F
100
AcDbEntity
  8
B-1
  6
Continuous
 62
     2
370
     9
100
AcDbLine
 10
-862.0687282396307
 20
-301.5167919883131
 30
0.0
 11
-862.0687282396307
 21
506.4832570872517
 31
0.0
  0
LINE
  5
307
330
1F
100
AcDbEntity
  8
B-1
  6
Continuous
 62
     2
370
     9
100
AcDbLine
 10
-868.0687109188432
 20
-307.5168365274812
 30
0.0
 11
-868.0687109188432
 21
512.4833016264198
 31
0.0
  0
LINE
  5
308
330
1F
100
AcDbEntity
  8
B-1
  6
Continuous
 62
     2
370
     9
100
AcDbLine
 10
-335.0687340132265
 20
512.4833016264198
 30
0.0
 11
-335.0687340132265
 21
-307.5168365274812
 31
0.0
  0
LINE
  5
309
330
1F
100
AcDbEntity
  8
B-1
  6
Continuous
 62
     2
370
     9
100
AcDbLine
 10
-341.0687785523946
 20
506.4832570872517
 30
0.0
 11
-341.0687785523946
 21
-301.5167919883131
 31
0.0
  0
LINE
  5
30A
330
1F
100
AcDbEntity
  8
B-1
  6
Continuous
 62
     2
370
     9
100
AcDbLine
 10
-335.0687340132265
 20
-301.5167919883131
 30
0.0
 11
-868.0687109188432
 21
-301.5167919883131
 31
0.0
  0
LINE
  5
30B
330
1F
100
AcDbEntity
  8
B-1
  6
Continuous
 62
     2
370
     9
100
AcDbLine
 10
-868.0687109188432
 20
506.4832570872517
 30
0.0
 11
-335.0687340132265
 21
506.4832570872517
 31
0.0
  0
LINE
  5
30C
330
1F
100
AcDbEntity
  8
B-5
  6
Continuous
 62
     7
370
     9
100
AcDbLine
 10
-308.41669534466
 20
573.9184582654503
 30
0.0
 11
-82.42025517890825
 21
573.9184582654503
 31
0.0
  0
TEXT
  5
30D
330
1F
100
AcDbEntity
  8
B-5
  6
Continuous
 62
     7
370
     9
100
AcDbText
 10
-307.460294522161
 20
579.1837994614307
 30
0.0
 40
11.43
  1
メインバー Ⅰ－７５ ＠35.3
 41
1.16025641025641
  7
ＭＳ ゴシック
100
AcDbText
  0
LINE
  5
30E
330
1F
100
AcDbEntity
  8
B-5
  6
Continuous
 62
     7
370
     9
100
AcDbLine
 10
-300.8739961368492
 20
535.3990898522384
 30
0.0
 11
-135.0611068315283
 21
535.3990898522384
 31
0.0
  0
TEXT
  5
30F
330
1F
100
AcDbEntity
  8
B-5
  6
Continuous
 62
     7
370
     9
100
AcDbText
 10
-295.7160440133322
 20
540.3298539685452
 30
0.0
 40
11.43
  1
アーム式ピンヒンジ
 41
1.148148148148148
  7
ＭＳ ゴシック
100
AcDbText
  0
TEXT
  5
310
330
1F
100
AcDbEntity
  8
B-5
  6
Continuous
 62
     7
370
     9
100
AcDbText
 10
-298.2748599402273
 20
614.749274821352
 30
0.0
 40
11.43
  1
クロスバー □８ ＠100
 41
1.158730158730159
  7
ＭＳ ゴシック
100
AcDbText
  0
LINE
  5
311
330
1F
100
AcDbEntity
  8
B-5
  6
Continuous
 62
     7
370
     9
100
AcDbLine
 10
-300.7356849661181
 20
609.5784033752825
 30
0.0
 11
-113.642874718884
 21
609.5784033752825
 31
0.0
  0
LINE
  5
312
330
1F
100
AcDbEntity
  8
B-4
  6
Continuous
 62
     7
370
     9
100
AcDbLine
 10
180.5645525934887
 20
574.736505946168
 30
0.0
 11
162.4164525893918
 21
529.090225322577
 31
0.0
  0
TEXT
  5
313
330
1F
100
AcDbEntity
  8
B-5
  6
Continuous
 62
     7
370
     9
100
AcDbText
 10
180.9054222406197
 20
580.9810291461258
 30
0.0
 40
11.43
  1
アンカー　φ９
 41
1.142857142857143
  7
ＭＳ ゴシック
100
AcDbText
  0
LINE
  5
314
330
1F
100
AcDbEntity
  8
B-5
  6
Continuous
 62
     7
370
     9
100
AcDbLine
 10
180.5645525934887
 20
574.736505946168
 30
0.0
 11
306.0035069451649
 21
574.736505946168
 31
0.0
  0
TEXT
  5
315
330
1F
100
AcDbEntity
  8
B-5
  6
Continuous
 62
     7
370
     9
100
AcDbText
 10
118.571815105228
 20
624.0925886510853
 30
0.0
 40
11.43
  1
（二方受四方枠）
 41
1.145833333333333
  7
ＭＳ ゴシック
100
AcDbText
  0
LINE
  5
316
330
1F
100
AcDbEntity
  8
B-5
  6
Continuous
 62
     7
370
     9
100
AcDbLine
 10
-300.8739961368492
 20
535.3990898522384
 30
0.0
 11
-325.3790396505759
 21
492.9551094447776
 31
0.0
  0
LINE
  5
317
330
1F
100
AcDbEntity
  8
B-5
  6
Continuous
 62
     7
370
     9
100
AcDbLine
 10
-325.3790396505759
 20
492.9551094447776
 30
0.0
 11
-320.5954967460123
 21
504.5036036011687
 31
0.0
  0
LINE
  5
318
330
1F
100
AcDbEntity
  8
B-5
  6
Continuous
 62
     7
370
     9
100
AcDbLine
 10
-325.3790396505759
 20
492.9551094447776
 30
0.0
 11
-317.7695217879668
 21
502.8720261984181
 31
0.0
  0
LINE
  5
319
330
1F
100
AcDbEntity
  8
B-5
  6
Continuous
 62
     7
370
     9
100
AcDbLine
 10
-308.41669534466
 20
573.9184582654503
 30
0.0
 11
-386.5665284996075
 21
438.5589766380504
 31
0.0
  0
LINE
  5
31A
330
1F
100
AcDbEntity
  8
B-5
  6
Continuous
 62
     7
370
     9
100
AcDbLine
 10
-386.5665284996075
 20
438.5589766380504
 30
0.0
 11
-381.7829855950438
 21
450.1074707944415
 31
0.0
  0
LINE
  5
31B
330
1F
100
AcDbEntity
  8
B-5
  6
Continuous
 62
     7
370
     9
100
AcDbLine
 10
-386.5665284996075
 20
438.5589766380504
 30
0.0
 11
-378.9570106369985
 21
448.4758933916908
 31
0.0
  0
LINE
  5
31C
330
1F
100
AcDbEntity
  8
B-5
  6
Continuous
 62
     7
370
     9
100
AcDbLine
 10
-300.7356849661181
 20
609.5784033752825
 30
0.0
 11
-418.0695650108843
 21
405.9837173253219
 31
0.0
  0
LINE
  5
31D
330
1F
100
AcDbEntity
  8
B-5
  6
Continuous
 62
     7
370
     9
100
AcDbLine
 10
-418.0695650108843
 20
405.9837173253219
 30
0.0
 11
-413.295028129472
 21
417.5359377858237
 31
0.0
  0
LINE
  5
31E
330
1F
100
AcDbEntity
  8
B-5
  6
Continuous
 62
     7
370
     9
100
AcDbLine
 10
-418.0695650108843
 20
405.9837173253219
 30
0.0
 11
-410.4677818601576
 21
415.9065643426517
 31
0.0
  0
LINE
  5
31F
330
1F
100
AcDbEntity
  8
B-5
  6
Continuous
 62
     7
370
     9
100
AcDbLine
 10
-386.1882538548581
 20
495.0704664279402
 30
0.0
 11
-381.3749717774608
 21
506.606597306333
 31
0.0
  0
LINE
  5
320
330
1F
100
AcDbEntity
  8
B-5
  6
Continuous
 62
     7
370
     9
100
AcDbLine
 10
-386.1882538548581
 20
495.0704664279402
 30
0.0
 11
-378.5532100089624
 21
504.9677441077495
 31
0.0
  0
LINE
  5
321
330
1F
100
AcDbEntity
  8
B-5
  6
Continuous
 62
     7
370
     9
100
AcDbLine
 10
-302.9336325501019
 20
638.4174774058781
 30
0.0
 11
-386.1882538548581
 21
495.0704664279402
 31
0.0
  0
LINE
  5
322
330
1F
100
AcDbEntity
  8
B-5
  6
Continuous
 62
     7
370
     9
100
AcDbLine
 10
-302.9336325501019
 20
638.4174774058781
 30
0.0
 11
-63.36112588677327
 21
638.4174774058781
 31
0.0
  0
TEXT
  5
323
330
1F
100
AcDbEntity
  8
B-5
  6
Continuous
 62
     7
370
     9
100
AcDbText
 10
-301.9240395151396
 20
642.9221093828189
 30
0.0
 40
11.43
  1
エンドプレート　ＦＢ4.5×65
 41
1.160493827160494
  7
ＭＳ ゴシック
100
AcDbText
  0
TEXT
  5
324
330
1F
100
AcDbEntity
  8
B-5
  6
Continuous
 62
     3
370
     9
100
AcDbText
 10
407.8724973854019
 20
-325.2686850873291
 30
0.0
 40
19.05
  1
※適用荷重：Ｔ－２５
 41
1.09
  7
ＭＳ ゴシック
100
AcDbText
  0
ENDSEC
  0
SECTION
  2
OBJECTS
  0
DICTIONARY
  5
C
330
0
100
AcDbDictionary
281
     1
  3
ACAD_DETAILVIEWSTYLE
350
36A
  3
ACAD_GROUP
350
D
  3
ACAD_LAYOUT
350
1A
  3
ACAD_MATERIAL
350
43
  3
ACAD_MLEADERSTYLE
350
6B
  3
ACAD_MLINESTYLE
350
17
  3
ACAD_PLOTSETTINGS
350
19
  3
ACAD_PLOTSTYLENAME
350
E
  3
ACAD_SCALELIST
350
47
  3
ACAD_SECTIONVIEWSTYLE
350
36B
  3
ACAD_TABLESTYLE
350
69
  3
ACAD_VISUALSTYLE
350
2A
  3
ACDB_RECOMPOSE_DATA
350
367
  3
AcDbVariableDictionary
350
327
  0
DICTIONARY
  5
325
330
8
100
AcDbDictionary
280
     1
281
     1
  3
ACAD_XREC_ROUNDTRIP
360
326
  0
DICTIONARY
  5
36A
102
{ACAD_REACTORS
330
C
102
}
330
C
100
AcDbDictionary
281
     1
  0
DICTIONARY
  5
D
102
{ACAD_REACTORS
330
C
102
}
330
C
100
AcDbDictionary
281
     1
  0
DICTIONARY
  5
1A
102
{ACAD_REACTORS
330
C
102
}
330
C
100
AcDbDictionary
281
     1
  3
Layout1
350
1E
  3
Layout2
350
26
  3
Model
350
22
  0
DICTIONARY
  5
43
102
{ACAD_REACTORS
330
C
102
}
330
C
100
AcDbDictionary
281
     1
  3
ByBlock
350
45
  3
ByLayer
350
44
  3
Global
350
46
  0
DICTIONARY
  5
6B
102
{ACAD_REACTORS
330
C
102
}
330
C
100
AcDbDictionary
281
     1
  3
Standard
350
6C
  0
DICTIONARY
  5
17
102
{ACAD_REACTORS
330
C
102
}
330
C
100
AcDbDictionary
281
     1
  3
Standard
350
18
  0
DICTIONARY
  5
19
102
{ACAD_REACTORS
330
C
102
}
330
C
100
AcDbDictionary
281
     1
  0
ACDBDICTIONARYWDFLT
  5
E
102
{ACAD_REACTORS
330
C
102
}
330
C
100
AcDbDictionary
281
     1
  3
Normal
350
F
100
AcDbDictionaryWithDefault
340
F
  0
DICTIONARY
  5
47
102
{ACAD_REACTORS
330
C
102
}
330
C
100
AcDbDictionary
281
     1
  3
A0
350
48
  3
A1
350
49
  3
A2
350
4A
  3
A3
350
4B
  3
A4
350
4C
  3
A5
350
4D
  3
A6
350
4E
  3
A7
350
4F
  3
A8
350
50
  3
A9
350
51
  3
B0
350
52
  3
B1
350
53
  3
B2
350
54
  3
B3
350
55
  3
B4
350
56
  3
B5
350
57
  3
B6
350
58
  3
B7
350
59
  3
B8
350
5A
  3
B9
350
5B
  3
C0
350
5C
  3
C1
350
5D
  3
C2
350
5E
  3
C3
350
5F
  3
C4
350
60
  3
C5
350
61
  3
C6
350
62
  3
C7
350
63
  3
C8
350
64
  3
C9
350
65
  3
D0
350
66
  3
D1
350
67
  3
D2
350
68
  0
DICTIONARY
  5
36B
102
{ACAD_REACTORS
330
C
102
}
330
C
100
AcDbDictionary
281
     1
  0
DICTIONARY
  5
69
102
{ACAD_REACTORS
330
C
102
}
330
C
100
AcDbDictionary
281
     1
  3
Standard
350
6A
  0
DICTIONARY
  5
2A
102
{ACAD_REACTORS
330
C
102
}
330
C
100
AcDbDictionary
281
     1
  3
2dWireframe
350
2F
  3
Basic
350
32
  3
Brighten
350
36
  3
ColorChange
350
3A
  3
Conceptual
350
34
  3
Dim
350
35
  3
EdgeColorOff
350
3D
  3
Facepattern
350
39
  3
Flat
350
2B
  3
FlatWithEdges
350
2C
  3
Gouraud
350
2D
  3
GouraudWithEdges
350
2E
  3
Hidden
350
31
  3
JitterOff
350
3B
  3
Linepattern
350
38
  3
OverhangOff
350
3C
  3
Realistic
350
33
  3
Shaded
350
42
  3
Shaded with edges
350
41
  3
Shades of Gray
350
3E
  3
Sketchy
350
3F
  3
Thicken
350
37
  3
Wireframe
350
30
  3
X-Ray
350
40
  0
XRECORD
  5
367
102
{ACAD_REACTORS
330
C
102
}
330
C
100
AcDbXrecord
280
     1
 90
        1
330
6A
  0
DICTIONARY
  5
327
102
{ACAD_REACTORS
330
C
102
}
330
C
100
AcDbDictionary
281
     1
  3
CANNOSCALE
350
328
  3
CENTEREXE
350
36C
  3
CENTERLTYPEFILE
350
36D
  3
CMLEADERSTYLE
350
369
  3
CTABLESTYLE
350
368
  3
MSLTSCALE
350
329
  3
XCLIPFRAME
350
32A
  0
XRECORD
  5
326
102
{ACAD_REACTORS
330
325
102
}
330
325
100
AcDbXrecord
280
     1
102
VTR_0.000_0.000_1.000_1.000_VISUALSTYLE
340
2F
102
VTR_0.000_0.000_1.000_1.000_GRIDDISPLAY
 70
     3
102
VTR_0.000_0.000_1.000_1.000_GRIDMAJOR
 70
     5
102
VTR_0.000_0.000_1.000_1.000_DEFAULTLIGHTING
280
     1
102
VTR_0.000_0.000_1.000_1.000_DEFAULTLIGHTINGTYPE
 70
     1
102
VTR_0.000_0.000_1.000_1.000_BRIGHTNESS
141
0.0
102
VTR_0.000_0.000_1.000_1.000_CONTRAST
142
0.0
  0
LAYOUT
  5
1E
102
{ACAD_REACTORS
330
1A
102
}
330
1A
100
AcDbPlotSettings
  1

  2
none_device
  4

  6

 40
0.0
 41
0.0
 42
0.0
 43
0.0
 44
0.0
 45
0.0
 46
0.0
 47
0.0
 48
0.0
 49
0.0
140
0.0
141
0.0
142
1.0
143
1.0
 70
   688
 72
     1
 73
     0
 74
     5
  7

 75
    16
 76
     0
 77
     5
 78
   300
147
1.0
148
0.0
149
0.0
100
AcDbLayout
  1
Layout1
 70
     1
 71
     1
 10
0.0
 20
0.0
 11
420.0
 21
297.0
 12
0.0
 22
0.0
 32
0.0
 14
1.000000000000000E+20
 24
1.000000000000000E+20
 34
1.000000000000000E+20
 15
-1.000000000000000E+20
 25
-1.000000000000000E+20
 35
-1.000000000000000E+20
146
0.0
 13
0.0
 23
0.0
 33
0.0
 16
1.0
 26
0.0
 36
0.0
 17
0.0
 27
1.0
 37
0.0
 76
     0
330
1B
  0
LAYOUT
  5
26
102
{ACAD_REACTORS
330
1A
102
}
330
1A
100
AcDbPlotSettings
  1

  2
none_device
  4

  6

 40
0.0
 41
0.0
 42
0.0
 43
0.0
 44
0.0
 45
0.0
 46
0.0
 47
0.0
 48
0.0
 49
0.0
140
0.0
141
0.0
142
1.0
143
1.0
 70
   688
 72
     1
 73
     0
 74
     5
  7

 75
    16
 76
     0
 77
     5
 78
   300
147
1.0
148
0.0
149
0.0
100
AcDbLayout
  1
Layout2
 70
     1
 71
     2
 10
0.0
 20
0.0
 11
0.0
 21
0.0
 12
0.0
 22
0.0
 32
0.0
 14
0.0
 24
0.0
 34
0.0
 15
0.0
 25
0.0
 35
0.0
146
0.0
 13
0.0
 23
0.0
 33
0.0
 16
1.0
 26
0.0
 36
0.0
 17
0.0
 27
1.0
 37
0.0
 76
     0
330
23
  0
LAYOUT
  5
22
102
{ACAD_REACTORS
330
1A
102
}
330
1A
100
AcDbPlotSettings
  1

  2
none_device
  4
Letter_(8.50_x_11.00_Inches)
  6

 40
6.35
 41
6.35
 42
6.35000508
 43
6.35000508
 44
215.9
 45
279.4
 46
0.0
 47
0.0
 48
0.0
 49
0.0
140
0.0
141
0.0
142
1.0
143
1.0
 70
  1712
 72
     1
 73
     0
 74
     0
  7

 75
     0
 76
     0
 77
     5
 78
   300
147
1.0
148
0.0
149
0.0
100
AcDbLayout
  1
Model
 70
     1
 71
     0
 10
-1050.0
 20
-742.5
 11
1050.0
 21
742.5
 12
0.0
 22
0.0
 32
0.0
 14
-1050.0
 24
-742.5
 34
0.0
 15
1050.0
 25
742.5
 35
0.0
146
0.0
 13
0.0
 23
0.0
 33
0.0
 16
1.0
 26
0.0
 36
0.0
 17
0.0
 27
1.0
 37
0.0
 76
     0
330
1F
331
29
  0
MATERIAL
  5
45
102
{ACAD_REACTORS
330
43
102
}
102
{ACAD_XDICTIONARY
360
35D
102
}
330
43
100
AcDbMaterial
  1
ByBlock
  0
MATERIAL
  5
44
102
{ACAD_REACTORS
330
43
102
}
102
{ACAD_XDICTIONARY
360
35B
102
}
330
43
100
AcDbMaterial
  1
ByLayer
  0
MATERIAL
  5
46
102
{ACAD_REACTORS
330
43
102
}
102
{ACAD_XDICTIONARY
360
35F
102
}
330
43
100
AcDbMaterial
  1
Global
  0
MLEADERSTYLE
  5
6C
102
{ACAD_REACTORS
330
6B
102
}
102
{ACAD_XDICTIONARY
360
365
102
}
330
6B
100
AcDbMLeaderStyle
170
     2
171
     1
172
     0
 90
        2
 40
0.0
 41
0.0
173
     1
 91
-1056964608
340
14
 92
       -2
290
     1
 42
2.0
291
     1
 43
8.0
  3
Standard
341
0
 44
4.0
300

342
11
174
     1
178
     6
175
     1
176
     0
 93
-1056964608
 45
4.0
292
     0
297
     0
 46
4.0
343
0
 94
-1056964608
 47
1.0
 49
1.0
140
1.0
293
     1
141
0.0
294
     1
177
     0
142
1.0
295
     0
296
     0
143
3.75
1001
ACAD_MLEADERVER
1070
     2
  0
MLINESTYLE
  5
18
102
{ACAD_REACTORS
330
17
102
}
330
17
100
AcDbMlineStyle
  2
Standard
 70
     0
  3

 62
   256
 51
90.0
 52
90.0
 71
     2
 49
0.5
 62
   256
  6
BYLAYER
 49
-0.5
 62
   256
  6
BYLAYER
  0
ACDBPLACEHOLDER
  5
F
102
{ACAD_REACTORS
330
E
102
}
330
E
  0
SCALE
  5
48
102
{ACAD_REACTORS
330
47
102
}
330
47
100
AcDbScale
 70
     0
300
1:1
140
1.0
141
1.0
290
     1
  0
SCALE
  5
49
102
{ACAD_REACTORS
330
47
102
}
330
47
100
AcDbScale
 70
     0
300
1:2
140
1.0
141
2.0
290
     0
  0
SCALE
  5
4A
102
{ACAD_REACTORS
330
47
102
}
330
47
100
AcDbScale
 70
     0
300
1:4
140
1.0
141
4.0
290
     0
  0
SCALE
  5
4B
102
{ACAD_REACTORS
330
47
102
}
330
47
100
AcDbScale
 70
     0
300
1:5
140
1.0
141
5.0
290
     0
  0
SCALE
  5
4C
102
{ACAD_REACTORS
330
47
102
}
330
47
100
AcDbScale
 70
     0
300
1:8
140
1.0
141
8.0
290
     0
  0
SCALE
  5
4D
102
{ACAD_REACTORS
330
47
102
}
330
47
100
AcDbScale
 70
     0
300
1:10
140
1.0
141
10.0
290
     0
  0
SCALE
  5
4E
102
{ACAD_REACTORS
330
47
102
}
330
47
100
AcDbScale
 70
     0
300
1:16
140
1.0
141
16.0
290
     0
  0
SCALE
  5
4F
102
{ACAD_REACTORS
330
47
102
}
330
47
100
AcDbScale
 70
     0
300
1:20
140
1.0
141
20.0
290
     0
  0
SCALE
  5
50
102
{ACAD_REACTORS
330
47
102
}
330
47
100
AcDbScale
 70
     0
300
1:30
140
1.0
141
30.0
290
     0
  0
SCALE
  5
51
102
{ACAD_REACTORS
330
47
102
}
330
47
100
AcDbScale
 70
     0
300
1:40
140
1.0
141
40.0
290
     0
  0
SCALE
  5
52
102
{ACAD_REACTORS
330
47
102
}
330
47
100
AcDbScale
 70
     0
300
1:50
140
1.0
141
50.0
290
     0
  0
SCALE
  5
53
102
{ACAD_REACTORS
330
47
102
}
330
47
100
AcDbScale
 70
     0
300
1:100
140
1.0
141
100.0
290
     0
  0
SCALE
  5
54
102
{ACAD_REACTORS
330
47
102
}
330
47
100
AcDbScale
 70
     0
300
2:1
140
2.0
141
1.0
290
     0
  0
SCALE
  5
55
102
{ACAD_REACTORS
330
47
102
}
330
47
100
AcDbScale
 70
     0
300
4:1
140
4.0
141
1.0
290
     0
  0
SCALE
  5
56
102
{ACAD_REACTORS
330
47
102
}
330
47
100
AcDbScale
 70
     0
300
8:1
140
8.0
141
1.0
290
     0
  0
SCALE
  5
57
102
{ACAD_REACTORS
330
47
102
}
330
47
100
AcDbScale
 70
     0
300
10:1
140
10.0
141
1.0
290
     0
  0
SCALE
  5
58
102
{ACAD_REACTORS
330
47
102
}
330
47
100
AcDbScale
 70
     0
300
100:1
140
100.0
141
1.0
290
     0
  0
SCALE
  5
59
102
{ACAD_REACTORS
330
47
102
}
330
47
100
AcDbScale
 70
     0
300
1/128" = 1'-0"
140
0.0078125
141
12.0
290
     0
  0
SCALE
  5
5A
102
{ACAD_REACTORS
330
47
102
}
330
47
100
AcDbScale
 70
     0
300
1/64" = 1'-0"
140
0.015625
141
12.0
290
     0
  0
SCALE
  5
5B
102
{ACAD_REACTORS
330
47
102
}
330
47
100
AcDbScale
 70
     0
300
1/32" = 1'-0"
140
0.03125
141
12.0
290
     0
  0
SCALE
  5
5C
102
{ACAD_REACTORS
330
47
102
}
330
47
100
AcDbScale
 70
     0
300
1/16" = 1'-0"
140
0.0625
141
12.0
290
     0
  0
SCALE
  5
5D
102
{ACAD_REACTORS
330
47
102
}
330
47
100
AcDbScale
 70
     0
300
3/32" = 1'-0"
140
0.09375
141
12.0
290
     0
  0
SCALE
  5
5E
102
{ACAD_REACTORS
330
47
102
}
330
47
100
AcDbScale
 70
     0
300
1/8" = 1'-0"
140
0.125
141
12.0
290
     0
  0
SCALE
  5
5F
102
{ACAD_REACTORS
330
47
102
}
330
47
100
AcDbScale
 70
     0
300
3/16" = 1'-0"
140
0.1875
141
12.0
290
     0
  0
SCALE
  5
60
102
{ACAD_REACTORS
330
47
102
}
330
47
100
AcDbScale
 70
     0
300
1/4" = 1'-0"
140
0.25
141
12.0
290
     0
  0
SCALE
  5
61
102
{ACAD_REACTORS
330
47
102
}
330
47
100
AcDbScale
 70
     0
300
3/8" = 1'-0"
140
0.375
141
12.0
290
     0
  0
SCALE
  5
62
102
{ACAD_REACTORS
330
47
102
}
330
47
100
AcDbScale
 70
     0
300
1/2" = 1'-0"
140
0.5
141
12.0
290
     0
  0
SCALE
  5
63
102
{ACAD_REACTORS
330
47
102
}
330
47
100
AcDbScale
 70
     0
300
3/4" = 1'-0"
140
0.75
141
12.0
290
     0
  0
SCALE
  5
64
102
{ACAD_REACTORS
330
47
102
}
330
47
100
AcDbScale
 70
     0
300
1" = 1'-0"
140
1.0
141
12.0
290
     0
  0
SCALE
  5
65
102
{ACAD_REACTORS
330
47
102
}
330
47
100
AcDbScale
 70
     0
300
1-1/2" = 1'-0"
140
1.5
141
12.0
290
     0
  0
SCALE
  5
66
102
{ACAD_REACTORS
330
47
102
}
330
47
100
AcDbScale
 70
     0
300
3" = 1'-0"
140
3.0
141
12.0
290
     0
  0
SCALE
  5
67
102
{ACAD_REACTORS
330
47
102
}
330
47
100
AcDbScale
 70
     0
300
6" = 1'-0"
140
6.0
141
12.0
290
     0
  0
SCALE
  5
68
102
{ACAD_REACTORS
330
47
102
}
330
47
100
AcDbScale
 70
     0
300
1'-0" = 1'-0"
140
12.0
141
12.0
290
     0
  0
TABLESTYLE
  5
6A
102
{ACAD_REACTORS
330
69
102
}
102
{ACAD_XDICTIONARY
360
361
102
}
330
69
100
AcDbTableStyle
  3
Standard
 70
     0
 71
     0
 40
0.06
 41
0.06
280
     0
281
     0
  7
Standard
140
4.5
170
     2
 62
     0
 63
   257
283
     0
274
    -2
284
     1
 64
     0
275
    -2
285
     1
 65
     0
276
    -2
286
     1
 66
     0
277
    -2
287
     1
 67
     0
278
    -2
288
     1
 68
     0
279
    -2
289
     1
 69
     0
  7
Standard
140
6.0
170
     5
 62
     0
 63
   257
283
     0
274
    -2
284
     1
 64
     0
275
    -2
285
     1
 65
     0
276
    -2
286
     1
 66
     0
277
    -2
287
     1
 67
     0
278
    -2
288
     1
 68
     0
279
    -2
289
     1
 69
     0
  7
Standard
140
4.5
170
     5
 62
     0
 63
   257
283
     0
274
    -2
284
     1
 64
     0
275
    -2
285
     1
 65
     0
276
    -2
286
     1
 66
     0
277
    -2
287
     1
 67
     0
278
    -2
288
     1
 68
     0
279
    -2
289
     1
 69
     0
  0
VISUALSTYLE
  5
2F
102
{ACAD_REACTORS
330
2A
102
}
102
{ACAD_XDICTIONARY
360
333
102
}
330
2A
100
AcDbVisualStyle
  2
2dWireframe
 70
     4
 71
     0
 72
     2
 73
     0
 90
        0
 40
0.6
 41
30.0
 62
     5
 63
     7
421
 16777215
 74
     1
 91
        4
 64
     7
 65
   257
 75
     1
175
     1
 42
1.0
 92
        0
 66
   257
 43
1.0
 76
     1
 77
     6
 78
     2
 67
     7
 79
     5
170
     0
171
     0
290
     0
174
     0
 93
        1
 44
0.0
173
     0
291
     0
 45
0.0
1001
ACAD
1000
AcDbSavedByObjectVersion
1070
     0
  0
VISUALSTYLE
  5
32
102
{ACAD_REACTORS
330
2A
102
}
102
{ACAD_XDICTIONARY
360
339
102
}
330
2A
100
AcDbVisualStyle
  2
Basic
 70
     7
 71
     1
 72
     0
 73
     1
 90
        0
 40
0.6
 41
30.0
 62
     5
 63
     7
421
 16777215
 74
     0
 91
        4
 64
     7
 65
   257
 75
     1
175
     1
 42
1.0
 92
        8
 66
     7
 43
1.0
 76
     1
 77
     6
 78
     2
 67
     7
 79
     5
170
     0
171
     0
290
     0
174
     0
 93
        1
 44
0.0
173
     0
291
     1
 45
0.0
1001
ACAD
1000
AcDbSavedByObjectVersion
1070
     0
  0
VISUALSTYLE
  5
36
102
{ACAD_REACTORS
330
2A
102
}
102
{ACAD_XDICTIONARY
360
341
102
}
330
2A
100
AcDbVisualStyle
  2
Brighten
 70
    12
 71
     2
 72
     2
 73
     0
 90
        0
 40
0.6
 41
30.0
 62
     5
 63
     7
421
 16777215
 74
     1
 91
        4
 64
     7
 65
   257
 75
     1
175
     1
 42
1.0
 92
        8
 66
     7
 43
1.0
 76
     1
 77
     6
 78
     2
 67
     7
 79
     5
170
     0
171
     0
290
     0
174
     0
 93
        1
 44
50.0
173
     0
291
     1
 45
0.0
1001
ACAD
1000
AcDbSavedByObjectVersion
1070
     0
  0
VISUALSTYLE
  5
3A
102
{ACAD_REACTORS
330
2A
102
}
102
{ACAD_XDICTIONARY
360
349
102
}
330
2A
100
AcDbVisualStyle
  2
ColorChange
 70
    16
 71
     2
 72
     2
 73
     3
 90
        0
 40
0.6
 41
30.0
 62
     5
 63
     8
421
  8421504
 74
     1
 91
        4
 64
     7
 65
   257
 75
     1
175
     1
 42
1.0
 92
        8
 66
     8
424
  8421504
 43
1.0
 76
     1
 77
     6
 78
     2
 67
     7
 79
     5
170
     0
171
     0
290
     0
174
     0
 93
        1
 44
0.0
173
     0
291
     1
 45
0.0
1001
ACAD
1000
AcDbSavedByObjectVersion
1070
     0
  0
VISUALSTYLE
  5
34
102
{ACAD_REACTORS
330
2A
102
}
102
{ACAD_XDICTIONARY
360
33D
102
}
330
2A
100
AcDbVisualStyle
  2
Conceptual
 70
     9
 71
     3
 72
     2
 73
     0
 90
        0
 40
0.6
 41
30.0
 62
     5
 63
     7
421
 16777215
 74
     2
 91
        2
 64
     7
 65
   257
 75
     1
175
     1
 42
179.0
 92
        8
 66
     7
 43
1.0
 76
     1
 77
     6
 78
     2
 67
     7
 79
     3
170
     0
171
     0
290
     0
174
     0
 93
        1
 44
0.0
173
     0
291
     0
 45
0.0
1001
ACAD
1000
AcDbSavedByObjectVersion
1070
     0
  0
VISUALSTYLE
  5
35
102
{ACAD_REACTORS
330
2A
102
}
102
{ACAD_XDICTIONARY
360
33F
102
}
330
2A
100
AcDbVisualStyle
  2
Dim
 70
    11
 71
     2
 72
     2
 73
     0
 90
        0
 40
0.6
 41
30.0
 62
     5
 63
     7
421
 16777215
 74
     1
 91
        4
 64
     7
 65
   257
 75
     1
175
     1
 42
1.0
 92
        8
 66
     7
 43
1.0
 76
     1
 77
     6
 78
     2
 67
     7
 79
     5
170
     0
171
     0
290
     0
174
     0
 93
        1
 44
-50.0
173
     0
291
     1
 45
0.0
1001
ACAD
1000
AcDbSavedByObjectVersion
1070
     0
  0
VISUALSTYLE
  5
3D
102
{ACAD_REACTORS
330
2A
102
}
102
{ACAD_XDICTIONARY
360
34F
102
}
330
2A
100
AcDbVisualStyle
  2
EdgeColorOff
 70
    22
 71
     2
 72
     2
 73
     0
 90
        0
 40
0.6
 41
30.0
 62
     5
 63
     7
421
 16777215
 74
     1
 91
        4
 64
     7
 65
   257
 75
     1
175
     1
 42
1.0
 92
        8
 66
     7
 43
1.0
 76
     1
 77
     6
 78
     2
 67
     7
 79
     5
170
     0
171
     0
290
     0
174
     0
 93
        1
 44
0.0
173
     0
291
     1
 45
0.0
1001
ACAD
1000
AcDbSavedByObjectVersion
1070
     0
  0
VISUALSTYLE
  5
39
102
{ACAD_REACTORS
330
2A
102
}
102
{ACAD_XDICTIONARY
360
347
102
}
330
2A
100
AcDbVisualStyle
  2
Facepattern
 70
    15
 71
     2
 72
     2
 73
     0
 90
        0
 40
0.6
 41
30.0
 62
     5
 63
     7
421
 16777215
 74
     1
 91
        4
 64
     7
 65
   257
 75
     1
175
     1
 42
1.0
 92
        8
 66
     7
 43
1.0
 76
     1
 77
     6
 78
     2
 67
     7
 79
     5
170
     0
171
     0
290
     0
174
     0
 93
        1
 44
0.0
173
     0
291
     1
 45
0.0
1001
ACAD
1000
AcDbSavedByObjectVersion
1070
     0
  0
VISUALSTYLE
  5
2B
102
{ACAD_REACTORS
330
2A
102
}
102
{ACAD_XDICTIONARY
360
32B
102
}
330
2A
100
AcDbVisualStyle
  2
Flat
 70
     0
 71
     2
 72
     1
 73
     1
 90
        2
 40
0.6
 41
30.0
 62
     5
 63
     7
421
 16777215
 74
     0
 91
        0
 64
     7
 65
   257
 75
     1
175
     1
 42
1.0
 92
        8
 66
     7
 43
1.0
 76
     1
 77
     6
 78
     2
 67
     7
 79
     5
170
     0
171
     0
290
     0
174
     0
 93
       13
 44
0.0
173
     0
291
     1
 45
0.0
1001
ACAD
1000
AcDbSavedByObjectVersion
1070
     0
  0
VISUALSTYLE
  5
2C
102
{ACAD_REACTORS
330
2A
102
}
102
{ACAD_XDICTIONARY
360
32D
102
}
330
2A
100
AcDbVisualStyle
  2
FlatWithEdges
 70
     1
 71
     2
 72
     1
 73
     1
 90
        2
 40
0.6
 41
30.0
 62
     5
 63
     7
421
 16777215
 74
     1
 91
        0
 64
     7
 65
   257
 75
     1
175
     1
 42
1.0
 92
        0
 66
   257
 43
1.0
 76
     1
 77
     6
 78
     2
 67
     7
 79
     5
170
     0
171
     0
290
     0
174
     0
 93
       13
 44
0.0
173
     0
291
     1
 45
0.0
1001
ACAD
1000
AcDbSavedByObjectVersion
1070
     0
  0
VISUALSTYLE
  5
2D
102
{ACAD_REACTORS
330
2A
102
}
102
{ACAD_XDICTIONARY
360
32F
102
}
330
2A
100
AcDbVisualStyle
  2
Gouraud
 70
     2
 71
     2
 72
     2
 73
     1
 90
        2
 40
0.6
 41
30.0
 62
     5
 63
     7
421
 16777215
 74
     0
 91
        0
 64
     7
 65
   257
 75
     1
175
     1
 42
1.0
 92
        0
 66
     7
 43
1.0
 76
     1
 77
     6
 78
     2
 67
     7
 79
     5
170
     0
171
     0
290
     0
174
     0
 93
       13
 44
0.0
173
     0
291
     1
 45
0.0
1001
ACAD
1000
AcDbSavedByObjectVersion
1070
     0
  0
VISUALSTYLE
  5
2E
102
{ACAD_REACTORS
330
2A
102
}
102
{ACAD_XDICTIONARY
360
331
102
}
330
2A
100
AcDbVisualStyle
  2
GouraudWithEdges
 70
     3
 71
     2
 72
     2
 73
     1
 90
        2
 40
0.6
 41
30.0
 62
     5
 63
     7
421
 16777215
 74
     1
 91
        0
 64
     7
 65
   257
 75
     1
175
     1
 42
1.0
 92
        0
 66
   257
 43
1.0
 76
     1
 77
     6
 78
     2
 67
     7
 79
     5
170
     0
171
     0
290
     0
174
     0
 93
       13
 44
0.0
173
     0
291
     1
 45
0.0
1001
ACAD
1000
AcDbSavedByObjectVersion
1070
     0
  0
VISUALSTYLE
  5
31
102
{ACAD_REACTORS
330
2A
102
}
102
{ACAD_XDICTIONARY
360
337
102
}
330
2A
100
AcDbVisualStyle
  2
Hidden
 70
     6
 71
     1
 72
     2
 73
     2
 90
        0
 40
0.6
 41
30.0
 62
     5
 63
     7
421
 16777215
 74
     2
 91
        2
 64
     7
 65
   257
 75
     2
175
     1
 42
40.0
 92
        0
 66
   257
 43
1.0
 76
     1
 77
     6
 78
     2
 67
     7
 79
     3
170
     0
171
     0
290
     0
174
     0
 93
        1
 44
0.0
173
     0
291
     0
 45
0.0
1001
ACAD
1000
AcDbSavedByObjectVersion
1070
     0
  0
VISUALSTYLE
  5
3B
102
{ACAD_REACTORS
330
2A
102
}
102
{ACAD_XDICTIONARY
360
34B
102
}
330
2A
100
AcDbVisualStyle
  2
JitterOff
 70
    20
 71
     2
 72
     2
 73
     0
 90
        0
 40
0.6
 41
30.0
 62
     5
 63
     7
421
 16777215
 74
     1
 91
        4
 64
     7
 65
   257
 75
     1
175
     1
 42
1.0
 92
       10
 66
     7
 43
1.0
 76
     1
 77
     6
 78
     2
 67
     7
 79
     5
170
     0
171
     0
290
     0
174
     0
 93
        1
 44
0.0
173
     0
291
     1
 45
0.0
1001
ACAD
1000
AcDbSavedByObjectVersion
1070
     0
  0
VISUALSTYLE
  5
38
102
{ACAD_REACTORS
330
2A
102
}
102
{ACAD_XDICTIONARY
360
345
102
}
330
2A
100
AcDbVisualStyle
  2
Linepattern
 70
    14
 71
     2
 72
     2
 73
     0
 90
        0
 40
0.6
 41
30.0
 62
     5
 63
     7
421
 16777215
 74
     1
 91
        4
 64
     7
 65
   257
 75
     7
175
     7
 42
1.0
 92
        8
 66
     7
 43
1.0
 76
     1
 77
     6
 78
     2
 67
     7
 79
     5
170
     0
171
     0
290
     0
174
     0
 93
        1
 44
0.0
173
     0
291
     1
 45
0.0
1001
ACAD
1000
AcDbSavedByObjectVersion
1070
     0
  0
VISUALSTYLE
  5
3C
102
{ACAD_REACTORS
330
2A
102
}
102
{ACAD_XDICTIONARY
360
34D
102
}
330
2A
100
AcDbVisualStyle
  2
OverhangOff
 70
    21
 71
     2
 72
     2
 73
     0
 90
        0
 40
0.6
 41
30.0
 62
     5
 63
     7
421
 16777215
 74
     1
 91
        4
 64
     7
 65
   257
 75
     1
175
     1
 42
1.0
 92
        9
 66
     7
 43
1.0
 76
     1
 77
     6
 78
     2
 67
     7
 79
     5
170
     0
171
     0
290
     0
174
     0
 93
        1
 44
0.0
173
     0
291
     1
 45
0.0
1001
ACAD
1000
AcDbSavedByObjectVersion
1070
     0
  0
VISUALSTYLE
  5
33
102
{ACAD_REACTORS
330
2A
102
}
102
{ACAD_XDICTIONARY
360
33B
102
}
330
2A
100
AcDbVisualStyle
  2
Realistic
 70
     8
 71
     2
 72
     3
 73
     0
 90
        2
 40
0.6
 41
30.0
 62
     5
 63
     7
421
 16777215
 74
     0
 91
        0
 64
     7
 65
   257
 75
     1
175
     1
 42
1.0
 92
        8
 66
   257
 43
1.0
 76
     1
 77
     6
 78
     2
 67
     7
 79
     3
170
     0
171
     0
290
     0
174
     0
 93
       13
 44
0.0
173
     0
291
     0
 45
0.0
1001
ACAD
1000
AcDbSavedByObjectVersion
1070
     0
  0
VISUALSTYLE
  5
42
102
{ACAD_REACTORS
330
2A
102
}
102
{ACAD_XDICTIONARY
360
359
102
}
330
2A
100
AcDbVisualStyle
  2
Shaded
 70
    27
 71
     2
 72
     2
 73
     1
 90
        2
 40
0.6
 41
30.0
 62
     5
 63
     7
421
 16777215
 74
     0
 91
        4
 64
     7
 65
   257
 75
     1
175
     1
 42
1.0
 92
        8
 66
   257
 43
1.0
 76
     1
 77
     6
 78
     2
 67
     8
425
  7895160
 79
     3
170
     0
171
     0
290
     0
174
     0
 93
        5
 44
0.0
173
     0
291
     0
 45
0.0
1001
ACAD
1000
AcDbSavedByObjectVersion
1070
     0
  0
VISUALSTYLE
  5
41
102
{ACAD_REACTORS
330
2A
102
}
102
{ACAD_XDICTIONARY
360
357
102
}
330
2A
100
AcDbVisualStyle
  2
Shaded with edges
 70
    26
 71
     2
 72
     2
 73
     1
 90
        2
 40
0.6
 41
30.0
 62
     5
 63
     7
421
 16777215
 74
     1
 91
       10
 64
     7
 65
   257
 75
     2
175
     1
 42
1.0
 92
        8
 66
   257
 43
1.0
 76
     1
 77
     6
 78
     2
 67
     7
 79
     3
170
     0
171
     0
290
     0
174
     0
 93
        5
 44
0.0
173
     0
291
     0
 45
0.0
1001
ACAD
1000
AcDbSavedByObjectVersion
1070
     0
  0
VISUALSTYLE
  5
3E
102
{ACAD_REACTORS
330
2A
102
}
102
{ACAD_XDICTIONARY
360
351
102
}
330
2A
100
AcDbVisualStyle
  2
Shades of Gray
 70
    23
 71
     2
 72
     2
 73
     3
 90
        0
 40
0.6
 41
30.0
 62
     5
 63
     7
421
 16777215
 74
     2
 91
        2
 64
     7
 65
     7
 75
     1
175
     1
 42
40.0
 92
        8
 66
     7
 43
1.0
 76
     1
 77
     6
 78
     2
 67
     7
 79
     3
170
     0
171
     0
290
     0
174
     0
 93
        1
 44
0.0
173
     0
291
     0
 45
0.0
1001
ACAD
1000
AcDbSavedByObjectVersion
1070
     0
  0
VISUALSTYLE
  5
3F
102
{ACAD_REACTORS
330
2A
102
}
102
{ACAD_XDICTIONARY
360
353
102
}
330
2A
100
AcDbVisualStyle
  2
Sketchy
 70
    24
 71
     1
 72
     2
 73
     2
 90
        0
 40
0.6
 41
30.0
 62
     5
 63
     7
421
 16777215
 74
     2
 91
        2
 64
     7
 65
     7
 75
     1
175
     1
 42
40.0
 92
       11
 66
     7
 43
1.0
 76
     1
 77
     6
 78
     2
 67
     7
 79
     6
170
     0
171
     0
290
     0
174
     0
 93
        1
 44
0.0
173
     0
291
     0
 45
0.0
1001
ACAD
1000
AcDbSavedByObjectVersion
1070
     0
  0
VISUALSTYLE
  5
37
102
{ACAD_REACTORS
330
2A
102
}
102
{ACAD_XDICTIONARY
360
343
102
}
330
2A
100
AcDbVisualStyle
  2
Thicken
 70
    13
 71
     2
 72
     2
 73
     0
 90
        0
 40
0.6
 41
30.0
 62
     5
 63
     7
421
 16777215
 74
     1
 91
        4
 64
     7
 65
   257
 75
     1
175
     1
 42
1.0
 92
       12
 66
     7
 43
1.0
 76
     1
 77
     6
 78
     2
 67
     7
 79
     5
170
     0
171
     0
290
     0
174
     0
 93
        1
 44
0.0
173
     0
291
     1
 45
0.0
1001
ACAD
1000
AcDbSavedByObjectVersion
1070
     0
  0
VISUALSTYLE
  5
30
102
{ACAD_REACTORS
330
2A
102
}
102
{ACAD_XDICTIONARY
360
335
102
}
330
2A
100
AcDbVisualStyle
  2
Wireframe
 70
     5
 71
     0
 72
     2
 73
     0
 90
        0
 40
0.6
 41
30.0
 62
     5
 63
     7
421
 16777215
 74
     1
 91
        4
 64
     7
 65
   257
 75
     1
175
     1
 42
1.0
 92
        0
 66
   257
 43
1.0
 76
     1
 77
     6
 78
     2
 67
     7
 79
     3
170
     0
171
     0
290
     0
174
     0
 93
        1
 44
0.0
173
     0
291
     0
 45
0.0
1001
ACAD
1000
AcDbSavedByObjectVersion
1070
     0
  0
VISUALSTYLE
  5
40
102
{ACAD_REACTORS
330
2A
102
}
102
{ACAD_XDICTIONARY
360
355
102
}
330
2A
100
AcDbVisualStyle
  2
X-Ray
 70
    25
 71
     2
 72
     2
 73
     1
 90
        1
 40
0.5
 41
30.0
 62
     5
 63
     7
421
 16777215
 74
     1
 91
        0
 64
     7
 65
   257
 75
     1
175
     1
 42
1.0
 92
        8
 66
     7
 43
1.0
 76
     1
 77
     6
 78
     2
 67
     7
 79
     3
170
     0
171
     0
290
     0
174
     0
 93
       13
 44
0.0
173
     0
291
     0
 45
0.0
1001
ACAD
1000
AcDbSavedByObjectVersion
1070
     0
  0
DICTIONARYVAR
  5
328
102
{ACAD_REACTORS
330
327
102
}
330
327
100
DictionaryVariables
280
     0
  1
1:1
  0
DICTIONARYVAR
  5
36C
102
{ACAD_REACTORS
330
327
102
}
330
327
100
DictionaryVariables
280
     0
  1
3.500000
  0
DICTIONARYVAR
  5
36D
102
{ACAD_REACTORS
330
327
102
}
330
327
100
DictionaryVariables
280
     0
  1
acadiso.lin
  0
DICTIONARYVAR
  5
369
102
{ACAD_REACTORS
330
327
102
}
330
327
100
DictionaryVariables
280
     0
  1
Standard
  0
DICTIONARYVAR
  5
368
102
{ACAD_REACTORS
330
327
102
}
330
327
100
DictionaryVariables
280
     0
  1
Standard
  0
DICTIONARYVAR
  5
329
102
{ACAD_REACTORS
330
327
102
}
330
327
100
DictionaryVariables
280
     0
  1
1
  0
DICTIONARYVAR
  5
32A
102
{ACAD_REACTORS
330
327
102
}
330
327
100
DictionaryVariables
280
     0
  1
2
  0
DICTIONARY
  5
35D
330
45
100
AcDbDictionary
280
     1
281
     1
  3
ACAD_XREC_ROUNDTRIP
360
35E
  0
DICTIONARY
  5
35B
330
44
100
AcDbDictionary
280
     1
281
     1
  3
ACAD_XREC_ROUNDTRIP
360
35C
  0
DICTIONARY
  5
35F
330
46
100
AcDbDictionary
280
     1
281
     1
  3
ACAD_XREC_ROUNDTRIP
360
360
  0
DICTIONARY
  5
365
330
6C
100
AcDbDictionary
280
     1
281
     1
  3
ACAD_XREC_ROUNDTRIP
360
366
  0
DICTIONARY
  5
361
330
6A
100
AcDbDictionary
280
     1
281
     1
  3
ACAD_ROUNDTRIP_2008_TABLESTYLE_CELLSTYLEMAP
360
363
  3
ACAD_XREC_ROUNDTRIP
360
362
  0
DICTIONARY
  5
333
330
2F
100
AcDbDictionary
280
     1
281
     1
  3
ACAD_XREC_ROUNDTRIP
360
334
  0
DICTIONARY
  5
339
330
32
100
AcDbDictionary
280
     1
281
     1
  3
ACAD_XREC_ROUNDTRIP
360
33A
  0
DICTIONARY
  5
341
330
36
100
AcDbDictionary
280
     1
281
     1
  3
ACAD_XREC_ROUNDTRIP
360
342
  0
DICTIONARY
  5
349
330
3A
100
AcDbDictionary
280
     1
281
     1
  3
ACAD_XREC_ROUNDTRIP
360
34A
  0
DICTIONARY
  5
33D
330
34
100
AcDbDictionary
280
     1
281
     1
  3
ACAD_XREC_ROUNDTRIP
360
33E
  0
DICTIONARY
  5
33F
330
35
100
AcDbDictionary
280
     1
281
     1
  3
ACAD_XREC_ROUNDTRIP
360
340
  0
DICTIONARY
  5
34F
330
3D
100
AcDbDictionary
280
     1
281
     1
  3
ACAD_XREC_ROUNDTRIP
360
350
  0
DICTIONARY
  5
347
330
39
100
AcDbDictionary
280
     1
281
     1
  3
ACAD_XREC_ROUNDTRIP
360
348
  0
DICTIONARY
  5
32B
330
2B
100
AcDbDictionary
280
     1
281
     1
  3
ACAD_XREC_ROUNDTRIP
360
32C
  0
DICTIONARY
  5
32D
330
2C
100
AcDbDictionary
280
     1
281
     1
  3
ACAD_XREC_ROUNDTRIP
360
32E
  0
DICTIONARY
  5
32F
330
2D
100
AcDbDictionary
280
     1
281
     1
  3
ACAD_XREC_ROUNDTRIP
360
330
  0
DICTIONARY
  5
331
330
2E
100
AcDbDictionary
280
     1
281
     1
  3
ACAD_XREC_ROUNDTRIP
360
332
  0
DICTIONARY
  5
337
330
31
100
AcDbDictionary
280
     1
281
     1
  3
ACAD_XREC_ROUNDTRIP
360
338
  0
DICTIONARY
  5
34B
330
3B
100
AcDbDictionary
280
     1
281
     1
  3
ACAD_XREC_ROUNDTRIP
360
34C
  0
DICTIONARY
  5
345
330
38
100
AcDbDictionary
280
     1
281
     1
  3
ACAD_XREC_ROUNDTRIP
360
346
  0
DICTIONARY
  5
34D
330
3C
100
AcDbDictionary
280
     1
281
     1
  3
ACAD_XREC_ROUNDTRIP
360
34E
  0
DICTIONARY
  5
33B
330
33
100
AcDbDictionary
280
     1
281
     1
  3
ACAD_XREC_ROUNDTRIP
360
33C
  0
DICTIONARY
  5
359
330
42
100
AcDbDictionary
280
     1
281
     1
  3
ACAD_XREC_ROUNDTRIP
360
35A
  0
DICTIONARY
  5
357
330
41
100
AcDbDictionary
280
     1
281
     1
  3
ACAD_XREC_ROUNDTRIP
360
358
  0
DICTIONARY
  5
351
330
3E
100
AcDbDictionary
280
     1
281
     1
  3
ACAD_XREC_ROUNDTRIP
360
352
  0
DICTIONARY
  5
353
330
3F
100
AcDbDictionary
280
     1
281
     1
  3
ACAD_XREC_ROUNDTRIP
360
354
  0
DICTIONARY
  5
343
330
37
100
AcDbDictionary
280
     1
281
     1
  3
ACAD_XREC_ROUNDTRIP
360
344
  0
DICTIONARY
  5
335
330
30
100
AcDbDictionary
280
     1
281
     1
  3
ACAD_XREC_ROUNDTRIP
360
336
  0
DICTIONARY
  5
355
330
40
100
AcDbDictionary
280
     1
281
     1
  3
ACAD_XREC_ROUNDTRIP
360
356
  0
XRECORD
  5
35E
102
{ACAD_REACTORS
330
35D
102
}
330
35D
100
AcDbXrecord
280
     1
102
MATERIAL
148
0.0
149
0.0
149
0.0
 93
        0
 94
      127
282
     0
 72
     1
 77
     1
171
     1
175
     1
179
     1
273
     0
  0
XRECORD
  5
35C
102
{ACAD_REACTORS
330
35B
102
}
330
35B
100
AcDbXrecord
280
     1
102
MATERIAL
148
0.0
149
0.0
149
0.0
 93
        0
 94
      127
282
     0
 72
     1
 77
     1
171
     1
175
     1
179
     1
273
     0
  0
XRECORD
  5
360
102
{ACAD_REACTORS
330
35F
102
}
330
35F
100
AcDbXrecord
280
     1
102
MATERIAL
148
0.0
149
0.0
149
0.0
 93
        0
 94
      127
282
     0
 72
     1
 77
     1
171
     1
175
     1
179
     1
273
     0
  0
XRECORD
  5
366
102
{ACAD_REACTORS
330
365
102
}
330
365
100
AcDbXrecord
280
     1
102
ACAD_ROUNDTRIP_2010_MLEADER_STYLE
  0
CELLSTYLEMAP
  5
363
102
{ACAD_REACTORS
330
361
102
}
330
361
100
AcDbCellStyleMap
 90
        3
300
CELLSTYLE
  1
TABLEFORMAT_BEGIN
 90
        5
170
     1
 91
        0
 92
    32768
 62
   257
 93
        1
300
CONTENTFORMAT
  1
CONTENTFORMAT_BEGIN
 90
        0
 91
        0
 92
        4
 93
        0
300

 40
0.0
140
1.0
 94
        5
 62
     0
340
11
144
6.0
309
CONTENTFORMAT_END
171
     1
301
MARGIN
  1
CELLMARGIN_BEGIN
 40
1.5
 40
1.5
 40
1.5
 40
1.5
 40
1.5
 40
1.5
309
CELLMARGIN_END
 94
        6
 95
        1
302
GRIDFORMAT
  1
GRIDFORMAT_BEGIN
 90
        0
 91
        1
 62
     0
 92
       -2
340
14
 93
        0
 40
0.045
309
GRIDFORMAT_END
 95
        2
302
GRIDFORMAT
  1
GRIDFORMAT_BEGIN
 90
        0
 91
        1
 62
     0
 92
       -2
340
14
 93
        0
 40
0.045
309
GRIDFORMAT_END
 95
        4
302
GRIDFORMAT
  1
GRIDFORMAT_BEGIN
 90
        0
 91
        1
 62
     0
 92
       -2
340
14
 93
        0
 40
0.045
309
GRIDFORMAT_END
 95
        8
302
GRIDFORMAT
  1
GRIDFORMAT_BEGIN
 90
        0
 91
        1
 62
     0
 92
       -2
340
14
 93
        0
 40
0.045
309
GRIDFORMAT_END
 95
       16
302
GRIDFORMAT
  1
GRIDFORMAT_BEGIN
 90
        0
 91
        1
 62
     0
 92
       -2
340
14
 93
        0
 40
0.045
309
GRIDFORMAT_END
 95
       32
302
GRIDFORMAT
  1
GRIDFORMAT_BEGIN
 90
        0
 91
        1
 62
     0
 92
       -2
340
14
 93
        0
 40
0.045
309
GRIDFORMAT_END
309
TABLEFORMAT_END
  1
CELLSTYLE_BEGIN
 90
        1
 91
        1
300
_TITLE
309
CELLSTYLE_END
300
CELLSTYLE
  1
TABLEFORMAT_BEGIN
 90
        5
170
     1
 91
        0
 92
        0
 62
   257
 93
        1
300
CONTENTFORMAT
  1
CONTENTFORMAT_BEGIN
 90
        0
 91
        0
 92
        4
 93
        0
300

 40
0.0
140
1.0
 94
        5
 62
     0
340
11
144
4.5
309
CONTENTFORMAT_END
171
     1
301
MARGIN
  1
CELLMARGIN_BEGIN
 40
1.5
 40
1.5
 40
1.5
 40
1.5
 40
1.5
 40
1.5
309
CELLMARGIN_END
 94
        6
 95
        1
302
GRIDFORMAT
  1
GRIDFORMAT_BEGIN
 90
        0
 91
        1
 62
     0
 92
       -2
340
14
 93
        0
 40
0.045
309
GRIDFORMAT_END
 95
        2
302
GRIDFORMAT
  1
GRIDFORMAT_BEGIN
 90
        0
 91
        1
 62
     0
 92
       -2
340
14
 93
        0
 40
0.045
309
GRIDFORMAT_END
 95
        4
302
GRIDFORMAT
  1
GRIDFORMAT_BEGIN
 90
        0
 91
        1
 62
     0
 92
       -2
340
14
 93
        0
 40
0.045
309
GRIDFORMAT_END
 95
        8
302
GRIDFORMAT
  1
GRIDFORMAT_BEGIN
 90
        0
 91
        1
 62
     0
 92
       -2
340
14
 93
        0
 40
0.045
309
GRIDFORMAT_END
 95
       16
302
GRIDFORMAT
  1
GRIDFORMAT_BEGIN
 90
        0
 91
        1
 62
     0
 92
       -2
340
14
 93
        0
 40
0.045
309
GRIDFORMAT_END
 95
       32
302
GRIDFORMAT
  1
GRIDFORMAT_BEGIN
 90
        0
 91
        1
 62
     0
 92
       -2
340
14
 93
        0
 40
0.045
309
GRIDFORMAT_END
309
TABLEFORMAT_END
  1
CELLSTYLE_BEGIN
 90
        2
 91
        1
300
_HEADER
309
CELLSTYLE_END
300
CELLSTYLE
  1
TABLEFORMAT_BEGIN
 90
        5
170
     1
 91
        0
 92
        0
 62
   257
 93
        1
300
CONTENTFORMAT
  1
CONTENTFORMAT_BEGIN
 90
        0
 91
        0
 92
        4
 93
        0
300

 40
0.0
140
1.0
 94
        2
 62
     0
340
11
144
4.5
309
CONTENTFORMAT_END
171
     1
301
MARGIN
  1
CELLMARGIN_BEGIN
 40
1.5
 40
1.5
 40
1.5
 40
1.5
 40
1.5
 40
1.5
309
CELLMARGIN_END
 94
        6
 95
        1
302
GRIDFORMAT
  1
GRIDFORMAT_BEGIN
 90
        0
 91
        1
 62
     0
 92
       -2
340
14
 93
        0
 40
0.045
309
GRIDFORMAT_END
 95
        2
302
GRIDFORMAT
  1
GRIDFORMAT_BEGIN
 90
        0
 91
        1
 62
     0
 92
       -2
340
14
 93
        0
 40
0.045
309
GRIDFORMAT_END
 95
        4
302
GRIDFORMAT
  1
GRIDFORMAT_BEGIN
 90
        0
 91
        1
 62
     0
 92
       -2
340
14
 93
        0
 40
0.045
309
GRIDFORMAT_END
 95
        8
302
GRIDFORMAT
  1
GRIDFORMAT_BEGIN
 90
        0
 91
        1
 62
     0
 92
       -2
340
14
 93
        0
 40
0.045
309
GRIDFORMAT_END
 95
       16
302
GRIDFORMAT
  1
GRIDFORMAT_BEGIN
 90
        0
 91
        1
 62
     0
 92
       -2
340
14
 93
        0
 40
0.045
309
GRIDFORMAT_END
 95
       32
302
GRIDFORMAT
  1
GRIDFORMAT_BEGIN
 90
        0
 91
        1
 62
     0
 92
       -2
340
14
 93
        0
 40
0.045
309
GRIDFORMAT_END
309
TABLEFORMAT_END
  1
CELLSTYLE_BEGIN
 90
        3
 91
        2
300
_DATA
309
CELLSTYLE_END
  0
XRECORD
  5
362
102
{ACAD_REACTORS
330
361
102
}
330
361
100
AcDbXrecord
280
     1
102
ACAD_ROUNDTRIP_PRE2007_TABLESTYLE
 90
        4
 91
        0
  1

 92
        4
 93
        0
  2

 94
        4
 95
        0
  3

  0
XRECORD
  5
334
102
{ACAD_REACTORS
330
333
102
}
330
333
100
AcDbXrecord
280
     1
102
RTVSPropertyOp0
 70
     1
102
RTVSPropertyOp1
 70
     1
102
RTVSPropertyOp2
 70
     1
102
RTVSPropertyOp3
 70
     1
102
RTVSPropertyOp4
 70
     1
102
RTVSPropertyOp5
 70
     1
102
RTVSPropertyOp6
 70
     1
102
RTVSPropertyOp7
 70
     1
102
RTVSPropertyOp8
 70
     1
102
RTVSPropertyOp9
 70
     1
102
RTVSPropertyOp10
 70
     1
102
RTVSPropertyOp11
 70
     1
102
RTVSPropertyOp12
 70
     1
102
RTVSPropertyOp13
 70
     1
102
RTVSPropertyOp14
 70
     1
102
RTVSPropertyOp15
 70
     1
102
RTVSPropertyOp16
 70
     1
102
RTVSPropertyOp17
 70
     1
102
RTVSPropertyOp18
 70
     1
102
RTVSPropertyOp19
 70
     1
102
RTVSPropertyOp20
 70
     1
102
RTVSPropertyOp21
 70
     1
102
RTVSPropertyOp22
 70
     1
102
RTVSPropertyOp23
 70
     1
102
RTVSPropertyOp24
 70
     1
102
RTVSPropertyOp25
 70
     1
102
RTVSPropertyOp26
 70
     1
102
RTVSPropertyOp27
 70
     1
102
RTVSPropertyOp28
 70
     1
102
RTVSPropertyOp29
 70
     1
102
RTVSPropertyOp30
 70
     1
102
RTVSPropertyOp31
 70
     1
102
RTVSPropertyOp32
 70
     1
102
RTVSPropertyOp33
 70
     1
102
RTVSPropertyOp34
 70
     1
102
RTVSPropertyOp35
 70
     1
102
RTVSPropertyOp36
 70
     1
102
RTVSPropertyOp37
 70
     1
102
RTVSPropertyOp38
 70
     1
102
RTVSPropertyOp39
 70
     1
102
RTVSPropertyOp40
 70
     1
102
RTVSPropertyOp41
 70
     1
102
RTVSPropertyOp42
 70
     1
102
RTVSPropertyOp43
 70
     1
102
RTVSPropertyOp44
 70
     1
102
RTVSPropertyOp45
 70
     1
102
RTVSPropertyOp46
 70
     1
102
RTVSPropertyOp47
 70
     1
102
RTVSPropertyOp48
 70
     1
102
RTVSPropertyOp49
 70
     1
102
RTVSPropertyOp50
 70
     1
102
RTVSPropertyOp51
 70
     0
102
RTVSPropertyOp52
 70
     0
102
RTVSPropertyOp53
 70
     1
102
RTVSPropertyOp54
 70
     1
102
RTVSPropertyOp55
 70
     1
102
RTVSPropertyOp56
 70
     1
102
RTVSPropertyOp57
 70
     1
102
RTVSPost2010Prop28
280
     1
102
RTVSPost2010PropOp28
 70
     1
102
RTVSPost2010Prop29
280
     1
102
RTVSPost2010PropOp29
 70
     1
102
RTVSPost2010Prop30
280
     0
102
RTVSPost2010PropOp30
 70
     1
102
RTVSPost2010Prop31
280
     0
102
RTVSPost2010PropOp31
 70
     1
102
RTVSPost2010Prop32
280
     0
102
RTVSPost2010PropOp32
 70
     1
102
RTVSPost2010Prop33
280
     0
102
RTVSPost2010PropOp33
 70
     1
102
RTVSPost2010Prop34
280
     0
102
RTVSPost2010PropOp34
 70
     1
102
RTVSPost2010Prop35
280
     0
102
RTVSPost2010PropOp35
 70
     1
102
RTVSPost2010Prop36
280
     0
102
RTVSPost2010PropOp36
 70
     1
102
RTVSPost2010Prop37
 90
       50
102
RTVSPost2010PropOp37
 70
     1
102
RTVSPost2010Prop38
140
0.0
102
RTVSPost2010PropOp38
 70
     1
102
RTVSPost2010Prop39
140
1.0
102
RTVSPost2010PropOp39
 70
     1
102
RTVSPost2010Prop40
 90
        0
102
RTVSPost2010PropOp40
 70
     1
102
RTVSPost2010Prop41ColorIndex
 90
       18
102
RTVSPost2010Prop41ColorRGB
 90
        0
102
RTVSPost2010PropOp41
 70
     1
102
RTVSPost2010Prop42
 90
       50
102
RTVSPost2010PropOp42
 70
     1
102
RTVSPost2010Prop43
 90
        3
102
RTVSPost2010PropOp43
 70
     1
102
RTVSPost2010Prop44ColorIndex
 90
        5
102
RTVSPost2010Prop44ColorRGB
 90
      255
102
RTVSPost2010PropOp44
 70
     1
102
RTVSPost2010Prop45
280
     0
102
RTVSPost2010PropOp45
 70
     1
102
RTVSPost2010Prop46
 90
       50
102
RTVSPost2010PropOp46
 70
     1
102
RTVSPost2010Prop47
 90
       50
102
RTVSPost2010PropOp47
 70
     1
102
RTVSPost2010Prop48
 90
       50
102
RTVSPost2010PropOp48
 70
     1
102
RTVSPost2010Prop49
280
     0
102
RTVSPost2010PropOp49
 70
     1
102
RTVSPost2010Prop50
 90
       50
102
RTVSPost2010PropOp50
 70
     1
102
RTVSPost2010Prop51ColorIndex
 90
      256
102
RTVSPost2010Prop51ColorRGB
 90
-16777216
102
RTVSPost2010PropOp51
 70
     0
102
RTVSPost2010Prop52
140
1.0
102
RTVSPost2010PropOp52
 70
     0
102
RTVSPost2010Prop53
 90
        2
102
RTVSPost2010PropOp53
 70
     1
102
RTVSPost2010Prop54
  1
strokes_ogs.tif
102
RTVSPost2010PropOp54
 70
     1
102
RTVSPost2010Prop55
280
     0
102
RTVSPost2010PropOp55
 70
     1
102
RTVSPost2010Prop56
140
1.0
102
RTVSPost2010PropOp56
 70
     1
102
RTVSPost2010Prop57
140
1.0
102
RTVSPost2010PropOp57
 70
     1
  0
XRECORD
  5
33A
102
{ACAD_REACTORS
330
339
102
}
330
339
100
AcDbXrecord
280
     1
102
RTVSPropertyOp0
 70
     1
102
RTVSPropertyOp1
 70
     1
102
RTVSPropertyOp2
 70
     1
102
RTVSPropertyOp3
 70
     1
102
RTVSPropertyOp4
 70
     1
102
RTVSPropertyOp5
 70
     1
102
RTVSPropertyOp6
 70
     1
102
RTVSPropertyOp7
 70
     1
102
RTVSPropertyOp8
 70
     1
102
RTVSPropertyOp9
 70
     1
102
RTVSPropertyOp10
 70
     1
102
RTVSPropertyOp11
 70
     1
102
RTVSPropertyOp12
 70
     1
102
RTVSPropertyOp13
 70
     1
102
RTVSPropertyOp14
 70
     1
102
RTVSPropertyOp15
 70
     1
102
RTVSPropertyOp16
 70
     1
102
RTVSPropertyOp17
 70
     1
102
RTVSPropertyOp18
 70
     1
102
RTVSPropertyOp19
 70
     1
102
RTVSPropertyOp20
 70
     1
102
RTVSPropertyOp21
 70
     1
102
RTVSPropertyOp22
 70
     1
102
RTVSPropertyOp23
 70
     1
102
RTVSPropertyOp24
 70
     1
102
RTVSPropertyOp25
 70
     1
102
RTVSPropertyOp26
 70
     1
102
RTVSPropertyOp27
 70
     1
102
RTVSPropertyOp28
 70
     1
102
RTVSPropertyOp29
 70
     1
102
RTVSPropertyOp30
 70
     1
102
RTVSPropertyOp31
 70
     1
102
RTVSPropertyOp32
 70
     1
102
RTVSPropertyOp33
 70
     1
102
RTVSPropertyOp34
 70
     1
102
RTVSPropertyOp35
 70
     1
102
RTVSPropertyOp36
 70
     1
102
RTVSPropertyOp37
 70
     1
102
RTVSPropertyOp38
 70
     1
102
RTVSPropertyOp39
 70
     1
102
RTVSPropertyOp40
 70
     1
102
RTVSPropertyOp41
 70
     1
102
RTVSPropertyOp42
 70
     1
102
RTVSPropertyOp43
 70
     1
102
RTVSPropertyOp44
 70
     1
102
RTVSPropertyOp45
 70
     1
102
RTVSPropertyOp46
 70
     1
102
RTVSPropertyOp47
 70
     1
102
RTVSPropertyOp48
 70
     1
102
RTVSPropertyOp49
 70
     1
102
RTVSPropertyOp50
 70
     1
102
RTVSPropertyOp51
 70
     0
102
RTVSPropertyOp52
 70
     0
102
RTVSPropertyOp53
 70
     1
102
RTVSPropertyOp54
 70
     1
102
RTVSPropertyOp55
 70
     1
102
RTVSPropertyOp56
 70
     1
102
RTVSPropertyOp57
 70
     1
102
RTVSPost2010Prop28
280
     0
102
RTVSPost2010PropOp28
 70
     1
102
RTVSPost2010Prop29
280
     1
102
RTVSPost2010PropOp29
 70
     1
102
RTVSPost2010Prop30
280
     1
102
RTVSPost2010PropOp30
 70
     1
102
RTVSPost2010Prop31
280
     0
102
RTVSPost2010PropOp31
 70
     1
102
RTVSPost2010Prop32
280
     0
102
RTVSPost2010PropOp32
 70
     1
102
RTVSPost2010Prop33
280
     0
102
RTVSPost2010PropOp33
 70
     1
102
RTVSPost2010Prop34
280
     0
102
RTVSPost2010PropOp34
 70
     1
102
RTVSPost2010Prop35
280
     0
102
RTVSPost2010PropOp35
 70
     1
102
RTVSPost2010Prop36
280
     0
102
RTVSPost2010PropOp36
 70
     1
102
RTVSPost2010Prop37
 90
       50
102
RTVSPost2010PropOp37
 70
     1
102
RTVSPost2010Prop38
140
0.0
102
RTVSPost2010PropOp38
 70
     1
102
RTVSPost2010Prop39
140
1.0
102
RTVSPost2010PropOp39
 70
     1
102
RTVSPost2010Prop40
 90
        0
102
RTVSPost2010PropOp40
 70
     1
102
RTVSPost2010Prop41ColorIndex
 90
       18
102
RTVSPost2010Prop41ColorRGB
 90
        0
102
RTVSPost2010PropOp41
 70
     1
102
RTVSPost2010Prop42
 90
       50
102
RTVSPost2010PropOp42
 70
     1
102
RTVSPost2010Prop43
 90
        3
102
RTVSPost2010PropOp43
 70
     1
102
RTVSPost2010Prop44ColorIndex
 90
        5
102
RTVSPost2010Prop44ColorRGB
 90
      255
102
RTVSPost2010PropOp44
 70
     1
102
RTVSPost2010Prop45
280
     0
102
RTVSPost2010PropOp45
 70
     1
102
RTVSPost2010Prop46
 90
       50
102
RTVSPost2010PropOp46
 70
     1
102
RTVSPost2010Prop47
 90
       50
102
RTVSPost2010PropOp47
 70
     1
102
RTVSPost2010Prop48
 90
       50
102
RTVSPost2010PropOp48
 70
     1
102
RTVSPost2010Prop49
280
     0
102
RTVSPost2010PropOp49
 70
     1
102
RTVSPost2010Prop50
 90
       50
102
RTVSPost2010PropOp50
 70
     1
102
RTVSPost2010Prop51ColorIndex
 90
      256
102
RTVSPost2010Prop51ColorRGB
 90
-16777216
102
RTVSPost2010PropOp51
 70
     0
102
RTVSPost2010Prop52
140
1.0
102
RTVSPost2010PropOp52
 70
     0
102
RTVSPost2010Prop53
 90
        2
102
RTVSPost2010PropOp53
 70
     1
102
RTVSPost2010Prop54
  1
strokes_ogs.tif
102
RTVSPost2010PropOp54
 70
     1
102
RTVSPost2010Prop55
280
     0
102
RTVSPost2010PropOp55
 70
     1
102
RTVSPost2010Prop56
140
1.0
102
RTVSPost2010PropOp56
 70
     1
102
RTVSPost2010Prop57
140
1.0
102
RTVSPost2010PropOp57
 70
     1
  0
XRECORD
  5
342
102
{ACAD_REACTORS
330
341
102
}
330
341
100
AcDbXrecord
280
     1
102
RTVSPropertyOp0
 70
     1
102
RTVSPropertyOp1
 70
     1
102
RTVSPropertyOp2
 70
     1
102
RTVSPropertyOp3
 70
     1
102
RTVSPropertyOp4
 70
     1
102
RTVSPropertyOp5
 70
     1
102
RTVSPropertyOp6
 70
     1
102
RTVSPropertyOp7
 70
     1
102
RTVSPropertyOp8
 70
     1
102
RTVSPropertyOp9
 70
     1
102
RTVSPropertyOp10
 70
     1
102
RTVSPropertyOp11
 70
     1
102
RTVSPropertyOp12
 70
     1
102
RTVSPropertyOp13
 70
     1
102
RTVSPropertyOp14
 70
     1
102
RTVSPropertyOp15
 70
     1
102
RTVSPropertyOp16
 70
     1
102
RTVSPropertyOp17
 70
     1
102
RTVSPropertyOp18
 70
     1
102
RTVSPropertyOp19
 70
     1
102
RTVSPropertyOp20
 70
     1
102
RTVSPropertyOp21
 70
     1
102
RTVSPropertyOp22
 70
     1
102
RTVSPropertyOp23
 70
     1
102
RTVSPropertyOp24
 70
     1
102
RTVSPropertyOp25
 70
     1
102
RTVSPropertyOp26
 70
     1
102
RTVSPropertyOp27
 70
     1
102
RTVSPropertyOp28
 70
     1
102
RTVSPropertyOp29
 70
     1
102
RTVSPropertyOp30
 70
     1
102
RTVSPropertyOp31
 70
     1
102
RTVSPropertyOp32
 70
     1
102
RTVSPropertyOp33
 70
     1
102
RTVSPropertyOp34
 70
     1
102
RTVSPropertyOp35
 70
     1
102
RTVSPropertyOp36
 70
     1
102
RTVSPropertyOp37
 70
     1
102
RTVSPropertyOp38
 70
     1
102
RTVSPropertyOp39
 70
     1
102
RTVSPropertyOp40
 70
     1
102
RTVSPropertyOp41
 70
     1
102
RTVSPropertyOp42
 70
     1
102
RTVSPropertyOp43
 70
     1
102
RTVSPropertyOp44
 70
     1
102
RTVSPropertyOp45
 70
     1
102
RTVSPropertyOp46
 70
     1
102
RTVSPropertyOp47
 70
     1
102
RTVSPropertyOp48
 70
     1
102
RTVSPropertyOp49
 70
     1
102
RTVSPropertyOp50
 70
     1
102
RTVSPropertyOp51
 70
     0
102
RTVSPropertyOp52
 70
     0
102
RTVSPropertyOp53
 70
     1
102
RTVSPropertyOp54
 70
     1
102
RTVSPropertyOp55
 70
     1
102
RTVSPropertyOp56
 70
     1
102
RTVSPropertyOp57
 70
     1
102
RTVSPost2010Prop28
280
     0
102
RTVSPost2010PropOp28
 70
     1
102
RTVSPost2010Prop29
280
     1
102
RTVSPost2010PropOp29
 70
     1
102
RTVSPost2010Prop30
280
     1
102
RTVSPost2010PropOp30
 70
     1
102
RTVSPost2010Prop31
280
     0
102
RTVSPost2010PropOp31
 70
     1
102
RTVSPost2010Prop32
280
     0
102
RTVSPost2010PropOp32
 70
     1
102
RTVSPost2010Prop33
280
     0
102
RTVSPost2010PropOp33
 70
     1
102
RTVSPost2010Prop34
280
     0
102
RTVSPost2010PropOp34
 70
     1
102
RTVSPost2010Prop35
280
     0
102
RTVSPost2010PropOp35
 70
     1
102
RTVSPost2010Prop36
280
     0
102
RTVSPost2010PropOp36
 70
     1
102
RTVSPost2010Prop37
 90
       50
102
RTVSPost2010PropOp37
 70
     1
102
RTVSPost2010Prop38
140
0.0
102
RTVSPost2010PropOp38
 70
     1
102
RTVSPost2010Prop39
140
1.0
102
RTVSPost2010PropOp39
 70
     1
102
RTVSPost2010Prop40
 90
        0
102
RTVSPost2010PropOp40
 70
     1
102
RTVSPost2010Prop41ColorIndex
 90
       18
102
RTVSPost2010Prop41ColorRGB
 90
        0
102
RTVSPost2010PropOp41
 70
     1
102
RTVSPost2010Prop42
 90
       50
102
RTVSPost2010PropOp42
 70
     1
102
RTVSPost2010Prop43
 90
        3
102
RTVSPost2010PropOp43
 70
     1
102
RTVSPost2010Prop44ColorIndex
 90
        5
102
RTVSPost2010Prop44ColorRGB
 90
      255
102
RTVSPost2010PropOp44
 70
     1
102
RTVSPost2010Prop45
280
     0
102
RTVSPost2010PropOp45
 70
     1
102
RTVSPost2010Prop46
 90
       50
102
RTVSPost2010PropOp46
 70
     1
102
RTVSPost2010Prop47
 90
       50
102
RTVSPost2010PropOp47
 70
     1
102
RTVSPost2010Prop48
 90
       50
102
RTVSPost2010PropOp48
 70
     1
102
RTVSPost2010Prop49
280
     0
102
RTVSPost2010PropOp49
 70
     1
102
RTVSPost2010Prop50
 90
       50
102
RTVSPost2010PropOp50
 70
     1
102
RTVSPost2010Prop51ColorIndex
 90
      256
102
RTVSPost2010Prop51ColorRGB
 90
-16777216
102
RTVSPost2010PropOp51
 70
     0
102
RTVSPost2010Prop52
140
1.0
102
RTVSPost2010PropOp52
 70
     0
102
RTVSPost2010Prop53
 90
        2
102
RTVSPost2010PropOp53
 70
     1
102
RTVSPost2010Prop54
  1
strokes_ogs.tif
102
RTVSPost2010PropOp54
 70
     1
102
RTVSPost2010Prop55
280
     0
102
RTVSPost2010PropOp55
 70
     1
102
RTVSPost2010Prop56
140
1.0
102
RTVSPost2010PropOp56
 70
     1
102
RTVSPost2010Prop57
140
1.0
102
RTVSPost2010PropOp57
 70
     1
  0
XRECORD
  5
34A
102
{ACAD_REACTORS
330
349
102
}
330
349
100
AcDbXrecord
280
     1
102
RTVSPropertyOp0
 70
     1
102
RTVSPropertyOp1
 70
     1
102
RTVSPropertyOp2
 70
     1
102
RTVSPropertyOp3
 70
     1
102
RTVSPropertyOp4
 70
     1
102
RTVSPropertyOp5
 70
     1
102
RTVSPropertyOp6
 70
     1
102
RTVSPropertyOp7
 70
     1
102
RTVSPropertyOp8
 70
     1
102
RTVSPropertyOp9
 70
     1
102
RTVSPropertyOp10
 70
     1
102
RTVSPropertyOp11
 70
     1
102
RTVSPropertyOp12
 70
     1
102
RTVSPropertyOp13
 70
     1
102
RTVSPropertyOp14
 70
     1
102
RTVSPropertyOp15
 70
     1
102
RTVSPropertyOp16
 70
     1
102
RTVSPropertyOp17
 70
     1
102
RTVSPropertyOp18
 70
     1
102
RTVSPropertyOp19
 70
     1
102
RTVSPropertyOp20
 70
     1
102
RTVSPropertyOp21
 70
     1
102
RTVSPropertyOp22
 70
     1
102
RTVSPropertyOp23
 70
     1
102
RTVSPropertyOp24
 70
     1
102
RTVSPropertyOp25
 70
     1
102
RTVSPropertyOp26
 70
     1
102
RTVSPropertyOp27
 70
     1
102
RTVSPropertyOp28
 70
     1
102
RTVSPropertyOp29
 70
     1
102
RTVSPropertyOp30
 70
     1
102
RTVSPropertyOp31
 70
     1
102
RTVSPropertyOp32
 70
     1
102
RTVSPropertyOp33
 70
     1
102
RTVSPropertyOp34
 70
     1
102
RTVSPropertyOp35
 70
     1
102
RTVSPropertyOp36
 70
     1
102
RTVSPropertyOp37
 70
     1
102
RTVSPropertyOp38
 70
     1
102
RTVSPropertyOp39
 70
     1
102
RTVSPropertyOp40
 70
     1
102
RTVSPropertyOp41
 70
     1
102
RTVSPropertyOp42
 70
     1
102
RTVSPropertyOp43
 70
     1
102
RTVSPropertyOp44
 70
     1
102
RTVSPropertyOp45
 70
     1
102
RTVSPropertyOp46
 70
     1
102
RTVSPropertyOp47
 70
     1
102
RTVSPropertyOp48
 70
     1
102
RTVSPropertyOp49
 70
     1
102
RTVSPropertyOp50
 70
     1
102
RTVSPropertyOp51
 70
     0
102
RTVSPropertyOp52
 70
     0
102
RTVSPropertyOp53
 70
     1
102
RTVSPropertyOp54
 70
     1
102
RTVSPropertyOp55
 70
     1
102
RTVSPropertyOp56
 70
     1
102
RTVSPropertyOp57
 70
     1
102
RTVSPost2010Prop28
280
     0
102
RTVSPost2010PropOp28
 70
     1
102
RTVSPost2010Prop29
280
     1
102
RTVSPost2010PropOp29
 70
     1
102
RTVSPost2010Prop30
280
     1
102
RTVSPost2010PropOp30
 70
     1
102
RTVSPost2010Prop31
280
     0
102
RTVSPost2010PropOp31
 70
     1
102
RTVSPost2010Prop32
280
     0
102
RTVSPost2010PropOp32
 70
     1
102
RTVSPost2010Prop33
280
     0
102
RTVSPost2010PropOp33
 70
     1
102
RTVSPost2010Prop34
280
     0
102
RTVSPost2010PropOp34
 70
     1
102
RTVSPost2010Prop35
280
     0
102
RTVSPost2010PropOp35
 70
     1
102
RTVSPost2010Prop36
280
     0
102
RTVSPost2010PropOp36
 70
     1
102
RTVSPost2010Prop37
 90
       50
102
RTVSPost2010PropOp37
 70
     1
102
RTVSPost2010Prop38
140
0.0
102
RTVSPost2010PropOp38
 70
     1
102
RTVSPost2010Prop39
140
1.0
102
RTVSPost2010PropOp39
 70
     1
102
RTVSPost2010Prop40
 90
        0
102
RTVSPost2010PropOp40
 70
     1
102
RTVSPost2010Prop41ColorIndex
 90
       18
102
RTVSPost2010Prop41ColorRGB
 90
        0
102
RTVSPost2010PropOp41
 70
     1
102
RTVSPost2010Prop42
 90
       50
102
RTVSPost2010PropOp42
 70
     1
102
RTVSPost2010Prop43
 90
        3
102
RTVSPost2010PropOp43
 70
     1
102
RTVSPost2010Prop44ColorIndex
 90
        5
102
RTVSPost2010Prop44ColorRGB
 90
      255
102
RTVSPost2010PropOp44
 70
     1
102
RTVSPost2010Prop45
280
     0
102
RTVSPost2010PropOp45
 70
     1
102
RTVSPost2010Prop46
 90
       50
102
RTVSPost2010PropOp46
 70
     1
102
RTVSPost2010Prop47
 90
       50
102
RTVSPost2010PropOp47
 70
     1
102
RTVSPost2010Prop48
 90
       50
102
RTVSPost2010PropOp48
 70
     1
102
RTVSPost2010Prop49
280
     0
102
RTVSPost2010PropOp49
 70
     1
102
RTVSPost2010Prop50
 90
       50
102
RTVSPost2010PropOp50
 70
     1
102
RTVSPost2010Prop51ColorIndex
 90
      256
102
RTVSPost2010Prop51ColorRGB
 90
-16777216
102
RTVSPost2010PropOp51
 70
     0
102
RTVSPost2010Prop52
140
1.0
102
RTVSPost2010PropOp52
 70
     0
102
RTVSPost2010Prop53
 90
        2
102
RTVSPost2010PropOp53
 70
     1
102
RTVSPost2010Prop54
  1
strokes_ogs.tif
102
RTVSPost2010PropOp54
 70
     1
102
RTVSPost2010Prop55
280
     0
102
RTVSPost2010PropOp55
 70
     1
102
RTVSPost2010Prop56
140
1.0
102
RTVSPost2010PropOp56
 70
     1
102
RTVSPost2010Prop57
140
1.0
102
RTVSPost2010PropOp57
 70
     1
  0
XRECORD
  5
33E
102
{ACAD_REACTORS
330
33D
102
}
330
33D
100
AcDbXrecord
280
     1
102
RTVSPropertyOp0
 70
     1
102
RTVSPropertyOp1
 70
     1
102
RTVSPropertyOp2
 70
     1
102
RTVSPropertyOp3
 70
     1
102
RTVSPropertyOp4
 70
     1
102
RTVSPropertyOp5
 70
     1
102
RTVSPropertyOp6
 70
     1
102
RTVSPropertyOp7
 70
     1
102
RTVSPropertyOp8
 70
     1
102
RTVSPropertyOp9
 70
     1
102
RTVSPropertyOp10
 70
     1
102
RTVSPropertyOp11
 70
     1
102
RTVSPropertyOp12
 70
     1
102
RTVSPropertyOp13
 70
     1
102
RTVSPropertyOp14
 70
     1
102
RTVSPropertyOp15
 70
     1
102
RTVSPropertyOp16
 70
     1
102
RTVSPropertyOp17
 70
     1
102
RTVSPropertyOp18
 70
     1
102
RTVSPropertyOp19
 70
     1
102
RTVSPropertyOp20
 70
     1
102
RTVSPropertyOp21
 70
     1
102
RTVSPropertyOp22
 70
     1
102
RTVSPropertyOp23
 70
     1
102
RTVSPropertyOp24
 70
     1
102
RTVSPropertyOp25
 70
     1
102
RTVSPropertyOp26
 70
     1
102
RTVSPropertyOp27
 70
     1
102
RTVSPropertyOp28
 70
     1
102
RTVSPropertyOp29
 70
     1
102
RTVSPropertyOp30
 70
     1
102
RTVSPropertyOp31
 70
     1
102
RTVSPropertyOp32
 70
     1
102
RTVSPropertyOp33
 70
     1
102
RTVSPropertyOp34
 70
     1
102
RTVSPropertyOp35
 70
     1
102
RTVSPropertyOp36
 70
     1
102
RTVSPropertyOp37
 70
     1
102
RTVSPropertyOp38
 70
     1
102
RTVSPropertyOp39
 70
     1
102
RTVSPropertyOp40
 70
     1
102
RTVSPropertyOp41
 70
     1
102
RTVSPropertyOp42
 70
     1
102
RTVSPropertyOp43
 70
     1
102
RTVSPropertyOp44
 70
     1
102
RTVSPropertyOp45
 70
     1
102
RTVSPropertyOp46
 70
     1
102
RTVSPropertyOp47
 70
     1
102
RTVSPropertyOp48
 70
     1
102
RTVSPropertyOp49
 70
     1
102
RTVSPropertyOp50
 70
     1
102
RTVSPropertyOp51
 70
     0
102
RTVSPropertyOp52
 70
     0
102
RTVSPropertyOp53
 70
     1
102
RTVSPropertyOp54
 70
     1
102
RTVSPropertyOp55
 70
     1
102
RTVSPropertyOp56
 70
     1
102
RTVSPropertyOp57
 70
     1
102
RTVSPost2010Prop28
280
     0
102
RTVSPost2010PropOp28
 70
     1
102
RTVSPost2010Prop29
280
     1
102
RTVSPost2010PropOp29
 70
     1
102
RTVSPost2010Prop30
280
     1
102
RTVSPost2010PropOp30
 70
     1
102
RTVSPost2010Prop31
280
     0
102
RTVSPost2010PropOp31
 70
     1
102
RTVSPost2010Prop32
280
     0
102
RTVSPost2010PropOp32
 70
     1
102
RTVSPost2010Prop33
280
     0
102
RTVSPost2010PropOp33
 70
     1
102
RTVSPost2010Prop34
280
     0
102
RTVSPost2010PropOp34
 70
     1
102
RTVSPost2010Prop35
280
     0
102
RTVSPost2010PropOp35
 70
     1
102
RTVSPost2010Prop36
280
     0
102
RTVSPost2010PropOp36
 70
     1
102
RTVSPost2010Prop37
 90
       50
102
RTVSPost2010PropOp37
 70
     1
102
RTVSPost2010Prop38
140
0.0
102
RTVSPost2010PropOp38
 70
     1
102
RTVSPost2010Prop39
140
1.0
102
RTVSPost2010PropOp39
 70
     1
102
RTVSPost2010Prop40
 90
        0
102
RTVSPost2010PropOp40
 70
     1
102
RTVSPost2010Prop41ColorIndex
 90
       18
102
RTVSPost2010Prop41ColorRGB
 90
        0
102
RTVSPost2010PropOp41
 70
     1
102
RTVSPost2010Prop42
 90
       50
102
RTVSPost2010PropOp42
 70
     1
102
RTVSPost2010Prop43
 90
        3
102
RTVSPost2010PropOp43
 70
     1
102
RTVSPost2010Prop44ColorIndex
 90
        5
102
RTVSPost2010Prop44ColorRGB
 90
      255
102
RTVSPost2010PropOp44
 70
     1
102
RTVSPost2010Prop45
280
     0
102
RTVSPost2010PropOp45
 70
     1
102
RTVSPost2010Prop46
 90
       50
102
RTVSPost2010PropOp46
 70
     1
102
RTVSPost2010Prop47
 90
       50
102
RTVSPost2010PropOp47
 70
     1
102
RTVSPost2010Prop48
 90
       50
102
RTVSPost2010PropOp48
 70
     1
102
RTVSPost2010Prop49
280
     0
102
RTVSPost2010PropOp49
 70
     1
102
RTVSPost2010Prop50
 90
       50
102
RTVSPost2010PropOp50
 70
     1
102
RTVSPost2010Prop51ColorIndex
 90
      256
102
RTVSPost2010Prop51ColorRGB
 90
-16777216
102
RTVSPost2010PropOp51
 70
     0
102
RTVSPost2010Prop52
140
1.0
102
RTVSPost2010PropOp52
 70
     0
102
RTVSPost2010Prop53
 90
        2
102
RTVSPost2010PropOp53
 70
     1
102
RTVSPost2010Prop54
  1
strokes_ogs.tif
102
RTVSPost2010PropOp54
 70
     1
102
RTVSPost2010Prop55
280
     0
102
RTVSPost2010PropOp55
 70
     1
102
RTVSPost2010Prop56
140
1.0
102
RTVSPost2010PropOp56
 70
     1
102
RTVSPost2010Prop57
140
1.0
102
RTVSPost2010PropOp57
 70
     1
  0
XRECORD
  5
340
102
{ACAD_REACTORS
330
33F
102
}
330
33F
100
AcDbXrecord
280
     1
102
RTVSPropertyOp0
 70
     1
102
RTVSPropertyOp1
 70
     1
102
RTVSPropertyOp2
 70
     1
102
RTVSPropertyOp3
 70
     1
102
RTVSPropertyOp4
 70
     1
102
RTVSPropertyOp5
 70
     1
102
RTVSPropertyOp6
 70
     1
102
RTVSPropertyOp7
 70
     1
102
RTVSPropertyOp8
 70
     1
102
RTVSPropertyOp9
 70
     1
102
RTVSPropertyOp10
 70
     1
102
RTVSPropertyOp11
 70
     1
102
RTVSPropertyOp12
 70
     1
102
RTVSPropertyOp13
 70
     1
102
RTVSPropertyOp14
 70
     1
102
RTVSPropertyOp15
 70
     1
102
RTVSPropertyOp16
 70
     1
102
RTVSPropertyOp17
 70
     1
102
RTVSPropertyOp18
 70
     1
102
RTVSPropertyOp19
 70
     1
102
RTVSPropertyOp20
 70
     1
102
RTVSPropertyOp21
 70
     1
102
RTVSPropertyOp22
 70
     1
102
RTVSPropertyOp23
 70
     1
102
RTVSPropertyOp24
 70
     1
102
RTVSPropertyOp25
 70
     1
102
RTVSPropertyOp26
 70
     1
102
RTVSPropertyOp27
 70
     1
102
RTVSPropertyOp28
 70
     1
102
RTVSPropertyOp29
 70
     1
102
RTVSPropertyOp30
 70
     1
102
RTVSPropertyOp31
 70
     1
102
RTVSPropertyOp32
 70
     1
102
RTVSPropertyOp33
 70
     1
102
RTVSPropertyOp34
 70
     1
102
RTVSPropertyOp35
 70
     1
102
RTVSPropertyOp36
 70
     1
102
RTVSPropertyOp37
 70
     1
102
RTVSPropertyOp38
 70
     1
102
RTVSPropertyOp39
 70
     1
102
RTVSPropertyOp40
 70
     1
102
RTVSPropertyOp41
 70
     1
102
RTVSPropertyOp42
 70
     1
102
RTVSPropertyOp43
 70
     1
102
RTVSPropertyOp44
 70
     1
102
RTVSPropertyOp45
 70
     1
102
RTVSPropertyOp46
 70
     1
102
RTVSPropertyOp47
 70
     1
102
RTVSPropertyOp48
 70
     1
102
RTVSPropertyOp49
 70
     1
102
RTVSPropertyOp50
 70
     1
102
RTVSPropertyOp51
 70
     0
102
RTVSPropertyOp52
 70
     0
102
RTVSPropertyOp53
 70
     1
102
RTVSPropertyOp54
 70
     1
102
RTVSPropertyOp55
 70
     1
102
RTVSPropertyOp56
 70
     1
102
RTVSPropertyOp57
 70
     1
102
RTVSPost2010Prop28
280
     0
102
RTVSPost2010PropOp28
 70
     1
102
RTVSPost2010Prop29
280
     1
102
RTVSPost2010PropOp29
 70
     1
102
RTVSPost2010Prop30
280
     1
102
RTVSPost2010PropOp30
 70
     1
102
RTVSPost2010Prop31
280
     0
102
RTVSPost2010PropOp31
 70
     1
102
RTVSPost2010Prop32
280
     0
102
RTVSPost2010PropOp32
 70
     1
102
RTVSPost2010Prop33
280
     0
102
RTVSPost2010PropOp33
 70
     1
102
RTVSPost2010Prop34
280
     0
102
RTVSPost2010PropOp34
 70
     1
102
RTVSPost2010Prop35
280
     0
102
RTVSPost2010PropOp35
 70
     1
102
RTVSPost2010Prop36
280
     0
102
RTVSPost2010PropOp36
 70
     1
102
RTVSPost2010Prop37
 90
       50
102
RTVSPost2010PropOp37
 70
     1
102
RTVSPost2010Prop38
140
0.0
102
RTVSPost2010PropOp38
 70
     1
102
RTVSPost2010Prop39
140
1.0
102
RTVSPost2010PropOp39
 70
     1
102
RTVSPost2010Prop40
 90
        0
102
RTVSPost2010PropOp40
 70
     1
102
RTVSPost2010Prop41ColorIndex
 90
       18
102
RTVSPost2010Prop41ColorRGB
 90
        0
102
RTVSPost2010PropOp41
 70
     1
102
RTVSPost2010Prop42
 90
       50
102
RTVSPost2010PropOp42
 70
     1
102
RTVSPost2010Prop43
 90
        3
102
RTVSPost2010PropOp43
 70
     1
102
RTVSPost2010Prop44ColorIndex
 90
        5
102
RTVSPost2010Prop44ColorRGB
 90
      255
102
RTVSPost2010PropOp44
 70
     1
102
RTVSPost2010Prop45
280
     0
102
RTVSPost2010PropOp45
 70
     1
102
RTVSPost2010Prop46
 90
       50
102
RTVSPost2010PropOp46
 70
     1
102
RTVSPost2010Prop47
 90
       50
102
RTVSPost2010PropOp47
 70
     1
102
RTVSPost2010Prop48
 90
       50
102
RTVSPost2010PropOp48
 70
     1
102
RTVSPost2010Prop49
280
     0
102
RTVSPost2010PropOp49
 70
     1
102
RTVSPost2010Prop50
 90
       50
102
RTVSPost2010PropOp50
 70
     1
102
RTVSPost2010Prop51ColorIndex
 90
      256
102
RTVSPost2010Prop51ColorRGB
 90
-16777216
102
RTVSPost2010PropOp51
 70
     0
102
RTVSPost2010Prop52
140
1.0
102
RTVSPost2010PropOp52
 70
     0
102
RTVSPost2010Prop53
 90
        2
102
RTVSPost2010PropOp53
 70
     1
102
RTVSPost2010Prop54
  1
strokes_ogs.tif
102
RTVSPost2010PropOp54
 70
     1
102
RTVSPost2010Prop55
280
     0
102
RTVSPost2010PropOp55
 70
     1
102
RTVSPost2010Prop56
140
1.0
102
RTVSPost2010PropOp56
 70
     1
102
RTVSPost2010Prop57
140
1.0
102
RTVSPost2010PropOp57
 70
     1
  0
XRECORD
  5
350
102
{ACAD_REACTORS
330
34F
102
}
330
34F
100
AcDbXrecord
280
     1
102
RTVSPropertyOp0
 70
     0
102
RTVSPropertyOp1
 70
     0
102
RTVSPropertyOp2
 70
     0
102
RTVSPropertyOp3
 70
     0
102
RTVSPropertyOp4
 70
     0
102
RTVSPropertyOp5
 70
     0
102
RTVSPropertyOp6
 70
     0
102
RTVSPropertyOp7
 70
     0
102
RTVSPropertyOp8
 70
     0
102
RTVSPropertyOp9
 70
     0
102
RTVSPropertyOp10
 70
     0
102
RTVSPropertyOp11
 70
     0
102
RTVSPropertyOp12
 70
     0
102
RTVSPropertyOp13
 70
     0
102
RTVSPropertyOp14
 70
     2
102
RTVSPropertyOp15
 70
     0
102
RTVSPropertyOp16
 70
     0
102
RTVSPropertyOp17
 70
     0
102
RTVSPropertyOp18
 70
     0
102
RTVSPropertyOp19
 70
     0
102
RTVSPropertyOp20
 70
     0
102
RTVSPropertyOp21
 70
     0
102
RTVSPropertyOp22
 70
     0
102
RTVSPropertyOp23
 70
     0
102
RTVSPropertyOp24
 70
     0
102
RTVSPropertyOp25
 70
     0
102
RTVSPropertyOp26
 70
     0
102
RTVSPropertyOp27
 70
     0
102
RTVSPropertyOp28
 70
     0
102
RTVSPropertyOp29
 70
     0
102
RTVSPropertyOp30
 70
     0
102
RTVSPropertyOp31
 70
     0
102
RTVSPropertyOp32
 70
     0
102
RTVSPropertyOp33
 70
     0
102
RTVSPropertyOp34
 70
     0
102
RTVSPropertyOp35
 70
     0
102
RTVSPropertyOp36
 70
     0
102
RTVSPropertyOp37
 70
     0
102
RTVSPropertyOp38
 70
     0
102
RTVSPropertyOp39
 70
     0
102
RTVSPropertyOp40
 70
     0
102
RTVSPropertyOp41
 70
     0
102
RTVSPropertyOp42
 70
     0
102
RTVSPropertyOp43
 70
     0
102
RTVSPropertyOp44
 70
     0
102
RTVSPropertyOp45
 70
     0
102
RTVSPropertyOp46
 70
     0
102
RTVSPropertyOp47
 70
     0
102
RTVSPropertyOp48
 70
     0
102
RTVSPropertyOp49
 70
     0
102
RTVSPropertyOp50
 70
     0
102
RTVSPropertyOp51
 70
     0
102
RTVSPropertyOp52
 70
     0
102
RTVSPropertyOp53
 70
     0
102
RTVSPropertyOp54
 70
     0
102
RTVSPropertyOp55
 70
     0
102
RTVSPropertyOp56
 70
     0
102
RTVSPropertyOp57
 70
     0
102
RTVSPost2010Prop28
280
     0
102
RTVSPost2010PropOp28
 70
     0
102
RTVSPost2010Prop29
280
     1
102
RTVSPost2010PropOp29
 70
     0
102
RTVSPost2010Prop30
280
     1
102
RTVSPost2010PropOp30
 70
     0
102
RTVSPost2010Prop31
280
     0
102
RTVSPost2010PropOp31
 70
     0
102
RTVSPost2010Prop32
280
     0
102
RTVSPost2010PropOp32
 70
     0
102
RTVSPost2010Prop33
280
     0
102
RTVSPost2010PropOp33
 70
     0
102
RTVSPost2010Prop34
280
     0
102
RTVSPost2010PropOp34
 70
     0
102
RTVSPost2010Prop35
280
     0
102
RTVSPost2010PropOp35
 70
     0
102
RTVSPost2010Prop36
280
     0
102
RTVSPost2010PropOp36
 70
     0
102
RTVSPost2010Prop37
 90
       50
102
RTVSPost2010PropOp37
 70
     0
102
RTVSPost2010Prop38
140
0.0
102
RTVSPost2010PropOp38
 70
     0
102
RTVSPost2010Prop39
140
1.0
102
RTVSPost2010PropOp39
 70
     0
102
RTVSPost2010Prop40
 90
        0
102
RTVSPost2010PropOp40
 70
     0
102
RTVSPost2010Prop41ColorIndex
 90
       18
102
RTVSPost2010Prop41ColorRGB
 90
        0
102
RTVSPost2010PropOp41
 70
     0
102
RTVSPost2010Prop42
 90
       50
102
RTVSPost2010PropOp42
 70
     0
102
RTVSPost2010Prop43
 90
        3
102
RTVSPost2010PropOp43
 70
     0
102
RTVSPost2010Prop44ColorIndex
 90
        5
102
RTVSPost2010Prop44ColorRGB
 90
      255
102
RTVSPost2010PropOp44
 70
     0
102
RTVSPost2010Prop45
280
     0
102
RTVSPost2010PropOp45
 70
     0
102
RTVSPost2010Prop46
 90
       50
102
RTVSPost2010PropOp46
 70
     0
102
RTVSPost2010Prop47
 90
       50
102
RTVSPost2010PropOp47
 70
     0
102
RTVSPost2010Prop48
 90
       50
102
RTVSPost2010PropOp48
 70
     0
102
RTVSPost2010Prop49
280
     0
102
RTVSPost2010PropOp49
 70
     0
102
RTVSPost2010Prop50
 90
       50
102
RTVSPost2010PropOp50
 70
     0
102
RTVSPost2010Prop51ColorIndex
 90
      256
102
RTVSPost2010Prop51ColorRGB
 90
-16777216
102
RTVSPost2010PropOp51
 70
     0
102
RTVSPost2010Prop52
140
1.0
102
RTVSPost2010PropOp52
 70
     0
102
RTVSPost2010Prop53
 90
        2
102
RTVSPost2010PropOp53
 70
     0
102
RTVSPost2010Prop54
  1
strokes_ogs.tif
102
RTVSPost2010PropOp54
 70
     0
102
RTVSPost2010Prop55
280
     0
102
RTVSPost2010PropOp55
 70
     0
102
RTVSPost2010Prop56
140
1.0
102
RTVSPost2010PropOp56
 70
     0
102
RTVSPost2010Prop57
140
1.0
102
RTVSPost2010PropOp57
 70
     0
  0
XRECORD
  5
348
102
{ACAD_REACTORS
330
347
102
}
330
347
100
AcDbXrecord
280
     1
102
RTVSPropertyOp0
 70
     1
102
RTVSPropertyOp1
 70
     1
102
RTVSPropertyOp2
 70
     1
102
RTVSPropertyOp3
 70
     1
102
RTVSPropertyOp4
 70
     1
102
RTVSPropertyOp5
 70
     1
102
RTVSPropertyOp6
 70
     1
102
RTVSPropertyOp7
 70
     1
102
RTVSPropertyOp8
 70
     1
102
RTVSPropertyOp9
 70
     1
102
RTVSPropertyOp10
 70
     1
102
RTVSPropertyOp11
 70
     1
102
RTVSPropertyOp12
 70
     1
102
RTVSPropertyOp13
 70
     1
102
RTVSPropertyOp14
 70
     1
102
RTVSPropertyOp15
 70
     1
102
RTVSPropertyOp16
 70
     1
102
RTVSPropertyOp17
 70
     1
102
RTVSPropertyOp18
 70
     1
102
RTVSPropertyOp19
 70
     1
102
RTVSPropertyOp20
 70
     1
102
RTVSPropertyOp21
 70
     1
102
RTVSPropertyOp22
 70
     1
102
RTVSPropertyOp23
 70
     1
102
RTVSPropertyOp24
 70
     1
102
RTVSPropertyOp25
 70
     1
102
RTVSPropertyOp26
 70
     1
102
RTVSPropertyOp27
 70
     1
102
RTVSPropertyOp28
 70
     1
102
RTVSPropertyOp29
 70
     1
102
RTVSPropertyOp30
 70
     1
102
RTVSPropertyOp31
 70
     1
102
RTVSPropertyOp32
 70
     1
102
RTVSPropertyOp33
 70
     1
102
RTVSPropertyOp34
 70
     1
102
RTVSPropertyOp35
 70
     1
102
RTVSPropertyOp36
 70
     1
102
RTVSPropertyOp37
 70
     1
102
RTVSPropertyOp38
 70
     1
102
RTVSPropertyOp39
 70
     1
102
RTVSPropertyOp40
 70
     1
102
RTVSPropertyOp41
 70
     1
102
RTVSPropertyOp42
 70
     1
102
RTVSPropertyOp43
 70
     1
102
RTVSPropertyOp44
 70
     1
102
RTVSPropertyOp45
 70
     1
102
RTVSPropertyOp46
 70
     1
102
RTVSPropertyOp47
 70
     1
102
RTVSPropertyOp48
 70
     1
102
RTVSPropertyOp49
 70
     1
102
RTVSPropertyOp50
 70
     1
102
RTVSPropertyOp51
 70
     0
102
RTVSPropertyOp52
 70
     0
102
RTVSPropertyOp53
 70
     1
102
RTVSPropertyOp54
 70
     1
102
RTVSPropertyOp55
 70
     1
102
RTVSPropertyOp56
 70
     1
102
RTVSPropertyOp57
 70
     1
102
RTVSPost2010Prop28
280
     0
102
RTVSPost2010PropOp28
 70
     1
102
RTVSPost2010Prop29
280
     1
102
RTVSPost2010PropOp29
 70
     1
102
RTVSPost2010Prop30
280
     1
102
RTVSPost2010PropOp30
 70
     1
102
RTVSPost2010Prop31
280
     0
102
RTVSPost2010PropOp31
 70
     1
102
RTVSPost2010Prop32
280
     0
102
RTVSPost2010PropOp32
 70
     1
102
RTVSPost2010Prop33
280
     0
102
RTVSPost2010PropOp33
 70
     1
102
RTVSPost2010Prop34
280
     0
102
RTVSPost2010PropOp34
 70
     1
102
RTVSPost2010Prop35
280
     0
102
RTVSPost2010PropOp35
 70
     1
102
RTVSPost2010Prop36
280
     0
102
RTVSPost2010PropOp36
 70
     1
102
RTVSPost2010Prop37
 90
       50
102
RTVSPost2010PropOp37
 70
     1
102
RTVSPost2010Prop38
140
0.0
102
RTVSPost2010PropOp38
 70
     1
102
RTVSPost2010Prop39
140
1.0
102
RTVSPost2010PropOp39
 70
     1
102
RTVSPost2010Prop40
 90
        0
102
RTVSPost2010PropOp40
 70
     1
102
RTVSPost2010Prop41ColorIndex
 90
       18
102
RTVSPost2010Prop41ColorRGB
 90
        0
102
RTVSPost2010PropOp41
 70
     1
102
RTVSPost2010Prop42
 90
       50
102
RTVSPost2010PropOp42
 70
     1
102
RTVSPost2010Prop43
 90
        3
102
RTVSPost2010PropOp43
 70
     1
102
RTVSPost2010Prop44ColorIndex
 90
        5
102
RTVSPost2010Prop44ColorRGB
 90
      255
102
RTVSPost2010PropOp44
 70
     1
102
RTVSPost2010Prop45
280
     0
102
RTVSPost2010PropOp45
 70
     1
102
RTVSPost2010Prop46
 90
       50
102
RTVSPost2010PropOp46
 70
     1
102
RTVSPost2010Prop47
 90
       50
102
RTVSPost2010PropOp47
 70
     1
102
RTVSPost2010Prop48
 90
       50
102
RTVSPost2010PropOp48
 70
     1
102
RTVSPost2010Prop49
280
     0
102
RTVSPost2010PropOp49
 70
     1
102
RTVSPost2010Prop50
 90
       50
102
RTVSPost2010PropOp50
 70
     1
102
RTVSPost2010Prop51ColorIndex
 90
      256
102
RTVSPost2010Prop51ColorRGB
 90
-16777216
102
RTVSPost2010PropOp51
 70
     0
102
RTVSPost2010Prop52
140
1.0
102
RTVSPost2010PropOp52
 70
     0
102
RTVSPost2010Prop53
 90
        2
102
RTVSPost2010PropOp53
 70
     1
102
RTVSPost2010Prop54
  1
strokes_ogs.tif
102
RTVSPost2010PropOp54
 70
     1
102
RTVSPost2010Prop55
280
     0
102
RTVSPost2010PropOp55
 70
     1
102
RTVSPost2010Prop56
140
1.0
102
RTVSPost2010PropOp56
 70
     1
102
RTVSPost2010Prop57
140
1.0
102
RTVSPost2010PropOp57
 70
     1
  0
XRECORD
  5
32C
102
{ACAD_REACTORS
330
32B
102
}
330
32B
100
AcDbXrecord
280
     1
102
RTVSPropertyOp0
 70
     1
102
RTVSPropertyOp1
 70
     1
102
RTVSPropertyOp2
 70
     1
102
RTVSPropertyOp3
 70
     1
102
RTVSPropertyOp4
 70
     1
102
RTVSPropertyOp5
 70
     1
102
RTVSPropertyOp6
 70
     1
102
RTVSPropertyOp7
 70
     1
102
RTVSPropertyOp8
 70
     1
102
RTVSPropertyOp9
 70
     1
102
RTVSPropertyOp10
 70
     1
102
RTVSPropertyOp11
 70
     1
102
RTVSPropertyOp12
 70
     1
102
RTVSPropertyOp13
 70
     1
102
RTVSPropertyOp14
 70
     1
102
RTVSPropertyOp15
 70
     1
102
RTVSPropertyOp16
 70
     1
102
RTVSPropertyOp17
 70
     1
102
RTVSPropertyOp18
 70
     1
102
RTVSPropertyOp19
 70
     1
102
RTVSPropertyOp20
 70
     1
102
RTVSPropertyOp21
 70
     1
102
RTVSPropertyOp22
 70
     1
102
RTVSPropertyOp23
 70
     1
102
RTVSPropertyOp24
 70
     1
102
RTVSPropertyOp25
 70
     1
102
RTVSPropertyOp26
 70
     1
102
RTVSPropertyOp27
 70
     1
102
RTVSPropertyOp28
 70
     1
102
RTVSPropertyOp29
 70
     1
102
RTVSPropertyOp30
 70
     1
102
RTVSPropertyOp31
 70
     1
102
RTVSPropertyOp32
 70
     1
102
RTVSPropertyOp33
 70
     1
102
RTVSPropertyOp34
 70
     1
102
RTVSPropertyOp35
 70
     1
102
RTVSPropertyOp36
 70
     1
102
RTVSPropertyOp37
 70
     1
102
RTVSPropertyOp38
 70
     1
102
RTVSPropertyOp39
 70
     1
102
RTVSPropertyOp40
 70
     1
102
RTVSPropertyOp41
 70
     1
102
RTVSPropertyOp42
 70
     1
102
RTVSPropertyOp43
 70
     1
102
RTVSPropertyOp44
 70
     1
102
RTVSPropertyOp45
 70
     1
102
RTVSPropertyOp46
 70
     1
102
RTVSPropertyOp47
 70
     1
102
RTVSPropertyOp48
 70
     1
102
RTVSPropertyOp49
 70
     1
102
RTVSPropertyOp50
 70
     1
102
RTVSPropertyOp51
 70
     0
102
RTVSPropertyOp52
 70
     0
102
RTVSPropertyOp53
 70
     1
102
RTVSPropertyOp54
 70
     1
102
RTVSPropertyOp55
 70
     1
102
RTVSPropertyOp56
 70
     1
102
RTVSPropertyOp57
 70
     1
102
RTVSPost2010Prop28
280
     0
102
RTVSPost2010PropOp28
 70
     1
102
RTVSPost2010Prop29
280
     1
102
RTVSPost2010PropOp29
 70
     1
102
RTVSPost2010Prop30
280
     1
102
RTVSPost2010PropOp30
 70
     1
102
RTVSPost2010Prop31
280
     0
102
RTVSPost2010PropOp31
 70
     1
102
RTVSPost2010Prop32
280
     0
102
RTVSPost2010PropOp32
 70
     1
102
RTVSPost2010Prop33
280
     0
102
RTVSPost2010PropOp33
 70
     1
102
RTVSPost2010Prop34
280
     0
102
RTVSPost2010PropOp34
 70
     1
102
RTVSPost2010Prop35
280
     0
102
RTVSPost2010PropOp35
 70
     1
102
RTVSPost2010Prop36
280
     0
102
RTVSPost2010PropOp36
 70
     1
102
RTVSPost2010Prop37
 90
       50
102
RTVSPost2010PropOp37
 70
     1
102
RTVSPost2010Prop38
140
0.0
102
RTVSPost2010PropOp38
 70
     1
102
RTVSPost2010Prop39
140
1.0
102
RTVSPost2010PropOp39
 70
     1
102
RTVSPost2010Prop40
 90
        0
102
RTVSPost2010PropOp40
 70
     1
102
RTVSPost2010Prop41ColorIndex
 90
       18
102
RTVSPost2010Prop41ColorRGB
 90
        0
102
RTVSPost2010PropOp41
 70
     1
102
RTVSPost2010Prop42
 90
       50
102
RTVSPost2010PropOp42
 70
     1
102
RTVSPost2010Prop43
 90
        3
102
RTVSPost2010PropOp43
 70
     1
102
RTVSPost2010Prop44ColorIndex
 90
        5
102
RTVSPost2010Prop44ColorRGB
 90
      255
102
RTVSPost2010PropOp44
 70
     1
102
RTVSPost2010Prop45
280
     0
102
RTVSPost2010PropOp45
 70
     1
102
RTVSPost2010Prop46
 90
       50
102
RTVSPost2010PropOp46
 70
     1
102
RTVSPost2010Prop47
 90
       50
102
RTVSPost2010PropOp47
 70
     1
102
RTVSPost2010Prop48
 90
       50
102
RTVSPost2010PropOp48
 70
     1
102
RTVSPost2010Prop49
280
     0
102
RTVSPost2010PropOp49
 70
     1
102
RTVSPost2010Prop50
 90
       50
102
RTVSPost2010PropOp50
 70
     1
102
RTVSPost2010Prop51ColorIndex
 90
      256
102
RTVSPost2010Prop51ColorRGB
 90
-16777216
102
RTVSPost2010PropOp51
 70
     0
102
RTVSPost2010Prop52
140
1.0
102
RTVSPost2010PropOp52
 70
     0
102
RTVSPost2010Prop53
 90
        2
102
RTVSPost2010PropOp53
 70
     1
102
RTVSPost2010Prop54
  1
strokes_ogs.tif
102
RTVSPost2010PropOp54
 70
     1
102
RTVSPost2010Prop55
280
     0
102
RTVSPost2010PropOp55
 70
     1
102
RTVSPost2010Prop56
140
1.0
102
RTVSPost2010PropOp56
 70
     1
102
RTVSPost2010Prop57
140
1.0
102
RTVSPost2010PropOp57
 70
     1
  0
XRECORD
  5
32E
102
{ACAD_REACTORS
330
32D
102
}
330
32D
100
AcDbXrecord
280
     1
102
RTVSPropertyOp0
 70
     1
102
RTVSPropertyOp1
 70
     1
102
RTVSPropertyOp2
 70
     1
102
RTVSPropertyOp3
 70
     1
102
RTVSPropertyOp4
 70
     1
102
RTVSPropertyOp5
 70
     1
102
RTVSPropertyOp6
 70
     1
102
RTVSPropertyOp7
 70
     1
102
RTVSPropertyOp8
 70
     1
102
RTVSPropertyOp9
 70
     1
102
RTVSPropertyOp10
 70
     1
102
RTVSPropertyOp11
 70
     1
102
RTVSPropertyOp12
 70
     1
102
RTVSPropertyOp13
 70
     1
102
RTVSPropertyOp14
 70
     1
102
RTVSPropertyOp15
 70
     1
102
RTVSPropertyOp16
 70
     1
102
RTVSPropertyOp17
 70
     1
102
RTVSPropertyOp18
 70
     1
102
RTVSPropertyOp19
 70
     1
102
RTVSPropertyOp20
 70
     1
102
RTVSPropertyOp21
 70
     1
102
RTVSPropertyOp22
 70
     1
102
RTVSPropertyOp23
 70
     1
102
RTVSPropertyOp24
 70
     1
102
RTVSPropertyOp25
 70
     1
102
RTVSPropertyOp26
 70
     1
102
RTVSPropertyOp27
 70
     1
102
RTVSPropertyOp28
 70
     1
102
RTVSPropertyOp29
 70
     1
102
RTVSPropertyOp30
 70
     1
102
RTVSPropertyOp31
 70
     1
102
RTVSPropertyOp32
 70
     1
102
RTVSPropertyOp33
 70
     1
102
RTVSPropertyOp34
 70
     1
102
RTVSPropertyOp35
 70
     1
102
RTVSPropertyOp36
 70
     1
102
RTVSPropertyOp37
 70
     1
102
RTVSPropertyOp38
 70
     1
102
RTVSPropertyOp39
 70
     1
102
RTVSPropertyOp40
 70
     1
102
RTVSPropertyOp41
 70
     1
102
RTVSPropertyOp42
 70
     1
102
RTVSPropertyOp43
 70
     1
102
RTVSPropertyOp44
 70
     1
102
RTVSPropertyOp45
 70
     1
102
RTVSPropertyOp46
 70
     1
102
RTVSPropertyOp47
 70
     1
102
RTVSPropertyOp48
 70
     1
102
RTVSPropertyOp49
 70
     1
102
RTVSPropertyOp50
 70
     1
102
RTVSPropertyOp51
 70
     0
102
RTVSPropertyOp52
 70
     0
102
RTVSPropertyOp53
 70
     1
102
RTVSPropertyOp54
 70
     1
102
RTVSPropertyOp55
 70
     1
102
RTVSPropertyOp56
 70
     1
102
RTVSPropertyOp57
 70
     1
102
RTVSPost2010Prop28
280
     0
102
RTVSPost2010PropOp28
 70
     1
102
RTVSPost2010Prop29
280
     1
102
RTVSPost2010PropOp29
 70
     1
102
RTVSPost2010Prop30
280
     1
102
RTVSPost2010PropOp30
 70
     1
102
RTVSPost2010Prop31
280
     0
102
RTVSPost2010PropOp31
 70
     1
102
RTVSPost2010Prop32
280
     0
102
RTVSPost2010PropOp32
 70
     1
102
RTVSPost2010Prop33
280
     0
102
RTVSPost2010PropOp33
 70
     1
102
RTVSPost2010Prop34
280
     0
102
RTVSPost2010PropOp34
 70
     1
102
RTVSPost2010Prop35
280
     0
102
RTVSPost2010PropOp35
 70
     1
102
RTVSPost2010Prop36
280
     0
102
RTVSPost2010PropOp36
 70
     1
102
RTVSPost2010Prop37
 90
       50
102
RTVSPost2010PropOp37
 70
     1
102
RTVSPost2010Prop38
140
0.0
102
RTVSPost2010PropOp38
 70
     1
102
RTVSPost2010Prop39
140
1.0
102
RTVSPost2010PropOp39
 70
     1
102
RTVSPost2010Prop40
 90
        0
102
RTVSPost2010PropOp40
 70
     1
102
RTVSPost2010Prop41ColorIndex
 90
       18
102
RTVSPost2010Prop41ColorRGB
 90
        0
102
RTVSPost2010PropOp41
 70
     1
102
RTVSPost2010Prop42
 90
       50
102
RTVSPost2010PropOp42
 70
     1
102
RTVSPost2010Prop43
 90
        3
102
RTVSPost2010PropOp43
 70
     1
102
RTVSPost2010Prop44ColorIndex
 90
        5
102
RTVSPost2010Prop44ColorRGB
 90
      255
102
RTVSPost2010PropOp44
 70
     1
102
RTVSPost2010Prop45
280
     0
102
RTVSPost2010PropOp45
 70
     1
102
RTVSPost2010Prop46
 90
       50
102
RTVSPost2010PropOp46
 70
     1
102
RTVSPost2010Prop47
 90
       50
102
RTVSPost2010PropOp47
 70
     1
102
RTVSPost2010Prop48
 90
       50
102
RTVSPost2010PropOp48
 70
     1
102
RTVSPost2010Prop49
280
     0
102
RTVSPost2010PropOp49
 70
     1
102
RTVSPost2010Prop50
 90
       50
102
RTVSPost2010PropOp50
 70
     1
102
RTVSPost2010Prop51ColorIndex
 90
      256
102
RTVSPost2010Prop51ColorRGB
 90
-16777216
102
RTVSPost2010PropOp51
 70
     0
102
RTVSPost2010Prop52
140
1.0
102
RTVSPost2010PropOp52
 70
     0
102
RTVSPost2010Prop53
 90
        2
102
RTVSPost2010PropOp53
 70
     1
102
RTVSPost2010Prop54
  1
strokes_ogs.tif
102
RTVSPost2010PropOp54
 70
     1
102
RTVSPost2010Prop55
280
     0
102
RTVSPost2010PropOp55
 70
     1
102
RTVSPost2010Prop56
140
1.0
102
RTVSPost2010PropOp56
 70
     1
102
RTVSPost2010Prop57
140
1.0
102
RTVSPost2010PropOp57
 70
     1
  0
XRECORD
  5
330
102
{ACAD_REACTORS
330
32F
102
}
330
32F
100
AcDbXrecord
280
     1
102
RTVSPropertyOp0
 70
     1
102
RTVSPropertyOp1
 70
     1
102
RTVSPropertyOp2
 70
     1
102
RTVSPropertyOp3
 70
     1
102
RTVSPropertyOp4
 70
     1
102
RTVSPropertyOp5
 70
     1
102
RTVSPropertyOp6
 70
     1
102
RTVSPropertyOp7
 70
     1
102
RTVSPropertyOp8
 70
     1
102
RTVSPropertyOp9
 70
     1
102
RTVSPropertyOp10
 70
     1
102
RTVSPropertyOp11
 70
     1
102
RTVSPropertyOp12
 70
     1
102
RTVSPropertyOp13
 70
     1
102
RTVSPropertyOp14
 70
     1
102
RTVSPropertyOp15
 70
     1
102
RTVSPropertyOp16
 70
     1
102
RTVSPropertyOp17
 70
     1
102
RTVSPropertyOp18
 70
     1
102
RTVSPropertyOp19
 70
     1
102
RTVSPropertyOp20
 70
     1
102
RTVSPropertyOp21
 70
     1
102
RTVSPropertyOp22
 70
     1
102
RTVSPropertyOp23
 70
     1
102
RTVSPropertyOp24
 70
     1
102
RTVSPropertyOp25
 70
     1
102
RTVSPropertyOp26
 70
     1
102
RTVSPropertyOp27
 70
     1
102
RTVSPropertyOp28
 70
     1
102
RTVSPropertyOp29
 70
     1
102
RTVSPropertyOp30
 70
     1
102
RTVSPropertyOp31
 70
     1
102
RTVSPropertyOp32
 70
     1
102
RTVSPropertyOp33
 70
     1
102
RTVSPropertyOp34
 70
     1
102
RTVSPropertyOp35
 70
     1
102
RTVSPropertyOp36
 70
     1
102
RTVSPropertyOp37
 70
     1
102
RTVSPropertyOp38
 70
     1
102
RTVSPropertyOp39
 70
     1
102
RTVSPropertyOp40
 70
     1
102
RTVSPropertyOp41
 70
     1
102
RTVSPropertyOp42
 70
     1
102
RTVSPropertyOp43
 70
     1
102
RTVSPropertyOp44
 70
     1
102
RTVSPropertyOp45
 70
     1
102
RTVSPropertyOp46
 70
     1
102
RTVSPropertyOp47
 70
     1
102
RTVSPropertyOp48
 70
     1
102
RTVSPropertyOp49
 70
     1
102
RTVSPropertyOp50
 70
     1
102
RTVSPropertyOp51
 70
     0
102
RTVSPropertyOp52
 70
     0
102
RTVSPropertyOp53
 70
     1
102
RTVSPropertyOp54
 70
     1
102
RTVSPropertyOp55
 70
     1
102
RTVSPropertyOp56
 70
     1
102
RTVSPropertyOp57
 70
     1
102
RTVSPost2010Prop28
280
     0
102
RTVSPost2010PropOp28
 70
     1
102
RTVSPost2010Prop29
280
     1
102
RTVSPost2010PropOp29
 70
     1
102
RTVSPost2010Prop30
280
     1
102
RTVSPost2010PropOp30
 70
     1
102
RTVSPost2010Prop31
280
     0
102
RTVSPost2010PropOp31
 70
     1
102
RTVSPost2010Prop32
280
     0
102
RTVSPost2010PropOp32
 70
     1
102
RTVSPost2010Prop33
280
     0
102
RTVSPost2010PropOp33
 70
     1
102
RTVSPost2010Prop34
280
     0
102
RTVSPost2010PropOp34
 70
     1
102
RTVSPost2010Prop35
280
     0
102
RTVSPost2010PropOp35
 70
     1
102
RTVSPost2010Prop36
280
     0
102
RTVSPost2010PropOp36
 70
     1
102
RTVSPost2010Prop37
 90
       50
102
RTVSPost2010PropOp37
 70
     1
102
RTVSPost2010Prop38
140
0.0
102
RTVSPost2010PropOp38
 70
     1
102
RTVSPost2010Prop39
140
1.0
102
RTVSPost2010PropOp39
 70
     1
102
RTVSPost2010Prop40
 90
        0
102
RTVSPost2010PropOp40
 70
     1
102
RTVSPost2010Prop41ColorIndex
 90
       18
102
RTVSPost2010Prop41ColorRGB
 90
        0
102
RTVSPost2010PropOp41
 70
     1
102
RTVSPost2010Prop42
 90
       50
102
RTVSPost2010PropOp42
 70
     1
102
RTVSPost2010Prop43
 90
        3
102
RTVSPost2010PropOp43
 70
     1
102
RTVSPost2010Prop44ColorIndex
 90
        5
102
RTVSPost2010Prop44ColorRGB
 90
      255
102
RTVSPost2010PropOp44
 70
     1
102
RTVSPost2010Prop45
280
     0
102
RTVSPost2010PropOp45
 70
     1
102
RTVSPost2010Prop46
 90
       50
102
RTVSPost2010PropOp46
 70
     1
102
RTVSPost2010Prop47
 90
       50
102
RTVSPost2010PropOp47
 70
     1
102
RTVSPost2010Prop48
 90
       50
102
RTVSPost2010PropOp48
 70
     1
102
RTVSPost2010Prop49
280
     0
102
RTVSPost2010PropOp49
 70
     1
102
RTVSPost2010Prop50
 90
       50
102
RTVSPost2010PropOp50
 70
     1
102
RTVSPost2010Prop51ColorIndex
 90
      256
102
RTVSPost2010Prop51ColorRGB
 90
-16777216
102
RTVSPost2010PropOp51
 70
     0
102
RTVSPost2010Prop52
140
1.0
102
RTVSPost2010PropOp52
 70
     0
102
RTVSPost2010Prop53
 90
        2
102
RTVSPost2010PropOp53
 70
     1
102
RTVSPost2010Prop54
  1
strokes_ogs.tif
102
RTVSPost2010PropOp54
 70
     1
102
RTVSPost2010Prop55
280
     0
102
RTVSPost2010PropOp55
 70
     1
102
RTVSPost2010Prop56
140
1.0
102
RTVSPost2010PropOp56
 70
     1
102
RTVSPost2010Prop57
140
1.0
102
RTVSPost2010PropOp57
 70
     1
  0
XRECORD
  5
332
102
{ACAD_REACTORS
330
331
102
}
330
331
100
AcDbXrecord
280
     1
102
RTVSPropertyOp0
 70
     1
102
RTVSPropertyOp1
 70
     1
102
RTVSPropertyOp2
 70
     1
102
RTVSPropertyOp3
 70
     1
102
RTVSPropertyOp4
 70
     1
102
RTVSPropertyOp5
 70
     1
102
RTVSPropertyOp6
 70
     1
102
RTVSPropertyOp7
 70
     1
102
RTVSPropertyOp8
 70
     1
102
RTVSPropertyOp9
 70
     1
102
RTVSPropertyOp10
 70
     1
102
RTVSPropertyOp11
 70
     1
102
RTVSPropertyOp12
 70
     1
102
RTVSPropertyOp13
 70
     1
102
RTVSPropertyOp14
 70
     1
102
RTVSPropertyOp15
 70
     1
102
RTVSPropertyOp16
 70
     1
102
RTVSPropertyOp17
 70
     1
102
RTVSPropertyOp18
 70
     1
102
RTVSPropertyOp19
 70
     1
102
RTVSPropertyOp20
 70
     1
102
RTVSPropertyOp21
 70
     1
102
RTVSPropertyOp22
 70
     1
102
RTVSPropertyOp23
 70
     1
102
RTVSPropertyOp24
 70
     1
102
RTVSPropertyOp25
 70
     1
102
RTVSPropertyOp26
 70
     1
102
RTVSPropertyOp27
 70
     1
102
RTVSPropertyOp28
 70
     1
102
RTVSPropertyOp29
 70
     1
102
RTVSPropertyOp30
 70
     1
102
RTVSPropertyOp31
 70
     1
102
RTVSPropertyOp32
 70
     1
102
RTVSPropertyOp33
 70
     1
102
RTVSPropertyOp34
 70
     1
102
RTVSPropertyOp35
 70
     1
102
RTVSPropertyOp36
 70
     1
102
RTVSPropertyOp37
 70
     1
102
RTVSPropertyOp38
 70
     1
102
RTVSPropertyOp39
 70
     1
102
RTVSPropertyOp40
 70
     1
102
RTVSPropertyOp41
 70
     1
102
RTVSPropertyOp42
 70
     1
102
RTVSPropertyOp43
 70
     1
102
RTVSPropertyOp44
 70
     1
102
RTVSPropertyOp45
 70
     1
102
RTVSPropertyOp46
 70
     1
102
RTVSPropertyOp47
 70
     1
102
RTVSPropertyOp48
 70
     1
102
RTVSPropertyOp49
 70
     1
102
RTVSPropertyOp50
 70
     1
102
RTVSPropertyOp51
 70
     0
102
RTVSPropertyOp52
 70
     0
102
RTVSPropertyOp53
 70
     1
102
RTVSPropertyOp54
 70
     1
102
RTVSPropertyOp55
 70
     1
102
RTVSPropertyOp56
 70
     1
102
RTVSPropertyOp57
 70
     1
102
RTVSPost2010Prop28
280
     0
102
RTVSPost2010PropOp28
 70
     1
102
RTVSPost2010Prop29
280
     1
102
RTVSPost2010PropOp29
 70
     1
102
RTVSPost2010Prop30
280
     1
102
RTVSPost2010PropOp30
 70
     1
102
RTVSPost2010Prop31
280
     0
102
RTVSPost2010PropOp31
 70
     1
102
RTVSPost2010Prop32
280
     0
102
RTVSPost2010PropOp32
 70
     1
102
RTVSPost2010Prop33
280
     0
102
RTVSPost2010PropOp33
 70
     1
102
RTVSPost2010Prop34
280
     0
102
RTVSPost2010PropOp34
 70
     1
102
RTVSPost2010Prop35
280
     0
102
RTVSPost2010PropOp35
 70
     1
102
RTVSPost2010Prop36
280
     0
102
RTVSPost2010PropOp36
 70
     1
102
RTVSPost2010Prop37
 90
       50
102
RTVSPost2010PropOp37
 70
     1
102
RTVSPost2010Prop38
140
0.0
102
RTVSPost2010PropOp38
 70
     1
102
RTVSPost2010Prop39
140
1.0
102
RTVSPost2010PropOp39
 70
     1
102
RTVSPost2010Prop40
 90
        0
102
RTVSPost2010PropOp40
 70
     1
102
RTVSPost2010Prop41ColorIndex
 90
       18
102
RTVSPost2010Prop41ColorRGB
 90
        0
102
RTVSPost2010PropOp41
 70
     1
102
RTVSPost2010Prop42
 90
       50
102
RTVSPost2010PropOp42
 70
     1
102
RTVSPost2010Prop43
 90
        3
102
RTVSPost2010PropOp43
 70
     1
102
RTVSPost2010Prop44ColorIndex
 90
        5
102
RTVSPost2010Prop44ColorRGB
 90
      255
102
RTVSPost2010PropOp44
 70
     1
102
RTVSPost2010Prop45
280
     0
102
RTVSPost2010PropOp45
 70
     1
102
RTVSPost2010Prop46
 90
       50
102
RTVSPost2010PropOp46
 70
     1
102
RTVSPost2010Prop47
 90
       50
102
RTVSPost2010PropOp47
 70
     1
102
RTVSPost2010Prop48
 90
       50
102
RTVSPost2010PropOp48
 70
     1
102
RTVSPost2010Prop49
280
     0
102
RTVSPost2010PropOp49
 70
     1
102
RTVSPost2010Prop50
 90
       50
102
RTVSPost2010PropOp50
 70
     1
102
RTVSPost2010Prop51ColorIndex
 90
      256
102
RTVSPost2010Prop51ColorRGB
 90
-16777216
102
RTVSPost2010PropOp51
 70
     0
102
RTVSPost2010Prop52
140
1.0
102
RTVSPost2010PropOp52
 70
     0
102
RTVSPost2010Prop53
 90
        2
102
RTVSPost2010PropOp53
 70
     1
102
RTVSPost2010Prop54
  1
strokes_ogs.tif
102
RTVSPost2010PropOp54
 70
     1
102
RTVSPost2010Prop55
280
     0
102
RTVSPost2010PropOp55
 70
     1
102
RTVSPost2010Prop56
140
1.0
102
RTVSPost2010PropOp56
 70
     1
102
RTVSPost2010Prop57
140
1.0
102
RTVSPost2010PropOp57
 70
     1
  0
XRECORD
  5
338
102
{ACAD_REACTORS
330
337
102
}
330
337
100
AcDbXrecord
280
     1
102
RTVSPropertyOp0
 70
     1
102
RTVSPropertyOp1
 70
     1
102
RTVSPropertyOp2
 70
     1
102
RTVSPropertyOp3
 70
     1
102
RTVSPropertyOp4
 70
     1
102
RTVSPropertyOp5
 70
     1
102
RTVSPropertyOp6
 70
     1
102
RTVSPropertyOp7
 70
     1
102
RTVSPropertyOp8
 70
     1
102
RTVSPropertyOp9
 70
     1
102
RTVSPropertyOp10
 70
     1
102
RTVSPropertyOp11
 70
     1
102
RTVSPropertyOp12
 70
     1
102
RTVSPropertyOp13
 70
     1
102
RTVSPropertyOp14
 70
     1
102
RTVSPropertyOp15
 70
     1
102
RTVSPropertyOp16
 70
     1
102
RTVSPropertyOp17
 70
     1
102
RTVSPropertyOp18
 70
     1
102
RTVSPropertyOp19
 70
     1
102
RTVSPropertyOp20
 70
     1
102
RTVSPropertyOp21
 70
     1
102
RTVSPropertyOp22
 70
     1
102
RTVSPropertyOp23
 70
     1
102
RTVSPropertyOp24
 70
     1
102
RTVSPropertyOp25
 70
     1
102
RTVSPropertyOp26
 70
     1
102
RTVSPropertyOp27
 70
     1
102
RTVSPropertyOp28
 70
     1
102
RTVSPropertyOp29
 70
     1
102
RTVSPropertyOp30
 70
     1
102
RTVSPropertyOp31
 70
     1
102
RTVSPropertyOp32
 70
     1
102
RTVSPropertyOp33
 70
     1
102
RTVSPropertyOp34
 70
     1
102
RTVSPropertyOp35
 70
     1
102
RTVSPropertyOp36
 70
     1
102
RTVSPropertyOp37
 70
     1
102
RTVSPropertyOp38
 70
     1
102
RTVSPropertyOp39
 70
     1
102
RTVSPropertyOp40
 70
     1
102
RTVSPropertyOp41
 70
     1
102
RTVSPropertyOp42
 70
     1
102
RTVSPropertyOp43
 70
     1
102
RTVSPropertyOp44
 70
     1
102
RTVSPropertyOp45
 70
     1
102
RTVSPropertyOp46
 70
     1
102
RTVSPropertyOp47
 70
     1
102
RTVSPropertyOp48
 70
     1
102
RTVSPropertyOp49
 70
     1
102
RTVSPropertyOp50
 70
     1
102
RTVSPropertyOp51
 70
     0
102
RTVSPropertyOp52
 70
     0
102
RTVSPropertyOp53
 70
     1
102
RTVSPropertyOp54
 70
     1
102
RTVSPropertyOp55
 70
     1
102
RTVSPropertyOp56
 70
     1
102
RTVSPropertyOp57
 70
     1
102
RTVSPost2010Prop28
280
     0
102
RTVSPost2010PropOp28
 70
     1
102
RTVSPost2010Prop29
280
     1
102
RTVSPost2010PropOp29
 70
     1
102
RTVSPost2010Prop30
280
     1
102
RTVSPost2010PropOp30
 70
     1
102
RTVSPost2010Prop31
280
     0
102
RTVSPost2010PropOp31
 70
     1
102
RTVSPost2010Prop32
280
     0
102
RTVSPost2010PropOp32
 70
     1
102
RTVSPost2010Prop33
280
     0
102
RTVSPost2010PropOp33
 70
     1
102
RTVSPost2010Prop34
280
     0
102
RTVSPost2010PropOp34
 70
     1
102
RTVSPost2010Prop35
280
     0
102
RTVSPost2010PropOp35
 70
     1
102
RTVSPost2010Prop36
280
     0
102
RTVSPost2010PropOp36
 70
     1
102
RTVSPost2010Prop37
 90
       50
102
RTVSPost2010PropOp37
 70
     1
102
RTVSPost2010Prop38
140
0.0
102
RTVSPost2010PropOp38
 70
     1
102
RTVSPost2010Prop39
140
1.0
102
RTVSPost2010PropOp39
 70
     1
102
RTVSPost2010Prop40
 90
        0
102
RTVSPost2010PropOp40
 70
     1
102
RTVSPost2010Prop41ColorIndex
 90
       18
102
RTVSPost2010Prop41ColorRGB
 90
        0
102
RTVSPost2010PropOp41
 70
     1
102
RTVSPost2010Prop42
 90
       50
102
RTVSPost2010PropOp42
 70
     1
102
RTVSPost2010Prop43
 90
        3
102
RTVSPost2010PropOp43
 70
     1
102
RTVSPost2010Prop44ColorIndex
 90
        5
102
RTVSPost2010Prop44ColorRGB
 90
      255
102
RTVSPost2010PropOp44
 70
     1
102
RTVSPost2010Prop45
280
     0
102
RTVSPost2010PropOp45
 70
     1
102
RTVSPost2010Prop46
 90
       50
102
RTVSPost2010PropOp46
 70
     1
102
RTVSPost2010Prop47
 90
       50
102
RTVSPost2010PropOp47
 70
     1
102
RTVSPost2010Prop48
 90
       50
102
RTVSPost2010PropOp48
 70
     1
102
RTVSPost2010Prop49
280
     0
102
RTVSPost2010PropOp49
 70
     1
102
RTVSPost2010Prop50
 90
       50
102
RTVSPost2010PropOp50
 70
     1
102
RTVSPost2010Prop51ColorIndex
 90
      256
102
RTVSPost2010Prop51ColorRGB
 90
-16777216
102
RTVSPost2010PropOp51
 70
     0
102
RTVSPost2010Prop52
140
1.0
102
RTVSPost2010PropOp52
 70
     0
102
RTVSPost2010Prop53
 90
        2
102
RTVSPost2010PropOp53
 70
     1
102
RTVSPost2010Prop54
  1
strokes_ogs.tif
102
RTVSPost2010PropOp54
 70
     1
102
RTVSPost2010Prop55
280
     0
102
RTVSPost2010PropOp55
 70
     1
102
RTVSPost2010Prop56
140
1.0
102
RTVSPost2010PropOp56
 70
     1
102
RTVSPost2010Prop57
140
1.0
102
RTVSPost2010PropOp57
 70
     1
  0
XRECORD
  5
34C
102
{ACAD_REACTORS
330
34B
102
}
330
34B
100
AcDbXrecord
280
     1
102
RTVSPropertyOp0
 70
     0
102
RTVSPropertyOp1
 70
     0
102
RTVSPropertyOp2
 70
     0
102
RTVSPropertyOp3
 70
     0
102
RTVSPropertyOp4
 70
     0
102
RTVSPropertyOp5
 70
     0
102
RTVSPropertyOp6
 70
     0
102
RTVSPropertyOp7
 70
     0
102
RTVSPropertyOp8
 70
     0
102
RTVSPropertyOp9
 70
     0
102
RTVSPropertyOp10
 70
     0
102
RTVSPropertyOp11
 70
     0
102
RTVSPropertyOp12
 70
     0
102
RTVSPropertyOp13
 70
     0
102
RTVSPropertyOp14
 70
     2
102
RTVSPropertyOp15
 70
     0
102
RTVSPropertyOp16
 70
     0
102
RTVSPropertyOp17
 70
     0
102
RTVSPropertyOp18
 70
     0
102
RTVSPropertyOp19
 70
     0
102
RTVSPropertyOp20
 70
     0
102
RTVSPropertyOp21
 70
     0
102
RTVSPropertyOp22
 70
     0
102
RTVSPropertyOp23
 70
     0
102
RTVSPropertyOp24
 70
     0
102
RTVSPropertyOp25
 70
     0
102
RTVSPropertyOp26
 70
     0
102
RTVSPropertyOp27
 70
     0
102
RTVSPropertyOp28
 70
     0
102
RTVSPropertyOp29
 70
     0
102
RTVSPropertyOp30
 70
     0
102
RTVSPropertyOp31
 70
     0
102
RTVSPropertyOp32
 70
     0
102
RTVSPropertyOp33
 70
     0
102
RTVSPropertyOp34
 70
     0
102
RTVSPropertyOp35
 70
     0
102
RTVSPropertyOp36
 70
     0
102
RTVSPropertyOp37
 70
     0
102
RTVSPropertyOp38
 70
     0
102
RTVSPropertyOp39
 70
     0
102
RTVSPropertyOp40
 70
     0
102
RTVSPropertyOp41
 70
     0
102
RTVSPropertyOp42
 70
     0
102
RTVSPropertyOp43
 70
     0
102
RTVSPropertyOp44
 70
     0
102
RTVSPropertyOp45
 70
     0
102
RTVSPropertyOp46
 70
     0
102
RTVSPropertyOp47
 70
     0
102
RTVSPropertyOp48
 70
     0
102
RTVSPropertyOp49
 70
     0
102
RTVSPropertyOp50
 70
     0
102
RTVSPropertyOp51
 70
     0
102
RTVSPropertyOp52
 70
     0
102
RTVSPropertyOp53
 70
     0
102
RTVSPropertyOp54
 70
     0
102
RTVSPropertyOp55
 70
     0
102
RTVSPropertyOp56
 70
     0
102
RTVSPropertyOp57
 70
     0
102
RTVSPost2010Prop28
280
     0
102
RTVSPost2010PropOp28
 70
     0
102
RTVSPost2010Prop29
280
     1
102
RTVSPost2010PropOp29
 70
     0
102
RTVSPost2010Prop30
280
     1
102
RTVSPost2010PropOp30
 70
     0
102
RTVSPost2010Prop31
280
     0
102
RTVSPost2010PropOp31
 70
     0
102
RTVSPost2010Prop32
280
     0
102
RTVSPost2010PropOp32
 70
     0
102
RTVSPost2010Prop33
280
     0
102
RTVSPost2010PropOp33
 70
     0
102
RTVSPost2010Prop34
280
     0
102
RTVSPost2010PropOp34
 70
     0
102
RTVSPost2010Prop35
280
     0
102
RTVSPost2010PropOp35
 70
     0
102
RTVSPost2010Prop36
280
     0
102
RTVSPost2010PropOp36
 70
     0
102
RTVSPost2010Prop37
 90
       50
102
RTVSPost2010PropOp37
 70
     0
102
RTVSPost2010Prop38
140
0.0
102
RTVSPost2010PropOp38
 70
     0
102
RTVSPost2010Prop39
140
1.0
102
RTVSPost2010PropOp39
 70
     0
102
RTVSPost2010Prop40
 90
        0
102
RTVSPost2010PropOp40
 70
     0
102
RTVSPost2010Prop41ColorIndex
 90
       18
102
RTVSPost2010Prop41ColorRGB
 90
        0
102
RTVSPost2010PropOp41
 70
     0
102
RTVSPost2010Prop42
 90
       50
102
RTVSPost2010PropOp42
 70
     0
102
RTVSPost2010Prop43
 90
        3
102
RTVSPost2010PropOp43
 70
     0
102
RTVSPost2010Prop44ColorIndex
 90
        5
102
RTVSPost2010Prop44ColorRGB
 90
      255
102
RTVSPost2010PropOp44
 70
     0
102
RTVSPost2010Prop45
280
     0
102
RTVSPost2010PropOp45
 70
     0
102
RTVSPost2010Prop46
 90
       50
102
RTVSPost2010PropOp46
 70
     0
102
RTVSPost2010Prop47
 90
       50
102
RTVSPost2010PropOp47
 70
     0
102
RTVSPost2010Prop48
 90
       50
102
RTVSPost2010PropOp48
 70
     0
102
RTVSPost2010Prop49
280
     0
102
RTVSPost2010PropOp49
 70
     0
102
RTVSPost2010Prop50
 90
       50
102
RTVSPost2010PropOp50
 70
     0
102
RTVSPost2010Prop51ColorIndex
 90
      256
102
RTVSPost2010Prop51ColorRGB
 90
-16777216
102
RTVSPost2010PropOp51
 70
     0
102
RTVSPost2010Prop52
140
1.0
102
RTVSPost2010PropOp52
 70
     0
102
RTVSPost2010Prop53
 90
        2
102
RTVSPost2010PropOp53
 70
     0
102
RTVSPost2010Prop54
  1
strokes_ogs.tif
102
RTVSPost2010PropOp54
 70
     0
102
RTVSPost2010Prop55
280
     0
102
RTVSPost2010PropOp55
 70
     0
102
RTVSPost2010Prop56
140
1.0
102
RTVSPost2010PropOp56
 70
     0
102
RTVSPost2010Prop57
140
1.0
102
RTVSPost2010PropOp57
 70
     0
  0
XRECORD
  5
346
102
{ACAD_REACTORS
330
345
102
}
330
345
100
AcDbXrecord
280
     1
102
RTVSPropertyOp0
 70
     1
102
RTVSPropertyOp1
 70
     1
102
RTVSPropertyOp2
 70
     1
102
RTVSPropertyOp3
 70
     1
102
RTVSPropertyOp4
 70
     1
102
RTVSPropertyOp5
 70
     1
102
RTVSPropertyOp6
 70
     1
102
RTVSPropertyOp7
 70
     1
102
RTVSPropertyOp8
 70
     1
102
RTVSPropertyOp9
 70
     1
102
RTVSPropertyOp10
 70
     1
102
RTVSPropertyOp11
 70
     1
102
RTVSPropertyOp12
 70
     1
102
RTVSPropertyOp13
 70
     1
102
RTVSPropertyOp14
 70
     1
102
RTVSPropertyOp15
 70
     1
102
RTVSPropertyOp16
 70
     1
102
RTVSPropertyOp17
 70
     1
102
RTVSPropertyOp18
 70
     1
102
RTVSPropertyOp19
 70
     1
102
RTVSPropertyOp20
 70
     1
102
RTVSPropertyOp21
 70
     1
102
RTVSPropertyOp22
 70
     1
102
RTVSPropertyOp23
 70
     1
102
RTVSPropertyOp24
 70
     1
102
RTVSPropertyOp25
 70
     1
102
RTVSPropertyOp26
 70
     1
102
RTVSPropertyOp27
 70
     1
102
RTVSPropertyOp28
 70
     1
102
RTVSPropertyOp29
 70
     1
102
RTVSPropertyOp30
 70
     1
102
RTVSPropertyOp31
 70
     1
102
RTVSPropertyOp32
 70
     1
102
RTVSPropertyOp33
 70
     1
102
RTVSPropertyOp34
 70
     1
102
RTVSPropertyOp35
 70
     1
102
RTVSPropertyOp36
 70
     1
102
RTVSPropertyOp37
 70
     1
102
RTVSPropertyOp38
 70
     1
102
RTVSPropertyOp39
 70
     1
102
RTVSPropertyOp40
 70
     1
102
RTVSPropertyOp41
 70
     1
102
RTVSPropertyOp42
 70
     1
102
RTVSPropertyOp43
 70
     1
102
RTVSPropertyOp44
 70
     1
102
RTVSPropertyOp45
 70
     1
102
RTVSPropertyOp46
 70
     1
102
RTVSPropertyOp47
 70
     1
102
RTVSPropertyOp48
 70
     1
102
RTVSPropertyOp49
 70
     1
102
RTVSPropertyOp50
 70
     1
102
RTVSPropertyOp51
 70
     0
102
RTVSPropertyOp52
 70
     0
102
RTVSPropertyOp53
 70
     1
102
RTVSPropertyOp54
 70
     1
102
RTVSPropertyOp55
 70
     1
102
RTVSPropertyOp56
 70
     1
102
RTVSPropertyOp57
 70
     1
102
RTVSPost2010Prop28
280
     0
102
RTVSPost2010PropOp28
 70
     1
102
RTVSPost2010Prop29
280
     1
102
RTVSPost2010PropOp29
 70
     1
102
RTVSPost2010Prop30
280
     1
102
RTVSPost2010PropOp30
 70
     1
102
RTVSPost2010Prop31
280
     0
102
RTVSPost2010PropOp31
 70
     1
102
RTVSPost2010Prop32
280
     0
102
RTVSPost2010PropOp32
 70
     1
102
RTVSPost2010Prop33
280
     0
102
RTVSPost2010PropOp33
 70
     1
102
RTVSPost2010Prop34
280
     0
102
RTVSPost2010PropOp34
 70
     1
102
RTVSPost2010Prop35
280
     0
102
RTVSPost2010PropOp35
 70
     1
102
RTVSPost2010Prop36
280
     0
102
RTVSPost2010PropOp36
 70
     1
102
RTVSPost2010Prop37
 90
       50
102
RTVSPost2010PropOp37
 70
     1
102
RTVSPost2010Prop38
140
0.0
102
RTVSPost2010PropOp38
 70
     1
102
RTVSPost2010Prop39
140
1.0
102
RTVSPost2010PropOp39
 70
     1
102
RTVSPost2010Prop40
 90
        0
102
RTVSPost2010PropOp40
 70
     1
102
RTVSPost2010Prop41ColorIndex
 90
       18
102
RTVSPost2010Prop41ColorRGB
 90
        0
102
RTVSPost2010PropOp41
 70
     1
102
RTVSPost2010Prop42
 90
       50
102
RTVSPost2010PropOp42
 70
     1
102
RTVSPost2010Prop43
 90
        3
102
RTVSPost2010PropOp43
 70
     1
102
RTVSPost2010Prop44ColorIndex
 90
        5
102
RTVSPost2010Prop44ColorRGB
 90
      255
102
RTVSPost2010PropOp44
 70
     1
102
RTVSPost2010Prop45
280
     0
102
RTVSPost2010PropOp45
 70
     1
102
RTVSPost2010Prop46
 90
       50
102
RTVSPost2010PropOp46
 70
     1
102
RTVSPost2010Prop47
 90
       50
102
RTVSPost2010PropOp47
 70
     1
102
RTVSPost2010Prop48
 90
       50
102
RTVSPost2010PropOp48
 70
     1
102
RTVSPost2010Prop49
280
     0
102
RTVSPost2010PropOp49
 70
     1
102
RTVSPost2010Prop50
 90
       50
102
RTVSPost2010PropOp50
 70
     1
102
RTVSPost2010Prop51ColorIndex
 90
      256
102
RTVSPost2010Prop51ColorRGB
 90
-16777216
102
RTVSPost2010PropOp51
 70
     0
102
RTVSPost2010Prop52
140
1.0
102
RTVSPost2010PropOp52
 70
     0
102
RTVSPost2010Prop53
 90
        2
102
RTVSPost2010PropOp53
 70
     1
102
RTVSPost2010Prop54
  1
strokes_ogs.tif
102
RTVSPost2010PropOp54
 70
     1
102
RTVSPost2010Prop55
280
     0
102
RTVSPost2010PropOp55
 70
     1
102
RTVSPost2010Prop56
140
1.0
102
RTVSPost2010PropOp56
 70
     1
102
RTVSPost2010Prop57
140
1.0
102
RTVSPost2010PropOp57
 70
     1
  0
XRECORD
  5
34E
102
{ACAD_REACTORS
330
34D
102
}
330
34D
100
AcDbXrecord
280
     1
102
RTVSPropertyOp0
 70
     0
102
RTVSPropertyOp1
 70
     0
102
RTVSPropertyOp2
 70
     0
102
RTVSPropertyOp3
 70
     0
102
RTVSPropertyOp4
 70
     0
102
RTVSPropertyOp5
 70
     0
102
RTVSPropertyOp6
 70
     0
102
RTVSPropertyOp7
 70
     0
102
RTVSPropertyOp8
 70
     0
102
RTVSPropertyOp9
 70
     0
102
RTVSPropertyOp10
 70
     0
102
RTVSPropertyOp11
 70
     0
102
RTVSPropertyOp12
 70
     0
102
RTVSPropertyOp13
 70
     0
102
RTVSPropertyOp14
 70
     2
102
RTVSPropertyOp15
 70
     0
102
RTVSPropertyOp16
 70
     0
102
RTVSPropertyOp17
 70
     0
102
RTVSPropertyOp18
 70
     0
102
RTVSPropertyOp19
 70
     0
102
RTVSPropertyOp20
 70
     0
102
RTVSPropertyOp21
 70
     0
102
RTVSPropertyOp22
 70
     0
102
RTVSPropertyOp23
 70
     0
102
RTVSPropertyOp24
 70
     0
102
RTVSPropertyOp25
 70
     0
102
RTVSPropertyOp26
 70
     0
102
RTVSPropertyOp27
 70
     0
102
RTVSPropertyOp28
 70
     0
102
RTVSPropertyOp29
 70
     0
102
RTVSPropertyOp30
 70
     0
102
RTVSPropertyOp31
 70
     0
102
RTVSPropertyOp32
 70
     0
102
RTVSPropertyOp33
 70
     0
102
RTVSPropertyOp34
 70
     0
102
RTVSPropertyOp35
 70
     0
102
RTVSPropertyOp36
 70
     0
102
RTVSPropertyOp37
 70
     0
102
RTVSPropertyOp38
 70
     0
102
RTVSPropertyOp39
 70
     0
102
RTVSPropertyOp40
 70
     0
102
RTVSPropertyOp41
 70
     0
102
RTVSPropertyOp42
 70
     0
102
RTVSPropertyOp43
 70
     0
102
RTVSPropertyOp44
 70
     0
102
RTVSPropertyOp45
 70
     0
102
RTVSPropertyOp46
 70
     0
102
RTVSPropertyOp47
 70
     0
102
RTVSPropertyOp48
 70
     0
102
RTVSPropertyOp49
 70
     0
102
RTVSPropertyOp50
 70
     0
102
RTVSPropertyOp51
 70
     0
102
RTVSPropertyOp52
 70
     0
102
RTVSPropertyOp53
 70
     0
102
RTVSPropertyOp54
 70
     0
102
RTVSPropertyOp55
 70
     0
102
RTVSPropertyOp56
 70
     0
102
RTVSPropertyOp57
 70
     0
102
RTVSPost2010Prop28
280
     0
102
RTVSPost2010PropOp28
 70
     0
102
RTVSPost2010Prop29
280
     1
102
RTVSPost2010PropOp29
 70
     0
102
RTVSPost2010Prop30
280
     1
102
RTVSPost2010PropOp30
 70
     0
102
RTVSPost2010Prop31
280
     0
102
RTVSPost2010PropOp31
 70
     0
102
RTVSPost2010Prop32
280
     0
102
RTVSPost2010PropOp32
 70
     0
102
RTVSPost2010Prop33
280
     0
102
RTVSPost2010PropOp33
 70
     0
102
RTVSPost2010Prop34
280
     0
102
RTVSPost2010PropOp34
 70
     0
102
RTVSPost2010Prop35
280
     0
102
RTVSPost2010PropOp35
 70
     0
102
RTVSPost2010Prop36
280
     0
102
RTVSPost2010PropOp36
 70
     0
102
RTVSPost2010Prop37
 90
       50
102
RTVSPost2010PropOp37
 70
     0
102
RTVSPost2010Prop38
140
0.0
102
RTVSPost2010PropOp38
 70
     0
102
RTVSPost2010Prop39
140
1.0
102
RTVSPost2010PropOp39
 70
     0
102
RTVSPost2010Prop40
 90
        0
102
RTVSPost2010PropOp40
 70
     0
102
RTVSPost2010Prop41ColorIndex
 90
       18
102
RTVSPost2010Prop41ColorRGB
 90
        0
102
RTVSPost2010PropOp41
 70
     0
102
RTVSPost2010Prop42
 90
       50
102
RTVSPost2010PropOp42
 70
     0
102
RTVSPost2010Prop43
 90
        3
102
RTVSPost2010PropOp43
 70
     0
102
RTVSPost2010Prop44ColorIndex
 90
        5
102
RTVSPost2010Prop44ColorRGB
 90
      255
102
RTVSPost2010PropOp44
 70
     0
102
RTVSPost2010Prop45
280
     0
102
RTVSPost2010PropOp45
 70
     0
102
RTVSPost2010Prop46
 90
       50
102
RTVSPost2010PropOp46
 70
     0
102
RTVSPost2010Prop47
 90
       50
102
RTVSPost2010PropOp47
 70
     0
102
RTVSPost2010Prop48
 90
       50
102
RTVSPost2010PropOp48
 70
     0
102
RTVSPost2010Prop49
280
     0
102
RTVSPost2010PropOp49
 70
     0
102
RTVSPost2010Prop50
 90
       50
102
RTVSPost2010PropOp50
 70
     0
102
RTVSPost2010Prop51ColorIndex
 90
      256
102
RTVSPost2010Prop51ColorRGB
 90
-16777216
102
RTVSPost2010PropOp51
 70
     0
102
RTVSPost2010Prop52
140
1.0
102
RTVSPost2010PropOp52
 70
     0
102
RTVSPost2010Prop53
 90
        2
102
RTVSPost2010PropOp53
 70
     0
102
RTVSPost2010Prop54
  1
strokes_ogs.tif
102
RTVSPost2010PropOp54
 70
     0
102
RTVSPost2010Prop55
280
     0
102
RTVSPost2010PropOp55
 70
     0
102
RTVSPost2010Prop56
140
1.0
102
RTVSPost2010PropOp56
 70
     0
102
RTVSPost2010Prop57
140
1.0
102
RTVSPost2010PropOp57
 70
     0
  0
XRECORD
  5
33C
102
{ACAD_REACTORS
330
33B
102
}
330
33B
100
AcDbXrecord
280
     1
102
RTVSPropertyOp0
 70
     1
102
RTVSPropertyOp1
 70
     1
102
RTVSPropertyOp2
 70
     1
102
RTVSPropertyOp3
 70
     1
102
RTVSPropertyOp4
 70
     1
102
RTVSPropertyOp5
 70
     1
102
RTVSPropertyOp6
 70
     1
102
RTVSPropertyOp7
 70
     1
102
RTVSPropertyOp8
 70
     1
102
RTVSPropertyOp9
 70
     1
102
RTVSPropertyOp10
 70
     1
102
RTVSPropertyOp11
 70
     1
102
RTVSPropertyOp12
 70
     1
102
RTVSPropertyOp13
 70
     1
102
RTVSPropertyOp14
 70
     1
102
RTVSPropertyOp15
 70
     1
102
RTVSPropertyOp16
 70
     1
102
RTVSPropertyOp17
 70
     1
102
RTVSPropertyOp18
 70
     1
102
RTVSPropertyOp19
 70
     1
102
RTVSPropertyOp20
 70
     1
102
RTVSPropertyOp21
 70
     1
102
RTVSPropertyOp22
 70
     1
102
RTVSPropertyOp23
 70
     1
102
RTVSPropertyOp24
 70
     1
102
RTVSPropertyOp25
 70
     1
102
RTVSPropertyOp26
 70
     1
102
RTVSPropertyOp27
 70
     1
102
RTVSPropertyOp28
 70
     1
102
RTVSPropertyOp29
 70
     1
102
RTVSPropertyOp30
 70
     1
102
RTVSPropertyOp31
 70
     1
102
RTVSPropertyOp32
 70
     1
102
RTVSPropertyOp33
 70
     1
102
RTVSPropertyOp34
 70
     1
102
RTVSPropertyOp35
 70
     1
102
RTVSPropertyOp36
 70
     1
102
RTVSPropertyOp37
 70
     1
102
RTVSPropertyOp38
 70
     1
102
RTVSPropertyOp39
 70
     1
102
RTVSPropertyOp40
 70
     1
102
RTVSPropertyOp41
 70
     1
102
RTVSPropertyOp42
 70
     1
102
RTVSPropertyOp43
 70
     1
102
RTVSPropertyOp44
 70
     1
102
RTVSPropertyOp45
 70
     1
102
RTVSPropertyOp46
 70
     1
102
RTVSPropertyOp47
 70
     1
102
RTVSPropertyOp48
 70
     1
102
RTVSPropertyOp49
 70
     1
102
RTVSPropertyOp50
 70
     1
102
RTVSPropertyOp51
 70
     0
102
RTVSPropertyOp52
 70
     0
102
RTVSPropertyOp53
 70
     1
102
RTVSPropertyOp54
 70
     1
102
RTVSPropertyOp55
 70
     1
102
RTVSPropertyOp56
 70
     1
102
RTVSPropertyOp57
 70
     1
102
RTVSPost2010Prop28
280
     0
102
RTVSPost2010PropOp28
 70
     1
102
RTVSPost2010Prop29
280
     1
102
RTVSPost2010PropOp29
 70
     1
102
RTVSPost2010Prop30
280
     1
102
RTVSPost2010PropOp30
 70
     1
102
RTVSPost2010Prop31
280
     0
102
RTVSPost2010PropOp31
 70
     1
102
RTVSPost2010Prop32
280
     0
102
RTVSPost2010PropOp32
 70
     1
102
RTVSPost2010Prop33
280
     0
102
RTVSPost2010PropOp33
 70
     1
102
RTVSPost2010Prop34
280
     0
102
RTVSPost2010PropOp34
 70
     1
102
RTVSPost2010Prop35
280
     0
102
RTVSPost2010PropOp35
 70
     1
102
RTVSPost2010Prop36
280
     0
102
RTVSPost2010PropOp36
 70
     1
102
RTVSPost2010Prop37
 90
       50
102
RTVSPost2010PropOp37
 70
     1
102
RTVSPost2010Prop38
140
0.0
102
RTVSPost2010PropOp38
 70
     1
102
RTVSPost2010Prop39
140
1.0
102
RTVSPost2010PropOp39
 70
     1
102
RTVSPost2010Prop40
 90
        0
102
RTVSPost2010PropOp40
 70
     1
102
RTVSPost2010Prop41ColorIndex
 90
       18
102
RTVSPost2010Prop41ColorRGB
 90
        0
102
RTVSPost2010PropOp41
 70
     1
102
RTVSPost2010Prop42
 90
       50
102
RTVSPost2010PropOp42
 70
     1
102
RTVSPost2010Prop43
 90
        3
102
RTVSPost2010PropOp43
 70
     1
102
RTVSPost2010Prop44ColorIndex
 90
        5
102
RTVSPost2010Prop44ColorRGB
 90
      255
102
RTVSPost2010PropOp44
 70
     1
102
RTVSPost2010Prop45
280
     0
102
RTVSPost2010PropOp45
 70
     1
102
RTVSPost2010Prop46
 90
       50
102
RTVSPost2010PropOp46
 70
     1
102
RTVSPost2010Prop47
 90
       50
102
RTVSPost2010PropOp47
 70
     1
102
RTVSPost2010Prop48
 90
       50
102
RTVSPost2010PropOp48
 70
     1
102
RTVSPost2010Prop49
280
     0
102
RTVSPost2010PropOp49
 70
     1
102
RTVSPost2010Prop50
 90
       50
102
RTVSPost2010PropOp50
 70
     1
102
RTVSPost2010Prop51ColorIndex
 90
      256
102
RTVSPost2010Prop51ColorRGB
 90
-16777216
102
RTVSPost2010PropOp51
 70
     0
102
RTVSPost2010Prop52
140
1.0
102
RTVSPost2010PropOp52
 70
     0
102
RTVSPost2010Prop53
 90
        2
102
RTVSPost2010PropOp53
 70
     1
102
RTVSPost2010Prop54
  1
strokes_ogs.tif
102
RTVSPost2010PropOp54
 70
     1
102
RTVSPost2010Prop55
280
     0
102
RTVSPost2010PropOp55
 70
     1
102
RTVSPost2010Prop56
140
1.0
102
RTVSPost2010PropOp56
 70
     1
102
RTVSPost2010Prop57
140
1.0
102
RTVSPost2010PropOp57
 70
     1
  0
XRECORD
  5
35A
102
{ACAD_REACTORS
330
359
102
}
330
359
100
AcDbXrecord
280
     1
102
RTVSPropertyOp0
 70
     1
102
RTVSPropertyOp1
 70
     1
102
RTVSPropertyOp2
 70
     1
102
RTVSPropertyOp3
 70
     1
102
RTVSPropertyOp4
 70
     1
102
RTVSPropertyOp5
 70
     1
102
RTVSPropertyOp6
 70
     1
102
RTVSPropertyOp7
 70
     1
102
RTVSPropertyOp8
 70
     1
102
RTVSPropertyOp9
 70
     1
102
RTVSPropertyOp10
 70
     1
102
RTVSPropertyOp11
 70
     1
102
RTVSPropertyOp12
 70
     1
102
RTVSPropertyOp13
 70
     1
102
RTVSPropertyOp14
 70
     1
102
RTVSPropertyOp15
 70
     1
102
RTVSPropertyOp16
 70
     1
102
RTVSPropertyOp17
 70
     1
102
RTVSPropertyOp18
 70
     1
102
RTVSPropertyOp19
 70
     1
102
RTVSPropertyOp20
 70
     1
102
RTVSPropertyOp21
 70
     1
102
RTVSPropertyOp22
 70
     1
102
RTVSPropertyOp23
 70
     1
102
RTVSPropertyOp24
 70
     1
102
RTVSPropertyOp25
 70
     1
102
RTVSPropertyOp26
 70
     1
102
RTVSPropertyOp27
 70
     1
102
RTVSPropertyOp28
 70
     1
102
RTVSPropertyOp29
 70
     1
102
RTVSPropertyOp30
 70
     1
102
RTVSPropertyOp31
 70
     1
102
RTVSPropertyOp32
 70
     1
102
RTVSPropertyOp33
 70
     1
102
RTVSPropertyOp34
 70
     1
102
RTVSPropertyOp35
 70
     1
102
RTVSPropertyOp36
 70
     1
102
RTVSPropertyOp37
 70
     1
102
RTVSPropertyOp38
 70
     1
102
RTVSPropertyOp39
 70
     1
102
RTVSPropertyOp40
 70
     1
102
RTVSPropertyOp41
 70
     1
102
RTVSPropertyOp42
 70
     1
102
RTVSPropertyOp43
 70
     1
102
RTVSPropertyOp44
 70
     1
102
RTVSPropertyOp45
 70
     1
102
RTVSPropertyOp46
 70
     1
102
RTVSPropertyOp47
 70
     1
102
RTVSPropertyOp48
 70
     1
102
RTVSPropertyOp49
 70
     1
102
RTVSPropertyOp50
 70
     1
102
RTVSPropertyOp51
 70
     0
102
RTVSPropertyOp52
 70
     0
102
RTVSPropertyOp53
 70
     1
102
RTVSPropertyOp54
 70
     1
102
RTVSPropertyOp55
 70
     1
102
RTVSPropertyOp56
 70
     1
102
RTVSPropertyOp57
 70
     1
102
RTVSPost2010Prop28
280
     0
102
RTVSPost2010PropOp28
 70
     1
102
RTVSPost2010Prop29
280
     1
102
RTVSPost2010PropOp29
 70
     1
102
RTVSPost2010Prop30
280
     1
102
RTVSPost2010PropOp30
 70
     1
102
RTVSPost2010Prop31
280
     0
102
RTVSPost2010PropOp31
 70
     1
102
RTVSPost2010Prop32
280
     0
102
RTVSPost2010PropOp32
 70
     1
102
RTVSPost2010Prop33
280
     0
102
RTVSPost2010PropOp33
 70
     1
102
RTVSPost2010Prop34
280
     0
102
RTVSPost2010PropOp34
 70
     1
102
RTVSPost2010Prop35
280
     0
102
RTVSPost2010PropOp35
 70
     1
102
RTVSPost2010Prop36
280
     0
102
RTVSPost2010PropOp36
 70
     1
102
RTVSPost2010Prop37
 90
       50
102
RTVSPost2010PropOp37
 70
     1
102
RTVSPost2010Prop38
140
0.0
102
RTVSPost2010PropOp38
 70
     1
102
RTVSPost2010Prop39
140
1.0
102
RTVSPost2010PropOp39
 70
     1
102
RTVSPost2010Prop40
 90
        0
102
RTVSPost2010PropOp40
 70
     1
102
RTVSPost2010Prop41ColorIndex
 90
       18
102
RTVSPost2010Prop41ColorRGB
 90
        0
102
RTVSPost2010PropOp41
 70
     1
102
RTVSPost2010Prop42
 90
       50
102
RTVSPost2010PropOp42
 70
     1
102
RTVSPost2010Prop43
 90
        3
102
RTVSPost2010PropOp43
 70
     1
102
RTVSPost2010Prop44ColorIndex
 90
        5
102
RTVSPost2010Prop44ColorRGB
 90
      255
102
RTVSPost2010PropOp44
 70
     1
102
RTVSPost2010Prop45
280
     0
102
RTVSPost2010PropOp45
 70
     1
102
RTVSPost2010Prop46
 90
       50
102
RTVSPost2010PropOp46
 70
     1
102
RTVSPost2010Prop47
 90
       50
102
RTVSPost2010PropOp47
 70
     1
102
RTVSPost2010Prop48
 90
       50
102
RTVSPost2010PropOp48
 70
     1
102
RTVSPost2010Prop49
280
     0
102
RTVSPost2010PropOp49
 70
     1
102
RTVSPost2010Prop50
 90
       50
102
RTVSPost2010PropOp50
 70
     1
102
RTVSPost2010Prop51ColorIndex
 90
      256
102
RTVSPost2010Prop51ColorRGB
 90
-16777216
102
RTVSPost2010PropOp51
 70
     0
102
RTVSPost2010Prop52
140
1.0
102
RTVSPost2010PropOp52
 70
     0
102
RTVSPost2010Prop53
 90
        2
102
RTVSPost2010PropOp53
 70
     1
102
RTVSPost2010Prop54
  1
strokes_ogs.tif
102
RTVSPost2010PropOp54
 70
     1
102
RTVSPost2010Prop55
280
     0
102
RTVSPost2010PropOp55
 70
     1
102
RTVSPost2010Prop56
140
1.0
102
RTVSPost2010PropOp56
 70
     1
102
RTVSPost2010Prop57
140
1.0
102
RTVSPost2010PropOp57
 70
     1
  0
XRECORD
  5
358
102
{ACAD_REACTORS
330
357
102
}
330
357
100
AcDbXrecord
280
     1
102
RTVSPropertyOp0
 70
     1
102
RTVSPropertyOp1
 70
     1
102
RTVSPropertyOp2
 70
     1
102
RTVSPropertyOp3
 70
     1
102
RTVSPropertyOp4
 70
     1
102
RTVSPropertyOp5
 70
     1
102
RTVSPropertyOp6
 70
     1
102
RTVSPropertyOp7
 70
     1
102
RTVSPropertyOp8
 70
     1
102
RTVSPropertyOp9
 70
     1
102
RTVSPropertyOp10
 70
     1
102
RTVSPropertyOp11
 70
     1
102
RTVSPropertyOp12
 70
     1
102
RTVSPropertyOp13
 70
     1
102
RTVSPropertyOp14
 70
     1
102
RTVSPropertyOp15
 70
     1
102
RTVSPropertyOp16
 70
     1
102
RTVSPropertyOp17
 70
     1
102
RTVSPropertyOp18
 70
     1
102
RTVSPropertyOp19
 70
     1
102
RTVSPropertyOp20
 70
     1
102
RTVSPropertyOp21
 70
     1
102
RTVSPropertyOp22
 70
     1
102
RTVSPropertyOp23
 70
     1
102
RTVSPropertyOp24
 70
     1
102
RTVSPropertyOp25
 70
     1
102
RTVSPropertyOp26
 70
     1
102
RTVSPropertyOp27
 70
     1
102
RTVSPropertyOp28
 70
     1
102
RTVSPropertyOp29
 70
     1
102
RTVSPropertyOp30
 70
     1
102
RTVSPropertyOp31
 70
     1
102
RTVSPropertyOp32
 70
     1
102
RTVSPropertyOp33
 70
     1
102
RTVSPropertyOp34
 70
     1
102
RTVSPropertyOp35
 70
     1
102
RTVSPropertyOp36
 70
     1
102
RTVSPropertyOp37
 70
     1
102
RTVSPropertyOp38
 70
     1
102
RTVSPropertyOp39
 70
     1
102
RTVSPropertyOp40
 70
     1
102
RTVSPropertyOp41
 70
     1
102
RTVSPropertyOp42
 70
     1
102
RTVSPropertyOp43
 70
     1
102
RTVSPropertyOp44
 70
     1
102
RTVSPropertyOp45
 70
     1
102
RTVSPropertyOp46
 70
     1
102
RTVSPropertyOp47
 70
     1
102
RTVSPropertyOp48
 70
     1
102
RTVSPropertyOp49
 70
     1
102
RTVSPropertyOp50
 70
     1
102
RTVSPropertyOp51
 70
     0
102
RTVSPropertyOp52
 70
     0
102
RTVSPropertyOp53
 70
     1
102
RTVSPropertyOp54
 70
     1
102
RTVSPropertyOp55
 70
     1
102
RTVSPropertyOp56
 70
     1
102
RTVSPropertyOp57
 70
     1
102
RTVSPost2010Prop28
280
     0
102
RTVSPost2010PropOp28
 70
     1
102
RTVSPost2010Prop29
280
     1
102
RTVSPost2010PropOp29
 70
     1
102
RTVSPost2010Prop30
280
     1
102
RTVSPost2010PropOp30
 70
     1
102
RTVSPost2010Prop31
280
     0
102
RTVSPost2010PropOp31
 70
     1
102
RTVSPost2010Prop32
280
     0
102
RTVSPost2010PropOp32
 70
     1
102
RTVSPost2010Prop33
280
     0
102
RTVSPost2010PropOp33
 70
     1
102
RTVSPost2010Prop34
280
     0
102
RTVSPost2010PropOp34
 70
     1
102
RTVSPost2010Prop35
280
     0
102
RTVSPost2010PropOp35
 70
     1
102
RTVSPost2010Prop36
280
     0
102
RTVSPost2010PropOp36
 70
     1
102
RTVSPost2010Prop37
 90
       50
102
RTVSPost2010PropOp37
 70
     1
102
RTVSPost2010Prop38
140
0.0
102
RTVSPost2010PropOp38
 70
     1
102
RTVSPost2010Prop39
140
1.0
102
RTVSPost2010PropOp39
 70
     1
102
RTVSPost2010Prop40
 90
        0
102
RTVSPost2010PropOp40
 70
     1
102
RTVSPost2010Prop41ColorIndex
 90
       18
102
RTVSPost2010Prop41ColorRGB
 90
        0
102
RTVSPost2010PropOp41
 70
     1
102
RTVSPost2010Prop42
 90
       50
102
RTVSPost2010PropOp42
 70
     1
102
RTVSPost2010Prop43
 90
        3
102
RTVSPost2010PropOp43
 70
     1
102
RTVSPost2010Prop44ColorIndex
 90
        5
102
RTVSPost2010Prop44ColorRGB
 90
      255
102
RTVSPost2010PropOp44
 70
     1
102
RTVSPost2010Prop45
280
     0
102
RTVSPost2010PropOp45
 70
     1
102
RTVSPost2010Prop46
 90
       50
102
RTVSPost2010PropOp46
 70
     1
102
RTVSPost2010Prop47
 90
       50
102
RTVSPost2010PropOp47
 70
     1
102
RTVSPost2010Prop48
 90
       50
102
RTVSPost2010PropOp48
 70
     1
102
RTVSPost2010Prop49
280
     0
102
RTVSPost2010PropOp49
 70
     1
102
RTVSPost2010Prop50
 90
       50
102
RTVSPost2010PropOp50
 70
     1
102
RTVSPost2010Prop51ColorIndex
 90
      256
102
RTVSPost2010Prop51ColorRGB
 90
-16777216
102
RTVSPost2010PropOp51
 70
     0
102
RTVSPost2010Prop52
140
1.0
102
RTVSPost2010PropOp52
 70
     0
102
RTVSPost2010Prop53
 90
        2
102
RTVSPost2010PropOp53
 70
     1
102
RTVSPost2010Prop54
  1
strokes_ogs.tif
102
RTVSPost2010PropOp54
 70
     1
102
RTVSPost2010Prop55
280
     0
102
RTVSPost2010PropOp55
 70
     1
102
RTVSPost2010Prop56
140
1.0
102
RTVSPost2010PropOp56
 70
     1
102
RTVSPost2010Prop57
140
1.0
102
RTVSPost2010PropOp57
 70
     1
  0
XRECORD
  5
352
102
{ACAD_REACTORS
330
351
102
}
330
351
100
AcDbXrecord
280
     1
102
RTVSPropertyOp0
 70
     1
102
RTVSPropertyOp1
 70
     1
102
RTVSPropertyOp2
 70
     1
102
RTVSPropertyOp3
 70
     1
102
RTVSPropertyOp4
 70
     1
102
RTVSPropertyOp5
 70
     1
102
RTVSPropertyOp6
 70
     1
102
RTVSPropertyOp7
 70
     1
102
RTVSPropertyOp8
 70
     1
102
RTVSPropertyOp9
 70
     1
102
RTVSPropertyOp10
 70
     1
102
RTVSPropertyOp11
 70
     1
102
RTVSPropertyOp12
 70
     1
102
RTVSPropertyOp13
 70
     1
102
RTVSPropertyOp14
 70
     1
102
RTVSPropertyOp15
 70
     1
102
RTVSPropertyOp16
 70
     1
102
RTVSPropertyOp17
 70
     1
102
RTVSPropertyOp18
 70
     1
102
RTVSPropertyOp19
 70
     1
102
RTVSPropertyOp20
 70
     1
102
RTVSPropertyOp21
 70
     1
102
RTVSPropertyOp22
 70
     1
102
RTVSPropertyOp23
 70
     1
102
RTVSPropertyOp24
 70
     1
102
RTVSPropertyOp25
 70
     1
102
RTVSPropertyOp26
 70
     1
102
RTVSPropertyOp27
 70
     1
102
RTVSPropertyOp28
 70
     1
102
RTVSPropertyOp29
 70
     1
102
RTVSPropertyOp30
 70
     1
102
RTVSPropertyOp31
 70
     1
102
RTVSPropertyOp32
 70
     1
102
RTVSPropertyOp33
 70
     1
102
RTVSPropertyOp34
 70
     1
102
RTVSPropertyOp35
 70
     1
102
RTVSPropertyOp36
 70
     1
102
RTVSPropertyOp37
 70
     1
102
RTVSPropertyOp38
 70
     1
102
RTVSPropertyOp39
 70
     1
102
RTVSPropertyOp40
 70
     1
102
RTVSPropertyOp41
 70
     1
102
RTVSPropertyOp42
 70
     1
102
RTVSPropertyOp43
 70
     1
102
RTVSPropertyOp44
 70
     1
102
RTVSPropertyOp45
 70
     1
102
RTVSPropertyOp46
 70
     1
102
RTVSPropertyOp47
 70
     1
102
RTVSPropertyOp48
 70
     1
102
RTVSPropertyOp49
 70
     1
102
RTVSPropertyOp50
 70
     1
102
RTVSPropertyOp51
 70
     0
102
RTVSPropertyOp52
 70
     0
102
RTVSPropertyOp53
 70
     1
102
RTVSPropertyOp54
 70
     1
102
RTVSPropertyOp55
 70
     1
102
RTVSPropertyOp56
 70
     1
102
RTVSPropertyOp57
 70
     1
102
RTVSPost2010Prop28
280
     0
102
RTVSPost2010PropOp28
 70
     1
102
RTVSPost2010Prop29
280
     1
102
RTVSPost2010PropOp29
 70
     1
102
RTVSPost2010Prop30
280
     1
102
RTVSPost2010PropOp30
 70
     1
102
RTVSPost2010Prop31
280
     0
102
RTVSPost2010PropOp31
 70
     1
102
RTVSPost2010Prop32
280
     0
102
RTVSPost2010PropOp32
 70
     1
102
RTVSPost2010Prop33
280
     0
102
RTVSPost2010PropOp33
 70
     1
102
RTVSPost2010Prop34
280
     0
102
RTVSPost2010PropOp34
 70
     1
102
RTVSPost2010Prop35
280
     0
102
RTVSPost2010PropOp35
 70
     1
102
RTVSPost2010Prop36
280
     0
102
RTVSPost2010PropOp36
 70
     1
102
RTVSPost2010Prop37
 90
       50
102
RTVSPost2010PropOp37
 70
     1
102
RTVSPost2010Prop38
140
0.0
102
RTVSPost2010PropOp38
 70
     1
102
RTVSPost2010Prop39
140
1.0
102
RTVSPost2010PropOp39
 70
     1
102
RTVSPost2010Prop40
 90
        0
102
RTVSPost2010PropOp40
 70
     1
102
RTVSPost2010Prop41ColorIndex
 90
       18
102
RTVSPost2010Prop41ColorRGB
 90
        0
102
RTVSPost2010PropOp41
 70
     1
102
RTVSPost2010Prop42
 90
       50
102
RTVSPost2010PropOp42
 70
     1
102
RTVSPost2010Prop43
 90
        3
102
RTVSPost2010PropOp43
 70
     1
102
RTVSPost2010Prop44ColorIndex
 90
        5
102
RTVSPost2010Prop44ColorRGB
 90
      255
102
RTVSPost2010PropOp44
 70
     1
102
RTVSPost2010Prop45
280
     0
102
RTVSPost2010PropOp45
 70
     1
102
RTVSPost2010Prop46
 90
       50
102
RTVSPost2010PropOp46
 70
     1
102
RTVSPost2010Prop47
 90
       50
102
RTVSPost2010PropOp47
 70
     1
102
RTVSPost2010Prop48
 90
       50
102
RTVSPost2010PropOp48
 70
     1
102
RTVSPost2010Prop49
280
     0
102
RTVSPost2010PropOp49
 70
     1
102
RTVSPost2010Prop50
 90
       50
102
RTVSPost2010PropOp50
 70
     1
102
RTVSPost2010Prop51ColorIndex
 90
      256
102
RTVSPost2010Prop51ColorRGB
 90
-16777216
102
RTVSPost2010PropOp51
 70
     0
102
RTVSPost2010Prop52
140
1.0
102
RTVSPost2010PropOp52
 70
     0
102
RTVSPost2010Prop53
 90
        2
102
RTVSPost2010PropOp53
 70
     1
102
RTVSPost2010Prop54
  1
strokes_ogs.tif
102
RTVSPost2010PropOp54
 70
     1
102
RTVSPost2010Prop55
280
     0
102
RTVSPost2010PropOp55
 70
     1
102
RTVSPost2010Prop56
140
1.0
102
RTVSPost2010PropOp56
 70
     1
102
RTVSPost2010Prop57
140
1.0
102
RTVSPost2010PropOp57
 70
     1
  0
XRECORD
  5
354
102
{ACAD_REACTORS
330
353
102
}
330
353
100
AcDbXrecord
280
     1
102
RTVSPropertyOp0
 70
     1
102
RTVSPropertyOp1
 70
     1
102
RTVSPropertyOp2
 70
     1
102
RTVSPropertyOp3
 70
     1
102
RTVSPropertyOp4
 70
     1
102
RTVSPropertyOp5
 70
     1
102
RTVSPropertyOp6
 70
     1
102
RTVSPropertyOp7
 70
     1
102
RTVSPropertyOp8
 70
     1
102
RTVSPropertyOp9
 70
     1
102
RTVSPropertyOp10
 70
     1
102
RTVSPropertyOp11
 70
     1
102
RTVSPropertyOp12
 70
     1
102
RTVSPropertyOp13
 70
     1
102
RTVSPropertyOp14
 70
     1
102
RTVSPropertyOp15
 70
     1
102
RTVSPropertyOp16
 70
     1
102
RTVSPropertyOp17
 70
     1
102
RTVSPropertyOp18
 70
     1
102
RTVSPropertyOp19
 70
     1
102
RTVSPropertyOp20
 70
     1
102
RTVSPropertyOp21
 70
     1
102
RTVSPropertyOp22
 70
     1
102
RTVSPropertyOp23
 70
     1
102
RTVSPropertyOp24
 70
     1
102
RTVSPropertyOp25
 70
     1
102
RTVSPropertyOp26
 70
     1
102
RTVSPropertyOp27
 70
     1
102
RTVSPropertyOp28
 70
     1
102
RTVSPropertyOp29
 70
     1
102
RTVSPropertyOp30
 70
     1
102
RTVSPropertyOp31
 70
     1
102
RTVSPropertyOp32
 70
     1
102
RTVSPropertyOp33
 70
     1
102
RTVSPropertyOp34
 70
     1
102
RTVSPropertyOp35
 70
     1
102
RTVSPropertyOp36
 70
     1
102
RTVSPropertyOp37
 70
     1
102
RTVSPropertyOp38
 70
     1
102
RTVSPropertyOp39
 70
     1
102
RTVSPropertyOp40
 70
     1
102
RTVSPropertyOp41
 70
     1
102
RTVSPropertyOp42
 70
     1
102
RTVSPropertyOp43
 70
     1
102
RTVSPropertyOp44
 70
     1
102
RTVSPropertyOp45
 70
     1
102
RTVSPropertyOp46
 70
     1
102
RTVSPropertyOp47
 70
     1
102
RTVSPropertyOp48
 70
     1
102
RTVSPropertyOp49
 70
     1
102
RTVSPropertyOp50
 70
     1
102
RTVSPropertyOp51
 70
     0
102
RTVSPropertyOp52
 70
     0
102
RTVSPropertyOp53
 70
     1
102
RTVSPropertyOp54
 70
     1
102
RTVSPropertyOp55
 70
     1
102
RTVSPropertyOp56
 70
     1
102
RTVSPropertyOp57
 70
     1
102
RTVSPost2010Prop28
280
     0
102
RTVSPost2010PropOp28
 70
     1
102
RTVSPost2010Prop29
280
     1
102
RTVSPost2010PropOp29
 70
     1
102
RTVSPost2010Prop30
280
     1
102
RTVSPost2010PropOp30
 70
     1
102
RTVSPost2010Prop31
280
     0
102
RTVSPost2010PropOp31
 70
     1
102
RTVSPost2010Prop32
280
     0
102
RTVSPost2010PropOp32
 70
     1
102
RTVSPost2010Prop33
280
     0
102
RTVSPost2010PropOp33
 70
     1
102
RTVSPost2010Prop34
280
     0
102
RTVSPost2010PropOp34
 70
     1
102
RTVSPost2010Prop35
280
     0
102
RTVSPost2010PropOp35
 70
     1
102
RTVSPost2010Prop36
280
     0
102
RTVSPost2010PropOp36
 70
     1
102
RTVSPost2010Prop37
 90
       50
102
RTVSPost2010PropOp37
 70
     1
102
RTVSPost2010Prop38
140
0.0
102
RTVSPost2010PropOp38
 70
     1
102
RTVSPost2010Prop39
140
1.0
102
RTVSPost2010PropOp39
 70
     1
102
RTVSPost2010Prop40
 90
        0
102
RTVSPost2010PropOp40
 70
     1
102
RTVSPost2010Prop41ColorIndex
 90
       18
102
RTVSPost2010Prop41ColorRGB
 90
        0
102
RTVSPost2010PropOp41
 70
     1
102
RTVSPost2010Prop42
 90
       50
102
RTVSPost2010PropOp42
 70
     1
102
RTVSPost2010Prop43
 90
        3
102
RTVSPost2010PropOp43
 70
     1
102
RTVSPost2010Prop44ColorIndex
 90
        5
102
RTVSPost2010Prop44ColorRGB
 90
      255
102
RTVSPost2010PropOp44
 70
     1
102
RTVSPost2010Prop45
280
     0
102
RTVSPost2010PropOp45
 70
     1
102
RTVSPost2010Prop46
 90
       50
102
RTVSPost2010PropOp46
 70
     1
102
RTVSPost2010Prop47
 90
       50
102
RTVSPost2010PropOp47
 70
     1
102
RTVSPost2010Prop48
 90
       50
102
RTVSPost2010PropOp48
 70
     1
102
RTVSPost2010Prop49
280
     0
102
RTVSPost2010PropOp49
 70
     1
102
RTVSPost2010Prop50
 90
       50
102
RTVSPost2010PropOp50
 70
     1
102
RTVSPost2010Prop51ColorIndex
 90
      256
102
RTVSPost2010Prop51ColorRGB
 90
-16777216
102
RTVSPost2010PropOp51
 70
     0
102
RTVSPost2010Prop52
140
1.0
102
RTVSPost2010PropOp52
 70
     0
102
RTVSPost2010Prop53
 90
        2
102
RTVSPost2010PropOp53
 70
     1
102
RTVSPost2010Prop54
  1
strokes_ogs.tif
102
RTVSPost2010PropOp54
 70
     1
102
RTVSPost2010Prop55
280
     0
102
RTVSPost2010PropOp55
 70
     1
102
RTVSPost2010Prop56
140
1.0
102
RTVSPost2010PropOp56
 70
     1
102
RTVSPost2010Prop57
140
1.0
102
RTVSPost2010PropOp57
 70
     1
  0
XRECORD
  5
344
102
{ACAD_REACTORS
330
343
102
}
330
343
100
AcDbXrecord
280
     1
102
RTVSPropertyOp0
 70
     1
102
RTVSPropertyOp1
 70
     1
102
RTVSPropertyOp2
 70
     1
102
RTVSPropertyOp3
 70
     1
102
RTVSPropertyOp4
 70
     1
102
RTVSPropertyOp5
 70
     1
102
RTVSPropertyOp6
 70
     1
102
RTVSPropertyOp7
 70
     1
102
RTVSPropertyOp8
 70
     1
102
RTVSPropertyOp9
 70
     1
102
RTVSPropertyOp10
 70
     1
102
RTVSPropertyOp11
 70
     1
102
RTVSPropertyOp12
 70
     1
102
RTVSPropertyOp13
 70
     1
102
RTVSPropertyOp14
 70
     1
102
RTVSPropertyOp15
 70
     1
102
RTVSPropertyOp16
 70
     1
102
RTVSPropertyOp17
 70
     1
102
RTVSPropertyOp18
 70
     1
102
RTVSPropertyOp19
 70
     1
102
RTVSPropertyOp20
 70
     1
102
RTVSPropertyOp21
 70
     1
102
RTVSPropertyOp22
 70
     1
102
RTVSPropertyOp23
 70
     1
102
RTVSPropertyOp24
 70
     1
102
RTVSPropertyOp25
 70
     1
102
RTVSPropertyOp26
 70
     1
102
RTVSPropertyOp27
 70
     1
102
RTVSPropertyOp28
 70
     1
102
RTVSPropertyOp29
 70
     1
102
RTVSPropertyOp30
 70
     1
102
RTVSPropertyOp31
 70
     1
102
RTVSPropertyOp32
 70
     1
102
RTVSPropertyOp33
 70
     1
102
RTVSPropertyOp34
 70
     1
102
RTVSPropertyOp35
 70
     1
102
RTVSPropertyOp36
 70
     1
102
RTVSPropertyOp37
 70
     1
102
RTVSPropertyOp38
 70
     1
102
RTVSPropertyOp39
 70
     1
102
RTVSPropertyOp40
 70
     1
102
RTVSPropertyOp41
 70
     1
102
RTVSPropertyOp42
 70
     1
102
RTVSPropertyOp43
 70
     1
102
RTVSPropertyOp44
 70
     1
102
RTVSPropertyOp45
 70
     1
102
RTVSPropertyOp46
 70
     1
102
RTVSPropertyOp47
 70
     1
102
RTVSPropertyOp48
 70
     1
102
RTVSPropertyOp49
 70
     1
102
RTVSPropertyOp50
 70
     1
102
RTVSPropertyOp51
 70
     0
102
RTVSPropertyOp52
 70
     0
102
RTVSPropertyOp53
 70
     1
102
RTVSPropertyOp54
 70
     1
102
RTVSPropertyOp55
 70
     1
102
RTVSPropertyOp56
 70
     1
102
RTVSPropertyOp57
 70
     1
102
RTVSPost2010Prop28
280
     0
102
RTVSPost2010PropOp28
 70
     1
102
RTVSPost2010Prop29
280
     1
102
RTVSPost2010PropOp29
 70
     1
102
RTVSPost2010Prop30
280
     1
102
RTVSPost2010PropOp30
 70
     1
102
RTVSPost2010Prop31
280
     0
102
RTVSPost2010PropOp31
 70
     1
102
RTVSPost2010Prop32
280
     0
102
RTVSPost2010PropOp32
 70
     1
102
RTVSPost2010Prop33
280
     0
102
RTVSPost2010PropOp33
 70
     1
102
RTVSPost2010Prop34
280
     0
102
RTVSPost2010PropOp34
 70
     1
102
RTVSPost2010Prop35
280
     0
102
RTVSPost2010PropOp35
 70
     1
102
RTVSPost2010Prop36
280
     0
102
RTVSPost2010PropOp36
 70
     1
102
RTVSPost2010Prop37
 90
       50
102
RTVSPost2010PropOp37
 70
     1
102
RTVSPost2010Prop38
140
0.0
102
RTVSPost2010PropOp38
 70
     1
102
RTVSPost2010Prop39
140
1.0
102
RTVSPost2010PropOp39
 70
     1
102
RTVSPost2010Prop40
 90
        0
102
RTVSPost2010PropOp40
 70
     1
102
RTVSPost2010Prop41ColorIndex
 90
       18
102
RTVSPost2010Prop41ColorRGB
 90
        0
102
RTVSPost2010PropOp41
 70
     1
102
RTVSPost2010Prop42
 90
       50
102
RTVSPost2010PropOp42
 70
     1
102
RTVSPost2010Prop43
 90
        3
102
RTVSPost2010PropOp43
 70
     1
102
RTVSPost2010Prop44ColorIndex
 90
        5
102
RTVSPost2010Prop44ColorRGB
 90
      255
102
RTVSPost2010PropOp44
 70
     1
102
RTVSPost2010Prop45
280
     0
102
RTVSPost2010PropOp45
 70
     1
102
RTVSPost2010Prop46
 90
       50
102
RTVSPost2010PropOp46
 70
     1
102
RTVSPost2010Prop47
 90
       50
102
RTVSPost2010PropOp47
 70
     1
102
RTVSPost2010Prop48
 90
       50
102
RTVSPost2010PropOp48
 70
     1
102
RTVSPost2010Prop49
280
     0
102
RTVSPost2010PropOp49
 70
     1
102
RTVSPost2010Prop50
 90
       50
102
RTVSPost2010PropOp50
 70
     1
102
RTVSPost2010Prop51ColorIndex
 90
      256
102
RTVSPost2010Prop51ColorRGB
 90
-16777216
102
RTVSPost2010PropOp51
 70
     0
102
RTVSPost2010Prop52
140
1.0
102
RTVSPost2010PropOp52
 70
     0
102
RTVSPost2010Prop53
 90
        2
102
RTVSPost2010PropOp53
 70
     1
102
RTVSPost2010Prop54
  1
strokes_ogs.tif
102
RTVSPost2010PropOp54
 70
     1
102
RTVSPost2010Prop55
280
     0
102
RTVSPost2010PropOp55
 70
     1
102
RTVSPost2010Prop56
140
1.0
102
RTVSPost2010PropOp56
 70
     1
102
RTVSPost2010Prop57
140
1.0
102
RTVSPost2010PropOp57
 70
     1
  0
XRECORD
  5
336
102
{ACAD_REACTORS
330
335
102
}
330
335
100
AcDbXrecord
280
     1
102
RTVSPropertyOp0
 70
     1
102
RTVSPropertyOp1
 70
     1
102
RTVSPropertyOp2
 70
     1
102
RTVSPropertyOp3
 70
     1
102
RTVSPropertyOp4
 70
     1
102
RTVSPropertyOp5
 70
     1
102
RTVSPropertyOp6
 70
     1
102
RTVSPropertyOp7
 70
     1
102
RTVSPropertyOp8
 70
     1
102
RTVSPropertyOp9
 70
     1
102
RTVSPropertyOp10
 70
     1
102
RTVSPropertyOp11
 70
     1
102
RTVSPropertyOp12
 70
     1
102
RTVSPropertyOp13
 70
     1
102
RTVSPropertyOp14
 70
     1
102
RTVSPropertyOp15
 70
     1
102
RTVSPropertyOp16
 70
     1
102
RTVSPropertyOp17
 70
     1
102
RTVSPropertyOp18
 70
     1
102
RTVSPropertyOp19
 70
     1
102
RTVSPropertyOp20
 70
     1
102
RTVSPropertyOp21
 70
     1
102
RTVSPropertyOp22
 70
     1
102
RTVSPropertyOp23
 70
     1
102
RTVSPropertyOp24
 70
     1
102
RTVSPropertyOp25
 70
     1
102
RTVSPropertyOp26
 70
     1
102
RTVSPropertyOp27
 70
     1
102
RTVSPropertyOp28
 70
     1
102
RTVSPropertyOp29
 70
     1
102
RTVSPropertyOp30
 70
     1
102
RTVSPropertyOp31
 70
     1
102
RTVSPropertyOp32
 70
     1
102
RTVSPropertyOp33
 70
     1
102
RTVSPropertyOp34
 70
     1
102
RTVSPropertyOp35
 70
     1
102
RTVSPropertyOp36
 70
     1
102
RTVSPropertyOp37
 70
     1
102
RTVSPropertyOp38
 70
     1
102
RTVSPropertyOp39
 70
     1
102
RTVSPropertyOp40
 70
     1
102
RTVSPropertyOp41
 70
     1
102
RTVSPropertyOp42
 70
     1
102
RTVSPropertyOp43
 70
     1
102
RTVSPropertyOp44
 70
     1
102
RTVSPropertyOp45
 70
     1
102
RTVSPropertyOp46
 70
     1
102
RTVSPropertyOp47
 70
     1
102
RTVSPropertyOp48
 70
     1
102
RTVSPropertyOp49
 70
     1
102
RTVSPropertyOp50
 70
     1
102
RTVSPropertyOp51
 70
     0
102
RTVSPropertyOp52
 70
     0
102
RTVSPropertyOp53
 70
     1
102
RTVSPropertyOp54
 70
     1
102
RTVSPropertyOp55
 70
     1
102
RTVSPropertyOp56
 70
     1
102
RTVSPropertyOp57
 70
     1
102
RTVSPost2010Prop28
280
     0
102
RTVSPost2010PropOp28
 70
     1
102
RTVSPost2010Prop29
280
     1
102
RTVSPost2010PropOp29
 70
     1
102
RTVSPost2010Prop30
280
     1
102
RTVSPost2010PropOp30
 70
     1
102
RTVSPost2010Prop31
280
     0
102
RTVSPost2010PropOp31
 70
     1
102
RTVSPost2010Prop32
280
     0
102
RTVSPost2010PropOp32
 70
     1
102
RTVSPost2010Prop33
280
     0
102
RTVSPost2010PropOp33
 70
     1
102
RTVSPost2010Prop34
280
     0
102
RTVSPost2010PropOp34
 70
     1
102
RTVSPost2010Prop35
280
     0
102
RTVSPost2010PropOp35
 70
     1
102
RTVSPost2010Prop36
280
     0
102
RTVSPost2010PropOp36
 70
     1
102
RTVSPost2010Prop37
 90
       50
102
RTVSPost2010PropOp37
 70
     1
102
RTVSPost2010Prop38
140
0.0
102
RTVSPost2010PropOp38
 70
     1
102
RTVSPost2010Prop39
140
1.0
102
RTVSPost2010PropOp39
 70
     1
102
RTVSPost2010Prop40
 90
        0
102
RTVSPost2010PropOp40
 70
     1
102
RTVSPost2010Prop41ColorIndex
 90
       18
102
RTVSPost2010Prop41ColorRGB
 90
        0
102
RTVSPost2010PropOp41
 70
     1
102
RTVSPost2010Prop42
 90
       50
102
RTVSPost2010PropOp42
 70
     1
102
RTVSPost2010Prop43
 90
        3
102
RTVSPost2010PropOp43
 70
     1
102
RTVSPost2010Prop44ColorIndex
 90
        5
102
RTVSPost2010Prop44ColorRGB
 90
      255
102
RTVSPost2010PropOp44
 70
     1
102
RTVSPost2010Prop45
280
     0
102
RTVSPost2010PropOp45
 70
     1
102
RTVSPost2010Prop46
 90
       50
102
RTVSPost2010PropOp46
 70
     1
102
RTVSPost2010Prop47
 90
       50
102
RTVSPost2010PropOp47
 70
     1
102
RTVSPost2010Prop48
 90
       50
102
RTVSPost2010PropOp48
 70
     1
102
RTVSPost2010Prop49
280
     0
102
RTVSPost2010PropOp49
 70
     1
102
RTVSPost2010Prop50
 90
       50
102
RTVSPost2010PropOp50
 70
     1
102
RTVSPost2010Prop51ColorIndex
 90
      256
102
RTVSPost2010Prop51ColorRGB
 90
-16777216
102
RTVSPost2010PropOp51
 70
     0
102
RTVSPost2010Prop52
140
1.0
102
RTVSPost2010PropOp52
 70
     0
102
RTVSPost2010Prop53
 90
        2
102
RTVSPost2010PropOp53
 70
     1
102
RTVSPost2010Prop54
  1
strokes_ogs.tif
102
RTVSPost2010PropOp54
 70
     1
102
RTVSPost2010Prop55
280
     0
102
RTVSPost2010PropOp55
 70
     1
102
RTVSPost2010Prop56
140
1.0
102
RTVSPost2010PropOp56
 70
     1
102
RTVSPost2010Prop57
140
1.0
102
RTVSPost2010PropOp57
 70
     1
  0
XRECORD
  5
356
102
{ACAD_REACTORS
330
355
102
}
330
355
100
AcDbXrecord
280
     1
102
RTVSPropertyOp0
 70
     1
102
RTVSPropertyOp1
 70
     1
102
RTVSPropertyOp2
 70
     1
102
RTVSPropertyOp3
 70
     1
102
RTVSPropertyOp4
 70
     1
102
RTVSPropertyOp5
 70
     1
102
RTVSPropertyOp6
 70
     1
102
RTVSPropertyOp7
 70
     1
102
RTVSPropertyOp8
 70
     1
102
RTVSPropertyOp9
 70
     1
102
RTVSPropertyOp10
 70
     1
102
RTVSPropertyOp11
 70
     1
102
RTVSPropertyOp12
 70
     1
102
RTVSPropertyOp13
 70
     1
102
RTVSPropertyOp14
 70
     1
102
RTVSPropertyOp15
 70
     1
102
RTVSPropertyOp16
 70
     1
102
RTVSPropertyOp17
 70
     1
102
RTVSPropertyOp18
 70
     1
102
RTVSPropertyOp19
 70
     1
102
RTVSPropertyOp20
 70
     1
102
RTVSPropertyOp21
 70
     1
102
RTVSPropertyOp22
 70
     1
102
RTVSPropertyOp23
 70
     1
102
RTVSPropertyOp24
 70
     1
102
RTVSPropertyOp25
 70
     1
102
RTVSPropertyOp26
 70
     1
102
RTVSPropertyOp27
 70
     1
102
RTVSPropertyOp28
 70
     1
102
RTVSPropertyOp29
 70
     1
102
RTVSPropertyOp30
 70
     1
102
RTVSPropertyOp31
 70
     1
102
RTVSPropertyOp32
 70
     1
102
RTVSPropertyOp33
 70
     1
102
RTVSPropertyOp34
 70
     1
102
RTVSPropertyOp35
 70
     1
102
RTVSPropertyOp36
 70
     1
102
RTVSPropertyOp37
 70
     1
102
RTVSPropertyOp38
 70
     1
102
RTVSPropertyOp39
 70
     1
102
RTVSPropertyOp40
 70
     1
102
RTVSPropertyOp41
 70
     1
102
RTVSPropertyOp42
 70
     1
102
RTVSPropertyOp43
 70
     1
102
RTVSPropertyOp44
 70
     1
102
RTVSPropertyOp45
 70
     1
102
RTVSPropertyOp46
 70
     1
102
RTVSPropertyOp47
 70
     1
102
RTVSPropertyOp48
 70
     1
102
RTVSPropertyOp49
 70
     1
102
RTVSPropertyOp50
 70
     1
102
RTVSPropertyOp51
 70
     0
102
RTVSPropertyOp52
 70
     0
102
RTVSPropertyOp53
 70
     1
102
RTVSPropertyOp54
 70
     1
102
RTVSPropertyOp55
 70
     1
102
RTVSPropertyOp56
 70
     1
102
RTVSPropertyOp57
 70
     1
102
RTVSPost2010Prop28
280
     0
102
RTVSPost2010PropOp28
 70
     1
102
RTVSPost2010Prop29
280
     1
102
RTVSPost2010PropOp29
 70
     1
102
RTVSPost2010Prop30
280
     1
102
RTVSPost2010PropOp30
 70
     1
102
RTVSPost2010Prop31
280
     0
102
RTVSPost2010PropOp31
 70
     1
102
RTVSPost2010Prop32
280
     0
102
RTVSPost2010PropOp32
 70
     1
102
RTVSPost2010Prop33
280
     0
102
RTVSPost2010PropOp33
 70
     1
102
RTVSPost2010Prop34
280
     0
102
RTVSPost2010PropOp34
 70
     1
102
RTVSPost2010Prop35
280
     0
102
RTVSPost2010PropOp35
 70
     1
102
RTVSPost2010Prop36
280
     0
102
RTVSPost2010PropOp36
 70
     1
102
RTVSPost2010Prop37
 90
       50
102
RTVSPost2010PropOp37
 70
     1
102
RTVSPost2010Prop38
140
0.0
102
RTVSPost2010PropOp38
 70
     1
102
RTVSPost2010Prop39
140
1.0
102
RTVSPost2010PropOp39
 70
     1
102
RTVSPost2010Prop40
 90
        0
102
RTVSPost2010PropOp40
 70
     1
102
RTVSPost2010Prop41ColorIndex
 90
       18
102
RTVSPost2010Prop41ColorRGB
 90
        0
102
RTVSPost2010PropOp41
 70
     1
102
RTVSPost2010Prop42
 90
       50
102
RTVSPost2010PropOp42
 70
     1
102
RTVSPost2010Prop43
 90
        3
102
RTVSPost2010PropOp43
 70
     1
102
RTVSPost2010Prop44ColorIndex
 90
        5
102
RTVSPost2010Prop44ColorRGB
 90
      255
102
RTVSPost2010PropOp44
 70
     1
102
RTVSPost2010Prop45
280
     0
102
RTVSPost2010PropOp45
 70
     1
102
RTVSPost2010Prop46
 90
       50
102
RTVSPost2010PropOp46
 70
     1
102
RTVSPost2010Prop47
 90
       50
102
RTVSPost2010PropOp47
 70
     1
102
RTVSPost2010Prop48
 90
       50
102
RTVSPost2010PropOp48
 70
     1
102
RTVSPost2010Prop49
280
     0
102
RTVSPost2010PropOp49
 70
     1
102
RTVSPost2010Prop50
 90
       50
102
RTVSPost2010PropOp50
 70
     1
102
RTVSPost2010Prop51ColorIndex
 90
      256
102
RTVSPost2010Prop51ColorRGB
 90
-16777216
102
RTVSPost2010PropOp51
 70
     0
102
RTVSPost2010Prop52
140
1.0
102
RTVSPost2010PropOp52
 70
     0
102
RTVSPost2010Prop53
 90
        2
102
RTVSPost2010PropOp53
 70
     1
102
RTVSPost2010Prop54
  1
strokes_ogs.tif
102
RTVSPost2010PropOp54
 70
     1
102
RTVSPost2010Prop55
280
     0
102
RTVSPost2010PropOp55
 70
     1
102
RTVSPost2010Prop56
140
1.0
102
RTVSPost2010PropOp56
 70
     1
102
RTVSPost2010Prop57
140
1.0
102
RTVSPost2010PropOp57
 70
     1
  0
ENDSEC
  0
EOF
