  0
SECTION
  2
HEADER
  9
$ACADVER
  1
AC1018
  9
$ACADMAINTVER
 70
     0
  9
$DWGCODEPAGE
  3
ANSI_932
  9
$INSBASE
 10
0.0
 20
0.0
 30
0.0
  9
$EXTMIN
 10
-630.0
 20
-445.5
 30
0.0
  9
$EXTMAX
 10
630.0
 20
445.5
 30
0.0
  9
$LIMMIN
 10
-630.0
 20
-445.5
  9
$LIMMAX
 10
630.0
 20
445.5
  9
$ORTHOMODE
 70
     0
  9
$REGENMODE
 70
     1
  9
$FILLMODE
 70
     1
  9
$QTEXTMODE
 70
     0
  9
$MIRRTEXT
 70
     1
  9
$LTSCALE
 40
3.0
  9
$ATTMODE
 70
     1
  9
$TEXTSIZE
 40
2.5
  9
$TRACEWID
 40
1.0
  9
$TEXTSTYLE
  7
Standard
  9
$CLAYER
  8
0
  9
$CELTYPE
  6
ByLayer
  9
$CECOLOR
 62
   256
  9
$CELTSCALE
 40
1.0
  9
$DISPSILH
 70
     0
  9
$DIMSCALE
 40
1.0
  9
$DIMASZ
 40
2.5
  9
$DIMEXO
 40
0.625
  9
$DIMDLI
 40
3.75
  9
$DIMRND
 40
0.0
  9
$DIMDLE
 40
0.0
  9
$DIMEXE
 40
1.25
  9
$DIMTP
 40
0.0
  9
$DIMTM
 40
0.0
  9
$DIMTXT
 40
2.5
  9
$DIMCEN
 40
2.5
  9
$DIMTSZ
 40
0.0
  9
$DIMTOL
 70
     0
  9
$DIMLIM
 70
     0
  9
$DIMTIH
 70
     0
  9
$DIMTOH
 70
     0
  9
$DIMSE1
 70
     0
  9
$DIMSE2
 70
     0
  9
$DIMTAD
 70
     1
  9
$DIMZIN
 70
     8
  9
$DIMBLK
  1

  9
$DIMASO
 70
     1
  9
$DIMSHO
 70
     1
  9
$DIMPOST
  1

  9
$DIMAPOST
  1

  9
$DIMALT
 70
     0
  9
$DIMALTD
 70
     3
  9
$DIMALTF
 40
0.03937007874016
  9
$DIMLFAC
 40
1.0
  9
$DIMTOFL
 70
     1
  9
$DIMTVP
 40
0.0
  9
$DIMTIX
 70
     0
  9
$DIMSOXD
 70
     0
  9
$DIMSAH
 70
     0
  9
$DIMBLK1
  1

  9
$DIMBLK2
  1

  9
$DIMSTYLE
  2
ISO-25
  9
$DIMCLRD
 70
     0
  9
$DIMCLRE
 70
     0
  9
$DIMCLRT
 70
     0
  9
$DIMTFAC
 40
1.0
  9
$DIMGAP
 40
0.625
  9
$DIMJUST
 70
     0
  9
$DIMSD1
 70
     0
  9
$DIMSD2
 70
     0
  9
$DIMTOLJ
 70
     0
  9
$DIMTZIN
 70
     8
  9
$DIMALTZ
 70
     0
  9
$DIMALTTZ
 70
     0
  9
$DIMUPT
 70
     0
  9
$DIMDEC
 70
     2
  9
$DIMTDEC
 70
     2
  9
$DIMALTU
 70
     2
  9
$DIMALTTD
 70
     3
  9
$DIMTXSTY
  7
Standard
  9
$DIMAUNIT
 70
     0
  9
$DIMADEC
 70
     0
  9
$DIMALTRND
 40
0.0
  9
$DIMAZIN
 70
     0
  9
$DIMDSEP
 70
    44
  9
$DIMATFIT
 70
     3
  9
$DIMFRAC
 70
     0
  9
$DIMLDRBLK
  1

  9
$DIMLUNIT
 70
     2
  9
$DIMLWD
 70
    -2
  9
$DIMLWE
 70
    -2
  9
$DIMTMOVE
 70
     0
  9
$LUNITS
 70
     2
  9
$LUPREC
 70
     4
  9
$SKETCHINC
 40
1.0
  9
$FILLETRAD
 40
10.0
  9
$AUNITS
 70
     0
  9
$AUPREC
 70
     0
  9
$MENU
  1
.
  9
$ELEVATION
 40
0.0
  9
$PELEVATION
 40
0.0
  9
$THICKNESS
 40
0.0
  9
$LIMCHECK
 70
     0
  9
$CHAMFERA
 40
0.0
  9
$CHAMFERB
 40
0.0
  9
$CHAMFERC
 40
0.0
  9
$CHAMFERD
 40
0.0
  9
$SKPOLY
 70
     0
  9
$TDCREATE
 40
2460157.493023322
  9
$TDUCREATE
 40
2460157.118023322
  9
$TDUPDATE
 40
2460157.493023426
  9
$TDUUPDATE
 40
2460157.118023426
  9
$TDINDWG
 40
0.0000000116
  9
$TDUSRTIMER
 40
0.0000000116
  9
$USRTIMER
 70
     1
  9
$ANGBASE
 50
0.0
  9
$ANGDIR
 70
     0
  9
$PDMODE
 70
     0
  9
$PDSIZE
 40
0.0
  9
$PLINEWID
 40
0.0
  9
$SPLFRAME
 70
     0
  9
$SPLINETYPE
 70
     6
  9
$SPLINESEGS
 70
     8
  9
$HANDSEED
  5
251
  9
$SURFTAB1
 70
     6
  9
$SURFTAB2
 70
     6
  9
$SURFTYPE
 70
     6
  9
$SURFU
 70
     6
  9
$SURFV
 70
     6
  9
$UCSBASE
  2

  9
$UCSNAME
  2

  9
$UCSORG
 10
0.0
 20
0.0
 30
0.0
  9
$UCSXDIR
 10
1.0
 20
0.0
 30
0.0
  9
$UCSYDIR
 10
0.0
 20
1.0
 30
0.0
  9
$UCSORTHOREF
  2

  9
$UCSORTHOVIEW
 70
     0
  9
$UCSORGTOP
 10
0.0
 20
0.0
 30
0.0
  9
$UCSORGBOTTOM
 10
0.0
 20
0.0
 30
0.0
  9
$UCSORGLEFT
 10
0.0
 20
0.0
 30
0.0
  9
$UCSORGRIGHT
 10
0.0
 20
0.0
 30
0.0
  9
$UCSORGFRONT
 10
0.0
 20
0.0
 30
0.0
  9
$UCSORGBACK
 10
0.0
 20
0.0
 30
0.0
  9
$PUCSBASE
  2

  9
$PUCSNAME
  2

  9
$PUCSORG
 10
0.0
 20
0.0
 30
0.0
  9
$PUCSXDIR
 10
1.0
 20
0.0
 30
0.0
  9
$PUCSYDIR
 10
0.0
 20
1.0
 30
0.0
  9
$PUCSORTHOREF
  2

  9
$PUCSORTHOVIEW
 70
     0
  9
$PUCSORGTOP
 10
0.0
 20
0.0
 30
0.0
  9
$PUCSORGBOTTOM
 10
0.0
 20
0.0
 30
0.0
  9
$PUCSORGLEFT
 10
0.0
 20
0.0
 30
0.0
  9
$PUCSORGRIGHT
 10
0.0
 20
0.0
 30
0.0
  9
$PUCSORGFRONT
 10
0.0
 20
0.0
 30
0.0
  9
$PUCSORGBACK
 10
0.0
 20
0.0
 30
0.0
  9
$USERI1
 70
     0
  9
$USERI2
 70
     0
  9
$USERI3
 70
     0
  9
$USERI4
 70
     0
  9
$USERI5
 70
     0
  9
$USERR1
 40
0.0
  9
$USERR2
 40
0.0
  9
$USERR3
 40
0.0
  9
$USERR4
 40
0.0
  9
$USERR5
 40
0.0
  9
$WORLDVIEW
 70
     1
  9
$SHADEDGE
 70
     3
  9
$SHADEDIF
 70
    70
  9
$TILEMODE
 70
     1
  9
$MAXACTVP
 70
    64
  9
$PINSBASE
 10
0.0
 20
0.0
 30
0.0
  9
$PLIMCHECK
 70
     0
  9
$PEXTMIN
 10
1.000000000000000E+20
 20
1.000000000000000E+20
 30
1.000000000000000E+20
  9
$PEXTMAX
 10
-1.000000000000000E+20
 20
-1.000000000000000E+20
 30
-1.000000000000000E+20
  9
$PLIMMIN
 10
0.0
 20
0.0
  9
$PLIMMAX
 10
420.0
 20
297.0
  9
$UNITMODE
 70
     0
  9
$VISRETAIN
 70
     1
  9
$PLINEGEN
 70
     0
  9
$PSLTSCALE
 70
     1
  9
$TREEDEPTH
 70
  3020
  9
$CMLSTYLE
  2
Standard
  9
$CMLJUST
 70
     0
  9
$CMLSCALE
 40
20.0
  9
$PROXYGRAPHICS
 70
     1
  9
$MEASUREMENT
 70
     1
  9
$CELWEIGHT
370
    -1
  9
$ENDCAPS
280
     0
  9
$JOINSTYLE
280
     0
  9
$LWDISPLAY
290
     0
  9
$INSUNITS
 70
     4
  9
$HYPERLINKBASE
  1

  9
$STYLESHEET
  1

  9
$XEDIT
290
     1
  9
$CEPSNTYPE
380
     0
  9
$PSTYLEMODE
290
     1
  9
$FINGERPRINTGUID
  2
{9B3DE8B8-0217-4211-9FFA-F91B0CC13090}
  9
$VERSIONGUID
  2
{FAEB1C32-E019-11D5-929B-00C0DF256EC4}
  9
$EXTNAMES
290
     1
  9
$PSVPSCALE
 40
0.0
  9
$OLESTARTUP
290
     0
  9
$SORTENTS
280
   127
  9
$INDEXCTL
280
     0
  9
$HIDETEXT
280
     1
  9
$XCLIPFRAME
290
     0
  9
$HALOGAP
280
     0
  9
$OBSCOLOR
 70
   257
  9
$OBSLTYPE
280
     0
  9
$INTERSECTIONDISPLAY
280
     0
  9
$INTERSECTIONCOLOR
 70
   257
  9
$DIMASSOC
280
     2
  9
$PROJECTNAME
  1

  0
ENDSEC
  0
SECTION
  2
CLASSES
  0
CLASS
  1
ACDBDICTIONARYWDFLT
  2
AcDbDictionaryWithDefault
  3
ObjectDBX Classes
 90
        0
 91
        4
280
     0
281
     0
  0
CLASS
  1
VISUALSTYLE
  2
AcDbVisualStyle
  3
ObjectDBX Classes
 90
     4095
 91
        4
280
     0
281
     0
  0
CLASS
  1
MATERIAL
  2
AcDbMaterial
  3
ObjectDBX Classes
 90
     1153
 91
        4
280
     0
281
     0
  0
CLASS
  1
SCALE
  2
AcDbScale
  3
ObjectDBX Classes
 90
     1153
 91
        4
280
     0
281
     0
  0
CLASS
  1
TABLESTYLE
  2
AcDbTableStyle
  3
ObjectDBX Classes
 90
     4095
 91
        4
280
     0
281
     0
  0
CLASS
  1
MLEADERSTYLE
  2
AcDbMLeaderStyle
  3
ACDB_MLEADERSTYLE_CLASS
 90
     4095
 91
        4
280
     0
281
     0
  0
CLASS
  1
SUN
  2
AcDbSun
  3
SCENEOE
 90
     1153
 91
        4
280
     0
281
     0
  0
CLASS
  1
DICTIONARYVAR
  2
AcDbDictionaryVar
  3
ObjectDBX Classes
 90
        0
 91
        4
280
     0
281
     0
  0
CLASS
  1
CELLSTYLEMAP
  2
AcDbCellStyleMap
  3
ObjectDBX Classes
 90
     1152
 91
        4
280
     0
281
     0
  0
ENDSEC
  0
SECTION
  2
TABLES
  0
TABLE
  2
VPORT
  5
8
102
{ACAD_XDICTIONARY
360
208
102
}
330
0
100
AcDbSymbolTable
 70
     1
  0
VPORT
  5
29
330
8
100
AcDbSymbolTableRecord
100
AcDbViewportTableRecord
  2
*Active
 70
     0
 10
0.0
 20
0.0
 11
1.0
 21
1.0
 12
0.0
 22
0.0
 13
0.0
 23
0.0
 14
10.0
 24
10.0
 15
10.0
 25
10.0
 16
0.0
 26
0.0
 36
1.0
 17
0.0
 27
0.0
 37
0.0
 40
980.1
 41
1.414141414141414
 42
50.0
 43
0.0
 44
0.0
 50
0.0
 51
0.0
 71
     0
 72
 10000
 73
     1
 74
     3
 75
     0
 76
     0
 77
     0
 78
     0
281
     0
 65
     1
110
0.0
120
0.0
130
0.0
111
1.0
121
0.0
131
0.0
112
0.0
122
1.0
132
0.0
 79
     0
146
0.0
  0
ENDTAB
  0
TABLE
  2
LTYPE
  5
5
330
0
100
AcDbSymbolTable
 70
     4
  0
LTYPE
  5
14
330
5
100
AcDbSymbolTableRecord
100
AcDbLinetypeTableRecord
  2
ByBlock
 70
     0
  3

 72
    65
 73
     0
 40
0.0
  0
LTYPE
  5
15
330
5
100
AcDbSymbolTableRecord
100
AcDbLinetypeTableRecord
  2
ByLayer
 70
     0
  3

 72
    65
 73
     0
 40
0.0
  0
LTYPE
  5
16
330
5
100
AcDbSymbolTableRecord
100
AcDbLinetypeTableRecord
  2
Continuous
 70
     0
  3
Solid line
 72
    65
 73
     0
 40
0.0
  0
LTYPE
  5
6F
330
5
100
AcDbSymbolTableRecord
100
AcDbLinetypeTableRecord
  2
JWW_DASHED1
 70
     0
  3
-  --  --  --  --  --  --  --  -
 72
    65
 73
     2
 40
1.693333333333333
 49
0.8466666666666667
 74
     0
 49
-0.8466666666666667
 74
     0
  0
LTYPE
  5
70
330
5
100
AcDbSymbolTableRecord
100
AcDbLinetypeTableRecord
  2
JWW_CENTER1
 70
     0
  3
-----  --  ----------  --  -----
 72
    65
 73
     4
 40
6.773333333333333
 49
4.233333333333333
 74
     0
 49
-0.8466666666666667
 74
     0
 49
0.8466666666666667
 74
     0
 49
-0.8466666666666667
 74
     0
  0
LTYPE
  5
71
330
5
100
AcDbSymbolTableRecord
100
AcDbLinetypeTableRecord
  2
JWW_DASHED2
 70
     0
  3
--    ----    ----    ----    --
 72
    65
 73
     2
 40
3.386666666666667
 49
1.693333333333333
 74
     0
 49
-1.693333333333333
 74
     0
  0
ENDTAB
  0
TABLE
  2
LAYER
  5
2
330
0
100
AcDbSymbolTable
 70
    13
  0
LAYER
  5
10
330
2
100
AcDbSymbolTableRecord
100
AcDbLayerTableRecord
  2
0
 70
     0
 62
     7
  6
Continuous
370
    -3
390
F
  0
LAYER
  5
72
330
2
100
AcDbSymbolTableRecord
100
AcDbLayerTableRecord
  2
3-4
 70
     0
 62
     7
  6
Continuous
370
    -3
390
F
  0
LAYER
  5
73
330
2
100
AcDbSymbolTableRecord
100
AcDbLayerTableRecord
  2
3-8
 70
     0
 62
     7
  6
Continuous
370
    -3
390
F
  0
LAYER
  5
74
330
2
100
AcDbSymbolTableRecord
100
AcDbLayerTableRecord
  2
3-F
 70
     0
 62
     7
  6
Continuous
370
    -3
390
F
  0
LAYER
  5
75
330
2
100
AcDbSymbolTableRecord
100
AcDbLayerTableRecord
  2
3-A
 70
     0
 62
     7
  6
Continuous
370
    -3
390
F
  0
LAYER
  5
76
330
2
100
AcDbSymbolTableRecord
100
AcDbLayerTableRecord
  2
3-6
 70
     0
 62
     7
  6
Continuous
370
    -3
390
F
  0
LAYER
  5
77
330
2
100
AcDbSymbolTableRecord
100
AcDbLayerTableRecord
  2
3-5
 70
     0
 62
     7
  6
Continuous
370
    -3
390
F
  0
LAYER
  5
78
330
2
100
AcDbSymbolTableRecord
100
AcDbLayerTableRecord
  2
3-2
 70
     0
 62
     7
  6
Continuous
370
    -3
390
F
  0
LAYER
  5
79
330
2
100
AcDbSymbolTableRecord
100
AcDbLayerTableRecord
  2
3-E
 70
     0
 62
     7
  6
Continuous
370
    -3
390
F
  0
LAYER
  5
7A
330
2
100
AcDbSymbolTableRecord
100
AcDbLayerTableRecord
  2
3-0
 70
     0
 62
     7
  6
Continuous
370
    -3
390
F
  0
LAYER
  5
7B
330
2
100
AcDbSymbolTableRecord
100
AcDbLayerTableRecord
  2
3-1
 70
     0
 62
     7
  6
Continuous
370
    -3
390
F
  0
LAYER
  5
7C
330
2
100
AcDbSymbolTableRecord
100
AcDbLayerTableRecord
  2
F-5ﾚｲﾔ
 70
     0
 62
     7
  6
Continuous
370
    -3
390
F
  0
LAYER
  5
7D
330
2
100
AcDbSymbolTableRecord
100
AcDbLayerTableRecord
  2
F-Fﾚｲﾔ
 70
     0
 62
     7
  6
Continuous
370
    -3
390
F
  0
ENDTAB
  0
TABLE
  2
STYLE
  5
3
330
0
100
AcDbSymbolTable
 70
     2
  0
STYLE
  5
11
330
3
100
AcDbSymbolTableRecord
100
AcDbTextStyleTableRecord
  2
Standard
 70
     0
 40
0.0
 41
1.0
 50
0.0
 71
     0
 42
2.5
  3
txt
  4

  0
STYLE
  5
6E
330
3
100
AcDbSymbolTableRecord
100
AcDbTextStyleTableRecord
  2
ＭＳ ゴシック
 70
     0
 40
1.0
 41
1.0
 50
0.0
 71
     0
 42
2.5
  3

  4

1001
ACAD
1000
MS Gothic
1071
    32817
  0
ENDTAB
  0
TABLE
  2
VIEW
  5
6
330
0
100
AcDbSymbolTable
 70
     0
  0
ENDTAB
  0
TABLE
  2
UCS
  5
7
330
0
100
AcDbSymbolTable
 70
     0
  0
ENDTAB
  0
TABLE
  2
APPID
  5
9
330
0
100
AcDbSymbolTable
 70
     2
  0
APPID
  5
12
330
9
100
AcDbSymbolTableRecord
100
AcDbRegAppTableRecord
  2
ACAD
 70
     0
  0
APPID
  5
247
330
9
100
AcDbSymbolTableRecord
100
AcDbRegAppTableRecord
  2
ACAD_MLEADERVER
 70
     0
  0
ENDTAB
  0
TABLE
  2
DIMSTYLE
  5
A
330
0
100
AcDbSymbolTable
 70
     1
100
AcDbDimStyleTable
  0
DIMSTYLE
105
27
330
A
100
AcDbSymbolTableRecord
100
AcDbDimStyleTableRecord
  2
ISO-25
 70
     0
 41
2.5
 42
0.625
 43
3.75
 44
1.25
 73
     0
 74
     0
 77
     1
 78
     8
140
2.5
141
2.5
143
0.03937007874016
147
0.625
171
     3
172
     1
178
     0
271
     2
272
     2
274
     3
278
    44
283
     0
284
     8
340
11
  0
ENDTAB
  0
TABLE
  2
BLOCK_RECORD
  5
1
330
0
100
AcDbSymbolTable
 70
     1
  0
BLOCK_RECORD
  5
1F
330
1
100
AcDbSymbolTableRecord
100
AcDbBlockTableRecord
  2
*Model_Space
340
22
  0
BLOCK_RECORD
  5
1B
330
1
100
AcDbSymbolTableRecord
100
AcDbBlockTableRecord
  2
*Paper_Space
340
1E
  0
BLOCK_RECORD
  5
23
330
1
100
AcDbSymbolTableRecord
100
AcDbBlockTableRecord
  2
*Paper_Space0
340
26
  0
ENDTAB
  0
ENDSEC
  0
SECTION
  2
BLOCKS
  0
BLOCK
  5
20
330
1F
100
AcDbEntity
  8
0
100
AcDbBlockBegin
  2
*Model_Space
 70
     0
 10
0.0
 20
0.0
 30
0.0
  3
*Model_Space
  1

  0
ENDBLK
  5
21
330
1F
100
AcDbEntity
  8
0
100
AcDbBlockEnd
  0
BLOCK
  5
1C
330
1B
100
AcDbEntity
 67
     1
  8
0
100
AcDbBlockBegin
  2
*Paper_Space
 70
     0
 10
0.0
 20
0.0
 30
0.0
  3
*Paper_Space
  1

  0
ENDBLK
  5
1D
330
1B
100
AcDbEntity
 67
     1
  8
0
100
AcDbBlockEnd
  0
BLOCK
  5
24
330
23
100
AcDbEntity
  8
0
100
AcDbBlockBegin
  2
*Paper_Space0
 70
     0
 10
0.0
 20
0.0
 30
0.0
  3
*Paper_Space0
  1

  0
ENDBLK
  5
25
330
23
100
AcDbEntity
  8
0
100
AcDbBlockEnd
  0
ENDSEC
  0
SECTION
  2
ENTITIES
  0
LINE
  5
7E
330
1F
100
AcDbEntity
  8
3-4
  6
Continuous
 62
     7
370
     9
100
AcDbLine
 10
238.9663804616974
 20
-18.13774211074264
 30
0.0
 11
102.2448295648805
 21
-18.13774211074264
 31
0.0
  0
LINE
  5
7F
330
1F
100
AcDbEntity
  8
3-4
  6
Continuous
 62
     7
370
     9
100
AcDbLine
 10
-50.2897529189583
 20
361.9767520803617
 30
0.0
 11
-50.2897529189583
 21
267.7749729343083
 31
0.0
  0
LINE
  5
80
330
1F
100
AcDbEntity
  8
3-8
  6
Continuous
 62
     7
370
     9
100
AcDbLine
 10
26.71025367943702
 20
-118.1377297387514
 30
0.0
 11
79.71025532903576
 21
-118.1377297387514
 31
0.0
  0
LINE
  5
81
330
1F
100
AcDbEntity
  8
3-4
  6
Continuous
 62
     7
370
     9
100
AcDbLine
 10
143.2102668762276
 20
-118.1377297387514
 30
0.0
 11
142.2313204345771
 21
-110.701893278448
 31
0.0
  0
LINE
  5
82
330
1F
100
AcDbEntity
  8
3-4
  6
Continuous
 62
     7
370
     9
100
AcDbLine
 10
143.2102668762276
 20
-118.1377297387514
 30
0.0
 11
144.1892133178779
 21
-110.701893278448
 31
0.0
  0
LINE
  5
83
330
1F
100
AcDbEntity
  8
3-F
  6
Continuous
 62
     7
370
     9
100
AcDbLine
 10
82.55147072045264
 20
-118.1377297387514
 30
0.0
 11
183.6102492255201
 21
-118.1377297387514
 31
0.0
  0
LINE
  5
84
330
1F
100
AcDbEntity
  8
3-4
  6
Continuous
 62
     4
370
     9
100
AcDbLine
 10
-177.2897760133414
 20
-116.5377714736016
 30
0.0
 11
-177.2897760133414
 21
-118.1377297387514
 31
0.0
  0
LINE
  5
85
330
1F
100
AcDbEntity
  8
3-4
  6
Continuous
 62
     4
370
     9
100
AcDbLine
 10
222.7102940946079
 20
-116.5377714736016
 30
0.0
 11
222.7102940946079
 21
-118.1377297387514
 31
0.0
  0
LINE
  5
86
330
1F
100
AcDbEntity
  8
3-4
  6
Continuous
 62
     4
370
     9
100
AcDbLine
 10
-36.88973592809049
 20
-118.1377297387514
 30
0.0
 11
-36.88973592809049
 21
-119.7377251198747
 31
0.0
  0
LINE
  5
87
330
1F
100
AcDbEntity
  8
3-4
  6
Continuous
 62
     4
370
     9
100
AcDbLine
 10
-177.2897760133414
 20
-118.1377297387514
 30
0.0
 11
-36.88973592809049
 21
-118.1377297387514
 31
0.0
  0
LINE
  5
88
330
1F
100
AcDbEntity
  8
3-4
  6
Continuous
 62
     4
370
     9
100
AcDbLine
 10
-35.28974054696721
 20
-116.5377714736016
 30
0.0
 11
-35.28974054696721
 21
-118.1377297387514
 31
0.0
  0
LINE
  5
89
330
1F
100
AcDbEntity
  8
3-4
  6
Continuous
 62
     4
370
     9
100
AcDbLine
 10
-29.28972075178126
 20
-118.1377297387514
 30
0.0
 11
-29.28972075178126
 21
-119.7377251198747
 31
0.0
  0
LINE
  5
8A
330
1F
100
AcDbEntity
  8
3-4
  6
Continuous
 62
     4
370
     9
100
AcDbLine
 10
82.3102168933836
 20
-118.1377297387514
 30
0.0
 11
82.3102168933836
 21
-119.7377251198747
 31
0.0
  0
LINE
  5
8B
330
1F
100
AcDbEntity
  8
3-4
  6
Continuous
 62
     4
370
     9
100
AcDbLine
 10
80.71022151226015
 20
-116.5377714736016
 30
0.0
 11
80.71022151226015
 21
-118.1377297387514
 31
0.0
  0
LINE
  5
8C
330
1F
100
AcDbEntity
  8
3-4
  6
Continuous
 62
     4
370
     9
100
AcDbLine
 10
74.7102017170742
 20
-118.1377297387514
 30
0.0
 11
74.7102017170742
 21
-119.7377251198747
 31
0.0
  0
LINE
  5
8D
330
1F
100
AcDbEntity
  8
3-4
  6
Continuous
 62
     4
370
     9
100
AcDbLine
 10
82.3102168933836
 20
-118.1377297387514
 30
0.0
 11
222.7102940946079
 21
-118.1377297387514
 31
0.0
  0
LINE
  5
8E
330
1F
100
AcDbEntity
  8
3-4
  6
Continuous
 62
     4
370
     9
100
AcDbLine
 10
-41.28976034215299
 20
-118.1377297387514
 30
0.0
 11
-41.28976034215299
 21
-198.1377214907573
 31
0.0
  0
LINE
  5
8F
330
1F
100
AcDbEntity
  8
3-4
  6
Continuous
 62
     4
370
     9
100
AcDbLine
 10
-39.68976496102971
 20
-118.1377297387514
 30
0.0
 11
-39.68976496102971
 21
-198.1377214907573
 31
0.0
  0
LINE
  5
90
330
1F
100
AcDbEntity
  8
3-4
  6
Continuous
 62
     4
370
     9
100
AcDbLine
 10
85.11024592632265
 20
-118.1377297387514
 30
0.0
 11
85.11024592632265
 21
-198.1377214907573
 31
0.0
  0
LINE
  5
91
330
1F
100
AcDbEntity
  8
3-4
  6
Continuous
 62
     4
370
     9
100
AcDbLine
 10
-41.28976034215299
 20
-198.1377214907573
 30
0.0
 11
86.7102413074461
 21
-198.1377214907573
 31
0.0
  0
LINE
  5
92
330
1F
100
AcDbEntity
  8
3-4
  6
Continuous
 62
     4
370
     9
100
AcDbLine
 10
86.7102413074461
 20
-118.1377297387514
 30
0.0
 11
86.7102413074461
 21
-198.1377214907573
 31
0.0
  0
LINE
  5
93
330
1F
100
AcDbEntity
  8
3-4
  6
Continuous
 62
     4
370
     9
100
AcDbLine
 10
-177.2897760133414
 20
-116.5377714736016
 30
0.0
 11
-34.28974961976064
 21
-116.5377714736016
 31
0.0
  0
LINE
  5
94
330
1F
100
AcDbEntity
  8
3-4
  6
Continuous
 62
     4
370
     9
100
AcDbLine
 10
79.71025532903576
 20
-116.5377714736016
 30
0.0
 11
222.7102940946079
 21
-116.5377714736016
 31
0.0
  0
LINE
  5
95
330
1F
100
AcDbEntity
  8
3-A
  6
Continuous
 62
     7
370
     9
100
AcDbLine
 10
-270.211322743177
 20
-245.5156305582722
 30
0.0
 11
-346.0872659013008
 21
-245.5156305582722
 31
0.0
  0
LINE
  5
96
330
1F
100
AcDbEntity
  8
3-4
  6
Continuous
 62
     7
370
     9
100
AcDbLine
 10
-270.211322743177
 20
-245.5156305582722
 30
0.0
 11
-164.3441698847522
 21
-121.1377396363442
 31
0.0
  0
LINE
  5
97
330
1F
100
AcDbEntity
  8
3-4
  6
Continuous
 62
     7
370
     9
100
AcDbLine
 10
-164.3441698847522
 20
-121.1377396363442
 30
0.0
 11
-168.4183531683777
 21
-127.4346501027189
 31
0.0
  0
LINE
  5
98
330
1F
100
AcDbEntity
  8
3-4
  6
Continuous
 62
     7
370
     9
100
AcDbLine
 10
-164.3441698847522
 20
-121.1377396363442
 30
0.0
 11
-169.9093018196655
 21
-126.1655807403876
 31
0.0
  0
TEXT
  5
99
330
1F
100
AcDbEntity
  8
3-4
  6
Continuous
 62
     7
370
     9
100
AcDbText
 10
-343.5454267140911
 20
-242.4136210961734
 30
0.0
 40
6.858000000000001
  1
デッキプレート
 41
1.142857142857137
  7
ＭＳ ゴシック
100
AcDbText
  0
LINE
  5
9A
330
1F
100
AcDbEntity
  8
3-4
  6
Continuous
 62
     4
370
     9
100
AcDbLine
 10
-35.28974054696721
 20
-118.1377297387514
 30
0.0
 11
-29.28972075178126
 21
-118.1377297387514
 31
0.0
  0
LINE
  5
9B
330
1F
100
AcDbEntity
  8
3-4
  6
Continuous
 62
     4
370
     9
100
AcDbLine
 10
82.3102168933836
 20
-118.1377297387514
 30
0.0
 11
74.7102017170742
 21
-118.1377297387514
 31
0.0
  0
LINE
  5
9C
330
1F
100
AcDbEntity
  8
3-6
  6
Continuous
 62
     6
370
     9
100
AcDbLine
 10
-134.4181543917202
 20
-121.1377396363442
 30
0.0
 11
-122.38708584759
 21
-189.3687387323641
 31
0.0
  0
LINE
  5
9D
330
1F
100
AcDbEntity
  8
3-6
  6
Continuous
 62
     6
370
     9
100
AcDbLine
 10
-238.579345764978
 20
-186.3687659507447
 30
0.0
 11
-226.548388568768
 21
-118.1377297387514
 31
0.0
  0
LINE
  5
9E
330
1F
100
AcDbEntity
  8
3-6
  6
Continuous
 62
     6
370
     9
100
AcDbLine
 10
-224.0309976732339
 20
-121.1377396363442
 30
0.0
 11
-236.0619548694439
 21
-189.3687387323641
 31
0.0
  0
LINE
  5
9F
330
1F
100
AcDbEntity
  8
3-6
  6
Continuous
 62
     6
370
     9
100
AcDbLine
 10
179.8386353570129
 20
-121.1377396363442
 30
0.0
 11
167.8076410448298
 21
-189.3687387323641
 31
0.0
  0
LINE
  5
A0
330
1F
100
AcDbEntity
  8
3-6
  6
Continuous
 62
     6
370
     9
100
AcDbLine
 10
283.9997896142976
 20
-186.3687659507447
 30
0.0
 11
271.9687953021145
 21
-118.1377297387514
 31
0.0
  0
LINE
  5
A1
330
1F
100
AcDbEntity
  8
3-6
  6
Continuous
 62
     6
370
     9
100
AcDbLine
 10
269.4515899864473
 20
-121.1377396363442
 30
0.0
 11
281.482435834737
 21
-189.3687387323641
 31
0.0
  0
LINE
  5
A2
330
1F
100
AcDbEntity
  8
3-6
  6
Continuous
 62
     6
370
     9
100
AcDbLine
 10
-119.8698434159494
 20
-186.3687659507447
 30
0.0
 11
-131.9008006121594
 21
-118.1377297387514
 31
0.0
  0
LINE
  5
A3
330
1F
100
AcDbEntity
  8
3-6
  6
Continuous
 62
     6
370
     9
100
AcDbLine
 10
165.2902872652689
 20
-186.3687659507447
 30
0.0
 11
177.3212815774523
 21
-118.1377297387514
 31
0.0
  0
LINE
  5
A4
330
1F
100
AcDbEntity
  8
3-6
  6
Continuous
 62
     6
370
     9
100
AcDbLine
 10
271.9687953021145
 20
-118.1377297387514
 30
0.0
 11
177.3212815774523
 21
-118.1377297387514
 31
0.0
  0
LINE
  5
A5
330
1F
100
AcDbEntity
  8
3-6
  6
Continuous
 62
     6
370
     9
100
AcDbLine
 10
-131.9008006121594
 20
-118.1377297387514
 30
0.0
 11
-226.548388568768
 21
-118.1377297387514
 31
0.0
  0
LINE
  5
A6
330
1F
100
AcDbEntity
  8
3-6
  6
Continuous
 62
     6
370
     9
100
AcDbLine
 10
-224.0309976732339
 20
-121.1377396363442
 30
0.0
 11
-134.4181543917202
 21
-121.1377396363442
 31
0.0
  0
LINE
  5
A7
330
1F
100
AcDbEntity
  8
3-6
  6
Continuous
 62
     6
370
     9
100
AcDbLine
 10
179.8386353570129
 20
-121.1377396363442
 30
0.0
 11
269.4515899864473
 21
-121.1377396363442
 31
0.0
  0
LINE
  5
A8
330
1F
100
AcDbEntity
  8
3-6
  6
Continuous
 62
     6
370
     9
100
AcDbLine
 10
-41.28976034215299
 20
-189.3687387323641
 30
0.0
 11
-122.38708584759
 21
-189.3687387323641
 31
0.0
  0
LINE
  5
A9
330
1F
100
AcDbEntity
  8
3-6
  6
Continuous
 62
     6
370
     9
100
AcDbLine
 10
-41.28976034215299
 20
-186.3687659507447
 30
0.0
 11
-119.8698434159494
 21
-186.3687659507447
 31
0.0
  0
LINE
  5
AA
330
1F
100
AcDbEntity
  8
3-6
  6
Continuous
 62
     6
370
     9
100
AcDbLine
 10
86.7102413074461
 20
-186.3687659507447
 30
0.0
 11
165.2902872652689
 21
-186.3687659507447
 31
0.0
  0
LINE
  5
AB
330
1F
100
AcDbEntity
  8
3-6
  6
Continuous
 62
     6
370
     9
100
AcDbLine
 10
86.7102413074461
 20
-189.3687387323641
 30
0.0
 11
167.8076410448298
 21
-189.3687387323641
 31
0.0
  0
LINE
  5
AC
330
1F
100
AcDbEntity
  8
3-6
  6
Continuous
 62
     6
370
     9
100
AcDbLine
 10
136.366343722641
 20
-186.3687659507447
 30
0.0
 11
171.4821596352952
 21
-151.2529761052228
 31
0.0
  0
LINE
  5
AD
330
1F
100
AcDbEntity
  8
3-6
  6
Continuous
 62
     6
370
     9
100
AcDbLine
 10
117.9814895076457
 20
-186.3687659507447
 30
0.0
 11
175.41787492515
 21
-128.9324658054009
 31
0.0
  0
LINE
  5
AE
330
1F
100
AcDbEntity
  8
3-6
  6
Continuous
 62
     6
370
     9
100
AcDbLine
 10
127.1739790557282
 20
-186.3687659507447
 30
0.0
 11
173.4500084769434
 21
-140.0927708810984
 31
0.0
  0
LINE
  5
AF
330
1F
100
AcDbEntity
  8
3-6
  6
Continuous
 62
     6
370
     9
100
AcDbLine
 10
-87.48606792927626
 20
-186.3687659507447
 30
0.0
 11
-41.28976034215299
 21
-140.1725639242974
 31
0.0
  0
LINE
  5
B0
330
1F
100
AcDbEntity
  8
3-6
  6
Continuous
 62
     6
370
     9
100
AcDbLine
 10
-105.8707972631024
 20
-186.3687659507447
 30
0.0
 11
-41.28976034215299
 21
-121.7877647451286
 31
0.0
  0
LINE
  5
B1
330
1F
100
AcDbEntity
  8
3-6
  6
Continuous
 62
     6
370
     9
100
AcDbLine
 10
-96.67835836424251
 20
-186.3687659507447
 30
0.0
 11
-41.28976034215299
 21
-130.980167928655
 31
0.0
  0
LINE
  5
B2
330
1F
100
AcDbEntity
  8
3-4
  6
Continuous
 62
     7
370
     9
100
AcDbLine
 10
238.3663883797718
 20
-118.1377297387514
 30
0.0
 11
237.5831918531667
 21
-112.1890660787536
 31
0.0
  0
LINE
  5
B3
330
1F
100
AcDbEntity
  8
3-4
  6
Continuous
 62
     7
370
     9
100
AcDbLine
 10
238.3663883797718
 20
-118.1377297387514
 30
0.0
 11
239.1495354184117
 21
-112.1890660787536
 31
0.0
  0
LINE
  5
B4
330
1F
100
AcDbEntity
  8
3-5
  6
Continuous
 62
     7
370
     9
100
AcDbLine
 10
68.75807389955952
 20
31.71685400148291
 30
0.0
 11
36.71028667141326
 21
-12.72395674334396
 31
0.0
  0
LINE
  5
B5
330
1F
100
AcDbEntity
  8
3-5
  6
Continuous
 62
     7
370
     9
100
AcDbLine
 10
-50.13943322670752
 20
-18.22402437689549
 30
0.0
 11
-54.57630143036033
 21
-14.18494043211084
 31
0.0
  0
LINE
  5
B6
330
1F
100
AcDbEntity
  8
3-5
  6
Continuous
 62
     7
370
     9
100
AcDbLine
 10
-50.13943322670752
 20
-18.22402437689549
 30
0.0
 11
-53.37973193606126
 21
-13.1742229885931
 31
0.0
  0
TEXT
  5
B7
330
1F
100
AcDbEntity
  8
3-5
  6
Continuous
 62
     7
370
     9
100
AcDbText
 10
68.89127033783421
 20
34.58815503494767
 30
0.0
 40
6.858000000000001
  1
蝶ナット：ＳＰＣＣ
 41
1.148148148148148
  7
ＭＳ ゴシック
100
AcDbText
  0
LINE
  5
B8
330
1F
100
AcDbEntity
  8
3-5
  6
Continuous
 62
     7
370
     9
100
AcDbLine
 10
68.75807389955952
 20
31.71685400148291
 30
0.0
 11
159.7118174386857
 21
31.71685400148291
 31
0.0
  0
LINE
  5
B9
330
1F
100
AcDbEntity
  8
3-4
  6
Continuous
 62
     7
370
     9
100
AcDbLine
 10
143.2102668762276
 20
-118.1377297387514
 30
0.0
 11
143.2102668762276
 21
-38.1377586067308
 31
0.0
  0
LINE
  5
BA
330
1F
100
AcDbEntity
  8
3-4
  6
Continuous
 62
     7
370
     9
100
AcDbLine
 10
143.2102668762276
 20
-38.1377586067308
 30
0.0
 11
142.2313204345771
 21
-45.57359506703438
 31
0.0
  0
LINE
  5
BB
330
1F
100
AcDbEntity
  8
3-4
  6
Continuous
 62
     7
370
     9
100
AcDbLine
 10
143.2102668762276
 20
-38.1377586067308
 30
0.0
 11
144.1892133178779
 21
-45.57359506703438
 31
0.0
  0
LINE
  5
BC
330
1F
100
AcDbEntity
  8
3-4
  6
Continuous
 62
     7
370
     9
100
AcDbLine
 10
144.1102668762275
 20
-38.1377586067308
 30
0.0
 11
138.4943070193471
 21
-38.1377586067308
 31
0.0
  0
LINE
  5
BD
330
1F
100
AcDbEntity
  8
3-5
  6
Continuous
 62
     7
370
     9
100
AcDbLine
 10
36.71028667141326
 20
-12.72395674334396
 30
0.0
 11
39.55450845667514
 21
-7.440918578225677
 31
0.0
  0
LINE
  5
BE
330
1F
100
AcDbEntity
  8
3-5
  6
Continuous
 62
     7
370
     9
100
AcDbLine
 10
36.71028667141326
 20
-12.72395674334396
 30
0.0
 11
40.82493873803077
 21
-8.357089265514546
 31
0.0
  0
TEXT
  5
BF
330
1F
100
AcDbEntity
  8
3-5
  6
Continuous
 62
     7
370
     9
100
AcDbText
 10
-162.7872982217485
 20
18.21759053270685
 30
0.0
 40
6.858000000000001
  1
養生蓋：ＳＧＨＣ
 41
1.145833333333333
  7
ＭＳ ゴシック
100
AcDbText
  0
LINE
  5
C0
330
1F
100
AcDbEntity
  8
3-5
  6
Continuous
 62
     7
370
     9
100
AcDbLine
 10
-78.27269048036561
 20
14.27458495874856
 30
0.0
 11
-165.0893492787607
 21
14.27458495874856
 31
0.0
  0
LINE
  5
C1
330
1F
100
AcDbEntity
  8
3-5
  6
Continuous
 62
     7
370
     9
100
AcDbLine
 10
-78.27269048036561
 20
14.27458495874856
 30
0.0
 11
-50.13943322670752
 21
-18.22402437689549
 31
0.0
  0
LINE
  5
C2
330
1F
100
AcDbEntity
  8
3-4
  6
Continuous
 62
     7
370
     9
100
AcDbLine
 10
238.3663883797718
 20
-18.13774211074264
 30
0.0
 11
237.5831918531667
 21
-24.08639339874935
 31
0.0
  0
LINE
  5
C3
330
1F
100
AcDbEntity
  8
3-4
  6
Continuous
 62
     7
370
     9
100
AcDbLine
 10
238.3663883797718
 20
-18.13774211074264
 30
0.0
 11
239.1495354184117
 21
-24.08639339874935
 31
0.0
  0
LINE
  5
C4
330
1F
100
AcDbEntity
  8
3-6
  6
Continuous
 62
     6
370
     9
100
AcDbLine
 10
-216.0355118003983
 20
-118.1377297387514
 30
0.0
 11
-136.0355406683777
 21
-38.1377586067308
 31
0.0
  0
LINE
  5
C5
330
1F
100
AcDbEntity
  8
3-6
  6
Continuous
 62
     6
370
     9
100
AcDbLine
 10
-225.227950699258
 20
-118.1377297387514
 30
0.0
 11
-145.2279201817065
 21
-38.1377586067308
 31
0.0
  0
LINE
  5
C6
330
1F
100
AcDbEntity
  8
3-6
  6
Continuous
 62
     6
370
     9
100
AcDbLine
 10
206.1973900366865
 20
-116.5377714736016
 30
0.0
 11
284.597461101408
 21
-38.1377586067308
 31
0.0
  0
LINE
  5
C7
330
1F
100
AcDbEntity
  8
3-6
  6
Continuous
 62
     6
370
     9
100
AcDbLine
 10
197.0050253697734
 20
-116.5377714736016
 30
0.0
 11
275.4050964344952
 21
-38.1377586067308
 31
0.0
  0
TEXT
  5
C8
330
1F
100
AcDbEntity
  8
3-4
  6
Continuous
 62
     2
370
   211
100
AcDbText
 10
139.7182668762276
 20
-102.8844082661564
 30
0.0
 40
9.144
  1
スラブ厚
 50
90.0
 41
1.09375
  7
ＭＳ ゴシック
100
AcDbText
  0
LINE
  5
C9
330
1F
100
AcDbEntity
  8
3-6
  6
Continuous
 62
     6
370
     9
100
AcDbLine
 10
326.1704394114828
 20
-186.3687659507447
 30
0.0
 11
283.9997896142976
 21
-186.3687659507447
 31
0.0
  0
LINE
  5
CA
330
1F
100
AcDbEntity
  8
3-6
  6
Continuous
 62
     6
370
     9
100
AcDbLine
 10
281.482435834737
 20
-189.3687387323641
 30
0.0
 11
326.1704394114828
 21
-189.3687387323641
 31
0.0
  0
LINE
  5
CB
330
1F
100
AcDbEntity
  8
3-6
  6
Continuous
 62
     6
370
     9
100
AcDbLine
 10
79.71025532903576
 20
-38.1377586067308
 30
0.0
 11
326.1704394114828
 21
-38.1377586067308
 31
0.0
  0
LINE
  5
CC
330
1F
100
AcDbEntity
  8
3-6
  6
Continuous
 62
     6
370
     9
100
AcDbLine
 10
-228.7989156155905
 20
-130.9011335539436
 30
0.0
 11
-268.097052343812
 21
-170.1992965783942
 31
0.0
  0
LINE
  5
CD
330
1F
100
AcDbEntity
  8
3-6
  6
Continuous
 62
     6
370
     9
100
AcDbLine
 10
-226.8309895901999
 20
-119.7409542095602
 30
0.0
 11
-268.097052343812
 21
-161.0069709875251
 31
0.0
  0
LINE
  5
CE
330
1F
100
AcDbEntity
  8
3-6
  6
Continuous
 62
     6
370
     9
100
AcDbLine
 10
-238.579345764978
 20
-186.3687659507447
 30
0.0
 11
-268.097052343812
 21
-186.3687659507447
 31
0.0
  0
LINE
  5
CF
330
1F
100
AcDbEntity
  8
3-6
  6
Continuous
 62
     6
370
     9
100
AcDbLine
 10
-236.0619548694439
 20
-189.3687387323641
 30
0.0
 11
-268.097052343812
 21
-189.3687387323641
 31
0.0
  0
LINE
  5
D0
330
1F
100
AcDbEntity
  8
3-6
  6
Continuous
 62
     6
370
     9
100
AcDbLine
 10
-34.28974961976064
 20
-38.1377586067308
 30
0.0
 11
-268.097052343812
 21
-38.1377586067308
 31
0.0
  0
LINE
  5
D1
330
1F
100
AcDbEntity
  8
3-6
  6
Continuous
 62
     6
370
     9
100
AcDbLine
 10
-268.097052343812
 20
-151.8144966693208
 30
0.0
 11
-154.4203397527462
 21
-38.1377586067308
 31
0.0
  0
LINE
  5
D2
330
1F
100
AcDbEntity
  8
3-2
  6
Continuous
 62
     2
370
     9
100
AcDbLine
 10
27.21023058505358
 20
-121.7377086238865
 30
0.0
 11
27.21025532903576
 21
-126.7377251198747
 31
0.0
  0
LINE
  5
D3
330
1F
100
AcDbEntity
  8
3-2
  6
Continuous
 62
     2
370
     9
100
AcDbLine
 10
18.21025038023936
 20
-121.7377333678688
 30
0.0
 11
18.21025038023936
 21
-126.7377251198747
 31
0.0
  0
LINE
  5
D4
330
1F
100
AcDbEntity
  8
3-2
  6
Continuous
 62
     2
370
     9
100
AcDbLine
 10
30.90262659434421
 20
-125.7377218206771
 30
0.0
 11
30.90262659434421
 21
-126.7377251198747
 31
0.0
  0
LINE
  5
D5
330
1F
100
AcDbEntity
  8
3-2
  6
Continuous
 62
     2
370
     9
100
AcDbLine
 10
30.90262659434421
 20
-125.7377218206771
 30
0.0
 11
28.71023553385015
 21
-124.4719434079871
 31
0.0
  0
LINE
  5
D6
330
1F
100
AcDbEntity
  8
3-2
  6
Continuous
 62
     2
370
     9
100
AcDbLine
 10
14.51787911493108
 20
-125.7377218206771
 30
0.0
 11
14.51787911493108
 21
-126.7377251198747
 31
0.0
  0
LINE
  5
D7
330
1F
100
AcDbEntity
  8
3-2
  6
Continuous
 62
     2
370
     9
100
AcDbLine
 10
14.51787911493108
 20
-125.7377218206771
 30
0.0
 11
16.71027017542514
 21
-124.4719434079871
 31
0.0
  0
LINE
  5
D8
330
1F
100
AcDbEntity
  8
3-A
  6
Continuous
 62
     2
370
     9
100
AcDbLine
 10
28.71023553385015
 20
-121.7377086238865
 30
0.0
 11
28.71023553385015
 21
-126.7377251198747
 31
0.0
  0
LINE
  5
D9
330
1F
100
AcDbEntity
  8
3-A
  6
Continuous
 62
     2
370
     9
100
AcDbLine
 10
16.71027017542514
 20
-121.7377209958777
 30
0.0
 11
16.71024543144296
 21
-126.7377251198747
 31
0.0
  0
LINE
  5
DA
330
1F
100
AcDbEntity
  8
3-A
  6
Continuous
 62
     2
370
     9
100
AcDbLine
 10
18.71022728585592
 20
-125.7377218206771
 30
0.0
 11
26.71025367943702
 21
-125.7377218206771
 31
0.0
  0
LINE
  5
DB
330
1F
100
AcDbEntity
  8
3-A
  6
Continuous
 62
     2
370
     9
100
AcDbLine
 10
19.71023058505358
 20
-126.7377251198747
 30
0.0
 11
25.71025038023953
 21
-126.7377251198747
 31
0.0
  0
LINE
  5
DC
330
1F
100
AcDbEntity
  8
3-8
  6
Continuous
 62
     7
370
     9
100
AcDbLine
 10
-34.28974961976064
 20
-118.1377297387514
 30
0.0
 11
18.71022728585592
 21
-118.1377297387514
 31
0.0
  0
LINE
  5
DD
330
1F
100
AcDbEntity
  8
3-4
  6
Continuous
 62
     4
370
     9
100
AcDbLine
 10
-36.88973592809049
 20
-119.7377251198747
 30
0.0
 11
18.71022728585592
 21
-119.7377251198747
 31
0.0
  0
LINE
  5
DE
330
1F
100
AcDbEntity
  8
3-4
  6
Continuous
 62
     4
370
     9
100
AcDbLine
 10
26.71025367943702
 20
-119.7377251198747
 30
0.0
 11
82.3102168933836
 21
-119.7377251198747
 31
0.0
  0
LINE
  5
DF
330
1F
100
AcDbEntity
  8
3-2
  6
JWW_DASHED1
 62
     3
370
     9
100
AcDbLine
 10
-34.28974961976064
 20
-129.0377251198748
 30
0.0
 11
79.71025532903576
 21
-129.0377251198748
 31
0.0
  0
LINE
  5
E0
330
1F
100
AcDbEntity
  8
3-2
  6
Continuous
 62
     3
370
     9
100
AcDbLine
 10
79.71025532903576
 20
-134.0377251198747
 30
0.0
 11
79.71025532903576
 21
-119.7377251198747
 31
0.0
  0
LINE
  5
E1
330
1F
100
AcDbEntity
  8
3-2
  6
Continuous
 62
     3
370
     9
100
AcDbLine
 10
82.01025532903572
 20
-126.7377251198747
 30
0.0
 11
82.01025532903572
 21
-119.7377251198747
 31
0.0
  0
ARC
  5
E2
330
1F
100
AcDbEntity
  8
3-2
  6
Continuous
 62
     3
370
     9
100
AcDbCircle
 10
79.71025532903576
 20
-126.7377251198747
 30
0.0
 40
2.299999999999997
100
AcDbArc
 50
270.0000000000002
 51
0.0
  0
LINE
  5
E3
330
1F
100
AcDbEntity
  8
3-2
  6
Continuous
 62
     3
370
     9
100
AcDbLine
 10
79.71025532903576
 20
-126.7377251198747
 30
0.0
 11
-34.28974961976064
 21
-126.7377251198747
 31
0.0
  0
LINE
  5
E4
330
1F
100
AcDbEntity
  8
3-2
  6
Continuous
 62
     3
370
     9
100
AcDbLine
 10
-34.28974961976064
 20
-134.0377251198747
 30
0.0
 11
79.71025532903576
 21
-134.0377251198747
 31
0.0
  0
LINE
  5
E5
330
1F
100
AcDbEntity
  8
3-2
  6
Continuous
 62
     3
370
     9
100
AcDbLine
 10
-34.28974961976064
 20
-119.7377251198747
 30
0.0
 11
-34.28974961976064
 21
-134.0377251198747
 31
0.0
  0
LINE
  5
E6
330
1F
100
AcDbEntity
  8
3-2
  6
Continuous
 62
     3
370
     9
100
AcDbLine
 10
-36.5897496197606
 20
-126.7377251198747
 30
0.0
 11
-36.5897496197606
 21
-119.7377251198747
 31
0.0
  0
ARC
  5
E7
330
1F
100
AcDbEntity
  8
3-2
  6
Continuous
 62
     3
370
     9
100
AcDbCircle
 10
-34.28974961976064
 20
-126.7377251198747
 30
0.0
 40
2.299999999999997
100
AcDbArc
 50
180.0
 51
270.0
  0
LINE
  5
E8
330
1F
100
AcDbEntity
  8
3-4
  6
Continuous
 62
     7
370
     9
100
AcDbLine
 10
-34.28974961976064
 20
-67.26060541388496
 30
0.0
 11
79.71025532903576
 21
-67.26060541388496
 31
0.0
  0
LINE
  5
E9
330
1F
100
AcDbEntity
  8
3-4
  6
Continuous
 62
     7
370
     9
100
AcDbLine
 10
-34.28974961976064
 20
-67.26060541388496
 30
0.0
 11
-26.85391315945702
 21
-66.28165897223455
 31
0.0
  0
LINE
  5
EA
330
1F
100
AcDbEntity
  8
3-4
  6
Continuous
 62
     7
370
     9
100
AcDbLine
 10
-34.28974961976064
 20
-67.26060541388496
 30
0.0
 11
-26.85391315945702
 21
-68.23955185553532
 31
0.0
  0
LINE
  5
EB
330
1F
100
AcDbEntity
  8
3-4
  6
Continuous
 62
     7
370
     9
100
AcDbLine
 10
79.71025532903576
 20
-67.26060541388496
 30
0.0
 11
72.27441886873231
 21
-66.28165897223455
 31
0.0
  0
LINE
  5
EC
330
1F
100
AcDbEntity
  8
3-4
  6
Continuous
 62
     7
370
     9
100
AcDbLine
 10
79.71025532903576
 20
-67.26060541388496
 30
0.0
 11
72.27441886873231
 21
-68.23955185553532
 31
0.0
  0
LINE
  5
ED
330
1F
100
AcDbEntity
  8
3-F
  6
Continuous
 62
     7
370
     9
100
AcDbLine
 10
-177.2897760133414
 20
-279.7617497888837
 30
0.0
 11
222.7102940946079
 21
-279.7617497888837
 31
0.0
  0
LINE
  5
EE
330
1F
100
AcDbEntity
  8
3-F
  6
Continuous
 62
     7
370
     9
100
AcDbLine
 10
-177.2897760133414
 20
-127.1377223155567
 30
0.0
 11
-177.2897760133414
 21
-280.661756469759
 31
0.0
  0
LINE
  5
EF
330
1F
100
AcDbEntity
  8
3-F
  6
Continuous
 62
     7
370
     9
100
AcDbLine
 10
222.7102940946079
 20
-127.1377223155567
 30
0.0
 11
222.7102940946079
 21
-280.661756469759
 31
0.0
  0
LINE
  5
F0
330
1F
100
AcDbEntity
  8
3-F
  6
Continuous
 62
     7
370
     9
100
AcDbLine
 10
-177.2897760133414
 20
-279.7617497888837
 30
0.0
 11
-169.8539247873599
 21
-278.7827974325968
 31
0.0
  0
LINE
  5
F1
330
1F
100
AcDbEntity
  8
3-F
  6
Continuous
 62
     7
370
     9
100
AcDbLine
 10
-177.2897760133414
 20
-279.7617497888837
 30
0.0
 11
-169.8539247873599
 21
-280.7407021451706
 31
0.0
  0
LINE
  5
F2
330
1F
100
AcDbEntity
  8
3-F
  6
Continuous
 62
     7
370
     9
100
AcDbLine
 10
222.7102940946079
 20
-279.7617497888837
 30
0.0
 11
215.2744799845999
 21
-278.7827974325968
 31
0.0
  0
LINE
  5
F3
330
1F
100
AcDbEntity
  8
3-F
  6
Continuous
 62
     7
370
     9
100
AcDbLine
 10
222.7102940946079
 20
-279.7617497888837
 30
0.0
 11
215.2744799845999
 21
-280.7407021451706
 31
0.0
  0
TEXT
  5
F4
330
1F
100
AcDbEntity
  8
3-F
  6
Continuous
 62
     2
370
     9
100
AcDbText
 10
-3.914759517353446
 20
-276.569763398074
 30
0.0
 40
9.144
  1
400×184
 41
1.109374999999996
  7
ＭＳ ゴシック
100
AcDbText
  0
LINE
  5
F5
330
1F
100
AcDbEntity
  8
3-F
  6
Continuous
 62
     7
370
     9
100
AcDbLine
 10
-41.28976034215299
 20
-245.0628413823534
 30
0.0
 11
86.7102413074461
 21
-245.0628413823534
 31
0.0
  0
LINE
  5
F6
330
1F
100
AcDbEntity
  8
3-F
  6
Continuous
 62
     7
370
     9
100
AcDbLine
 10
-41.28976034215299
 20
-245.0628413823534
 30
0.0
 11
-33.85390911617111
 21
-244.0838890260665
 31
0.0
  0
LINE
  5
F7
330
1F
100
AcDbEntity
  8
3-F
  6
Continuous
 62
     7
370
     9
100
AcDbLine
 10
-41.28976034215299
 20
-245.0628413823534
 30
0.0
 11
-33.85390911617111
 21
-246.0417751806537
 31
0.0
  0
LINE
  5
F8
330
1F
100
AcDbEntity
  8
3-F
  6
Continuous
 62
     7
370
     9
100
AcDbLine
 10
86.7102413074461
 20
-245.0628413823534
 30
0.0
 11
79.27442719743766
 21
-244.0838890260665
 31
0.0
  0
LINE
  5
F9
330
1F
100
AcDbEntity
  8
3-F
  6
Continuous
 62
     7
370
     9
100
AcDbLine
 10
86.7102413074461
 20
-245.0628413823534
 30
0.0
 11
79.27442719743766
 21
-246.0417751806537
 31
0.0
  0
TEXT
  5
FA
330
1F
100
AcDbEntity
  8
3-F
  6
Continuous
 62
     2
370
     9
100
AcDbText
 10
6.210184808686392
 20
-241.8708364335568
 30
0.0
 40
9.144
  1
φ128
 41
1.1
  7
ＭＳ ゴシック
100
AcDbText
  0
LINE
  5
FB
330
1F
100
AcDbEntity
  8
3-4
  6
Continuous
 62
     7
370
     9
100
AcDbLine
 10
-39.68976496102971
 20
-225.9645519586955
 30
0.0
 11
85.11024592632265
 21
-225.9645519586955
 31
0.0
  0
LINE
  5
FC
330
1F
100
AcDbEntity
  8
3-4
  6
Continuous
 62
     7
370
     9
100
AcDbLine
 10
-39.68976496102971
 20
-225.9645519586955
 30
0.0
 11
-32.25392850072609
 21
-224.9856055170451
 31
0.0
  0
LINE
  5
FD
330
1F
100
AcDbEntity
  8
3-4
  6
Continuous
 62
     7
370
     9
100
AcDbLine
 10
-39.68976496102971
 20
-225.9645519586955
 30
0.0
 11
-32.25392850072609
 21
-226.9434984003459
 31
0.0
  0
LINE
  5
FE
330
1F
100
AcDbEntity
  8
3-4
  6
Continuous
 62
     7
370
     9
100
AcDbLine
 10
85.11024592632265
 20
-225.9645519586955
 30
0.0
 11
77.6744094660192
 21
-224.9856055170451
 31
0.0
  0
LINE
  5
FF
330
1F
100
AcDbEntity
  8
3-4
  6
Continuous
 62
     7
370
     9
100
AcDbLine
 10
85.11024592632265
 20
-225.9645519586955
 30
0.0
 11
77.6744094660192
 21
-226.9434984003459
 31
0.0
  0
LINE
  5
100
330
1F
100
AcDbEntity
  8
3-F
  6
Continuous
 62
     7
370
     9
100
AcDbLine
 10
86.7102413074461
 20
-204.4400145553723
 30
0.0
 11
86.7102413074461
 21
-245.9628295052418
 31
0.0
  0
LINE
  5
101
330
1F
100
AcDbEntity
  8
3-4
  6
Continuous
 62
     7
370
     9
100
AcDbLine
 10
85.11024592632265
 20
-226.8645519586956
 30
0.0
 11
85.11024592632265
 21
-204.4400145553723
 31
0.0
  0
LINE
  5
102
330
1F
100
AcDbEntity
  8
3-F
  6
Continuous
 62
     7
370
     9
100
AcDbLine
 10
-41.28976034215299
 20
-202.9874071257312
 30
0.0
 11
-41.28976034215299
 21
-245.9628295052418
 31
0.0
  0
LINE
  5
103
330
1F
100
AcDbEntity
  8
3-4
  6
Continuous
 62
     7
370
     9
100
AcDbLine
 10
-39.68976496102971
 20
-226.8645519586956
 30
0.0
 11
-39.68976496102971
 21
-202.9874071257312
 31
0.0
  0
LINE
  5
104
330
1F
100
AcDbEntity
  8
3-5
  6
Continuous
 62
     7
370
     9
100
AcDbLine
 10
79.71030824807912
 20
-59.53012137641979
 30
0.0
 11
82.554530033341
 21
-54.2470832113015
 31
0.0
  0
LINE
  5
105
330
1F
100
AcDbEntity
  8
3-5
  6
Continuous
 62
     7
370
     9
100
AcDbLine
 10
79.71030824807912
 20
-59.53012137641979
 30
0.0
 11
83.82496031469663
 21
-55.16325389859041
 31
0.0
  0
LINE
  5
106
330
1F
100
AcDbEntity
  8
3-5
  6
Continuous
 62
     7
370
     9
100
AcDbLine
 10
122.2087578114126
 20
-0.597330149762243
 30
0.0
 11
79.71030824807912
 21
-59.53012137641979
 31
0.0
  0
LINE
  5
107
330
1F
100
AcDbEntity
  8
3-F
  6
Continuous
 62
     7
370
     9
100
AcDbLine
 10
86.7102413074461
 20
-172.951975206824
 30
0.0
 11
91.27595142674483
 21
-178.90214824974
 31
0.0
  0
LINE
  5
108
330
1F
100
AcDbEntity
  8
3-F
  6
Continuous
 62
     7
370
     9
100
AcDbLine
 10
86.7102413074461
 20
-172.951975206824
 30
0.0
 11
89.58027106620858
 21
-179.8810820480403
 31
0.0
  0
LINE
  5
109
330
1F
100
AcDbEntity
  8
3-E
  6
Continuous
 62
     7
370
     9
100
AcDbLine
 10
86.7102413074461
 20
-172.951975206824
 30
0.0
 11
114.5273271921589
 21
-221.069568508133
 31
0.0
  0
LINE
  5
10A
330
1F
100
AcDbEntity
  8
3-E
  6
Continuous
 62
     7
370
     9
100
AcDbLine
 10
114.5273271921589
 20
-221.069568508133
 30
0.0
 11
210.3793284854442
 21
-221.069568508133
 31
0.0
  0
TEXT
  5
10B
330
1F
100
AcDbEntity
  8
3-E
  6
Continuous
 62
     7
370
     9
100
AcDbText
 10
115.4935351603808
 20
-218.0981330404388
 30
0.0
 40
6.858000000000001
  1
固定金具：ＳＧＨＣ
 41
1.148148148148148
  7
ＭＳ ゴシック
100
AcDbText
  0
LINE
  5
10C
330
1F
100
AcDbEntity
  8
3-4
  6
Continuous
 62
     7
370
     9
100
AcDbLine
 10
86.7102413074461
 20
-163.4721965114019
 30
0.0
 11
94.14607776774955
 21
-162.4932500697515
 31
0.0
  0
LINE
  5
10D
330
1F
100
AcDbEntity
  8
3-4
  6
Continuous
 62
     7
370
     9
100
AcDbLine
 10
86.7102413074461
 20
-163.4721965114019
 30
0.0
 11
94.14607776774955
 21
-164.4511429530523
 31
0.0
  0
LINE
  5
10E
330
1F
100
AcDbEntity
  8
3-4
  6
Continuous
 62
     7
370
     9
100
AcDbLine
 10
85.11024592632265
 20
-163.4721965114019
 30
0.0
 11
77.6744094660192
 21
-162.4932500697515
 31
0.0
  0
LINE
  5
10F
330
1F
100
AcDbEntity
  8
3-4
  6
Continuous
 62
     7
370
     9
100
AcDbLine
 10
85.11024592632265
 20
-163.4721965114019
 30
0.0
 11
77.6744094660192
 21
-164.4511429530523
 31
0.0
  0
TEXT
  5
110
330
1F
100
AcDbEntity
  8
3-4
  6
Continuous
 62
     2
370
   211
100
AcDbText
 10
96.14091093699807
 20
-159.9801965114019
 30
0.0
 40
9.144
  1
1.6
 41
1.083333333333333
  7
ＭＳ ゴシック
100
AcDbText
  0
LINE
  5
111
330
1F
100
AcDbEntity
  8
3-4
  6
Continuous
 62
     7
370
     9
100
AcDbLine
 10
120.6964487987364
 20
-163.4721965114019
 30
0.0
 11
70.87016323462655
 21
-163.4721965114019
 31
0.0
  0
LINE
  5
112
330
1F
100
AcDbEntity
  8
3-5
  6
Continuous
 62
     7
370
     9
100
AcDbLine
 10
-136.6912286622617
 20
-304.6369965835462
 30
0.0
 11
-274.572846275035
 21
-304.6369965835462
 31
0.0
  0
LINE
  5
113
330
1F
100
AcDbEntity
  8
3-5
  6
Continuous
 62
     7
370
     9
100
AcDbLine
 10
-136.6912286622617
 20
-304.6369965835462
 30
0.0
 11
-17.62229633230686
 21
-133.5952788805403
 31
0.0
  0
LINE
  5
114
330
1F
100
AcDbEntity
  8
3-5
  6
Continuous
 62
     7
370
     9
100
AcDbLine
 10
-17.62229633230686
 20
-133.5952788805403
 30
0.0
 11
-21.06720471441162
 21
-140.2573060674335
 31
0.0
  0
LINE
  5
115
330
1F
100
AcDbEntity
  8
3-5
  6
Continuous
 62
     7
370
     9
100
AcDbLine
 10
-17.62229633230686
 20
-133.5952788805403
 30
0.0
 11
-22.67408182274022
 21
-139.1386950978784
 31
0.0
  0
LINE
  5
116
330
1F
100
AcDbEntity
  8
3-6
  6
Continuous
 62
     6
370
     9
100
AcDbLine
 10
187.8125876585935
 20
-116.5377714736016
 30
0.0
 11
224.1397454772868
 21
-80.21066758753682
 31
0.0
  0
LINE
  5
117
330
1F
100
AcDbEntity
  8
3-6
  6
Continuous
 62
     6
370
     9
100
AcDbLine
 10
242.1724789599739
 20
-62.17796087690581
 30
0.0
 11
266.2127169211664
 21
-38.1377586067308
 31
0.0
  0
LINE
  5
118
330
1F
100
AcDbEntity
  8
3-4
  6
Continuous
 62
     7
370
     9
100
AcDbLine
 10
-103.9126525967109
 20
-116.5377714736016
 30
0.0
 11
-104.8915990383613
 21
-109.1019350132981
 31
0.0
  0
LINE
  5
119
330
1F
100
AcDbEntity
  8
3-4
  6
Continuous
 62
     7
370
     9
100
AcDbLine
 10
-103.9126525967109
 20
-116.5377714736016
 30
0.0
 11
-102.9337061550605
 21
-109.1019350132981
 31
0.0
  0
TEXT
  5
11A
330
1F
100
AcDbEntity
  8
3-4
  6
Continuous
 62
     2
370
   211
100
AcDbText
 10
-107.4046525967109
 20
-111.1210809702937
 30
0.0
 40
9.144
  1
1.6
 50
90.0
 41
1.083333333333333
  7
ＭＳ ゴシック
100
AcDbText
  0
LINE
  5
11B
330
1F
100
AcDbEntity
  8
3-4
  6
Continuous
 62
     7
370
     9
100
AcDbLine
 10
-103.9126525967109
 20
-89.75540135774065
 30
0.0
 11
-103.9126525967109
 21
-118.1377297387514
 31
0.0
  0
LINE
  5
11C
330
1F
100
AcDbEntity
  8
3-4
  6
Continuous
 62
     7
370
     9
100
AcDbLine
 10
-103.9126525967109
 20
-198.1377214907573
 30
0.0
 11
-103.9126525967109
 21
-118.1377297387514
 31
0.0
  0
LINE
  5
11D
330
1F
100
AcDbEntity
  8
3-4
  6
Continuous
 62
     7
370
     9
100
AcDbLine
 10
-103.9126525967109
 20
-198.1377214907573
 30
0.0
 11
-104.8915990383613
 21
-190.7018850304538
 31
0.0
  0
LINE
  5
11E
330
1F
100
AcDbEntity
  8
3-4
  6
Continuous
 62
     7
370
     9
100
AcDbLine
 10
-103.9126525967109
 20
-198.1377214907573
 30
0.0
 11
-102.9337061550605
 21
-190.7018850304538
 31
0.0
  0
LINE
  5
11F
330
1F
100
AcDbEntity
  8
3-4
  6
Continuous
 62
     7
370
     9
100
AcDbLine
 10
-103.9126525967109
 20
-118.1377297387514
 30
0.0
 11
-104.8915990383613
 21
-125.573566199055
 31
0.0
  0
LINE
  5
120
330
1F
100
AcDbEntity
  8
3-4
  6
Continuous
 62
     7
370
     9
100
AcDbLine
 10
-103.9126525967109
 20
-118.1377297387514
 30
0.0
 11
-102.9337061550605
 21
-125.573566199055
 31
0.0
  0
TEXT
  5
121
330
1F
100
AcDbEntity
  8
3-4
  6
Continuous
 62
     2
370
   211
100
AcDbText
 10
-107.4046525967109
 20
-164.5127256147544
 30
0.0
 40
9.144
  1
80
 50
90.0
 41
1.0625
  7
ＭＳ ゴシック
100
AcDbText
  0
LINE
  5
122
330
1F
100
AcDbEntity
  8
3-4
  6
Continuous
 62
     7
370
     9
100
AcDbLine
 10
-49.71846233364749
 20
-198.1377214907573
 30
0.0
 11
-103.9126525967109
 21
-198.1377214907573
 31
0.0
  0
LINE
  5
123
330
1F
100
AcDbEntity
  8
3-5
  6
Continuous
 62
     7
370
     9
100
AcDbLine
 10
19.71023058505358
 20
2.262271580927575
 30
0.0
 11
14.5993738195869
 21
7.751273596128939
 31
0.0
  0
LINE
  5
124
330
1F
100
AcDbEntity
  8
3-5
  6
Continuous
 62
     7
370
     9
100
AcDbLine
 10
19.71023058505358
 20
2.262271580927575
 30
0.0
 11
16.1941803009654
 21
8.887027455657162
 31
0.0
  0
LINE
  5
125
330
1F
100
AcDbEntity
  8
3-5
  6
Continuous
 62
     7
370
     9
100
AcDbLine
 10
-12.09945897259485
 20
46.92890304476175
 30
0.0
 11
19.71023058505358
 21
2.262271580927575
 31
0.0
  0
TEXT
  5
126
330
1F
100
AcDbEntity
  8
3-4
  6
Continuous
 62
     2
370
   211
100
AcDbText
 10
-17.30035840958647
 20
-63.76860541388493
 30
0.0
 40
9.144
  1
φ114
 41
1.1
  7
ＭＳ ゴシック
100
AcDbText
  0
TEXT
  5
127
330
1F
100
AcDbEntity
  8
3-4
  6
Continuous
 62
     2
370
   211
100
AcDbText
 10
-0.5397595173534455
 20
-222.4725519586955
 30
0.0
 40
9.144
  1
φ124.8
 41
1.107142857142861
  7
ＭＳ ゴシック
100
AcDbText
  0
LINE
  5
128
330
1F
100
AcDbEntity
  8
3-4
  6
Continuous
 62
     7
370
     9
100
AcDbLine
 10
238.3663883797718
 20
-118.1377297387514
 30
0.0
 11
238.3663883797718
 21
-18.13774211074264
 31
0.0
  0
TEXT
  5
129
330
1F
100
AcDbEntity
  8
3-4
  6
Continuous
 62
     2
370
   211
100
AcDbText
 10
233.7967764779358
 20
-74.13773592474706
 30
0.0
 40
9.144
  1
Ｌ
 50
90.0
 41
1.000000000000004
  7
ＭＳ ゴシック
100
AcDbText
  0
LINE
  5
12A
330
1F
100
AcDbEntity
  8
3-4
  6
Continuous
 62
     4
370
     9
100
AcDbLine
 10
-132.2897760133416
 20
313.4996680884468
 30
0.0
 11
-92.28974302136533
 21
313.4996680884468
 31
0.0
  0
LINE
  5
12B
330
1F
100
AcDbEntity
  8
3-4
  6
Continuous
 62
     4
370
     9
100
AcDbLine
 10
-132.2897760133416
 20
283.4997175764113
 30
0.0
 11
-92.28974302136533
 21
283.4997175764113
 31
0.0
  0
LINE
  5
12C
330
1F
100
AcDbEntity
  8
3-4
  6
JWW_CENTER1
 62
     4
370
     9
100
AcDbLine
 10
-112.2897595173536
 20
316.0737350753557
 30
0.0
 11
-112.2897595173536
 21
280.2539999349418
 31
0.0
  0
LINE
  5
12D
330
1F
100
AcDbEntity
  8
3-4
  6
JWW_CENTER1
 62
     4
370
     9
100
AcDbLine
 10
-150.6447383365047
 20
298.4997670643759
 30
0.0
 11
-73.49458525373439
 21
298.4997670643759
 31
0.0
  0
LINE
  5
12E
330
1F
100
AcDbEntity
  8
3-4
  6
Continuous
 62
     4
370
     9
100
AcDbLine
 10
177.7102940946083
 20
313.4996680884468
 30
0.0
 11
137.7101126387383
 21
313.4996680884468
 31
0.0
  0
LINE
  5
12F
330
1F
100
AcDbEntity
  8
3-4
  6
Continuous
 62
     4
370
     9
100
AcDbLine
 10
177.7102940946083
 20
283.4997175764113
 30
0.0
 11
137.7101126387383
 21
283.4997175764113
 31
0.0
  0
LINE
  5
130
330
1F
100
AcDbEntity
  8
3-4
  6
JWW_CENTER1
 62
     4
370
     9
100
AcDbLine
 10
157.7102775986198
 20
316.0737350753557
 30
0.0
 11
157.7102775986198
 21
280.2539999349418
 31
0.0
  0
LINE
  5
131
330
1F
100
AcDbEntity
  8
3-4
  6
JWW_CENTER1
 62
     4
370
     9
100
AcDbLine
 10
196.0651821858245
 20
298.4997670643759
 30
0.0
 11
118.9150291030542
 21
298.4997670643759
 31
0.0
  0
LINE
  5
132
330
1F
100
AcDbEntity
  8
3-4
  6
JWW_CENTER1
 62
     4
370
     9
100
AcDbLine
 10
-164.9731371699085
 20
329.4997703635735
 30
0.0
 11
-159.4498349370114
 21
329.4997703635735
 31
0.0
  0
LINE
  5
133
330
1F
100
AcDbEntity
  8
3-4
  6
JWW_CENTER1
 62
     4
370
     9
100
AcDbLine
 10
-162.2898007573239
 20
326.7646200521291
 30
0.0
 11
-162.2898007573239
 21
332.4503417846038
 31
0.0
  0
LINE
  5
134
330
1F
100
AcDbEntity
  8
3-4
  6
JWW_CENTER1
 62
     4
370
     9
100
AcDbLine
 10
210.393581019228
 20
329.4997703635735
 30
0.0
 11
204.8702787863311
 21
329.4997703635735
 31
0.0
  0
LINE
  5
135
330
1F
100
AcDbEntity
  8
3-4
  6
JWW_CENTER1
 62
     4
370
     9
100
AcDbLine
 10
207.7102446066436
 20
326.7646200521291
 30
0.0
 11
207.7102446066436
 21
332.4503417846038
 31
0.0
  0
ARC
  5
136
330
1F
100
AcDbEntity
  8
3-4
  6
Continuous
 62
     4
370
     9
100
AcDbCircle
 10
-132.2897760133416
 20
298.4997670643759
 30
0.0
 40
15.00000077324945
100
AcDbArc
 50
90.0
 51
270.0
  0
ARC
  5
137
330
1F
100
AcDbEntity
  8
3-4
  6
Continuous
 62
     4
370
     9
100
AcDbCircle
 10
-92.28974302136533
 20
298.4997670643759
 30
0.0
 40
15.00000077324945
100
AcDbArc
 50
270.0
 51
90.0
  0
ARC
  5
138
330
1F
100
AcDbEntity
  8
3-4
  6
Continuous
 62
     4
370
     9
100
AcDbCircle
 10
177.7102940946083
 20
298.4997670643759
 30
0.0
 40
15.00000077324945
100
AcDbArc
 50
270.0
 51
90.0
  0
ARC
  5
139
330
1F
100
AcDbEntity
  8
3-4
  6
Continuous
 62
     4
370
     9
100
AcDbCircle
 10
137.7101126387383
 20
298.4997670643759
 30
0.0
 40
15.00000077324945
100
AcDbArc
 50
90.0
 51
270.0
  0
CIRCLE
  5
13A
330
1F
100
AcDbEntity
  8
3-4
  6
Continuous
 62
     4
370
     9
100
AcDbCircle
 10
-162.2898007573239
 20
329.4997703635735
 30
0.0
 40
2.09999988207946
  0
CIRCLE
  5
13B
330
1F
100
AcDbEntity
  8
3-4
  6
Continuous
 62
     4
370
     9
100
AcDbCircle
 10
207.7102446066436
 20
329.4997703635735
 30
0.0
 40
2.09999988207946
  0
LINE
  5
13C
330
1F
100
AcDbEntity
  8
3-0
  6
JWW_CENTER1
 62
     4
370
     9
100
AcDbLine
 10
-186.6087949728566
 20
252.4997703635734
 30
0.0
 11
229.3619704489128
 21
252.4997703635734
 31
0.0
  0
LINE
  5
13D
330
1F
100
AcDbEntity
  8
3-4
  6
Continuous
 62
     4
370
     9
100
AcDbLine
 10
-177.2897760133414
 20
344.4998198515381
 30
0.0
 11
222.7102940946083
 21
344.4998198515381
 31
0.0
  0
LINE
  5
13E
330
1F
100
AcDbEntity
  8
3-4
  6
Continuous
 62
     7
370
     9
100
AcDbLine
 10
-50.2897529189583
 20
361.3767599984361
 30
0.0
 11
-44.34110163095158
 21
362.1599070370764
 31
0.0
  0
LINE
  5
13F
330
1F
100
AcDbEntity
  8
3-4
  6
Continuous
 62
     7
370
     9
100
AcDbLine
 10
-50.2897529189583
 20
361.3767599984361
 30
0.0
 11
-44.34110163095158
 21
360.5936129597959
 31
0.0
  0
LINE
  5
140
330
1F
100
AcDbEntity
  8
3-4
  6
Continuous
 62
     7
370
     9
100
AcDbLine
 10
95.71025862823359
 20
361.3767599984361
 30
0.0
 11
89.76158259624452
 21
362.1599070370764
 31
0.0
  0
LINE
  5
141
330
1F
100
AcDbEntity
  8
3-4
  6
Continuous
 62
     7
370
     9
100
AcDbLine
 10
95.71025862823359
 20
361.3767599984361
 30
0.0
 11
89.76158259624452
 21
360.5936129597959
 31
0.0
  0
LINE
  5
142
330
1F
100
AcDbEntity
  8
3-4
  6
Continuous
 62
     7
370
     9
100
AcDbLine
 10
95.71025862823359
 20
361.9767520803617
 30
0.0
 11
95.71025862823359
 21
267.7749729343083
 31
0.0
  0
TEXT
  5
143
330
1F
100
AcDbEntity
  8
3-4
  6
Continuous
 62
     2
370
     9
100
AcDbText
 10
6.210252854637474
 20
364.359253687844
 30
0.0
 40
9.144
  1
φ146
 41
1.100000000000006
  7
ＭＳ ゴシック
100
AcDbText
  0
LINE
  5
144
330
1F
100
AcDbEntity
  8
3-4
  6
Continuous
 62
     7
370
     9
100
AcDbLine
 10
-50.2897529189583
 20
361.3767599984361
 30
0.0
 11
95.71025862823359
 21
361.3767599984361
 31
0.0
  0
LINE
  5
145
330
1F
100
AcDbEntity
  8
3-4
  6
Continuous
 62
     4
370
     9
100
AcDbLine
 10
-132.2897760133416
 20
191.4998726387001
 30
0.0
 11
-92.28974302136533
 21
191.4998726387001
 31
0.0
  0
LINE
  5
146
330
1F
100
AcDbEntity
  8
3-4
  6
Continuous
 62
     4
370
     9
100
AcDbLine
 10
-132.2897760133416
 20
221.4998231507356
 30
0.0
 11
-92.28974302136533
 21
221.4998231507356
 31
0.0
  0
LINE
  5
147
330
1F
100
AcDbEntity
  8
3-4
  6
JWW_CENTER1
 62
     4
370
     9
100
AcDbLine
 10
-112.2897595173536
 20
188.9258056517912
 30
0.0
 11
-112.2897595173536
 21
224.7455407922051
 31
0.0
  0
LINE
  5
148
330
1F
100
AcDbEntity
  8
3-4
  6
JWW_CENTER1
 62
     4
370
     9
100
AcDbLine
 10
-150.6447383365047
 20
206.499773662771
 30
0.0
 11
-73.49458525373439
 21
206.499773662771
 31
0.0
  0
LINE
  5
149
330
1F
100
AcDbEntity
  8
3-4
  6
Continuous
 62
     4
370
     9
100
AcDbLine
 10
177.7102940946083
 20
191.4998726387001
 30
0.0
 11
137.7101126387383
 21
191.4998726387001
 31
0.0
  0
LINE
  5
14A
330
1F
100
AcDbEntity
  8
3-4
  6
Continuous
 62
     4
370
     9
100
AcDbLine
 10
177.7102940946083
 20
221.4998231507356
 30
0.0
 11
137.7101126387383
 21
221.4998231507356
 31
0.0
  0
LINE
  5
14B
330
1F
100
AcDbEntity
  8
3-4
  6
JWW_CENTER1
 62
     4
370
     9
100
AcDbLine
 10
157.7102775986198
 20
188.9258056517912
 30
0.0
 11
157.7102775986198
 21
224.7455407922051
 31
0.0
  0
LINE
  5
14C
330
1F
100
AcDbEntity
  8
3-4
  6
JWW_CENTER1
 62
     4
370
     9
100
AcDbLine
 10
196.0651821858245
 20
206.499773662771
 30
0.0
 11
118.9150291030542
 21
206.499773662771
 31
0.0
  0
LINE
  5
14D
330
1F
100
AcDbEntity
  8
3-4
  6
JWW_CENTER1
 62
     4
370
     9
100
AcDbLine
 10
-164.9731371699085
 20
175.4997703635734
 30
0.0
 11
-159.4498349370114
 21
175.4997703635734
 31
0.0
  0
LINE
  5
14E
330
1F
100
AcDbEntity
  8
3-4
  6
JWW_CENTER1
 62
     4
370
     9
100
AcDbLine
 10
-162.2898007573239
 20
178.2349206750178
 30
0.0
 11
-162.2898007573239
 21
172.5491989425431
 31
0.0
  0
LINE
  5
14F
330
1F
100
AcDbEntity
  8
3-4
  6
JWW_CENTER1
 62
     4
370
     9
100
AcDbLine
 10
210.393581019228
 20
175.4997703635734
 30
0.0
 11
204.8702787863311
 21
175.4997703635734
 31
0.0
  0
LINE
  5
150
330
1F
100
AcDbEntity
  8
3-4
  6
JWW_CENTER1
 62
     4
370
     9
100
AcDbLine
 10
207.7102446066436
 20
178.2349206750178
 30
0.0
 11
207.7102446066436
 21
172.5491989425431
 31
0.0
  0
ARC
  5
151
330
1F
100
AcDbEntity
  8
3-4
  6
Continuous
 62
     4
370
     9
100
AcDbCircle
 10
-132.2897760133416
 20
206.499773662771
 30
0.0
 40
15.00000077324945
100
AcDbArc
 50
90.0
 51
270.0
  0
ARC
  5
152
330
1F
100
AcDbEntity
  8
3-4
  6
Continuous
 62
     4
370
     9
100
AcDbCircle
 10
-92.28974302136533
 20
206.499773662771
 30
0.0
 40
15.00000077324945
100
AcDbArc
 50
270.0
 51
90.0
  0
ARC
  5
153
330
1F
100
AcDbEntity
  8
3-4
  6
Continuous
 62
     4
370
     9
100
AcDbCircle
 10
177.7102940946083
 20
206.499773662771
 30
0.0
 40
15.00000077324945
100
AcDbArc
 50
270.0
 51
90.0
  0
ARC
  5
154
330
1F
100
AcDbEntity
  8
3-4
  6
Continuous
 62
     4
370
     9
100
AcDbCircle
 10
137.7101126387383
 20
206.499773662771
 30
0.0
 40
15.00000077324945
100
AcDbArc
 50
90.0
 51
270.0
  0
CIRCLE
  5
155
330
1F
100
AcDbEntity
  8
3-4
  6
Continuous
 62
     4
370
     9
100
AcDbCircle
 10
-162.2898007573239
 20
175.4997703635734
 30
0.0
 40
2.09999988207946
  0
CIRCLE
  5
156
330
1F
100
AcDbEntity
  8
3-4
  6
Continuous
 62
     4
370
     9
100
AcDbCircle
 10
207.7102446066436
 20
175.4997703635734
 30
0.0
 40
2.09999988207946
  0
LINE
  5
157
330
1F
100
AcDbEntity
  8
3-4
  6
Continuous
 62
     4
370
     9
100
AcDbLine
 10
-177.2897760133414
 20
160.4997208756089
 30
0.0
 11
222.7102940946083
 21
160.4997208756089
 31
0.0
  0
LINE
  5
158
330
1F
100
AcDbEntity
  8
3-4
  6
Continuous
 62
     4
370
     9
100
AcDbLine
 10
222.7102940946083
 20
160.4997208756089
 30
0.0
 11
222.7102940946083
 21
344.4998198515381
 31
0.0
  0
LINE
  5
159
330
1F
100
AcDbEntity
  8
3-4
  6
Continuous
 62
     4
370
     9
100
AcDbLine
 10
-177.2897760133414
 20
344.4998198515381
 30
0.0
 11
-177.2897760133414
 21
160.4997208756089
 31
0.0
  0
LINE
  5
15A
330
1F
100
AcDbEntity
  8
3-0
  6
JWW_CENTER1
 62
     4
370
     9
100
AcDbLine
 10
22.71024048264638
 20
148.7817976349379
 30
0.0
 11
22.71024048264638
 21
352.7450337850505
 31
0.0
  0
LINE
  5
15B
330
1F
100
AcDbEntity
  8
3-4
  6
Continuous
 62
     7
370
     9
100
AcDbLine
 10
-217.1773992114707
 20
160.4997208756089
 30
0.0
 11
-217.1773992114707
 21
344.4998198515381
 31
0.0
  0
LINE
  5
15C
330
1F
100
AcDbEntity
  8
3-4
  6
Continuous
 62
     7
370
     9
100
AcDbLine
 10
-217.1773992114707
 20
160.4997208756089
 30
0.0
 11
-218.1563456531213
 21
167.9355573359125
 31
0.0
  0
LINE
  5
15D
330
1F
100
AcDbEntity
  8
3-4
  6
Continuous
 62
     7
370
     9
100
AcDbLine
 10
-217.1773992114707
 20
160.4997208756089
 30
0.0
 11
-216.1984527698204
 21
167.9355573359125
 31
0.0
  0
LINE
  5
15E
330
1F
100
AcDbEntity
  8
3-4
  6
Continuous
 62
     7
370
     9
100
AcDbLine
 10
-217.1773992114707
 20
344.4998198515381
 30
0.0
 11
-218.1563456531213
 21
337.0639833912344
 31
0.0
  0
LINE
  5
15F
330
1F
100
AcDbEntity
  8
3-4
  6
Continuous
 62
     7
370
     9
100
AcDbLine
 10
-217.1773992114707
 20
344.4998198515381
 30
0.0
 11
-216.1984527698204
 21
337.0639833912344
 31
0.0
  0
LINE
  5
160
330
1F
100
AcDbEntity
  8
3-4
  6
Continuous
 62
     7
370
     9
100
AcDbLine
 10
-218.0773992114709
 20
160.4997208756089
 30
0.0
 11
-187.5614250936647
 21
160.4997208756089
 31
0.0
  0
LINE
  5
161
330
1F
100
AcDbEntity
  8
3-4
  6
Continuous
 62
     7
370
     9
100
AcDbLine
 10
-218.0773992114709
 20
344.4998198515381
 30
0.0
 11
-187.5614250936647
 21
344.4998198515381
 31
0.0
  0
TEXT
  5
162
330
1F
100
AcDbEntity
  8
3-4
  6
Continuous
 62
     2
370
   211
100
AcDbText
 10
-220.6693992114708
 20
242.7497703635734
 30
0.0
 40
9.144
  1
184
 50
90.0
 41
1.083333333333333
  7
ＭＳ ゴシック
100
AcDbText
  0
LINE
  5
163
330
1F
100
AcDbEntity
  8
3-4
  6
Continuous
 62
     7
370
     9
100
AcDbLine
 10
-162.2898007573239
 20
126.1475941092689
 30
0.0
 11
207.7102446066436
 21
126.1475941092689
 31
0.0
  0
LINE
  5
164
330
1F
100
AcDbEntity
  8
3-4
  6
Continuous
 62
     7
370
     9
100
AcDbLine
 10
-162.2898007573239
 20
126.1475941092689
 30
0.0
 11
-154.8539642970203
 21
127.1265405509193
 31
0.0
  0
LINE
  5
165
330
1F
100
AcDbEntity
  8
3-4
  6
Continuous
 62
     7
370
     9
100
AcDbLine
 10
-162.2898007573239
 20
126.1475941092689
 30
0.0
 11
-154.8539642970203
 21
125.1686476676184
 31
0.0
  0
LINE
  5
166
330
1F
100
AcDbEntity
  8
3-4
  6
Continuous
 62
     7
370
     9
100
AcDbLine
 10
207.7102446066436
 20
126.1475941092689
 30
0.0
 11
200.2744081463401
 21
127.1265405509193
 31
0.0
  0
LINE
  5
167
330
1F
100
AcDbEntity
  8
3-4
  6
Continuous
 62
     7
370
     9
100
AcDbLine
 10
207.7102446066436
 20
126.1475941092689
 30
0.0
 11
200.2744081463401
 21
125.1686476676184
 31
0.0
  0
LINE
  5
168
330
1F
100
AcDbEntity
  8
3-4
  6
Continuous
 62
     7
370
     9
100
AcDbLine
 10
-162.2898007573239
 20
125.2475941092689
 30
0.0
 11
-162.2898007573239
 21
166.5048025239533
 31
0.0
  0
LINE
  5
169
330
1F
100
AcDbEntity
  8
3-4
  6
Continuous
 62
     7
370
     9
100
AcDbLine
 10
207.7102446066436
 20
125.2475941092689
 30
0.0
 11
207.7102446066436
 21
166.5048025239533
 31
0.0
  0
TEXT
  5
16A
330
1F
100
AcDbEntity
  8
3-4
  6
Continuous
 62
     2
370
   211
100
AcDbText
 10
12.96022192465983
 20
129.6395941092689
 30
0.0
 40
9.144
  1
370
 41
1.083333333333333
  7
ＭＳ ゴシック
100
AcDbText
  0
LINE
  5
16B
330
1F
100
AcDbEntity
  8
3-F
  6
Continuous
 62
     7
370
     9
100
AcDbLine
 10
231.6282276419898
 20
357.5229712525474
 30
0.0
 11
283.6291910076995
 21
357.5229712525474
 31
0.0
  0
TEXT
  5
16C
330
1F
100
AcDbEntity
  8
3-F
  6
Continuous
 62
     2
370
     9
100
AcDbText
 10
235.5683106870813
 20
362.0516708672031
 30
0.0
 40
9.144
  1
4-φ4.2
 50
0.0000914661677892
 41
1.107142857142863
  7
ＭＳ ゴシック
100
AcDbText
  0
LINE
  5
16D
330
1F
100
AcDbEntity
  8
3-F
  6
Continuous
 62
     7
370
     9
100
AcDbLine
 10
231.6282276419898
 20
357.5229712525474
 30
0.0
 11
209.3400812303767
 21
330.8240682943166
 31
0.0
  0
LINE
  5
16E
330
1F
100
AcDbEntity
  8
3-F
  6
Continuous
 62
     7
370
     9
100
AcDbLine
 10
209.3400812303767
 20
330.8240682943166
 30
0.0
 11
213.3538080489324
 21
337.1596816841952
 31
0.0
  0
LINE
  5
16F
330
1F
100
AcDbEntity
  8
3-F
  6
Continuous
 62
     7
370
     9
100
AcDbLine
 10
209.3400812303767
 20
330.8240682943166
 30
0.0
 11
214.8568210317957
 21
335.9049719505022
 31
0.0
  0
LINE
  5
170
330
1F
100
AcDbEntity
  8
3-F
  6
Continuous
 62
     7
370
     9
100
AcDbLine
 10
-177.2897760133414
 20
384.5617504549522
 30
0.0
 11
222.7102940946083
 21
384.5617504549522
 31
0.0
  0
LINE
  5
171
330
1F
100
AcDbEntity
  8
3-F
  6
Continuous
 62
     7
370
     9
100
AcDbLine
 10
-177.2897760133414
 20
384.5617504549522
 30
0.0
 11
-169.8539395530379
 21
385.5406968966025
 31
0.0
  0
LINE
  5
172
330
1F
100
AcDbEntity
  8
3-F
  6
Continuous
 62
     7
370
     9
100
AcDbLine
 10
-177.2897760133414
 20
384.5617504549522
 30
0.0
 11
-169.8539395530379
 21
383.5828040133017
 31
0.0
  0
LINE
  5
173
330
1F
100
AcDbEntity
  8
3-F
  6
Continuous
 62
     7
370
     9
100
AcDbLine
 10
222.7102940946083
 20
384.5617504549522
 30
0.0
 11
215.2744576343045
 21
385.5406968966025
 31
0.0
  0
LINE
  5
174
330
1F
100
AcDbEntity
  8
3-F
  6
Continuous
 62
     7
370
     9
100
AcDbLine
 10
222.7102940946083
 20
384.5617504549522
 30
0.0
 11
215.2744576343045
 21
383.5828040133017
 31
0.0
  0
LINE
  5
175
330
1F
100
AcDbEntity
  8
3-F
  6
Continuous
 62
     7
370
     9
100
AcDbLine
 10
-177.2897760133414
 20
385.4617504549522
 30
0.0
 11
-177.2897760133414
 21
351.5871021458305
 31
0.0
  0
LINE
  5
176
330
1F
100
AcDbEntity
  8
3-F
  6
Continuous
 62
     7
370
     9
100
AcDbLine
 10
222.7102940946083
 20
385.4617504549522
 30
0.0
 11
222.7102940946083
 21
351.5871021458305
 31
0.0
  0
TEXT
  5
177
330
1F
100
AcDbEntity
  8
3-F
  6
Continuous
 62
     2
370
   211
100
AcDbText
 10
12.96025904063328
 20
388.053750454952
 30
0.0
 40
9.144
  1
400
 41
1.083333333333333
  7
ＭＳ ゴシック
100
AcDbText
  0
LINE
  5
178
330
1F
100
AcDbEntity
  8
3-F
  6
Continuous
 62
     7
370
     9
100
AcDbLine
 10
219.3936107120067
 20
329.4997703635735
 30
0.0
 11
253.7662243332133
 21
329.4997703635735
 31
0.0
  0
LINE
  5
179
330
1F
100
AcDbEntity
  8
3-F
  6
Continuous
 62
     7
370
     9
100
AcDbLine
 10
252.8662362103249
 20
329.4997703635735
 30
0.0
 11
251.8872652960511
 21
322.063956253565
 31
0.0
  0
LINE
  5
17A
330
1F
100
AcDbEntity
  8
3-F
  6
Continuous
 62
     7
370
     9
100
AcDbLine
 10
252.8662362103249
 20
329.4997703635735
 30
0.0
 11
253.8452071245986
 21
322.063956253565
 31
0.0
  0
TEXT
  5
17B
330
1F
100
AcDbEntity
  8
3-F
  6
Continuous
 62
     2
370
     9
100
AcDbText
 10
249.6743054934752
 20
242.7497885091605
 30
0.0
 40
9.144
  1
154
 50
90.0
 41
1.083333333333333
  7
ＭＳ ゴシック
100
AcDbText
  0
LINE
  5
17C
330
1F
100
AcDbEntity
  8
3-F
  6
Continuous
 62
     7
370
     9
100
AcDbLine
 10
252.8662362103249
 20
175.4997703635734
 30
0.0
 11
253.8452071245986
 21
182.9355844735818
 31
0.0
  0
LINE
  5
17D
330
1F
100
AcDbEntity
  8
3-F
  6
Continuous
 62
     7
370
     9
100
AcDbLine
 10
252.8662362103249
 20
175.4997703635734
 30
0.0
 11
251.8872652960511
 21
182.9355844735818
 31
0.0
  0
LINE
  5
17E
330
1F
100
AcDbEntity
  8
3-F
  6
Continuous
 62
     7
370
     9
100
AcDbLine
 10
219.3936107120067
 20
175.4997703635734
 30
0.0
 11
253.7662243332133
 21
175.4997703635734
 31
0.0
  0
LINE
  5
17F
330
1F
100
AcDbEntity
  8
3-F
  6
Continuous
 62
     7
370
     9
100
AcDbLine
 10
252.8662362103249
 20
175.4997703635734
 30
0.0
 11
252.8662362103249
 21
329.4997703635735
 31
0.0
  0
LINE
  5
180
330
1F
100
AcDbEntity
  8
3-A
  6
Continuous
 62
     2
370
     9
100
AcDbLine
 10
26.71022840522681
 20
-125.7377470948873
 30
0.0
 11
25.71025038023953
 21
-126.7377251198747
 31
0.0
  0
LINE
  5
181
330
1F
100
AcDbEntity
  8
3-A
  6
Continuous
 62
     2
370
     9
100
AcDbLine
 10
18.71020006747545
 20
-125.7376946022967
 30
0.0
 11
19.71023058505358
 21
-126.7377251198747
 31
0.0
  0
LINE
  5
182
330
1F
100
AcDbEntity
  8
3-A
  6
Continuous
 62
     2
370
     9
100
AcDbLine
 10
28.71023553385015
 20
-121.7377086238865
 30
0.0
 11
25.71019205513841
 21
-121.7377117169381
 31
0.0
  0
LINE
  5
183
330
1F
100
AcDbEntity
  8
3-A
  6
Continuous
 62
     2
370
     9
100
AcDbLine
 10
19.71023641756386
 20
-121.7377179029058
 30
0.0
 11
16.71027017542514
 21
-121.7377209958777
 31
0.0
  0
LINE
  5
184
330
1F
100
AcDbEntity
  8
3-4
  6
Continuous
 62
     7
370
     9
100
AcDbLine
 10
-27.28968728849082
 20
-89.76683932794342
 30
0.0
 11
-21.34103600048411
 21
-88.983679917312
 31
0.0
  0
LINE
  5
185
330
1F
100
AcDbEntity
  8
3-4
  6
Continuous
 62
     7
370
     9
100
AcDbLine
 10
-27.28968728849082
 20
-89.76683932794342
 30
0.0
 11
-21.34103600048411
 21
-90.54998636658357
 31
0.0
  0
LINE
  5
186
330
1F
100
AcDbEntity
  8
3-4
  6
Continuous
 62
     7
370
     9
100
AcDbLine
 10
72.7101157611931
 20
-89.76683932794342
 30
0.0
 11
66.76146447318621
 21
-88.983679917312
 31
0.0
  0
LINE
  5
187
330
1F
100
AcDbEntity
  8
3-4
  6
Continuous
 62
     7
370
     9
100
AcDbLine
 10
72.7101157611931
 20
-89.76683932794342
 30
0.0
 11
66.76146447318621
 21
-90.54998636658357
 31
0.0
  0
LINE
  5
188
330
1F
100
AcDbEntity
  8
3-1
  6
JWW_CENTER1
 62
     6
370
     9
100
AcDbLine
 10
22.71024048264638
 20
9.077566590466915
 30
0.0
 11
22.71024048264638
 21
-135.1371403606596
 31
0.0
  0
ARC
  5
189
330
1F
100
AcDbEntity
  8
3-0
  6
Continuous
 62
     4
370
     9
100
AcDbCircle
 10
66.80973856864074
 20
-19.72396322391069
 30
0.0
 40
2.500000038432338
100
AcDbArc
 50
90.0
 51
155.224365234375
  0
ARC
  5
18A
330
1F
100
AcDbEntity
  8
3-0
  6
Continuous
 62
     4
370
     9
100
AcDbCircle
 10
84.2976452418805
 20
-18.1051967043569
 30
0.0
 40
3.499999684716744
100
AcDbArc
 50
201.0038757324219
 51
287.5001525878907
  0
ARC
  5
18B
330
1F
100
AcDbEntity
  8
3-A
  6
Continuous
 62
     2
370
     9
100
AcDbCircle
 10
27.91020903422321
 20
-22.5239180249032
 30
0.0
 40
0.1999999882085212
100
AcDbArc
 50
180.0
 51
231.7342834472657
  0
ARC
  5
18C
330
1F
100
AcDbEntity
  8
3-A
  6
Continuous
 62
     2
370
     9
100
AcDbCircle
 10
25.18526614569095
 20
-12.68901117067861
 30
0.0
 40
10.32495553797276
100
AcDbArc
 50
284.5909423828125
 51
359.8263702392578
  0
ARC
  5
18D
330
1F
100
AcDbEntity
  8
3-A
  6
Continuous
 62
     2
370
     9
100
AcDbCircle
 10
27.71026475531488
 20
-22.5239180249032
 30
0.0
 40
1.200000006144571
100
AcDbArc
 50
180.0
 51
270.0
  0
ARC
  5
18E
330
1F
100
AcDbEntity
  8
3-A
  6
Continuous
 62
     2
370
     9
100
AcDbCircle
 10
25.18526614569095
 20
-12.68901117067861
 30
0.0
 40
11.52495421129764
100
AcDbArc
 50
286.7679138183594
 51
359.8263702392578
  0
ARC
  5
18F
330
1F
100
AcDbEntity
  8
3-A
  6
Continuous
 62
     2
370
     9
100
AcDbCircle
 10
33.69840955992703
 20
-16.72390666623699
 30
0.0
 40
3.999999815432722
100
AcDbArc
 50
90.0
 51
147.7835083007812
  0
ARC
  5
190
330
1F
100
AcDbEntity
  8
3-A
  6
Continuous
 62
     2
370
     9
100
AcDbCircle
 10
17.51016694588787
 20
-22.5239180249032
 30
0.0
 40
0.1999999882085212
100
AcDbArc
 50
308.2657165527344
 51
0.0
  0
ARC
  5
191
330
1F
100
AcDbEntity
  8
3-A
  6
Continuous
 62
     2
370
     9
100
AcDbCircle
 10
20.23510983442014
 20
-12.68901117067861
 30
0.0
 40
10.32495553797276
100
AcDbArc
 50
180.1736297607421
 51
255.4090576171875
  0
ARC
  5
192
330
1F
100
AcDbEntity
  8
3-A
  6
Continuous
 62
     2
370
     9
100
AcDbCircle
 10
17.71021620997823
 20
-22.5239180249032
 30
0.0
 40
1.200000006144571
100
AcDbArc
 50
270.0
 51
0.0
  0
ARC
  5
193
330
1F
100
AcDbEntity
  8
3-A
  6
Continuous
 62
     2
370
     9
100
AcDbCircle
 10
20.23510983442014
 20
-12.68901117067861
 30
0.0
 40
11.52495421129764
100
AcDbArc
 50
180.1736297607421
 51
253.2320861816406
  0
ARC
  5
194
330
1F
100
AcDbEntity
  8
3-A
  6
Continuous
 62
     2
370
     9
100
AcDbCircle
 10
11.72207140536608
 20
-16.72390666623699
 30
0.0
 40
3.999999815432722
100
AcDbArc
 50
32.21649169921875
 51
90.0
  0
ARC
  5
195
330
1F
100
AcDbEntity
  8
3-0
  6
Continuous
 62
     4
370
     9
100
AcDbCircle
 10
-38.87721676917823
 20
-18.1051967043569
 30
0.0
 40
3.499999684716744
100
AcDbArc
 50
252.4998474121093
 51
338.9942016601562
  0
ARC
  5
196
330
1F
100
AcDbEntity
  8
3-0
  6
Continuous
 62
     4
370
     9
100
AcDbCircle
 10
78.49217465375608
 20
-19.72396322391069
 30
0.0
 40
2.500000038432338
100
AcDbArc
 50
21.00422668457031
 51
89.99999999999999
  0
ARC
  5
197
330
1F
100
AcDbEntity
  8
3-0
  6
Continuous
 62
     4
370
     9
100
AcDbCircle
 10
78.49217465375608
 20
-19.72396322391069
 30
0.0
 40
1.999999907716361
100
AcDbArc
 50
21.00422668457031
 51
89.99999999999999
  0
ARC
  5
198
330
1F
100
AcDbEntity
  8
3-0
  6
Continuous
 62
     4
370
     9
100
AcDbCircle
 10
66.80973856864074
 20
-19.72396322391069
 30
0.0
 40
1.999999907716361
100
AcDbArc
 50
90.0
 51
155.224365234375
  0
ARC
  5
199
330
1F
100
AcDbEntity
  8
3-0
  6
Continuous
 62
     4
370
     9
100
AcDbCircle
 10
60.93056838282979
 20
-21.72403592408716
 30
0.0
 40
2.500000038432338
100
AcDbArc
 50
270.0
 51
335.2248229980469
  0
ARC
  5
19A
330
1F
100
AcDbEntity
  8
3-0
  6
Continuous
 62
     4
370
     9
100
AcDbCircle
 10
60.93056838282979
 20
-21.72403592408716
 30
0.0
 40
1.999999907716361
100
AcDbArc
 50
270.0
 51
335.2248229980469
  0
ARC
  5
19B
330
1F
100
AcDbEntity
  8
3-0
  6
Continuous
 62
     4
370
     9
100
AcDbCircle
 10
84.2976452418805
 20
-18.1051967043569
 30
0.0
 40
3.999999815432722
100
AcDbArc
 50
201.0038757324219
 51
287.5001525878907
  0
ARC
  5
19C
330
1F
100
AcDbEntity
  8
3-0
  6
Continuous
 62
     4
370
     9
100
AcDbCircle
 10
-21.38941508112049
 20
-19.72396322391069
 30
0.0
 40
2.500000038432338
100
AcDbArc
 50
24.775634765625
 51
90.0
  0
ARC
  5
19D
330
1F
100
AcDbEntity
  8
3-0
  6
Continuous
 62
     4
370
     9
100
AcDbCircle
 10
-33.07174618105415
 20
-19.72396322391069
 30
0.0
 40
2.500000038432338
100
AcDbArc
 50
90.0
 51
158.9957733154297
  0
ARC
  5
19E
330
1F
100
AcDbEntity
  8
3-0
  6
Continuous
 62
     4
370
     9
100
AcDbCircle
 10
-33.07174618105415
 20
-19.72396322391069
 30
0.0
 40
1.999999907716361
100
AcDbArc
 50
90.0
 51
158.9957733154297
  0
ARC
  5
19F
330
1F
100
AcDbEntity
  8
3-0
  6
Continuous
 62
     4
370
     9
100
AcDbCircle
 10
-21.38941508112049
 20
-19.72396322391069
 30
0.0
 40
1.999999907716361
100
AcDbArc
 50
24.775634765625
 51
90.0
  0
ARC
  5
1A0
330
1F
100
AcDbEntity
  8
3-0
  6
Continuous
 62
     4
370
     9
100
AcDbCircle
 10
-15.51013991012752
 20
-21.72403592408716
 30
0.0
 40
2.500000038432338
100
AcDbArc
 50
204.7751770019531
 51
270.0
  0
ARC
  5
1A1
330
1F
100
AcDbEntity
  8
3-0
  6
Continuous
 62
     4
370
     9
100
AcDbCircle
 10
-15.51013991012752
 20
-21.72403592408716
 30
0.0
 40
1.999999907716361
100
AcDbArc
 50
204.7751770019531
 51
270.0
  0
ARC
  5
1A2
330
1F
100
AcDbEntity
  8
3-0
  6
Continuous
 62
     4
370
     9
100
AcDbCircle
 10
-38.87721676917823
 20
-18.1051967043569
 30
0.0
 40
3.999999815432722
100
AcDbArc
 50
252.4998474121093
 51
338.9961242675782
  0
LINE
  5
1A3
330
1F
100
AcDbEntity
  8
3-0
  6
Continuous
 62
     4
370
     9
100
AcDbLine
 10
64.99386237008906
 20
-18.88586651688701
 30
0.0
 11
63.20040050787117
 21
-22.77157806898038
 31
0.0
  0
LINE
  5
1A4
330
1F
100
AcDbEntity
  8
3-0
  6
Continuous
 62
     4
370
     9
100
AcDbLine
 10
64.53985395100818
 20
-18.67631609383562
 30
0.0
 11
62.74649707397197
 21
-22.56213263111084
 31
0.0
  0
LINE
  5
1A5
330
1F
100
AcDbEntity
  8
3-0
  6
Continuous
 62
     4
370
     9
100
AcDbLine
 10
78.49217465375608
 20
-17.72399550891623
 30
0.0
 11
66.80973856864074
 21
-17.72399550891623
 31
0.0
  0
LINE
  5
1A6
330
1F
100
AcDbEntity
  8
3-0
  6
Continuous
 62
     4
370
     9
100
AcDbLine
 10
80.35928362106966
 20
-19.0072293871512
 30
0.0
 11
80.56337481466284
 21
-19.53876936305772
 31
0.0
  0
LINE
  5
1A7
330
1F
100
AcDbEntity
  8
3-0
  6
Continuous
 62
     4
370
     9
100
AcDbLine
 10
80.82620521752295
 20
-18.82812466684788
 30
0.0
 11
81.0301914259341
 21
-19.35966464275424
 31
0.0
  0
LINE
  5
1A8
330
1F
100
AcDbEntity
  8
3-0
  6
Continuous
 62
     4
370
     9
100
AcDbLine
 10
35.78058067234105
 20
-17.22395108757661
 30
0.0
 11
78.49217465375608
 21
-17.22395108757661
 31
0.0
  0
LINE
  5
1A9
330
1F
100
AcDbEntity
  8
3-0
  6
Continuous
 62
     4
370
     9
100
AcDbLine
 10
16.76498212483631
 20
-17.22395108757661
 30
0.0
 11
18.71020006747545
 21
-17.22395108757661
 31
0.0
  0
LINE
  5
1AA
330
1F
100
AcDbEntity
  8
3-0
  6
Continuous
 62
     4
370
     9
100
AcDbLine
 10
28.65539385527512
 20
-17.22395108757661
 30
0.0
 11
26.71022840522681
 21
-17.22395108757661
 31
0.0
  0
LINE
  5
1AB
330
1F
100
AcDbEntity
  8
3-0
  6
Continuous
 62
     4
370
     9
100
AcDbLine
 10
-33.07174618105415
 20
-17.22395108757661
 30
0.0
 11
9.639900292952063
 21
-17.22395108757661
 31
0.0
  0
LINE
  5
1AC
330
1F
100
AcDbEntity
  8
3-A
  6
Continuous
 62
     2
370
     9
100
AcDbLine
 10
26.71022840522681
 20
6.362229846077526
 30
0.0
 11
26.71022840522681
 21
-17.72399550891623
 31
0.0
  0
LINE
  5
1AD
330
1F
100
AcDbEntity
  8
3-A
  6
Continuous
 62
     2
370
     9
100
AcDbLine
 10
18.71020006747545
 20
6.362229846077526
 30
0.0
 11
18.71020006747545
 21
-17.72399550891623
 31
0.0
  0
LINE
  5
1AE
330
1F
100
AcDbEntity
  8
3-A
  6
Continuous
 62
     2
370
     9
100
AcDbLine
 10
25.71019205513841
 20
7.362213703574753
 30
0.0
 11
25.71019205513841
 21
-17.72399550891623
 31
0.0
  0
LINE
  5
1AF
330
1F
100
AcDbEntity
  8
3-A
  6
Continuous
 62
     2
370
     9
100
AcDbLine
 10
19.71023641756386
 20
7.362213703574753
 30
0.0
 11
19.71023641756386
 21
-17.72399550891623
 31
0.0
  0
LINE
  5
1B0
330
1F
100
AcDbEntity
  8
3-A
  6
Continuous
 62
     2
370
     9
100
AcDbLine
 10
18.71020006747545
 20
6.362229846077526
 30
0.0
 11
26.71022840522681
 21
6.362229846077526
 31
0.0
  0
LINE
  5
1B1
330
1F
100
AcDbEntity
  8
3-A
  6
Continuous
 62
     2
370
     9
100
AcDbLine
 10
26.71017591263563
 20
6.362229846077526
 30
0.0
 11
25.71019205513841
 21
7.362213703574753
 31
0.0
  0
LINE
  5
1B2
330
1F
100
AcDbEntity
  8
3-A
  6
Continuous
 62
     2
370
     9
100
AcDbLine
 10
19.71023641756386
 20
7.362213703574753
 30
0.0
 11
18.71020006747545
 21
6.362229846077526
 31
0.0
  0
LINE
  5
1B3
330
1F
100
AcDbEntity
  8
3-A
  6
Continuous
 62
     2
370
     9
100
AcDbLine
 10
19.71023641756386
 20
7.362213703574753
 30
0.0
 11
25.71019205513841
 21
7.362213703574753
 31
0.0
  0
LINE
  5
1B4
330
1F
100
AcDbEntity
  8
3-A
  6
Continuous
 62
     2
370
     9
100
AcDbLine
 10
27.71026475531488
 20
-17.72399550891623
 30
0.0
 11
27.71026475531488
 21
-22.5239180249032
 31
0.0
  0
LINE
  5
1B5
330
1F
100
AcDbEntity
  8
3-A
  6
Continuous
 62
     2
370
     9
100
AcDbLine
 10
26.51017914113612
 20
-17.72399550891623
 30
0.0
 11
26.51017914113612
 21
-22.5239180249032
 31
0.0
  0
LINE
  5
1B6
330
1F
100
AcDbEntity
  8
3-A
  6
Continuous
 62
     2
370
     9
100
AcDbLine
 10
18.91014434638413
 20
-17.72399550891623
 30
0.0
 11
18.91014434638413
 21
-22.5239180249032
 31
0.0
  0
LINE
  5
1B7
330
1F
100
AcDbEntity
  8
3-A
  6
Continuous
 62
     2
370
     9
100
AcDbLine
 10
17.71021620997823
 20
-17.72399550891623
 30
0.0
 11
17.71021620997823
 21
-22.5239180249032
 31
0.0
  0
LINE
  5
1B8
330
1F
100
AcDbEntity
  8
3-A
  6
Continuous
 62
     2
370
     9
100
AcDbLine
 10
30.31431720690153
 20
-14.59134266651603
 30
0.0
 11
27.71026475531488
 21
-18.72387438123161
 31
0.0
  0
LINE
  5
1B9
330
1F
100
AcDbEntity
  8
3-A
  6
Continuous
 62
     2
370
     9
100
AcDbLine
 10
33.69840955992703
 20
-12.72386625106589
 30
0.0
 11
36.71022445797229
 21
-12.72386625106589
 31
0.0
  0
LINE
  5
1BA
330
1F
100
AcDbEntity
  8
3-A
  6
Continuous
 62
     2
370
     9
100
AcDbLine
 10
15.10621625098241
 20
-14.59134266651603
 30
0.0
 11
17.71021620997823
 21
-18.72387438123161
 31
0.0
  0
LINE
  5
1BB
330
1F
100
AcDbEntity
  8
3-A
  6
Continuous
 62
     2
370
     9
100
AcDbLine
 10
11.72207140536608
 20
-12.72386625106589
 30
0.0
 11
8.710151522138801
 21
-12.72386625106589
 31
0.0
  0
LINE
  5
1BC
330
1F
100
AcDbEntity
  8
3-A
  6
Continuous
 62
     2
370
     9
100
AcDbLine
 10
27.71026475531488
 20
-17.72399550891623
 30
0.0
 11
17.71021620997823
 21
-17.72399550891623
 31
0.0
  0
LINE
  5
1BD
330
1F
100
AcDbEntity
  8
3-1
  6
Continuous
 62
     6
370
     9
100
AcDbLine
 10
-27.28968728849082
 20
-18.13774211074264
 30
0.0
 11
-27.28968728849082
 21
-118.1377297387514
 31
0.0
  0
LINE
  5
1BE
330
1F
100
AcDbEntity
  8
3-1
  6
Continuous
 62
     6
370
     9
100
AcDbLine
 10
65.59175298094993
 20
-18.13774211074264
 30
0.0
 11
79.71021273403807
 21
-18.13774211074264
 31
0.0
  0
LINE
  5
1BF
330
1F
100
AcDbEntity
  8
3-1
  6
Continuous
 62
     6
370
     9
100
AcDbLine
 10
-34.28983675392664
 20
-18.13774211074264
 30
0.0
 11
-20.17132450824766
 21
-18.13774211074264
 31
0.0
  0
LINE
  5
1C0
330
1F
100
AcDbEntity
  8
3-0
  6
Continuous
 62
     4
370
     9
100
AcDbLine
 10
-35.40556677445699
 20
-18.82791469648402
 30
0.0
 11
-35.60981544582302
 21
-19.35976962793609
 31
0.0
  0
LINE
  5
1C1
330
1F
100
AcDbEntity
  8
3-0
  6
Continuous
 62
     4
370
     9
100
AcDbLine
 10
84.2976452418805
 20
-22.10513213434598
 30
0.0
 11
79.71021273403807
 21
-22.10513213434598
 31
0.0
  0
LINE
  5
1C2
330
1F
100
AcDbEntity
  8
3-0
  6
Continuous
 62
     4
370
     9
100
AcDbLine
 10
-38.87721676917823
 20
-22.10513213434598
 30
0.0
 11
-34.28983675392664
 21
-22.10513213434598
 31
0.0
  0
LINE
  5
1C3
330
1F
100
AcDbEntity
  8
3-0
  6
Continuous
 62
     4
370
     9
100
AcDbLine
 10
-15.51013991012752
 20
-23.72400363908179
 30
0.0
 11
60.93056838282979
 21
-23.72400363908179
 31
0.0
  0
LINE
  5
1C4
330
1F
100
AcDbEntity
  8
3-0
  6
Continuous
 62
     4
370
     9
100
AcDbLine
 10
-15.51013991012752
 20
-24.22404806042141
 30
0.0
 11
60.93056838282979
 21
-24.22404806042141
 31
0.0
  0
LINE
  5
1C5
330
1F
100
AcDbEntity
  8
3-0
  6
Continuous
 62
     4
370
     9
100
AcDbLine
 10
95.5598781364834
 20
-18.22403993025569
 30
0.0
 11
80.49214236875054
 21
-18.22403993025569
 31
0.0
  0
LINE
  5
1C6
330
1F
100
AcDbEntity
  8
3-0
  6
Continuous
 62
     4
370
     9
100
AcDbLine
 10
95.71021691694926
 20
-18.70088262639774
 30
0.0
 11
85.50046047078837
 21
-21.92004325867487
 31
0.0
  0
LINE
  5
1C7
330
1F
100
AcDbEntity
  8
3-0
  6
Continuous
 62
     4
370
     9
100
AcDbLine
 10
95.5598781364834
 20
-18.22403993025569
 30
0.0
 11
85.35012169032251
 21
-21.44309557735096
 31
0.0
  0
LINE
  5
1C8
330
1F
100
AcDbEntity
  8
3-0
  6
Continuous
 62
     4
370
     9
100
AcDbLine
 10
-19.57348638997797
 20
-18.88586651688701
 30
0.0
 11
-17.78002452776008
 21
-22.77157806898038
 31
0.0
  0
LINE
  5
1C9
330
1F
100
AcDbEntity
  8
3-0
  6
Continuous
 62
     4
370
     9
100
AcDbLine
 10
-17.3260161086792
 20
-22.56213263111084
 30
0.0
 11
-19.11942547830591
 21
-18.67631609383562
 31
0.0
  0
LINE
  5
1CA
330
1F
100
AcDbEntity
  8
3-0
  6
Continuous
 62
     4
370
     9
100
AcDbLine
 10
-40.0800319980861
 20
-21.92004325867487
 30
0.0
 11
-50.28973595165616
 21
-18.70088262639774
 31
0.0
  0
LINE
  5
1CB
330
1F
100
AcDbEntity
  8
3-0
  6
Continuous
 62
     4
370
     9
100
AcDbLine
 10
-34.93880265577656
 20
-19.00712440196935
 30
0.0
 11
-35.14299883455141
 21
-19.53876936305772
 31
0.0
  0
LINE
  5
1CC
330
1F
100
AcDbEntity
  8
3-0
  6
Continuous
 62
     4
370
     9
100
AcDbLine
 10
-50.1393971711903
 20
-18.22403993025569
 30
0.0
 11
-39.92958823243856
 21
-21.44309557735096
 31
0.0
  0
LINE
  5
1CD
330
1F
100
AcDbEntity
  8
3-0
  6
Continuous
 62
     4
370
     9
100
AcDbLine
 10
-50.1393971711903
 20
-18.22403993025569
 30
0.0
 11
-35.07176638863945
 21
-18.22403993025569
 31
0.0
  0
LINE
  5
1CE
330
1F
100
AcDbEntity
  8
3-0
  6
Continuous
 62
     4
370
     9
100
AcDbLine
 10
-33.07174618105415
 20
-17.72399550891623
 30
0.0
 11
-21.38941508112049
 21
-17.72399550891623
 31
0.0
  0
LINE
  5
1CF
330
1F
100
AcDbEntity
  8
3-0
  6
Continuous
 62
     4
370
     9
100
AcDbLine
 10
18.21020813872684
 20
-23.72400363908179
 30
0.0
 11
18.21020813872684
 21
-24.22404806042141
 31
0.0
  0
LINE
  5
1D0
330
1F
100
AcDbEntity
  8
3-0
  6
Continuous
 62
     4
370
     9
100
AcDbLine
 10
27.21027282656627
 20
-23.72400363908179
 30
0.0
 11
27.21027282656627
 21
-24.22404806042141
 31
0.0
  0
LINE
  5
1D1
330
1F
100
AcDbEntity
  8
3-0
  6
Continuous
 62
     4
370
     9
100
AcDbLine
 10
-50.28973595165616
 20
-18.70088262639774
 30
0.0
 11
-50.1393971711903
 21
-18.22403993025569
 31
0.0
  0
LINE
  5
1D2
330
1F
100
AcDbEntity
  8
3-0
  6
Continuous
 62
     4
370
     9
100
AcDbLine
 10
95.71021691694926
 20
-18.70088262639774
 30
0.0
 11
95.5598781364834
 21
-18.22403993025569
 31
0.0
  0
LINE
  5
1D3
330
1F
100
AcDbEntity
  8
3-1
  6
Continuous
 62
     6
370
     9
100
AcDbLine
 10
-34.28983675392664
 20
-18.13774211074264
 30
0.0
 11
-34.28983675392664
 21
-118.1377297387514
 31
0.0
  0
LINE
  5
1D4
330
1F
100
AcDbEntity
  8
3-1
  6
Continuous
 62
     6
370
     9
100
AcDbLine
 10
79.71021273403807
 20
-18.13774211074264
 30
0.0
 11
79.71021273403807
 21
-118.1377297387514
 31
0.0
  0
LINE
  5
1D5
330
1F
100
AcDbEntity
  8
3-1
  6
Continuous
 62
     6
370
     9
100
AcDbLine
 10
72.7101157611931
 20
-18.13774211074264
 30
0.0
 11
72.7101157611931
 21
-118.1377297387514
 31
0.0
  0
LINE
  5
1D6
330
1F
100
AcDbEntity
  8
3-A
  6
Continuous
 62
     2
370
     9
100
AcDbLine
 10
25.71019205513841
 20
-23.72400363908179
 30
0.0
 11
25.71019205513841
 21
-126.7377251198747
 31
0.0
  0
LINE
  5
1D7
330
1F
100
AcDbEntity
  8
3-A
  6
Continuous
 62
     2
370
     9
100
AcDbLine
 10
19.71023641756386
 20
-23.72400363908179
 30
0.0
 11
19.71023641756386
 21
-126.7377251198747
 31
0.0
  0
LINE
  5
1D8
330
1F
100
AcDbEntity
  8
3-A
  6
Continuous
 62
     2
370
     9
100
AcDbLine
 10
26.71022840522681
 20
-23.18721440408092
 30
0.0
 11
26.71022840522681
 21
-125.7377470948873
 31
0.0
  0
LINE
  5
1D9
330
1F
100
AcDbEntity
  8
3-A
  6
Continuous
 62
     2
370
     9
100
AcDbLine
 10
18.71020006747545
 20
-23.18721440408092
 30
0.0
 11
18.71020006747545
 21
-125.7376946022967
 31
0.0
  0
LINE
  5
1DA
330
1F
100
AcDbEntity
  8
3-4
  6
Continuous
 62
     2
370
     9
100
AcDbLine
 10
14.23672897457385
 20
255.9997663574049
 30
0.0
 11
12.21030499374314
 21
255.9997663574049
 31
0.0
  0
LINE
  5
1DB
330
1F
100
AcDbEntity
  8
3-4
  6
Continuous
 62
     2
370
     9
100
AcDbLine
 10
12.21030499374314
 20
248.999774369742
 30
0.0
 11
14.23672897457385
 21
248.999774369742
 31
0.0
  0
LINE
  5
1DC
330
1F
100
AcDbEntity
  8
3-4
  6
Continuous
 62
     2
370
     9
100
AcDbLine
 10
31.1838044833101
 20
255.9997663574049
 30
0.0
 11
33.21028095673165
 21
255.9997663574049
 31
0.0
  0
LINE
  5
1DD
330
1F
100
AcDbEntity
  8
3-4
  6
Continuous
 62
     2
370
     9
100
AcDbLine
 10
33.21028095673165
 20
248.999774369742
 30
0.0
 11
31.1838044833101
 21
248.999774369742
 31
0.0
  0
LINE
  5
1DE
330
1F
100
AcDbEntity
  8
3-4
  6
Continuous
 62
     2
370
     9
100
AcDbLine
 10
31.1838044833101
 20
254.7997857284082
 30
0.0
 11
33.21028095673165
 21
254.7997857284082
 31
0.0
  0
LINE
  5
1DF
330
1F
100
AcDbEntity
  8
3-4
  6
Continuous
 62
     2
370
     9
100
AcDbLine
 10
33.21028095673165
 20
250.1997549987387
 30
0.0
 11
31.1838044833101
 21
250.1997549987387
 31
0.0
  0
LINE
  5
1E0
330
1F
100
AcDbEntity
  8
3-4
  6
Continuous
 62
     2
370
     9
100
AcDbLine
 10
12.21030499374314
 20
250.1997549987387
 30
0.0
 11
14.23672897457385
 21
250.1997549987387
 31
0.0
  0
LINE
  5
1E1
330
1F
100
AcDbEntity
  8
3-4
  6
Continuous
 62
     2
370
     9
100
AcDbLine
 10
14.23672897457385
 20
254.7997857284082
 30
0.0
 11
12.21030499374314
 21
254.7997857284082
 31
0.0
  0
CIRCLE
  5
1E2
330
1F
100
AcDbEntity
  8
3-1
  6
JWW_DASHED2
 62
     6
370
     9
100
AcDbCircle
 10
22.71024048264638
 20
252.4997703635734
 30
0.0
 40
56.99998537453905
  0
CIRCLE
  5
1E3
330
1F
100
AcDbEntity
  8
3-1
  6
JWW_DASHED2
 62
     6
370
     9
100
AcDbCircle
 10
22.71024048264638
 20
252.4997703635734
 30
0.0
 40
49.99999338687616
  0
CIRCLE
  5
1E4
330
1F
100
AcDbEntity
  8
3-0
  6
Continuous
 62
     4
370
     9
100
AcDbCircle
 10
22.71024048264638
 20
252.4997703635734
 30
0.0
 40
42.49994057393903
  0
CIRCLE
  5
1E5
330
1F
100
AcDbEntity
  8
3-0
  6
Continuous
 62
     4
370
     9
100
AcDbCircle
 10
22.71024048264638
 20
252.4997703635734
 30
0.0
 40
42.81987963496027
  0
CIRCLE
  5
1E6
330
1F
100
AcDbEntity
  8
3-0
  6
Continuous
 62
     4
370
     9
100
AcDbCircle
 10
22.71024048264638
 20
252.4997703635734
 30
0.0
 40
57.15643954184985
  0
CIRCLE
  5
1E7
330
1F
100
AcDbEntity
  8
3-0
  6
Continuous
 62
     4
370
     9
100
AcDbCircle
 10
22.71024048264638
 20
252.4997703635734
 30
0.0
 40
57.50023976624242
  0
CIRCLE
  5
1E8
330
1F
100
AcDbEntity
  8
3-0
  6
JWW_DASHED1
 62
     4
370
     9
100
AcDbCircle
 10
22.71024048264638
 20
252.4997703635734
 30
0.0
 40
4.4999999461487
  0
ARC
  5
1E9
330
1F
100
AcDbEntity
  8
3-4
  6
Continuous
 62
     2
370
     9
100
AcDbCircle
 10
12.21030499374314
 20
252.4997703635734
 30
0.0
 40
3.49999886452001
100
AcDbArc
 50
90.0
 51
270.0
  0
ARC
  5
1EA
330
1F
100
AcDbEntity
  8
3-4
  6
Continuous
 62
     2
370
     9
100
AcDbCircle
 10
14.23672897457385
 20
257.1997469864017
 30
0.0
 40
1.200000006144571
100
AcDbArc
 50
270.0
 51
323.9680633544922
  0
ARC
  5
1EB
330
1F
100
AcDbEntity
  8
3-4
  6
Continuous
 62
     2
370
     9
100
AcDbCircle
 10
14.23672897457385
 20
247.7997937407452
 30
0.0
 40
1.200000006144571
100
AcDbArc
 50
36.03193664550781
 51
90.0
  0
ARC
  5
1EC
330
1F
100
AcDbEntity
  8
3-4
  6
Continuous
 62
     2
370
     9
100
AcDbCircle
 10
33.21028095673165
 20
252.4997703635734
 30
0.0
 40
3.49999886452001
100
AcDbArc
 50
270.0
 51
90.0
  0
ARC
  5
1ED
330
1F
100
AcDbEntity
  8
3-4
  6
Continuous
 62
     2
370
     9
100
AcDbCircle
 10
31.1838044833101
 20
257.1997469864017
 30
0.0
 40
1.200000006144571
100
AcDbArc
 50
216.0319366455078
 51
270.0
  0
ARC
  5
1EE
330
1F
100
AcDbEntity
  8
3-4
  6
Continuous
 62
     2
370
     9
100
AcDbCircle
 10
31.1838044833101
 20
247.7997937407452
 30
0.0
 40
1.200000006144571
100
AcDbArc
 50
90.0
 51
143.9680633544922
  0
ARC
  5
1EF
330
1F
100
AcDbEntity
  8
3-4
  6
Continuous
 62
     2
370
     9
100
AcDbCircle
 10
22.71024048264638
 20
252.4997703635734
 30
0.0
 40
8.499999761581421
100
AcDbArc
 50
28.02755737304688
 51
151.9724426269531
  0
ARC
  5
1F0
330
1F
100
AcDbEntity
  8
3-4
  6
Continuous
 62
     2
370
     9
100
AcDbCircle
 10
22.71024048264638
 20
252.4997703635734
 30
0.0
 40
8.499999761581421
100
AcDbArc
 50
208.0275573730468
 51
331.9724426269531
  0
ARC
  5
1F1
330
1F
100
AcDbEntity
  8
3-4
  6
Continuous
 62
     2
370
     9
100
AcDbCircle
 10
33.21028095673165
 20
252.4997703635734
 30
0.0
 40
2.299999165949213
100
AcDbArc
 50
270.0
 51
90.0
  0
ARC
  5
1F2
330
1F
100
AcDbEntity
  8
3-4
  6
Continuous
 62
     2
370
     9
100
AcDbCircle
 10
12.21030499374314
 20
252.4997703635734
 30
0.0
 40
2.299999165949213
100
AcDbArc
 50
90.0
 51
270.0
  0
ARC
  5
1F3
330
1F
100
AcDbEntity
  8
3-4
  6
Continuous
 62
     2
370
     9
100
AcDbCircle
 10
14.23672897457385
 20
257.1997469864017
 30
0.0
 40
2.400000012289143
100
AcDbArc
 50
270.0
 51
323.9680633544922
  0
ARC
  5
1F4
330
1F
100
AcDbEntity
  8
3-4
  6
Continuous
 62
     2
370
     9
100
AcDbCircle
 10
22.71024048264638
 20
252.4997703635734
 30
0.0
 40
7.300000268059807
100
AcDbArc
 50
28.02755737304688
 51
153.5666198730469
  0
ARC
  5
1F5
330
1F
100
AcDbEntity
  8
3-4
  6
Continuous
 62
     2
370
     9
100
AcDbCircle
 10
14.23672897457385
 20
247.7997937407452
 30
0.0
 40
2.400000012289143
100
AcDbArc
 50
32.02981567382812
 51
90.0
  0
ARC
  5
1F6
330
1F
100
AcDbEntity
  8
3-4
  6
Continuous
 62
     2
370
     9
100
AcDbCircle
 10
31.1838044833101
 20
257.1997469864017
 30
0.0
 40
2.400000012289143
100
AcDbArc
 50
212.029800415039
 51
270.0
  0
ARC
  5
1F7
330
1F
100
AcDbEntity
  8
3-4
  6
Continuous
 62
     2
370
     9
100
AcDbCircle
 10
22.71024048264638
 20
252.4997703635734
 30
0.0
 40
7.300000268059807
100
AcDbArc
 50
208.0275573730468
 51
331.9724426269531
  0
ARC
  5
1F8
330
1F
100
AcDbEntity
  8
3-4
  6
Continuous
 62
     2
370
     9
100
AcDbCircle
 10
31.1838044833101
 20
247.7997937407452
 30
0.0
 40
2.400000012289143
100
AcDbArc
 50
90.0
 51
147.9701843261719
  0
CIRCLE
  5
1F9
330
1F
100
AcDbEntity
  8
3-4
  6
Continuous
 62
     2
370
     9
100
AcDbCircle
 10
22.71024048264638
 20
252.4997703635734
 30
0.0
 40
4.99999966676631
  0
CIRCLE
  5
1FA
330
1F
100
AcDbEntity
  8
3-4
  6
Continuous
 62
     2
370
     9
100
AcDbCircle
 10
22.71024048264638
 20
252.4997703635734
 30
0.0
 40
3.799999353047963
  0
CIRCLE
  5
1FB
330
1F
100
AcDbEntity
  8
3-0
  6
Continuous
 62
     4
370
     9
100
AcDbCircle
 10
22.71024048264638
 20
252.4997703635734
 30
0.0
 40
72.84966390013233
  0
CIRCLE
  5
1FC
330
1F
100
AcDbEntity
  8
3-0
  6
Continuous
 62
     4
370
     9
100
AcDbCircle
 10
22.71024048264638
 20
252.4997703635734
 30
0.0
 40
72.99996331115486
  0
LINE
  5
1FD
330
1F
100
AcDbEntity
  8
3-4
  6
Continuous
 62
     7
370
     9
100
AcDbLine
 10
-27.28968728849082
 20
-89.76683932794342
 30
0.0
 11
72.7101157611931
 21
-89.76683932794342
 31
0.0
  0
TEXT
  5
1FE
330
1F
100
AcDbEntity
  8
3-4
  6
Continuous
 62
     2
370
   211
100
AcDbText
 10
-18.69691313522743
 20
-85.99303645886013
 30
0.0
 40
9.144
  1
φ100
 41
1.1
  7
ＭＳ ゴシック
100
AcDbText
  0
LINE
  5
1FF
330
1F
100
AcDbEntity
  8
3-5
  6
Continuous
 62
     7
370
     9
100
AcDbLine
 10
-12.09945897259485
 20
46.92890304476175
 30
0.0
 11
-141.934396571569
 21
46.92890304476175
 31
0.0
  0
TEXT
  5
200
330
1F
100
AcDbEntity
  8
3-5
  6
Continuous
 62
     7
370
     9
100
AcDbText
 10
-139.3119386095385
 20
36.51650139159434
 30
0.0
 40
6.858000000000001
  1
Ｍ８
 41
1.083333333333333
  7
ＭＳ ゴシック
100
AcDbText
  0
TEXT
  5
201
330
1F
100
AcDbEntity
  8
3-5
  6
Continuous
 62
     7
370
     9
100
AcDbText
 10
-138.9809895622191
 20
51.75743986106449
 30
0.0
 40
6.858000000000001
  1
長ネジボルト：ＳＷＲＭ８
 41
1.152777777777777
  7
ＭＳ ゴシック
100
AcDbText
  0
TEXT
  5
202
330
1F
100
AcDbEntity
  8
3-5
  6
Continuous
 62
     7
370
     9
100
AcDbText
 10
122.5349269489068
 20
-10.01604246893266
 30
0.0
 40
6.858000000000001
  1
硬質ポリ塩化ビニル
 41
1.148148148148148
  7
ＭＳ ゴシック
100
AcDbText
  0
LINE
  5
203
330
1F
100
AcDbEntity
  8
3-5
  6
Continuous
 62
     7
370
     9
100
AcDbLine
 10
122.2087578114126
 20
-0.597330149762243
 30
0.0
 11
215.7738853904485
 21
-0.597330149762243
 31
0.0
  0
TEXT
  5
204
330
1F
100
AcDbEntity
  8
3-5
  6
Continuous
 62
     7
370
     9
100
AcDbText
 10
143.4913216009305
 20
2.031824884175828
 30
0.0
 40
6.858000000000001
  1
スペーサー
 41
1.133333333333334
  7
ＭＳ ゴシック
100
AcDbText
  0
TEXT
  5
205
330
1F
100
AcDbEntity
  8
3-5
  6
Continuous
 62
     7
370
     9
100
AcDbText
 10
-271.8771643985604
 20
-301.2598373770128
 30
0.0
 40
6.858000000000001
  1
位置決めプレート：ＳＰＨＣ
 41
1.153846153846154
  7
ＭＳ ゴシック
100
AcDbText
  0
TEXT
  5
206
330
1F
100
AcDbEntity
  8
F-5ﾚｲﾔ
  6
Continuous
 62
     2
370
     9
100
AcDbText
 10
-258.0458701590805
 20
-406.3080934085331
 30
0.0
 40
9.144
  1
デッキプレート取付用スラブ貫通スリーブ　ＫＴ－Ｄ－ＶＰ１００　Ｌ＝指示
 41
0.8992857142857144
  7
ＭＳ ゴシック
100
AcDbText
  0
TEXT
  5
207
330
1F
100
AcDbEntity
  8
F-Fﾚｲﾔ
  6
Continuous
 62
     2
370
     9
100
AcDbText
 10
259.121052631579
 20
-332.5711578947369
 30
0.0
 40
9.144
  1
※ご注文の際はＬ寸法をご指示ください。
 41
1.118421052631579
  7
ＭＳ ゴシック
100
AcDbText
  0
ENDSEC
  0
SECTION
  2
OBJECTS
  0
DICTIONARY
  5
C
330
0
100
AcDbDictionary
281
     1
  3
ACAD_DETAILVIEWSTYLE
350
24D
  3
ACAD_GROUP
350
D
  3
ACAD_LAYOUT
350
1A
  3
ACAD_MATERIAL
350
43
  3
ACAD_MLEADERSTYLE
350
6B
  3
ACAD_MLINESTYLE
350
17
  3
ACAD_PLOTSETTINGS
350
19
  3
ACAD_PLOTSTYLENAME
350
E
  3
ACAD_SCALELIST
350
47
  3
ACAD_SECTIONVIEWSTYLE
350
24E
  3
ACAD_TABLESTYLE
350
69
  3
ACAD_VISUALSTYLE
350
2A
  3
ACDB_RECOMPOSE_DATA
350
24A
  3
AcDbVariableDictionary
350
20A
  0
DICTIONARY
  5
208
330
8
100
AcDbDictionary
280
     1
281
     1
  3
ACAD_XREC_ROUNDTRIP
360
209
  0
DICTIONARY
  5
24D
102
{ACAD_REACTORS
330
C
102
}
330
C
100
AcDbDictionary
281
     1
  0
DICTIONARY
  5
D
102
{ACAD_REACTORS
330
C
102
}
330
C
100
AcDbDictionary
281
     1
  0
DICTIONARY
  5
1A
102
{ACAD_REACTORS
330
C
102
}
330
C
100
AcDbDictionary
281
     1
  3
Layout1
350
1E
  3
Layout2
350
26
  3
Model
350
22
  0
DICTIONARY
  5
43
102
{ACAD_REACTORS
330
C
102
}
330
C
100
AcDbDictionary
281
     1
  3
ByBlock
350
45
  3
ByLayer
350
44
  3
Global
350
46
  0
DICTIONARY
  5
6B
102
{ACAD_REACTORS
330
C
102
}
330
C
100
AcDbDictionary
281
     1
  3
Standard
350
6C
  0
DICTIONARY
  5
17
102
{ACAD_REACTORS
330
C
102
}
330
C
100
AcDbDictionary
281
     1
  3
Standard
350
18
  0
DICTIONARY
  5
19
102
{ACAD_REACTORS
330
C
102
}
330
C
100
AcDbDictionary
281
     1
  0
ACDBDICTIONARYWDFLT
  5
E
102
{ACAD_REACTORS
330
C
102
}
330
C
100
AcDbDictionary
281
     1
  3
Normal
350
F
100
AcDbDictionaryWithDefault
340
F
  0
DICTIONARY
  5
47
102
{ACAD_REACTORS
330
C
102
}
330
C
100
AcDbDictionary
281
     1
  3
A0
350
48
  3
A1
350
49
  3
A2
350
4A
  3
A3
350
4B
  3
A4
350
4C
  3
A5
350
4D
  3
A6
350
4E
  3
A7
350
4F
  3
A8
350
50
  3
A9
350
51
  3
B0
350
52
  3
B1
350
53
  3
B2
350
54
  3
B3
350
55
  3
B4
350
56
  3
B5
350
57
  3
B6
350
58
  3
B7
350
59
  3
B8
350
5A
  3
B9
350
5B
  3
C0
350
5C
  3
C1
350
5D
  3
C2
350
5E
  3
C3
350
5F
  3
C4
350
60
  3
C5
350
61
  3
C6
350
62
  3
C7
350
63
  3
C8
350
64
  3
C9
350
65
  3
D0
350
66
  3
D1
350
67
  3
D2
350
68
  0
DICTIONARY
  5
24E
102
{ACAD_REACTORS
330
C
102
}
330
C
100
AcDbDictionary
281
     1
  0
DICTIONARY
  5
69
102
{ACAD_REACTORS
330
C
102
}
330
C
100
AcDbDictionary
281
     1
  3
Standard
350
6A
  0
DICTIONARY
  5
2A
102
{ACAD_REACTORS
330
C
102
}
330
C
100
AcDbDictionary
281
     1
  3
2dWireframe
350
2F
  3
Basic
350
32
  3
Brighten
350
36
  3
ColorChange
350
3A
  3
Conceptual
350
34
  3
Dim
350
35
  3
EdgeColorOff
350
3D
  3
Facepattern
350
39
  3
Flat
350
2B
  3
FlatWithEdges
350
2C
  3
Gouraud
350
2D
  3
GouraudWithEdges
350
2E
  3
Hidden
350
31
  3
JitterOff
350
3B
  3
Linepattern
350
38
  3
OverhangOff
350
3C
  3
Realistic
350
33
  3
Shaded
350
42
  3
Shaded with edges
350
41
  3
Shades of Gray
350
3E
  3
Sketchy
350
3F
  3
Thicken
350
37
  3
Wireframe
350
30
  3
X-Ray
350
40
  0
XRECORD
  5
24A
102
{ACAD_REACTORS
330
C
102
}
330
C
100
AcDbXrecord
280
     1
 90
        1
330
6A
  0
DICTIONARY
  5
20A
102
{ACAD_REACTORS
330
C
102
}
330
C
100
AcDbDictionary
281
     1
  3
CANNOSCALE
350
20B
  3
CENTEREXE
350
24F
  3
CENTERLTYPEFILE
350
250
  3
CMLEADERSTYLE
350
24C
  3
CTABLESTYLE
350
24B
  3
MSLTSCALE
350
20C
  3
XCLIPFRAME
350
20D
  0
XRECORD
  5
209
102
{ACAD_REACTORS
330
208
102
}
330
208
100
AcDbXrecord
280
     1
102
VTR_0.000_0.000_1.000_1.000_VISUALSTYLE
340
2F
102
VTR_0.000_0.000_1.000_1.000_GRIDDISPLAY
 70
     3
102
VTR_0.000_0.000_1.000_1.000_GRIDMAJOR
 70
     5
102
VTR_0.000_0.000_1.000_1.000_DEFAULTLIGHTING
280
     1
102
VTR_0.000_0.000_1.000_1.000_DEFAULTLIGHTINGTYPE
 70
     1
102
VTR_0.000_0.000_1.000_1.000_BRIGHTNESS
141
0.0
102
VTR_0.000_0.000_1.000_1.000_CONTRAST
142
0.0
  0
LAYOUT
  5
1E
102
{ACAD_REACTORS
330
1A
102
}
330
1A
100
AcDbPlotSettings
  1

  2
none_device
  4

  6

 40
0.0
 41
0.0
 42
0.0
 43
0.0
 44
0.0
 45
0.0
 46
0.0
 47
0.0
 48
0.0
 49
0.0
140
0.0
141
0.0
142
1.0
143
1.0
 70
   688
 72
     1
 73
     0
 74
     5
  7

 75
    16
 76
     0
 77
     5
 78
   300
147
1.0
148
0.0
149
0.0
100
AcDbLayout
  1
Layout1
 70
     1
 71
     1
 10
0.0
 20
0.0
 11
420.0
 21
297.0
 12
0.0
 22
0.0
 32
0.0
 14
1.000000000000000E+20
 24
1.000000000000000E+20
 34
1.000000000000000E+20
 15
-1.000000000000000E+20
 25
-1.000000000000000E+20
 35
-1.000000000000000E+20
146
0.0
 13
0.0
 23
0.0
 33
0.0
 16
1.0
 26
0.0
 36
0.0
 17
0.0
 27
1.0
 37
0.0
 76
     0
330
1B
  0
LAYOUT
  5
26
102
{ACAD_REACTORS
330
1A
102
}
330
1A
100
AcDbPlotSettings
  1

  2
none_device
  4

  6

 40
0.0
 41
0.0
 42
0.0
 43
0.0
 44
0.0
 45
0.0
 46
0.0
 47
0.0
 48
0.0
 49
0.0
140
0.0
141
0.0
142
1.0
143
1.0
 70
   688
 72
     1
 73
     0
 74
     5
  7

 75
    16
 76
     0
 77
     5
 78
   300
147
1.0
148
0.0
149
0.0
100
AcDbLayout
  1
Layout2
 70
     1
 71
     2
 10
0.0
 20
0.0
 11
0.0
 21
0.0
 12
0.0
 22
0.0
 32
0.0
 14
0.0
 24
0.0
 34
0.0
 15
0.0
 25
0.0
 35
0.0
146
0.0
 13
0.0
 23
0.0
 33
0.0
 16
1.0
 26
0.0
 36
0.0
 17
0.0
 27
1.0
 37
0.0
 76
     0
330
23
  0
LAYOUT
  5
22
102
{ACAD_REACTORS
330
1A
102
}
330
1A
100
AcDbPlotSettings
  1

  2
none_device
  4
Letter_(8.50_x_11.00_Inches)
  6

 40
6.35
 41
6.35
 42
6.35000508
 43
6.35000508
 44
215.9
 45
279.4
 46
0.0
 47
0.0
 48
0.0
 49
0.0
140
0.0
141
0.0
142
1.0
143
1.0
 70
  1712
 72
     1
 73
     0
 74
     0
  7

 75
     0
 76
     0
 77
     5
 78
   300
147
1.0
148
0.0
149
0.0
100
AcDbLayout
  1
Model
 70
     1
 71
     0
 10
-630.0
 20
-445.5
 11
630.0
 21
445.5
 12
0.0
 22
0.0
 32
0.0
 14
-630.0
 24
-445.5
 34
0.0
 15
630.0
 25
445.5
 35
0.0
146
0.0
 13
0.0
 23
0.0
 33
0.0
 16
1.0
 26
0.0
 36
0.0
 17
0.0
 27
1.0
 37
0.0
 76
     0
330
1F
331
29
  0
MATERIAL
  5
45
102
{ACAD_REACTORS
330
43
102
}
102
{ACAD_XDICTIONARY
360
240
102
}
330
43
100
AcDbMaterial
  1
ByBlock
  0
MATERIAL
  5
44
102
{ACAD_REACTORS
330
43
102
}
102
{ACAD_XDICTIONARY
360
23E
102
}
330
43
100
AcDbMaterial
  1
ByLayer
  0
MATERIAL
  5
46
102
{ACAD_REACTORS
330
43
102
}
102
{ACAD_XDICTIONARY
360
242
102
}
330
43
100
AcDbMaterial
  1
Global
  0
MLEADERSTYLE
  5
6C
102
{ACAD_REACTORS
330
6B
102
}
102
{ACAD_XDICTIONARY
360
248
102
}
330
6B
100
AcDbMLeaderStyle
170
     2
171
     1
172
     0
 90
        2
 40
0.0
 41
0.0
173
     1
 91
-1056964608
340
14
 92
       -2
290
     1
 42
2.0
291
     1
 43
8.0
  3
Standard
341
0
 44
4.0
300

342
11
174
     1
178
     6
175
     1
176
     0
 93
-1056964608
 45
4.0
292
     0
297
     0
 46
4.0
343
0
 94
-1056964608
 47
1.0
 49
1.0
140
1.0
293
     1
141
0.0
294
     1
177
     0
142
1.0
295
     0
296
     0
143
3.75
1001
ACAD_MLEADERVER
1070
     2
  0
MLINESTYLE
  5
18
102
{ACAD_REACTORS
330
17
102
}
330
17
100
AcDbMlineStyle
  2
Standard
 70
     0
  3

 62
   256
 51
90.0
 52
90.0
 71
     2
 49
0.5
 62
   256
  6
BYLAYER
 49
-0.5
 62
   256
  6
BYLAYER
  0
ACDBPLACEHOLDER
  5
F
102
{ACAD_REACTORS
330
E
102
}
330
E
  0
SCALE
  5
48
102
{ACAD_REACTORS
330
47
102
}
330
47
100
AcDbScale
 70
     0
300
1:1
140
1.0
141
1.0
290
     1
  0
SCALE
  5
49
102
{ACAD_REACTORS
330
47
102
}
330
47
100
AcDbScale
 70
     0
300
1:2
140
1.0
141
2.0
290
     0
  0
SCALE
  5
4A
102
{ACAD_REACTORS
330
47
102
}
330
47
100
AcDbScale
 70
     0
300
1:4
140
1.0
141
4.0
290
     0
  0
SCALE
  5
4B
102
{ACAD_REACTORS
330
47
102
}
330
47
100
AcDbScale
 70
     0
300
1:5
140
1.0
141
5.0
290
     0
  0
SCALE
  5
4C
102
{ACAD_REACTORS
330
47
102
}
330
47
100
AcDbScale
 70
     0
300
1:8
140
1.0
141
8.0
290
     0
  0
SCALE
  5
4D
102
{ACAD_REACTORS
330
47
102
}
330
47
100
AcDbScale
 70
     0
300
1:10
140
1.0
141
10.0
290
     0
  0
SCALE
  5
4E
102
{ACAD_REACTORS
330
47
102
}
330
47
100
AcDbScale
 70
     0
300
1:16
140
1.0
141
16.0
290
     0
  0
SCALE
  5
4F
102
{ACAD_REACTORS
330
47
102
}
330
47
100
AcDbScale
 70
     0
300
1:20
140
1.0
141
20.0
290
     0
  0
SCALE
  5
50
102
{ACAD_REACTORS
330
47
102
}
330
47
100
AcDbScale
 70
     0
300
1:30
140
1.0
141
30.0
290
     0
  0
SCALE
  5
51
102
{ACAD_REACTORS
330
47
102
}
330
47
100
AcDbScale
 70
     0
300
1:40
140
1.0
141
40.0
290
     0
  0
SCALE
  5
52
102
{ACAD_REACTORS
330
47
102
}
330
47
100
AcDbScale
 70
     0
300
1:50
140
1.0
141
50.0
290
     0
  0
SCALE
  5
53
102
{ACAD_REACTORS
330
47
102
}
330
47
100
AcDbScale
 70
     0
300
1:100
140
1.0
141
100.0
290
     0
  0
SCALE
  5
54
102
{ACAD_REACTORS
330
47
102
}
330
47
100
AcDbScale
 70
     0
300
2:1
140
2.0
141
1.0
290
     0
  0
SCALE
  5
55
102
{ACAD_REACTORS
330
47
102
}
330
47
100
AcDbScale
 70
     0
300
4:1
140
4.0
141
1.0
290
     0
  0
SCALE
  5
56
102
{ACAD_REACTORS
330
47
102
}
330
47
100
AcDbScale
 70
     0
300
8:1
140
8.0
141
1.0
290
     0
  0
SCALE
  5
57
102
{ACAD_REACTORS
330
47
102
}
330
47
100
AcDbScale
 70
     0
300
10:1
140
10.0
141
1.0
290
     0
  0
SCALE
  5
58
102
{ACAD_REACTORS
330
47
102
}
330
47
100
AcDbScale
 70
     0
300
100:1
140
100.0
141
1.0
290
     0
  0
SCALE
  5
59
102
{ACAD_REACTORS
330
47
102
}
330
47
100
AcDbScale
 70
     0
300
1/128" = 1'-0"
140
0.0078125
141
12.0
290
     0
  0
SCALE
  5
5A
102
{ACAD_REACTORS
330
47
102
}
330
47
100
AcDbScale
 70
     0
300
1/64" = 1'-0"
140
0.015625
141
12.0
290
     0
  0
SCALE
  5
5B
102
{ACAD_REACTORS
330
47
102
}
330
47
100
AcDbScale
 70
     0
300
1/32" = 1'-0"
140
0.03125
141
12.0
290
     0
  0
SCALE
  5
5C
102
{ACAD_REACTORS
330
47
102
}
330
47
100
AcDbScale
 70
     0
300
1/16" = 1'-0"
140
0.0625
141
12.0
290
     0
  0
SCALE
  5
5D
102
{ACAD_REACTORS
330
47
102
}
330
47
100
AcDbScale
 70
     0
300
3/32" = 1'-0"
140
0.09375
141
12.0
290
     0
  0
SCALE
  5
5E
102
{ACAD_REACTORS
330
47
102
}
330
47
100
AcDbScale
 70
     0
300
1/8" = 1'-0"
140
0.125
141
12.0
290
     0
  0
SCALE
  5
5F
102
{ACAD_REACTORS
330
47
102
}
330
47
100
AcDbScale
 70
     0
300
3/16" = 1'-0"
140
0.1875
141
12.0
290
     0
  0
SCALE
  5
60
102
{ACAD_REACTORS
330
47
102
}
330
47
100
AcDbScale
 70
     0
300
1/4" = 1'-0"
140
0.25
141
12.0
290
     0
  0
SCALE
  5
61
102
{ACAD_REACTORS
330
47
102
}
330
47
100
AcDbScale
 70
     0
300
3/8" = 1'-0"
140
0.375
141
12.0
290
     0
  0
SCALE
  5
62
102
{ACAD_REACTORS
330
47
102
}
330
47
100
AcDbScale
 70
     0
300
1/2" = 1'-0"
140
0.5
141
12.0
290
     0
  0
SCALE
  5
63
102
{ACAD_REACTORS
330
47
102
}
330
47
100
AcDbScale
 70
     0
300
3/4" = 1'-0"
140
0.75
141
12.0
290
     0
  0
SCALE
  5
64
102
{ACAD_REACTORS
330
47
102
}
330
47
100
AcDbScale
 70
     0
300
1" = 1'-0"
140
1.0
141
12.0
290
     0
  0
SCALE
  5
65
102
{ACAD_REACTORS
330
47
102
}
330
47
100
AcDbScale
 70
     0
300
1-1/2" = 1'-0"
140
1.5
141
12.0
290
     0
  0
SCALE
  5
66
102
{ACAD_REACTORS
330
47
102
}
330
47
100
AcDbScale
 70
     0
300
3" = 1'-0"
140
3.0
141
12.0
290
     0
  0
SCALE
  5
67
102
{ACAD_REACTORS
330
47
102
}
330
47
100
AcDbScale
 70
     0
300
6" = 1'-0"
140
6.0
141
12.0
290
     0
  0
SCALE
  5
68
102
{ACAD_REACTORS
330
47
102
}
330
47
100
AcDbScale
 70
     0
300
1'-0" = 1'-0"
140
12.0
141
12.0
290
     0
  0
TABLESTYLE
  5
6A
102
{ACAD_REACTORS
330
69
102
}
102
{ACAD_XDICTIONARY
360
244
102
}
330
69
100
AcDbTableStyle
  3
Standard
 70
     0
 71
     0
 40
0.06
 41
0.06
280
     0
281
     0
  7
Standard
140
4.5
170
     2
 62
     0
 63
   257
283
     0
274
    -2
284
     1
 64
     0
275
    -2
285
     1
 65
     0
276
    -2
286
     1
 66
     0
277
    -2
287
     1
 67
     0
278
    -2
288
     1
 68
     0
279
    -2
289
     1
 69
     0
  7
Standard
140
6.0
170
     5
 62
     0
 63
   257
283
     0
274
    -2
284
     1
 64
     0
275
    -2
285
     1
 65
     0
276
    -2
286
     1
 66
     0
277
    -2
287
     1
 67
     0
278
    -2
288
     1
 68
     0
279
    -2
289
     1
 69
     0
  7
Standard
140
4.5
170
     5
 62
     0
 63
   257
283
     0
274
    -2
284
     1
 64
     0
275
    -2
285
     1
 65
     0
276
    -2
286
     1
 66
     0
277
    -2
287
     1
 67
     0
278
    -2
288
     1
 68
     0
279
    -2
289
     1
 69
     0
  0
VISUALSTYLE
  5
2F
102
{ACAD_REACTORS
330
2A
102
}
102
{ACAD_XDICTIONARY
360
216
102
}
330
2A
100
AcDbVisualStyle
  2
2dWireframe
 70
     4
 71
     0
 72
     2
 73
     0
 90
        0
 40
0.6
 41
30.0
 62
     5
 63
     7
421
 16777215
 74
     1
 91
        4
 64
     7
 65
   257
 75
     1
175
     1
 42
1.0
 92
        0
 66
   257
 43
1.0
 76
     1
 77
     6
 78
     2
 67
     7
 79
     5
170
     0
171
     0
290
     0
174
     0
 93
        1
 44
0.0
173
     0
291
     0
 45
0.0
1001
ACAD
1000
AcDbSavedByObjectVersion
1070
     0
  0
VISUALSTYLE
  5
32
102
{ACAD_REACTORS
330
2A
102
}
102
{ACAD_XDICTIONARY
360
21C
102
}
330
2A
100
AcDbVisualStyle
  2
Basic
 70
     7
 71
     1
 72
     0
 73
     1
 90
        0
 40
0.6
 41
30.0
 62
     5
 63
     7
421
 16777215
 74
     0
 91
        4
 64
     7
 65
   257
 75
     1
175
     1
 42
1.0
 92
        8
 66
     7
 43
1.0
 76
     1
 77
     6
 78
     2
 67
     7
 79
     5
170
     0
171
     0
290
     0
174
     0
 93
        1
 44
0.0
173
     0
291
     1
 45
0.0
1001
ACAD
1000
AcDbSavedByObjectVersion
1070
     0
  0
VISUALSTYLE
  5
36
102
{ACAD_REACTORS
330
2A
102
}
102
{ACAD_XDICTIONARY
360
224
102
}
330
2A
100
AcDbVisualStyle
  2
Brighten
 70
    12
 71
     2
 72
     2
 73
     0
 90
        0
 40
0.6
 41
30.0
 62
     5
 63
     7
421
 16777215
 74
     1
 91
        4
 64
     7
 65
   257
 75
     1
175
     1
 42
1.0
 92
        8
 66
     7
 43
1.0
 76
     1
 77
     6
 78
     2
 67
     7
 79
     5
170
     0
171
     0
290
     0
174
     0
 93
        1
 44
50.0
173
     0
291
     1
 45
0.0
1001
ACAD
1000
AcDbSavedByObjectVersion
1070
     0
  0
VISUALSTYLE
  5
3A
102
{ACAD_REACTORS
330
2A
102
}
102
{ACAD_XDICTIONARY
360
22C
102
}
330
2A
100
AcDbVisualStyle
  2
ColorChange
 70
    16
 71
     2
 72
     2
 73
     3
 90
        0
 40
0.6
 41
30.0
 62
     5
 63
     8
421
  8421504
 74
     1
 91
        4
 64
     7
 65
   257
 75
     1
175
     1
 42
1.0
 92
        8
 66
     8
424
  8421504
 43
1.0
 76
     1
 77
     6
 78
     2
 67
     7
 79
     5
170
     0
171
     0
290
     0
174
     0
 93
        1
 44
0.0
173
     0
291
     1
 45
0.0
1001
ACAD
1000
AcDbSavedByObjectVersion
1070
     0
  0
VISUALSTYLE
  5
34
102
{ACAD_REACTORS
330
2A
102
}
102
{ACAD_XDICTIONARY
360
220
102
}
330
2A
100
AcDbVisualStyle
  2
Conceptual
 70
     9
 71
     3
 72
     2
 73
     0
 90
        0
 40
0.6
 41
30.0
 62
     5
 63
     7
421
 16777215
 74
     2
 91
        2
 64
     7
 65
   257
 75
     1
175
     1
 42
179.0
 92
        8
 66
     7
 43
1.0
 76
     1
 77
     6
 78
     2
 67
     7
 79
     3
170
     0
171
     0
290
     0
174
     0
 93
        1
 44
0.0
173
     0
291
     0
 45
0.0
1001
ACAD
1000
AcDbSavedByObjectVersion
1070
     0
  0
VISUALSTYLE
  5
35
102
{ACAD_REACTORS
330
2A
102
}
102
{ACAD_XDICTIONARY
360
222
102
}
330
2A
100
AcDbVisualStyle
  2
Dim
 70
    11
 71
     2
 72
     2
 73
     0
 90
        0
 40
0.6
 41
30.0
 62
     5
 63
     7
421
 16777215
 74
     1
 91
        4
 64
     7
 65
   257
 75
     1
175
     1
 42
1.0
 92
        8
 66
     7
 43
1.0
 76
     1
 77
     6
 78
     2
 67
     7
 79
     5
170
     0
171
     0
290
     0
174
     0
 93
        1
 44
-50.0
173
     0
291
     1
 45
0.0
1001
ACAD
1000
AcDbSavedByObjectVersion
1070
     0
  0
VISUALSTYLE
  5
3D
102
{ACAD_REACTORS
330
2A
102
}
102
{ACAD_XDICTIONARY
360
232
102
}
330
2A
100
AcDbVisualStyle
  2
EdgeColorOff
 70
    22
 71
     2
 72
     2
 73
     0
 90
        0
 40
0.6
 41
30.0
 62
     5
 63
     7
421
 16777215
 74
     1
 91
        4
 64
     7
 65
   257
 75
     1
175
     1
 42
1.0
 92
        8
 66
     7
 43
1.0
 76
     1
 77
     6
 78
     2
 67
     7
 79
     5
170
     0
171
     0
290
     0
174
     0
 93
        1
 44
0.0
173
     0
291
     1
 45
0.0
1001
ACAD
1000
AcDbSavedByObjectVersion
1070
     0
  0
VISUALSTYLE
  5
39
102
{ACAD_REACTORS
330
2A
102
}
102
{ACAD_XDICTIONARY
360
22A
102
}
330
2A
100
AcDbVisualStyle
  2
Facepattern
 70
    15
 71
     2
 72
     2
 73
     0
 90
        0
 40
0.6
 41
30.0
 62
     5
 63
     7
421
 16777215
 74
     1
 91
        4
 64
     7
 65
   257
 75
     1
175
     1
 42
1.0
 92
        8
 66
     7
 43
1.0
 76
     1
 77
     6
 78
     2
 67
     7
 79
     5
170
     0
171
     0
290
     0
174
     0
 93
        1
 44
0.0
173
     0
291
     1
 45
0.0
1001
ACAD
1000
AcDbSavedByObjectVersion
1070
     0
  0
VISUALSTYLE
  5
2B
102
{ACAD_REACTORS
330
2A
102
}
102
{ACAD_XDICTIONARY
360
20E
102
}
330
2A
100
AcDbVisualStyle
  2
Flat
 70
     0
 71
     2
 72
     1
 73
     1
 90
        2
 40
0.6
 41
30.0
 62
     5
 63
     7
421
 16777215
 74
     0
 91
        0
 64
     7
 65
   257
 75
     1
175
     1
 42
1.0
 92
        8
 66
     7
 43
1.0
 76
     1
 77
     6
 78
     2
 67
     7
 79
     5
170
     0
171
     0
290
     0
174
     0
 93
       13
 44
0.0
173
     0
291
     1
 45
0.0
1001
ACAD
1000
AcDbSavedByObjectVersion
1070
     0
  0
VISUALSTYLE
  5
2C
102
{ACAD_REACTORS
330
2A
102
}
102
{ACAD_XDICTIONARY
360
210
102
}
330
2A
100
AcDbVisualStyle
  2
FlatWithEdges
 70
     1
 71
     2
 72
     1
 73
     1
 90
        2
 40
0.6
 41
30.0
 62
     5
 63
     7
421
 16777215
 74
     1
 91
        0
 64
     7
 65
   257
 75
     1
175
     1
 42
1.0
 92
        0
 66
   257
 43
1.0
 76
     1
 77
     6
 78
     2
 67
     7
 79
     5
170
     0
171
     0
290
     0
174
     0
 93
       13
 44
0.0
173
     0
291
     1
 45
0.0
1001
ACAD
1000
AcDbSavedByObjectVersion
1070
     0
  0
VISUALSTYLE
  5
2D
102
{ACAD_REACTORS
330
2A
102
}
102
{ACAD_XDICTIONARY
360
212
102
}
330
2A
100
AcDbVisualStyle
  2
Gouraud
 70
     2
 71
     2
 72
     2
 73
     1
 90
        2
 40
0.6
 41
30.0
 62
     5
 63
     7
421
 16777215
 74
     0
 91
        0
 64
     7
 65
   257
 75
     1
175
     1
 42
1.0
 92
        0
 66
     7
 43
1.0
 76
     1
 77
     6
 78
     2
 67
     7
 79
     5
170
     0
171
     0
290
     0
174
     0
 93
       13
 44
0.0
173
     0
291
     1
 45
0.0
1001
ACAD
1000
AcDbSavedByObjectVersion
1070
     0
  0
VISUALSTYLE
  5
2E
102
{ACAD_REACTORS
330
2A
102
}
102
{ACAD_XDICTIONARY
360
214
102
}
330
2A
100
AcDbVisualStyle
  2
GouraudWithEdges
 70
     3
 71
     2
 72
     2
 73
     1
 90
        2
 40
0.6
 41
30.0
 62
     5
 63
     7
421
 16777215
 74
     1
 91
        0
 64
     7
 65
   257
 75
     1
175
     1
 42
1.0
 92
        0
 66
   257
 43
1.0
 76
     1
 77
     6
 78
     2
 67
     7
 79
     5
170
     0
171
     0
290
     0
174
     0
 93
       13
 44
0.0
173
     0
291
     1
 45
0.0
1001
ACAD
1000
AcDbSavedByObjectVersion
1070
     0
  0
VISUALSTYLE
  5
31
102
{ACAD_REACTORS
330
2A
102
}
102
{ACAD_XDICTIONARY
360
21A
102
}
330
2A
100
AcDbVisualStyle
  2
Hidden
 70
     6
 71
     1
 72
     2
 73
     2
 90
        0
 40
0.6
 41
30.0
 62
     5
 63
     7
421
 16777215
 74
     2
 91
        2
 64
     7
 65
   257
 75
     2
175
     1
 42
40.0
 92
        0
 66
   257
 43
1.0
 76
     1
 77
     6
 78
     2
 67
     7
 79
     3
170
     0
171
     0
290
     0
174
     0
 93
        1
 44
0.0
173
     0
291
     0
 45
0.0
1001
ACAD
1000
AcDbSavedByObjectVersion
1070
     0
  0
VISUALSTYLE
  5
3B
102
{ACAD_REACTORS
330
2A
102
}
102
{ACAD_XDICTIONARY
360
22E
102
}
330
2A
100
AcDbVisualStyle
  2
JitterOff
 70
    20
 71
     2
 72
     2
 73
     0
 90
        0
 40
0.6
 41
30.0
 62
     5
 63
     7
421
 16777215
 74
     1
 91
        4
 64
     7
 65
   257
 75
     1
175
     1
 42
1.0
 92
       10
 66
     7
 43
1.0
 76
     1
 77
     6
 78
     2
 67
     7
 79
     5
170
     0
171
     0
290
     0
174
     0
 93
        1
 44
0.0
173
     0
291
     1
 45
0.0
1001
ACAD
1000
AcDbSavedByObjectVersion
1070
     0
  0
VISUALSTYLE
  5
38
102
{ACAD_REACTORS
330
2A
102
}
102
{ACAD_XDICTIONARY
360
228
102
}
330
2A
100
AcDbVisualStyle
  2
Linepattern
 70
    14
 71
     2
 72
     2
 73
     0
 90
        0
 40
0.6
 41
30.0
 62
     5
 63
     7
421
 16777215
 74
     1
 91
        4
 64
     7
 65
   257
 75
     7
175
     7
 42
1.0
 92
        8
 66
     7
 43
1.0
 76
     1
 77
     6
 78
     2
 67
     7
 79
     5
170
     0
171
     0
290
     0
174
     0
 93
        1
 44
0.0
173
     0
291
     1
 45
0.0
1001
ACAD
1000
AcDbSavedByObjectVersion
1070
     0
  0
VISUALSTYLE
  5
3C
102
{ACAD_REACTORS
330
2A
102
}
102
{ACAD_XDICTIONARY
360
230
102
}
330
2A
100
AcDbVisualStyle
  2
OverhangOff
 70
    21
 71
     2
 72
     2
 73
     0
 90
        0
 40
0.6
 41
30.0
 62
     5
 63
     7
421
 16777215
 74
     1
 91
        4
 64
     7
 65
   257
 75
     1
175
     1
 42
1.0
 92
        9
 66
     7
 43
1.0
 76
     1
 77
     6
 78
     2
 67
     7
 79
     5
170
     0
171
     0
290
     0
174
     0
 93
        1
 44
0.0
173
     0
291
     1
 45
0.0
1001
ACAD
1000
AcDbSavedByObjectVersion
1070
     0
  0
VISUALSTYLE
  5
33
102
{ACAD_REACTORS
330
2A
102
}
102
{ACAD_XDICTIONARY
360
21E
102
}
330
2A
100
AcDbVisualStyle
  2
Realistic
 70
     8
 71
     2
 72
     3
 73
     0
 90
        2
 40
0.6
 41
30.0
 62
     5
 63
     7
421
 16777215
 74
     0
 91
        0
 64
     7
 65
   257
 75
     1
175
     1
 42
1.0
 92
        8
 66
   257
 43
1.0
 76
     1
 77
     6
 78
     2
 67
     7
 79
     3
170
     0
171
     0
290
     0
174
     0
 93
       13
 44
0.0
173
     0
291
     0
 45
0.0
1001
ACAD
1000
AcDbSavedByObjectVersion
1070
     0
  0
VISUALSTYLE
  5
42
102
{ACAD_REACTORS
330
2A
102
}
102
{ACAD_XDICTIONARY
360
23C
102
}
330
2A
100
AcDbVisualStyle
  2
Shaded
 70
    27
 71
     2
 72
     2
 73
     1
 90
        2
 40
0.6
 41
30.0
 62
     5
 63
     7
421
 16777215
 74
     0
 91
        4
 64
     7
 65
   257
 75
     1
175
     1
 42
1.0
 92
        8
 66
   257
 43
1.0
 76
     1
 77
     6
 78
     2
 67
     8
425
  7895160
 79
     3
170
     0
171
     0
290
     0
174
     0
 93
        5
 44
0.0
173
     0
291
     0
 45
0.0
1001
ACAD
1000
AcDbSavedByObjectVersion
1070
     0
  0
VISUALSTYLE
  5
41
102
{ACAD_REACTORS
330
2A
102
}
102
{ACAD_XDICTIONARY
360
23A
102
}
330
2A
100
AcDbVisualStyle
  2
Shaded with edges
 70
    26
 71
     2
 72
     2
 73
     1
 90
        2
 40
0.6
 41
30.0
 62
     5
 63
     7
421
 16777215
 74
     1
 91
       10
 64
     7
 65
   257
 75
     2
175
     1
 42
1.0
 92
        8
 66
   257
 43
1.0
 76
     1
 77
     6
 78
     2
 67
     7
 79
     3
170
     0
171
     0
290
     0
174
     0
 93
        5
 44
0.0
173
     0
291
     0
 45
0.0
1001
ACAD
1000
AcDbSavedByObjectVersion
1070
     0
  0
VISUALSTYLE
  5
3E
102
{ACAD_REACTORS
330
2A
102
}
102
{ACAD_XDICTIONARY
360
234
102
}
330
2A
100
AcDbVisualStyle
  2
Shades of Gray
 70
    23
 71
     2
 72
     2
 73
     3
 90
        0
 40
0.6
 41
30.0
 62
     5
 63
     7
421
 16777215
 74
     2
 91
        2
 64
     7
 65
     7
 75
     1
175
     1
 42
40.0
 92
        8
 66
     7
 43
1.0
 76
     1
 77
     6
 78
     2
 67
     7
 79
     3
170
     0
171
     0
290
     0
174
     0
 93
        1
 44
0.0
173
     0
291
     0
 45
0.0
1001
ACAD
1000
AcDbSavedByObjectVersion
1070
     0
  0
VISUALSTYLE
  5
3F
102
{ACAD_REACTORS
330
2A
102
}
102
{ACAD_XDICTIONARY
360
236
102
}
330
2A
100
AcDbVisualStyle
  2
Sketchy
 70
    24
 71
     1
 72
     2
 73
     2
 90
        0
 40
0.6
 41
30.0
 62
     5
 63
     7
421
 16777215
 74
     2
 91
        2
 64
     7
 65
     7
 75
     1
175
     1
 42
40.0
 92
       11
 66
     7
 43
1.0
 76
     1
 77
     6
 78
     2
 67
     7
 79
     6
170
     0
171
     0
290
     0
174
     0
 93
        1
 44
0.0
173
     0
291
     0
 45
0.0
1001
ACAD
1000
AcDbSavedByObjectVersion
1070
     0
  0
VISUALSTYLE
  5
37
102
{ACAD_REACTORS
330
2A
102
}
102
{ACAD_XDICTIONARY
360
226
102
}
330
2A
100
AcDbVisualStyle
  2
Thicken
 70
    13
 71
     2
 72
     2
 73
     0
 90
        0
 40
0.6
 41
30.0
 62
     5
 63
     7
421
 16777215
 74
     1
 91
        4
 64
     7
 65
   257
 75
     1
175
     1
 42
1.0
 92
       12
 66
     7
 43
1.0
 76
     1
 77
     6
 78
     2
 67
     7
 79
     5
170
     0
171
     0
290
     0
174
     0
 93
        1
 44
0.0
173
     0
291
     1
 45
0.0
1001
ACAD
1000
AcDbSavedByObjectVersion
1070
     0
  0
VISUALSTYLE
  5
30
102
{ACAD_REACTORS
330
2A
102
}
102
{ACAD_XDICTIONARY
360
218
102
}
330
2A
100
AcDbVisualStyle
  2
Wireframe
 70
     5
 71
     0
 72
     2
 73
     0
 90
        0
 40
0.6
 41
30.0
 62
     5
 63
     7
421
 16777215
 74
     1
 91
        4
 64
     7
 65
   257
 75
     1
175
     1
 42
1.0
 92
        0
 66
   257
 43
1.0
 76
     1
 77
     6
 78
     2
 67
     7
 79
     3
170
     0
171
     0
290
     0
174
     0
 93
        1
 44
0.0
173
     0
291
     0
 45
0.0
1001
ACAD
1000
AcDbSavedByObjectVersion
1070
     0
  0
VISUALSTYLE
  5
40
102
{ACAD_REACTORS
330
2A
102
}
102
{ACAD_XDICTIONARY
360
238
102
}
330
2A
100
AcDbVisualStyle
  2
X-Ray
 70
    25
 71
     2
 72
     2
 73
     1
 90
        1
 40
0.5
 41
30.0
 62
     5
 63
     7
421
 16777215
 74
     1
 91
        0
 64
     7
 65
   257
 75
     1
175
     1
 42
1.0
 92
        8
 66
     7
 43
1.0
 76
     1
 77
     6
 78
     2
 67
     7
 79
     3
170
     0
171
     0
290
     0
174
     0
 93
       13
 44
0.0
173
     0
291
     0
 45
0.0
1001
ACAD
1000
AcDbSavedByObjectVersion
1070
     0
  0
DICTIONARYVAR
  5
20B
102
{ACAD_REACTORS
330
20A
102
}
330
20A
100
DictionaryVariables
280
     0
  1
1:1
  0
DICTIONARYVAR
  5
24F
102
{ACAD_REACTORS
330
20A
102
}
330
20A
100
DictionaryVariables
280
     0
  1
3.500000
  0
DICTIONARYVAR
  5
250
102
{ACAD_REACTORS
330
20A
102
}
330
20A
100
DictionaryVariables
280
     0
  1
acadiso.lin
  0
DICTIONARYVAR
  5
24C
102
{ACAD_REACTORS
330
20A
102
}
330
20A
100
DictionaryVariables
280
     0
  1
Standard
  0
DICTIONARYVAR
  5
24B
102
{ACAD_REACTORS
330
20A
102
}
330
20A
100
DictionaryVariables
280
     0
  1
Standard
  0
DICTIONARYVAR
  5
20C
102
{ACAD_REACTORS
330
20A
102
}
330
20A
100
DictionaryVariables
280
     0
  1
1
  0
DICTIONARYVAR
  5
20D
102
{ACAD_REACTORS
330
20A
102
}
330
20A
100
DictionaryVariables
280
     0
  1
2
  0
DICTIONARY
  5
240
330
45
100
AcDbDictionary
280
     1
281
     1
  3
ACAD_XREC_ROUNDTRIP
360
241
  0
DICTIONARY
  5
23E
330
44
100
AcDbDictionary
280
     1
281
     1
  3
ACAD_XREC_ROUNDTRIP
360
23F
  0
DICTIONARY
  5
242
330
46
100
AcDbDictionary
280
     1
281
     1
  3
ACAD_XREC_ROUNDTRIP
360
243
  0
DICTIONARY
  5
248
330
6C
100
AcDbDictionary
280
     1
281
     1
  3
ACAD_XREC_ROUNDTRIP
360
249
  0
DICTIONARY
  5
244
330
6A
100
AcDbDictionary
280
     1
281
     1
  3
ACAD_ROUNDTRIP_2008_TABLESTYLE_CELLSTYLEMAP
360
246
  3
ACAD_XREC_ROUNDTRIP
360
245
  0
DICTIONARY
  5
216
330
2F
100
AcDbDictionary
280
     1
281
     1
  3
ACAD_XREC_ROUNDTRIP
360
217
  0
DICTIONARY
  5
21C
330
32
100
AcDbDictionary
280
     1
281
     1
  3
ACAD_XREC_ROUNDTRIP
360
21D
  0
DICTIONARY
  5
224
330
36
100
AcDbDictionary
280
     1
281
     1
  3
ACAD_XREC_ROUNDTRIP
360
225
  0
DICTIONARY
  5
22C
330
3A
100
AcDbDictionary
280
     1
281
     1
  3
ACAD_XREC_ROUNDTRIP
360
22D
  0
DICTIONARY
  5
220
330
34
100
AcDbDictionary
280
     1
281
     1
  3
ACAD_XREC_ROUNDTRIP
360
221
  0
DICTIONARY
  5
222
330
35
100
AcDbDictionary
280
     1
281
     1
  3
ACAD_XREC_ROUNDTRIP
360
223
  0
DICTIONARY
  5
232
330
3D
100
AcDbDictionary
280
     1
281
     1
  3
ACAD_XREC_ROUNDTRIP
360
233
  0
DICTIONARY
  5
22A
330
39
100
AcDbDictionary
280
     1
281
     1
  3
ACAD_XREC_ROUNDTRIP
360
22B
  0
DICTIONARY
  5
20E
330
2B
100
AcDbDictionary
280
     1
281
     1
  3
ACAD_XREC_ROUNDTRIP
360
20F
  0
DICTIONARY
  5
210
330
2C
100
AcDbDictionary
280
     1
281
     1
  3
ACAD_XREC_ROUNDTRIP
360
211
  0
DICTIONARY
  5
212
330
2D
100
AcDbDictionary
280
     1
281
     1
  3
ACAD_XREC_ROUNDTRIP
360
213
  0
DICTIONARY
  5
214
330
2E
100
AcDbDictionary
280
     1
281
     1
  3
ACAD_XREC_ROUNDTRIP
360
215
  0
DICTIONARY
  5
21A
330
31
100
AcDbDictionary
280
     1
281
     1
  3
ACAD_XREC_ROUNDTRIP
360
21B
  0
DICTIONARY
  5
22E
330
3B
100
AcDbDictionary
280
     1
281
     1
  3
ACAD_XREC_ROUNDTRIP
360
22F
  0
DICTIONARY
  5
228
330
38
100
AcDbDictionary
280
     1
281
     1
  3
ACAD_XREC_ROUNDTRIP
360
229
  0
DICTIONARY
  5
230
330
3C
100
AcDbDictionary
280
     1
281
     1
  3
ACAD_XREC_ROUNDTRIP
360
231
  0
DICTIONARY
  5
21E
330
33
100
AcDbDictionary
280
     1
281
     1
  3
ACAD_XREC_ROUNDTRIP
360
21F
  0
DICTIONARY
  5
23C
330
42
100
AcDbDictionary
280
     1
281
     1
  3
ACAD_XREC_ROUNDTRIP
360
23D
  0
DICTIONARY
  5
23A
330
41
100
AcDbDictionary
280
     1
281
     1
  3
ACAD_XREC_ROUNDTRIP
360
23B
  0
DICTIONARY
  5
234
330
3E
100
AcDbDictionary
280
     1
281
     1
  3
ACAD_XREC_ROUNDTRIP
360
235
  0
DICTIONARY
  5
236
330
3F
100
AcDbDictionary
280
     1
281
     1
  3
ACAD_XREC_ROUNDTRIP
360
237
  0
DICTIONARY
  5
226
330
37
100
AcDbDictionary
280
     1
281
     1
  3
ACAD_XREC_ROUNDTRIP
360
227
  0
DICTIONARY
  5
218
330
30
100
AcDbDictionary
280
     1
281
     1
  3
ACAD_XREC_ROUNDTRIP
360
219
  0
DICTIONARY
  5
238
330
40
100
AcDbDictionary
280
     1
281
     1
  3
ACAD_XREC_ROUNDTRIP
360
239
  0
XRECORD
  5
241
102
{ACAD_REACTORS
330
240
102
}
330
240
100
AcDbXrecord
280
     1
102
MATERIAL
148
0.0
149
0.0
149
0.0
 93
        0
 94
      127
282
     0
 72
     1
 77
     1
171
     1
175
     1
179
     1
273
     0
  0
XRECORD
  5
23F
102
{ACAD_REACTORS
330
23E
102
}
330
23E
100
AcDbXrecord
280
     1
102
MATERIAL
148
0.0
149
0.0
149
0.0
 93
        0
 94
      127
282
     0
 72
     1
 77
     1
171
     1
175
     1
179
     1
273
     0
  0
XRECORD
  5
243
102
{ACAD_REACTORS
330
242
102
}
330
242
100
AcDbXrecord
280
     1
102
MATERIAL
148
0.0
149
0.0
149
0.0
 93
        0
 94
      127
282
     0
 72
     1
 77
     1
171
     1
175
     1
179
     1
273
     0
  0
XRECORD
  5
249
102
{ACAD_REACTORS
330
248
102
}
330
248
100
AcDbXrecord
280
     1
102
ACAD_ROUNDTRIP_2010_MLEADER_STYLE
  0
CELLSTYLEMAP
  5
246
102
{ACAD_REACTORS
330
244
102
}
330
244
100
AcDbCellStyleMap
 90
        3
300
CELLSTYLE
  1
TABLEFORMAT_BEGIN
 90
        5
170
     1
 91
        0
 92
    32768
 62
   257
 93
        1
300
CONTENTFORMAT
  1
CONTENTFORMAT_BEGIN
 90
        0
 91
        0
 92
        4
 93
        0
300

 40
0.0
140
1.0
 94
        5
 62
     0
340
11
144
6.0
309
CONTENTFORMAT_END
171
     1
301
MARGIN
  1
CELLMARGIN_BEGIN
 40
1.5
 40
1.5
 40
1.5
 40
1.5
 40
1.5
 40
1.5
309
CELLMARGIN_END
 94
        6
 95
        1
302
GRIDFORMAT
  1
GRIDFORMAT_BEGIN
 90
        0
 91
        1
 62
     0
 92
       -2
340
14
 93
        0
 40
0.045
309
GRIDFORMAT_END
 95
        2
302
GRIDFORMAT
  1
GRIDFORMAT_BEGIN
 90
        0
 91
        1
 62
     0
 92
       -2
340
14
 93
        0
 40
0.045
309
GRIDFORMAT_END
 95
        4
302
GRIDFORMAT
  1
GRIDFORMAT_BEGIN
 90
        0
 91
        1
 62
     0
 92
       -2
340
14
 93
        0
 40
0.045
309
GRIDFORMAT_END
 95
        8
302
GRIDFORMAT
  1
GRIDFORMAT_BEGIN
 90
        0
 91
        1
 62
     0
 92
       -2
340
14
 93
        0
 40
0.045
309
GRIDFORMAT_END
 95
       16
302
GRIDFORMAT
  1
GRIDFORMAT_BEGIN
 90
        0
 91
        1
 62
     0
 92
       -2
340
14
 93
        0
 40
0.045
309
GRIDFORMAT_END
 95
       32
302
GRIDFORMAT
  1
GRIDFORMAT_BEGIN
 90
        0
 91
        1
 62
     0
 92
       -2
340
14
 93
        0
 40
0.045
309
GRIDFORMAT_END
309
TABLEFORMAT_END
  1
CELLSTYLE_BEGIN
 90
        1
 91
        1
300
_TITLE
309
CELLSTYLE_END
300
CELLSTYLE
  1
TABLEFORMAT_BEGIN
 90
        5
170
     1
 91
        0
 92
        0
 62
   257
 93
        1
300
CONTENTFORMAT
  1
CONTENTFORMAT_BEGIN
 90
        0
 91
        0
 92
        4
 93
        0
300

 40
0.0
140
1.0
 94
        5
 62
     0
340
11
144
4.5
309
CONTENTFORMAT_END
171
     1
301
MARGIN
  1
CELLMARGIN_BEGIN
 40
1.5
 40
1.5
 40
1.5
 40
1.5
 40
1.5
 40
1.5
309
CELLMARGIN_END
 94
        6
 95
        1
302
GRIDFORMAT
  1
GRIDFORMAT_BEGIN
 90
        0
 91
        1
 62
     0
 92
       -2
340
14
 93
        0
 40
0.045
309
GRIDFORMAT_END
 95
        2
302
GRIDFORMAT
  1
GRIDFORMAT_BEGIN
 90
        0
 91
        1
 62
     0
 92
       -2
340
14
 93
        0
 40
0.045
309
GRIDFORMAT_END
 95
        4
302
GRIDFORMAT
  1
GRIDFORMAT_BEGIN
 90
        0
 91
        1
 62
     0
 92
       -2
340
14
 93
        0
 40
0.045
309
GRIDFORMAT_END
 95
        8
302
GRIDFORMAT
  1
GRIDFORMAT_BEGIN
 90
        0
 91
        1
 62
     0
 92
       -2
340
14
 93
        0
 40
0.045
309
GRIDFORMAT_END
 95
       16
302
GRIDFORMAT
  1
GRIDFORMAT_BEGIN
 90
        0
 91
        1
 62
     0
 92
       -2
340
14
 93
        0
 40
0.045
309
GRIDFORMAT_END
 95
       32
302
GRIDFORMAT
  1
GRIDFORMAT_BEGIN
 90
        0
 91
        1
 62
     0
 92
       -2
340
14
 93
        0
 40
0.045
309
GRIDFORMAT_END
309
TABLEFORMAT_END
  1
CELLSTYLE_BEGIN
 90
        2
 91
        1
300
_HEADER
309
CELLSTYLE_END
300
CELLSTYLE
  1
TABLEFORMAT_BEGIN
 90
        5
170
     1
 91
        0
 92
        0
 62
   257
 93
        1
300
CONTENTFORMAT
  1
CONTENTFORMAT_BEGIN
 90
        0
 91
        0
 92
        4
 93
        0
300

 40
0.0
140
1.0
 94
        2
 62
     0
340
11
144
4.5
309
CONTENTFORMAT_END
171
     1
301
MARGIN
  1
CELLMARGIN_BEGIN
 40
1.5
 40
1.5
 40
1.5
 40
1.5
 40
1.5
 40
1.5
309
CELLMARGIN_END
 94
        6
 95
        1
302
GRIDFORMAT
  1
GRIDFORMAT_BEGIN
 90
        0
 91
        1
 62
     0
 92
       -2
340
14
 93
        0
 40
0.045
309
GRIDFORMAT_END
 95
        2
302
GRIDFORMAT
  1
GRIDFORMAT_BEGIN
 90
        0
 91
        1
 62
     0
 92
       -2
340
14
 93
        0
 40
0.045
309
GRIDFORMAT_END
 95
        4
302
GRIDFORMAT
  1
GRIDFORMAT_BEGIN
 90
        0
 91
        1
 62
     0
 92
       -2
340
14
 93
        0
 40
0.045
309
GRIDFORMAT_END
 95
        8
302
GRIDFORMAT
  1
GRIDFORMAT_BEGIN
 90
        0
 91
        1
 62
     0
 92
       -2
340
14
 93
        0
 40
0.045
309
GRIDFORMAT_END
 95
       16
302
GRIDFORMAT
  1
GRIDFORMAT_BEGIN
 90
        0
 91
        1
 62
     0
 92
       -2
340
14
 93
        0
 40
0.045
309
GRIDFORMAT_END
 95
       32
302
GRIDFORMAT
  1
GRIDFORMAT_BEGIN
 90
        0
 91
        1
 62
     0
 92
       -2
340
14
 93
        0
 40
0.045
309
GRIDFORMAT_END
309
TABLEFORMAT_END
  1
CELLSTYLE_BEGIN
 90
        3
 91
        2
300
_DATA
309
CELLSTYLE_END
  0
XRECORD
  5
245
102
{ACAD_REACTORS
330
244
102
}
330
244
100
AcDbXrecord
280
     1
102
ACAD_ROUNDTRIP_PRE2007_TABLESTYLE
 90
        4
 91
        0
  1

 92
        4
 93
        0
  2

 94
        4
 95
        0
  3

  0
XRECORD
  5
217
102
{ACAD_REACTORS
330
216
102
}
330
216
100
AcDbXrecord
280
     1
102
RTVSPropertyOp0
 70
     1
102
RTVSPropertyOp1
 70
     1
102
RTVSPropertyOp2
 70
     1
102
RTVSPropertyOp3
 70
     1
102
RTVSPropertyOp4
 70
     1
102
RTVSPropertyOp5
 70
     1
102
RTVSPropertyOp6
 70
     1
102
RTVSPropertyOp7
 70
     1
102
RTVSPropertyOp8
 70
     1
102
RTVSPropertyOp9
 70
     1
102
RTVSPropertyOp10
 70
     1
102
RTVSPropertyOp11
 70
     1
102
RTVSPropertyOp12
 70
     1
102
RTVSPropertyOp13
 70
     1
102
RTVSPropertyOp14
 70
     1
102
RTVSPropertyOp15
 70
     1
102
RTVSPropertyOp16
 70
     1
102
RTVSPropertyOp17
 70
     1
102
RTVSPropertyOp18
 70
     1
102
RTVSPropertyOp19
 70
     1
102
RTVSPropertyOp20
 70
     1
102
RTVSPropertyOp21
 70
     1
102
RTVSPropertyOp22
 70
     1
102
RTVSPropertyOp23
 70
     1
102
RTVSPropertyOp24
 70
     1
102
RTVSPropertyOp25
 70
     1
102
RTVSPropertyOp26
 70
     1
102
RTVSPropertyOp27
 70
     1
102
RTVSPropertyOp28
 70
     1
102
RTVSPropertyOp29
 70
     1
102
RTVSPropertyOp30
 70
     1
102
RTVSPropertyOp31
 70
     1
102
RTVSPropertyOp32
 70
     1
102
RTVSPropertyOp33
 70
     1
102
RTVSPropertyOp34
 70
     1
102
RTVSPropertyOp35
 70
     1
102
RTVSPropertyOp36
 70
     1
102
RTVSPropertyOp37
 70
     1
102
RTVSPropertyOp38
 70
     1
102
RTVSPropertyOp39
 70
     1
102
RTVSPropertyOp40
 70
     1
102
RTVSPropertyOp41
 70
     1
102
RTVSPropertyOp42
 70
     1
102
RTVSPropertyOp43
 70
     1
102
RTVSPropertyOp44
 70
     1
102
RTVSPropertyOp45
 70
     1
102
RTVSPropertyOp46
 70
     1
102
RTVSPropertyOp47
 70
     1
102
RTVSPropertyOp48
 70
     1
102
RTVSPropertyOp49
 70
     1
102
RTVSPropertyOp50
 70
     1
102
RTVSPropertyOp51
 70
     0
102
RTVSPropertyOp52
 70
     0
102
RTVSPropertyOp53
 70
     1
102
RTVSPropertyOp54
 70
     1
102
RTVSPropertyOp55
 70
     1
102
RTVSPropertyOp56
 70
     1
102
RTVSPropertyOp57
 70
     1
102
RTVSPost2010Prop28
280
     1
102
RTVSPost2010PropOp28
 70
     1
102
RTVSPost2010Prop29
280
     1
102
RTVSPost2010PropOp29
 70
     1
102
RTVSPost2010Prop30
280
     0
102
RTVSPost2010PropOp30
 70
     1
102
RTVSPost2010Prop31
280
     0
102
RTVSPost2010PropOp31
 70
     1
102
RTVSPost2010Prop32
280
     0
102
RTVSPost2010PropOp32
 70
     1
102
RTVSPost2010Prop33
280
     0
102
RTVSPost2010PropOp33
 70
     1
102
RTVSPost2010Prop34
280
     0
102
RTVSPost2010PropOp34
 70
     1
102
RTVSPost2010Prop35
280
     0
102
RTVSPost2010PropOp35
 70
     1
102
RTVSPost2010Prop36
280
     0
102
RTVSPost2010PropOp36
 70
     1
102
RTVSPost2010Prop37
 90
       50
102
RTVSPost2010PropOp37
 70
     1
102
RTVSPost2010Prop38
140
0.0
102
RTVSPost2010PropOp38
 70
     1
102
RTVSPost2010Prop39
140
1.0
102
RTVSPost2010PropOp39
 70
     1
102
RTVSPost2010Prop40
 90
        0
102
RTVSPost2010PropOp40
 70
     1
102
RTVSPost2010Prop41ColorIndex
 90
       18
102
RTVSPost2010Prop41ColorRGB
 90
        0
102
RTVSPost2010PropOp41
 70
     1
102
RTVSPost2010Prop42
 90
       50
102
RTVSPost2010PropOp42
 70
     1
102
RTVSPost2010Prop43
 90
        3
102
RTVSPost2010PropOp43
 70
     1
102
RTVSPost2010Prop44ColorIndex
 90
        5
102
RTVSPost2010Prop44ColorRGB
 90
      255
102
RTVSPost2010PropOp44
 70
     1
102
RTVSPost2010Prop45
280
     0
102
RTVSPost2010PropOp45
 70
     1
102
RTVSPost2010Prop46
 90
       50
102
RTVSPost2010PropOp46
 70
     1
102
RTVSPost2010Prop47
 90
       50
102
RTVSPost2010PropOp47
 70
     1
102
RTVSPost2010Prop48
 90
       50
102
RTVSPost2010PropOp48
 70
     1
102
RTVSPost2010Prop49
280
     0
102
RTVSPost2010PropOp49
 70
     1
102
RTVSPost2010Prop50
 90
       50
102
RTVSPost2010PropOp50
 70
     1
102
RTVSPost2010Prop51ColorIndex
 90
      256
102
RTVSPost2010Prop51ColorRGB
 90
-16777216
102
RTVSPost2010PropOp51
 70
     0
102
RTVSPost2010Prop52
140
1.0
102
RTVSPost2010PropOp52
 70
     0
102
RTVSPost2010Prop53
 90
        2
102
RTVSPost2010PropOp53
 70
     1
102
RTVSPost2010Prop54
  1
strokes_ogs.tif
102
RTVSPost2010PropOp54
 70
     1
102
RTVSPost2010Prop55
280
     0
102
RTVSPost2010PropOp55
 70
     1
102
RTVSPost2010Prop56
140
1.0
102
RTVSPost2010PropOp56
 70
     1
102
RTVSPost2010Prop57
140
1.0
102
RTVSPost2010PropOp57
 70
     1
  0
XRECORD
  5
21D
102
{ACAD_REACTORS
330
21C
102
}
330
21C
100
AcDbXrecord
280
     1
102
RTVSPropertyOp0
 70
     1
102
RTVSPropertyOp1
 70
     1
102
RTVSPropertyOp2
 70
     1
102
RTVSPropertyOp3
 70
     1
102
RTVSPropertyOp4
 70
     1
102
RTVSPropertyOp5
 70
     1
102
RTVSPropertyOp6
 70
     1
102
RTVSPropertyOp7
 70
     1
102
RTVSPropertyOp8
 70
     1
102
RTVSPropertyOp9
 70
     1
102
RTVSPropertyOp10
 70
     1
102
RTVSPropertyOp11
 70
     1
102
RTVSPropertyOp12
 70
     1
102
RTVSPropertyOp13
 70
     1
102
RTVSPropertyOp14
 70
     1
102
RTVSPropertyOp15
 70
     1
102
RTVSPropertyOp16
 70
     1
102
RTVSPropertyOp17
 70
     1
102
RTVSPropertyOp18
 70
     1
102
RTVSPropertyOp19
 70
     1
102
RTVSPropertyOp20
 70
     1
102
RTVSPropertyOp21
 70
     1
102
RTVSPropertyOp22
 70
     1
102
RTVSPropertyOp23
 70
     1
102
RTVSPropertyOp24
 70
     1
102
RTVSPropertyOp25
 70
     1
102
RTVSPropertyOp26
 70
     1
102
RTVSPropertyOp27
 70
     1
102
RTVSPropertyOp28
 70
     1
102
RTVSPropertyOp29
 70
     1
102
RTVSPropertyOp30
 70
     1
102
RTVSPropertyOp31
 70
     1
102
RTVSPropertyOp32
 70
     1
102
RTVSPropertyOp33
 70
     1
102
RTVSPropertyOp34
 70
     1
102
RTVSPropertyOp35
 70
     1
102
RTVSPropertyOp36
 70
     1
102
RTVSPropertyOp37
 70
     1
102
RTVSPropertyOp38
 70
     1
102
RTVSPropertyOp39
 70
     1
102
RTVSPropertyOp40
 70
     1
102
RTVSPropertyOp41
 70
     1
102
RTVSPropertyOp42
 70
     1
102
RTVSPropertyOp43
 70
     1
102
RTVSPropertyOp44
 70
     1
102
RTVSPropertyOp45
 70
     1
102
RTVSPropertyOp46
 70
     1
102
RTVSPropertyOp47
 70
     1
102
RTVSPropertyOp48
 70
     1
102
RTVSPropertyOp49
 70
     1
102
RTVSPropertyOp50
 70
     1
102
RTVSPropertyOp51
 70
     0
102
RTVSPropertyOp52
 70
     0
102
RTVSPropertyOp53
 70
     1
102
RTVSPropertyOp54
 70
     1
102
RTVSPropertyOp55
 70
     1
102
RTVSPropertyOp56
 70
     1
102
RTVSPropertyOp57
 70
     1
102
RTVSPost2010Prop28
280
     0
102
RTVSPost2010PropOp28
 70
     1
102
RTVSPost2010Prop29
280
     1
102
RTVSPost2010PropOp29
 70
     1
102
RTVSPost2010Prop30
280
     1
102
RTVSPost2010PropOp30
 70
     1
102
RTVSPost2010Prop31
280
     0
102
RTVSPost2010PropOp31
 70
     1
102
RTVSPost2010Prop32
280
     0
102
RTVSPost2010PropOp32
 70
     1
102
RTVSPost2010Prop33
280
     0
102
RTVSPost2010PropOp33
 70
     1
102
RTVSPost2010Prop34
280
     0
102
RTVSPost2010PropOp34
 70
     1
102
RTVSPost2010Prop35
280
     0
102
RTVSPost2010PropOp35
 70
     1
102
RTVSPost2010Prop36
280
     0
102
RTVSPost2010PropOp36
 70
     1
102
RTVSPost2010Prop37
 90
       50
102
RTVSPost2010PropOp37
 70
     1
102
RTVSPost2010Prop38
140
0.0
102
RTVSPost2010PropOp38
 70
     1
102
RTVSPost2010Prop39
140
1.0
102
RTVSPost2010PropOp39
 70
     1
102
RTVSPost2010Prop40
 90
        0
102
RTVSPost2010PropOp40
 70
     1
102
RTVSPost2010Prop41ColorIndex
 90
       18
102
RTVSPost2010Prop41ColorRGB
 90
        0
102
RTVSPost2010PropOp41
 70
     1
102
RTVSPost2010Prop42
 90
       50
102
RTVSPost2010PropOp42
 70
     1
102
RTVSPost2010Prop43
 90
        3
102
RTVSPost2010PropOp43
 70
     1
102
RTVSPost2010Prop44ColorIndex
 90
        5
102
RTVSPost2010Prop44ColorRGB
 90
      255
102
RTVSPost2010PropOp44
 70
     1
102
RTVSPost2010Prop45
280
     0
102
RTVSPost2010PropOp45
 70
     1
102
RTVSPost2010Prop46
 90
       50
102
RTVSPost2010PropOp46
 70
     1
102
RTVSPost2010Prop47
 90
       50
102
RTVSPost2010PropOp47
 70
     1
102
RTVSPost2010Prop48
 90
       50
102
RTVSPost2010PropOp48
 70
     1
102
RTVSPost2010Prop49
280
     0
102
RTVSPost2010PropOp49
 70
     1
102
RTVSPost2010Prop50
 90
       50
102
RTVSPost2010PropOp50
 70
     1
102
RTVSPost2010Prop51ColorIndex
 90
      256
102
RTVSPost2010Prop51ColorRGB
 90
-16777216
102
RTVSPost2010PropOp51
 70
     0
102
RTVSPost2010Prop52
140
1.0
102
RTVSPost2010PropOp52
 70
     0
102
RTVSPost2010Prop53
 90
        2
102
RTVSPost2010PropOp53
 70
     1
102
RTVSPost2010Prop54
  1
strokes_ogs.tif
102
RTVSPost2010PropOp54
 70
     1
102
RTVSPost2010Prop55
280
     0
102
RTVSPost2010PropOp55
 70
     1
102
RTVSPost2010Prop56
140
1.0
102
RTVSPost2010PropOp56
 70
     1
102
RTVSPost2010Prop57
140
1.0
102
RTVSPost2010PropOp57
 70
     1
  0
XRECORD
  5
225
102
{ACAD_REACTORS
330
224
102
}
330
224
100
AcDbXrecord
280
     1
102
RTVSPropertyOp0
 70
     1
102
RTVSPropertyOp1
 70
     1
102
RTVSPropertyOp2
 70
     1
102
RTVSPropertyOp3
 70
     1
102
RTVSPropertyOp4
 70
     1
102
RTVSPropertyOp5
 70
     1
102
RTVSPropertyOp6
 70
     1
102
RTVSPropertyOp7
 70
     1
102
RTVSPropertyOp8
 70
     1
102
RTVSPropertyOp9
 70
     1
102
RTVSPropertyOp10
 70
     1
102
RTVSPropertyOp11
 70
     1
102
RTVSPropertyOp12
 70
     1
102
RTVSPropertyOp13
 70
     1
102
RTVSPropertyOp14
 70
     1
102
RTVSPropertyOp15
 70
     1
102
RTVSPropertyOp16
 70
     1
102
RTVSPropertyOp17
 70
     1
102
RTVSPropertyOp18
 70
     1
102
RTVSPropertyOp19
 70
     1
102
RTVSPropertyOp20
 70
     1
102
RTVSPropertyOp21
 70
     1
102
RTVSPropertyOp22
 70
     1
102
RTVSPropertyOp23
 70
     1
102
RTVSPropertyOp24
 70
     1
102
RTVSPropertyOp25
 70
     1
102
RTVSPropertyOp26
 70
     1
102
RTVSPropertyOp27
 70
     1
102
RTVSPropertyOp28
 70
     1
102
RTVSPropertyOp29
 70
     1
102
RTVSPropertyOp30
 70
     1
102
RTVSPropertyOp31
 70
     1
102
RTVSPropertyOp32
 70
     1
102
RTVSPropertyOp33
 70
     1
102
RTVSPropertyOp34
 70
     1
102
RTVSPropertyOp35
 70
     1
102
RTVSPropertyOp36
 70
     1
102
RTVSPropertyOp37
 70
     1
102
RTVSPropertyOp38
 70
     1
102
RTVSPropertyOp39
 70
     1
102
RTVSPropertyOp40
 70
     1
102
RTVSPropertyOp41
 70
     1
102
RTVSPropertyOp42
 70
     1
102
RTVSPropertyOp43
 70
     1
102
RTVSPropertyOp44
 70
     1
102
RTVSPropertyOp45
 70
     1
102
RTVSPropertyOp46
 70
     1
102
RTVSPropertyOp47
 70
     1
102
RTVSPropertyOp48
 70
     1
102
RTVSPropertyOp49
 70
     1
102
RTVSPropertyOp50
 70
     1
102
RTVSPropertyOp51
 70
     0
102
RTVSPropertyOp52
 70
     0
102
RTVSPropertyOp53
 70
     1
102
RTVSPropertyOp54
 70
     1
102
RTVSPropertyOp55
 70
     1
102
RTVSPropertyOp56
 70
     1
102
RTVSPropertyOp57
 70
     1
102
RTVSPost2010Prop28
280
     0
102
RTVSPost2010PropOp28
 70
     1
102
RTVSPost2010Prop29
280
     1
102
RTVSPost2010PropOp29
 70
     1
102
RTVSPost2010Prop30
280
     1
102
RTVSPost2010PropOp30
 70
     1
102
RTVSPost2010Prop31
280
     0
102
RTVSPost2010PropOp31
 70
     1
102
RTVSPost2010Prop32
280
     0
102
RTVSPost2010PropOp32
 70
     1
102
RTVSPost2010Prop33
280
     0
102
RTVSPost2010PropOp33
 70
     1
102
RTVSPost2010Prop34
280
     0
102
RTVSPost2010PropOp34
 70
     1
102
RTVSPost2010Prop35
280
     0
102
RTVSPost2010PropOp35
 70
     1
102
RTVSPost2010Prop36
280
     0
102
RTVSPost2010PropOp36
 70
     1
102
RTVSPost2010Prop37
 90
       50
102
RTVSPost2010PropOp37
 70
     1
102
RTVSPost2010Prop38
140
0.0
102
RTVSPost2010PropOp38
 70
     1
102
RTVSPost2010Prop39
140
1.0
102
RTVSPost2010PropOp39
 70
     1
102
RTVSPost2010Prop40
 90
        0
102
RTVSPost2010PropOp40
 70
     1
102
RTVSPost2010Prop41ColorIndex
 90
       18
102
RTVSPost2010Prop41ColorRGB
 90
        0
102
RTVSPost2010PropOp41
 70
     1
102
RTVSPost2010Prop42
 90
       50
102
RTVSPost2010PropOp42
 70
     1
102
RTVSPost2010Prop43
 90
        3
102
RTVSPost2010PropOp43
 70
     1
102
RTVSPost2010Prop44ColorIndex
 90
        5
102
RTVSPost2010Prop44ColorRGB
 90
      255
102
RTVSPost2010PropOp44
 70
     1
102
RTVSPost2010Prop45
280
     0
102
RTVSPost2010PropOp45
 70
     1
102
RTVSPost2010Prop46
 90
       50
102
RTVSPost2010PropOp46
 70
     1
102
RTVSPost2010Prop47
 90
       50
102
RTVSPost2010PropOp47
 70
     1
102
RTVSPost2010Prop48
 90
       50
102
RTVSPost2010PropOp48
 70
     1
102
RTVSPost2010Prop49
280
     0
102
RTVSPost2010PropOp49
 70
     1
102
RTVSPost2010Prop50
 90
       50
102
RTVSPost2010PropOp50
 70
     1
102
RTVSPost2010Prop51ColorIndex
 90
      256
102
RTVSPost2010Prop51ColorRGB
 90
-16777216
102
RTVSPost2010PropOp51
 70
     0
102
RTVSPost2010Prop52
140
1.0
102
RTVSPost2010PropOp52
 70
     0
102
RTVSPost2010Prop53
 90
        2
102
RTVSPost2010PropOp53
 70
     1
102
RTVSPost2010Prop54
  1
strokes_ogs.tif
102
RTVSPost2010PropOp54
 70
     1
102
RTVSPost2010Prop55
280
     0
102
RTVSPost2010PropOp55
 70
     1
102
RTVSPost2010Prop56
140
1.0
102
RTVSPost2010PropOp56
 70
     1
102
RTVSPost2010Prop57
140
1.0
102
RTVSPost2010PropOp57
 70
     1
  0
XRECORD
  5
22D
102
{ACAD_REACTORS
330
22C
102
}
330
22C
100
AcDbXrecord
280
     1
102
RTVSPropertyOp0
 70
     1
102
RTVSPropertyOp1
 70
     1
102
RTVSPropertyOp2
 70
     1
102
RTVSPropertyOp3
 70
     1
102
RTVSPropertyOp4
 70
     1
102
RTVSPropertyOp5
 70
     1
102
RTVSPropertyOp6
 70
     1
102
RTVSPropertyOp7
 70
     1
102
RTVSPropertyOp8
 70
     1
102
RTVSPropertyOp9
 70
     1
102
RTVSPropertyOp10
 70
     1
102
RTVSPropertyOp11
 70
     1
102
RTVSPropertyOp12
 70
     1
102
RTVSPropertyOp13
 70
     1
102
RTVSPropertyOp14
 70
     1
102
RTVSPropertyOp15
 70
     1
102
RTVSPropertyOp16
 70
     1
102
RTVSPropertyOp17
 70
     1
102
RTVSPropertyOp18
 70
     1
102
RTVSPropertyOp19
 70
     1
102
RTVSPropertyOp20
 70
     1
102
RTVSPropertyOp21
 70
     1
102
RTVSPropertyOp22
 70
     1
102
RTVSPropertyOp23
 70
     1
102
RTVSPropertyOp24
 70
     1
102
RTVSPropertyOp25
 70
     1
102
RTVSPropertyOp26
 70
     1
102
RTVSPropertyOp27
 70
     1
102
RTVSPropertyOp28
 70
     1
102
RTVSPropertyOp29
 70
     1
102
RTVSPropertyOp30
 70
     1
102
RTVSPropertyOp31
 70
     1
102
RTVSPropertyOp32
 70
     1
102
RTVSPropertyOp33
 70
     1
102
RTVSPropertyOp34
 70
     1
102
RTVSPropertyOp35
 70
     1
102
RTVSPropertyOp36
 70
     1
102
RTVSPropertyOp37
 70
     1
102
RTVSPropertyOp38
 70
     1
102
RTVSPropertyOp39
 70
     1
102
RTVSPropertyOp40
 70
     1
102
RTVSPropertyOp41
 70
     1
102
RTVSPropertyOp42
 70
     1
102
RTVSPropertyOp43
 70
     1
102
RTVSPropertyOp44
 70
     1
102
RTVSPropertyOp45
 70
     1
102
RTVSPropertyOp46
 70
     1
102
RTVSPropertyOp47
 70
     1
102
RTVSPropertyOp48
 70
     1
102
RTVSPropertyOp49
 70
     1
102
RTVSPropertyOp50
 70
     1
102
RTVSPropertyOp51
 70
     0
102
RTVSPropertyOp52
 70
     0
102
RTVSPropertyOp53
 70
     1
102
RTVSPropertyOp54
 70
     1
102
RTVSPropertyOp55
 70
     1
102
RTVSPropertyOp56
 70
     1
102
RTVSPropertyOp57
 70
     1
102
RTVSPost2010Prop28
280
     0
102
RTVSPost2010PropOp28
 70
     1
102
RTVSPost2010Prop29
280
     1
102
RTVSPost2010PropOp29
 70
     1
102
RTVSPost2010Prop30
280
     1
102
RTVSPost2010PropOp30
 70
     1
102
RTVSPost2010Prop31
280
     0
102
RTVSPost2010PropOp31
 70
     1
102
RTVSPost2010Prop32
280
     0
102
RTVSPost2010PropOp32
 70
     1
102
RTVSPost2010Prop33
280
     0
102
RTVSPost2010PropOp33
 70
     1
102
RTVSPost2010Prop34
280
     0
102
RTVSPost2010PropOp34
 70
     1
102
RTVSPost2010Prop35
280
     0
102
RTVSPost2010PropOp35
 70
     1
102
RTVSPost2010Prop36
280
     0
102
RTVSPost2010PropOp36
 70
     1
102
RTVSPost2010Prop37
 90
       50
102
RTVSPost2010PropOp37
 70
     1
102
RTVSPost2010Prop38
140
0.0
102
RTVSPost2010PropOp38
 70
     1
102
RTVSPost2010Prop39
140
1.0
102
RTVSPost2010PropOp39
 70
     1
102
RTVSPost2010Prop40
 90
        0
102
RTVSPost2010PropOp40
 70
     1
102
RTVSPost2010Prop41ColorIndex
 90
       18
102
RTVSPost2010Prop41ColorRGB
 90
        0
102
RTVSPost2010PropOp41
 70
     1
102
RTVSPost2010Prop42
 90
       50
102
RTVSPost2010PropOp42
 70
     1
102
RTVSPost2010Prop43
 90
        3
102
RTVSPost2010PropOp43
 70
     1
102
RTVSPost2010Prop44ColorIndex
 90
        5
102
RTVSPost2010Prop44ColorRGB
 90
      255
102
RTVSPost2010PropOp44
 70
     1
102
RTVSPost2010Prop45
280
     0
102
RTVSPost2010PropOp45
 70
     1
102
RTVSPost2010Prop46
 90
       50
102
RTVSPost2010PropOp46
 70
     1
102
RTVSPost2010Prop47
 90
       50
102
RTVSPost2010PropOp47
 70
     1
102
RTVSPost2010Prop48
 90
       50
102
RTVSPost2010PropOp48
 70
     1
102
RTVSPost2010Prop49
280
     0
102
RTVSPost2010PropOp49
 70
     1
102
RTVSPost2010Prop50
 90
       50
102
RTVSPost2010PropOp50
 70
     1
102
RTVSPost2010Prop51ColorIndex
 90
      256
102
RTVSPost2010Prop51ColorRGB
 90
-16777216
102
RTVSPost2010PropOp51
 70
     0
102
RTVSPost2010Prop52
140
1.0
102
RTVSPost2010PropOp52
 70
     0
102
RTVSPost2010Prop53
 90
        2
102
RTVSPost2010PropOp53
 70
     1
102
RTVSPost2010Prop54
  1
strokes_ogs.tif
102
RTVSPost2010PropOp54
 70
     1
102
RTVSPost2010Prop55
280
     0
102
RTVSPost2010PropOp55
 70
     1
102
RTVSPost2010Prop56
140
1.0
102
RTVSPost2010PropOp56
 70
     1
102
RTVSPost2010Prop57
140
1.0
102
RTVSPost2010PropOp57
 70
     1
  0
XRECORD
  5
221
102
{ACAD_REACTORS
330
220
102
}
330
220
100
AcDbXrecord
280
     1
102
RTVSPropertyOp0
 70
     1
102
RTVSPropertyOp1
 70
     1
102
RTVSPropertyOp2
 70
     1
102
RTVSPropertyOp3
 70
     1
102
RTVSPropertyOp4
 70
     1
102
RTVSPropertyOp5
 70
     1
102
RTVSPropertyOp6
 70
     1
102
RTVSPropertyOp7
 70
     1
102
RTVSPropertyOp8
 70
     1
102
RTVSPropertyOp9
 70
     1
102
RTVSPropertyOp10
 70
     1
102
RTVSPropertyOp11
 70
     1
102
RTVSPropertyOp12
 70
     1
102
RTVSPropertyOp13
 70
     1
102
RTVSPropertyOp14
 70
     1
102
RTVSPropertyOp15
 70
     1
102
RTVSPropertyOp16
 70
     1
102
RTVSPropertyOp17
 70
     1
102
RTVSPropertyOp18
 70
     1
102
RTVSPropertyOp19
 70
     1
102
RTVSPropertyOp20
 70
     1
102
RTVSPropertyOp21
 70
     1
102
RTVSPropertyOp22
 70
     1
102
RTVSPropertyOp23
 70
     1
102
RTVSPropertyOp24
 70
     1
102
RTVSPropertyOp25
 70
     1
102
RTVSPropertyOp26
 70
     1
102
RTVSPropertyOp27
 70
     1
102
RTVSPropertyOp28
 70
     1
102
RTVSPropertyOp29
 70
     1
102
RTVSPropertyOp30
 70
     1
102
RTVSPropertyOp31
 70
     1
102
RTVSPropertyOp32
 70
     1
102
RTVSPropertyOp33
 70
     1
102
RTVSPropertyOp34
 70
     1
102
RTVSPropertyOp35
 70
     1
102
RTVSPropertyOp36
 70
     1
102
RTVSPropertyOp37
 70
     1
102
RTVSPropertyOp38
 70
     1
102
RTVSPropertyOp39
 70
     1
102
RTVSPropertyOp40
 70
     1
102
RTVSPropertyOp41
 70
     1
102
RTVSPropertyOp42
 70
     1
102
RTVSPropertyOp43
 70
     1
102
RTVSPropertyOp44
 70
     1
102
RTVSPropertyOp45
 70
     1
102
RTVSPropertyOp46
 70
     1
102
RTVSPropertyOp47
 70
     1
102
RTVSPropertyOp48
 70
     1
102
RTVSPropertyOp49
 70
     1
102
RTVSPropertyOp50
 70
     1
102
RTVSPropertyOp51
 70
     0
102
RTVSPropertyOp52
 70
     0
102
RTVSPropertyOp53
 70
     1
102
RTVSPropertyOp54
 70
     1
102
RTVSPropertyOp55
 70
     1
102
RTVSPropertyOp56
 70
     1
102
RTVSPropertyOp57
 70
     1
102
RTVSPost2010Prop28
280
     0
102
RTVSPost2010PropOp28
 70
     1
102
RTVSPost2010Prop29
280
     1
102
RTVSPost2010PropOp29
 70
     1
102
RTVSPost2010Prop30
280
     1
102
RTVSPost2010PropOp30
 70
     1
102
RTVSPost2010Prop31
280
     0
102
RTVSPost2010PropOp31
 70
     1
102
RTVSPost2010Prop32
280
     0
102
RTVSPost2010PropOp32
 70
     1
102
RTVSPost2010Prop33
280
     0
102
RTVSPost2010PropOp33
 70
     1
102
RTVSPost2010Prop34
280
     0
102
RTVSPost2010PropOp34
 70
     1
102
RTVSPost2010Prop35
280
     0
102
RTVSPost2010PropOp35
 70
     1
102
RTVSPost2010Prop36
280
     0
102
RTVSPost2010PropOp36
 70
     1
102
RTVSPost2010Prop37
 90
       50
102
RTVSPost2010PropOp37
 70
     1
102
RTVSPost2010Prop38
140
0.0
102
RTVSPost2010PropOp38
 70
     1
102
RTVSPost2010Prop39
140
1.0
102
RTVSPost2010PropOp39
 70
     1
102
RTVSPost2010Prop40
 90
        0
102
RTVSPost2010PropOp40
 70
     1
102
RTVSPost2010Prop41ColorIndex
 90
       18
102
RTVSPost2010Prop41ColorRGB
 90
        0
102
RTVSPost2010PropOp41
 70
     1
102
RTVSPost2010Prop42
 90
       50
102
RTVSPost2010PropOp42
 70
     1
102
RTVSPost2010Prop43
 90
        3
102
RTVSPost2010PropOp43
 70
     1
102
RTVSPost2010Prop44ColorIndex
 90
        5
102
RTVSPost2010Prop44ColorRGB
 90
      255
102
RTVSPost2010PropOp44
 70
     1
102
RTVSPost2010Prop45
280
     0
102
RTVSPost2010PropOp45
 70
     1
102
RTVSPost2010Prop46
 90
       50
102
RTVSPost2010PropOp46
 70
     1
102
RTVSPost2010Prop47
 90
       50
102
RTVSPost2010PropOp47
 70
     1
102
RTVSPost2010Prop48
 90
       50
102
RTVSPost2010PropOp48
 70
     1
102
RTVSPost2010Prop49
280
     0
102
RTVSPost2010PropOp49
 70
     1
102
RTVSPost2010Prop50
 90
       50
102
RTVSPost2010PropOp50
 70
     1
102
RTVSPost2010Prop51ColorIndex
 90
      256
102
RTVSPost2010Prop51ColorRGB
 90
-16777216
102
RTVSPost2010PropOp51
 70
     0
102
RTVSPost2010Prop52
140
1.0
102
RTVSPost2010PropOp52
 70
     0
102
RTVSPost2010Prop53
 90
        2
102
RTVSPost2010PropOp53
 70
     1
102
RTVSPost2010Prop54
  1
strokes_ogs.tif
102
RTVSPost2010PropOp54
 70
     1
102
RTVSPost2010Prop55
280
     0
102
RTVSPost2010PropOp55
 70
     1
102
RTVSPost2010Prop56
140
1.0
102
RTVSPost2010PropOp56
 70
     1
102
RTVSPost2010Prop57
140
1.0
102
RTVSPost2010PropOp57
 70
     1
  0
XRECORD
  5
223
102
{ACAD_REACTORS
330
222
102
}
330
222
100
AcDbXrecord
280
     1
102
RTVSPropertyOp0
 70
     1
102
RTVSPropertyOp1
 70
     1
102
RTVSPropertyOp2
 70
     1
102
RTVSPropertyOp3
 70
     1
102
RTVSPropertyOp4
 70
     1
102
RTVSPropertyOp5
 70
     1
102
RTVSPropertyOp6
 70
     1
102
RTVSPropertyOp7
 70
     1
102
RTVSPropertyOp8
 70
     1
102
RTVSPropertyOp9
 70
     1
102
RTVSPropertyOp10
 70
     1
102
RTVSPropertyOp11
 70
     1
102
RTVSPropertyOp12
 70
     1
102
RTVSPropertyOp13
 70
     1
102
RTVSPropertyOp14
 70
     1
102
RTVSPropertyOp15
 70
     1
102
RTVSPropertyOp16
 70
     1
102
RTVSPropertyOp17
 70
     1
102
RTVSPropertyOp18
 70
     1
102
RTVSPropertyOp19
 70
     1
102
RTVSPropertyOp20
 70
     1
102
RTVSPropertyOp21
 70
     1
102
RTVSPropertyOp22
 70
     1
102
RTVSPropertyOp23
 70
     1
102
RTVSPropertyOp24
 70
     1
102
RTVSPropertyOp25
 70
     1
102
RTVSPropertyOp26
 70
     1
102
RTVSPropertyOp27
 70
     1
102
RTVSPropertyOp28
 70
     1
102
RTVSPropertyOp29
 70
     1
102
RTVSPropertyOp30
 70
     1
102
RTVSPropertyOp31
 70
     1
102
RTVSPropertyOp32
 70
     1
102
RTVSPropertyOp33
 70
     1
102
RTVSPropertyOp34
 70
     1
102
RTVSPropertyOp35
 70
     1
102
RTVSPropertyOp36
 70
     1
102
RTVSPropertyOp37
 70
     1
102
RTVSPropertyOp38
 70
     1
102
RTVSPropertyOp39
 70
     1
102
RTVSPropertyOp40
 70
     1
102
RTVSPropertyOp41
 70
     1
102
RTVSPropertyOp42
 70
     1
102
RTVSPropertyOp43
 70
     1
102
RTVSPropertyOp44
 70
     1
102
RTVSPropertyOp45
 70
     1
102
RTVSPropertyOp46
 70
     1
102
RTVSPropertyOp47
 70
     1
102
RTVSPropertyOp48
 70
     1
102
RTVSPropertyOp49
 70
     1
102
RTVSPropertyOp50
 70
     1
102
RTVSPropertyOp51
 70
     0
102
RTVSPropertyOp52
 70
     0
102
RTVSPropertyOp53
 70
     1
102
RTVSPropertyOp54
 70
     1
102
RTVSPropertyOp55
 70
     1
102
RTVSPropertyOp56
 70
     1
102
RTVSPropertyOp57
 70
     1
102
RTVSPost2010Prop28
280
     0
102
RTVSPost2010PropOp28
 70
     1
102
RTVSPost2010Prop29
280
     1
102
RTVSPost2010PropOp29
 70
     1
102
RTVSPost2010Prop30
280
     1
102
RTVSPost2010PropOp30
 70
     1
102
RTVSPost2010Prop31
280
     0
102
RTVSPost2010PropOp31
 70
     1
102
RTVSPost2010Prop32
280
     0
102
RTVSPost2010PropOp32
 70
     1
102
RTVSPost2010Prop33
280
     0
102
RTVSPost2010PropOp33
 70
     1
102
RTVSPost2010Prop34
280
     0
102
RTVSPost2010PropOp34
 70
     1
102
RTVSPost2010Prop35
280
     0
102
RTVSPost2010PropOp35
 70
     1
102
RTVSPost2010Prop36
280
     0
102
RTVSPost2010PropOp36
 70
     1
102
RTVSPost2010Prop37
 90
       50
102
RTVSPost2010PropOp37
 70
     1
102
RTVSPost2010Prop38
140
0.0
102
RTVSPost2010PropOp38
 70
     1
102
RTVSPost2010Prop39
140
1.0
102
RTVSPost2010PropOp39
 70
     1
102
RTVSPost2010Prop40
 90
        0
102
RTVSPost2010PropOp40
 70
     1
102
RTVSPost2010Prop41ColorIndex
 90
       18
102
RTVSPost2010Prop41ColorRGB
 90
        0
102
RTVSPost2010PropOp41
 70
     1
102
RTVSPost2010Prop42
 90
       50
102
RTVSPost2010PropOp42
 70
     1
102
RTVSPost2010Prop43
 90
        3
102
RTVSPost2010PropOp43
 70
     1
102
RTVSPost2010Prop44ColorIndex
 90
        5
102
RTVSPost2010Prop44ColorRGB
 90
      255
102
RTVSPost2010PropOp44
 70
     1
102
RTVSPost2010Prop45
280
     0
102
RTVSPost2010PropOp45
 70
     1
102
RTVSPost2010Prop46
 90
       50
102
RTVSPost2010PropOp46
 70
     1
102
RTVSPost2010Prop47
 90
       50
102
RTVSPost2010PropOp47
 70
     1
102
RTVSPost2010Prop48
 90
       50
102
RTVSPost2010PropOp48
 70
     1
102
RTVSPost2010Prop49
280
     0
102
RTVSPost2010PropOp49
 70
     1
102
RTVSPost2010Prop50
 90
       50
102
RTVSPost2010PropOp50
 70
     1
102
RTVSPost2010Prop51ColorIndex
 90
      256
102
RTVSPost2010Prop51ColorRGB
 90
-16777216
102
RTVSPost2010PropOp51
 70
     0
102
RTVSPost2010Prop52
140
1.0
102
RTVSPost2010PropOp52
 70
     0
102
RTVSPost2010Prop53
 90
        2
102
RTVSPost2010PropOp53
 70
     1
102
RTVSPost2010Prop54
  1
strokes_ogs.tif
102
RTVSPost2010PropOp54
 70
     1
102
RTVSPost2010Prop55
280
     0
102
RTVSPost2010PropOp55
 70
     1
102
RTVSPost2010Prop56
140
1.0
102
RTVSPost2010PropOp56
 70
     1
102
RTVSPost2010Prop57
140
1.0
102
RTVSPost2010PropOp57
 70
     1
  0
XRECORD
  5
233
102
{ACAD_REACTORS
330
232
102
}
330
232
100
AcDbXrecord
280
     1
102
RTVSPropertyOp0
 70
     0
102
RTVSPropertyOp1
 70
     0
102
RTVSPropertyOp2
 70
     0
102
RTVSPropertyOp3
 70
     0
102
RTVSPropertyOp4
 70
     0
102
RTVSPropertyOp5
 70
     0
102
RTVSPropertyOp6
 70
     0
102
RTVSPropertyOp7
 70
     0
102
RTVSPropertyOp8
 70
     0
102
RTVSPropertyOp9
 70
     0
102
RTVSPropertyOp10
 70
     0
102
RTVSPropertyOp11
 70
     0
102
RTVSPropertyOp12
 70
     0
102
RTVSPropertyOp13
 70
     0
102
RTVSPropertyOp14
 70
     2
102
RTVSPropertyOp15
 70
     0
102
RTVSPropertyOp16
 70
     0
102
RTVSPropertyOp17
 70
     0
102
RTVSPropertyOp18
 70
     0
102
RTVSPropertyOp19
 70
     0
102
RTVSPropertyOp20
 70
     0
102
RTVSPropertyOp21
 70
     0
102
RTVSPropertyOp22
 70
     0
102
RTVSPropertyOp23
 70
     0
102
RTVSPropertyOp24
 70
     0
102
RTVSPropertyOp25
 70
     0
102
RTVSPropertyOp26
 70
     0
102
RTVSPropertyOp27
 70
     0
102
RTVSPropertyOp28
 70
     0
102
RTVSPropertyOp29
 70
     0
102
RTVSPropertyOp30
 70
     0
102
RTVSPropertyOp31
 70
     0
102
RTVSPropertyOp32
 70
     0
102
RTVSPropertyOp33
 70
     0
102
RTVSPropertyOp34
 70
     0
102
RTVSPropertyOp35
 70
     0
102
RTVSPropertyOp36
 70
     0
102
RTVSPropertyOp37
 70
     0
102
RTVSPropertyOp38
 70
     0
102
RTVSPropertyOp39
 70
     0
102
RTVSPropertyOp40
 70
     0
102
RTVSPropertyOp41
 70
     0
102
RTVSPropertyOp42
 70
     0
102
RTVSPropertyOp43
 70
     0
102
RTVSPropertyOp44
 70
     0
102
RTVSPropertyOp45
 70
     0
102
RTVSPropertyOp46
 70
     0
102
RTVSPropertyOp47
 70
     0
102
RTVSPropertyOp48
 70
     0
102
RTVSPropertyOp49
 70
     0
102
RTVSPropertyOp50
 70
     0
102
RTVSPropertyOp51
 70
     0
102
RTVSPropertyOp52
 70
     0
102
RTVSPropertyOp53
 70
     0
102
RTVSPropertyOp54
 70
     0
102
RTVSPropertyOp55
 70
     0
102
RTVSPropertyOp56
 70
     0
102
RTVSPropertyOp57
 70
     0
102
RTVSPost2010Prop28
280
     0
102
RTVSPost2010PropOp28
 70
     0
102
RTVSPost2010Prop29
280
     1
102
RTVSPost2010PropOp29
 70
     0
102
RTVSPost2010Prop30
280
     1
102
RTVSPost2010PropOp30
 70
     0
102
RTVSPost2010Prop31
280
     0
102
RTVSPost2010PropOp31
 70
     0
102
RTVSPost2010Prop32
280
     0
102
RTVSPost2010PropOp32
 70
     0
102
RTVSPost2010Prop33
280
     0
102
RTVSPost2010PropOp33
 70
     0
102
RTVSPost2010Prop34
280
     0
102
RTVSPost2010PropOp34
 70
     0
102
RTVSPost2010Prop35
280
     0
102
RTVSPost2010PropOp35
 70
     0
102
RTVSPost2010Prop36
280
     0
102
RTVSPost2010PropOp36
 70
     0
102
RTVSPost2010Prop37
 90
       50
102
RTVSPost2010PropOp37
 70
     0
102
RTVSPost2010Prop38
140
0.0
102
RTVSPost2010PropOp38
 70
     0
102
RTVSPost2010Prop39
140
1.0
102
RTVSPost2010PropOp39
 70
     0
102
RTVSPost2010Prop40
 90
        0
102
RTVSPost2010PropOp40
 70
     0
102
RTVSPost2010Prop41ColorIndex
 90
       18
102
RTVSPost2010Prop41ColorRGB
 90
        0
102
RTVSPost2010PropOp41
 70
     0
102
RTVSPost2010Prop42
 90
       50
102
RTVSPost2010PropOp42
 70
     0
102
RTVSPost2010Prop43
 90
        3
102
RTVSPost2010PropOp43
 70
     0
102
RTVSPost2010Prop44ColorIndex
 90
        5
102
RTVSPost2010Prop44ColorRGB
 90
      255
102
RTVSPost2010PropOp44
 70
     0
102
RTVSPost2010Prop45
280
     0
102
RTVSPost2010PropOp45
 70
     0
102
RTVSPost2010Prop46
 90
       50
102
RTVSPost2010PropOp46
 70
     0
102
RTVSPost2010Prop47
 90
       50
102
RTVSPost2010PropOp47
 70
     0
102
RTVSPost2010Prop48
 90
       50
102
RTVSPost2010PropOp48
 70
     0
102
RTVSPost2010Prop49
280
     0
102
RTVSPost2010PropOp49
 70
     0
102
RTVSPost2010Prop50
 90
       50
102
RTVSPost2010PropOp50
 70
     0
102
RTVSPost2010Prop51ColorIndex
 90
      256
102
RTVSPost2010Prop51ColorRGB
 90
-16777216
102
RTVSPost2010PropOp51
 70
     0
102
RTVSPost2010Prop52
140
1.0
102
RTVSPost2010PropOp52
 70
     0
102
RTVSPost2010Prop53
 90
        2
102
RTVSPost2010PropOp53
 70
     0
102
RTVSPost2010Prop54
  1
strokes_ogs.tif
102
RTVSPost2010PropOp54
 70
     0
102
RTVSPost2010Prop55
280
     0
102
RTVSPost2010PropOp55
 70
     0
102
RTVSPost2010Prop56
140
1.0
102
RTVSPost2010PropOp56
 70
     0
102
RTVSPost2010Prop57
140
1.0
102
RTVSPost2010PropOp57
 70
     0
  0
XRECORD
  5
22B
102
{ACAD_REACTORS
330
22A
102
}
330
22A
100
AcDbXrecord
280
     1
102
RTVSPropertyOp0
 70
     1
102
RTVSPropertyOp1
 70
     1
102
RTVSPropertyOp2
 70
     1
102
RTVSPropertyOp3
 70
     1
102
RTVSPropertyOp4
 70
     1
102
RTVSPropertyOp5
 70
     1
102
RTVSPropertyOp6
 70
     1
102
RTVSPropertyOp7
 70
     1
102
RTVSPropertyOp8
 70
     1
102
RTVSPropertyOp9
 70
     1
102
RTVSPropertyOp10
 70
     1
102
RTVSPropertyOp11
 70
     1
102
RTVSPropertyOp12
 70
     1
102
RTVSPropertyOp13
 70
     1
102
RTVSPropertyOp14
 70
     1
102
RTVSPropertyOp15
 70
     1
102
RTVSPropertyOp16
 70
     1
102
RTVSPropertyOp17
 70
     1
102
RTVSPropertyOp18
 70
     1
102
RTVSPropertyOp19
 70
     1
102
RTVSPropertyOp20
 70
     1
102
RTVSPropertyOp21
 70
     1
102
RTVSPropertyOp22
 70
     1
102
RTVSPropertyOp23
 70
     1
102
RTVSPropertyOp24
 70
     1
102
RTVSPropertyOp25
 70
     1
102
RTVSPropertyOp26
 70
     1
102
RTVSPropertyOp27
 70
     1
102
RTVSPropertyOp28
 70
     1
102
RTVSPropertyOp29
 70
     1
102
RTVSPropertyOp30
 70
     1
102
RTVSPropertyOp31
 70
     1
102
RTVSPropertyOp32
 70
     1
102
RTVSPropertyOp33
 70
     1
102
RTVSPropertyOp34
 70
     1
102
RTVSPropertyOp35
 70
     1
102
RTVSPropertyOp36
 70
     1
102
RTVSPropertyOp37
 70
     1
102
RTVSPropertyOp38
 70
     1
102
RTVSPropertyOp39
 70
     1
102
RTVSPropertyOp40
 70
     1
102
RTVSPropertyOp41
 70
     1
102
RTVSPropertyOp42
 70
     1
102
RTVSPropertyOp43
 70
     1
102
RTVSPropertyOp44
 70
     1
102
RTVSPropertyOp45
 70
     1
102
RTVSPropertyOp46
 70
     1
102
RTVSPropertyOp47
 70
     1
102
RTVSPropertyOp48
 70
     1
102
RTVSPropertyOp49
 70
     1
102
RTVSPropertyOp50
 70
     1
102
RTVSPropertyOp51
 70
     0
102
RTVSPropertyOp52
 70
     0
102
RTVSPropertyOp53
 70
     1
102
RTVSPropertyOp54
 70
     1
102
RTVSPropertyOp55
 70
     1
102
RTVSPropertyOp56
 70
     1
102
RTVSPropertyOp57
 70
     1
102
RTVSPost2010Prop28
280
     0
102
RTVSPost2010PropOp28
 70
     1
102
RTVSPost2010Prop29
280
     1
102
RTVSPost2010PropOp29
 70
     1
102
RTVSPost2010Prop30
280
     1
102
RTVSPost2010PropOp30
 70
     1
102
RTVSPost2010Prop31
280
     0
102
RTVSPost2010PropOp31
 70
     1
102
RTVSPost2010Prop32
280
     0
102
RTVSPost2010PropOp32
 70
     1
102
RTVSPost2010Prop33
280
     0
102
RTVSPost2010PropOp33
 70
     1
102
RTVSPost2010Prop34
280
     0
102
RTVSPost2010PropOp34
 70
     1
102
RTVSPost2010Prop35
280
     0
102
RTVSPost2010PropOp35
 70
     1
102
RTVSPost2010Prop36
280
     0
102
RTVSPost2010PropOp36
 70
     1
102
RTVSPost2010Prop37
 90
       50
102
RTVSPost2010PropOp37
 70
     1
102
RTVSPost2010Prop38
140
0.0
102
RTVSPost2010PropOp38
 70
     1
102
RTVSPost2010Prop39
140
1.0
102
RTVSPost2010PropOp39
 70
     1
102
RTVSPost2010Prop40
 90
        0
102
RTVSPost2010PropOp40
 70
     1
102
RTVSPost2010Prop41ColorIndex
 90
       18
102
RTVSPost2010Prop41ColorRGB
 90
        0
102
RTVSPost2010PropOp41
 70
     1
102
RTVSPost2010Prop42
 90
       50
102
RTVSPost2010PropOp42
 70
     1
102
RTVSPost2010Prop43
 90
        3
102
RTVSPost2010PropOp43
 70
     1
102
RTVSPost2010Prop44ColorIndex
 90
        5
102
RTVSPost2010Prop44ColorRGB
 90
      255
102
RTVSPost2010PropOp44
 70
     1
102
RTVSPost2010Prop45
280
     0
102
RTVSPost2010PropOp45
 70
     1
102
RTVSPost2010Prop46
 90
       50
102
RTVSPost2010PropOp46
 70
     1
102
RTVSPost2010Prop47
 90
       50
102
RTVSPost2010PropOp47
 70
     1
102
RTVSPost2010Prop48
 90
       50
102
RTVSPost2010PropOp48
 70
     1
102
RTVSPost2010Prop49
280
     0
102
RTVSPost2010PropOp49
 70
     1
102
RTVSPost2010Prop50
 90
       50
102
RTVSPost2010PropOp50
 70
     1
102
RTVSPost2010Prop51ColorIndex
 90
      256
102
RTVSPost2010Prop51ColorRGB
 90
-16777216
102
RTVSPost2010PropOp51
 70
     0
102
RTVSPost2010Prop52
140
1.0
102
RTVSPost2010PropOp52
 70
     0
102
RTVSPost2010Prop53
 90
        2
102
RTVSPost2010PropOp53
 70
     1
102
RTVSPost2010Prop54
  1
strokes_ogs.tif
102
RTVSPost2010PropOp54
 70
     1
102
RTVSPost2010Prop55
280
     0
102
RTVSPost2010PropOp55
 70
     1
102
RTVSPost2010Prop56
140
1.0
102
RTVSPost2010PropOp56
 70
     1
102
RTVSPost2010Prop57
140
1.0
102
RTVSPost2010PropOp57
 70
     1
  0
XRECORD
  5
20F
102
{ACAD_REACTORS
330
20E
102
}
330
20E
100
AcDbXrecord
280
     1
102
RTVSPropertyOp0
 70
     1
102
RTVSPropertyOp1
 70
     1
102
RTVSPropertyOp2
 70
     1
102
RTVSPropertyOp3
 70
     1
102
RTVSPropertyOp4
 70
     1
102
RTVSPropertyOp5
 70
     1
102
RTVSPropertyOp6
 70
     1
102
RTVSPropertyOp7
 70
     1
102
RTVSPropertyOp8
 70
     1
102
RTVSPropertyOp9
 70
     1
102
RTVSPropertyOp10
 70
     1
102
RTVSPropertyOp11
 70
     1
102
RTVSPropertyOp12
 70
     1
102
RTVSPropertyOp13
 70
     1
102
RTVSPropertyOp14
 70
     1
102
RTVSPropertyOp15
 70
     1
102
RTVSPropertyOp16
 70
     1
102
RTVSPropertyOp17
 70
     1
102
RTVSPropertyOp18
 70
     1
102
RTVSPropertyOp19
 70
     1
102
RTVSPropertyOp20
 70
     1
102
RTVSPropertyOp21
 70
     1
102
RTVSPropertyOp22
 70
     1
102
RTVSPropertyOp23
 70
     1
102
RTVSPropertyOp24
 70
     1
102
RTVSPropertyOp25
 70
     1
102
RTVSPropertyOp26
 70
     1
102
RTVSPropertyOp27
 70
     1
102
RTVSPropertyOp28
 70
     1
102
RTVSPropertyOp29
 70
     1
102
RTVSPropertyOp30
 70
     1
102
RTVSPropertyOp31
 70
     1
102
RTVSPropertyOp32
 70
     1
102
RTVSPropertyOp33
 70
     1
102
RTVSPropertyOp34
 70
     1
102
RTVSPropertyOp35
 70
     1
102
RTVSPropertyOp36
 70
     1
102
RTVSPropertyOp37
 70
     1
102
RTVSPropertyOp38
 70
     1
102
RTVSPropertyOp39
 70
     1
102
RTVSPropertyOp40
 70
     1
102
RTVSPropertyOp41
 70
     1
102
RTVSPropertyOp42
 70
     1
102
RTVSPropertyOp43
 70
     1
102
RTVSPropertyOp44
 70
     1
102
RTVSPropertyOp45
 70
     1
102
RTVSPropertyOp46
 70
     1
102
RTVSPropertyOp47
 70
     1
102
RTVSPropertyOp48
 70
     1
102
RTVSPropertyOp49
 70
     1
102
RTVSPropertyOp50
 70
     1
102
RTVSPropertyOp51
 70
     0
102
RTVSPropertyOp52
 70
     0
102
RTVSPropertyOp53
 70
     1
102
RTVSPropertyOp54
 70
     1
102
RTVSPropertyOp55
 70
     1
102
RTVSPropertyOp56
 70
     1
102
RTVSPropertyOp57
 70
     1
102
RTVSPost2010Prop28
280
     0
102
RTVSPost2010PropOp28
 70
     1
102
RTVSPost2010Prop29
280
     1
102
RTVSPost2010PropOp29
 70
     1
102
RTVSPost2010Prop30
280
     1
102
RTVSPost2010PropOp30
 70
     1
102
RTVSPost2010Prop31
280
     0
102
RTVSPost2010PropOp31
 70
     1
102
RTVSPost2010Prop32
280
     0
102
RTVSPost2010PropOp32
 70
     1
102
RTVSPost2010Prop33
280
     0
102
RTVSPost2010PropOp33
 70
     1
102
RTVSPost2010Prop34
280
     0
102
RTVSPost2010PropOp34
 70
     1
102
RTVSPost2010Prop35
280
     0
102
RTVSPost2010PropOp35
 70
     1
102
RTVSPost2010Prop36
280
     0
102
RTVSPost2010PropOp36
 70
     1
102
RTVSPost2010Prop37
 90
       50
102
RTVSPost2010PropOp37
 70
     1
102
RTVSPost2010Prop38
140
0.0
102
RTVSPost2010PropOp38
 70
     1
102
RTVSPost2010Prop39
140
1.0
102
RTVSPost2010PropOp39
 70
     1
102
RTVSPost2010Prop40
 90
        0
102
RTVSPost2010PropOp40
 70
     1
102
RTVSPost2010Prop41ColorIndex
 90
       18
102
RTVSPost2010Prop41ColorRGB
 90
        0
102
RTVSPost2010PropOp41
 70
     1
102
RTVSPost2010Prop42
 90
       50
102
RTVSPost2010PropOp42
 70
     1
102
RTVSPost2010Prop43
 90
        3
102
RTVSPost2010PropOp43
 70
     1
102
RTVSPost2010Prop44ColorIndex
 90
        5
102
RTVSPost2010Prop44ColorRGB
 90
      255
102
RTVSPost2010PropOp44
 70
     1
102
RTVSPost2010Prop45
280
     0
102
RTVSPost2010PropOp45
 70
     1
102
RTVSPost2010Prop46
 90
       50
102
RTVSPost2010PropOp46
 70
     1
102
RTVSPost2010Prop47
 90
       50
102
RTVSPost2010PropOp47
 70
     1
102
RTVSPost2010Prop48
 90
       50
102
RTVSPost2010PropOp48
 70
     1
102
RTVSPost2010Prop49
280
     0
102
RTVSPost2010PropOp49
 70
     1
102
RTVSPost2010Prop50
 90
       50
102
RTVSPost2010PropOp50
 70
     1
102
RTVSPost2010Prop51ColorIndex
 90
      256
102
RTVSPost2010Prop51ColorRGB
 90
-16777216
102
RTVSPost2010PropOp51
 70
     0
102
RTVSPost2010Prop52
140
1.0
102
RTVSPost2010PropOp52
 70
     0
102
RTVSPost2010Prop53
 90
        2
102
RTVSPost2010PropOp53
 70
     1
102
RTVSPost2010Prop54
  1
strokes_ogs.tif
102
RTVSPost2010PropOp54
 70
     1
102
RTVSPost2010Prop55
280
     0
102
RTVSPost2010PropOp55
 70
     1
102
RTVSPost2010Prop56
140
1.0
102
RTVSPost2010PropOp56
 70
     1
102
RTVSPost2010Prop57
140
1.0
102
RTVSPost2010PropOp57
 70
     1
  0
XRECORD
  5
211
102
{ACAD_REACTORS
330
210
102
}
330
210
100
AcDbXrecord
280
     1
102
RTVSPropertyOp0
 70
     1
102
RTVSPropertyOp1
 70
     1
102
RTVSPropertyOp2
 70
     1
102
RTVSPropertyOp3
 70
     1
102
RTVSPropertyOp4
 70
     1
102
RTVSPropertyOp5
 70
     1
102
RTVSPropertyOp6
 70
     1
102
RTVSPropertyOp7
 70
     1
102
RTVSPropertyOp8
 70
     1
102
RTVSPropertyOp9
 70
     1
102
RTVSPropertyOp10
 70
     1
102
RTVSPropertyOp11
 70
     1
102
RTVSPropertyOp12
 70
     1
102
RTVSPropertyOp13
 70
     1
102
RTVSPropertyOp14
 70
     1
102
RTVSPropertyOp15
 70
     1
102
RTVSPropertyOp16
 70
     1
102
RTVSPropertyOp17
 70
     1
102
RTVSPropertyOp18
 70
     1
102
RTVSPropertyOp19
 70
     1
102
RTVSPropertyOp20
 70
     1
102
RTVSPropertyOp21
 70
     1
102
RTVSPropertyOp22
 70
     1
102
RTVSPropertyOp23
 70
     1
102
RTVSPropertyOp24
 70
     1
102
RTVSPropertyOp25
 70
     1
102
RTVSPropertyOp26
 70
     1
102
RTVSPropertyOp27
 70
     1
102
RTVSPropertyOp28
 70
     1
102
RTVSPropertyOp29
 70
     1
102
RTVSPropertyOp30
 70
     1
102
RTVSPropertyOp31
 70
     1
102
RTVSPropertyOp32
 70
     1
102
RTVSPropertyOp33
 70
     1
102
RTVSPropertyOp34
 70
     1
102
RTVSPropertyOp35
 70
     1
102
RTVSPropertyOp36
 70
     1
102
RTVSPropertyOp37
 70
     1
102
RTVSPropertyOp38
 70
     1
102
RTVSPropertyOp39
 70
     1
102
RTVSPropertyOp40
 70
     1
102
RTVSPropertyOp41
 70
     1
102
RTVSPropertyOp42
 70
     1
102
RTVSPropertyOp43
 70
     1
102
RTVSPropertyOp44
 70
     1
102
RTVSPropertyOp45
 70
     1
102
RTVSPropertyOp46
 70
     1
102
RTVSPropertyOp47
 70
     1
102
RTVSPropertyOp48
 70
     1
102
RTVSPropertyOp49
 70
     1
102
RTVSPropertyOp50
 70
     1
102
RTVSPropertyOp51
 70
     0
102
RTVSPropertyOp52
 70
     0
102
RTVSPropertyOp53
 70
     1
102
RTVSPropertyOp54
 70
     1
102
RTVSPropertyOp55
 70
     1
102
RTVSPropertyOp56
 70
     1
102
RTVSPropertyOp57
 70
     1
102
RTVSPost2010Prop28
280
     0
102
RTVSPost2010PropOp28
 70
     1
102
RTVSPost2010Prop29
280
     1
102
RTVSPost2010PropOp29
 70
     1
102
RTVSPost2010Prop30
280
     1
102
RTVSPost2010PropOp30
 70
     1
102
RTVSPost2010Prop31
280
     0
102
RTVSPost2010PropOp31
 70
     1
102
RTVSPost2010Prop32
280
     0
102
RTVSPost2010PropOp32
 70
     1
102
RTVSPost2010Prop33
280
     0
102
RTVSPost2010PropOp33
 70
     1
102
RTVSPost2010Prop34
280
     0
102
RTVSPost2010PropOp34
 70
     1
102
RTVSPost2010Prop35
280
     0
102
RTVSPost2010PropOp35
 70
     1
102
RTVSPost2010Prop36
280
     0
102
RTVSPost2010PropOp36
 70
     1
102
RTVSPost2010Prop37
 90
       50
102
RTVSPost2010PropOp37
 70
     1
102
RTVSPost2010Prop38
140
0.0
102
RTVSPost2010PropOp38
 70
     1
102
RTVSPost2010Prop39
140
1.0
102
RTVSPost2010PropOp39
 70
     1
102
RTVSPost2010Prop40
 90
        0
102
RTVSPost2010PropOp40
 70
     1
102
RTVSPost2010Prop41ColorIndex
 90
       18
102
RTVSPost2010Prop41ColorRGB
 90
        0
102
RTVSPost2010PropOp41
 70
     1
102
RTVSPost2010Prop42
 90
       50
102
RTVSPost2010PropOp42
 70
     1
102
RTVSPost2010Prop43
 90
        3
102
RTVSPost2010PropOp43
 70
     1
102
RTVSPost2010Prop44ColorIndex
 90
        5
102
RTVSPost2010Prop44ColorRGB
 90
      255
102
RTVSPost2010PropOp44
 70
     1
102
RTVSPost2010Prop45
280
     0
102
RTVSPost2010PropOp45
 70
     1
102
RTVSPost2010Prop46
 90
       50
102
RTVSPost2010PropOp46
 70
     1
102
RTVSPost2010Prop47
 90
       50
102
RTVSPost2010PropOp47
 70
     1
102
RTVSPost2010Prop48
 90
       50
102
RTVSPost2010PropOp48
 70
     1
102
RTVSPost2010Prop49
280
     0
102
RTVSPost2010PropOp49
 70
     1
102
RTVSPost2010Prop50
 90
       50
102
RTVSPost2010PropOp50
 70
     1
102
RTVSPost2010Prop51ColorIndex
 90
      256
102
RTVSPost2010Prop51ColorRGB
 90
-16777216
102
RTVSPost2010PropOp51
 70
     0
102
RTVSPost2010Prop52
140
1.0
102
RTVSPost2010PropOp52
 70
     0
102
RTVSPost2010Prop53
 90
        2
102
RTVSPost2010PropOp53
 70
     1
102
RTVSPost2010Prop54
  1
strokes_ogs.tif
102
RTVSPost2010PropOp54
 70
     1
102
RTVSPost2010Prop55
280
     0
102
RTVSPost2010PropOp55
 70
     1
102
RTVSPost2010Prop56
140
1.0
102
RTVSPost2010PropOp56
 70
     1
102
RTVSPost2010Prop57
140
1.0
102
RTVSPost2010PropOp57
 70
     1
  0
XRECORD
  5
213
102
{ACAD_REACTORS
330
212
102
}
330
212
100
AcDbXrecord
280
     1
102
RTVSPropertyOp0
 70
     1
102
RTVSPropertyOp1
 70
     1
102
RTVSPropertyOp2
 70
     1
102
RTVSPropertyOp3
 70
     1
102
RTVSPropertyOp4
 70
     1
102
RTVSPropertyOp5
 70
     1
102
RTVSPropertyOp6
 70
     1
102
RTVSPropertyOp7
 70
     1
102
RTVSPropertyOp8
 70
     1
102
RTVSPropertyOp9
 70
     1
102
RTVSPropertyOp10
 70
     1
102
RTVSPropertyOp11
 70
     1
102
RTVSPropertyOp12
 70
     1
102
RTVSPropertyOp13
 70
     1
102
RTVSPropertyOp14
 70
     1
102
RTVSPropertyOp15
 70
     1
102
RTVSPropertyOp16
 70
     1
102
RTVSPropertyOp17
 70
     1
102
RTVSPropertyOp18
 70
     1
102
RTVSPropertyOp19
 70
     1
102
RTVSPropertyOp20
 70
     1
102
RTVSPropertyOp21
 70
     1
102
RTVSPropertyOp22
 70
     1
102
RTVSPropertyOp23
 70
     1
102
RTVSPropertyOp24
 70
     1
102
RTVSPropertyOp25
 70
     1
102
RTVSPropertyOp26
 70
     1
102
RTVSPropertyOp27
 70
     1
102
RTVSPropertyOp28
 70
     1
102
RTVSPropertyOp29
 70
     1
102
RTVSPropertyOp30
 70
     1
102
RTVSPropertyOp31
 70
     1
102
RTVSPropertyOp32
 70
     1
102
RTVSPropertyOp33
 70
     1
102
RTVSPropertyOp34
 70
     1
102
RTVSPropertyOp35
 70
     1
102
RTVSPropertyOp36
 70
     1
102
RTVSPropertyOp37
 70
     1
102
RTVSPropertyOp38
 70
     1
102
RTVSPropertyOp39
 70
     1
102
RTVSPropertyOp40
 70
     1
102
RTVSPropertyOp41
 70
     1
102
RTVSPropertyOp42
 70
     1
102
RTVSPropertyOp43
 70
     1
102
RTVSPropertyOp44
 70
     1
102
RTVSPropertyOp45
 70
     1
102
RTVSPropertyOp46
 70
     1
102
RTVSPropertyOp47
 70
     1
102
RTVSPropertyOp48
 70
     1
102
RTVSPropertyOp49
 70
     1
102
RTVSPropertyOp50
 70
     1
102
RTVSPropertyOp51
 70
     0
102
RTVSPropertyOp52
 70
     0
102
RTVSPropertyOp53
 70
     1
102
RTVSPropertyOp54
 70
     1
102
RTVSPropertyOp55
 70
     1
102
RTVSPropertyOp56
 70
     1
102
RTVSPropertyOp57
 70
     1
102
RTVSPost2010Prop28
280
     0
102
RTVSPost2010PropOp28
 70
     1
102
RTVSPost2010Prop29
280
     1
102
RTVSPost2010PropOp29
 70
     1
102
RTVSPost2010Prop30
280
     1
102
RTVSPost2010PropOp30
 70
     1
102
RTVSPost2010Prop31
280
     0
102
RTVSPost2010PropOp31
 70
     1
102
RTVSPost2010Prop32
280
     0
102
RTVSPost2010PropOp32
 70
     1
102
RTVSPost2010Prop33
280
     0
102
RTVSPost2010PropOp33
 70
     1
102
RTVSPost2010Prop34
280
     0
102
RTVSPost2010PropOp34
 70
     1
102
RTVSPost2010Prop35
280
     0
102
RTVSPost2010PropOp35
 70
     1
102
RTVSPost2010Prop36
280
     0
102
RTVSPost2010PropOp36
 70
     1
102
RTVSPost2010Prop37
 90
       50
102
RTVSPost2010PropOp37
 70
     1
102
RTVSPost2010Prop38
140
0.0
102
RTVSPost2010PropOp38
 70
     1
102
RTVSPost2010Prop39
140
1.0
102
RTVSPost2010PropOp39
 70
     1
102
RTVSPost2010Prop40
 90
        0
102
RTVSPost2010PropOp40
 70
     1
102
RTVSPost2010Prop41ColorIndex
 90
       18
102
RTVSPost2010Prop41ColorRGB
 90
        0
102
RTVSPost2010PropOp41
 70
     1
102
RTVSPost2010Prop42
 90
       50
102
RTVSPost2010PropOp42
 70
     1
102
RTVSPost2010Prop43
 90
        3
102
RTVSPost2010PropOp43
 70
     1
102
RTVSPost2010Prop44ColorIndex
 90
        5
102
RTVSPost2010Prop44ColorRGB
 90
      255
102
RTVSPost2010PropOp44
 70
     1
102
RTVSPost2010Prop45
280
     0
102
RTVSPost2010PropOp45
 70
     1
102
RTVSPost2010Prop46
 90
       50
102
RTVSPost2010PropOp46
 70
     1
102
RTVSPost2010Prop47
 90
       50
102
RTVSPost2010PropOp47
 70
     1
102
RTVSPost2010Prop48
 90
       50
102
RTVSPost2010PropOp48
 70
     1
102
RTVSPost2010Prop49
280
     0
102
RTVSPost2010PropOp49
 70
     1
102
RTVSPost2010Prop50
 90
       50
102
RTVSPost2010PropOp50
 70
     1
102
RTVSPost2010Prop51ColorIndex
 90
      256
102
RTVSPost2010Prop51ColorRGB
 90
-16777216
102
RTVSPost2010PropOp51
 70
     0
102
RTVSPost2010Prop52
140
1.0
102
RTVSPost2010PropOp52
 70
     0
102
RTVSPost2010Prop53
 90
        2
102
RTVSPost2010PropOp53
 70
     1
102
RTVSPost2010Prop54
  1
strokes_ogs.tif
102
RTVSPost2010PropOp54
 70
     1
102
RTVSPost2010Prop55
280
     0
102
RTVSPost2010PropOp55
 70
     1
102
RTVSPost2010Prop56
140
1.0
102
RTVSPost2010PropOp56
 70
     1
102
RTVSPost2010Prop57
140
1.0
102
RTVSPost2010PropOp57
 70
     1
  0
XRECORD
  5
215
102
{ACAD_REACTORS
330
214
102
}
330
214
100
AcDbXrecord
280
     1
102
RTVSPropertyOp0
 70
     1
102
RTVSPropertyOp1
 70
     1
102
RTVSPropertyOp2
 70
     1
102
RTVSPropertyOp3
 70
     1
102
RTVSPropertyOp4
 70
     1
102
RTVSPropertyOp5
 70
     1
102
RTVSPropertyOp6
 70
     1
102
RTVSPropertyOp7
 70
     1
102
RTVSPropertyOp8
 70
     1
102
RTVSPropertyOp9
 70
     1
102
RTVSPropertyOp10
 70
     1
102
RTVSPropertyOp11
 70
     1
102
RTVSPropertyOp12
 70
     1
102
RTVSPropertyOp13
 70
     1
102
RTVSPropertyOp14
 70
     1
102
RTVSPropertyOp15
 70
     1
102
RTVSPropertyOp16
 70
     1
102
RTVSPropertyOp17
 70
     1
102
RTVSPropertyOp18
 70
     1
102
RTVSPropertyOp19
 70
     1
102
RTVSPropertyOp20
 70
     1
102
RTVSPropertyOp21
 70
     1
102
RTVSPropertyOp22
 70
     1
102
RTVSPropertyOp23
 70
     1
102
RTVSPropertyOp24
 70
     1
102
RTVSPropertyOp25
 70
     1
102
RTVSPropertyOp26
 70
     1
102
RTVSPropertyOp27
 70
     1
102
RTVSPropertyOp28
 70
     1
102
RTVSPropertyOp29
 70
     1
102
RTVSPropertyOp30
 70
     1
102
RTVSPropertyOp31
 70
     1
102
RTVSPropertyOp32
 70
     1
102
RTVSPropertyOp33
 70
     1
102
RTVSPropertyOp34
 70
     1
102
RTVSPropertyOp35
 70
     1
102
RTVSPropertyOp36
 70
     1
102
RTVSPropertyOp37
 70
     1
102
RTVSPropertyOp38
 70
     1
102
RTVSPropertyOp39
 70
     1
102
RTVSPropertyOp40
 70
     1
102
RTVSPropertyOp41
 70
     1
102
RTVSPropertyOp42
 70
     1
102
RTVSPropertyOp43
 70
     1
102
RTVSPropertyOp44
 70
     1
102
RTVSPropertyOp45
 70
     1
102
RTVSPropertyOp46
 70
     1
102
RTVSPropertyOp47
 70
     1
102
RTVSPropertyOp48
 70
     1
102
RTVSPropertyOp49
 70
     1
102
RTVSPropertyOp50
 70
     1
102
RTVSPropertyOp51
 70
     0
102
RTVSPropertyOp52
 70
     0
102
RTVSPropertyOp53
 70
     1
102
RTVSPropertyOp54
 70
     1
102
RTVSPropertyOp55
 70
     1
102
RTVSPropertyOp56
 70
     1
102
RTVSPropertyOp57
 70
     1
102
RTVSPost2010Prop28
280
     0
102
RTVSPost2010PropOp28
 70
     1
102
RTVSPost2010Prop29
280
     1
102
RTVSPost2010PropOp29
 70
     1
102
RTVSPost2010Prop30
280
     1
102
RTVSPost2010PropOp30
 70
     1
102
RTVSPost2010Prop31
280
     0
102
RTVSPost2010PropOp31
 70
     1
102
RTVSPost2010Prop32
280
     0
102
RTVSPost2010PropOp32
 70
     1
102
RTVSPost2010Prop33
280
     0
102
RTVSPost2010PropOp33
 70
     1
102
RTVSPost2010Prop34
280
     0
102
RTVSPost2010PropOp34
 70
     1
102
RTVSPost2010Prop35
280
     0
102
RTVSPost2010PropOp35
 70
     1
102
RTVSPost2010Prop36
280
     0
102
RTVSPost2010PropOp36
 70
     1
102
RTVSPost2010Prop37
 90
       50
102
RTVSPost2010PropOp37
 70
     1
102
RTVSPost2010Prop38
140
0.0
102
RTVSPost2010PropOp38
 70
     1
102
RTVSPost2010Prop39
140
1.0
102
RTVSPost2010PropOp39
 70
     1
102
RTVSPost2010Prop40
 90
        0
102
RTVSPost2010PropOp40
 70
     1
102
RTVSPost2010Prop41ColorIndex
 90
       18
102
RTVSPost2010Prop41ColorRGB
 90
        0
102
RTVSPost2010PropOp41
 70
     1
102
RTVSPost2010Prop42
 90
       50
102
RTVSPost2010PropOp42
 70
     1
102
RTVSPost2010Prop43
 90
        3
102
RTVSPost2010PropOp43
 70
     1
102
RTVSPost2010Prop44ColorIndex
 90
        5
102
RTVSPost2010Prop44ColorRGB
 90
      255
102
RTVSPost2010PropOp44
 70
     1
102
RTVSPost2010Prop45
280
     0
102
RTVSPost2010PropOp45
 70
     1
102
RTVSPost2010Prop46
 90
       50
102
RTVSPost2010PropOp46
 70
     1
102
RTVSPost2010Prop47
 90
       50
102
RTVSPost2010PropOp47
 70
     1
102
RTVSPost2010Prop48
 90
       50
102
RTVSPost2010PropOp48
 70
     1
102
RTVSPost2010Prop49
280
     0
102
RTVSPost2010PropOp49
 70
     1
102
RTVSPost2010Prop50
 90
       50
102
RTVSPost2010PropOp50
 70
     1
102
RTVSPost2010Prop51ColorIndex
 90
      256
102
RTVSPost2010Prop51ColorRGB
 90
-16777216
102
RTVSPost2010PropOp51
 70
     0
102
RTVSPost2010Prop52
140
1.0
102
RTVSPost2010PropOp52
 70
     0
102
RTVSPost2010Prop53
 90
        2
102
RTVSPost2010PropOp53
 70
     1
102
RTVSPost2010Prop54
  1
strokes_ogs.tif
102
RTVSPost2010PropOp54
 70
     1
102
RTVSPost2010Prop55
280
     0
102
RTVSPost2010PropOp55
 70
     1
102
RTVSPost2010Prop56
140
1.0
102
RTVSPost2010PropOp56
 70
     1
102
RTVSPost2010Prop57
140
1.0
102
RTVSPost2010PropOp57
 70
     1
  0
XRECORD
  5
21B
102
{ACAD_REACTORS
330
21A
102
}
330
21A
100
AcDbXrecord
280
     1
102
RTVSPropertyOp0
 70
     1
102
RTVSPropertyOp1
 70
     1
102
RTVSPropertyOp2
 70
     1
102
RTVSPropertyOp3
 70
     1
102
RTVSPropertyOp4
 70
     1
102
RTVSPropertyOp5
 70
     1
102
RTVSPropertyOp6
 70
     1
102
RTVSPropertyOp7
 70
     1
102
RTVSPropertyOp8
 70
     1
102
RTVSPropertyOp9
 70
     1
102
RTVSPropertyOp10
 70
     1
102
RTVSPropertyOp11
 70
     1
102
RTVSPropertyOp12
 70
     1
102
RTVSPropertyOp13
 70
     1
102
RTVSPropertyOp14
 70
     1
102
RTVSPropertyOp15
 70
     1
102
RTVSPropertyOp16
 70
     1
102
RTVSPropertyOp17
 70
     1
102
RTVSPropertyOp18
 70
     1
102
RTVSPropertyOp19
 70
     1
102
RTVSPropertyOp20
 70
     1
102
RTVSPropertyOp21
 70
     1
102
RTVSPropertyOp22
 70
     1
102
RTVSPropertyOp23
 70
     1
102
RTVSPropertyOp24
 70
     1
102
RTVSPropertyOp25
 70
     1
102
RTVSPropertyOp26
 70
     1
102
RTVSPropertyOp27
 70
     1
102
RTVSPropertyOp28
 70
     1
102
RTVSPropertyOp29
 70
     1
102
RTVSPropertyOp30
 70
     1
102
RTVSPropertyOp31
 70
     1
102
RTVSPropertyOp32
 70
     1
102
RTVSPropertyOp33
 70
     1
102
RTVSPropertyOp34
 70
     1
102
RTVSPropertyOp35
 70
     1
102
RTVSPropertyOp36
 70
     1
102
RTVSPropertyOp37
 70
     1
102
RTVSPropertyOp38
 70
     1
102
RTVSPropertyOp39
 70
     1
102
RTVSPropertyOp40
 70
     1
102
RTVSPropertyOp41
 70
     1
102
RTVSPropertyOp42
 70
     1
102
RTVSPropertyOp43
 70
     1
102
RTVSPropertyOp44
 70
     1
102
RTVSPropertyOp45
 70
     1
102
RTVSPropertyOp46
 70
     1
102
RTVSPropertyOp47
 70
     1
102
RTVSPropertyOp48
 70
     1
102
RTVSPropertyOp49
 70
     1
102
RTVSPropertyOp50
 70
     1
102
RTVSPropertyOp51
 70
     0
102
RTVSPropertyOp52
 70
     0
102
RTVSPropertyOp53
 70
     1
102
RTVSPropertyOp54
 70
     1
102
RTVSPropertyOp55
 70
     1
102
RTVSPropertyOp56
 70
     1
102
RTVSPropertyOp57
 70
     1
102
RTVSPost2010Prop28
280
     0
102
RTVSPost2010PropOp28
 70
     1
102
RTVSPost2010Prop29
280
     1
102
RTVSPost2010PropOp29
 70
     1
102
RTVSPost2010Prop30
280
     1
102
RTVSPost2010PropOp30
 70
     1
102
RTVSPost2010Prop31
280
     0
102
RTVSPost2010PropOp31
 70
     1
102
RTVSPost2010Prop32
280
     0
102
RTVSPost2010PropOp32
 70
     1
102
RTVSPost2010Prop33
280
     0
102
RTVSPost2010PropOp33
 70
     1
102
RTVSPost2010Prop34
280
     0
102
RTVSPost2010PropOp34
 70
     1
102
RTVSPost2010Prop35
280
     0
102
RTVSPost2010PropOp35
 70
     1
102
RTVSPost2010Prop36
280
     0
102
RTVSPost2010PropOp36
 70
     1
102
RTVSPost2010Prop37
 90
       50
102
RTVSPost2010PropOp37
 70
     1
102
RTVSPost2010Prop38
140
0.0
102
RTVSPost2010PropOp38
 70
     1
102
RTVSPost2010Prop39
140
1.0
102
RTVSPost2010PropOp39
 70
     1
102
RTVSPost2010Prop40
 90
        0
102
RTVSPost2010PropOp40
 70
     1
102
RTVSPost2010Prop41ColorIndex
 90
       18
102
RTVSPost2010Prop41ColorRGB
 90
        0
102
RTVSPost2010PropOp41
 70
     1
102
RTVSPost2010Prop42
 90
       50
102
RTVSPost2010PropOp42
 70
     1
102
RTVSPost2010Prop43
 90
        3
102
RTVSPost2010PropOp43
 70
     1
102
RTVSPost2010Prop44ColorIndex
 90
        5
102
RTVSPost2010Prop44ColorRGB
 90
      255
102
RTVSPost2010PropOp44
 70
     1
102
RTVSPost2010Prop45
280
     0
102
RTVSPost2010PropOp45
 70
     1
102
RTVSPost2010Prop46
 90
       50
102
RTVSPost2010PropOp46
 70
     1
102
RTVSPost2010Prop47
 90
       50
102
RTVSPost2010PropOp47
 70
     1
102
RTVSPost2010Prop48
 90
       50
102
RTVSPost2010PropOp48
 70
     1
102
RTVSPost2010Prop49
280
     0
102
RTVSPost2010PropOp49
 70
     1
102
RTVSPost2010Prop50
 90
       50
102
RTVSPost2010PropOp50
 70
     1
102
RTVSPost2010Prop51ColorIndex
 90
      256
102
RTVSPost2010Prop51ColorRGB
 90
-16777216
102
RTVSPost2010PropOp51
 70
     0
102
RTVSPost2010Prop52
140
1.0
102
RTVSPost2010PropOp52
 70
     0
102
RTVSPost2010Prop53
 90
        2
102
RTVSPost2010PropOp53
 70
     1
102
RTVSPost2010Prop54
  1
strokes_ogs.tif
102
RTVSPost2010PropOp54
 70
     1
102
RTVSPost2010Prop55
280
     0
102
RTVSPost2010PropOp55
 70
     1
102
RTVSPost2010Prop56
140
1.0
102
RTVSPost2010PropOp56
 70
     1
102
RTVSPost2010Prop57
140
1.0
102
RTVSPost2010PropOp57
 70
     1
  0
XRECORD
  5
22F
102
{ACAD_REACTORS
330
22E
102
}
330
22E
100
AcDbXrecord
280
     1
102
RTVSPropertyOp0
 70
     0
102
RTVSPropertyOp1
 70
     0
102
RTVSPropertyOp2
 70
     0
102
RTVSPropertyOp3
 70
     0
102
RTVSPropertyOp4
 70
     0
102
RTVSPropertyOp5
 70
     0
102
RTVSPropertyOp6
 70
     0
102
RTVSPropertyOp7
 70
     0
102
RTVSPropertyOp8
 70
     0
102
RTVSPropertyOp9
 70
     0
102
RTVSPropertyOp10
 70
     0
102
RTVSPropertyOp11
 70
     0
102
RTVSPropertyOp12
 70
     0
102
RTVSPropertyOp13
 70
     0
102
RTVSPropertyOp14
 70
     2
102
RTVSPropertyOp15
 70
     0
102
RTVSPropertyOp16
 70
     0
102
RTVSPropertyOp17
 70
     0
102
RTVSPropertyOp18
 70
     0
102
RTVSPropertyOp19
 70
     0
102
RTVSPropertyOp20
 70
     0
102
RTVSPropertyOp21
 70
     0
102
RTVSPropertyOp22
 70
     0
102
RTVSPropertyOp23
 70
     0
102
RTVSPropertyOp24
 70
     0
102
RTVSPropertyOp25
 70
     0
102
RTVSPropertyOp26
 70
     0
102
RTVSPropertyOp27
 70
     0
102
RTVSPropertyOp28
 70
     0
102
RTVSPropertyOp29
 70
     0
102
RTVSPropertyOp30
 70
     0
102
RTVSPropertyOp31
 70
     0
102
RTVSPropertyOp32
 70
     0
102
RTVSPropertyOp33
 70
     0
102
RTVSPropertyOp34
 70
     0
102
RTVSPropertyOp35
 70
     0
102
RTVSPropertyOp36
 70
     0
102
RTVSPropertyOp37
 70
     0
102
RTVSPropertyOp38
 70
     0
102
RTVSPropertyOp39
 70
     0
102
RTVSPropertyOp40
 70
     0
102
RTVSPropertyOp41
 70
     0
102
RTVSPropertyOp42
 70
     0
102
RTVSPropertyOp43
 70
     0
102
RTVSPropertyOp44
 70
     0
102
RTVSPropertyOp45
 70
     0
102
RTVSPropertyOp46
 70
     0
102
RTVSPropertyOp47
 70
     0
102
RTVSPropertyOp48
 70
     0
102
RTVSPropertyOp49
 70
     0
102
RTVSPropertyOp50
 70
     0
102
RTVSPropertyOp51
 70
     0
102
RTVSPropertyOp52
 70
     0
102
RTVSPropertyOp53
 70
     0
102
RTVSPropertyOp54
 70
     0
102
RTVSPropertyOp55
 70
     0
102
RTVSPropertyOp56
 70
     0
102
RTVSPropertyOp57
 70
     0
102
RTVSPost2010Prop28
280
     0
102
RTVSPost2010PropOp28
 70
     0
102
RTVSPost2010Prop29
280
     1
102
RTVSPost2010PropOp29
 70
     0
102
RTVSPost2010Prop30
280
     1
102
RTVSPost2010PropOp30
 70
     0
102
RTVSPost2010Prop31
280
     0
102
RTVSPost2010PropOp31
 70
     0
102
RTVSPost2010Prop32
280
     0
102
RTVSPost2010PropOp32
 70
     0
102
RTVSPost2010Prop33
280
     0
102
RTVSPost2010PropOp33
 70
     0
102
RTVSPost2010Prop34
280
     0
102
RTVSPost2010PropOp34
 70
     0
102
RTVSPost2010Prop35
280
     0
102
RTVSPost2010PropOp35
 70
     0
102
RTVSPost2010Prop36
280
     0
102
RTVSPost2010PropOp36
 70
     0
102
RTVSPost2010Prop37
 90
       50
102
RTVSPost2010PropOp37
 70
     0
102
RTVSPost2010Prop38
140
0.0
102
RTVSPost2010PropOp38
 70
     0
102
RTVSPost2010Prop39
140
1.0
102
RTVSPost2010PropOp39
 70
     0
102
RTVSPost2010Prop40
 90
        0
102
RTVSPost2010PropOp40
 70
     0
102
RTVSPost2010Prop41ColorIndex
 90
       18
102
RTVSPost2010Prop41ColorRGB
 90
        0
102
RTVSPost2010PropOp41
 70
     0
102
RTVSPost2010Prop42
 90
       50
102
RTVSPost2010PropOp42
 70
     0
102
RTVSPost2010Prop43
 90
        3
102
RTVSPost2010PropOp43
 70
     0
102
RTVSPost2010Prop44ColorIndex
 90
        5
102
RTVSPost2010Prop44ColorRGB
 90
      255
102
RTVSPost2010PropOp44
 70
     0
102
RTVSPost2010Prop45
280
     0
102
RTVSPost2010PropOp45
 70
     0
102
RTVSPost2010Prop46
 90
       50
102
RTVSPost2010PropOp46
 70
     0
102
RTVSPost2010Prop47
 90
       50
102
RTVSPost2010PropOp47
 70
     0
102
RTVSPost2010Prop48
 90
       50
102
RTVSPost2010PropOp48
 70
     0
102
RTVSPost2010Prop49
280
     0
102
RTVSPost2010PropOp49
 70
     0
102
RTVSPost2010Prop50
 90
       50
102
RTVSPost2010PropOp50
 70
     0
102
RTVSPost2010Prop51ColorIndex
 90
      256
102
RTVSPost2010Prop51ColorRGB
 90
-16777216
102
RTVSPost2010PropOp51
 70
     0
102
RTVSPost2010Prop52
140
1.0
102
RTVSPost2010PropOp52
 70
     0
102
RTVSPost2010Prop53
 90
        2
102
RTVSPost2010PropOp53
 70
     0
102
RTVSPost2010Prop54
  1
strokes_ogs.tif
102
RTVSPost2010PropOp54
 70
     0
102
RTVSPost2010Prop55
280
     0
102
RTVSPost2010PropOp55
 70
     0
102
RTVSPost2010Prop56
140
1.0
102
RTVSPost2010PropOp56
 70
     0
102
RTVSPost2010Prop57
140
1.0
102
RTVSPost2010PropOp57
 70
     0
  0
XRECORD
  5
229
102
{ACAD_REACTORS
330
228
102
}
330
228
100
AcDbXrecord
280
     1
102
RTVSPropertyOp0
 70
     1
102
RTVSPropertyOp1
 70
     1
102
RTVSPropertyOp2
 70
     1
102
RTVSPropertyOp3
 70
     1
102
RTVSPropertyOp4
 70
     1
102
RTVSPropertyOp5
 70
     1
102
RTVSPropertyOp6
 70
     1
102
RTVSPropertyOp7
 70
     1
102
RTVSPropertyOp8
 70
     1
102
RTVSPropertyOp9
 70
     1
102
RTVSPropertyOp10
 70
     1
102
RTVSPropertyOp11
 70
     1
102
RTVSPropertyOp12
 70
     1
102
RTVSPropertyOp13
 70
     1
102
RTVSPropertyOp14
 70
     1
102
RTVSPropertyOp15
 70
     1
102
RTVSPropertyOp16
 70
     1
102
RTVSPropertyOp17
 70
     1
102
RTVSPropertyOp18
 70
     1
102
RTVSPropertyOp19
 70
     1
102
RTVSPropertyOp20
 70
     1
102
RTVSPropertyOp21
 70
     1
102
RTVSPropertyOp22
 70
     1
102
RTVSPropertyOp23
 70
     1
102
RTVSPropertyOp24
 70
     1
102
RTVSPropertyOp25
 70
     1
102
RTVSPropertyOp26
 70
     1
102
RTVSPropertyOp27
 70
     1
102
RTVSPropertyOp28
 70
     1
102
RTVSPropertyOp29
 70
     1
102
RTVSPropertyOp30
 70
     1
102
RTVSPropertyOp31
 70
     1
102
RTVSPropertyOp32
 70
     1
102
RTVSPropertyOp33
 70
     1
102
RTVSPropertyOp34
 70
     1
102
RTVSPropertyOp35
 70
     1
102
RTVSPropertyOp36
 70
     1
102
RTVSPropertyOp37
 70
     1
102
RTVSPropertyOp38
 70
     1
102
RTVSPropertyOp39
 70
     1
102
RTVSPropertyOp40
 70
     1
102
RTVSPropertyOp41
 70
     1
102
RTVSPropertyOp42
 70
     1
102
RTVSPropertyOp43
 70
     1
102
RTVSPropertyOp44
 70
     1
102
RTVSPropertyOp45
 70
     1
102
RTVSPropertyOp46
 70
     1
102
RTVSPropertyOp47
 70
     1
102
RTVSPropertyOp48
 70
     1
102
RTVSPropertyOp49
 70
     1
102
RTVSPropertyOp50
 70
     1
102
RTVSPropertyOp51
 70
     0
102
RTVSPropertyOp52
 70
     0
102
RTVSPropertyOp53
 70
     1
102
RTVSPropertyOp54
 70
     1
102
RTVSPropertyOp55
 70
     1
102
RTVSPropertyOp56
 70
     1
102
RTVSPropertyOp57
 70
     1
102
RTVSPost2010Prop28
280
     0
102
RTVSPost2010PropOp28
 70
     1
102
RTVSPost2010Prop29
280
     1
102
RTVSPost2010PropOp29
 70
     1
102
RTVSPost2010Prop30
280
     1
102
RTVSPost2010PropOp30
 70
     1
102
RTVSPost2010Prop31
280
     0
102
RTVSPost2010PropOp31
 70
     1
102
RTVSPost2010Prop32
280
     0
102
RTVSPost2010PropOp32
 70
     1
102
RTVSPost2010Prop33
280
     0
102
RTVSPost2010PropOp33
 70
     1
102
RTVSPost2010Prop34
280
     0
102
RTVSPost2010PropOp34
 70
     1
102
RTVSPost2010Prop35
280
     0
102
RTVSPost2010PropOp35
 70
     1
102
RTVSPost2010Prop36
280
     0
102
RTVSPost2010PropOp36
 70
     1
102
RTVSPost2010Prop37
 90
       50
102
RTVSPost2010PropOp37
 70
     1
102
RTVSPost2010Prop38
140
0.0
102
RTVSPost2010PropOp38
 70
     1
102
RTVSPost2010Prop39
140
1.0
102
RTVSPost2010PropOp39
 70
     1
102
RTVSPost2010Prop40
 90
        0
102
RTVSPost2010PropOp40
 70
     1
102
RTVSPost2010Prop41ColorIndex
 90
       18
102
RTVSPost2010Prop41ColorRGB
 90
        0
102
RTVSPost2010PropOp41
 70
     1
102
RTVSPost2010Prop42
 90
       50
102
RTVSPost2010PropOp42
 70
     1
102
RTVSPost2010Prop43
 90
        3
102
RTVSPost2010PropOp43
 70
     1
102
RTVSPost2010Prop44ColorIndex
 90
        5
102
RTVSPost2010Prop44ColorRGB
 90
      255
102
RTVSPost2010PropOp44
 70
     1
102
RTVSPost2010Prop45
280
     0
102
RTVSPost2010PropOp45
 70
     1
102
RTVSPost2010Prop46
 90
       50
102
RTVSPost2010PropOp46
 70
     1
102
RTVSPost2010Prop47
 90
       50
102
RTVSPost2010PropOp47
 70
     1
102
RTVSPost2010Prop48
 90
       50
102
RTVSPost2010PropOp48
 70
     1
102
RTVSPost2010Prop49
280
     0
102
RTVSPost2010PropOp49
 70
     1
102
RTVSPost2010Prop50
 90
       50
102
RTVSPost2010PropOp50
 70
     1
102
RTVSPost2010Prop51ColorIndex
 90
      256
102
RTVSPost2010Prop51ColorRGB
 90
-16777216
102
RTVSPost2010PropOp51
 70
     0
102
RTVSPost2010Prop52
140
1.0
102
RTVSPost2010PropOp52
 70
     0
102
RTVSPost2010Prop53
 90
        2
102
RTVSPost2010PropOp53
 70
     1
102
RTVSPost2010Prop54
  1
strokes_ogs.tif
102
RTVSPost2010PropOp54
 70
     1
102
RTVSPost2010Prop55
280
     0
102
RTVSPost2010PropOp55
 70
     1
102
RTVSPost2010Prop56
140
1.0
102
RTVSPost2010PropOp56
 70
     1
102
RTVSPost2010Prop57
140
1.0
102
RTVSPost2010PropOp57
 70
     1
  0
XRECORD
  5
231
102
{ACAD_REACTORS
330
230
102
}
330
230
100
AcDbXrecord
280
     1
102
RTVSPropertyOp0
 70
     0
102
RTVSPropertyOp1
 70
     0
102
RTVSPropertyOp2
 70
     0
102
RTVSPropertyOp3
 70
     0
102
RTVSPropertyOp4
 70
     0
102
RTVSPropertyOp5
 70
     0
102
RTVSPropertyOp6
 70
     0
102
RTVSPropertyOp7
 70
     0
102
RTVSPropertyOp8
 70
     0
102
RTVSPropertyOp9
 70
     0
102
RTVSPropertyOp10
 70
     0
102
RTVSPropertyOp11
 70
     0
102
RTVSPropertyOp12
 70
     0
102
RTVSPropertyOp13
 70
     0
102
RTVSPropertyOp14
 70
     2
102
RTVSPropertyOp15
 70
     0
102
RTVSPropertyOp16
 70
     0
102
RTVSPropertyOp17
 70
     0
102
RTVSPropertyOp18
 70
     0
102
RTVSPropertyOp19
 70
     0
102
RTVSPropertyOp20
 70
     0
102
RTVSPropertyOp21
 70
     0
102
RTVSPropertyOp22
 70
     0
102
RTVSPropertyOp23
 70
     0
102
RTVSPropertyOp24
 70
     0
102
RTVSPropertyOp25
 70
     0
102
RTVSPropertyOp26
 70
     0
102
RTVSPropertyOp27
 70
     0
102
RTVSPropertyOp28
 70
     0
102
RTVSPropertyOp29
 70
     0
102
RTVSPropertyOp30
 70
     0
102
RTVSPropertyOp31
 70
     0
102
RTVSPropertyOp32
 70
     0
102
RTVSPropertyOp33
 70
     0
102
RTVSPropertyOp34
 70
     0
102
RTVSPropertyOp35
 70
     0
102
RTVSPropertyOp36
 70
     0
102
RTVSPropertyOp37
 70
     0
102
RTVSPropertyOp38
 70
     0
102
RTVSPropertyOp39
 70
     0
102
RTVSPropertyOp40
 70
     0
102
RTVSPropertyOp41
 70
     0
102
RTVSPropertyOp42
 70
     0
102
RTVSPropertyOp43
 70
     0
102
RTVSPropertyOp44
 70
     0
102
RTVSPropertyOp45
 70
     0
102
RTVSPropertyOp46
 70
     0
102
RTVSPropertyOp47
 70
     0
102
RTVSPropertyOp48
 70
     0
102
RTVSPropertyOp49
 70
     0
102
RTVSPropertyOp50
 70
     0
102
RTVSPropertyOp51
 70
     0
102
RTVSPropertyOp52
 70
     0
102
RTVSPropertyOp53
 70
     0
102
RTVSPropertyOp54
 70
     0
102
RTVSPropertyOp55
 70
     0
102
RTVSPropertyOp56
 70
     0
102
RTVSPropertyOp57
 70
     0
102
RTVSPost2010Prop28
280
     0
102
RTVSPost2010PropOp28
 70
     0
102
RTVSPost2010Prop29
280
     1
102
RTVSPost2010PropOp29
 70
     0
102
RTVSPost2010Prop30
280
     1
102
RTVSPost2010PropOp30
 70
     0
102
RTVSPost2010Prop31
280
     0
102
RTVSPost2010PropOp31
 70
     0
102
RTVSPost2010Prop32
280
     0
102
RTVSPost2010PropOp32
 70
     0
102
RTVSPost2010Prop33
280
     0
102
RTVSPost2010PropOp33
 70
     0
102
RTVSPost2010Prop34
280
     0
102
RTVSPost2010PropOp34
 70
     0
102
RTVSPost2010Prop35
280
     0
102
RTVSPost2010PropOp35
 70
     0
102
RTVSPost2010Prop36
280
     0
102
RTVSPost2010PropOp36
 70
     0
102
RTVSPost2010Prop37
 90
       50
102
RTVSPost2010PropOp37
 70
     0
102
RTVSPost2010Prop38
140
0.0
102
RTVSPost2010PropOp38
 70
     0
102
RTVSPost2010Prop39
140
1.0
102
RTVSPost2010PropOp39
 70
     0
102
RTVSPost2010Prop40
 90
        0
102
RTVSPost2010PropOp40
 70
     0
102
RTVSPost2010Prop41ColorIndex
 90
       18
102
RTVSPost2010Prop41ColorRGB
 90
        0
102
RTVSPost2010PropOp41
 70
     0
102
RTVSPost2010Prop42
 90
       50
102
RTVSPost2010PropOp42
 70
     0
102
RTVSPost2010Prop43
 90
        3
102
RTVSPost2010PropOp43
 70
     0
102
RTVSPost2010Prop44ColorIndex
 90
        5
102
RTVSPost2010Prop44ColorRGB
 90
      255
102
RTVSPost2010PropOp44
 70
     0
102
RTVSPost2010Prop45
280
     0
102
RTVSPost2010PropOp45
 70
     0
102
RTVSPost2010Prop46
 90
       50
102
RTVSPost2010PropOp46
 70
     0
102
RTVSPost2010Prop47
 90
       50
102
RTVSPost2010PropOp47
 70
     0
102
RTVSPost2010Prop48
 90
       50
102
RTVSPost2010PropOp48
 70
     0
102
RTVSPost2010Prop49
280
     0
102
RTVSPost2010PropOp49
 70
     0
102
RTVSPost2010Prop50
 90
       50
102
RTVSPost2010PropOp50
 70
     0
102
RTVSPost2010Prop51ColorIndex
 90
      256
102
RTVSPost2010Prop51ColorRGB
 90
-16777216
102
RTVSPost2010PropOp51
 70
     0
102
RTVSPost2010Prop52
140
1.0
102
RTVSPost2010PropOp52
 70
     0
102
RTVSPost2010Prop53
 90
        2
102
RTVSPost2010PropOp53
 70
     0
102
RTVSPost2010Prop54
  1
strokes_ogs.tif
102
RTVSPost2010PropOp54
 70
     0
102
RTVSPost2010Prop55
280
     0
102
RTVSPost2010PropOp55
 70
     0
102
RTVSPost2010Prop56
140
1.0
102
RTVSPost2010PropOp56
 70
     0
102
RTVSPost2010Prop57
140
1.0
102
RTVSPost2010PropOp57
 70
     0
  0
XRECORD
  5
21F
102
{ACAD_REACTORS
330
21E
102
}
330
21E
100
AcDbXrecord
280
     1
102
RTVSPropertyOp0
 70
     1
102
RTVSPropertyOp1
 70
     1
102
RTVSPropertyOp2
 70
     1
102
RTVSPropertyOp3
 70
     1
102
RTVSPropertyOp4
 70
     1
102
RTVSPropertyOp5
 70
     1
102
RTVSPropertyOp6
 70
     1
102
RTVSPropertyOp7
 70
     1
102
RTVSPropertyOp8
 70
     1
102
RTVSPropertyOp9
 70
     1
102
RTVSPropertyOp10
 70
     1
102
RTVSPropertyOp11
 70
     1
102
RTVSPropertyOp12
 70
     1
102
RTVSPropertyOp13
 70
     1
102
RTVSPropertyOp14
 70
     1
102
RTVSPropertyOp15
 70
     1
102
RTVSPropertyOp16
 70
     1
102
RTVSPropertyOp17
 70
     1
102
RTVSPropertyOp18
 70
     1
102
RTVSPropertyOp19
 70
     1
102
RTVSPropertyOp20
 70
     1
102
RTVSPropertyOp21
 70
     1
102
RTVSPropertyOp22
 70
     1
102
RTVSPropertyOp23
 70
     1
102
RTVSPropertyOp24
 70
     1
102
RTVSPropertyOp25
 70
     1
102
RTVSPropertyOp26
 70
     1
102
RTVSPropertyOp27
 70
     1
102
RTVSPropertyOp28
 70
     1
102
RTVSPropertyOp29
 70
     1
102
RTVSPropertyOp30
 70
     1
102
RTVSPropertyOp31
 70
     1
102
RTVSPropertyOp32
 70
     1
102
RTVSPropertyOp33
 70
     1
102
RTVSPropertyOp34
 70
     1
102
RTVSPropertyOp35
 70
     1
102
RTVSPropertyOp36
 70
     1
102
RTVSPropertyOp37
 70
     1
102
RTVSPropertyOp38
 70
     1
102
RTVSPropertyOp39
 70
     1
102
RTVSPropertyOp40
 70
     1
102
RTVSPropertyOp41
 70
     1
102
RTVSPropertyOp42
 70
     1
102
RTVSPropertyOp43
 70
     1
102
RTVSPropertyOp44
 70
     1
102
RTVSPropertyOp45
 70
     1
102
RTVSPropertyOp46
 70
     1
102
RTVSPropertyOp47
 70
     1
102
RTVSPropertyOp48
 70
     1
102
RTVSPropertyOp49
 70
     1
102
RTVSPropertyOp50
 70
     1
102
RTVSPropertyOp51
 70
     0
102
RTVSPropertyOp52
 70
     0
102
RTVSPropertyOp53
 70
     1
102
RTVSPropertyOp54
 70
     1
102
RTVSPropertyOp55
 70
     1
102
RTVSPropertyOp56
 70
     1
102
RTVSPropertyOp57
 70
     1
102
RTVSPost2010Prop28
280
     0
102
RTVSPost2010PropOp28
 70
     1
102
RTVSPost2010Prop29
280
     1
102
RTVSPost2010PropOp29
 70
     1
102
RTVSPost2010Prop30
280
     1
102
RTVSPost2010PropOp30
 70
     1
102
RTVSPost2010Prop31
280
     0
102
RTVSPost2010PropOp31
 70
     1
102
RTVSPost2010Prop32
280
     0
102
RTVSPost2010PropOp32
 70
     1
102
RTVSPost2010Prop33
280
     0
102
RTVSPost2010PropOp33
 70
     1
102
RTVSPost2010Prop34
280
     0
102
RTVSPost2010PropOp34
 70
     1
102
RTVSPost2010Prop35
280
     0
102
RTVSPost2010PropOp35
 70
     1
102
RTVSPost2010Prop36
280
     0
102
RTVSPost2010PropOp36
 70
     1
102
RTVSPost2010Prop37
 90
       50
102
RTVSPost2010PropOp37
 70
     1
102
RTVSPost2010Prop38
140
0.0
102
RTVSPost2010PropOp38
 70
     1
102
RTVSPost2010Prop39
140
1.0
102
RTVSPost2010PropOp39
 70
     1
102
RTVSPost2010Prop40
 90
        0
102
RTVSPost2010PropOp40
 70
     1
102
RTVSPost2010Prop41ColorIndex
 90
       18
102
RTVSPost2010Prop41ColorRGB
 90
        0
102
RTVSPost2010PropOp41
 70
     1
102
RTVSPost2010Prop42
 90
       50
102
RTVSPost2010PropOp42
 70
     1
102
RTVSPost2010Prop43
 90
        3
102
RTVSPost2010PropOp43
 70
     1
102
RTVSPost2010Prop44ColorIndex
 90
        5
102
RTVSPost2010Prop44ColorRGB
 90
      255
102
RTVSPost2010PropOp44
 70
     1
102
RTVSPost2010Prop45
280
     0
102
RTVSPost2010PropOp45
 70
     1
102
RTVSPost2010Prop46
 90
       50
102
RTVSPost2010PropOp46
 70
     1
102
RTVSPost2010Prop47
 90
       50
102
RTVSPost2010PropOp47
 70
     1
102
RTVSPost2010Prop48
 90
       50
102
RTVSPost2010PropOp48
 70
     1
102
RTVSPost2010Prop49
280
     0
102
RTVSPost2010PropOp49
 70
     1
102
RTVSPost2010Prop50
 90
       50
102
RTVSPost2010PropOp50
 70
     1
102
RTVSPost2010Prop51ColorIndex
 90
      256
102
RTVSPost2010Prop51ColorRGB
 90
-16777216
102
RTVSPost2010PropOp51
 70
     0
102
RTVSPost2010Prop52
140
1.0
102
RTVSPost2010PropOp52
 70
     0
102
RTVSPost2010Prop53
 90
        2
102
RTVSPost2010PropOp53
 70
     1
102
RTVSPost2010Prop54
  1
strokes_ogs.tif
102
RTVSPost2010PropOp54
 70
     1
102
RTVSPost2010Prop55
280
     0
102
RTVSPost2010PropOp55
 70
     1
102
RTVSPost2010Prop56
140
1.0
102
RTVSPost2010PropOp56
 70
     1
102
RTVSPost2010Prop57
140
1.0
102
RTVSPost2010PropOp57
 70
     1
  0
XRECORD
  5
23D
102
{ACAD_REACTORS
330
23C
102
}
330
23C
100
AcDbXrecord
280
     1
102
RTVSPropertyOp0
 70
     1
102
RTVSPropertyOp1
 70
     1
102
RTVSPropertyOp2
 70
     1
102
RTVSPropertyOp3
 70
     1
102
RTVSPropertyOp4
 70
     1
102
RTVSPropertyOp5
 70
     1
102
RTVSPropertyOp6
 70
     1
102
RTVSPropertyOp7
 70
     1
102
RTVSPropertyOp8
 70
     1
102
RTVSPropertyOp9
 70
     1
102
RTVSPropertyOp10
 70
     1
102
RTVSPropertyOp11
 70
     1
102
RTVSPropertyOp12
 70
     1
102
RTVSPropertyOp13
 70
     1
102
RTVSPropertyOp14
 70
     1
102
RTVSPropertyOp15
 70
     1
102
RTVSPropertyOp16
 70
     1
102
RTVSPropertyOp17
 70
     1
102
RTVSPropertyOp18
 70
     1
102
RTVSPropertyOp19
 70
     1
102
RTVSPropertyOp20
 70
     1
102
RTVSPropertyOp21
 70
     1
102
RTVSPropertyOp22
 70
     1
102
RTVSPropertyOp23
 70
     1
102
RTVSPropertyOp24
 70
     1
102
RTVSPropertyOp25
 70
     1
102
RTVSPropertyOp26
 70
     1
102
RTVSPropertyOp27
 70
     1
102
RTVSPropertyOp28
 70
     1
102
RTVSPropertyOp29
 70
     1
102
RTVSPropertyOp30
 70
     1
102
RTVSPropertyOp31
 70
     1
102
RTVSPropertyOp32
 70
     1
102
RTVSPropertyOp33
 70
     1
102
RTVSPropertyOp34
 70
     1
102
RTVSPropertyOp35
 70
     1
102
RTVSPropertyOp36
 70
     1
102
RTVSPropertyOp37
 70
     1
102
RTVSPropertyOp38
 70
     1
102
RTVSPropertyOp39
 70
     1
102
RTVSPropertyOp40
 70
     1
102
RTVSPropertyOp41
 70
     1
102
RTVSPropertyOp42
 70
     1
102
RTVSPropertyOp43
 70
     1
102
RTVSPropertyOp44
 70
     1
102
RTVSPropertyOp45
 70
     1
102
RTVSPropertyOp46
 70
     1
102
RTVSPropertyOp47
 70
     1
102
RTVSPropertyOp48
 70
     1
102
RTVSPropertyOp49
 70
     1
102
RTVSPropertyOp50
 70
     1
102
RTVSPropertyOp51
 70
     0
102
RTVSPropertyOp52
 70
     0
102
RTVSPropertyOp53
 70
     1
102
RTVSPropertyOp54
 70
     1
102
RTVSPropertyOp55
 70
     1
102
RTVSPropertyOp56
 70
     1
102
RTVSPropertyOp57
 70
     1
102
RTVSPost2010Prop28
280
     0
102
RTVSPost2010PropOp28
 70
     1
102
RTVSPost2010Prop29
280
     1
102
RTVSPost2010PropOp29
 70
     1
102
RTVSPost2010Prop30
280
     1
102
RTVSPost2010PropOp30
 70
     1
102
RTVSPost2010Prop31
280
     0
102
RTVSPost2010PropOp31
 70
     1
102
RTVSPost2010Prop32
280
     0
102
RTVSPost2010PropOp32
 70
     1
102
RTVSPost2010Prop33
280
     0
102
RTVSPost2010PropOp33
 70
     1
102
RTVSPost2010Prop34
280
     0
102
RTVSPost2010PropOp34
 70
     1
102
RTVSPost2010Prop35
280
     0
102
RTVSPost2010PropOp35
 70
     1
102
RTVSPost2010Prop36
280
     0
102
RTVSPost2010PropOp36
 70
     1
102
RTVSPost2010Prop37
 90
       50
102
RTVSPost2010PropOp37
 70
     1
102
RTVSPost2010Prop38
140
0.0
102
RTVSPost2010PropOp38
 70
     1
102
RTVSPost2010Prop39
140
1.0
102
RTVSPost2010PropOp39
 70
     1
102
RTVSPost2010Prop40
 90
        0
102
RTVSPost2010PropOp40
 70
     1
102
RTVSPost2010Prop41ColorIndex
 90
       18
102
RTVSPost2010Prop41ColorRGB
 90
        0
102
RTVSPost2010PropOp41
 70
     1
102
RTVSPost2010Prop42
 90
       50
102
RTVSPost2010PropOp42
 70
     1
102
RTVSPost2010Prop43
 90
        3
102
RTVSPost2010PropOp43
 70
     1
102
RTVSPost2010Prop44ColorIndex
 90
        5
102
RTVSPost2010Prop44ColorRGB
 90
      255
102
RTVSPost2010PropOp44
 70
     1
102
RTVSPost2010Prop45
280
     0
102
RTVSPost2010PropOp45
 70
     1
102
RTVSPost2010Prop46
 90
       50
102
RTVSPost2010PropOp46
 70
     1
102
RTVSPost2010Prop47
 90
       50
102
RTVSPost2010PropOp47
 70
     1
102
RTVSPost2010Prop48
 90
       50
102
RTVSPost2010PropOp48
 70
     1
102
RTVSPost2010Prop49
280
     0
102
RTVSPost2010PropOp49
 70
     1
102
RTVSPost2010Prop50
 90
       50
102
RTVSPost2010PropOp50
 70
     1
102
RTVSPost2010Prop51ColorIndex
 90
      256
102
RTVSPost2010Prop51ColorRGB
 90
-16777216
102
RTVSPost2010PropOp51
 70
     0
102
RTVSPost2010Prop52
140
1.0
102
RTVSPost2010PropOp52
 70
     0
102
RTVSPost2010Prop53
 90
        2
102
RTVSPost2010PropOp53
 70
     1
102
RTVSPost2010Prop54
  1
strokes_ogs.tif
102
RTVSPost2010PropOp54
 70
     1
102
RTVSPost2010Prop55
280
     0
102
RTVSPost2010PropOp55
 70
     1
102
RTVSPost2010Prop56
140
1.0
102
RTVSPost2010PropOp56
 70
     1
102
RTVSPost2010Prop57
140
1.0
102
RTVSPost2010PropOp57
 70
     1
  0
XRECORD
  5
23B
102
{ACAD_REACTORS
330
23A
102
}
330
23A
100
AcDbXrecord
280
     1
102
RTVSPropertyOp0
 70
     1
102
RTVSPropertyOp1
 70
     1
102
RTVSPropertyOp2
 70
     1
102
RTVSPropertyOp3
 70
     1
102
RTVSPropertyOp4
 70
     1
102
RTVSPropertyOp5
 70
     1
102
RTVSPropertyOp6
 70
     1
102
RTVSPropertyOp7
 70
     1
102
RTVSPropertyOp8
 70
     1
102
RTVSPropertyOp9
 70
     1
102
RTVSPropertyOp10
 70
     1
102
RTVSPropertyOp11
 70
     1
102
RTVSPropertyOp12
 70
     1
102
RTVSPropertyOp13
 70
     1
102
RTVSPropertyOp14
 70
     1
102
RTVSPropertyOp15
 70
     1
102
RTVSPropertyOp16
 70
     1
102
RTVSPropertyOp17
 70
     1
102
RTVSPropertyOp18
 70
     1
102
RTVSPropertyOp19
 70
     1
102
RTVSPropertyOp20
 70
     1
102
RTVSPropertyOp21
 70
     1
102
RTVSPropertyOp22
 70
     1
102
RTVSPropertyOp23
 70
     1
102
RTVSPropertyOp24
 70
     1
102
RTVSPropertyOp25
 70
     1
102
RTVSPropertyOp26
 70
     1
102
RTVSPropertyOp27
 70
     1
102
RTVSPropertyOp28
 70
     1
102
RTVSPropertyOp29
 70
     1
102
RTVSPropertyOp30
 70
     1
102
RTVSPropertyOp31
 70
     1
102
RTVSPropertyOp32
 70
     1
102
RTVSPropertyOp33
 70
     1
102
RTVSPropertyOp34
 70
     1
102
RTVSPropertyOp35
 70
     1
102
RTVSPropertyOp36
 70
     1
102
RTVSPropertyOp37
 70
     1
102
RTVSPropertyOp38
 70
     1
102
RTVSPropertyOp39
 70
     1
102
RTVSPropertyOp40
 70
     1
102
RTVSPropertyOp41
 70
     1
102
RTVSPropertyOp42
 70
     1
102
RTVSPropertyOp43
 70
     1
102
RTVSPropertyOp44
 70
     1
102
RTVSPropertyOp45
 70
     1
102
RTVSPropertyOp46
 70
     1
102
RTVSPropertyOp47
 70
     1
102
RTVSPropertyOp48
 70
     1
102
RTVSPropertyOp49
 70
     1
102
RTVSPropertyOp50
 70
     1
102
RTVSPropertyOp51
 70
     0
102
RTVSPropertyOp52
 70
     0
102
RTVSPropertyOp53
 70
     1
102
RTVSPropertyOp54
 70
     1
102
RTVSPropertyOp55
 70
     1
102
RTVSPropertyOp56
 70
     1
102
RTVSPropertyOp57
 70
     1
102
RTVSPost2010Prop28
280
     0
102
RTVSPost2010PropOp28
 70
     1
102
RTVSPost2010Prop29
280
     1
102
RTVSPost2010PropOp29
 70
     1
102
RTVSPost2010Prop30
280
     1
102
RTVSPost2010PropOp30
 70
     1
102
RTVSPost2010Prop31
280
     0
102
RTVSPost2010PropOp31
 70
     1
102
RTVSPost2010Prop32
280
     0
102
RTVSPost2010PropOp32
 70
     1
102
RTVSPost2010Prop33
280
     0
102
RTVSPost2010PropOp33
 70
     1
102
RTVSPost2010Prop34
280
     0
102
RTVSPost2010PropOp34
 70
     1
102
RTVSPost2010Prop35
280
     0
102
RTVSPost2010PropOp35
 70
     1
102
RTVSPost2010Prop36
280
     0
102
RTVSPost2010PropOp36
 70
     1
102
RTVSPost2010Prop37
 90
       50
102
RTVSPost2010PropOp37
 70
     1
102
RTVSPost2010Prop38
140
0.0
102
RTVSPost2010PropOp38
 70
     1
102
RTVSPost2010Prop39
140
1.0
102
RTVSPost2010PropOp39
 70
     1
102
RTVSPost2010Prop40
 90
        0
102
RTVSPost2010PropOp40
 70
     1
102
RTVSPost2010Prop41ColorIndex
 90
       18
102
RTVSPost2010Prop41ColorRGB
 90
        0
102
RTVSPost2010PropOp41
 70
     1
102
RTVSPost2010Prop42
 90
       50
102
RTVSPost2010PropOp42
 70
     1
102
RTVSPost2010Prop43
 90
        3
102
RTVSPost2010PropOp43
 70
     1
102
RTVSPost2010Prop44ColorIndex
 90
        5
102
RTVSPost2010Prop44ColorRGB
 90
      255
102
RTVSPost2010PropOp44
 70
     1
102
RTVSPost2010Prop45
280
     0
102
RTVSPost2010PropOp45
 70
     1
102
RTVSPost2010Prop46
 90
       50
102
RTVSPost2010PropOp46
 70
     1
102
RTVSPost2010Prop47
 90
       50
102
RTVSPost2010PropOp47
 70
     1
102
RTVSPost2010Prop48
 90
       50
102
RTVSPost2010PropOp48
 70
     1
102
RTVSPost2010Prop49
280
     0
102
RTVSPost2010PropOp49
 70
     1
102
RTVSPost2010Prop50
 90
       50
102
RTVSPost2010PropOp50
 70
     1
102
RTVSPost2010Prop51ColorIndex
 90
      256
102
RTVSPost2010Prop51ColorRGB
 90
-16777216
102
RTVSPost2010PropOp51
 70
     0
102
RTVSPost2010Prop52
140
1.0
102
RTVSPost2010PropOp52
 70
     0
102
RTVSPost2010Prop53
 90
        2
102
RTVSPost2010PropOp53
 70
     1
102
RTVSPost2010Prop54
  1
strokes_ogs.tif
102
RTVSPost2010PropOp54
 70
     1
102
RTVSPost2010Prop55
280
     0
102
RTVSPost2010PropOp55
 70
     1
102
RTVSPost2010Prop56
140
1.0
102
RTVSPost2010PropOp56
 70
     1
102
RTVSPost2010Prop57
140
1.0
102
RTVSPost2010PropOp57
 70
     1
  0
XRECORD
  5
235
102
{ACAD_REACTORS
330
234
102
}
330
234
100
AcDbXrecord
280
     1
102
RTVSPropertyOp0
 70
     1
102
RTVSPropertyOp1
 70
     1
102
RTVSPropertyOp2
 70
     1
102
RTVSPropertyOp3
 70
     1
102
RTVSPropertyOp4
 70
     1
102
RTVSPropertyOp5
 70
     1
102
RTVSPropertyOp6
 70
     1
102
RTVSPropertyOp7
 70
     1
102
RTVSPropertyOp8
 70
     1
102
RTVSPropertyOp9
 70
     1
102
RTVSPropertyOp10
 70
     1
102
RTVSPropertyOp11
 70
     1
102
RTVSPropertyOp12
 70
     1
102
RTVSPropertyOp13
 70
     1
102
RTVSPropertyOp14
 70
     1
102
RTVSPropertyOp15
 70
     1
102
RTVSPropertyOp16
 70
     1
102
RTVSPropertyOp17
 70
     1
102
RTVSPropertyOp18
 70
     1
102
RTVSPropertyOp19
 70
     1
102
RTVSPropertyOp20
 70
     1
102
RTVSPropertyOp21
 70
     1
102
RTVSPropertyOp22
 70
     1
102
RTVSPropertyOp23
 70
     1
102
RTVSPropertyOp24
 70
     1
102
RTVSPropertyOp25
 70
     1
102
RTVSPropertyOp26
 70
     1
102
RTVSPropertyOp27
 70
     1
102
RTVSPropertyOp28
 70
     1
102
RTVSPropertyOp29
 70
     1
102
RTVSPropertyOp30
 70
     1
102
RTVSPropertyOp31
 70
     1
102
RTVSPropertyOp32
 70
     1
102
RTVSPropertyOp33
 70
     1
102
RTVSPropertyOp34
 70
     1
102
RTVSPropertyOp35
 70
     1
102
RTVSPropertyOp36
 70
     1
102
RTVSPropertyOp37
 70
     1
102
RTVSPropertyOp38
 70
     1
102
RTVSPropertyOp39
 70
     1
102
RTVSPropertyOp40
 70
     1
102
RTVSPropertyOp41
 70
     1
102
RTVSPropertyOp42
 70
     1
102
RTVSPropertyOp43
 70
     1
102
RTVSPropertyOp44
 70
     1
102
RTVSPropertyOp45
 70
     1
102
RTVSPropertyOp46
 70
     1
102
RTVSPropertyOp47
 70
     1
102
RTVSPropertyOp48
 70
     1
102
RTVSPropertyOp49
 70
     1
102
RTVSPropertyOp50
 70
     1
102
RTVSPropertyOp51
 70
     0
102
RTVSPropertyOp52
 70
     0
102
RTVSPropertyOp53
 70
     1
102
RTVSPropertyOp54
 70
     1
102
RTVSPropertyOp55
 70
     1
102
RTVSPropertyOp56
 70
     1
102
RTVSPropertyOp57
 70
     1
102
RTVSPost2010Prop28
280
     0
102
RTVSPost2010PropOp28
 70
     1
102
RTVSPost2010Prop29
280
     1
102
RTVSPost2010PropOp29
 70
     1
102
RTVSPost2010Prop30
280
     1
102
RTVSPost2010PropOp30
 70
     1
102
RTVSPost2010Prop31
280
     0
102
RTVSPost2010PropOp31
 70
     1
102
RTVSPost2010Prop32
280
     0
102
RTVSPost2010PropOp32
 70
     1
102
RTVSPost2010Prop33
280
     0
102
RTVSPost2010PropOp33
 70
     1
102
RTVSPost2010Prop34
280
     0
102
RTVSPost2010PropOp34
 70
     1
102
RTVSPost2010Prop35
280
     0
102
RTVSPost2010PropOp35
 70
     1
102
RTVSPost2010Prop36
280
     0
102
RTVSPost2010PropOp36
 70
     1
102
RTVSPost2010Prop37
 90
       50
102
RTVSPost2010PropOp37
 70
     1
102
RTVSPost2010Prop38
140
0.0
102
RTVSPost2010PropOp38
 70
     1
102
RTVSPost2010Prop39
140
1.0
102
RTVSPost2010PropOp39
 70
     1
102
RTVSPost2010Prop40
 90
        0
102
RTVSPost2010PropOp40
 70
     1
102
RTVSPost2010Prop41ColorIndex
 90
       18
102
RTVSPost2010Prop41ColorRGB
 90
        0
102
RTVSPost2010PropOp41
 70
     1
102
RTVSPost2010Prop42
 90
       50
102
RTVSPost2010PropOp42
 70
     1
102
RTVSPost2010Prop43
 90
        3
102
RTVSPost2010PropOp43
 70
     1
102
RTVSPost2010Prop44ColorIndex
 90
        5
102
RTVSPost2010Prop44ColorRGB
 90
      255
102
RTVSPost2010PropOp44
 70
     1
102
RTVSPost2010Prop45
280
     0
102
RTVSPost2010PropOp45
 70
     1
102
RTVSPost2010Prop46
 90
       50
102
RTVSPost2010PropOp46
 70
     1
102
RTVSPost2010Prop47
 90
       50
102
RTVSPost2010PropOp47
 70
     1
102
RTVSPost2010Prop48
 90
       50
102
RTVSPost2010PropOp48
 70
     1
102
RTVSPost2010Prop49
280
     0
102
RTVSPost2010PropOp49
 70
     1
102
RTVSPost2010Prop50
 90
       50
102
RTVSPost2010PropOp50
 70
     1
102
RTVSPost2010Prop51ColorIndex
 90
      256
102
RTVSPost2010Prop51ColorRGB
 90
-16777216
102
RTVSPost2010PropOp51
 70
     0
102
RTVSPost2010Prop52
140
1.0
102
RTVSPost2010PropOp52
 70
     0
102
RTVSPost2010Prop53
 90
        2
102
RTVSPost2010PropOp53
 70
     1
102
RTVSPost2010Prop54
  1
strokes_ogs.tif
102
RTVSPost2010PropOp54
 70
     1
102
RTVSPost2010Prop55
280
     0
102
RTVSPost2010PropOp55
 70
     1
102
RTVSPost2010Prop56
140
1.0
102
RTVSPost2010PropOp56
 70
     1
102
RTVSPost2010Prop57
140
1.0
102
RTVSPost2010PropOp57
 70
     1
  0
XRECORD
  5
237
102
{ACAD_REACTORS
330
236
102
}
330
236
100
AcDbXrecord
280
     1
102
RTVSPropertyOp0
 70
     1
102
RTVSPropertyOp1
 70
     1
102
RTVSPropertyOp2
 70
     1
102
RTVSPropertyOp3
 70
     1
102
RTVSPropertyOp4
 70
     1
102
RTVSPropertyOp5
 70
     1
102
RTVSPropertyOp6
 70
     1
102
RTVSPropertyOp7
 70
     1
102
RTVSPropertyOp8
 70
     1
102
RTVSPropertyOp9
 70
     1
102
RTVSPropertyOp10
 70
     1
102
RTVSPropertyOp11
 70
     1
102
RTVSPropertyOp12
 70
     1
102
RTVSPropertyOp13
 70
     1
102
RTVSPropertyOp14
 70
     1
102
RTVSPropertyOp15
 70
     1
102
RTVSPropertyOp16
 70
     1
102
RTVSPropertyOp17
 70
     1
102
RTVSPropertyOp18
 70
     1
102
RTVSPropertyOp19
 70
     1
102
RTVSPropertyOp20
 70
     1
102
RTVSPropertyOp21
 70
     1
102
RTVSPropertyOp22
 70
     1
102
RTVSPropertyOp23
 70
     1
102
RTVSPropertyOp24
 70
     1
102
RTVSPropertyOp25
 70
     1
102
RTVSPropertyOp26
 70
     1
102
RTVSPropertyOp27
 70
     1
102
RTVSPropertyOp28
 70
     1
102
RTVSPropertyOp29
 70
     1
102
RTVSPropertyOp30
 70
     1
102
RTVSPropertyOp31
 70
     1
102
RTVSPropertyOp32
 70
     1
102
RTVSPropertyOp33
 70
     1
102
RTVSPropertyOp34
 70
     1
102
RTVSPropertyOp35
 70
     1
102
RTVSPropertyOp36
 70
     1
102
RTVSPropertyOp37
 70
     1
102
RTVSPropertyOp38
 70
     1
102
RTVSPropertyOp39
 70
     1
102
RTVSPropertyOp40
 70
     1
102
RTVSPropertyOp41
 70
     1
102
RTVSPropertyOp42
 70
     1
102
RTVSPropertyOp43
 70
     1
102
RTVSPropertyOp44
 70
     1
102
RTVSPropertyOp45
 70
     1
102
RTVSPropertyOp46
 70
     1
102
RTVSPropertyOp47
 70
     1
102
RTVSPropertyOp48
 70
     1
102
RTVSPropertyOp49
 70
     1
102
RTVSPropertyOp50
 70
     1
102
RTVSPropertyOp51
 70
     0
102
RTVSPropertyOp52
 70
     0
102
RTVSPropertyOp53
 70
     1
102
RTVSPropertyOp54
 70
     1
102
RTVSPropertyOp55
 70
     1
102
RTVSPropertyOp56
 70
     1
102
RTVSPropertyOp57
 70
     1
102
RTVSPost2010Prop28
280
     0
102
RTVSPost2010PropOp28
 70
     1
102
RTVSPost2010Prop29
280
     1
102
RTVSPost2010PropOp29
 70
     1
102
RTVSPost2010Prop30
280
     1
102
RTVSPost2010PropOp30
 70
     1
102
RTVSPost2010Prop31
280
     0
102
RTVSPost2010PropOp31
 70
     1
102
RTVSPost2010Prop32
280
     0
102
RTVSPost2010PropOp32
 70
     1
102
RTVSPost2010Prop33
280
     0
102
RTVSPost2010PropOp33
 70
     1
102
RTVSPost2010Prop34
280
     0
102
RTVSPost2010PropOp34
 70
     1
102
RTVSPost2010Prop35
280
     0
102
RTVSPost2010PropOp35
 70
     1
102
RTVSPost2010Prop36
280
     0
102
RTVSPost2010PropOp36
 70
     1
102
RTVSPost2010Prop37
 90
       50
102
RTVSPost2010PropOp37
 70
     1
102
RTVSPost2010Prop38
140
0.0
102
RTVSPost2010PropOp38
 70
     1
102
RTVSPost2010Prop39
140
1.0
102
RTVSPost2010PropOp39
 70
     1
102
RTVSPost2010Prop40
 90
        0
102
RTVSPost2010PropOp40
 70
     1
102
RTVSPost2010Prop41ColorIndex
 90
       18
102
RTVSPost2010Prop41ColorRGB
 90
        0
102
RTVSPost2010PropOp41
 70
     1
102
RTVSPost2010Prop42
 90
       50
102
RTVSPost2010PropOp42
 70
     1
102
RTVSPost2010Prop43
 90
        3
102
RTVSPost2010PropOp43
 70
     1
102
RTVSPost2010Prop44ColorIndex
 90
        5
102
RTVSPost2010Prop44ColorRGB
 90
      255
102
RTVSPost2010PropOp44
 70
     1
102
RTVSPost2010Prop45
280
     0
102
RTVSPost2010PropOp45
 70
     1
102
RTVSPost2010Prop46
 90
       50
102
RTVSPost2010PropOp46
 70
     1
102
RTVSPost2010Prop47
 90
       50
102
RTVSPost2010PropOp47
 70
     1
102
RTVSPost2010Prop48
 90
       50
102
RTVSPost2010PropOp48
 70
     1
102
RTVSPost2010Prop49
280
     0
102
RTVSPost2010PropOp49
 70
     1
102
RTVSPost2010Prop50
 90
       50
102
RTVSPost2010PropOp50
 70
     1
102
RTVSPost2010Prop51ColorIndex
 90
      256
102
RTVSPost2010Prop51ColorRGB
 90
-16777216
102
RTVSPost2010PropOp51
 70
     0
102
RTVSPost2010Prop52
140
1.0
102
RTVSPost2010PropOp52
 70
     0
102
RTVSPost2010Prop53
 90
        2
102
RTVSPost2010PropOp53
 70
     1
102
RTVSPost2010Prop54
  1
strokes_ogs.tif
102
RTVSPost2010PropOp54
 70
     1
102
RTVSPost2010Prop55
280
     0
102
RTVSPost2010PropOp55
 70
     1
102
RTVSPost2010Prop56
140
1.0
102
RTVSPost2010PropOp56
 70
     1
102
RTVSPost2010Prop57
140
1.0
102
RTVSPost2010PropOp57
 70
     1
  0
XRECORD
  5
227
102
{ACAD_REACTORS
330
226
102
}
330
226
100
AcDbXrecord
280
     1
102
RTVSPropertyOp0
 70
     1
102
RTVSPropertyOp1
 70
     1
102
RTVSPropertyOp2
 70
     1
102
RTVSPropertyOp3
 70
     1
102
RTVSPropertyOp4
 70
     1
102
RTVSPropertyOp5
 70
     1
102
RTVSPropertyOp6
 70
     1
102
RTVSPropertyOp7
 70
     1
102
RTVSPropertyOp8
 70
     1
102
RTVSPropertyOp9
 70
     1
102
RTVSPropertyOp10
 70
     1
102
RTVSPropertyOp11
 70
     1
102
RTVSPropertyOp12
 70
     1
102
RTVSPropertyOp13
 70
     1
102
RTVSPropertyOp14
 70
     1
102
RTVSPropertyOp15
 70
     1
102
RTVSPropertyOp16
 70
     1
102
RTVSPropertyOp17
 70
     1
102
RTVSPropertyOp18
 70
     1
102
RTVSPropertyOp19
 70
     1
102
RTVSPropertyOp20
 70
     1
102
RTVSPropertyOp21
 70
     1
102
RTVSPropertyOp22
 70
     1
102
RTVSPropertyOp23
 70
     1
102
RTVSPropertyOp24
 70
     1
102
RTVSPropertyOp25
 70
     1
102
RTVSPropertyOp26
 70
     1
102
RTVSPropertyOp27
 70
     1
102
RTVSPropertyOp28
 70
     1
102
RTVSPropertyOp29
 70
     1
102
RTVSPropertyOp30
 70
     1
102
RTVSPropertyOp31
 70
     1
102
RTVSPropertyOp32
 70
     1
102
RTVSPropertyOp33
 70
     1
102
RTVSPropertyOp34
 70
     1
102
RTVSPropertyOp35
 70
     1
102
RTVSPropertyOp36
 70
     1
102
RTVSPropertyOp37
 70
     1
102
RTVSPropertyOp38
 70
     1
102
RTVSPropertyOp39
 70
     1
102
RTVSPropertyOp40
 70
     1
102
RTVSPropertyOp41
 70
     1
102
RTVSPropertyOp42
 70
     1
102
RTVSPropertyOp43
 70
     1
102
RTVSPropertyOp44
 70
     1
102
RTVSPropertyOp45
 70
     1
102
RTVSPropertyOp46
 70
     1
102
RTVSPropertyOp47
 70
     1
102
RTVSPropertyOp48
 70
     1
102
RTVSPropertyOp49
 70
     1
102
RTVSPropertyOp50
 70
     1
102
RTVSPropertyOp51
 70
     0
102
RTVSPropertyOp52
 70
     0
102
RTVSPropertyOp53
 70
     1
102
RTVSPropertyOp54
 70
     1
102
RTVSPropertyOp55
 70
     1
102
RTVSPropertyOp56
 70
     1
102
RTVSPropertyOp57
 70
     1
102
RTVSPost2010Prop28
280
     0
102
RTVSPost2010PropOp28
 70
     1
102
RTVSPost2010Prop29
280
     1
102
RTVSPost2010PropOp29
 70
     1
102
RTVSPost2010Prop30
280
     1
102
RTVSPost2010PropOp30
 70
     1
102
RTVSPost2010Prop31
280
     0
102
RTVSPost2010PropOp31
 70
     1
102
RTVSPost2010Prop32
280
     0
102
RTVSPost2010PropOp32
 70
     1
102
RTVSPost2010Prop33
280
     0
102
RTVSPost2010PropOp33
 70
     1
102
RTVSPost2010Prop34
280
     0
102
RTVSPost2010PropOp34
 70
     1
102
RTVSPost2010Prop35
280
     0
102
RTVSPost2010PropOp35
 70
     1
102
RTVSPost2010Prop36
280
     0
102
RTVSPost2010PropOp36
 70
     1
102
RTVSPost2010Prop37
 90
       50
102
RTVSPost2010PropOp37
 70
     1
102
RTVSPost2010Prop38
140
0.0
102
RTVSPost2010PropOp38
 70
     1
102
RTVSPost2010Prop39
140
1.0
102
RTVSPost2010PropOp39
 70
     1
102
RTVSPost2010Prop40
 90
        0
102
RTVSPost2010PropOp40
 70
     1
102
RTVSPost2010Prop41ColorIndex
 90
       18
102
RTVSPost2010Prop41ColorRGB
 90
        0
102
RTVSPost2010PropOp41
 70
     1
102
RTVSPost2010Prop42
 90
       50
102
RTVSPost2010PropOp42
 70
     1
102
RTVSPost2010Prop43
 90
        3
102
RTVSPost2010PropOp43
 70
     1
102
RTVSPost2010Prop44ColorIndex
 90
        5
102
RTVSPost2010Prop44ColorRGB
 90
      255
102
RTVSPost2010PropOp44
 70
     1
102
RTVSPost2010Prop45
280
     0
102
RTVSPost2010PropOp45
 70
     1
102
RTVSPost2010Prop46
 90
       50
102
RTVSPost2010PropOp46
 70
     1
102
RTVSPost2010Prop47
 90
       50
102
RTVSPost2010PropOp47
 70
     1
102
RTVSPost2010Prop48
 90
       50
102
RTVSPost2010PropOp48
 70
     1
102
RTVSPost2010Prop49
280
     0
102
RTVSPost2010PropOp49
 70
     1
102
RTVSPost2010Prop50
 90
       50
102
RTVSPost2010PropOp50
 70
     1
102
RTVSPost2010Prop51ColorIndex
 90
      256
102
RTVSPost2010Prop51ColorRGB
 90
-16777216
102
RTVSPost2010PropOp51
 70
     0
102
RTVSPost2010Prop52
140
1.0
102
RTVSPost2010PropOp52
 70
     0
102
RTVSPost2010Prop53
 90
        2
102
RTVSPost2010PropOp53
 70
     1
102
RTVSPost2010Prop54
  1
strokes_ogs.tif
102
RTVSPost2010PropOp54
 70
     1
102
RTVSPost2010Prop55
280
     0
102
RTVSPost2010PropOp55
 70
     1
102
RTVSPost2010Prop56
140
1.0
102
RTVSPost2010PropOp56
 70
     1
102
RTVSPost2010Prop57
140
1.0
102
RTVSPost2010PropOp57
 70
     1
  0
XRECORD
  5
219
102
{ACAD_REACTORS
330
218
102
}
330
218
100
AcDbXrecord
280
     1
102
RTVSPropertyOp0
 70
     1
102
RTVSPropertyOp1
 70
     1
102
RTVSPropertyOp2
 70
     1
102
RTVSPropertyOp3
 70
     1
102
RTVSPropertyOp4
 70
     1
102
RTVSPropertyOp5
 70
     1
102
RTVSPropertyOp6
 70
     1
102
RTVSPropertyOp7
 70
     1
102
RTVSPropertyOp8
 70
     1
102
RTVSPropertyOp9
 70
     1
102
RTVSPropertyOp10
 70
     1
102
RTVSPropertyOp11
 70
     1
102
RTVSPropertyOp12
 70
     1
102
RTVSPropertyOp13
 70
     1
102
RTVSPropertyOp14
 70
     1
102
RTVSPropertyOp15
 70
     1
102
RTVSPropertyOp16
 70
     1
102
RTVSPropertyOp17
 70
     1
102
RTVSPropertyOp18
 70
     1
102
RTVSPropertyOp19
 70
     1
102
RTVSPropertyOp20
 70
     1
102
RTVSPropertyOp21
 70
     1
102
RTVSPropertyOp22
 70
     1
102
RTVSPropertyOp23
 70
     1
102
RTVSPropertyOp24
 70
     1
102
RTVSPropertyOp25
 70
     1
102
RTVSPropertyOp26
 70
     1
102
RTVSPropertyOp27
 70
     1
102
RTVSPropertyOp28
 70
     1
102
RTVSPropertyOp29
 70
     1
102
RTVSPropertyOp30
 70
     1
102
RTVSPropertyOp31
 70
     1
102
RTVSPropertyOp32
 70
     1
102
RTVSPropertyOp33
 70
     1
102
RTVSPropertyOp34
 70
     1
102
RTVSPropertyOp35
 70
     1
102
RTVSPropertyOp36
 70
     1
102
RTVSPropertyOp37
 70
     1
102
RTVSPropertyOp38
 70
     1
102
RTVSPropertyOp39
 70
     1
102
RTVSPropertyOp40
 70
     1
102
RTVSPropertyOp41
 70
     1
102
RTVSPropertyOp42
 70
     1
102
RTVSPropertyOp43
 70
     1
102
RTVSPropertyOp44
 70
     1
102
RTVSPropertyOp45
 70
     1
102
RTVSPropertyOp46
 70
     1
102
RTVSPropertyOp47
 70
     1
102
RTVSPropertyOp48
 70
     1
102
RTVSPropertyOp49
 70
     1
102
RTVSPropertyOp50
 70
     1
102
RTVSPropertyOp51
 70
     0
102
RTVSPropertyOp52
 70
     0
102
RTVSPropertyOp53
 70
     1
102
RTVSPropertyOp54
 70
     1
102
RTVSPropertyOp55
 70
     1
102
RTVSPropertyOp56
 70
     1
102
RTVSPropertyOp57
 70
     1
102
RTVSPost2010Prop28
280
     0
102
RTVSPost2010PropOp28
 70
     1
102
RTVSPost2010Prop29
280
     1
102
RTVSPost2010PropOp29
 70
     1
102
RTVSPost2010Prop30
280
     1
102
RTVSPost2010PropOp30
 70
     1
102
RTVSPost2010Prop31
280
     0
102
RTVSPost2010PropOp31
 70
     1
102
RTVSPost2010Prop32
280
     0
102
RTVSPost2010PropOp32
 70
     1
102
RTVSPost2010Prop33
280
     0
102
RTVSPost2010PropOp33
 70
     1
102
RTVSPost2010Prop34
280
     0
102
RTVSPost2010PropOp34
 70
     1
102
RTVSPost2010Prop35
280
     0
102
RTVSPost2010PropOp35
 70
     1
102
RTVSPost2010Prop36
280
     0
102
RTVSPost2010PropOp36
 70
     1
102
RTVSPost2010Prop37
 90
       50
102
RTVSPost2010PropOp37
 70
     1
102
RTVSPost2010Prop38
140
0.0
102
RTVSPost2010PropOp38
 70
     1
102
RTVSPost2010Prop39
140
1.0
102
RTVSPost2010PropOp39
 70
     1
102
RTVSPost2010Prop40
 90
        0
102
RTVSPost2010PropOp40
 70
     1
102
RTVSPost2010Prop41ColorIndex
 90
       18
102
RTVSPost2010Prop41ColorRGB
 90
        0
102
RTVSPost2010PropOp41
 70
     1
102
RTVSPost2010Prop42
 90
       50
102
RTVSPost2010PropOp42
 70
     1
102
RTVSPost2010Prop43
 90
        3
102
RTVSPost2010PropOp43
 70
     1
102
RTVSPost2010Prop44ColorIndex
 90
        5
102
RTVSPost2010Prop44ColorRGB
 90
      255
102
RTVSPost2010PropOp44
 70
     1
102
RTVSPost2010Prop45
280
     0
102
RTVSPost2010PropOp45
 70
     1
102
RTVSPost2010Prop46
 90
       50
102
RTVSPost2010PropOp46
 70
     1
102
RTVSPost2010Prop47
 90
       50
102
RTVSPost2010PropOp47
 70
     1
102
RTVSPost2010Prop48
 90
       50
102
RTVSPost2010PropOp48
 70
     1
102
RTVSPost2010Prop49
280
     0
102
RTVSPost2010PropOp49
 70
     1
102
RTVSPost2010Prop50
 90
       50
102
RTVSPost2010PropOp50
 70
     1
102
RTVSPost2010Prop51ColorIndex
 90
      256
102
RTVSPost2010Prop51ColorRGB
 90
-16777216
102
RTVSPost2010PropOp51
 70
     0
102
RTVSPost2010Prop52
140
1.0
102
RTVSPost2010PropOp52
 70
     0
102
RTVSPost2010Prop53
 90
        2
102
RTVSPost2010PropOp53
 70
     1
102
RTVSPost2010Prop54
  1
strokes_ogs.tif
102
RTVSPost2010PropOp54
 70
     1
102
RTVSPost2010Prop55
280
     0
102
RTVSPost2010PropOp55
 70
     1
102
RTVSPost2010Prop56
140
1.0
102
RTVSPost2010PropOp56
 70
     1
102
RTVSPost2010Prop57
140
1.0
102
RTVSPost2010PropOp57
 70
     1
  0
XRECORD
  5
239
102
{ACAD_REACTORS
330
238
102
}
330
238
100
AcDbXrecord
280
     1
102
RTVSPropertyOp0
 70
     1
102
RTVSPropertyOp1
 70
     1
102
RTVSPropertyOp2
 70
     1
102
RTVSPropertyOp3
 70
     1
102
RTVSPropertyOp4
 70
     1
102
RTVSPropertyOp5
 70
     1
102
RTVSPropertyOp6
 70
     1
102
RTVSPropertyOp7
 70
     1
102
RTVSPropertyOp8
 70
     1
102
RTVSPropertyOp9
 70
     1
102
RTVSPropertyOp10
 70
     1
102
RTVSPropertyOp11
 70
     1
102
RTVSPropertyOp12
 70
     1
102
RTVSPropertyOp13
 70
     1
102
RTVSPropertyOp14
 70
     1
102
RTVSPropertyOp15
 70
     1
102
RTVSPropertyOp16
 70
     1
102
RTVSPropertyOp17
 70
     1
102
RTVSPropertyOp18
 70
     1
102
RTVSPropertyOp19
 70
     1
102
RTVSPropertyOp20
 70
     1
102
RTVSPropertyOp21
 70
     1
102
RTVSPropertyOp22
 70
     1
102
RTVSPropertyOp23
 70
     1
102
RTVSPropertyOp24
 70
     1
102
RTVSPropertyOp25
 70
     1
102
RTVSPropertyOp26
 70
     1
102
RTVSPropertyOp27
 70
     1
102
RTVSPropertyOp28
 70
     1
102
RTVSPropertyOp29
 70
     1
102
RTVSPropertyOp30
 70
     1
102
RTVSPropertyOp31
 70
     1
102
RTVSPropertyOp32
 70
     1
102
RTVSPropertyOp33
 70
     1
102
RTVSPropertyOp34
 70
     1
102
RTVSPropertyOp35
 70
     1
102
RTVSPropertyOp36
 70
     1
102
RTVSPropertyOp37
 70
     1
102
RTVSPropertyOp38
 70
     1
102
RTVSPropertyOp39
 70
     1
102
RTVSPropertyOp40
 70
     1
102
RTVSPropertyOp41
 70
     1
102
RTVSPropertyOp42
 70
     1
102
RTVSPropertyOp43
 70
     1
102
RTVSPropertyOp44
 70
     1
102
RTVSPropertyOp45
 70
     1
102
RTVSPropertyOp46
 70
     1
102
RTVSPropertyOp47
 70
     1
102
RTVSPropertyOp48
 70
     1
102
RTVSPropertyOp49
 70
     1
102
RTVSPropertyOp50
 70
     1
102
RTVSPropertyOp51
 70
     0
102
RTVSPropertyOp52
 70
     0
102
RTVSPropertyOp53
 70
     1
102
RTVSPropertyOp54
 70
     1
102
RTVSPropertyOp55
 70
     1
102
RTVSPropertyOp56
 70
     1
102
RTVSPropertyOp57
 70
     1
102
RTVSPost2010Prop28
280
     0
102
RTVSPost2010PropOp28
 70
     1
102
RTVSPost2010Prop29
280
     1
102
RTVSPost2010PropOp29
 70
     1
102
RTVSPost2010Prop30
280
     1
102
RTVSPost2010PropOp30
 70
     1
102
RTVSPost2010Prop31
280
     0
102
RTVSPost2010PropOp31
 70
     1
102
RTVSPost2010Prop32
280
     0
102
RTVSPost2010PropOp32
 70
     1
102
RTVSPost2010Prop33
280
     0
102
RTVSPost2010PropOp33
 70
     1
102
RTVSPost2010Prop34
280
     0
102
RTVSPost2010PropOp34
 70
     1
102
RTVSPost2010Prop35
280
     0
102
RTVSPost2010PropOp35
 70
     1
102
RTVSPost2010Prop36
280
     0
102
RTVSPost2010PropOp36
 70
     1
102
RTVSPost2010Prop37
 90
       50
102
RTVSPost2010PropOp37
 70
     1
102
RTVSPost2010Prop38
140
0.0
102
RTVSPost2010PropOp38
 70
     1
102
RTVSPost2010Prop39
140
1.0
102
RTVSPost2010PropOp39
 70
     1
102
RTVSPost2010Prop40
 90
        0
102
RTVSPost2010PropOp40
 70
     1
102
RTVSPost2010Prop41ColorIndex
 90
       18
102
RTVSPost2010Prop41ColorRGB
 90
        0
102
RTVSPost2010PropOp41
 70
     1
102
RTVSPost2010Prop42
 90
       50
102
RTVSPost2010PropOp42
 70
     1
102
RTVSPost2010Prop43
 90
        3
102
RTVSPost2010PropOp43
 70
     1
102
RTVSPost2010Prop44ColorIndex
 90
        5
102
RTVSPost2010Prop44ColorRGB
 90
      255
102
RTVSPost2010PropOp44
 70
     1
102
RTVSPost2010Prop45
280
     0
102
RTVSPost2010PropOp45
 70
     1
102
RTVSPost2010Prop46
 90
       50
102
RTVSPost2010PropOp46
 70
     1
102
RTVSPost2010Prop47
 90
       50
102
RTVSPost2010PropOp47
 70
     1
102
RTVSPost2010Prop48
 90
       50
102
RTVSPost2010PropOp48
 70
     1
102
RTVSPost2010Prop49
280
     0
102
RTVSPost2010PropOp49
 70
     1
102
RTVSPost2010Prop50
 90
       50
102
RTVSPost2010PropOp50
 70
     1
102
RTVSPost2010Prop51ColorIndex
 90
      256
102
RTVSPost2010Prop51ColorRGB
 90
-16777216
102
RTVSPost2010PropOp51
 70
     0
102
RTVSPost2010Prop52
140
1.0
102
RTVSPost2010PropOp52
 70
     0
102
RTVSPost2010Prop53
 90
        2
102
RTVSPost2010PropOp53
 70
     1
102
RTVSPost2010Prop54
  1
strokes_ogs.tif
102
RTVSPost2010PropOp54
 70
     1
102
RTVSPost2010Prop55
280
     0
102
RTVSPost2010PropOp55
 70
     1
102
RTVSPost2010Prop56
140
1.0
102
RTVSPost2010PropOp56
 70
     1
102
RTVSPost2010Prop57
140
1.0
102
RTVSPost2010PropOp57
 70
     1
  0
ENDSEC
  0
EOF
