  0
SECTION
  2
HEADER
  9
$ACADVER
  1
AC1018
  9
$ACADMAINTVER
 70
     0
  9
$DWGCODEPAGE
  3
ANSI_932
  9
$INSBASE
 10
0.0
 20
0.0
 30
0.0
  9
$EXTMIN
 10
-1050.0
 20
-742.5
 30
0.0
  9
$EXTMAX
 10
1050.0
 20
742.5
 30
0.0
  9
$LIMMIN
 10
-1050.0
 20
-742.5
  9
$LIMMAX
 10
1050.0
 20
742.5
  9
$ORTHOMODE
 70
     0
  9
$REGENMODE
 70
     1
  9
$FILLMODE
 70
     1
  9
$QTEXTMODE
 70
     0
  9
$MIRRTEXT
 70
     1
  9
$LTSCALE
 40
5.0
  9
$ATTMODE
 70
     1
  9
$TEXTSIZE
 40
2.5
  9
$TRACEWID
 40
1.0
  9
$TEXTSTYLE
  7
Standard
  9
$CLAYER
  8
0
  9
$CELTYPE
  6
ByLayer
  9
$CECOLOR
 62
   256
  9
$CELTSCALE
 40
1.0
  9
$DISPSILH
 70
     0
  9
$DIMSCALE
 40
1.0
  9
$DIMASZ
 40
2.5
  9
$DIMEXO
 40
0.625
  9
$DIMDLI
 40
3.75
  9
$DIMRND
 40
0.0
  9
$DIMDLE
 40
0.0
  9
$DIMEXE
 40
1.25
  9
$DIMTP
 40
0.0
  9
$DIMTM
 40
0.0
  9
$DIMTXT
 40
2.5
  9
$DIMCEN
 40
2.5
  9
$DIMTSZ
 40
0.0
  9
$DIMTOL
 70
     0
  9
$DIMLIM
 70
     0
  9
$DIMTIH
 70
     0
  9
$DIMTOH
 70
     0
  9
$DIMSE1
 70
     0
  9
$DIMSE2
 70
     0
  9
$DIMTAD
 70
     1
  9
$DIMZIN
 70
     8
  9
$DIMBLK
  1

  9
$DIMASO
 70
     1
  9
$DIMSHO
 70
     1
  9
$DIMPOST
  1

  9
$DIMAPOST
  1

  9
$DIMALT
 70
     0
  9
$DIMALTD
 70
     3
  9
$DIMALTF
 40
0.03937007874016
  9
$DIMLFAC
 40
1.0
  9
$DIMTOFL
 70
     1
  9
$DIMTVP
 40
0.0
  9
$DIMTIX
 70
     0
  9
$DIMSOXD
 70
     0
  9
$DIMSAH
 70
     0
  9
$DIMBLK1
  1

  9
$DIMBLK2
  1

  9
$DIMSTYLE
  2
ISO-25
  9
$DIMCLRD
 70
     0
  9
$DIMCLRE
 70
     0
  9
$DIMCLRT
 70
     0
  9
$DIMTFAC
 40
1.0
  9
$DIMGAP
 40
0.625
  9
$DIMJUST
 70
     0
  9
$DIMSD1
 70
     0
  9
$DIMSD2
 70
     0
  9
$DIMTOLJ
 70
     0
  9
$DIMTZIN
 70
     8
  9
$DIMALTZ
 70
     0
  9
$DIMALTTZ
 70
     0
  9
$DIMUPT
 70
     0
  9
$DIMDEC
 70
     2
  9
$DIMTDEC
 70
     2
  9
$DIMALTU
 70
     2
  9
$DIMALTTD
 70
     3
  9
$DIMTXSTY
  7
Standard
  9
$DIMAUNIT
 70
     0
  9
$DIMADEC
 70
     0
  9
$DIMALTRND
 40
0.0
  9
$DIMAZIN
 70
     0
  9
$DIMDSEP
 70
    44
  9
$DIMATFIT
 70
     3
  9
$DIMFRAC
 70
     0
  9
$DIMLDRBLK
  1

  9
$DIMLUNIT
 70
     2
  9
$DIMLWD
 70
    -2
  9
$DIMLWE
 70
    -2
  9
$DIMTMOVE
 70
     0
  9
$LUNITS
 70
     2
  9
$LUPREC
 70
     4
  9
$SKETCHINC
 40
1.0
  9
$FILLETRAD
 40
10.0
  9
$AUNITS
 70
     0
  9
$AUPREC
 70
     0
  9
$MENU
  1
.
  9
$ELEVATION
 40
0.0
  9
$PELEVATION
 40
0.0
  9
$THICKNESS
 40
0.0
  9
$LIMCHECK
 70
     0
  9
$CHAMFERA
 40
10.0
  9
$CHAMFERB
 40
10.0
  9
$CHAMFERC
 40
20.0
  9
$CHAMFERD
 40
0.0
  9
$SKPOLY
 70
     0
  9
$TDCREATE
 40
2457647.738202835
  9
$TDUCREATE
 40
2457647.363202835
  9
$TDUPDATE
 40
2457647.738202847
  9
$TDUUPDATE
 40
2457647.363202847
  9
$TDINDWG
 40
0.0000000116
  9
$TDUSRTIMER
 40
0.0000000116
  9
$USRTIMER
 70
     1
  9
$ANGBASE
 50
0.0
  9
$ANGDIR
 70
     0
  9
$PDMODE
 70
     0
  9
$PDSIZE
 40
0.0
  9
$PLINEWID
 40
0.0
  9
$SPLFRAME
 70
     0
  9
$SPLINETYPE
 70
     6
  9
$SPLINESEGS
 70
     8
  9
$HANDSEED
  5
428
  9
$SURFTAB1
 70
     6
  9
$SURFTAB2
 70
     6
  9
$SURFTYPE
 70
     6
  9
$SURFU
 70
     6
  9
$SURFV
 70
     6
  9
$UCSBASE
  2

  9
$UCSNAME
  2

  9
$UCSORG
 10
0.0
 20
0.0
 30
0.0
  9
$UCSXDIR
 10
1.0
 20
0.0
 30
0.0
  9
$UCSYDIR
 10
0.0
 20
1.0
 30
0.0
  9
$UCSORTHOREF
  2

  9
$UCSORTHOVIEW
 70
     0
  9
$UCSORGTOP
 10
0.0
 20
0.0
 30
0.0
  9
$UCSORGBOTTOM
 10
0.0
 20
0.0
 30
0.0
  9
$UCSORGLEFT
 10
0.0
 20
0.0
 30
0.0
  9
$UCSORGRIGHT
 10
0.0
 20
0.0
 30
0.0
  9
$UCSORGFRONT
 10
0.0
 20
0.0
 30
0.0
  9
$UCSORGBACK
 10
0.0
 20
0.0
 30
0.0
  9
$PUCSBASE
  2

  9
$PUCSNAME
  2

  9
$PUCSORG
 10
0.0
 20
0.0
 30
0.0
  9
$PUCSXDIR
 10
1.0
 20
0.0
 30
0.0
  9
$PUCSYDIR
 10
0.0
 20
1.0
 30
0.0
  9
$PUCSORTHOREF
  2

  9
$PUCSORTHOVIEW
 70
     0
  9
$PUCSORGTOP
 10
0.0
 20
0.0
 30
0.0
  9
$PUCSORGBOTTOM
 10
0.0
 20
0.0
 30
0.0
  9
$PUCSORGLEFT
 10
0.0
 20
0.0
 30
0.0
  9
$PUCSORGRIGHT
 10
0.0
 20
0.0
 30
0.0
  9
$PUCSORGFRONT
 10
0.0
 20
0.0
 30
0.0
  9
$PUCSORGBACK
 10
0.0
 20
0.0
 30
0.0
  9
$USERI1
 70
     0
  9
$USERI2
 70
     0
  9
$USERI3
 70
     0
  9
$USERI4
 70
     0
  9
$USERI5
 70
     0
  9
$USERR1
 40
0.0
  9
$USERR2
 40
0.0
  9
$USERR3
 40
0.0
  9
$USERR4
 40
0.0
  9
$USERR5
 40
0.0
  9
$WORLDVIEW
 70
     1
  9
$SHADEDGE
 70
     3
  9
$SHADEDIF
 70
    70
  9
$TILEMODE
 70
     1
  9
$MAXACTVP
 70
    64
  9
$PINSBASE
 10
0.0
 20
0.0
 30
0.0
  9
$PLIMCHECK
 70
     0
  9
$PEXTMIN
 10
1.000000000000000E+20
 20
1.000000000000000E+20
 30
1.000000000000000E+20
  9
$PEXTMAX
 10
-1.000000000000000E+20
 20
-1.000000000000000E+20
 30
-1.000000000000000E+20
  9
$PLIMMIN
 10
0.0
 20
0.0
  9
$PLIMMAX
 10
420.0
 20
297.0
  9
$UNITMODE
 70
     0
  9
$VISRETAIN
 70
     1
  9
$PLINEGEN
 70
     0
  9
$PSLTSCALE
 70
     1
  9
$TREEDEPTH
 70
  3020
  9
$CMLSTYLE
  2
Standard
  9
$CMLJUST
 70
     0
  9
$CMLSCALE
 40
20.0
  9
$PROXYGRAPHICS
 70
     1
  9
$MEASUREMENT
 70
     1
  9
$CELWEIGHT
370
    -1
  9
$ENDCAPS
280
     0
  9
$JOINSTYLE
280
     0
  9
$LWDISPLAY
290
     0
  9
$INSUNITS
 70
     4
  9
$HYPERLINKBASE
  1

  9
$STYLESHEET
  1

  9
$XEDIT
290
     1
  9
$CEPSNTYPE
380
     0
  9
$PSTYLEMODE
290
     1
  9
$FINGERPRINTGUID
  2
{4AE77C75-B261-4090-BBD0-0F9FBB20C393}
  9
$VERSIONGUID
  2
{FAEB1C32-E019-11D5-929B-00C0DF256EC4}
  9
$EXTNAMES
290
     1
  9
$PSVPSCALE
 40
0.0
  9
$OLESTARTUP
290
     0
  9
$SORTENTS
280
   127
  9
$INDEXCTL
280
     0
  9
$HIDETEXT
280
     1
  9
$XCLIPFRAME
290
     0
  9
$HALOGAP
280
     0
  9
$OBSCOLOR
 70
   257
  9
$OBSLTYPE
280
     0
  9
$INTERSECTIONDISPLAY
280
     0
  9
$INTERSECTIONCOLOR
 70
   257
  9
$DIMASSOC
280
     2
  9
$PROJECTNAME
  1

  0
ENDSEC
  0
SECTION
  2
CLASSES
  0
CLASS
  1
ACDBDICTIONARYWDFLT
  2
AcDbDictionaryWithDefault
  3
ObjectDBX Classes
 90
        0
 91
        4
280
     0
281
     0
  0
CLASS
  1
VISUALSTYLE
  2
AcDbVisualStyle
  3
ObjectDBX Classes
 90
     4095
 91
        4
280
     0
281
     0
  0
ENDSEC
  0
SECTION
  2
TABLES
  0
TABLE
  2
VPORT
  5
8
330
0
100
AcDbSymbolTable
 70
     1
  0
VPORT
  5
29
330
8
100
AcDbSymbolTableRecord
100
AcDbViewportTableRecord
  2
*Active
 70
     0
 10
0.0
 20
0.0
 11
1.0
 21
1.0
 12
0.0
 22
0.0
 13
0.0
 23
0.0
 14
10.0
 24
10.0
 15
10.0
 25
10.0
 16
0.0
 26
0.0
 36
1.0
 17
0.0
 27
0.0
 37
0.0
 40
1633.5
 41
1.414141414141414
 42
50.0
 43
0.0
 44
0.0
 50
0.0
 51
0.0
 71
     0
 72
 10000
 73
     1
 74
     3
 75
     0
 76
     0
 77
     0
 78
     0
281
     0
 65
     1
110
0.0
120
0.0
130
0.0
111
1.0
121
0.0
131
0.0
112
0.0
122
1.0
132
0.0
 79
     0
146
0.0
  0
ENDTAB
  0
TABLE
  2
LTYPE
  5
5
330
0
100
AcDbSymbolTable
 70
     2
  0
LTYPE
  5
14
330
5
100
AcDbSymbolTableRecord
100
AcDbLinetypeTableRecord
  2
ByBlock
 70
     0
  3

 72
    65
 73
     0
 40
0.0
  0
LTYPE
  5
15
330
5
100
AcDbSymbolTableRecord
100
AcDbLinetypeTableRecord
  2
ByLayer
 70
     0
  3

 72
    65
 73
     0
 40
0.0
  0
LTYPE
  5
16
330
5
100
AcDbSymbolTableRecord
100
AcDbLinetypeTableRecord
  2
Continuous
 70
     0
  3
Solid line
 72
    65
 73
     0
 40
0.0
  0
LTYPE
  5
3C
330
5
100
AcDbSymbolTableRecord
100
AcDbLinetypeTableRecord
  2
JWW_CENTER1
 70
     0
  3
-----  --  ----------  --  -----
 72
    65
 73
     4
 40
6.773333333333333
 49
4.233333333333333
 74
     0
 49
-0.8466666666666667
 74
     0
 49
0.8466666666666667
 74
     0
 49
-0.8466666666666667
 74
     0
  0
ENDTAB
  0
TABLE
  2
LAYER
  5
2
330
0
100
AcDbSymbolTable
 70
     8
  0
LAYER
  5
10
330
2
100
AcDbSymbolTableRecord
100
AcDbLayerTableRecord
  2
0
 70
     0
 62
     7
  6
Continuous
370
    -3
390
F
  0
LAYER
  5
3D
330
2
100
AcDbSymbolTableRecord
100
AcDbLayerTableRecord
  2
B-0
 70
     0
 62
     7
  6
Continuous
370
    -3
390
F
  0
LAYER
  5
3E
330
2
100
AcDbSymbolTableRecord
100
AcDbLayerTableRecord
  2
B-1
 70
     0
 62
     7
  6
Continuous
370
    -3
390
F
  0
LAYER
  5
3F
330
2
100
AcDbSymbolTableRecord
100
AcDbLayerTableRecord
  2
B-4
 70
     0
 62
     7
  6
Continuous
370
    -3
390
F
  0
LAYER
  5
40
330
2
100
AcDbSymbolTableRecord
100
AcDbLayerTableRecord
  2
B-A
 70
     0
 62
     7
  6
Continuous
370
    -3
390
F
  0
LAYER
  5
41
330
2
100
AcDbSymbolTableRecord
100
AcDbLayerTableRecord
  2
B-3
 70
     0
 62
     7
  6
Continuous
370
    -3
390
F
  0
LAYER
  5
42
330
2
100
AcDbSymbolTableRecord
100
AcDbLayerTableRecord
  2
B-5
 70
     0
 62
     7
  6
Continuous
370
    -3
390
F
  0
LAYER
  5
43
330
2
100
AcDbSymbolTableRecord
100
AcDbLayerTableRecord
  2
F-5ﾚｲﾔ
 70
     0
 62
     7
  6
Continuous
370
    -3
390
F
  0
ENDTAB
  0
TABLE
  2
STYLE
  5
3
330
0
100
AcDbSymbolTable
 70
     2
  0
STYLE
  5
11
330
3
100
AcDbSymbolTableRecord
100
AcDbTextStyleTableRecord
  2
Standard
 70
     0
 40
0.0
 41
1.0
 50
0.0
 71
     0
 42
2.5
  3
txt
  4

1001
ACAD
1000

1071
        0
  0
STYLE
  5
3B
330
3
100
AcDbSymbolTableRecord
100
AcDbTextStyleTableRecord
  2
ＭＳ ゴシック
 70
     0
 40
1.0
 41
1.0
 50
0.0
 71
     0
 42
10.0
  3

  4

1001
ACAD
1000
MS Gothic
1071
    32817
  0
ENDTAB
  0
TABLE
  2
VIEW
  5
6
330
0
100
AcDbSymbolTable
 70
     0
  0
ENDTAB
  0
TABLE
  2
UCS
  5
7
330
0
100
AcDbSymbolTable
 70
     0
  0
ENDTAB
  0
TABLE
  2
APPID
  5
9
330
0
100
AcDbSymbolTable
 70
     1
  0
APPID
  5
12
330
9
100
AcDbSymbolTableRecord
100
AcDbRegAppTableRecord
  2
ACAD
 70
     0
  0
ENDTAB
  0
TABLE
  2
DIMSTYLE
  5
A
330
0
100
AcDbSymbolTable
 70
     1
100
AcDbDimStyleTable
  0
DIMSTYLE
105
27
330
A
100
AcDbSymbolTableRecord
100
AcDbDimStyleTableRecord
  2
ISO-25
 70
     0
 41
2.5
 42
0.625
 43
3.75
 44
1.25
 73
     0
 74
     0
 77
     1
 78
     8
140
2.5
141
2.5
143
0.03937007874016
147
0.625
171
     3
172
     1
271
     2
272
     2
274
     3
278
    44
283
     0
284
     8
340
11
  0
ENDTAB
  0
TABLE
  2
BLOCK_RECORD
  5
1
330
0
100
AcDbSymbolTable
 70
     1
  0
BLOCK_RECORD
  5
1F
330
1
100
AcDbSymbolTableRecord
100
AcDbBlockTableRecord
  2
*Model_Space
340
22
  0
BLOCK_RECORD
  5
1B
330
1
100
AcDbSymbolTableRecord
100
AcDbBlockTableRecord
  2
*Paper_Space
340
1E
  0
BLOCK_RECORD
  5
23
330
1
100
AcDbSymbolTableRecord
100
AcDbBlockTableRecord
  2
*Paper_Space0
340
26
  0
ENDTAB
  0
ENDSEC
  0
SECTION
  2
BLOCKS
  0
BLOCK
  5
20
330
1F
100
AcDbEntity
  8
0
100
AcDbBlockBegin
  2
*Model_Space
 70
     0
 10
0.0
 20
0.0
 30
0.0
  3
*Model_Space
  1

  0
ENDBLK
  5
21
330
1F
100
AcDbEntity
  8
0
100
AcDbBlockEnd
  0
BLOCK
  5
1C
330
1B
100
AcDbEntity
 67
     1
  8
0
100
AcDbBlockBegin
  2
*Paper_Space
 70
     0
 10
0.0
 20
0.0
 30
0.0
  3
*Paper_Space
  1

  0
ENDBLK
  5
1D
330
1B
100
AcDbEntity
 67
     1
  8
0
100
AcDbBlockEnd
  0
BLOCK
  5
24
330
23
100
AcDbEntity
  8
0
100
AcDbBlockBegin
  2
*Paper_Space0
 70
     0
 10
0.0
 20
0.0
 30
0.0
  3
*Paper_Space0
  1

  0
ENDBLK
  5
25
330
23
100
AcDbEntity
  8
0
100
AcDbBlockEnd
  0
ENDSEC
  0
SECTION
  2
ENTITIES
  0
LINE
  5
44
330
1F
100
AcDbEntity
  8
B-0
  6
Continuous
 62
     3
370
     9
100
AcDbLine
 10
-715.3173016113248
 20
-46.86260044155306
 30
0.0
 11
-715.3173016113248
 21
112.1372972833202
 31
0.0
  0
LINE
  5
45
330
1F
100
AcDbEntity
  8
B-0
  6
Continuous
 62
     3
370
     9
100
AcDbLine
 10
-402.8169619707107
 20
265.6374914646668
 30
0.0
 11
-561.8171074299777
 21
265.6374914646668
 31
0.0
  0
LINE
  5
46
330
1F
100
AcDbEntity
  8
B-0
  6
Continuous
 62
     3
370
     9
100
AcDbLine
 10
-803.3172652612358
 20
-288.3627582728111
 30
0.0
 11
-803.3172652612358
 21
353.6377028489725
 31
0.0
  0
LINE
  5
47
330
1F
100
AcDbEntity
  8
B-1
  6
Continuous
 62
     2
370
     9
100
AcDbLine
 10
-828.3171338824728
 20
-313.3626268940482
 30
0.0
 11
-828.3171338824728
 21
378.6373237358156
 31
0.0
  0
LINE
  5
48
330
1F
100
AcDbEntity
  8
B-1
  6
Continuous
 62
     2
370
     9
100
AcDbLine
 10
-816.3173753130433
 20
366.6373174319916
 30
0.0
 11
-816.3173753130433
 21
-301.3626205902243
 31
0.0
  0
LINE
  5
49
330
1F
100
AcDbEntity
  8
B-0
  6
Continuous
 62
     3
370
     9
100
AcDbLine
 10
-815.31727156506
 20
-300.3625168422416
 30
0.0
 11
-815.31727156506
 21
365.6374614184026
 31
0.0
  0
LINE
  5
4A
330
1F
100
AcDbEntity
  8
B-1
  6
Continuous
 62
     2
370
     9
100
AcDbLine
 10
-828.3171338824728
 20
378.6373237358156
 30
0.0
 11
-816.3173753130433
 21
366.6373174319916
 31
0.0
  0
LINE
  5
4B
330
1F
100
AcDbEntity
  8
B-0
  6
Continuous
 62
     3
370
     9
100
AcDbLine
 10
-815.31727156506
 20
365.6374614184026
 30
0.0
 11
-803.3172652612358
 21
353.6377028489725
 31
0.0
  0
LINE
  5
4C
330
1F
100
AcDbEntity
  8
B-1
  6
Continuous
 62
     2
370
     9
100
AcDbLine
 10
-828.3171338824728
 20
378.6373237358156
 30
0.0
 11
-136.316935518215
 21
378.6373237358155
 31
0.0
  0
LINE
  5
4D
330
1F
100
AcDbEntity
  8
B-1
  6
Continuous
 62
     2
370
     9
100
AcDbLine
 10
-148.3169418220392
 20
366.6373174319916
 30
0.0
 11
-816.3173753130433
 21
366.6373174319916
 31
0.0
  0
LINE
  5
4E
330
1F
100
AcDbEntity
  8
B-0
  6
Continuous
 62
     3
370
     9
100
AcDbLine
 10
-815.31727156506
 20
365.6374614184026
 30
0.0
 11
-149.3170455700219
 21
365.6374614184026
 31
0.0
  0
LINE
  5
4F
330
1F
100
AcDbEntity
  8
B-0
  6
Continuous
 62
     3
370
     9
100
AcDbLine
 10
-161.3170518738461
 20
353.6377028489725
 30
0.0
 11
-803.3172652612358
 21
353.6377028489725
 31
0.0
  0
LINE
  5
50
330
1F
100
AcDbEntity
  8
B-0
  6
Continuous
 62
     3
370
     9
100
AcDbLine
 10
-572.8170099858191
 20
128.1374708446815
 30
0.0
 11
-572.8170099858191
 21
265.6374914646668
 31
0.0
  0
LINE
  5
51
330
1F
100
AcDbEntity
  8
B-0
  6
Continuous
 62
     3
370
     9
100
AcDbLine
 10
-577.817157124142
 20
123.1374475735554
 30
0.0
 11
-715.3173016113248
 21
123.1374475735554
 31
0.0
  0
LINE
  5
52
330
1F
100
AcDbEntity
  8
B-0
  6
Continuous
 62
     3
370
     9
100
AcDbLine
 10
-572.8170099858191
 20
107.1375217465879
 30
0.0
 11
-572.8170099858191
 21
-41.86257717042695
 31
0.0
  0
LINE
  5
53
330
1F
100
AcDbEntity
  8
B-0
  6
Continuous
 62
     3
370
     9
100
AcDbLine
 10
-577.817157124142
 20
112.1372972833202
 30
0.0
 11
-715.3173016113248
 21
112.1372972833202
 31
0.0
  0
LINE
  5
54
330
1F
100
AcDbEntity
  8
B-0
  6
Continuous
 62
     3
370
     9
100
AcDbLine
 10
-561.8171074299777
 20
107.1375217465879
 30
0.0
 11
-561.8171074299777
 21
-41.86257717042695
 31
0.0
  0
LINE
  5
55
330
1F
100
AcDbEntity
  8
B-0
  6
Continuous
 62
     3
370
     9
100
AcDbLine
 10
-556.8170841588516
 20
112.1372972833202
 30
0.0
 11
-407.8169852418368
 21
112.1372972833202
 31
0.0
  0
LINE
  5
56
330
1F
100
AcDbEntity
  8
B-0
  6
Continuous
 62
     3
370
     9
100
AcDbLine
 10
-561.8171074299777
 20
128.1374708446815
 30
0.0
 11
-561.8171074299777
 21
265.6374914646668
 31
0.0
  0
LINE
  5
57
330
1F
100
AcDbEntity
  8
B-0
  6
Continuous
 62
     3
370
     9
100
AcDbLine
 10
-556.8170841588516
 20
123.1374475735554
 30
0.0
 11
-407.8169852418368
 21
123.1374475735554
 31
0.0
  0
LINE
  5
58
330
1F
100
AcDbEntity
  8
B-0
  6
Continuous
 62
     3
370
     9
100
AcDbLine
 10
-558.3171159136292
 20
121.6374158187781
 30
0.0
 11
-406.3170773542565
 21
121.6374158187781
 31
0.0
  0
LINE
  5
59
330
1F
100
AcDbEntity
  8
B-0
  6
Continuous
 62
     3
370
     9
100
AcDbLine
 10
-571.3169782310421
 20
108.6375535013652
 30
0.0
 11
-571.3169782310421
 21
-43.36260892520401
 31
0.0
  0
LINE
  5
5A
330
1F
100
AcDbEntity
  8
B-0
  6
Continuous
 62
     3
370
     9
100
AcDbLine
 10
-558.3171159136292
 20
113.6375767724913
 30
0.0
 11
-406.3170773542565
 21
113.6375767724913
 31
0.0
  0
LINE
  5
5B
330
1F
100
AcDbEntity
  8
B-0
  6
Continuous
 62
     3
370
     9
100
AcDbLine
 10
-563.3171391847553
 20
108.6375535013652
 30
0.0
 11
-563.3171391847553
 21
-43.36260892520401
 31
0.0
  0
LINE
  5
5C
330
1F
100
AcDbEntity
  8
B-0
  6
Continuous
 62
     3
370
     9
100
AcDbLine
 10
-750.317216774814
 20
121.6374158187781
 30
0.0
 11
-576.3171253693649
 21
121.6374158187781
 31
0.0
  0
LINE
  5
5D
330
1F
100
AcDbEntity
  8
B-0
  6
Continuous
 62
     3
370
     9
100
AcDbLine
 10
-752.3170526691887
 20
111.6373692765258
 30
0.0
 11
-752.3170526691887
 21
-46.36267243475872
 31
0.0
  0
LINE
  5
5E
330
1F
100
AcDbEntity
  8
B-0
  6
Continuous
 62
     3
370
     9
100
AcDbLine
 10
-750.317216774814
 20
113.6375767724913
 30
0.0
 11
-576.3171253693649
 21
113.6375767724913
 31
0.0
  0
LINE
  5
5F
330
1F
100
AcDbEntity
  8
B-0
  6
Continuous
 62
     3
370
     9
100
AcDbLine
 10
-571.3169782310421
 20
300.6374066281561
 30
0.0
 11
-571.3169782310421
 21
126.6374390899043
 31
0.0
  0
LINE
  5
60
330
1F
100
AcDbEntity
  8
B-0
  6
Continuous
 62
     3
370
     9
100
AcDbLine
 10
-563.3171391847553
 20
300.6374066281561
 30
0.0
 11
-563.3171391847553
 21
126.6374390899043
 31
0.0
  0
LINE
  5
61
330
1F
100
AcDbEntity
  8
B-0
  6
Continuous
 62
     3
370
     9
100
AcDbLine
 10
-715.3173016113248
 20
263.6372839687012
 30
0.0
 11
-715.3173016113248
 21
123.1374475735554
 31
0.0
  0
LINE
  5
62
330
1F
100
AcDbEntity
  8
B-0
  6
Continuous
 62
     3
370
     9
100
AcDbLine
 10
-713.3170941153587
 20
265.6374914646668
 30
0.0
 11
-572.8170099858191
 21
265.6374914646668
 31
0.0
  0
LINE
  5
63
330
1F
100
AcDbEntity
  8
B-0
  6
Continuous
 62
     3
370
     9
100
AcDbLine
 10
-752.3170526691887
 20
300.6374066281561
 30
0.0
 11
-752.3170526691887
 21
123.6373755803499
 31
0.0
  0
LINE
  5
64
330
1F
100
AcDbEntity
  8
B-0
  6
Continuous
 62
     3
370
     9
100
AcDbLine
 10
-750.317216774814
 20
302.6376141241216
 30
0.0
 11
-573.3171857270075
 21
302.6376141241216
 31
0.0
  0
LINE
  5
65
330
1F
100
AcDbEntity
  8
B-0
  6
Continuous
 62
     3
370
     9
100
AcDbLine
 10
-750.8081024762326
 20
113.5763863772097
 30
0.0
 11
-715.3173016113248
 21
112.1372972833202
 31
0.0
  0
LINE
  5
66
330
1F
100
AcDbEntity
  8
B-0
  6
Continuous
 62
     3
370
     9
100
AcDbLine
 10
-715.3173016113248
 20
123.1374475735554
 30
0.0
 11
-750.8081024762326
 21
121.6986062140597
 31
0.0
  0
LINE
  5
67
330
1F
100
AcDbEntity
  8
B-0
  6
Continuous
 62
     3
370
     9
100
AcDbLine
 10
-571.3784163607174
 20
301.128416196772
 30
0.0
 11
-572.8170099858191
 21
265.6374914646668
 31
0.0
  0
LINE
  5
68
330
1F
100
AcDbEntity
  8
B-0
  6
Continuous
 62
     3
370
     9
100
AcDbLine
 10
-563.2559487894735
 20
301.128416196772
 30
0.0
 11
-561.8171074299777
 21
265.6374914646668
 31
0.0
  0
LINE
  5
69
330
1F
100
AcDbEntity
  8
B-1
  6
Continuous
 62
     2
370
     9
100
AcDbLine
 10
-851.3172904765325
 20
100.1375387138901
 30
0.0
 11
-828.3171338824728
 21
100.1375387138901
 31
0.0
  0
LINE
  5
6A
330
1F
100
AcDbEntity
  8
B-1
  6
Continuous
 62
     2
370
     9
100
AcDbLine
 10
-851.3172904765325
 20
90.13749217163769
 30
0.0
 11
-828.3171338824728
 21
90.13749217163769
 31
0.0
  0
LINE
  5
6B
330
1F
100
AcDbEntity
  8
B-1
  6
Continuous
 62
     2
370
     9
100
AcDbLine
 10
-851.3172904765325
 20
90.13749217163769
 30
0.0
 11
-849.3173307149606
 21
89.63756416484321
 31
0.0
  0
LINE
  5
6C
330
1F
100
AcDbEntity
  8
B-1
  6
Continuous
 62
     2
370
     9
100
AcDbLine
 10
-849.3173307149606
 20
89.63756416484321
 30
0.0
 11
-828.3171338824728
 21
86.63750065528879
 31
0.0
  0
LINE
  5
6D
330
1F
100
AcDbEntity
  8
B-1
  6
Continuous
 62
     2
370
     9
100
AcDbLine
 10
-851.3172904765325
 20
100.1375387138901
 30
0.0
 11
-849.3173307149606
 21
100.6374667206845
 31
0.0
  0
LINE
  5
6E
330
1F
100
AcDbEntity
  8
B-1
  6
Continuous
 62
     2
370
     9
100
AcDbLine
 10
-849.3173307149606
 20
100.6374667206845
 30
0.0
 11
-828.3171338824728
 21
103.6372824958452
 31
0.0
  0
LINE
  5
6F
330
1F
100
AcDbEntity
  8
B-1
  6
Continuous
 62
     2
370
     9
100
AcDbLine
 10
-849.3173307149606
 20
89.63756416484321
 30
0.0
 11
-849.3173307149606
 21
-24.36261958868224
 31
0.0
  0
LINE
  5
70
330
1F
100
AcDbEntity
  8
B-1
  6
Continuous
 62
     2
370
     9
100
AcDbLine
 10
-851.3172904765325
 20
90.13749217163769
 30
0.0
 11
-851.3172904765325
 21
-24.86254759547672
 31
0.0
  0
LINE
  5
71
330
1F
100
AcDbEntity
  8
B-1
  6
Continuous
 62
     2
370
     9
100
AcDbLine
 10
-549.8169772589573
 20
378.6373237358155
 30
0.0
 11
-549.8169772589573
 21
401.6374803298746
 31
0.0
  0
LINE
  5
72
330
1F
100
AcDbEntity
  8
B-1
  6
Continuous
 62
     2
370
     9
100
AcDbLine
 10
-539.8170545839013
 20
401.6374803298746
 30
0.0
 11
-539.8170545839013
 21
378.6373237358155
 31
0.0
  0
LINE
  5
73
330
1F
100
AcDbEntity
  8
B-1
  6
Continuous
 62
     2
370
     9
100
AcDbLine
 10
-549.8169772589573
 20
401.6374803298746
 30
0.0
 11
-550.3170291329484
 21
399.6375205683029
 31
0.0
  0
LINE
  5
74
330
1F
100
AcDbEntity
  8
B-1
  6
Continuous
 62
     2
370
     9
100
AcDbLine
 10
-550.3170291329484
 20
399.6375205683029
 30
0.0
 11
-553.3170926425031
 21
378.6373237358155
 31
0.0
  0
LINE
  5
75
330
1F
100
AcDbEntity
  8
B-1
  6
Continuous
 62
     2
370
     9
100
AcDbLine
 10
-536.3171869347495
 20
378.6373237358155
 30
0.0
 11
-539.3171265771069
 21
399.6375205683029
 31
0.0
  0
LINE
  5
76
330
1F
100
AcDbEntity
  8
B-1
  6
Continuous
 62
     2
370
     9
100
AcDbLine
 10
-539.3171265771069
 20
399.6375205683029
 30
0.0
 11
-539.8170545839013
 21
401.6374803298746
 31
0.0
  0
LINE
  5
77
330
1F
100
AcDbEntity
  8
B-1
  6
Continuous
 62
     2
370
     9
100
AcDbLine
 10
-539.3171265771069
 20
399.6375205683029
 30
0.0
 11
-425.3170666907782
 21
399.6375205683029
 31
0.0
  0
LINE
  5
78
330
1F
100
AcDbEntity
  8
B-1
  6
Continuous
 62
     2
370
     9
100
AcDbLine
 10
-539.8170545839013
 20
401.6374803298746
 30
0.0
 11
-424.8170148167872
 21
401.6374803298746
 31
0.0
  0
LINE
  5
79
330
1F
100
AcDbEntity
  8
B-1
  6
Continuous
 62
     2
370
     9
100
AcDbLine
 10
-849.3173307149606
 20
287.6375443107431
 30
0.0
 11
-849.3173307149606
 21
367.6374211799743
 31
0.0
  0
LINE
  5
7A
330
1F
100
AcDbEntity
  8
B-1
  6
Continuous
 62
     2
370
     9
100
AcDbLine
 10
-846.3172672054064
 20
284.6374808011887
 30
0.0
 11
-828.3171338824728
 21
284.6374808011887
 31
0.0
  0
LINE
  5
7B
330
1F
100
AcDbEntity
  8
B-1
  6
Continuous
 62
     2
370
     9
100
AcDbLine
 10
-851.3172904765325
 20
285.6375845491714
 30
0.0
 11
-851.3172904765325
 21
367.6374211799743
 31
0.0
  0
LINE
  5
7C
330
1F
100
AcDbEntity
  8
B-1
  6
Continuous
 62
     2
370
     9
100
AcDbLine
 10
-848.3172269669778
 20
282.637521039617
 30
0.0
 11
-828.3171338824728
 21
282.637521039617
 31
0.0
  0
LINE
  5
7D
330
1F
100
AcDbEntity
  8
B-1
  6
Continuous
 62
     2
370
     9
100
AcDbLine
 10
-849.3173307149606
 20
227.6375127916228
 30
0.0
 11
-849.3173307149606
 21
100.6374667206845
 31
0.0
  0
LINE
  5
7E
330
1F
100
AcDbEntity
  8
B-1
  6
Continuous
 62
     2
370
     9
100
AcDbLine
 10
-846.3172672054064
 20
230.6375763011774
 30
0.0
 11
-828.3171338824728
 21
230.6375763011774
 31
0.0
  0
LINE
  5
7F
330
1F
100
AcDbEntity
  8
B-1
  6
Continuous
 62
     2
370
     9
100
AcDbLine
 10
-851.3172904765325
 20
229.6374725531947
 30
0.0
 11
-851.3172904765325
 21
100.1375387138901
 31
0.0
  0
LINE
  5
80
330
1F
100
AcDbEntity
  8
B-1
  6
Continuous
 62
     2
370
     9
100
AcDbLine
 10
-848.3172269669778
 20
232.6375360627491
 30
0.0
 11
-828.3171338824728
 21
232.6375360627491
 31
0.0
  0
LINE
  5
81
330
1F
100
AcDbEntity
  8
B-1
  6
Continuous
 62
     2
370
     9
100
AcDbLine
 10
-734.3171670806497
 20
396.6374570587485
 30
0.0
 11
-734.3171670806497
 21
378.6373237358155
 31
0.0
  0
LINE
  5
82
330
1F
100
AcDbEntity
  8
B-1
  6
Continuous
 62
     2
370
     9
100
AcDbLine
 10
-732.3169595846842
 20
398.6374168203202
 30
0.0
 11
-732.3169595846842
 21
378.6373237358155
 31
0.0
  0
LINE
  5
83
330
1F
100
AcDbEntity
  8
B-1
  6
Continuous
 62
     2
370
     9
100
AcDbLine
 10
-680.3172625806382
 20
396.6374570587485
 30
0.0
 11
-680.3172625806382
 21
378.6373237358155
 31
0.0
  0
LINE
  5
84
330
1F
100
AcDbEntity
  8
B-1
  6
Continuous
 62
     2
370
     9
100
AcDbLine
 10
-682.3170984750128
 20
398.6374168203202
 30
0.0
 11
-682.3170984750128
 21
378.6373237358155
 31
0.0
  0
LINE
  5
85
330
1F
100
AcDbEntity
  8
B-1
  6
Continuous
 62
     2
370
     9
100
AcDbLine
 10
-817.3171074594346
 20
399.637520568303
 30
0.0
 11
-737.3172305902038
 21
399.6375205683029
 31
0.0
  0
LINE
  5
86
330
1F
100
AcDbEntity
  8
B-1
  6
Continuous
 62
     2
370
     9
100
AcDbLine
 10
-677.3170752038867
 20
399.6375205683029
 30
0.0
 11
-550.3170291329484
 21
399.6375205683029
 31
0.0
  0
LINE
  5
87
330
1F
100
AcDbEntity
  8
B-1
  6
Continuous
 62
     2
370
     9
100
AcDbLine
 10
-817.3171074594346
 20
401.6374803298747
 30
0.0
 11
-735.3171469614351
 21
401.6374803298746
 31
0.0
  0
LINE
  5
88
330
1F
100
AcDbEntity
  8
B-1
  6
Continuous
 62
     2
370
     9
100
AcDbLine
 10
-680.3172625806382
 20
401.6374803298746
 30
0.0
 11
-549.8169772589573
 21
401.6374803298746
 31
0.0
  0
LINE
  5
89
330
1F
100
AcDbEntity
  8
B-0
  6
Continuous
 62
     3
370
     9
100
AcDbLine
 10
-503.3171076656349
 20
353.6377028489725
 30
0.0
 11
-503.3171076656349
 21
286.6374405627604
 31
0.0
  0
LINE
  5
8A
330
1F
100
AcDbEntity
  8
B-0
  6
Continuous
 62
     3
370
     9
100
AcDbLine
 10
-503.3171076656349
 20
286.6374405627604
 30
0.0
 11
-461.3170856022508
 21
286.6374405627604
 31
0.0
  0
LINE
  5
8B
330
1F
100
AcDbEntity
  8
B-0
  6
Continuous
 62
     3
370
     9
100
AcDbLine
 10
-561.3170555559866
 20
302.6376141241216
 30
0.0
 11
-503.3171076656349
 21
302.6376141241216
 31
0.0
  0
LINE
  5
8C
330
1F
100
AcDbEntity
  8
B-0
  6
Continuous
 62
     3
370
     9
100
AcDbLine
 10
-402.8169619707107
 20
-200.3625468885055
 30
0.0
 11
-561.8171074299777
 21
-200.3625468885055
 31
0.0
  0
LINE
  5
8D
330
1F
100
AcDbEntity
  8
B-1
  6
Continuous
 62
     2
370
     9
100
AcDbLine
 10
-828.3171338824728
 20
-313.3626268940482
 30
0.0
 11
-816.3173753130433
 21
-301.3626205902243
 31
0.0
  0
LINE
  5
8E
330
1F
100
AcDbEntity
  8
B-0
  6
Continuous
 62
     3
370
     9
100
AcDbLine
 10
-815.31727156506
 20
-300.3625168422416
 30
0.0
 11
-803.3172652612358
 21
-288.3627582728111
 31
0.0
  0
LINE
  5
8F
330
1F
100
AcDbEntity
  8
B-1
  6
Continuous
 62
     2
370
     9
100
AcDbLine
 10
-828.3171338824728
 20
-313.3626268940482
 30
0.0
 11
-136.3169355182155
 21
-313.3626268940485
 31
0.0
  0
LINE
  5
90
330
1F
100
AcDbEntity
  8
B-1
  6
Continuous
 62
     2
370
     9
100
AcDbLine
 10
-148.3169418220397
 20
-301.3626205902243
 30
0.0
 11
-816.3173753130433
 21
-301.3626205902243
 31
0.0
  0
LINE
  5
91
330
1F
100
AcDbEntity
  8
B-0
  6
Continuous
 62
     3
370
     9
100
AcDbLine
 10
-815.31727156506
 20
-300.3625168422416
 30
0.0
 11
-149.3170455700225
 21
-300.3625168422416
 31
0.0
  0
LINE
  5
92
330
1F
100
AcDbEntity
  8
B-0
  6
Continuous
 62
     3
370
     9
100
AcDbLine
 10
-161.3170518738461
 20
-288.3627582728114
 30
0.0
 11
-803.3172652612358
 21
-288.3627582728111
 31
0.0
  0
LINE
  5
93
330
1F
100
AcDbEntity
  8
B-0
  6
Continuous
 62
     3
370
     9
100
AcDbLine
 10
-572.8170099858191
 20
-62.86252626852063
 30
0.0
 11
-572.8170099858191
 21
-200.3625468885055
 31
0.0
  0
LINE
  5
94
330
1F
100
AcDbEntity
  8
B-0
  6
Continuous
 62
     3
370
     9
100
AcDbLine
 10
-577.817157124142
 20
-57.8627507317883
 30
0.0
 11
-715.3173016113248
 21
-57.8627507317883
 31
0.0
  0
LINE
  5
95
330
1F
100
AcDbEntity
  8
B-0
  6
Continuous
 62
     3
370
     9
100
AcDbLine
 10
-577.817157124142
 20
-46.86260044155306
 30
0.0
 11
-715.3173016113248
 21
-46.86260044155306
 31
0.0
  0
LINE
  5
96
330
1F
100
AcDbEntity
  8
B-0
  6
Continuous
 62
     3
370
     9
100
AcDbLine
 10
-556.8170841588516
 20
-46.86260044155306
 30
0.0
 11
-407.8169852418368
 21
-46.86260044155306
 31
0.0
  0
LINE
  5
97
330
1F
100
AcDbEntity
  8
B-0
  6
Continuous
 62
     3
370
     9
100
AcDbLine
 10
-561.8171074299777
 20
-62.86252626852063
 30
0.0
 11
-561.8171074299777
 21
-200.3625468885055
 31
0.0
  0
LINE
  5
98
330
1F
100
AcDbEntity
  8
B-0
  6
Continuous
 62
     3
370
     9
100
AcDbLine
 10
-556.8170841588516
 20
-57.8627507317883
 30
0.0
 11
-407.8169852418368
 21
-57.8627507317883
 31
0.0
  0
LINE
  5
99
330
1F
100
AcDbEntity
  8
B-0
  6
Continuous
 62
     3
370
     9
100
AcDbLine
 10
-558.3171159136292
 20
-56.36247124261716
 30
0.0
 11
-406.3170773542565
 21
-56.36247124261716
 31
0.0
  0
LINE
  5
9A
330
1F
100
AcDbEntity
  8
B-0
  6
Continuous
 62
     3
370
     9
100
AcDbLine
 10
-558.3171159136292
 20
-48.36263219633041
 30
0.0
 11
-406.3170773542565
 21
-48.36263219633041
 31
0.0
  0
LINE
  5
9B
330
1F
100
AcDbEntity
  8
B-0
  6
Continuous
 62
     3
370
     9
100
AcDbLine
 10
-750.317216774814
 20
-56.36247124261716
 30
0.0
 11
-576.3171253693649
 21
-56.36247124261716
 31
0.0
  0
LINE
  5
9C
330
1F
100
AcDbEntity
  8
B-0
  6
Continuous
 62
     3
370
     9
100
AcDbLine
 10
-750.317216774814
 20
-48.36263219633041
 30
0.0
 11
-576.3171253693649
 21
-48.36263219633041
 31
0.0
  0
LINE
  5
9D
330
1F
100
AcDbEntity
  8
B-0
  6
Continuous
 62
     3
370
     9
100
AcDbLine
 10
-571.3169782310421
 20
-235.3627097863888
 30
0.0
 11
-571.3169782310421
 21
-61.36249451374327
 31
0.0
  0
LINE
  5
9E
330
1F
100
AcDbEntity
  8
B-0
  6
Continuous
 62
     3
370
     9
100
AcDbLine
 10
-563.3171391847553
 20
-235.3627097863888
 30
0.0
 11
-563.3171391847553
 21
-61.36249451374327
 31
0.0
  0
LINE
  5
9F
330
1F
100
AcDbEntity
  8
B-0
  6
Continuous
 62
     3
370
     9
100
AcDbLine
 10
-715.3173016113248
 20
-198.3625871269341
 30
0.0
 11
-715.3173016113248
 21
-57.8627507317883
 31
0.0
  0
LINE
  5
A0
330
1F
100
AcDbEntity
  8
B-0
  6
Continuous
 62
     3
370
     9
100
AcDbLine
 10
-713.3170941153587
 20
-200.3625468885055
 30
0.0
 11
-572.8170099858191
 21
-200.3625468885055
 31
0.0
  0
LINE
  5
A1
330
1F
100
AcDbEntity
  8
B-0
  6
Continuous
 62
     3
370
     9
100
AcDbLine
 10
-752.3170526691887
 20
-235.3627097863888
 30
0.0
 11
-752.3170526691887
 21
-58.36267873858263
 31
0.0
  0
LINE
  5
A2
330
1F
100
AcDbEntity
  8
B-0
  6
Continuous
 62
     3
370
     9
100
AcDbLine
 10
-750.317216774814
 20
-237.3626695479608
 30
0.0
 11
-573.3171857270075
 21
-237.3626695479608
 31
0.0
  0
LINE
  5
A3
330
1F
100
AcDbEntity
  8
B-0
  6
Continuous
 62
     3
370
     9
100
AcDbLine
 10
-750.8081024762326
 20
-48.30144180104882
 30
0.0
 11
-715.3173016113248
 21
-46.86260044155306
 31
0.0
  0
LINE
  5
A4
330
1F
100
AcDbEntity
  8
B-0
  6
Continuous
 62
     3
370
     9
100
AcDbLine
 10
-715.3173016113248
 20
-57.8627507317883
 30
0.0
 11
-750.8081024762326
 21
-56.42366163789875
 31
0.0
  0
LINE
  5
A5
330
1F
100
AcDbEntity
  8
B-0
  6
Continuous
 62
     3
370
     9
100
AcDbLine
 10
-571.3784163607174
 20
-235.8534716206107
 30
0.0
 11
-572.8170099858191
 21
-200.3625468885055
 31
0.0
  0
LINE
  5
A6
330
1F
100
AcDbEntity
  8
B-0
  6
Continuous
 62
     3
370
     9
100
AcDbLine
 10
-563.2559487894735
 20
-235.8534716206107
 30
0.0
 11
-561.8171074299777
 21
-200.3625468885055
 31
0.0
  0
LINE
  5
A7
330
1F
100
AcDbEntity
  8
B-1
  6
Continuous
 62
     2
370
     9
100
AcDbLine
 10
-851.3172904765325
 20
-34.86259413772915
 30
0.0
 11
-828.3171338824728
 21
-34.86259413772915
 31
0.0
  0
LINE
  5
A8
330
1F
100
AcDbEntity
  8
B-1
  6
Continuous
 62
     2
370
     9
100
AcDbLine
 10
-851.3172904765325
 20
-24.86254759547672
 30
0.0
 11
-828.3171338824728
 21
-24.86254759547672
 31
0.0
  0
LINE
  5
A9
330
1F
100
AcDbEntity
  8
B-1
  6
Continuous
 62
     2
370
     9
100
AcDbLine
 10
-851.3172904765325
 20
-24.86254759547672
 30
0.0
 11
-849.3173307149606
 21
-24.36261958868224
 31
0.0
  0
LINE
  5
AA
330
1F
100
AcDbEntity
  8
B-1
  6
Continuous
 62
     2
370
     9
100
AcDbLine
 10
-849.3173307149606
 20
-24.36261958868224
 30
0.0
 11
-828.3171338824728
 21
-21.36255607912767
 31
0.0
  0
LINE
  5
AB
330
1F
100
AcDbEntity
  8
B-1
  6
Continuous
 62
     2
370
     9
100
AcDbLine
 10
-851.3172904765325
 20
-34.86259413772915
 30
0.0
 11
-849.3173307149606
 21
-35.36252214452348
 31
0.0
  0
LINE
  5
AC
330
1F
100
AcDbEntity
  8
B-1
  6
Continuous
 62
     2
370
     9
100
AcDbLine
 10
-849.3173307149606
 20
-35.36252214452348
 30
0.0
 11
-828.3171338824728
 21
-38.3625856540779
 31
0.0
  0
LINE
  5
AD
330
1F
100
AcDbEntity
  8
B-1
  6
Continuous
 62
     2
370
     9
100
AcDbLine
 10
-549.8169772589573
 20
-313.3626268940485
 30
0.0
 11
-549.8169772589573
 21
-336.3625357537142
 31
0.0
  0
LINE
  5
AE
330
1F
100
AcDbEntity
  8
B-1
  6
Continuous
 62
     2
370
     9
100
AcDbLine
 10
-539.8170545839013
 20
-336.3625357537142
 30
0.0
 11
-539.8170545839013
 21
-313.3626268940485
 31
0.0
  0
LINE
  5
AF
330
1F
100
AcDbEntity
  8
B-1
  6
Continuous
 62
     2
370
     9
100
AcDbLine
 10
-549.8169772589573
 20
-336.3625357537142
 30
0.0
 11
-550.3170291329484
 21
-334.3625759921422
 31
0.0
  0
LINE
  5
B0
330
1F
100
AcDbEntity
  8
B-1
  6
Continuous
 62
     2
370
     9
100
AcDbLine
 10
-550.3170291329484
 20
-334.3625759921422
 30
0.0
 11
-553.3170926425031
 21
-313.3626268940485
 31
0.0
  0
LINE
  5
B1
330
1F
100
AcDbEntity
  8
B-1
  6
Continuous
 62
     2
370
     9
100
AcDbLine
 10
-536.3171869347495
 20
-313.3626268940485
 30
0.0
 11
-539.3171265771069
 21
-334.3625759921422
 31
0.0
  0
LINE
  5
B2
330
1F
100
AcDbEntity
  8
B-1
  6
Continuous
 62
     2
370
     9
100
AcDbLine
 10
-539.3171265771069
 20
-334.3625759921422
 30
0.0
 11
-539.8170545839013
 21
-336.3625357537142
 31
0.0
  0
LINE
  5
B3
330
1F
100
AcDbEntity
  8
B-1
  6
Continuous
 62
     2
370
     9
100
AcDbLine
 10
-539.3171265771069
 20
-334.3625759921422
 30
0.0
 11
-425.3170666907788
 21
-334.3625759921422
 31
0.0
  0
LINE
  5
B4
330
1F
100
AcDbEntity
  8
B-1
  6
Continuous
 62
     2
370
     9
100
AcDbLine
 10
-539.8170545839013
 20
-336.3625357537142
 30
0.0
 11
-424.8170148167872
 21
-336.3625357537142
 31
0.0
  0
LINE
  5
B5
330
1F
100
AcDbEntity
  8
B-1
  6
JWW_CENTER1
 62
     2
370
     9
100
AcDbLine
 10
-844.8172354506288
 20
-175.4251073345195
 30
0.0
 11
-844.8172354506288
 21
-209.9174147250049
 31
0.0
  0
LINE
  5
B6
330
1F
100
AcDbEntity
  8
B-1
  6
Continuous
 62
     2
370
     9
100
AcDbLine
 10
-849.3173307149606
 20
-222.3625997345819
 30
0.0
 11
-849.3173307149606
 21
-302.362724338207
 31
0.0
  0
LINE
  5
B7
330
1F
100
AcDbEntity
  8
B-1
  6
Continuous
 62
     2
370
     9
100
AcDbLine
 10
-846.3172672054064
 20
-219.3627839594213
 30
0.0
 11
-828.3171338824728
 21
-219.3627839594213
 31
0.0
  0
LINE
  5
B8
330
1F
100
AcDbEntity
  8
B-1
  6
Continuous
 62
     2
370
     9
100
AcDbLine
 10
-851.3172904765325
 20
-220.3626399730105
 30
0.0
 11
-851.3172904765325
 21
-302.362724338207
 31
0.0
  0
LINE
  5
B9
330
1F
100
AcDbEntity
  8
B-1
  6
Continuous
 62
     2
370
     9
100
AcDbLine
 10
-848.3172269669778
 20
-217.3625764634558
 30
0.0
 11
-828.3171338824728
 21
-217.3625764634558
 31
0.0
  0
LINE
  5
BA
330
1F
100
AcDbEntity
  8
B-1
  6
Continuous
 62
     2
370
     9
100
AcDbLine
 10
-849.3173307149606
 20
-162.3625682154618
 30
0.0
 11
-849.3173307149606
 21
-35.36252214452348
 31
0.0
  0
LINE
  5
BB
330
1F
100
AcDbEntity
  8
B-1
  6
Continuous
 62
     2
370
     9
100
AcDbLine
 10
-846.3172672054064
 20
-165.3626317250162
 30
0.0
 11
-828.3171338824728
 21
-165.3626317250162
 31
0.0
  0
LINE
  5
BC
330
1F
100
AcDbEntity
  8
B-1
  6
Continuous
 62
     2
370
     9
100
AcDbLine
 10
-851.3172904765325
 20
-164.3625279770335
 30
0.0
 11
-851.3172904765325
 21
-34.86259413772915
 31
0.0
  0
LINE
  5
BD
330
1F
100
AcDbEntity
  8
B-1
  6
Continuous
 62
     2
370
     9
100
AcDbLine
 10
-848.3172269669778
 20
-167.3625914865882
 30
0.0
 11
-828.3171338824728
 21
-167.3625914865882
 31
0.0
  0
LINE
  5
BE
330
1F
100
AcDbEntity
  8
B-1
  6
Continuous
 62
     2
370
     9
100
AcDbLine
 10
-734.3171670806497
 20
-331.3627602169815
 30
0.0
 11
-734.3171670806497
 21
-313.3626268940485
 31
0.0
  0
LINE
  5
BF
330
1F
100
AcDbEntity
  8
B-1
  6
Continuous
 62
     2
370
     9
100
AcDbLine
 10
-732.3169595846842
 20
-333.3627199785535
 30
0.0
 11
-732.3169595846842
 21
-313.3626268940485
 31
0.0
  0
LINE
  5
C0
330
1F
100
AcDbEntity
  8
B-1
  6
Continuous
 62
     2
370
     9
100
AcDbLine
 10
-680.3172625806382
 20
-331.3627602169815
 30
0.0
 11
-680.3172625806382
 21
-313.3626268940485
 31
0.0
  0
LINE
  5
C1
330
1F
100
AcDbEntity
  8
B-1
  6
Continuous
 62
     2
370
     9
100
AcDbLine
 10
-682.3170984750128
 20
-333.3627199785535
 30
0.0
 11
-682.3170984750128
 21
-313.3626268940485
 31
0.0
  0
LINE
  5
C2
330
1F
100
AcDbEntity
  8
B-1
  6
Continuous
 62
     2
370
     9
100
AcDbLine
 10
-817.3171074594346
 20
-334.3625759921418
 30
0.0
 11
-737.3172305902038
 21
-334.3625759921422
 31
0.0
  0
LINE
  5
C3
330
1F
100
AcDbEntity
  8
B-1
  6
Continuous
 62
     2
370
     9
100
AcDbLine
 10
-677.3170752038867
 20
-334.3625759921422
 30
0.0
 11
-550.3170291329484
 21
-334.3625759921422
 31
0.0
  0
LINE
  5
C4
330
1F
100
AcDbEntity
  8
B-1
  6
Continuous
 62
     2
370
     9
100
AcDbLine
 10
-817.3171074594346
 20
-336.3625357537138
 30
0.0
 11
-735.3171469614351
 21
-336.3625357537142
 31
0.0
  0
LINE
  5
C5
330
1F
100
AcDbEntity
  8
B-1
  6
Continuous
 62
     2
370
     9
100
AcDbLine
 10
-680.3172625806382
 20
-336.3625357537142
 30
0.0
 11
-549.8169772589573
 21
-336.3625357537142
 31
0.0
  0
LINE
  5
C6
330
1F
100
AcDbEntity
  8
B-0
  6
Continuous
 62
     3
370
     9
100
AcDbLine
 10
-503.3171076656349
 20
-288.3627582728114
 30
0.0
 11
-503.3171076656349
 21
-221.3624959865992
 31
0.0
  0
LINE
  5
C7
330
1F
100
AcDbEntity
  8
B-0
  6
Continuous
 62
     3
370
     9
100
AcDbLine
 10
-503.3171076656349
 20
-221.3624959865992
 30
0.0
 11
-461.3170856022508
 21
-221.3624959865992
 31
0.0
  0
LINE
  5
C8
330
1F
100
AcDbEntity
  8
B-0
  6
Continuous
 62
     3
370
     9
100
AcDbLine
 10
-561.3170555559866
 20
-237.3626695479608
 30
0.0
 11
-503.3171076656349
 21
-237.3626695479608
 31
0.0
  0
LINE
  5
C9
330
1F
100
AcDbEntity
  8
B-0
  6
Continuous
 62
     3
370
     9
100
AcDbLine
 10
-249.3170155237577
 20
-46.86260044155306
 30
0.0
 11
-249.3170155237577
 21
112.1372972833202
 31
0.0
  0
LINE
  5
CA
330
1F
100
AcDbEntity
  8
B-0
  6
Continuous
 62
     3
370
     9
100
AcDbLine
 10
-161.3170518738461
 20
-288.3627582728114
 30
0.0
 11
-161.3170518738461
 21
353.6377028489725
 31
0.0
  0
LINE
  5
CB
330
1F
100
AcDbEntity
  8
B-1
  6
Continuous
 62
     2
370
     9
100
AcDbLine
 10
-136.3169355182155
 20
-313.3626268940485
 30
0.0
 11
-136.316935518215
 21
378.6373237358155
 31
0.0
  0
LINE
  5
CC
330
1F
100
AcDbEntity
  8
B-1
  6
Continuous
 62
     2
370
     9
100
AcDbLine
 10
-148.3169418220392
 20
366.6373174319916
 30
0.0
 11
-148.3169418220397
 21
-301.3626205902243
 31
0.0
  0
LINE
  5
CD
330
1F
100
AcDbEntity
  8
B-0
  6
Continuous
 62
     3
370
     9
100
AcDbLine
 10
-149.3170455700225
 20
-300.3625168422416
 30
0.0
 11
-149.3170455700219
 21
365.6374614184026
 31
0.0
  0
LINE
  5
CE
330
1F
100
AcDbEntity
  8
B-1
  6
Continuous
 62
     2
370
     9
100
AcDbLine
 10
-136.316935518215
 20
378.6373237358155
 30
0.0
 11
-148.3169418220392
 21
366.6373174319916
 31
0.0
  0
LINE
  5
CF
330
1F
100
AcDbEntity
  8
B-0
  6
Continuous
 62
     3
370
     9
100
AcDbLine
 10
-149.3170455700219
 20
365.6374614184026
 30
0.0
 11
-161.3170518738461
 21
353.6377028489725
 31
0.0
  0
LINE
  5
D0
330
1F
100
AcDbEntity
  8
B-0
  6
Continuous
 62
     3
370
     9
100
AcDbLine
 10
-391.8170594148693
 20
128.1374708446815
 30
0.0
 11
-391.8170594148693
 21
265.6374914646668
 31
0.0
  0
LINE
  5
D1
330
1F
100
AcDbEntity
  8
B-0
  6
Continuous
 62
     3
370
     9
100
AcDbLine
 10
-386.8170361437432
 20
123.1374475735554
 30
0.0
 11
-249.3170155237577
 21
123.1374475735554
 31
0.0
  0
LINE
  5
D2
330
1F
100
AcDbEntity
  8
B-0
  6
Continuous
 62
     3
370
     9
100
AcDbLine
 10
-391.8170594148693
 20
107.1375217465879
 30
0.0
 11
-391.8170594148693
 21
-41.86257717042695
 31
0.0
  0
LINE
  5
D3
330
1F
100
AcDbEntity
  8
B-0
  6
Continuous
 62
     3
370
     9
100
AcDbLine
 10
-386.8170361437432
 20
112.1372972833202
 30
0.0
 11
-249.3170155237577
 21
112.1372972833202
 31
0.0
  0
LINE
  5
D4
330
1F
100
AcDbEntity
  8
B-0
  6
Continuous
 62
     3
370
     9
100
AcDbLine
 10
-402.8169619707107
 20
107.1375217465879
 30
0.0
 11
-402.8169619707107
 21
-41.86257717042695
 31
0.0
  0
LINE
  5
D5
330
1F
100
AcDbEntity
  8
B-0
  6
Continuous
 62
     3
370
     9
100
AcDbLine
 10
-402.8169619707107
 20
128.1374708446815
 30
0.0
 11
-402.8169619707107
 21
265.6374914646668
 31
0.0
  0
LINE
  5
D6
330
1F
100
AcDbEntity
  8
B-0
  6
Continuous
 62
     3
370
     9
100
AcDbLine
 10
-393.3170911696469
 20
108.6375535013652
 30
0.0
 11
-393.3170911696469
 21
-43.36260892520401
 31
0.0
  0
LINE
  5
D7
330
1F
100
AcDbEntity
  8
B-0
  6
Continuous
 62
     3
370
     9
100
AcDbLine
 10
-401.3170540831304
 20
108.6375535013652
 30
0.0
 11
-401.3170540831304
 21
-43.36260892520401
 31
0.0
  0
LINE
  5
D8
330
1F
100
AcDbEntity
  8
B-0
  6
Continuous
 62
     3
370
     9
100
AcDbLine
 10
-214.3171003602684
 20
121.6374158187781
 30
0.0
 11
-388.3170678985208
 21
121.6374158187781
 31
0.0
  0
LINE
  5
D9
330
1F
100
AcDbEntity
  8
B-0
  6
Continuous
 62
     3
370
     9
100
AcDbLine
 10
-212.3170167314997
 20
111.6373692765258
 30
0.0
 11
-212.3170167315002
 21
-46.36267243475872
 31
0.0
  0
LINE
  5
DA
330
1F
100
AcDbEntity
  8
B-0
  6
Continuous
 62
     3
370
     9
100
AcDbLine
 10
-214.3171003602684
 20
113.6375767724913
 30
0.0
 11
-388.3170678985208
 21
113.6375767724913
 31
0.0
  0
LINE
  5
DB
330
1F
100
AcDbEntity
  8
B-0
  6
Continuous
 62
     3
370
     9
100
AcDbLine
 10
-393.3170911696469
 20
300.6374066281561
 30
0.0
 11
-393.3170911696469
 21
126.6374390899043
 31
0.0
  0
LINE
  5
DC
330
1F
100
AcDbEntity
  8
B-0
  6
Continuous
 62
     3
370
     9
100
AcDbLine
 10
-401.3170540831304
 20
300.6374066281561
 30
0.0
 11
-401.3170540831304
 21
126.6374390899043
 31
0.0
  0
LINE
  5
DD
330
1F
100
AcDbEntity
  8
B-0
  6
Continuous
 62
     3
370
     9
100
AcDbLine
 10
-249.3170155237577
 20
263.6372839687012
 30
0.0
 11
-249.3170155237577
 21
123.1374475735554
 31
0.0
  0
LINE
  5
DE
330
1F
100
AcDbEntity
  8
B-0
  6
Continuous
 62
     3
370
     9
100
AcDbLine
 10
-251.3169752853296
 20
265.6374914646668
 30
0.0
 11
-391.8170594148693
 21
265.6374914646668
 31
0.0
  0
LINE
  5
DF
330
1F
100
AcDbEntity
  8
B-0
  6
Continuous
 62
     3
370
     9
100
AcDbLine
 10
-212.3170167314997
 20
300.6374066281561
 30
0.0
 11
-212.3170167314997
 21
123.6373755803499
 31
0.0
  0
LINE
  5
E0
330
1F
100
AcDbEntity
  8
B-0
  6
Continuous
 62
     3
370
     9
100
AcDbLine
 10
-214.3171003602684
 20
302.6376141241216
 30
0.0
 11
-391.3171314080749
 21
302.6376141241216
 31
0.0
  0
LINE
  5
E1
330
1F
100
AcDbEntity
  8
B-0
  6
Continuous
 62
     3
370
     9
100
AcDbLine
 10
-213.8260907916525
 20
113.5763863772097
 30
0.0
 11
-249.3170155237577
 21
112.1372972833202
 31
0.0
  0
LINE
  5
E2
330
1F
100
AcDbEntity
  8
B-0
  6
Continuous
 62
     3
370
     9
100
AcDbLine
 10
-249.3170155237577
 20
123.1374475735554
 30
0.0
 11
-213.8260907916525
 21
121.6986062140597
 31
0.0
  0
LINE
  5
E3
330
1F
100
AcDbEntity
  8
B-0
  6
Continuous
 62
     3
370
     9
100
AcDbLine
 10
-393.255900774365
 20
301.128416196772
 30
0.0
 11
-391.8170594148693
 21
265.6374914646668
 31
0.0
  0
LINE
  5
E4
330
1F
100
AcDbEntity
  8
B-0
  6
Continuous
 62
     3
370
     9
100
AcDbLine
 10
-401.3782444784123
 20
301.128416196772
 30
0.0
 11
-402.8169619707107
 21
265.6374914646668
 31
0.0
  0
LINE
  5
E5
330
1F
100
AcDbEntity
  8
B-1
  6
Continuous
 62
     2
370
     9
100
AcDbLine
 10
-113.3170266585499
 20
100.1375387138901
 30
0.0
 11
-136.316935518215
 21
100.1375387138901
 31
0.0
  0
LINE
  5
E6
330
1F
100
AcDbEntity
  8
B-1
  6
Continuous
 62
     2
370
     9
100
AcDbLine
 10
-113.3170266585499
 20
90.13749217163769
 30
0.0
 11
-136.316935518215
 21
90.13749217163769
 31
0.0
  0
LINE
  5
E7
330
1F
100
AcDbEntity
  8
B-1
  6
Continuous
 62
     2
370
     9
100
AcDbLine
 10
-113.3170266585499
 20
90.13749217163769
 30
0.0
 11
-115.3169864201219
 21
89.63756416484321
 31
0.0
  0
LINE
  5
E8
330
1F
100
AcDbEntity
  8
B-1
  6
Continuous
 62
     2
370
     9
100
AcDbLine
 10
-115.3169864201219
 20
89.63756416484321
 30
0.0
 11
-136.316935518215
 21
86.63750065528879
 31
0.0
  0
LINE
  5
E9
330
1F
100
AcDbEntity
  8
B-1
  6
Continuous
 62
     2
370
     9
100
AcDbLine
 10
-113.3170266585499
 20
100.1375387138901
 30
0.0
 11
-115.3169864201219
 21
100.6374667206845
 31
0.0
  0
LINE
  5
EA
330
1F
100
AcDbEntity
  8
B-1
  6
Continuous
 62
     2
370
     9
100
AcDbLine
 10
-115.3169864201219
 20
100.6374667206845
 30
0.0
 11
-136.316935518215
 21
103.6372824958452
 31
0.0
  0
LINE
  5
EB
330
1F
100
AcDbEntity
  8
B-1
  6
Continuous
 62
     2
370
     9
100
AcDbLine
 10
-115.3169864201219
 20
89.63756416484321
 30
0.0
 11
-115.3169864201219
 21
-24.36261958868224
 31
0.0
  0
LINE
  5
EC
330
1F
100
AcDbEntity
  8
B-1
  6
Continuous
 62
     2
370
     9
100
AcDbLine
 10
-113.3170266585499
 20
90.13749217163769
 30
0.0
 11
-113.3170266585499
 21
-24.86254759547672
 31
0.0
  0
LINE
  5
ED
330
1F
100
AcDbEntity
  8
B-1
  6
Continuous
 62
     2
370
     9
100
AcDbLine
 10
-414.8170921417317
 20
378.6373237358155
 30
0.0
 11
-414.8170921417317
 21
401.6374803298746
 31
0.0
  0
LINE
  5
EE
330
1F
100
AcDbEntity
  8
B-1
  6
Continuous
 62
     2
370
     9
100
AcDbLine
 10
-424.8170148167872
 20
401.6374803298746
 30
0.0
 11
-424.8170148167872
 21
378.6373237358155
 31
0.0
  0
LINE
  5
EF
330
1F
100
AcDbEntity
  8
B-1
  6
Continuous
 62
     2
370
     9
100
AcDbLine
 10
-414.8170921417317
 20
401.6374803298746
 30
0.0
 11
-414.31704026774
 21
399.6375205683029
 31
0.0
  0
LINE
  5
F0
330
1F
100
AcDbEntity
  8
B-1
  6
Continuous
 62
     2
370
     9
100
AcDbLine
 10
-414.31704026774
 20
399.6375205683029
 30
0.0
 11
-411.3171006253826
 21
378.6373237358155
 31
0.0
  0
LINE
  5
F1
330
1F
100
AcDbEntity
  8
B-1
  6
Continuous
 62
     2
370
     9
100
AcDbLine
 10
-428.3170063331362
 20
378.6373237358155
 30
0.0
 11
-425.3170666907782
 21
399.6375205683029
 31
0.0
  0
LINE
  5
F2
330
1F
100
AcDbEntity
  8
B-1
  6
Continuous
 62
     2
370
     9
100
AcDbLine
 10
-425.3170666907782
 20
399.6375205683029
 30
0.0
 11
-424.8170148167872
 21
401.6374803298746
 31
0.0
  0
LINE
  5
F3
330
1F
100
AcDbEntity
  8
B-1
  6
Continuous
 62
     2
370
     9
100
AcDbLine
 10
-115.3169864201219
 20
287.6375443107431
 30
0.0
 11
-115.3169864201219
 21
367.6374211799743
 31
0.0
  0
LINE
  5
F4
330
1F
100
AcDbEntity
  8
B-1
  6
Continuous
 62
     2
370
     9
100
AcDbLine
 10
-118.317049929676
 20
284.6374808011887
 30
0.0
 11
-136.316935518215
 21
284.6374808011887
 31
0.0
  0
LINE
  5
F5
330
1F
100
AcDbEntity
  8
B-1
  6
Continuous
 62
     2
370
     9
100
AcDbLine
 10
-113.3170266585499
 20
285.6375845491714
 30
0.0
 11
-113.3170266585499
 21
367.6374211799743
 31
0.0
  0
LINE
  5
F6
330
1F
100
AcDbEntity
  8
B-1
  6
Continuous
 62
     2
370
     9
100
AcDbLine
 10
-116.3170901681046
 20
282.637521039617
 30
0.0
 11
-136.316935518215
 21
282.637521039617
 31
0.0
  0
LINE
  5
F7
330
1F
100
AcDbEntity
  8
B-1
  6
Continuous
 62
     2
370
     9
100
AcDbLine
 10
-115.3169864201219
 20
227.6375127916228
 30
0.0
 11
-115.3169864201219
 21
100.6374667206845
 31
0.0
  0
LINE
  5
F8
330
1F
100
AcDbEntity
  8
B-1
  6
Continuous
 62
     2
370
     9
100
AcDbLine
 10
-118.317049929676
 20
230.6375763011774
 30
0.0
 11
-136.316935518215
 21
230.6375763011774
 31
0.0
  0
LINE
  5
F9
330
1F
100
AcDbEntity
  8
B-1
  6
Continuous
 62
     2
370
     9
100
AcDbLine
 10
-113.3170266585499
 20
229.6374725531947
 30
0.0
 11
-113.3170266585499
 21
100.1375387138901
 31
0.0
  0
LINE
  5
FA
330
1F
100
AcDbEntity
  8
B-1
  6
Continuous
 62
     2
370
     9
100
AcDbLine
 10
-116.3170901681046
 20
232.6375360627491
 30
0.0
 11
-136.316935518215
 21
232.6375360627491
 31
0.0
  0
LINE
  5
FB
330
1F
100
AcDbEntity
  8
B-1
  6
Continuous
 62
     2
370
     9
100
AcDbLine
 10
-230.317026187236
 20
396.6374570587485
 30
0.0
 11
-230.317026187236
 21
378.6373237358155
 31
0.0
  0
LINE
  5
FC
330
1F
100
AcDbEntity
  8
B-1
  6
Continuous
 62
     2
370
     9
100
AcDbLine
 10
-232.3171098160047
 20
398.6374168203202
 30
0.0
 11
-232.3171098160047
 21
378.6373237358155
 31
0.0
  0
LINE
  5
FD
330
1F
100
AcDbEntity
  8
B-1
  6
Continuous
 62
     2
370
     9
100
AcDbLine
 10
-284.3170545544443
 20
396.6374570587485
 30
0.0
 11
-284.3170545544443
 21
378.6373237358155
 31
0.0
  0
LINE
  5
FE
330
1F
100
AcDbEntity
  8
B-1
  6
Continuous
 62
     2
370
     9
100
AcDbLine
 10
-282.3169709256755
 20
398.6374168203202
 30
0.0
 11
-282.3169709256755
 21
378.6373237358155
 31
0.0
  0
LINE
  5
FF
330
1F
100
AcDbEntity
  8
B-1
  6
Continuous
 62
     2
370
     9
100
AcDbLine
 10
-147.3169619412532
 20
399.6375205683029
 30
0.0
 11
-227.3170865448786
 21
399.6375205683029
 31
0.0
  0
LINE
  5
100
330
1F
100
AcDbEntity
  8
B-1
  6
Continuous
 62
     2
370
     9
100
AcDbLine
 10
-287.3169941968017
 20
399.6375205683029
 30
0.0
 11
-414.31704026774
 21
399.6375205683029
 31
0.0
  0
LINE
  5
101
330
1F
100
AcDbEntity
  8
B-1
  6
Continuous
 62
     2
370
     9
100
AcDbLine
 10
-147.3169619412532
 20
401.6374803298746
 30
0.0
 11
-229.31704630645
 21
401.6374803298746
 31
0.0
  0
LINE
  5
102
330
1F
100
AcDbEntity
  8
B-1
  6
Continuous
 62
     2
370
     9
100
AcDbLine
 10
-284.3170545544443
 20
401.6374803298746
 30
0.0
 11
-414.8170921417317
 21
401.6374803298746
 31
0.0
  0
LINE
  5
103
330
1F
100
AcDbEntity
  8
B-0
  6
Continuous
 62
     3
370
     9
100
AcDbLine
 10
-461.3170856022502
 20
353.6377028489725
 30
0.0
 11
-461.3170856022508
 21
286.6374405627604
 31
0.0
  0
LINE
  5
104
330
1F
100
AcDbEntity
  8
B-0
  6
Continuous
 62
     3
370
     9
100
AcDbLine
 10
-403.3170138447018
 20
302.6376141241216
 30
0.0
 11
-461.3170856022508
 21
302.6376141241216
 31
0.0
  0
LINE
  5
105
330
1F
100
AcDbEntity
  8
B-1
  6
Continuous
 62
     2
370
     9
100
AcDbLine
 10
-136.3169355182155
 20
-313.3626268940485
 30
0.0
 11
-148.3169418220397
 21
-301.3626205902243
 31
0.0
  0
LINE
  5
106
330
1F
100
AcDbEntity
  8
B-0
  6
Continuous
 62
     3
370
     9
100
AcDbLine
 10
-149.3170455700225
 20
-300.3625168422416
 30
0.0
 11
-161.3170518738461
 21
-288.3627582728114
 31
0.0
  0
LINE
  5
107
330
1F
100
AcDbEntity
  8
B-0
  6
Continuous
 62
     3
370
     9
100
AcDbLine
 10
-391.8170594148693
 20
-62.86252626852063
 30
0.0
 11
-391.8170594148693
 21
-200.3625468885055
 31
0.0
  0
LINE
  5
108
330
1F
100
AcDbEntity
  8
B-0
  6
Continuous
 62
     3
370
     9
100
AcDbLine
 10
-386.8170361437432
 20
-57.8627507317883
 30
0.0
 11
-249.3170155237577
 21
-57.8627507317883
 31
0.0
  0
LINE
  5
109
330
1F
100
AcDbEntity
  8
B-0
  6
Continuous
 62
     3
370
     9
100
AcDbLine
 10
-386.8170361437432
 20
-46.86260044155306
 30
0.0
 11
-249.3170155237577
 21
-46.86260044155306
 31
0.0
  0
LINE
  5
10A
330
1F
100
AcDbEntity
  8
B-0
  6
Continuous
 62
     3
370
     9
100
AcDbLine
 10
-402.8169619707107
 20
-62.86252626852063
 30
0.0
 11
-402.8169619707107
 21
-200.3625468885055
 31
0.0
  0
LINE
  5
10B
330
1F
100
AcDbEntity
  8
B-0
  6
Continuous
 62
     3
370
     9
100
AcDbLine
 10
-214.3171003602684
 20
-56.36247124261716
 30
0.0
 11
-388.3170678985208
 21
-56.36247124261716
 31
0.0
  0
LINE
  5
10C
330
1F
100
AcDbEntity
  8
B-0
  6
Continuous
 62
     3
370
     9
100
AcDbLine
 10
-214.3171003602684
 20
-48.36263219633041
 30
0.0
 11
-388.3170678985208
 21
-48.36263219633041
 31
0.0
  0
LINE
  5
10D
330
1F
100
AcDbEntity
  8
B-0
  6
Continuous
 62
     3
370
     9
100
AcDbLine
 10
-393.3170911696469
 20
-235.3627097863888
 30
0.0
 11
-393.3170911696469
 21
-61.36249451374327
 31
0.0
  0
LINE
  5
10E
330
1F
100
AcDbEntity
  8
B-0
  6
Continuous
 62
     3
370
     9
100
AcDbLine
 10
-401.3170540831304
 20
-235.3627097863888
 30
0.0
 11
-401.3170540831304
 21
-61.36249451374327
 31
0.0
  0
LINE
  5
10F
330
1F
100
AcDbEntity
  8
B-0
  6
Continuous
 62
     3
370
     9
100
AcDbLine
 10
-249.3170155237577
 20
-198.3625871269341
 30
0.0
 11
-249.3170155237577
 21
-57.8627507317883
 31
0.0
  0
LINE
  5
110
330
1F
100
AcDbEntity
  8
B-0
  6
Continuous
 62
     3
370
     9
100
AcDbLine
 10
-251.3169752853296
 20
-200.3625468885055
 30
0.0
 11
-391.8170594148693
 21
-200.3625468885055
 31
0.0
  0
LINE
  5
111
330
1F
100
AcDbEntity
  8
B-0
  6
Continuous
 62
     3
370
     9
100
AcDbLine
 10
-212.3170167315002
 20
-235.3627097863888
 30
0.0
 11
-212.3170167315002
 21
-58.36267873858263
 31
0.0
  0
LINE
  5
112
330
1F
100
AcDbEntity
  8
B-0
  6
Continuous
 62
     3
370
     9
100
AcDbLine
 10
-214.317100360269
 20
-237.3626695479608
 30
0.0
 11
-391.3171314080749
 21
-237.3626695479608
 31
0.0
  0
LINE
  5
113
330
1F
100
AcDbEntity
  8
B-0
  6
Continuous
 62
     3
370
     9
100
AcDbLine
 10
-213.8260907916525
 20
-48.30144180104882
 30
0.0
 11
-249.3170155237577
 21
-46.86260044155306
 31
0.0
  0
LINE
  5
114
330
1F
100
AcDbEntity
  8
B-0
  6
Continuous
 62
     3
370
     9
100
AcDbLine
 10
-249.3170155237577
 20
-57.8627507317883
 30
0.0
 11
-213.8260907916525
 21
-56.42366163789875
 31
0.0
  0
LINE
  5
115
330
1F
100
AcDbEntity
  8
B-0
  6
Continuous
 62
     3
370
     9
100
AcDbLine
 10
-393.255900774365
 20
-235.8534716206107
 30
0.0
 11
-391.8170594148693
 21
-200.3625468885055
 31
0.0
  0
LINE
  5
116
330
1F
100
AcDbEntity
  8
B-0
  6
Continuous
 62
     3
370
     9
100
AcDbLine
 10
-401.3782444784123
 20
-235.8534716206107
 30
0.0
 11
-402.8169619707107
 21
-200.3625468885055
 31
0.0
  0
LINE
  5
117
330
1F
100
AcDbEntity
  8
B-1
  6
Continuous
 62
     2
370
     9
100
AcDbLine
 10
-113.3170266585499
 20
-34.86259413772915
 30
0.0
 11
-136.316935518215
 21
-34.86259413772915
 31
0.0
  0
LINE
  5
118
330
1F
100
AcDbEntity
  8
B-1
  6
Continuous
 62
     2
370
     9
100
AcDbLine
 10
-113.3170266585499
 20
-24.86254759547672
 30
0.0
 11
-136.316935518215
 21
-24.86254759547672
 31
0.0
  0
LINE
  5
119
330
1F
100
AcDbEntity
  8
B-1
  6
Continuous
 62
     2
370
     9
100
AcDbLine
 10
-113.3170266585499
 20
-24.86254759547672
 30
0.0
 11
-115.3169864201219
 21
-24.36261958868224
 31
0.0
  0
LINE
  5
11A
330
1F
100
AcDbEntity
  8
B-1
  6
Continuous
 62
     2
370
     9
100
AcDbLine
 10
-115.3169864201219
 20
-24.36261958868224
 30
0.0
 11
-136.316935518215
 21
-21.36255607912767
 31
0.0
  0
LINE
  5
11B
330
1F
100
AcDbEntity
  8
B-1
  6
Continuous
 62
     2
370
     9
100
AcDbLine
 10
-113.3170266585499
 20
-34.86259413772915
 30
0.0
 11
-115.3169864201219
 21
-35.36252214452348
 31
0.0
  0
LINE
  5
11C
330
1F
100
AcDbEntity
  8
B-1
  6
Continuous
 62
     2
370
     9
100
AcDbLine
 10
-115.3169864201219
 20
-35.36252214452348
 30
0.0
 11
-136.316935518215
 21
-38.3625856540779
 31
0.0
  0
LINE
  5
11D
330
1F
100
AcDbEntity
  8
B-1
  6
Continuous
 62
     2
370
     9
100
AcDbLine
 10
-414.8170921417317
 20
-313.3626268940485
 30
0.0
 11
-414.8170921417317
 21
-336.3625357537142
 31
0.0
  0
LINE
  5
11E
330
1F
100
AcDbEntity
  8
B-1
  6
Continuous
 62
     2
370
     9
100
AcDbLine
 10
-424.8170148167872
 20
-336.3625357537142
 30
0.0
 11
-424.8170148167872
 21
-313.3626268940485
 31
0.0
  0
LINE
  5
11F
330
1F
100
AcDbEntity
  8
B-1
  6
Continuous
 62
     2
370
     9
100
AcDbLine
 10
-414.8170921417317
 20
-336.3625357537142
 30
0.0
 11
-414.3170402677406
 21
-334.3625759921422
 31
0.0
  0
LINE
  5
120
330
1F
100
AcDbEntity
  8
B-1
  6
Continuous
 62
     2
370
     9
100
AcDbLine
 10
-414.3170402677406
 20
-334.3625759921422
 30
0.0
 11
-411.3171006253826
 21
-313.3626268940485
 31
0.0
  0
LINE
  5
121
330
1F
100
AcDbEntity
  8
B-1
  6
Continuous
 62
     2
370
     9
100
AcDbLine
 10
-428.3170063331362
 20
-313.3626268940485
 30
0.0
 11
-425.3170666907788
 21
-334.3625759921422
 31
0.0
  0
LINE
  5
122
330
1F
100
AcDbEntity
  8
B-1
  6
Continuous
 62
     2
370
     9
100
AcDbLine
 10
-425.3170666907788
 20
-334.3625759921422
 30
0.0
 11
-424.8170148167872
 21
-336.3625357537142
 31
0.0
  0
LINE
  5
123
330
1F
100
AcDbEntity
  8
B-1
  6
Continuous
 62
     2
370
     9
100
AcDbLine
 10
-115.3169864201219
 20
-222.3625997345819
 30
0.0
 11
-115.3169864201219
 21
-302.362724338207
 31
0.0
  0
LINE
  5
124
330
1F
100
AcDbEntity
  8
B-1
  6
Continuous
 62
     2
370
     9
100
AcDbLine
 10
-118.317049929676
 20
-219.3627839594213
 30
0.0
 11
-136.316935518215
 21
-219.3627839594213
 31
0.0
  0
LINE
  5
125
330
1F
100
AcDbEntity
  8
B-1
  6
Continuous
 62
     2
370
     9
100
AcDbLine
 10
-113.3170266585499
 20
-220.3626399730105
 30
0.0
 11
-113.3170266585499
 21
-302.362724338207
 31
0.0
  0
LINE
  5
126
330
1F
100
AcDbEntity
  8
B-1
  6
Continuous
 62
     2
370
     9
100
AcDbLine
 10
-116.3170901681046
 20
-217.3625764634558
 30
0.0
 11
-136.316935518215
 21
-217.3625764634558
 31
0.0
  0
LINE
  5
127
330
1F
100
AcDbEntity
  8
B-1
  6
Continuous
 62
     2
370
     9
100
AcDbLine
 10
-115.3169864201219
 20
-162.3625682154618
 30
0.0
 11
-115.3169864201219
 21
-35.36252214452348
 31
0.0
  0
LINE
  5
128
330
1F
100
AcDbEntity
  8
B-1
  6
Continuous
 62
     2
370
     9
100
AcDbLine
 10
-118.317049929676
 20
-165.3626317250162
 30
0.0
 11
-136.316935518215
 21
-165.3626317250162
 31
0.0
  0
LINE
  5
129
330
1F
100
AcDbEntity
  8
B-1
  6
Continuous
 62
     2
370
     9
100
AcDbLine
 10
-113.3170266585499
 20
-164.3625279770335
 30
0.0
 11
-113.3170266585499
 21
-34.86259413772915
 31
0.0
  0
LINE
  5
12A
330
1F
100
AcDbEntity
  8
B-1
  6
Continuous
 62
     2
370
     9
100
AcDbLine
 10
-116.3170901681046
 20
-167.3625914865882
 30
0.0
 11
-136.316935518215
 21
-167.3625914865882
 31
0.0
  0
LINE
  5
12B
330
1F
100
AcDbEntity
  8
B-1
  6
Continuous
 62
     2
370
     9
100
AcDbLine
 10
-230.317026187236
 20
-331.3627602169815
 30
0.0
 11
-230.317026187236
 21
-313.3626268940485
 31
0.0
  0
LINE
  5
12C
330
1F
100
AcDbEntity
  8
B-1
  6
Continuous
 62
     2
370
     9
100
AcDbLine
 10
-232.3171098160047
 20
-333.3627199785535
 30
0.0
 11
-232.3171098160047
 21
-313.3626268940485
 31
0.0
  0
LINE
  5
12D
330
1F
100
AcDbEntity
  8
B-1
  6
Continuous
 62
     2
370
     9
100
AcDbLine
 10
-284.3170545544443
 20
-331.3627602169815
 30
0.0
 11
-284.3170545544443
 21
-313.3626268940485
 31
0.0
  0
LINE
  5
12E
330
1F
100
AcDbEntity
  8
B-1
  6
Continuous
 62
     2
370
     9
100
AcDbLine
 10
-282.3169709256755
 20
-333.3627199785535
 30
0.0
 11
-282.3169709256755
 21
-313.3626268940485
 31
0.0
  0
LINE
  5
12F
330
1F
100
AcDbEntity
  8
B-1
  6
Continuous
 62
     2
370
     9
100
AcDbLine
 10
-147.3169619412537
 20
-334.3625759921422
 30
0.0
 11
-227.3170865448786
 21
-334.3625759921422
 31
0.0
  0
LINE
  5
130
330
1F
100
AcDbEntity
  8
B-1
  6
Continuous
 62
     2
370
     9
100
AcDbLine
 10
-287.3169941968022
 20
-334.3625759921422
 30
0.0
 11
-414.3170402677406
 21
-334.3625759921422
 31
0.0
  0
LINE
  5
131
330
1F
100
AcDbEntity
  8
B-1
  6
Continuous
 62
     2
370
     9
100
AcDbLine
 10
-147.3169619412537
 20
-336.3625357537142
 30
0.0
 11
-229.3170463064505
 21
-336.3625357537142
 31
0.0
  0
LINE
  5
132
330
1F
100
AcDbEntity
  8
B-1
  6
Continuous
 62
     2
370
     9
100
AcDbLine
 10
-284.3170545544443
 20
-336.3625357537142
 30
0.0
 11
-414.8170921417317
 21
-336.3625357537142
 31
0.0
  0
LINE
  5
133
330
1F
100
AcDbEntity
  8
B-0
  6
Continuous
 62
     3
370
     9
100
AcDbLine
 10
-461.3170856022508
 20
-288.3627582728114
 30
0.0
 11
-461.3170856022508
 21
-221.3624959865992
 31
0.0
  0
LINE
  5
134
330
1F
100
AcDbEntity
  8
B-0
  6
Continuous
 62
     3
370
     9
100
AcDbLine
 10
-403.3170138447018
 20
-237.3626695479608
 30
0.0
 11
-461.3170856022508
 21
-237.3626695479608
 31
0.0
  0
LINE
  5
135
330
1F
100
AcDbEntity
  8
B-0
  6
JWW_CENTER1
 62
     3
370
     9
100
AcDbLine
 10
-872.3425084827987
 20
32.6373484208836
 30
0.0
 11
-77.59892948728219
 21
32.6373484208836
 31
0.0
  0
LINE
  5
136
330
1F
100
AcDbEntity
  8
B-0
  6
JWW_CENTER1
 62
     3
370
     9
100
AcDbLine
 10
-510.1902506886801
 20
320.1375717058665
 30
0.0
 11
-449.7435540574439
 21
320.1375717058665
 31
0.0
  0
LINE
  5
137
330
1F
100
AcDbEntity
  8
B-0
  6
Continuous
 62
     3
370
     9
100
AcDbLine
 10
-168.3170349065442
 20
-276.3627519689873
 30
0.0
 11
-168.3170349065442
 21
341.6374488107545
 31
0.0
  0
LINE
  5
138
330
1F
100
AcDbEntity
  8
B-0
  6
Continuous
 62
     3
370
     9
100
AcDbLine
 10
-173.3170581776703
 20
-281.3625275057199
 30
0.0
 11
-461.3170856022508
 21
-281.3625275057199
 31
0.0
  0
LINE
  5
139
330
1F
100
AcDbEntity
  8
B-0
  6
Continuous
 62
     3
370
     9
100
AcDbLine
 10
-173.3170581776703
 20
346.6374720818806
 30
0.0
 11
-461.3170856022502
 21
346.6374720818806
 31
0.0
  0
LINE
  5
13A
330
1F
100
AcDbEntity
  8
B-0
  6
Continuous
 62
     3
370
     9
100
AcDbLine
 10
-796.3172822285383
 20
-276.3627519689873
 30
0.0
 11
-796.3172822285383
 21
341.6374488107545
 31
0.0
  0
LINE
  5
13B
330
1F
100
AcDbEntity
  8
B-0
  6
Continuous
 62
     3
370
     9
100
AcDbLine
 10
-791.3173828246089
 20
-281.3625275057195
 30
0.0
 11
-503.3171076656349
 21
-281.3625275057199
 31
0.0
  0
LINE
  5
13C
330
1F
100
AcDbEntity
  8
B-0
  6
Continuous
 62
     3
370
     9
100
AcDbLine
 10
-791.3173828246089
 20
346.6374720818806
 30
0.0
 11
-503.3171076656349
 21
346.6374720818806
 31
0.0
  0
LINE
  5
13D
330
1F
100
AcDbEntity
  8
B-0
  6
Continuous
 62
     3
370
     9
100
AcDbLine
 10
-714.731409769863
 20
-199.7769027814384
 30
0.0
 11
-751.7312846949243
 21
-236.7767777064994
 31
0.0
  0
LINE
  5
13E
330
1F
100
AcDbEntity
  8
B-0
  6
Continuous
 62
     3
370
     9
100
AcDbLine
 10
-714.731409769863
 20
265.0515996232054
 30
0.0
 11
-751.7312846949243
 21
302.0517222826604
 31
0.0
  0
LINE
  5
13F
330
1F
100
AcDbEntity
  8
B-0
  6
Continuous
 62
     3
370
     9
100
AcDbLine
 10
-249.9029073652194
 20
265.0515996232054
 30
0.0
 11
-212.9029085729614
 21
302.0517222826604
 31
0.0
  0
LINE
  5
140
330
1F
100
AcDbEntity
  8
B-0
  6
Continuous
 62
     3
370
     9
100
AcDbLine
 10
-212.9029085729614
 20
-236.7767777064994
 30
0.0
 11
-249.9029073652194
 21
-199.7769027814384
 31
0.0
  0
LINE
  5
141
330
1F
100
AcDbEntity
  8
B-0
  6
Continuous
 62
     3
370
     9
100
AcDbLine
 10
-491.7391169017388
 20
-261.4560780220911
 30
0.0
 11
-475.7234599407615
 21
-245.4407926627049
 31
0.0
  0
LINE
  5
142
330
1F
100
AcDbEntity
  8
B-0
  6
Continuous
 62
     3
370
     9
100
AcDbLine
 10
-488.910857194321
 20
-264.2847093310997
 30
0.0
 11
-472.8950763661469
 21
-248.2689285029257
 31
0.0
  0
LINE
  5
143
330
1F
100
AcDbEntity
  8
B-0
  6
Continuous
 62
     3
370
     9
100
AcDbLine
 10
-491.7391169017388
 20
313.5438730790867
 30
0.0
 11
-475.7234599407615
 21
329.5594061728668
 31
0.0
  0
LINE
  5
144
330
1F
100
AcDbEntity
  8
B-0
  6
Continuous
 62
     3
370
     9
100
AcDbLine
 10
-488.910857194321
 20
310.7154895044721
 30
0.0
 11
-472.8950763661469
 21
326.7310225982522
 31
0.0
  0
LINE
  5
145
330
1F
100
AcDbEntity
  8
B-0
  6
Continuous
 62
     2
370
     9
100
AcDbLine
 10
-902.3168837325953
 20
-204.8623944184435
 30
0.0
 11
-844.8172354506288
 21
-204.8623944184435
 31
0.0
  0
LINE
  5
146
330
1F
100
AcDbEntity
  8
B-0
  6
Continuous
 62
     2
370
     9
100
AcDbLine
 10
-902.3168837325953
 20
-204.8623944184435
 30
0.0
 11
-902.3168837325953
 21
-179.8620303284189
 31
0.0
  0
LINE
  5
147
330
1F
100
AcDbEntity
  8
B-0
  6
Continuous
 62
     2
370
     9
100
AcDbLine
 10
-902.3168837325953
 20
-179.8620303284189
 30
0.0
 11
-844.8172354506288
 21
-179.8620303284189
 31
0.0
  0
LINE
  5
148
330
1F
100
AcDbEntity
  8
B-0
  6
Continuous
 62
     2
370
     9
100
AcDbLine
 10
-837.3173244111364
 20
-192.3627078422187
 30
0.0
 11
-841.070005009215
 21
-185.8624050819215
 31
0.0
  0
LINE
  5
149
330
1F
100
AcDbEntity
  8
B-0
  6
Continuous
 62
     2
370
     9
100
AcDbLine
 10
-837.3173244111364
 20
-192.3627078422187
 30
0.0
 11
-841.070005009215
 21
-198.8622673993346
 31
0.0
  0
LINE
  5
14A
330
1F
100
AcDbEntity
  8
B-0
  6
Continuous
 62
     2
370
     9
100
AcDbLine
 10
-841.070005009215
 20
-198.8622673993346
 30
0.0
 11
-848.5644658920431
 21
-198.8622673993346
 31
0.0
  0
LINE
  5
14B
330
1F
100
AcDbEntity
  8
B-0
  6
Continuous
 62
     2
370
     9
100
AcDbLine
 10
-852.3171464901212
 20
-192.3627078422187
 30
0.0
 11
-848.5644658920431
 21
-198.8622673993346
 31
0.0
  0
LINE
  5
14C
330
1F
100
AcDbEntity
  8
B-0
  6
Continuous
 62
     2
370
     9
100
AcDbLine
 10
-852.3171464901212
 20
-192.3627078422187
 30
0.0
 11
-848.5644658920431
 21
-185.8624050819215
 31
0.0
  0
LINE
  5
14D
330
1F
100
AcDbEntity
  8
B-0
  6
Continuous
 62
     2
370
     9
100
AcDbLine
 10
-841.070005009215
 20
-185.8624050819215
 30
0.0
 11
-848.5644658920431
 21
-185.8624050819215
 31
0.0
  0
LINE
  5
14E
330
1F
100
AcDbEntity
  8
B-1
  6
JWW_CENTER1
 62
     2
370
     9
100
AcDbLine
 10
-921.0374286728517
 20
-192.3627078422187
 30
0.0
 11
-830.4793596720184
 21
-192.3627078422187
 31
0.0
  0
LINE
  5
14F
330
1F
100
AcDbEntity
  8
B-1
  6
JWW_CENTER1
 62
     2
370
     9
100
AcDbLine
 10
-844.8172354506288
 20
240.6998041762868
 30
0.0
 11
-844.8172354506288
 21
275.1921115667722
 31
0.0
  0
LINE
  5
150
330
1F
100
AcDbEntity
  8
B-0
  6
Continuous
 62
     2
370
     9
100
AcDbLine
 10
-902.3168837325953
 20
270.1370912602108
 30
0.0
 11
-844.8172354506288
 21
270.1370912602108
 31
0.0
  0
LINE
  5
151
330
1F
100
AcDbEntity
  8
B-0
  6
Continuous
 62
     2
370
     9
100
AcDbLine
 10
-902.3168837325953
 20
270.1370912602108
 30
0.0
 11
-902.3168837325953
 21
245.136727170186
 31
0.0
  0
LINE
  5
152
330
1F
100
AcDbEntity
  8
B-0
  6
Continuous
 62
     2
370
     9
100
AcDbLine
 10
-902.3168837325953
 20
245.136727170186
 30
0.0
 11
-844.8172354506288
 21
245.136727170186
 31
0.0
  0
LINE
  5
153
330
1F
100
AcDbEntity
  8
B-0
  6
Continuous
 62
     2
370
     9
100
AcDbLine
 10
-837.3173244111364
 20
257.6374046839862
 30
0.0
 11
-841.070005009215
 21
251.1371019236889
 31
0.0
  0
LINE
  5
154
330
1F
100
AcDbEntity
  8
B-0
  6
Continuous
 62
     2
370
     9
100
AcDbLine
 10
-837.3173244111364
 20
257.6374046839862
 30
0.0
 11
-841.070005009215
 21
264.1369642411018
 31
0.0
  0
LINE
  5
155
330
1F
100
AcDbEntity
  8
B-0
  6
Continuous
 62
     2
370
     9
100
AcDbLine
 10
-841.070005009215
 20
264.1369642411018
 30
0.0
 11
-848.5644658920431
 21
264.1369642411018
 31
0.0
  0
LINE
  5
156
330
1F
100
AcDbEntity
  8
B-0
  6
Continuous
 62
     2
370
     9
100
AcDbLine
 10
-852.3171464901212
 20
257.6374046839862
 30
0.0
 11
-848.5644658920431
 21
264.1369642411018
 31
0.0
  0
LINE
  5
157
330
1F
100
AcDbEntity
  8
B-0
  6
Continuous
 62
     2
370
     9
100
AcDbLine
 10
-852.3171464901212
 20
257.6374046839862
 30
0.0
 11
-848.5644658920431
 21
251.1371019236889
 31
0.0
  0
LINE
  5
158
330
1F
100
AcDbEntity
  8
B-0
  6
Continuous
 62
     2
370
     9
100
AcDbLine
 10
-841.070005009215
 20
251.1371019236889
 30
0.0
 11
-848.5644658920431
 21
251.1371019236889
 31
0.0
  0
LINE
  5
159
330
1F
100
AcDbEntity
  8
B-1
  6
JWW_CENTER1
 62
     2
370
     9
100
AcDbLine
 10
-921.0374286728517
 20
257.6374046839862
 30
0.0
 11
-830.4793596720184
 21
257.6374046839862
 31
0.0
  0
LINE
  5
15A
330
1F
100
AcDbEntity
  8
B-1
  6
JWW_CENTER1
 62
     2
370
     9
100
AcDbLine
 10
-119.8168339500596
 20
-175.4251073345195
 30
0.0
 11
-119.8168339500596
 21
-209.9174147250049
 31
0.0
  0
LINE
  5
15B
330
1F
100
AcDbEntity
  8
B-0
  6
Continuous
 62
     2
370
     9
100
AcDbLine
 10
-62.3171856680936
 20
-204.8623944184435
 30
0.0
 11
-119.8168339500596
 21
-204.8623944184435
 31
0.0
  0
LINE
  5
15C
330
1F
100
AcDbEntity
  8
B-0
  6
Continuous
 62
     2
370
     9
100
AcDbLine
 10
-62.3171856680936
 20
-204.8623944184435
 30
0.0
 11
-62.3171856680936
 21
-179.8620303284189
 31
0.0
  0
LINE
  5
15D
330
1F
100
AcDbEntity
  8
B-0
  6
Continuous
 62
     2
370
     9
100
AcDbLine
 10
-62.3171856680936
 20
-179.8620303284189
 30
0.0
 11
-119.8168339500596
 21
-179.8620303284189
 31
0.0
  0
LINE
  5
15E
330
1F
100
AcDbEntity
  8
B-0
  6
Continuous
 62
     2
370
     9
100
AcDbLine
 10
-127.316744989552
 20
-192.3627078422187
 30
0.0
 11
-123.5640643914733
 21
-185.8624050819215
 31
0.0
  0
LINE
  5
15F
330
1F
100
AcDbEntity
  8
B-0
  6
Continuous
 62
     2
370
     9
100
AcDbLine
 10
-127.316744989552
 20
-192.3627078422187
 30
0.0
 11
-123.5640643914733
 21
-198.8622673993346
 31
0.0
  0
LINE
  5
160
330
1F
100
AcDbEntity
  8
B-0
  6
Continuous
 62
     2
370
     9
100
AcDbLine
 10
-123.5640643914733
 20
-198.8622673993346
 30
0.0
 11
-116.0696035086458
 21
-198.8622673993346
 31
0.0
  0
LINE
  5
161
330
1F
100
AcDbEntity
  8
B-0
  6
Continuous
 62
     2
370
     9
100
AcDbLine
 10
-112.3169229105671
 20
-192.3627078422187
 30
0.0
 11
-116.0696035086458
 21
-198.8622673993346
 31
0.0
  0
LINE
  5
162
330
1F
100
AcDbEntity
  8
B-0
  6
Continuous
 62
     2
370
     9
100
AcDbLine
 10
-112.3169229105671
 20
-192.3627078422187
 30
0.0
 11
-116.0696035086458
 21
-185.8624050819215
 31
0.0
  0
LINE
  5
163
330
1F
100
AcDbEntity
  8
B-0
  6
Continuous
 62
     2
370
     9
100
AcDbLine
 10
-123.5640643914733
 20
-185.8624050819215
 30
0.0
 11
-116.0696035086458
 21
-185.8624050819215
 31
0.0
  0
LINE
  5
164
330
1F
100
AcDbEntity
  8
B-1
  6
JWW_CENTER1
 62
     2
370
     9
100
AcDbLine
 10
-43.59664072783727
 20
-192.3627078422187
 30
0.0
 11
-134.15470972867
 21
-192.3627078422187
 31
0.0
  0
LINE
  5
165
330
1F
100
AcDbEntity
  8
B-1
  6
JWW_CENTER1
 62
     2
370
     9
100
AcDbLine
 10
-119.8168339500596
 20
240.6998041762868
 30
0.0
 11
-119.8168339500596
 21
275.1921115667722
 31
0.0
  0
LINE
  5
166
330
1F
100
AcDbEntity
  8
B-0
  6
Continuous
 62
     2
370
     9
100
AcDbLine
 10
-62.31718566809303
 20
270.1370912602108
 30
0.0
 11
-119.8168339500596
 21
270.1370912602108
 31
0.0
  0
LINE
  5
167
330
1F
100
AcDbEntity
  8
B-0
  6
Continuous
 62
     2
370
     9
100
AcDbLine
 10
-62.31718566809303
 20
270.1370912602108
 30
0.0
 11
-62.31718566809303
 21
245.136727170186
 31
0.0
  0
LINE
  5
168
330
1F
100
AcDbEntity
  8
B-0
  6
Continuous
 62
     2
370
     9
100
AcDbLine
 10
-62.31718566809303
 20
245.136727170186
 30
0.0
 11
-119.8168339500596
 21
245.136727170186
 31
0.0
  0
LINE
  5
169
330
1F
100
AcDbEntity
  8
B-0
  6
Continuous
 62
     2
370
     9
100
AcDbLine
 10
-127.316744989552
 20
257.6374046839862
 30
0.0
 11
-123.5640643914733
 21
251.1371019236889
 31
0.0
  0
LINE
  5
16A
330
1F
100
AcDbEntity
  8
B-0
  6
Continuous
 62
     2
370
     9
100
AcDbLine
 10
-127.316744989552
 20
257.6374046839862
 30
0.0
 11
-123.5640643914733
 21
264.1369642411018
 31
0.0
  0
LINE
  5
16B
330
1F
100
AcDbEntity
  8
B-0
  6
Continuous
 62
     2
370
     9
100
AcDbLine
 10
-123.5640643914733
 20
264.1369642411018
 30
0.0
 11
-116.0696035086458
 21
264.1369642411018
 31
0.0
  0
LINE
  5
16C
330
1F
100
AcDbEntity
  8
B-0
  6
Continuous
 62
     2
370
     9
100
AcDbLine
 10
-112.3169229105671
 20
257.6374046839862
 30
0.0
 11
-116.0696035086458
 21
264.1369642411018
 31
0.0
  0
LINE
  5
16D
330
1F
100
AcDbEntity
  8
B-0
  6
Continuous
 62
     2
370
     9
100
AcDbLine
 10
-112.3169229105671
 20
257.6374046839862
 30
0.0
 11
-116.0696035086458
 21
251.1371019236889
 31
0.0
  0
LINE
  5
16E
330
1F
100
AcDbEntity
  8
B-0
  6
Continuous
 62
     2
370
     9
100
AcDbLine
 10
-123.5640643914733
 20
251.1371019236889
 30
0.0
 11
-116.0696035086458
 21
251.1371019236889
 31
0.0
  0
LINE
  5
16F
330
1F
100
AcDbEntity
  8
B-1
  6
JWW_CENTER1
 62
     2
370
     9
100
AcDbLine
 10
-43.5966407278367
 20
257.6374046839862
 30
0.0
 11
-134.15470972867
 21
257.6374046839862
 31
0.0
  0
LINE
  5
170
330
1F
100
AcDbEntity
  8
B-1
  6
JWW_CENTER1
 62
     2
370
     9
100
AcDbLine
 10
-274.254578944941
 20
395.1375491711682
 30
0.0
 11
-239.7622715544553
 21
395.1375491711682
 31
0.0
  0
LINE
  5
171
330
1F
100
AcDbEntity
  8
B-0
  6
Continuous
 62
     2
370
     9
100
AcDbLine
 10
-244.8172918610167
 20
452.6371974531347
 30
0.0
 11
-244.8172918610167
 21
395.1375491711682
 31
0.0
  0
LINE
  5
172
330
1F
100
AcDbEntity
  8
B-0
  6
Continuous
 62
     2
370
     9
100
AcDbLine
 10
-244.8172918610167
 20
452.6371974531347
 30
0.0
 11
-269.8176559510419
 21
452.6371974531347
 31
0.0
  0
LINE
  5
173
330
1F
100
AcDbEntity
  8
B-0
  6
Continuous
 62
     2
370
     9
100
AcDbLine
 10
-269.8176559510419
 20
452.6371974531347
 30
0.0
 11
-269.8176559510419
 21
395.1375491711682
 31
0.0
  0
LINE
  5
174
330
1F
100
AcDbEntity
  8
B-0
  6
Continuous
 62
     2
370
     9
100
AcDbLine
 10
-257.3169784372417
 20
387.6376381316758
 30
0.0
 11
-263.817281197539
 21
391.3903187297544
 31
0.0
  0
LINE
  5
175
330
1F
100
AcDbEntity
  8
B-0
  6
Continuous
 62
     2
370
     9
100
AcDbLine
 10
-257.3169784372417
 20
387.6376381316758
 30
0.0
 11
-250.8174188801261
 21
391.3903187297544
 31
0.0
  0
LINE
  5
176
330
1F
100
AcDbEntity
  8
B-0
  6
Continuous
 62
     2
370
     9
100
AcDbLine
 10
-250.8174188801261
 20
391.3903187297544
 30
0.0
 11
-250.8174188801261
 21
398.884779612582
 31
0.0
  0
LINE
  5
177
330
1F
100
AcDbEntity
  8
B-0
  6
Continuous
 62
     2
370
     9
100
AcDbLine
 10
-257.3169784372417
 20
402.6374602106606
 30
0.0
 11
-250.8174188801261
 21
398.884779612582
 31
0.0
  0
LINE
  5
178
330
1F
100
AcDbEntity
  8
B-0
  6
Continuous
 62
     2
370
     9
100
AcDbLine
 10
-257.3169784372417
 20
402.6374602106606
 30
0.0
 11
-263.817281197539
 21
398.884779612582
 31
0.0
  0
LINE
  5
179
330
1F
100
AcDbEntity
  8
B-0
  6
Continuous
 62
     2
370
     9
100
AcDbLine
 10
-263.817281197539
 20
391.3903187297544
 30
0.0
 11
-263.817281197539
 21
398.884779612582
 31
0.0
  0
LINE
  5
17A
330
1F
100
AcDbEntity
  8
B-1
  6
JWW_CENTER1
 62
     2
370
     9
100
AcDbLine
 10
-257.3169784372417
 20
471.3577423933908
 30
0.0
 11
-257.3169784372417
 21
380.7996733925575
 31
0.0
  0
LINE
  5
17B
330
1F
100
AcDbEntity
  8
B-1
  6
JWW_CENTER1
 62
     2
370
     9
100
AcDbLine
 10
-690.3794904557474
 20
395.1375491711682
 30
0.0
 11
-724.8717978462331
 21
395.1375491711682
 31
0.0
  0
LINE
  5
17C
330
1F
100
AcDbEntity
  8
B-0
  6
Continuous
 62
     2
370
     9
100
AcDbLine
 10
-719.8167775396711
 20
452.6371974531347
 30
0.0
 11
-719.8167775396711
 21
395.1375491711682
 31
0.0
  0
LINE
  5
17D
330
1F
100
AcDbEntity
  8
B-0
  6
Continuous
 62
     2
370
     9
100
AcDbLine
 10
-719.8167775396711
 20
452.6371974531347
 30
0.0
 11
-694.816413449647
 21
452.6371974531347
 31
0.0
  0
LINE
  5
17E
330
1F
100
AcDbEntity
  8
B-0
  6
Continuous
 62
     2
370
     9
100
AcDbLine
 10
-694.816413449647
 20
452.6371974531347
 30
0.0
 11
-694.816413449647
 21
395.1375491711682
 31
0.0
  0
LINE
  5
17F
330
1F
100
AcDbEntity
  8
B-0
  6
Continuous
 62
     2
370
     9
100
AcDbLine
 10
-707.3170909634472
 20
387.6376381316758
 30
0.0
 11
-700.8167882031499
 21
391.3903187297544
 31
0.0
  0
LINE
  5
180
330
1F
100
AcDbEntity
  8
B-0
  6
Continuous
 62
     2
370
     9
100
AcDbLine
 10
-707.3170909634472
 20
387.6376381316758
 30
0.0
 11
-713.8166505205628
 21
391.3903187297544
 31
0.0
  0
LINE
  5
181
330
1F
100
AcDbEntity
  8
B-0
  6
Continuous
 62
     2
370
     9
100
AcDbLine
 10
-713.8166505205628
 20
391.3903187297544
 30
0.0
 11
-713.8166505205628
 21
398.884779612582
 31
0.0
  0
LINE
  5
182
330
1F
100
AcDbEntity
  8
B-0
  6
Continuous
 62
     2
370
     9
100
AcDbLine
 10
-707.3170909634472
 20
402.6374602106606
 30
0.0
 11
-713.8166505205628
 21
398.884779612582
 31
0.0
  0
LINE
  5
183
330
1F
100
AcDbEntity
  8
B-0
  6
Continuous
 62
     2
370
     9
100
AcDbLine
 10
-707.3170909634472
 20
402.6374602106606
 30
0.0
 11
-700.8167882031499
 21
398.884779612582
 31
0.0
  0
LINE
  5
184
330
1F
100
AcDbEntity
  8
B-0
  6
Continuous
 62
     2
370
     9
100
AcDbLine
 10
-700.8167882031499
 20
391.3903187297544
 30
0.0
 11
-700.8167882031499
 21
398.884779612582
 31
0.0
  0
LINE
  5
185
330
1F
100
AcDbEntity
  8
B-1
  6
JWW_CENTER1
 62
     2
370
     9
100
AcDbLine
 10
-707.3170909634472
 20
471.3577423933908
 30
0.0
 11
-707.3170909634472
 21
380.7996733925575
 31
0.0
  0
LINE
  5
186
330
1F
100
AcDbEntity
  8
B-1
  6
JWW_CENTER1
 62
     2
370
     9
100
AcDbLine
 10
-690.3794904557474
 20
-329.8628523294012
 30
0.0
 11
-724.8717978462331
 21
-329.8628523294012
 31
0.0
  0
LINE
  5
187
330
1F
100
AcDbEntity
  8
B-0
  6
Continuous
 62
     2
370
     9
100
AcDbLine
 10
-719.8167775396711
 20
-387.3625006113678
 30
0.0
 11
-719.8167775396711
 21
-329.8628523294012
 31
0.0
  0
LINE
  5
188
330
1F
100
AcDbEntity
  8
B-0
  6
Continuous
 62
     2
370
     9
100
AcDbLine
 10
-719.8167775396711
 20
-387.3625006113678
 30
0.0
 11
-694.816413449647
 21
-387.3625006113678
 31
0.0
  0
LINE
  5
189
330
1F
100
AcDbEntity
  8
B-0
  6
Continuous
 62
     2
370
     9
100
AcDbLine
 10
-694.816413449647
 20
-387.3625006113678
 30
0.0
 11
-694.816413449647
 21
-329.8628523294012
 31
0.0
  0
LINE
  5
18A
330
1F
100
AcDbEntity
  8
B-0
  6
Continuous
 62
     2
370
     9
100
AcDbLine
 10
-707.3170909634472
 20
-322.3629412899088
 30
0.0
 11
-700.8167882031499
 21
-326.1156218879875
 31
0.0
  0
LINE
  5
18B
330
1F
100
AcDbEntity
  8
B-0
  6
Continuous
 62
     2
370
     9
100
AcDbLine
 10
-707.3170909634472
 20
-322.3629412899088
 30
0.0
 11
-713.8166505205628
 21
-326.1156218879875
 31
0.0
  0
LINE
  5
18C
330
1F
100
AcDbEntity
  8
B-0
  6
Continuous
 62
     2
370
     9
100
AcDbLine
 10
-713.8166505205628
 20
-326.1156218879875
 30
0.0
 11
-713.8166505205628
 21
-333.610082770815
 31
0.0
  0
LINE
  5
18D
330
1F
100
AcDbEntity
  8
B-0
  6
Continuous
 62
     2
370
     9
100
AcDbLine
 10
-707.3170909634472
 20
-337.3627633688936
 30
0.0
 11
-713.8166505205628
 21
-333.610082770815
 31
0.0
  0
LINE
  5
18E
330
1F
100
AcDbEntity
  8
B-0
  6
Continuous
 62
     2
370
     9
100
AcDbLine
 10
-707.3170909634472
 20
-337.3627633688936
 30
0.0
 11
-700.8167882031499
 21
-333.610082770815
 31
0.0
  0
LINE
  5
18F
330
1F
100
AcDbEntity
  8
B-0
  6
Continuous
 62
     2
370
     9
100
AcDbLine
 10
-700.8167882031499
 20
-326.1156218879875
 30
0.0
 11
-700.8167882031499
 21
-333.610082770815
 31
0.0
  0
LINE
  5
190
330
1F
100
AcDbEntity
  8
B-1
  6
JWW_CENTER1
 62
     2
370
     9
100
AcDbLine
 10
-707.3170909634472
 20
-406.0830455516241
 30
0.0
 11
-707.3170909634472
 21
-315.5249765507908
 31
0.0
  0
LINE
  5
191
330
1F
100
AcDbEntity
  8
B-1
  6
JWW_CENTER1
 62
     2
370
     9
100
AcDbLine
 10
-274.254578944941
 20
-329.8628523294012
 30
0.0
 11
-239.7622715544558
 21
-329.8628523294012
 31
0.0
  0
LINE
  5
192
330
1F
100
AcDbEntity
  8
B-0
  6
Continuous
 62
     2
370
     9
100
AcDbLine
 10
-244.8172918610173
 20
-387.3625006113678
 30
0.0
 11
-244.8172918610173
 21
-329.8628523294012
 31
0.0
  0
LINE
  5
193
330
1F
100
AcDbEntity
  8
B-0
  6
Continuous
 62
     2
370
     9
100
AcDbLine
 10
-244.8172918610173
 20
-387.3625006113678
 30
0.0
 11
-269.8176559510419
 21
-387.3625006113678
 31
0.0
  0
LINE
  5
194
330
1F
100
AcDbEntity
  8
B-0
  6
Continuous
 62
     2
370
     9
100
AcDbLine
 10
-269.8176559510419
 20
-387.3625006113678
 30
0.0
 11
-269.8176559510419
 21
-329.8628523294012
 31
0.0
  0
LINE
  5
195
330
1F
100
AcDbEntity
  8
B-0
  6
Continuous
 62
     2
370
     9
100
AcDbLine
 10
-257.3169784372417
 20
-322.3629412899088
 30
0.0
 11
-263.817281197539
 21
-326.1156218879875
 31
0.0
  0
LINE
  5
196
330
1F
100
AcDbEntity
  8
B-0
  6
Continuous
 62
     2
370
     9
100
AcDbLine
 10
-257.3169784372417
 20
-322.3629412899088
 30
0.0
 11
-250.8174188801261
 21
-326.1156218879875
 31
0.0
  0
LINE
  5
197
330
1F
100
AcDbEntity
  8
B-0
  6
Continuous
 62
     2
370
     9
100
AcDbLine
 10
-250.8174188801261
 20
-326.1156218879875
 30
0.0
 11
-250.8174188801261
 21
-333.610082770815
 31
0.0
  0
LINE
  5
198
330
1F
100
AcDbEntity
  8
B-0
  6
Continuous
 62
     2
370
     9
100
AcDbLine
 10
-257.3169784372417
 20
-337.3627633688936
 30
0.0
 11
-250.8174188801261
 21
-333.610082770815
 31
0.0
  0
LINE
  5
199
330
1F
100
AcDbEntity
  8
B-0
  6
Continuous
 62
     2
370
     9
100
AcDbLine
 10
-257.3169784372417
 20
-337.3627633688936
 30
0.0
 11
-263.817281197539
 21
-333.610082770815
 31
0.0
  0
LINE
  5
19A
330
1F
100
AcDbEntity
  8
B-0
  6
Continuous
 62
     2
370
     9
100
AcDbLine
 10
-263.817281197539
 20
-326.1156218879875
 30
0.0
 11
-263.817281197539
 21
-333.610082770815
 31
0.0
  0
LINE
  5
19B
330
1F
100
AcDbEntity
  8
B-1
  6
JWW_CENTER1
 62
     2
370
     9
100
AcDbLine
 10
-257.3169784372417
 20
-406.0830455516241
 30
0.0
 11
-257.3169784372417
 21
-315.5249765507908
 31
0.0
  0
LINE
  5
19C
330
1F
100
AcDbEntity
  8
B-1
  6
Continuous
 62
     2
370
     9
100
AcDbLine
 10
-103.3169801162977
 20
-204.8623324848451
 30
0.0
 11
-103.3169801162977
 21
-302.3624766038135
 31
0.0
  0
LINE
  5
19D
330
1F
100
AcDbEntity
  8
B-1
  6
Continuous
 62
     2
370
     9
100
AcDbLine
 10
-102.3170002355117
 20
-204.8623944184435
 30
0.0
 11
-102.3170002355117
 21
-302.3624766038135
 31
0.0
  0
LINE
  5
19E
330
1F
100
AcDbEntity
  8
B-1
  6
Continuous
 62
     2
370
     9
100
AcDbLine
 10
-103.3169801162977
 20
367.6374211799743
 30
0.0
 11
-103.3169801162977
 21
270.1370912602108
 31
0.0
  0
LINE
  5
19F
330
1F
100
AcDbEntity
  8
B-1
  6
Continuous
 62
     2
370
     9
100
AcDbLine
 10
-103.3169801162977
 20
245.136727170186
 30
0.0
 11
-103.3169801162977
 21
-179.8620303284189
 31
0.0
  0
LINE
  5
1A0
330
1F
100
AcDbEntity
  8
B-1
  6
Continuous
 62
     2
370
     9
100
AcDbLine
 10
-102.3170002355117
 20
367.6374211799743
 30
0.0
 11
-102.3170002355117
 21
270.1370912602108
 31
0.0
  0
LINE
  5
1A1
330
1F
100
AcDbEntity
  8
B-1
  6
Continuous
 62
     2
370
     9
100
AcDbLine
 10
-102.3170002355117
 20
245.136727170186
 30
0.0
 11
-102.3170002355117
 21
-179.8620303284189
 31
0.0
  0
LINE
  5
1A2
330
1F
100
AcDbEntity
  8
B-1
  6
Continuous
 62
     2
370
     9
100
AcDbLine
 10
-244.8172918610167
 20
412.6376306201099
 30
0.0
 11
-147.3169619412532
 21
412.6376306201099
 31
0.0
  0
LINE
  5
1A3
330
1F
100
AcDbEntity
  8
B-1
  6
Continuous
 62
     2
370
     9
100
AcDbLine
 10
-244.8172918610167
 20
411.6375268721271
 30
0.0
 11
-147.3169619412532
 21
411.6375268721271
 31
0.0
  0
LINE
  5
1A4
330
1F
100
AcDbEntity
  8
B-1
  6
Continuous
 62
     2
370
     9
100
AcDbLine
 10
-817.3171074594346
 20
412.6376306201099
 30
0.0
 11
-719.8167775396711
 21
412.6376306201099
 31
0.0
  0
LINE
  5
1A5
330
1F
100
AcDbEntity
  8
B-1
  6
Continuous
 62
     2
370
     9
100
AcDbLine
 10
-694.816413449647
 20
412.6376306201099
 30
0.0
 11
-269.8176559510419
 21
412.6376306201099
 31
0.0
  0
LINE
  5
1A6
330
1F
100
AcDbEntity
  8
B-1
  6
Continuous
 62
     2
370
     9
100
AcDbLine
 10
-817.3171074594346
 20
411.6375268721272
 30
0.0
 11
-719.8167775396711
 21
411.6375268721271
 31
0.0
  0
LINE
  5
1A7
330
1F
100
AcDbEntity
  8
B-1
  6
Continuous
 62
     2
370
     9
100
AcDbLine
 10
-694.816413449647
 20
411.6375268721271
 30
0.0
 11
-269.8176559510419
 21
411.6375268721271
 31
0.0
  0
LINE
  5
1A8
330
1F
100
AcDbEntity
  8
B-1
  6
Continuous
 62
     2
370
     9
100
AcDbLine
 10
-861.3170892843913
 20
367.6374211799743
 30
0.0
 11
-861.3170892843913
 21
270.1370912602108
 31
0.0
  0
LINE
  5
1A9
330
1F
100
AcDbEntity
  8
B-1
  6
Continuous
 62
     2
370
     9
100
AcDbLine
 10
-862.3174407667675
 20
367.6374211799743
 30
0.0
 11
-862.3174407667675
 21
270.1370912602108
 31
0.0
  0
LINE
  5
1AA
330
1F
100
AcDbEntity
  8
B-1
  6
Continuous
 62
     2
370
     9
100
AcDbLine
 10
-861.3170892843913
 20
245.136727170186
 30
0.0
 11
-861.3170892843913
 21
-179.8620303284189
 31
0.0
  0
LINE
  5
1AB
330
1F
100
AcDbEntity
  8
B-1
  6
Continuous
 62
     2
370
     9
100
AcDbLine
 10
-861.3170892843913
 20
-204.8623944184435
 30
0.0
 11
-861.3170892843913
 21
-302.3624766038132
 31
0.0
  0
LINE
  5
1AC
330
1F
100
AcDbEntity
  8
B-1
  6
Continuous
 62
     2
370
     9
100
AcDbLine
 10
-862.3174407667675
 20
245.136727170186
 30
0.0
 11
-862.3174407667675
 21
-179.8620303284189
 31
0.0
  0
LINE
  5
1AD
330
1F
100
AcDbEntity
  8
B-1
  6
Continuous
 62
     2
370
     9
100
AcDbLine
 10
-862.3174407667675
 20
-204.8623944184435
 30
0.0
 11
-862.3174407667675
 21
-302.3624766038132
 31
0.0
  0
LINE
  5
1AE
330
1F
100
AcDbEntity
  8
B-1
  6
Continuous
 62
     2
370
     9
100
AcDbLine
 10
-817.3171074594346
 20
-347.3626860439488
 30
0.0
 11
-719.8167775396711
 21
-347.3626860439491
 31
0.0
  0
LINE
  5
1AF
330
1F
100
AcDbEntity
  8
B-1
  6
Continuous
 62
     2
370
     9
100
AcDbLine
 10
-817.3171074594346
 20
-346.362582295966
 30
0.0
 11
-719.8167775396711
 21
-346.3625822959664
 31
0.0
  0
LINE
  5
1B0
330
1F
100
AcDbEntity
  8
B-1
  6
Continuous
 62
     2
370
     9
100
AcDbLine
 10
-694.816413449647
 20
-347.3626860439491
 30
0.0
 11
-269.8176559510419
 21
-347.3626860439491
 31
0.0
  0
LINE
  5
1B1
330
1F
100
AcDbEntity
  8
B-1
  6
Continuous
 62
     2
370
     9
100
AcDbLine
 10
-244.8172918610173
 20
-347.3626860439491
 30
0.0
 11
-147.3169619412537
 21
-347.3626860439491
 31
0.0
  0
LINE
  5
1B2
330
1F
100
AcDbEntity
  8
B-1
  6
Continuous
 62
     2
370
     9
100
AcDbLine
 10
-694.816413449647
 20
-346.3625822959664
 30
0.0
 11
-269.8176559510419
 21
-346.3625822959664
 31
0.0
  0
LINE
  5
1B3
330
1F
100
AcDbEntity
  8
B-1
  6
Continuous
 62
     2
370
     9
100
AcDbLine
 10
-244.8172918610173
 20
-346.3625822959664
 30
0.0
 11
-147.3169619412537
 21
-346.3625822959664
 31
0.0
  0
ARC
  5
1B4
330
1F
100
AcDbEntity
  8
B-0
  6
Continuous
 62
     3
370
     9
100
AcDbCircle
 10
-577.817157124142
 20
128.1374708446815
 30
0.0
 40
5.000001497595466
100
AcDbArc
 50
270.0
 51
0.0
  0
ARC
  5
1B5
330
1F
100
AcDbEntity
  8
B-0
  6
Continuous
 62
     3
370
     9
100
AcDbCircle
 10
-577.817157124142
 20
107.1375217465879
 30
0.0
 40
5.000001497595466
100
AcDbArc
 50
0.0
 51
90.0
  0
ARC
  5
1B6
330
1F
100
AcDbEntity
  8
B-0
  6
Continuous
 62
     3
370
     9
100
AcDbCircle
 10
-556.8170841588516
 20
107.1375217465879
 30
0.0
 40
5.000001497595466
100
AcDbArc
 50
90.0
 51
180.0
  0
ARC
  5
1B7
330
1F
100
AcDbEntity
  8
B-0
  6
Continuous
 62
     3
370
     9
100
AcDbCircle
 10
-556.8170841588516
 20
128.1374708446815
 30
0.0
 40
5.000001497595466
100
AcDbArc
 50
180.0
 51
270.0
  0
ARC
  5
1B8
330
1F
100
AcDbEntity
  8
B-0
  6
Continuous
 62
     3
370
     9
100
AcDbCircle
 10
-558.3171159136292
 20
126.6374390899043
 30
0.0
 40
5.000001497595466
100
AcDbArc
 50
180.0
 51
270.0
  0
ARC
  5
1B9
330
1F
100
AcDbEntity
  8
B-0
  6
Continuous
 62
     3
370
     9
100
AcDbCircle
 10
-576.3171253693649
 20
126.6374390899043
 30
0.0
 40
5.000001497595466
100
AcDbArc
 50
270.0
 51
0.0
  0
ARC
  5
1BA
330
1F
100
AcDbEntity
  8
B-0
  6
Continuous
 62
     3
370
     9
100
AcDbCircle
 10
-576.3171253693649
 20
108.6375535013652
 30
0.0
 40
5.000001497595466
100
AcDbArc
 50
0.0
 51
90.0
  0
ARC
  5
1BB
330
1F
100
AcDbEntity
  8
B-0
  6
Continuous
 62
     3
370
     9
100
AcDbCircle
 10
-558.3171159136292
 20
108.6375535013652
 30
0.0
 40
5.000001497595466
100
AcDbArc
 50
90.0
 51
180.0
  0
ARC
  5
1BC
330
1F
100
AcDbEntity
  8
B-0
  6
Continuous
 62
     3
370
     9
100
AcDbCircle
 10
-750.317216774814
 20
123.6373755803499
 30
0.0
 40
2.000000526459751
100
AcDbArc
 50
180.0
 51
270.0
  0
ARC
  5
1BD
330
1F
100
AcDbEntity
  8
B-0
  6
Continuous
 62
     3
370
     9
100
AcDbCircle
 10
-750.317216774814
 20
111.6373692765258
 30
0.0
 40
2.000000526459751
100
AcDbArc
 50
90.0
 51
180.0
  0
ARC
  5
1BE
330
1F
100
AcDbEntity
  8
B-0
  6
Continuous
 62
     3
370
     9
100
AcDbCircle
 10
-573.3171857270075
 20
300.6374066281561
 30
0.0
 40
2.000000526459751
100
AcDbArc
 50
0.0
 51
90.0
  0
ARC
  5
1BF
330
1F
100
AcDbEntity
  8
B-0
  6
Continuous
 62
     3
370
     9
100
AcDbCircle
 10
-561.3170555559866
 20
300.6374066281561
 30
0.0
 40
2.000000526459751
100
AcDbArc
 50
90.0
 51
180.0
  0
ARC
  5
1C0
330
1F
100
AcDbEntity
  8
B-0
  6
Continuous
 62
     3
370
     9
100
AcDbCircle
 10
-713.3170941153587
 20
263.6372839687012
 30
0.0
 40
2.000000526459751
100
AcDbArc
 50
90.0
 51
180.0
  0
ARC
  5
1C1
330
1F
100
AcDbEntity
  8
B-0
  6
Continuous
 62
     3
370
     9
100
AcDbCircle
 10
-750.317216774814
 20
300.6374066281561
 30
0.0
 40
2.000000526459751
100
AcDbArc
 50
90.0
 51
180.0
  0
ARC
  5
1C2
330
1F
100
AcDbEntity
  8
B-1
  6
Continuous
 62
     2
370
     9
100
AcDbCircle
 10
-817.3171074594346
 20
367.6374211799743
 30
0.0
 40
32.00000842335601
100
AcDbArc
 50
90.0
 51
180.0
  0
ARC
  5
1C3
330
1F
100
AcDbEntity
  8
B-1
  6
Continuous
 62
     2
370
     9
100
AcDbCircle
 10
-817.3171074594346
 20
367.6374211799743
 30
0.0
 40
34.0000088288517
100
AcDbArc
 50
90.0
 51
180.0
  0
ARC
  5
1C4
330
1F
100
AcDbEntity
  8
B-1
  6
Continuous
 62
     2
370
     9
100
AcDbCircle
 10
-817.3171074594346
 20
367.6374211799743
 30
0.0
 40
44.00000892090521
100
AcDbArc
 50
90.0
 51
180.0
  0
ARC
  5
1C5
330
1F
100
AcDbEntity
  8
B-1
  6
Continuous
 62
     2
370
     9
100
AcDbCircle
 10
-817.3171074594346
 20
367.6374211799743
 30
0.0
 40
45.00000815594058
100
AcDbArc
 50
90.0
 51
180.0
  0
ARC
  5
1C6
330
1F
100
AcDbEntity
  8
B-1
  6
Continuous
 62
     2
370
     9
100
AcDbCircle
 10
-846.3172672054064
 20
287.6375443107431
 30
0.0
 40
3.000000850171656
100
AcDbArc
 50
180.0
 51
270.0
  0
ARC
  5
1C7
330
1F
100
AcDbEntity
  8
B-1
  6
Continuous
 62
     2
370
     9
100
AcDbCircle
 10
-848.3172269669778
 20
285.6375845491714
 30
0.0
 40
3.000000850171656
100
AcDbArc
 50
180.0
 51
270.0
  0
ARC
  5
1C8
330
1F
100
AcDbEntity
  8
B-1
  6
Continuous
 62
     2
370
     9
100
AcDbCircle
 10
-846.3172672054064
 20
227.6375127916228
 30
0.0
 40
3.000000850171656
100
AcDbArc
 50
90.0
 51
180.0
  0
ARC
  5
1C9
330
1F
100
AcDbEntity
  8
B-1
  6
Continuous
 62
     2
370
     9
100
AcDbCircle
 10
-848.3172269669778
 20
229.6374725531947
 30
0.0
 40
3.000000850171656
100
AcDbArc
 50
90.0
 51
180.0
  0
ARC
  5
1CA
330
1F
100
AcDbEntity
  8
B-1
  6
Continuous
 62
     2
370
     9
100
AcDbCircle
 10
-737.3172305902038
 20
396.6374570587485
 30
0.0
 40
3.000000850171656
100
AcDbArc
 50
0.0
 51
90.0
  0
ARC
  5
1CB
330
1F
100
AcDbEntity
  8
B-1
  6
Continuous
 62
     2
370
     9
100
AcDbCircle
 10
-735.3171469614351
 20
398.6374168203202
 30
0.0
 40
3.000000850171656
100
AcDbArc
 50
0.0
 51
90.0
  0
ARC
  5
1CC
330
1F
100
AcDbEntity
  8
B-1
  6
Continuous
 62
     2
370
     9
100
AcDbCircle
 10
-677.3170752038867
 20
396.6374570587485
 30
0.0
 40
3.000000850171656
100
AcDbArc
 50
90.0
 51
180.0
  0
ARC
  5
1CD
330
1F
100
AcDbEntity
  8
B-1
  6
Continuous
 62
     2
370
     9
100
AcDbCircle
 10
-679.3171588326554
 20
398.6374168203202
 30
0.0
 40
3.000000850171656
100
AcDbArc
 50
90.0
 51
180.0
  0
CIRCLE
  5
1CE
330
1F
100
AcDbEntity
  8
B-0
  6
Continuous
 62
     3
370
     9
100
AcDbCircle
 10
-482.3170347003439
 20
320.1375717058665
 30
0.0
 40
11.50000088003151
  0
ARC
  5
1CF
330
1F
100
AcDbEntity
  8
B-0
  6
Continuous
 62
     3
370
     9
100
AcDbCircle
 10
-577.817157124142
 20
-62.86252626852063
 30
0.0
 40
5.000001497595466
100
AcDbArc
 50
0.0
 51
90.0
  0
ARC
  5
1D0
330
1F
100
AcDbEntity
  8
B-0
  6
Continuous
 62
     3
370
     9
100
AcDbCircle
 10
-577.817157124142
 20
-41.86257717042695
 30
0.0
 40
5.000001497595466
100
AcDbArc
 50
270.0
 51
0.0
  0
ARC
  5
1D1
330
1F
100
AcDbEntity
  8
B-0
  6
Continuous
 62
     3
370
     9
100
AcDbCircle
 10
-556.8170841588516
 20
-41.86257717042695
 30
0.0
 40
5.000001497595466
100
AcDbArc
 50
180.0
 51
270.0
  0
ARC
  5
1D2
330
1F
100
AcDbEntity
  8
B-0
  6
Continuous
 62
     3
370
     9
100
AcDbCircle
 10
-556.8170841588516
 20
-62.86252626852063
 30
0.0
 40
5.000001497595466
100
AcDbArc
 50
90.0
 51
180.0
  0
ARC
  5
1D3
330
1F
100
AcDbEntity
  8
B-0
  6
Continuous
 62
     3
370
     9
100
AcDbCircle
 10
-558.3171159136292
 20
-61.36249451374327
 30
0.0
 40
5.000001497595466
100
AcDbArc
 50
90.0
 51
180.0
  0
ARC
  5
1D4
330
1F
100
AcDbEntity
  8
B-0
  6
Continuous
 62
     3
370
     9
100
AcDbCircle
 10
-576.3171253693649
 20
-61.36249451374327
 30
0.0
 40
5.000001497595466
100
AcDbArc
 50
0.0
 51
90.0
  0
ARC
  5
1D5
330
1F
100
AcDbEntity
  8
B-0
  6
Continuous
 62
     3
370
     9
100
AcDbCircle
 10
-576.3171253693649
 20
-43.36260892520401
 30
0.0
 40
5.000001497595466
100
AcDbArc
 50
270.0
 51
0.0
  0
ARC
  5
1D6
330
1F
100
AcDbEntity
  8
B-0
  6
Continuous
 62
     3
370
     9
100
AcDbCircle
 10
-558.3171159136292
 20
-43.36260892520401
 30
0.0
 40
5.000001497595466
100
AcDbArc
 50
180.0
 51
270.0
  0
ARC
  5
1D7
330
1F
100
AcDbEntity
  8
B-0
  6
Continuous
 62
     3
370
     9
100
AcDbCircle
 10
-750.317216774814
 20
-58.36267873858263
 30
0.0
 40
2.000000526459751
100
AcDbArc
 50
90.0
 51
180.0
  0
ARC
  5
1D8
330
1F
100
AcDbEntity
  8
B-0
  6
Continuous
 62
     3
370
     9
100
AcDbCircle
 10
-750.317216774814
 20
-46.36267243475872
 30
0.0
 40
2.000000526459751
100
AcDbArc
 50
180.0
 51
270.0
  0
ARC
  5
1D9
330
1F
100
AcDbEntity
  8
B-0
  6
Continuous
 62
     3
370
     9
100
AcDbCircle
 10
-573.3171857270075
 20
-235.3627097863888
 30
0.0
 40
2.000000526459751
100
AcDbArc
 50
270.0
 51
0.0
  0
ARC
  5
1DA
330
1F
100
AcDbEntity
  8
B-0
  6
Continuous
 62
     3
370
     9
100
AcDbCircle
 10
-561.3170555559866
 20
-235.3627097863888
 30
0.0
 40
2.000000526459751
100
AcDbArc
 50
180.0
 51
270.0
  0
ARC
  5
1DB
330
1F
100
AcDbEntity
  8
B-0
  6
Continuous
 62
     3
370
     9
100
AcDbCircle
 10
-713.3170941153587
 20
-198.3625871269341
 30
0.0
 40
2.000000526459751
100
AcDbArc
 50
180.0
 51
270.0
  0
ARC
  5
1DC
330
1F
100
AcDbEntity
  8
B-0
  6
Continuous
 62
     3
370
     9
100
AcDbCircle
 10
-750.317216774814
 20
-235.3627097863888
 30
0.0
 40
2.000000526459751
100
AcDbArc
 50
180.0
 51
270.0
  0
ARC
  5
1DD
330
1F
100
AcDbEntity
  8
B-1
  6
Continuous
 62
     2
370
     9
100
AcDbCircle
 10
-817.3171074594346
 20
-302.362724338207
 30
0.0
 40
32.00000842335601
100
AcDbArc
 50
180.0
 51
270.0
  0
ARC
  5
1DE
330
1F
100
AcDbEntity
  8
B-1
  6
Continuous
 62
     2
370
     9
100
AcDbCircle
 10
-817.3171074594346
 20
-302.362724338207
 30
0.0
 40
34.0000088288517
100
AcDbArc
 50
180.0
 51
270.0
  0
ARC
  5
1DF
330
1F
100
AcDbEntity
  8
B-1
  6
Continuous
 62
     2
370
     9
100
AcDbCircle
 10
-817.3171074594346
 20
-302.362724338207
 30
0.0
 40
44.00000892090521
100
AcDbArc
 50
180.0
 51
270.0
  0
ARC
  5
1E0
330
1F
100
AcDbEntity
  8
B-1
  6
Continuous
 62
     2
370
     9
100
AcDbCircle
 10
-817.3171074594346
 20
-302.362724338207
 30
0.0
 40
45.00000815594058
100
AcDbArc
 50
180.0
 51
270.0
  0
ARC
  5
1E1
330
1F
100
AcDbEntity
  8
B-1
  6
Continuous
 62
     2
370
     9
100
AcDbCircle
 10
-846.3172672054064
 20
-222.3625997345819
 30
0.0
 40
3.000000850171656
100
AcDbArc
 50
90.0
 51
180.0
  0
ARC
  5
1E2
330
1F
100
AcDbEntity
  8
B-1
  6
Continuous
 62
     2
370
     9
100
AcDbCircle
 10
-848.3172269669778
 20
-220.3626399730105
 30
0.0
 40
3.000000850171656
100
AcDbArc
 50
90.0
 51
180.0
  0
ARC
  5
1E3
330
1F
100
AcDbEntity
  8
B-1
  6
Continuous
 62
     2
370
     9
100
AcDbCircle
 10
-846.3172672054064
 20
-162.3625682154618
 30
0.0
 40
3.000000850171656
100
AcDbArc
 50
180.0
 51
270.0
  0
ARC
  5
1E4
330
1F
100
AcDbEntity
  8
B-1
  6
Continuous
 62
     2
370
     9
100
AcDbCircle
 10
-848.3172269669778
 20
-164.3625279770335
 30
0.0
 40
3.000000850171656
100
AcDbArc
 50
180.0
 51
270.0
  0
ARC
  5
1E5
330
1F
100
AcDbEntity
  8
B-1
  6
Continuous
 62
     2
370
     9
100
AcDbCircle
 10
-737.3172305902038
 20
-331.3627602169815
 30
0.0
 40
3.000000850171656
100
AcDbArc
 50
270.0
 51
0.0
  0
ARC
  5
1E6
330
1F
100
AcDbEntity
  8
B-1
  6
Continuous
 62
     2
370
     9
100
AcDbCircle
 10
-735.3171469614351
 20
-333.3627199785535
 30
0.0
 40
3.000000850171656
100
AcDbArc
 50
270.0
 51
0.0
  0
ARC
  5
1E7
330
1F
100
AcDbEntity
  8
B-1
  6
Continuous
 62
     2
370
     9
100
AcDbCircle
 10
-677.3170752038867
 20
-331.3627602169815
 30
0.0
 40
3.000000850171656
100
AcDbArc
 50
180.0
 51
270.0
  0
ARC
  5
1E8
330
1F
100
AcDbEntity
  8
B-1
  6
Continuous
 62
     2
370
     9
100
AcDbCircle
 10
-679.3171588326554
 20
-333.3627199785535
 30
0.0
 40
3.000000850171656
100
AcDbArc
 50
180.0
 51
270.0
  0
CIRCLE
  5
1E9
330
1F
100
AcDbEntity
  8
B-0
  6
Continuous
 62
     3
370
     9
100
AcDbCircle
 10
-482.3170347003445
 20
-254.8626271297054
 30
0.0
 40
11.50000088003151
  0
ARC
  5
1EA
330
1F
100
AcDbEntity
  8
B-0
  6
Continuous
 62
     3
370
     9
100
AcDbCircle
 10
-386.8170361437432
 20
128.1374708446815
 30
0.0
 40
5.000001497595466
100
AcDbArc
 50
180.0
 51
270.0
  0
ARC
  5
1EB
330
1F
100
AcDbEntity
  8
B-0
  6
Continuous
 62
     3
370
     9
100
AcDbCircle
 10
-386.8170361437432
 20
107.1375217465879
 30
0.0
 40
5.000001497595466
100
AcDbArc
 50
90.0
 51
180.0
  0
ARC
  5
1EC
330
1F
100
AcDbEntity
  8
B-0
  6
Continuous
 62
     3
370
     9
100
AcDbCircle
 10
-407.8169852418368
 20
107.1375217465879
 30
0.0
 40
5.000001497595466
100
AcDbArc
 50
0.0
 51
90.0
  0
ARC
  5
1ED
330
1F
100
AcDbEntity
  8
B-0
  6
Continuous
 62
     3
370
     9
100
AcDbCircle
 10
-407.8169852418368
 20
128.1374708446815
 30
0.0
 40
5.000001497595466
100
AcDbArc
 50
270.0
 51
0.0
  0
ARC
  5
1EE
330
1F
100
AcDbEntity
  8
B-0
  6
Continuous
 62
     3
370
     9
100
AcDbCircle
 10
-406.3170773542565
 20
126.6374390899043
 30
0.0
 40
5.000001497595466
100
AcDbArc
 50
270.0
 51
0.0
  0
ARC
  5
1EF
330
1F
100
AcDbEntity
  8
B-0
  6
Continuous
 62
     3
370
     9
100
AcDbCircle
 10
-388.3170678985208
 20
126.6374390899043
 30
0.0
 40
5.000001497595466
100
AcDbArc
 50
180.0
 51
270.0
  0
ARC
  5
1F0
330
1F
100
AcDbEntity
  8
B-0
  6
Continuous
 62
     3
370
     9
100
AcDbCircle
 10
-388.3170678985208
 20
108.6375535013652
 30
0.0
 40
5.000001497595466
100
AcDbArc
 50
90.0
 51
180.0
  0
ARC
  5
1F1
330
1F
100
AcDbEntity
  8
B-0
  6
Continuous
 62
     3
370
     9
100
AcDbCircle
 10
-406.3170773542565
 20
108.6375535013652
 30
0.0
 40
5.000001497595466
100
AcDbArc
 50
0.0
 51
90.0
  0
ARC
  5
1F2
330
1F
100
AcDbEntity
  8
B-0
  6
Continuous
 62
     3
370
     9
100
AcDbCircle
 10
-214.3171003602684
 20
123.6373755803499
 30
0.0
 40
2.000000526459751
100
AcDbArc
 50
270.0
 51
0.0
  0
ARC
  5
1F3
330
1F
100
AcDbEntity
  8
B-0
  6
Continuous
 62
     3
370
     9
100
AcDbCircle
 10
-214.3171003602684
 20
111.6373692765258
 30
0.0
 40
2.000000526459751
100
AcDbArc
 50
0.0
 51
90.0
  0
ARC
  5
1F4
330
1F
100
AcDbEntity
  8
B-0
  6
Continuous
 62
     3
370
     9
100
AcDbCircle
 10
-391.3171314080749
 20
300.6374066281561
 30
0.0
 40
2.000000526459751
100
AcDbArc
 50
90.0
 51
180.0
  0
ARC
  5
1F5
330
1F
100
AcDbEntity
  8
B-0
  6
Continuous
 62
     3
370
     9
100
AcDbCircle
 10
-403.3170138447018
 20
300.6374066281561
 30
0.0
 40
2.000000526459751
100
AcDbArc
 50
0.0
 51
90.0
  0
ARC
  5
1F6
330
1F
100
AcDbEntity
  8
B-0
  6
Continuous
 62
     3
370
     9
100
AcDbCircle
 10
-251.3169752853296
 20
263.6372839687012
 30
0.0
 40
2.000000526459751
100
AcDbArc
 50
0.0
 51
90.0
  0
ARC
  5
1F7
330
1F
100
AcDbEntity
  8
B-0
  6
Continuous
 62
     3
370
     9
100
AcDbCircle
 10
-214.3171003602684
 20
300.6374066281561
 30
0.0
 40
2.000000526459751
100
AcDbArc
 50
0.0
 51
90.0
  0
ARC
  5
1F8
330
1F
100
AcDbEntity
  8
B-1
  6
Continuous
 62
     2
370
     9
100
AcDbCircle
 10
-147.3169619412532
 20
367.6374211799743
 30
0.0
 40
32.00000842335601
100
AcDbArc
 50
0.0
 51
90.0
  0
ARC
  5
1F9
330
1F
100
AcDbEntity
  8
B-1
  6
Continuous
 62
     2
370
     9
100
AcDbCircle
 10
-147.3169619412532
 20
367.6374211799743
 30
0.0
 40
34.0000088288517
100
AcDbArc
 50
0.0
 51
90.0
  0
ARC
  5
1FA
330
1F
100
AcDbEntity
  8
B-1
  6
Continuous
 62
     2
370
     9
100
AcDbCircle
 10
-147.3169619412532
 20
367.6374211799743
 30
0.0
 40
44.00000892090521
100
AcDbArc
 50
0.0
 51
90.0
  0
ARC
  5
1FB
330
1F
100
AcDbEntity
  8
B-1
  6
Continuous
 62
     2
370
     9
100
AcDbCircle
 10
-147.3169619412532
 20
367.6374211799743
 30
0.0
 40
45.00000815594058
100
AcDbArc
 50
0.0
 51
90.0
  0
ARC
  5
1FC
330
1F
100
AcDbEntity
  8
B-1
  6
Continuous
 62
     2
370
     9
100
AcDbCircle
 10
-118.317049929676
 20
287.6375443107431
 30
0.0
 40
3.000000850171656
100
AcDbArc
 50
270.0
 51
0.0
  0
ARC
  5
1FD
330
1F
100
AcDbEntity
  8
B-1
  6
Continuous
 62
     2
370
     9
100
AcDbCircle
 10
-116.3170901681046
 20
285.6375845491714
 30
0.0
 40
3.000000850171656
100
AcDbArc
 50
270.0
 51
0.0
  0
ARC
  5
1FE
330
1F
100
AcDbEntity
  8
B-1
  6
Continuous
 62
     2
370
     9
100
AcDbCircle
 10
-118.317049929676
 20
227.6375127916228
 30
0.0
 40
3.000000850171656
100
AcDbArc
 50
0.0
 51
90.0
  0
ARC
  5
1FF
330
1F
100
AcDbEntity
  8
B-1
  6
Continuous
 62
     2
370
     9
100
AcDbCircle
 10
-116.3170901681046
 20
229.6374725531947
 30
0.0
 40
3.000000850171656
100
AcDbArc
 50
0.0
 51
90.0
  0
ARC
  5
200
330
1F
100
AcDbEntity
  8
B-1
  6
Continuous
 62
     2
370
     9
100
AcDbCircle
 10
-227.3170865448786
 20
396.6374570587485
 30
0.0
 40
3.000000850171656
100
AcDbArc
 50
90.0
 51
180.0
  0
ARC
  5
201
330
1F
100
AcDbEntity
  8
B-1
  6
Continuous
 62
     2
370
     9
100
AcDbCircle
 10
-229.31704630645
 20
398.6374168203202
 30
0.0
 40
3.000000850171656
100
AcDbArc
 50
90.0
 51
180.0
  0
ARC
  5
202
330
1F
100
AcDbEntity
  8
B-1
  6
Continuous
 62
     2
370
     9
100
AcDbCircle
 10
-287.3169941968017
 20
396.6374570587485
 30
0.0
 40
3.000000850171656
100
AcDbArc
 50
0.0
 51
90.0
  0
ARC
  5
203
330
1F
100
AcDbEntity
  8
B-1
  6
Continuous
 62
     2
370
     9
100
AcDbCircle
 10
-285.3170344352303
 20
398.6374168203202
 30
0.0
 40
3.000000850171656
100
AcDbArc
 50
0.0
 51
90.0
  0
ARC
  5
204
330
1F
100
AcDbEntity
  8
B-0
  6
Continuous
 62
     3
370
     9
100
AcDbCircle
 10
-386.8170361437432
 20
-62.86252626852063
 30
0.0
 40
5.000001497595466
100
AcDbArc
 50
90.0
 51
180.0
  0
ARC
  5
205
330
1F
100
AcDbEntity
  8
B-0
  6
Continuous
 62
     3
370
     9
100
AcDbCircle
 10
-386.8170361437432
 20
-41.86257717042695
 30
0.0
 40
5.000001497595466
100
AcDbArc
 50
180.0
 51
270.0
  0
ARC
  5
206
330
1F
100
AcDbEntity
  8
B-0
  6
Continuous
 62
     3
370
     9
100
AcDbCircle
 10
-407.8169852418368
 20
-41.86257717042695
 30
0.0
 40
5.000001497595466
100
AcDbArc
 50
270.0
 51
0.0
  0
ARC
  5
207
330
1F
100
AcDbEntity
  8
B-0
  6
Continuous
 62
     3
370
     9
100
AcDbCircle
 10
-407.8169852418368
 20
-62.86252626852063
 30
0.0
 40
5.000001497595466
100
AcDbArc
 50
0.0
 51
90.0
  0
ARC
  5
208
330
1F
100
AcDbEntity
  8
B-0
  6
Continuous
 62
     3
370
     9
100
AcDbCircle
 10
-406.3170773542565
 20
-61.36249451374327
 30
0.0
 40
5.000001497595466
100
AcDbArc
 50
0.0
 51
90.0
  0
ARC
  5
209
330
1F
100
AcDbEntity
  8
B-0
  6
Continuous
 62
     3
370
     9
100
AcDbCircle
 10
-388.3170678985208
 20
-61.36249451374327
 30
0.0
 40
5.000001497595466
100
AcDbArc
 50
90.0
 51
180.0
  0
ARC
  5
20A
330
1F
100
AcDbEntity
  8
B-0
  6
Continuous
 62
     3
370
     9
100
AcDbCircle
 10
-388.3170678985208
 20
-43.36260892520401
 30
0.0
 40
5.000001497595466
100
AcDbArc
 50
180.0
 51
270.0
  0
ARC
  5
20B
330
1F
100
AcDbEntity
  8
B-0
  6
Continuous
 62
     3
370
     9
100
AcDbCircle
 10
-406.3170773542565
 20
-43.36260892520401
 30
0.0
 40
5.000001497595466
100
AcDbArc
 50
270.0
 51
0.0
  0
ARC
  5
20C
330
1F
100
AcDbEntity
  8
B-0
  6
Continuous
 62
     3
370
     9
100
AcDbCircle
 10
-214.3171003602684
 20
-58.36267873858263
 30
0.0
 40
2.000000526459751
100
AcDbArc
 50
0.0
 51
90.0
  0
ARC
  5
20D
330
1F
100
AcDbEntity
  8
B-0
  6
Continuous
 62
     3
370
     9
100
AcDbCircle
 10
-214.3171003602684
 20
-46.36267243475872
 30
0.0
 40
2.000000526459751
100
AcDbArc
 50
270.0
 51
0.0
  0
ARC
  5
20E
330
1F
100
AcDbEntity
  8
B-0
  6
Continuous
 62
     3
370
     9
100
AcDbCircle
 10
-391.3171314080749
 20
-235.3627097863888
 30
0.0
 40
2.000000526459751
100
AcDbArc
 50
180.0
 51
270.0
  0
ARC
  5
20F
330
1F
100
AcDbEntity
  8
B-0
  6
Continuous
 62
     3
370
     9
100
AcDbCircle
 10
-403.3170138447018
 20
-235.3627097863888
 30
0.0
 40
2.000000526459751
100
AcDbArc
 50
270.0
 51
0.0
  0
ARC
  5
210
330
1F
100
AcDbEntity
  8
B-0
  6
Continuous
 62
     3
370
     9
100
AcDbCircle
 10
-251.3169752853296
 20
-198.3625871269341
 30
0.0
 40
2.000000526459751
100
AcDbArc
 50
270.0
 51
0.0
  0
ARC
  5
211
330
1F
100
AcDbEntity
  8
B-0
  6
Continuous
 62
     3
370
     9
100
AcDbCircle
 10
-214.317100360269
 20
-235.3627097863888
 30
0.0
 40
2.000000526459751
100
AcDbArc
 50
270.0
 51
0.0
  0
ARC
  5
212
330
1F
100
AcDbEntity
  8
B-1
  6
Continuous
 62
     2
370
     9
100
AcDbCircle
 10
-147.3169619412537
 20
-302.362724338207
 30
0.0
 40
32.00000842335601
100
AcDbArc
 50
270.0
 51
0.0
  0
ARC
  5
213
330
1F
100
AcDbEntity
  8
B-1
  6
Continuous
 62
     2
370
     9
100
AcDbCircle
 10
-147.3169619412537
 20
-302.362724338207
 30
0.0
 40
34.0000088288517
100
AcDbArc
 50
270.0
 51
0.0
  0
ARC
  5
214
330
1F
100
AcDbEntity
  8
B-1
  6
Continuous
 62
     2
370
     9
100
AcDbCircle
 10
-147.3169619412537
 20
-302.362724338207
 30
0.0
 40
44.00000892090521
100
AcDbArc
 50
270.0
 51
0.0
  0
ARC
  5
215
330
1F
100
AcDbEntity
  8
B-1
  6
Continuous
 62
     2
370
     9
100
AcDbCircle
 10
-147.3169619412537
 20
-302.362724338207
 30
0.0
 40
45.00000815594058
100
AcDbArc
 50
270.0
 51
0.0
  0
ARC
  5
216
330
1F
100
AcDbEntity
  8
B-1
  6
Continuous
 62
     2
370
     9
100
AcDbCircle
 10
-118.317049929676
 20
-222.3625997345819
 30
0.0
 40
3.000000850171656
100
AcDbArc
 50
0.0
 51
90.0
  0
ARC
  5
217
330
1F
100
AcDbEntity
  8
B-1
  6
Continuous
 62
     2
370
     9
100
AcDbCircle
 10
-116.3170901681046
 20
-220.3626399730105
 30
0.0
 40
3.000000850171656
100
AcDbArc
 50
0.0
 51
90.0
  0
ARC
  5
218
330
1F
100
AcDbEntity
  8
B-1
  6
Continuous
 62
     2
370
     9
100
AcDbCircle
 10
-118.317049929676
 20
-162.3625682154618
 30
0.0
 40
3.000000850171656
100
AcDbArc
 50
270.0
 51
0.0
  0
ARC
  5
219
330
1F
100
AcDbEntity
  8
B-1
  6
Continuous
 62
     2
370
     9
100
AcDbCircle
 10
-116.3170901681046
 20
-164.3625279770335
 30
0.0
 40
3.000000850171656
100
AcDbArc
 50
270.0
 51
0.0
  0
ARC
  5
21A
330
1F
100
AcDbEntity
  8
B-1
  6
Continuous
 62
     2
370
     9
100
AcDbCircle
 10
-227.3170865448786
 20
-331.3627602169815
 30
0.0
 40
3.000000850171656
100
AcDbArc
 50
180.0
 51
270.0
  0
ARC
  5
21B
330
1F
100
AcDbEntity
  8
B-1
  6
Continuous
 62
     2
370
     9
100
AcDbCircle
 10
-229.3170463064505
 20
-333.3627199785535
 30
0.0
 40
3.000000850171656
100
AcDbArc
 50
180.0
 51
270.0
  0
ARC
  5
21C
330
1F
100
AcDbEntity
  8
B-1
  6
Continuous
 62
     2
370
     9
100
AcDbCircle
 10
-287.3169941968022
 20
-331.3627602169815
 30
0.0
 40
3.000000850171656
100
AcDbArc
 50
270.0
 51
0.0
  0
ARC
  5
21D
330
1F
100
AcDbEntity
  8
B-1
  6
Continuous
 62
     2
370
     9
100
AcDbCircle
 10
-285.3170344352303
 20
-333.3627199785535
 30
0.0
 40
3.000000850171656
100
AcDbArc
 50
270.0
 51
0.0
  0
ARC
  5
21E
330
1F
100
AcDbEntity
  8
B-0
  6
Continuous
 62
     3
370
     9
100
AcDbCircle
 10
-173.3170581776703
 20
-276.3627519689873
 30
0.0
 40
5.000001497595466
100
AcDbArc
 50
270.0
 51
0.0
  0
ARC
  5
21F
330
1F
100
AcDbEntity
  8
B-0
  6
Continuous
 62
     3
370
     9
100
AcDbCircle
 10
-173.3170581776703
 20
341.6374488107545
 30
0.0
 40
5.000001497595466
100
AcDbArc
 50
0.0
 51
90.0
  0
ARC
  5
220
330
1F
100
AcDbEntity
  8
B-0
  6
Continuous
 62
     3
370
     9
100
AcDbCircle
 10
-791.3173828246089
 20
-276.3627519689873
 30
0.0
 40
5.000001497595466
100
AcDbArc
 50
180.0
 51
270.0
  0
ARC
  5
221
330
1F
100
AcDbEntity
  8
B-0
  6
Continuous
 62
     3
370
     9
100
AcDbCircle
 10
-791.3173828246089
 20
341.6374488107545
 30
0.0
 40
5.000001497595466
100
AcDbArc
 50
90.0
 51
180.0
  0
ARC
  5
222
330
1F
100
AcDbEntity
  8
B-0
  6
Continuous
 62
     2
370
     9
100
AcDbCircle
 10
-844.8172354506288
 20
-192.3627078422187
 30
0.0
 40
12.50000011506688
100
AcDbArc
 50
270.0
 51
90.0
  0
ARC
  5
223
330
1F
100
AcDbEntity
  8
B-0
  6
Continuous
 62
     2
370
     9
100
AcDbCircle
 10
-844.8172354506288
 20
-197.3624833789513
 30
0.0
 40
9.500002409960773
100
AcDbArc
 50
232.1365966796875
 51
334.4327545166015
  0
ARC
  5
224
330
1F
100
AcDbEntity
  8
B-0
  6
Continuous
 62
     2
370
     9
100
AcDbCircle
 10
-844.8172354506288
 20
-187.3624368366988
 30
0.0
 40
9.500002409960773
100
AcDbArc
 50
25.56724548339847
 51
127.8634033203125
  0
CIRCLE
  5
225
330
1F
100
AcDbEntity
  8
B-0
  6
Continuous
 62
     2
370
     9
100
AcDbCircle
 10
-844.8226856072937
 20
-192.3627078422187
 30
0.0
 40
6.500002285573473
  0
CIRCLE
  5
226
330
1F
100
AcDbEntity
  8
B-0
  6
Continuous
 62
     2
370
     9
100
AcDbCircle
 10
-844.8172354506288
 20
-192.3627078422187
 30
0.0
 40
4.000000085207026
  0
CIRCLE
  5
227
330
1F
100
AcDbEntity
  8
B-0
  6
Continuous
 62
     2
370
     9
100
AcDbCircle
 10
-844.8172354506288
 20
-192.3627078422187
 30
0.0
 40
3.323499873050391
  0
ARC
  5
228
330
1F
100
AcDbEntity
  8
B-0
  6
Continuous
 62
     2
370
     9
100
AcDbCircle
 10
-844.8172354506288
 20
257.6374046839862
 30
0.0
 40
12.50000011506688
100
AcDbArc
 50
270.0
 51
90.0
  0
ARC
  5
229
330
1F
100
AcDbEntity
  8
B-0
  6
Continuous
 62
     2
370
     9
100
AcDbCircle
 10
-844.8172354506288
 20
262.6371802207185
 30
0.0
 40
9.500002409960773
100
AcDbArc
 50
25.56724548339847
 51
127.8634033203125
  0
ARC
  5
22A
330
1F
100
AcDbEntity
  8
B-0
  6
Continuous
 62
     2
370
     9
100
AcDbCircle
 10
-844.8172354506288
 20
252.6371336784661
 30
0.0
 40
9.500002409960773
100
AcDbArc
 50
232.1365966796875
 51
334.4327545166015
  0
CIRCLE
  5
22B
330
1F
100
AcDbEntity
  8
B-0
  6
Continuous
 62
     2
370
     9
100
AcDbCircle
 10
-844.8226856072937
 20
257.6374046839862
 30
0.0
 40
6.500002285573473
  0
CIRCLE
  5
22C
330
1F
100
AcDbEntity
  8
B-0
  6
Continuous
 62
     2
370
     9
100
AcDbCircle
 10
-844.8172354506288
 20
257.6374046839862
 30
0.0
 40
4.000000085207026
  0
CIRCLE
  5
22D
330
1F
100
AcDbEntity
  8
B-0
  6
Continuous
 62
     2
370
     9
100
AcDbCircle
 10
-844.8172354506288
 20
257.6374046839862
 30
0.0
 40
3.323499873050391
  0
ARC
  5
22E
330
1F
100
AcDbEntity
  8
B-0
  6
Continuous
 62
     2
370
     9
100
AcDbCircle
 10
-119.8168339500596
 20
-192.3627078422187
 30
0.0
 40
12.50000011506688
100
AcDbArc
 50
90.0
 51
270.0
  0
ARC
  5
22F
330
1F
100
AcDbEntity
  8
B-0
  6
Continuous
 62
     2
370
     9
100
AcDbCircle
 10
-119.8168339500596
 20
-197.3624833789513
 30
0.0
 40
9.500002409960773
100
AcDbArc
 50
205.5672454833984
 51
307.8634033203125
  0
ARC
  5
230
330
1F
100
AcDbEntity
  8
B-0
  6
Continuous
 62
     2
370
     9
100
AcDbCircle
 10
-119.8168339500596
 20
-187.3624368366988
 30
0.0
 40
9.500002409960773
100
AcDbArc
 50
52.13659667968753
 51
154.4327545166016
  0
CIRCLE
  5
231
330
1F
100
AcDbEntity
  8
B-0
  6
Continuous
 62
     2
370
     9
100
AcDbCircle
 10
-119.8113837933952
 20
-192.3627078422187
 30
0.0
 40
6.500002285573473
  0
CIRCLE
  5
232
330
1F
100
AcDbEntity
  8
B-0
  6
Continuous
 62
     2
370
     9
100
AcDbCircle
 10
-119.8168339500596
 20
-192.3627078422187
 30
0.0
 40
4.000000085207026
  0
CIRCLE
  5
233
330
1F
100
AcDbEntity
  8
B-0
  6
Continuous
 62
     2
370
     9
100
AcDbCircle
 10
-119.8168339500596
 20
-192.3627078422187
 30
0.0
 40
3.323499873050391
  0
ARC
  5
234
330
1F
100
AcDbEntity
  8
B-0
  6
Continuous
 62
     2
370
     9
100
AcDbCircle
 10
-119.8168339500596
 20
257.6374046839862
 30
0.0
 40
12.50000011506688
100
AcDbArc
 50
90.0
 51
270.0
  0
ARC
  5
235
330
1F
100
AcDbEntity
  8
B-0
  6
Continuous
 62
     2
370
     9
100
AcDbCircle
 10
-119.8168339500596
 20
262.6371802207185
 30
0.0
 40
9.500002409960773
100
AcDbArc
 50
52.13659667968753
 51
154.4327545166016
  0
ARC
  5
236
330
1F
100
AcDbEntity
  8
B-0
  6
Continuous
 62
     2
370
     9
100
AcDbCircle
 10
-119.8168339500596
 20
252.6371336784661
 30
0.0
 40
9.500002409960773
100
AcDbArc
 50
205.5672454833984
 51
307.8634033203125
  0
CIRCLE
  5
237
330
1F
100
AcDbEntity
  8
B-0
  6
Continuous
 62
     2
370
     9
100
AcDbCircle
 10
-119.8113837933947
 20
257.6374046839862
 30
0.0
 40
6.500002285573473
  0
CIRCLE
  5
238
330
1F
100
AcDbEntity
  8
B-0
  6
Continuous
 62
     2
370
     9
100
AcDbCircle
 10
-119.8168339500596
 20
257.6374046839862
 30
0.0
 40
4.000000085207026
  0
CIRCLE
  5
239
330
1F
100
AcDbEntity
  8
B-0
  6
Continuous
 62
     2
370
     9
100
AcDbCircle
 10
-119.8168339500596
 20
257.6374046839862
 30
0.0
 40
3.323499873050391
  0
ARC
  5
23A
330
1F
100
AcDbEntity
  8
B-0
  6
Continuous
 62
     2
370
     9
100
AcDbCircle
 10
-257.3169784372417
 20
395.1375491711682
 30
0.0
 40
12.50000011506688
100
AcDbArc
 50
180.0
 51
0.0
  0
ARC
  5
23B
330
1F
100
AcDbEntity
  8
B-0
  6
Continuous
 62
     2
370
     9
100
AcDbCircle
 10
-252.3172029005091
 20
395.1375491711682
 30
0.0
 40
9.500002409960773
100
AcDbArc
 50
295.5672454833984
 51
37.86340332031249
  0
ARC
  5
23C
330
1F
100
AcDbEntity
  8
B-0
  6
Continuous
 62
     2
370
     9
100
AcDbCircle
 10
-262.3172494427614
 20
395.1375491711682
 30
0.0
 40
9.500002409960773
100
AcDbArc
 50
142.1365966796875
 51
244.4327545166016
  0
CIRCLE
  5
23D
330
1F
100
AcDbEntity
  8
B-0
  6
Continuous
 62
     2
370
     9
100
AcDbCircle
 10
-257.3169784372417
 20
395.1429993278331
 30
0.0
 40
6.500002285573473
  0
CIRCLE
  5
23E
330
1F
100
AcDbEntity
  8
B-0
  6
Continuous
 62
     2
370
     9
100
AcDbCircle
 10
-257.3169784372417
 20
395.1375491711682
 30
0.0
 40
4.000000085207026
  0
CIRCLE
  5
23F
330
1F
100
AcDbEntity
  8
B-0
  6
Continuous
 62
     2
370
     9
100
AcDbCircle
 10
-257.3169784372417
 20
395.1375491711682
 30
0.0
 40
3.323499873050391
  0
ARC
  5
240
330
1F
100
AcDbEntity
  8
B-0
  6
Continuous
 62
     2
370
     9
100
AcDbCircle
 10
-707.3170909634472
 20
395.1375491711682
 30
0.0
 40
12.50000011506688
100
AcDbArc
 50
180.0
 51
0.0
  0
ARC
  5
241
330
1F
100
AcDbEntity
  8
B-0
  6
Continuous
 62
     2
370
     9
100
AcDbCircle
 10
-712.3168665001792
 20
395.1375491711682
 30
0.0
 40
9.500002409960773
100
AcDbArc
 50
142.1365966796875
 51
244.4327545166016
  0
ARC
  5
242
330
1F
100
AcDbEntity
  8
B-0
  6
Continuous
 62
     2
370
     9
100
AcDbCircle
 10
-702.3168199579264
 20
395.1375491711682
 30
0.0
 40
9.500002409960773
100
AcDbArc
 50
295.5672454833984
 51
37.86340332031249
  0
CIRCLE
  5
243
330
1F
100
AcDbEntity
  8
B-0
  6
Continuous
 62
     2
370
     9
100
AcDbCircle
 10
-707.3170909634472
 20
395.1429993278331
 30
0.0
 40
6.500002285573473
  0
CIRCLE
  5
244
330
1F
100
AcDbEntity
  8
B-0
  6
Continuous
 62
     2
370
     9
100
AcDbCircle
 10
-707.3170909634472
 20
395.1375491711682
 30
0.0
 40
4.000000085207026
  0
CIRCLE
  5
245
330
1F
100
AcDbEntity
  8
B-0
  6
Continuous
 62
     2
370
     9
100
AcDbCircle
 10
-707.3170909634472
 20
395.1375491711682
 30
0.0
 40
3.323499873050391
  0
ARC
  5
246
330
1F
100
AcDbEntity
  8
B-0
  6
Continuous
 62
     2
370
     9
100
AcDbCircle
 10
-707.3170909634472
 20
-329.8628523294012
 30
0.0
 40
12.50000011506688
100
AcDbArc
 50
0.0
 51
180.0
  0
ARC
  5
247
330
1F
100
AcDbEntity
  8
B-0
  6
Continuous
 62
     2
370
     9
100
AcDbCircle
 10
-712.3168665001792
 20
-329.8628523294012
 30
0.0
 40
9.500002409960773
100
AcDbArc
 50
115.5672454833984
 51
217.8634033203125
  0
ARC
  5
248
330
1F
100
AcDbEntity
  8
B-0
  6
Continuous
 62
     2
370
     9
100
AcDbCircle
 10
-702.3168199579264
 20
-329.8628523294012
 30
0.0
 40
9.500002409960773
100
AcDbArc
 50
322.1365966796875
 51
64.43275451660159
  0
CIRCLE
  5
249
330
1F
100
AcDbEntity
  8
B-0
  6
Continuous
 62
     2
370
     9
100
AcDbCircle
 10
-707.3170909634472
 20
-329.8683024860661
 30
0.0
 40
6.500002285573473
  0
CIRCLE
  5
24A
330
1F
100
AcDbEntity
  8
B-0
  6
Continuous
 62
     2
370
     9
100
AcDbCircle
 10
-707.3170909634472
 20
-329.8628523294012
 30
0.0
 40
4.000000085207026
  0
CIRCLE
  5
24B
330
1F
100
AcDbEntity
  8
B-0
  6
Continuous
 62
     2
370
     9
100
AcDbCircle
 10
-707.3170909634472
 20
-329.8628523294012
 30
0.0
 40
3.323499873050391
  0
ARC
  5
24C
330
1F
100
AcDbEntity
  8
B-0
  6
Continuous
 62
     2
370
     9
100
AcDbCircle
 10
-257.3169784372417
 20
-329.8628523294012
 30
0.0
 40
12.50000011506688
100
AcDbArc
 50
0.0
 51
180.0
  0
ARC
  5
24D
330
1F
100
AcDbEntity
  8
B-0
  6
Continuous
 62
     2
370
     9
100
AcDbCircle
 10
-252.3172029005091
 20
-329.8628523294012
 30
0.0
 40
9.500002409960773
100
AcDbArc
 50
322.1365966796875
 51
64.43275451660159
  0
ARC
  5
24E
330
1F
100
AcDbEntity
  8
B-0
  6
Continuous
 62
     2
370
     9
100
AcDbCircle
 10
-262.3172494427619
 20
-329.8628523294012
 30
0.0
 40
9.500002409960773
100
AcDbArc
 50
115.5672454833984
 51
217.8634033203125
  0
CIRCLE
  5
24F
330
1F
100
AcDbEntity
  8
B-0
  6
Continuous
 62
     2
370
     9
100
AcDbCircle
 10
-257.3169784372417
 20
-329.8683024860661
 30
0.0
 40
6.500002285573473
  0
CIRCLE
  5
250
330
1F
100
AcDbEntity
  8
B-0
  6
Continuous
 62
     2
370
     9
100
AcDbCircle
 10
-257.3169784372417
 20
-329.8628523294012
 30
0.0
 40
4.000000085207026
  0
CIRCLE
  5
251
330
1F
100
AcDbEntity
  8
B-0
  6
Continuous
 62
     2
370
     9
100
AcDbCircle
 10
-257.3169784372417
 20
-329.8628523294012
 30
0.0
 40
3.323499873050391
  0
LINE
  5
252
330
1F
100
AcDbEntity
  8
B-4
  6
Continuous
 62
     7
370
     9
100
AcDbLine
 10
-844.8172354506288
 20
-467.3626515791163
 30
0.0
 11
-119.8168339500596
 21
-467.3626515791163
 31
0.0
  0
LINE
  5
253
330
1F
100
AcDbEntity
  8
B-4
  6
Continuous
 62
     7
370
     9
100
AcDbLine
 10
-844.8172354506288
 20
-468.8626515791163
 30
0.0
 11
-844.8172354506288
 21
-207.3627078422187
 31
0.0
  0
LINE
  5
254
330
1F
100
AcDbEntity
  8
B-4
  6
Continuous
 62
     7
370
     9
100
AcDbLine
 10
-119.8168339500596
 20
-468.8626515791163
 30
0.0
 11
-119.8168339500596
 21
-207.3627078422187
 31
0.0
  0
TEXT
  5
255
330
1F
100
AcDbEntity
  8
B-4
  6
Continuous
 62
     2
370
   211
100
AcDbText
 10
-498.5670347003445
 20
-461.5426515791165
 30
0.0
 40
15.24
  1
725
 41
1.083333333333333
  7
ＭＳ ゴシック
100
AcDbText
  0
LINE
  5
256
330
1F
100
AcDbEntity
  8
B-4
  6
Continuous
 62
     7
370
     9
100
AcDbLine
 10
-707.3170909634472
 20
-417.3626515791163
 30
0.0
 11
-257.3169784372417
 21
-417.3626515791163
 31
0.0
  0
LINE
  5
257
330
1F
100
AcDbEntity
  8
B-4
  6
Continuous
 62
     7
370
     9
100
AcDbLine
 10
-707.3170909634472
 20
-418.8626515791163
 30
0.0
 11
-707.3170909634472
 21
-402.3625006113678
 31
0.0
  0
LINE
  5
258
330
1F
100
AcDbEntity
  8
B-4
  6
Continuous
 62
     7
370
     9
100
AcDbLine
 10
-257.3169784372417
 20
-418.8626515791163
 30
0.0
 11
-257.3169784372417
 21
-402.3625006113678
 31
0.0
  0
TEXT
  5
259
330
1F
100
AcDbEntity
  8
B-4
  6
Continuous
 62
     2
370
   211
100
AcDbText
 10
-498.5670347003445
 20
-411.5426515791165
 30
0.0
 40
15.24
  1
450
 41
1.083333333333333
  7
ＭＳ ゴシック
100
AcDbText
  0
LINE
  5
25A
330
1F
100
AcDbEntity
  8
B-4
  6
Continuous
 62
     7
370
     9
100
AcDbLine
 10
17.68296529965556
 20
-329.8628523294009
 30
0.0
 11
17.68296529965556
 21
395.1375491711682
 31
0.0
  0
LINE
  5
25B
330
1F
100
AcDbEntity
  8
B-4
  6
Continuous
 62
     7
370
     9
100
AcDbLine
 10
19.1829652996559
 20
-329.8628523294009
 30
0.0
 11
-242.3169784372417
 21
-329.8628523294009
 31
0.0
  0
LINE
  5
25C
330
1F
100
AcDbEntity
  8
B-4
  6
Continuous
 62
     7
370
     9
100
AcDbLine
 10
19.1829652996559
 20
395.1375491711682
 30
0.0
 11
-242.3169784372417
 21
395.1375491711682
 31
0.0
  0
TEXT
  5
25D
330
1F
100
AcDbEntity
  8
B-4
  6
Continuous
 62
     2
370
   211
100
AcDbText
 10
11.86296529965602
 20
16.38734842088359
 30
0.0
 40
15.24
  1
725
 50
90.0
 41
1.083333333333333
  7
ＭＳ ゴシック
100
AcDbText
  0
LINE
  5
25E
330
1F
100
AcDbEntity
  8
B-4
  6
Continuous
 62
     7
370
     9
100
AcDbLine
 10
-32.31703470034444
 20
-192.3627078422193
 30
0.0
 11
-32.31703470034444
 21
257.637404683986
 31
0.0
  0
LINE
  5
25F
330
1F
100
AcDbEntity
  8
B-4
  6
Continuous
 62
     7
370
     9
100
AcDbLine
 10
-30.8170347003441
 20
-192.3627078422193
 30
0.0
 11
-47.31718566809303
 21
-192.3627078422193
 31
0.0
  0
LINE
  5
260
330
1F
100
AcDbEntity
  8
B-4
  6
Continuous
 62
     7
370
     9
100
AcDbLine
 10
-30.8170347003441
 20
257.637404683986
 30
0.0
 11
-47.31718566809303
 21
257.637404683986
 31
0.0
  0
TEXT
  5
261
330
1F
100
AcDbEntity
  8
B-4
  6
Continuous
 62
     2
370
   211
100
AcDbText
 10
-38.13703470034398
 20
16.38734842088331
 30
0.0
 40
15.24
  1
450
 50
90.0
 41
1.083333333333333
  7
ＭＳ ゴシック
100
AcDbText
  0
LINE
  5
262
330
1F
100
AcDbEntity
  8
B-4
  6
Continuous
 62
     7
370
     9
100
AcDbLine
 10
-427.5795603557273
 20
-288.3627582728113
 30
0.0
 11
-427.5795603557273
 21
-221.3624959865992
 31
0.0
  0
LINE
  5
263
330
1F
100
AcDbEntity
  8
B-4
  6
Continuous
 62
     7
370
     9
100
AcDbLine
 10
-426.0795603557273
 20
-221.3624959865992
 30
0.0
 11
-451.3170856022508
 21
-221.3624959865992
 31
0.0
  0
TEXT
  5
264
330
1F
100
AcDbEntity
  8
B-4
  6
Continuous
 62
     2
370
   211
100
AcDbText
 10
-433.3995603557273
 20
-265.4876271297052
 30
0.0
 40
15.24
  1
67
 50
90.0
 41
1.0625
  7
ＭＳ ゴシック
100
AcDbText
  0
LINE
  5
265
330
1F
100
AcDbEntity
  8
B-0
  6
JWW_CENTER1
 62
     3
370
     9
100
AcDbLine
 10
-507.153264770719
 20
-254.8626271297054
 30
0.0
 11
-456.0532181655646
 21
-254.8626271297054
 31
0.0
  0
LINE
  5
266
330
1F
100
AcDbEntity
  8
B-4
  6
Continuous
 62
     7
370
     9
100
AcDbLine
 10
-461.3170856022508
 20
-188.7751732208709
 30
0.0
 11
-503.3171076656349
 21
-188.7751732208709
 31
0.0
  0
LINE
  5
267
330
1F
100
AcDbEntity
  8
B-4
  6
Continuous
 62
     7
370
     9
100
AcDbLine
 10
-461.3170856022508
 20
-187.2751732208709
 30
0.0
 11
-461.3170856022508
 21
-211.3624959865992
 31
0.0
  0
LINE
  5
268
330
1F
100
AcDbEntity
  8
B-4
  6
Continuous
 62
     7
370
     9
100
AcDbLine
 10
-503.3171076656349
 20
-187.2751732208709
 30
0.0
 11
-503.3171076656349
 21
-211.3624959865992
 31
0.0
  0
TEXT
  5
269
330
1F
100
AcDbEntity
  8
B-4
  6
Continuous
 62
     2
370
   211
100
AcDbText
 10
-492.9420966339428
 20
-182.9551732208709
 30
0.0
 40
15.24
  1
42
 41
1.0625
  7
ＭＳ ゴシック
100
AcDbText
  0
LINE
  5
26A
330
1F
100
AcDbEntity
  8
B-0
  6
JWW_CENTER1
 62
     3
370
     9
100
AcDbLine
 10
-482.3170347003445
 20
-361.4785918056679
 30
0.0
 11
-482.3170347003443
 21
-194.876671322979
 31
0.0
  0
LINE
  5
26B
330
1F
100
AcDbEntity
  8
B-0
  6
JWW_CENTER1
 62
     3
370
     9
100
AcDbLine
 10
-482.3170347003443
 20
-162.0811190241485
 30
0.0
 11
-482.3170347003439
 21
433.2649871898491
 31
0.0
  0
LINE
  5
26C
330
1F
100
AcDbEntity
  8
B-1
  6
Continuous
 62
     2
370
     9
100
AcDbLine
 10
507.7857250732259
 20
-301.3626205902243
 30
0.0
 11
510.7856647155833
 21
-301.3626205902243
 31
0.0
  0
LINE
  5
26D
330
1F
100
AcDbEntity
  8
B-1
  6
Continuous
 62
     2
370
     9
100
AcDbLine
 10
510.7856647155833
 20
-301.3626205902243
 30
0.0
 11
510.7856647155833
 21
-310.3628111188879
 31
0.0
  0
LINE
  5
26E
330
1F
100
AcDbEntity
  8
B-1
  6
Continuous
 62
     2
370
     9
100
AcDbLine
 10
510.7856647155833
 20
-310.3628111188879
 30
0.0
 11
522.7856710194069
 21
-310.3628111188879
 31
0.0
  0
LINE
  5
26F
330
1F
100
AcDbEntity
  8
B-1
  6
Continuous
 62
     2
370
     9
100
AcDbLine
 10
522.7856710194069
 20
-310.3628111188879
 30
0.0
 11
522.7856710194069
 21
-313.3626268940485
 31
0.0
  0
LINE
  5
270
330
1F
100
AcDbEntity
  8
B-1
  6
Continuous
 62
     2
370
     9
100
AcDbLine
 10
522.7856710194069
 20
-313.3626268940485
 30
0.0
 11
507.7857250732259
 21
-313.3626268940485
 31
0.0
  0
LINE
  5
271
330
1F
100
AcDbEntity
  8
B-1
  6
Continuous
 62
     2
370
     9
100
AcDbLine
 10
507.7857250732259
 20
-313.3626268940485
 30
0.0
 11
507.7857250732259
 21
-301.3626205902243
 31
0.0
  0
LINE
  5
272
330
1F
100
AcDbEntity
  8
B-1
  6
Continuous
 62
     2
370
     9
100
AcDbLine
 10
563.7856512684069
 20
-268.7528468586244
 30
0.0
 11
582.7857025385273
 21
-267.3625614403239
 31
0.0
  0
LINE
  5
273
330
1F
100
AcDbEntity
  8
B-1
  6
Continuous
 62
     2
370
     9
100
AcDbLine
 10
563.7856512684069
 20
-276.0293014748617
 30
0.0
 11
563.7856512684069
 21
-268.3626651883067
 31
0.0
  0
LINE
  5
274
330
1F
100
AcDbEntity
  8
B-1
  6
Continuous
 62
     2
370
     9
100
AcDbLine
 10
575.7856575722311
 20
-334.3625759921422
 30
0.0
 11
572.7856559962751
 21
-336.3625357537142
 31
0.0
  0
LINE
  5
275
330
1F
100
AcDbEntity
  8
B-1
  6
Continuous
 62
     2
370
     9
100
AcDbLine
 10
572.7856559962751
 20
-319.1073397530953
 30
0.0
 11
572.7856559962751
 21
-346.3625822959664
 31
0.0
  0
LINE
  5
276
330
1F
100
AcDbEntity
  8
B-1
  6
Continuous
 62
     2
370
     9
100
AcDbLine
 10
572.7856559962751
 20
-346.3625822959664
 30
0.0
 11
582.7857025385273
 21
-347.3626860439491
 31
0.0
  0
LINE
  5
277
330
1F
100
AcDbEntity
  8
B-1
  6
Continuous
 62
     2
370
     9
100
AcDbLine
 10
574.0065530227789
 20
-277.1649159362822
 30
0.0
 11
563.7856512684069
 21
-276.0293014748617
 31
0.0
  0
LINE
  5
278
330
1F
100
AcDbEntity
  8
B-1
  6
Continuous
 62
     2
370
     9
100
AcDbLine
 10
573.9085740700104
 20
-298.7282130459964
 30
0.0
 11
510.7856647155833
 21
-302.6126883416048
 31
0.0
  0
LINE
  5
279
330
1F
100
AcDbEntity
  8
B-1
  6
Continuous
 62
     2
370
     9
100
AcDbLine
 10
575.7856575722311
 20
-296.7319693003326
 30
0.0
 11
575.7856575722311
 21
-279.1527367125552
 31
0.0
  0
LINE
  5
27A
330
1F
100
AcDbEntity
  8
B-1
  6
Continuous
 62
     2
370
     9
100
AcDbLine
 10
570.2428482441737
 20
-316.9978813894407
 30
0.0
 11
522.6712177294476
 21
-313.3626268940485
 31
0.0
  0
LINE
  5
27B
330
1F
100
AcDbEntity
  8
B-1
  6
Continuous
 62
     2
370
     9
100
AcDbLine
 10
575.7856575722311
 20
-322.9804192665863
 30
0.0
 11
575.7856575722311
 21
-334.3625759921422
 31
0.0
  0
LINE
  5
27C
330
1F
100
AcDbEntity
  8
B-0
  6
Continuous
 62
     3
370
     9
100
AcDbLine
 10
510.7856647155833
 20
-288.3627582728114
 30
0.0
 11
507.7857250732259
 21
-288.3627582728114
 31
0.0
  0
LINE
  5
27D
330
1F
100
AcDbEntity
  8
B-0
  6
Continuous
 62
     3
370
     9
100
AcDbLine
 10
507.7857250732259
 20
-300.3625168422416
 30
0.0
 11
522.7856710194069
 21
-300.3625168422416
 31
0.0
  0
LINE
  5
27E
330
1F
100
AcDbEntity
  8
B-0
  6
Continuous
 62
     3
370
     9
100
AcDbLine
 10
522.7856710194069
 20
-300.3625168422416
 30
0.0
 11
522.7856710194069
 21
-297.3627010670809
 31
0.0
  0
LINE
  5
27F
330
1F
100
AcDbEntity
  8
B-0
  6
Continuous
 62
     3
370
     9
100
AcDbLine
 10
522.7856710194069
 20
-297.3627010670809
 30
0.0
 11
510.7856647155833
 21
-297.3627010670809
 31
0.0
  0
LINE
  5
280
330
1F
100
AcDbEntity
  8
B-0
  6
Continuous
 62
     3
370
     9
100
AcDbLine
 10
567.7856946587476
 20
-201.3586868861869
 30
0.0
 11
557.7857719836921
 21
-238.6791301168931
 31
0.0
  0
LINE
  5
281
330
1F
100
AcDbEntity
  8
B-0
  6
Continuous
 62
     3
370
     9
100
AcDbLine
 10
557.7857719836921
 20
-263.4795725510788
 30
0.0
 11
557.7857719836921
 21
-238.6791301168931
 31
0.0
  0
LINE
  5
282
330
1F
100
AcDbEntity
  8
B-0
  6
Continuous
 62
     3
370
     9
100
AcDbLine
 10
560.5207596918242
 20
-267.2743679961122
 30
0.0
 11
563.7856512684069
 21
-268.3626651883067
 31
0.0
  0
LINE
  5
283
330
1F
100
AcDbEntity
  8
B-0
  6
Continuous
 62
     3
370
     9
100
AcDbLine
 10
557.7151057478457
 20
-276.5488004987707
 30
0.0
 11
563.7856512684069
 21
-274.8627202142102
 31
0.0
  0
LINE
  5
284
330
1F
100
AcDbEntity
  8
B-0
  6
Continuous
 62
     3
370
     9
100
AcDbLine
 10
553.5150787680677
 20
-288.3270845200967
 30
0.0
 11
522.7856710194069
 21
-300.3625168422416
 31
0.0
  0
LINE
  5
285
330
1F
100
AcDbEntity
  8
B-0
  6
Continuous
 62
     3
370
     9
100
AcDbLine
 10
544.6310137365227
 20
-282.0447880263895
 30
0.0
 11
510.7856647155833
 21
-289.3626142864007
 31
0.0
  0
LINE
  5
286
330
1F
100
AcDbEntity
  8
B-0
  6
Continuous
 62
     3
370
     9
100
AcDbLine
 10
547.7856635078413
 20
-271.8626567046555
 30
0.0
 11
545.7856418126712
 21
-270.8625529566727
 31
0.0
  0
LINE
  5
287
330
1F
100
AcDbEntity
  8
B-0
  6
Continuous
 62
     3
370
     9
100
AcDbLine
 10
545.7856418126712
 20
-270.8625529566727
 30
0.0
 11
545.7856418126712
 21
-238.8627013027379
 31
0.0
  0
LINE
  5
288
330
1F
100
AcDbEntity
  8
B-0
  6
Continuous
 62
     3
370
     9
100
AcDbLine
 10
545.7856418126712
 20
-238.8627013027379
 30
0.0
 11
547.7856635078413
 21
-237.8625975547551
 31
0.0
  0
LINE
  5
289
330
1F
100
AcDbEntity
  8
B-0
  6
Continuous
 62
     3
370
     9
100
AcDbLine
 10
547.7856635078413
 20
-278.1350438226086
 30
0.0
 11
547.7856635078413
 21
-271.8626567046555
 31
0.0
  0
LINE
  5
28A
330
1F
100
AcDbEntity
  8
B-0
  6
Continuous
 62
     3
370
     9
100
AcDbLine
 10
507.7857250732259
 20
-221.3624959865992
 30
0.0
 11
510.7856647155833
 21
-221.3624959865992
 31
0.0
  0
LINE
  5
28B
330
1F
100
AcDbEntity
  8
B-0
  6
Continuous
 62
     3
370
     9
100
AcDbLine
 10
524.0001888852694
 20
-238.8627013027379
 30
0.0
 11
545.7856418126712
 21
-238.8627013027379
 31
0.0
  0
LINE
  5
28C
330
1F
100
AcDbEntity
  8
B-0
  6
Continuous
 62
     3
370
     9
100
AcDbLine
 10
524.0001888852694
 20
-270.8625529566727
 30
0.0
 11
545.7856418126712
 21
-270.8625529566727
 31
0.0
  0
LINE
  5
28D
330
1F
100
AcDbEntity
  8
B-0
  6
Continuous
 62
     3
370
     9
100
AcDbLine
 10
516.3998834826682
 20
-221.8626717277876
 30
0.0
 11
510.7856647155833
 21
-221.8626717277876
 31
0.0
  0
LINE
  5
28E
330
1F
100
AcDbEntity
  8
B-0
  6
Continuous
 62
     3
370
     9
100
AcDbLine
 10
518.3964368963248
 20
-223.7452053866731
 30
0.0
 11
519.0088982515263
 21
-234.1562432883269
 31
0.0
  0
LINE
  5
28F
330
1F
100
AcDbEntity
  8
B-0
  6
Continuous
 62
     3
370
     9
100
AcDbLine
 10
516.3998834826682
 20
-287.862582531623
 30
0.0
 11
510.7856647155833
 21
-287.862582531623
 31
0.0
  0
LINE
  5
290
330
1F
100
AcDbEntity
  8
B-0
  6
Continuous
 62
     3
370
     9
100
AcDbLine
 10
518.3964368963248
 20
-285.9800488727375
 30
0.0
 11
519.0088982515263
 21
-275.5690109710837
 31
0.0
  0
LINE
  5
291
330
1F
100
AcDbEntity
  8
B-0
  6
Continuous
 62
     3
370
     9
100
AcDbLine
 10
507.7857250732259
 20
-243.3625488326756
 30
0.0
 11
512.7856864107533
 21
-243.3625488326756
 31
0.0
  0
LINE
  5
292
330
1F
100
AcDbEntity
  8
B-0
  6
Continuous
 62
     3
370
     9
100
AcDbLine
 10
512.7856864107533
 20
-243.3625488326756
 30
0.0
 11
512.7856864107533
 21
-266.3627054267347
 31
0.0
  0
LINE
  5
293
330
1F
100
AcDbEntity
  8
B-0
  6
Continuous
 62
     3
370
     9
100
AcDbLine
 10
512.7856864107533
 20
-248.1126081004045
 30
0.0
 11
510.7856647155833
 21
-248.1126081004045
 31
0.0
  0
LINE
  5
294
330
1F
100
AcDbEntity
  8
B-0
  6
Continuous
 62
     3
370
     9
100
AcDbLine
 10
510.7856647155833
 20
-261.6126461590057
 30
0.0
 11
512.7856864107533
 21
-261.6126461590057
 31
0.0
  0
LINE
  5
295
330
1F
100
AcDbEntity
  8
B-0
  6
Continuous
 62
     3
370
     9
100
AcDbLine
 10
512.7856864107533
 20
-266.3627054267347
 30
0.0
 11
507.7857250732259
 21
-266.3627054267347
 31
0.0
  0
LINE
  5
296
330
1F
100
AcDbEntity
  8
B-0
  6
Continuous
 62
     3
370
     9
100
AcDbLine
 10
519.7856075098528
 20
-262.862713910386
 30
0.0
 11
520.7856493242368
 21
-261.8626101624029
 31
0.0
  0
LINE
  5
297
330
1F
100
AcDbEntity
  8
B-0
  6
Continuous
 62
     3
370
     9
100
AcDbLine
 10
520.7856493242368
 20
-261.8626101624029
 30
0.0
 11
520.7856493242368
 21
-247.8626440970073
 31
0.0
  0
LINE
  5
298
330
1F
100
AcDbEntity
  8
B-0
  6
Continuous
 62
     3
370
     9
100
AcDbLine
 10
520.7856493242368
 20
-247.8626440970073
 30
0.0
 11
519.7856075098528
 21
-246.8625403490246
 31
0.0
  0
LINE
  5
299
330
1F
100
AcDbEntity
  8
B-0
  6
Continuous
 62
     3
370
     9
100
AcDbLine
 10
519.7856075098528
 20
-262.862713910386
 30
0.0
 11
519.7856075098528
 21
-246.8625403490246
 31
0.0
  0
LINE
  5
29A
330
1F
100
AcDbEntity
  8
B-0
  6
Continuous
 62
     3
370
     9
100
AcDbLine
 10
529.785654052105
 20
-246.8625403490246
 30
0.0
 11
512.7856864107533
 21
-246.8625403490246
 31
0.0
  0
LINE
  5
29B
330
1F
100
AcDbEntity
  8
B-0
  6
Continuous
 62
     3
370
     9
100
AcDbLine
 10
512.7856864107533
 20
-247.8626440970073
 30
0.0
 11
529.785654052105
 21
-247.8626440970073
 31
0.0
  0
LINE
  5
29C
330
1F
100
AcDbEntity
  8
B-0
  6
Continuous
 62
     3
370
     9
100
AcDbLine
 10
512.7856864107533
 20
-261.8626101624029
 30
0.0
 11
529.785654052105
 21
-261.8626101624029
 31
0.0
  0
LINE
  5
29D
330
1F
100
AcDbEntity
  8
B-0
  6
Continuous
 62
     3
370
     9
100
AcDbLine
 10
512.7856864107533
 20
-262.862713910386
 30
0.0
 11
529.785654052105
 21
-262.862713910386
 31
0.0
  0
LINE
  5
29E
330
1F
100
AcDbEntity
  8
B-0
  6
Continuous
 62
     3
370
     9
100
AcDbLine
 10
531.785675747275
 20
-244.8625805874529
 30
0.0
 11
545.7856418126712
 21
-244.8625805874529
 31
0.0
  0
LINE
  5
29F
330
1F
100
AcDbEntity
  8
B-0
  6
Continuous
 62
     3
370
     9
100
AcDbLine
 10
531.785675747275
 20
-264.8626736719576
 30
0.0
 11
545.7856418126712
 21
-264.8626736719576
 31
0.0
  0
LINE
  5
2A0
330
1F
100
AcDbEntity
  8
B-0
  6
Continuous
 62
     3
370
     9
100
AcDbLine
 10
529.785654052105
 20
-262.862713910386
 30
0.0
 11
529.785654052105
 21
-246.8625403490246
 31
0.0
  0
LINE
  5
2A1
330
1F
100
AcDbEntity
  8
B-0
  6
JWW_CENTER1
 62
     3
370
     9
100
AcDbLine
 10
506.1137656491146
 20
-254.8626271297054
 30
0.0
 11
547.685516879126
 21
-254.8626271297054
 31
0.0
  0
LINE
  5
2A2
330
1F
100
AcDbEntity
  8
B-0
  6
Continuous
 62
     3
370
     9
100
AcDbLine
 10
521.6355640959468
 20
-232.912616631187
 30
0.0
 11
518.9356927381427
 21
-232.912616631187
 31
0.0
  0
LINE
  5
2A3
330
1F
100
AcDbEntity
  8
B-0
  6
Continuous
 62
     3
370
     9
100
AcDbLine
 10
518.4533538733123
 20
-224.7126081946676
 30
0.0
 11
521.6355640959468
 21
-224.7126081946676
 31
0.0
  0
LINE
  5
2A4
330
1F
100
AcDbEntity
  8
B-0
  6
Continuous
 62
     3
370
     9
100
AcDbLine
 10
522.1356779035366
 20
-225.7875277295936
 30
0.0
 11
522.1356779035366
 21
-231.8874917094253
 31
0.0
  0
LINE
  5
2A5
330
1F
100
AcDbEntity
  8
B-0
  6
Continuous
 62
     3
370
     9
100
AcDbLine
 10
518.815108021935
 20
-230.862614522057
 30
0.0
 11
521.6355640959468
 21
-230.862614522057
 31
0.0
  0
LINE
  5
2A6
330
1F
100
AcDbEntity
  8
B-0
  6
Continuous
 62
     3
370
     9
100
AcDbLine
 10
521.6355640959468
 20
-226.8626949989137
 30
0.0
 11
518.5798222813738
 21
-226.8626949989137
 31
0.0
  0
LINE
  5
2A7
330
1F
100
AcDbEntity
  8
B-0
  6
Continuous
 62
     3
370
     9
100
AcDbLine
 10
522.1356779035366
 20
-226.8626949989137
 30
0.0
 11
524.2855789069872
 21
-226.8626949989137
 31
0.0
  0
LINE
  5
2A8
330
1F
100
AcDbEntity
  8
B-0
  6
Continuous
 62
     3
370
     9
100
AcDbLine
 10
524.2855789069872
 20
-226.8626949989137
 30
0.0
 11
524.7857546481762
 21
-227.3626230057083
 31
0.0
  0
LINE
  5
2A9
330
1F
100
AcDbEntity
  8
B-0
  6
Continuous
 62
     3
370
     9
100
AcDbLine
 10
524.7857546481762
 20
-227.3626230057083
 30
0.0
 11
524.7857546481762
 21
-230.3626865152627
 31
0.0
  0
LINE
  5
2AA
330
1F
100
AcDbEntity
  8
B-0
  6
Continuous
 62
     3
370
     9
100
AcDbLine
 10
524.7857546481762
 20
-230.3626865152627
 30
0.0
 11
524.2855789069872
 21
-230.862614522057
 31
0.0
  0
LINE
  5
2AB
330
1F
100
AcDbEntity
  8
B-0
  6
Continuous
 62
     3
370
     9
100
AcDbLine
 10
524.2855789069872
 20
-230.862614522057
 30
0.0
 11
522.1356779035366
 21
-230.862614522057
 31
0.0
  0
LINE
  5
2AC
330
1F
100
AcDbEntity
  8
B-0
  6
Continuous
 62
     3
370
     9
100
AcDbLine
 10
522.1356779035366
 20
-230.3626865152627
 30
0.0
 11
524.7857546481762
 21
-230.3626865152627
 31
0.0
  0
LINE
  5
2AD
330
1F
100
AcDbEntity
  8
B-0
  6
Continuous
 62
     3
370
     9
100
AcDbLine
 10
522.1356779035366
 20
-227.3626230057083
 30
0.0
 11
524.7857546481762
 21
-227.3626230057083
 31
0.0
  0
LINE
  5
2AE
330
1F
100
AcDbEntity
  8
B-0
  6
Continuous
 62
     3
370
     9
100
AcDbLine
 10
524.2855789069872
 20
-226.8626949989137
 30
0.0
 11
524.2855789069872
 21
-230.862614522057
 31
0.0
  0
LINE
  5
2AF
330
1F
100
AcDbEntity
  8
B-0
  6
Continuous
 62
     3
370
     9
100
AcDbLine
 10
521.6355640959468
 20
-276.8126376282236
 30
0.0
 11
518.9356927381427
 21
-276.8126376282236
 31
0.0
  0
LINE
  5
2B0
330
1F
100
AcDbEntity
  8
B-0
  6
Continuous
 62
     3
370
     9
100
AcDbLine
 10
518.4533538733123
 20
-285.0126460647435
 30
0.0
 11
521.6355640959468
 21
-285.0126460647435
 31
0.0
  0
LINE
  5
2B1
330
1F
100
AcDbEntity
  8
B-0
  6
Continuous
 62
     3
370
     9
100
AcDbLine
 10
522.1356779035366
 20
-283.9374787954232
 30
0.0
 11
522.1356779035366
 21
-277.8377625499853
 31
0.0
  0
LINE
  5
2B2
330
1F
100
AcDbEntity
  8
B-0
  6
Continuous
 62
     3
370
     9
100
AcDbLine
 10
518.815108021935
 20
-278.8626397373536
 30
0.0
 11
521.6355640959468
 21
-278.8626397373536
 31
0.0
  0
LINE
  5
2B3
330
1F
100
AcDbEntity
  8
B-0
  6
Continuous
 62
     3
370
     9
100
AcDbLine
 10
521.6355640959468
 20
-282.862806994891
 30
0.0
 11
518.5798222813738
 21
-282.862806994891
 31
0.0
  0
LINE
  5
2B4
330
1F
100
AcDbEntity
  8
B-0
  6
Continuous
 62
     3
370
     9
100
AcDbLine
 10
522.1356779035366
 20
-282.862806994891
 30
0.0
 11
524.2855789069872
 21
-282.862806994891
 31
0.0
  0
LINE
  5
2B5
330
1F
100
AcDbEntity
  8
B-0
  6
Continuous
 62
     3
370
     9
100
AcDbLine
 10
524.2855789069872
 20
-282.862806994891
 30
0.0
 11
524.7857546481762
 21
-282.3626312537026
 31
0.0
  0
LINE
  5
2B6
330
1F
100
AcDbEntity
  8
B-0
  6
Continuous
 62
     3
370
     9
100
AcDbLine
 10
524.7857546481762
 20
-282.3626312537026
 30
0.0
 11
524.7857546481762
 21
-279.362815478542
 31
0.0
  0
LINE
  5
2B7
330
1F
100
AcDbEntity
  8
B-0
  6
Continuous
 62
     3
370
     9
100
AcDbLine
 10
524.7857546481762
 20
-279.362815478542
 30
0.0
 11
524.2855789069872
 21
-278.8626397373536
 31
0.0
  0
LINE
  5
2B8
330
1F
100
AcDbEntity
  8
B-0
  6
Continuous
 62
     3
370
     9
100
AcDbLine
 10
524.2855789069872
 20
-278.8626397373536
 30
0.0
 11
522.1356779035366
 21
-278.8626397373536
 31
0.0
  0
LINE
  5
2B9
330
1F
100
AcDbEntity
  8
B-0
  6
Continuous
 62
     3
370
     9
100
AcDbLine
 10
522.1356779035366
 20
-279.362815478542
 30
0.0
 11
524.7857546481762
 21
-279.362815478542
 31
0.0
  0
LINE
  5
2BA
330
1F
100
AcDbEntity
  8
B-0
  6
Continuous
 62
     3
370
     9
100
AcDbLine
 10
522.1356779035366
 20
-282.3626312537026
 30
0.0
 11
524.7857546481762
 21
-282.3626312537026
 31
0.0
  0
LINE
  5
2BB
330
1F
100
AcDbEntity
  8
B-0
  6
Continuous
 62
     3
370
     9
100
AcDbLine
 10
524.2855789069872
 20
-282.862806994891
 30
0.0
 11
524.2855789069872
 21
-278.8626397373536
 31
0.0
  0
LINE
  5
2BC
330
1F
100
AcDbEntity
  8
B-0
  6
JWW_CENTER1
 62
     3
370
     9
100
AcDbLine
 10
506.9217513746647
 20
-228.8626547604856
 30
0.0
 11
526.493573625797
 21
-228.8626547604856
 31
0.0
  0
LINE
  5
2BD
330
1F
100
AcDbEntity
  8
B-0
  6
JWW_CENTER1
 62
     3
370
     9
100
AcDbLine
 10
506.4325378804042
 20
-280.8625994989255
 30
0.0
 11
526.493573625797
 21
-280.8625994989255
 31
0.0
  0
LINE
  5
2BE
330
1F
100
AcDbEntity
  8
B-0
  6
Continuous
 62
     3
370
     9
100
AcDbLine
 10
555.2307013790951
 20
-45.24588578727121
 30
0.0
 11
547.7856635078413
 21
-46.36267243475872
 31
0.0
  0
LINE
  5
2BF
330
1F
100
AcDbEntity
  8
B-0
  6
Continuous
 62
     3
370
     9
100
AcDbLine
 10
555.2307013790951
 20
-59.47921765167608
 30
0.0
 11
547.7856635078413
 21
-58.36267873858263
 31
0.0
  0
LINE
  5
2C0
330
1F
100
AcDbEntity
  8
B-0
  6
Continuous
 62
     3
370
     9
100
AcDbLine
 10
557.7857719836921
 20
-62.44608475245444
 30
0.0
 11
557.7857719836921
 21
-200.0422263172543
 31
0.0
  0
LINE
  5
2C1
330
1F
100
AcDbEntity
  8
B-0
  6
Continuous
 62
     3
370
     9
100
AcDbLine
 10
567.7856946587476
 20
-66.38753895864868
 30
0.0
 11
567.7856946587476
 21
-201.3586868861869
 31
0.0
  0
LINE
  5
2C2
330
1F
100
AcDbEntity
  8
B-1
  6
Continuous
 62
     2
370
     9
100
AcDbLine
 10
552.7856867789674
 20
-288.6127222762086
 30
0.0
 11
552.7856867789674
 21
-296.7319693003326
 31
0.0
  0
LINE
  5
2C3
330
1F
100
AcDbEntity
  8
B-1
  6
Continuous
 62
     2
370
     9
100
AcDbLine
 10
552.7856867789674
 20
-296.7319693003326
 30
0.0
 11
575.7856575722311
 21
-296.7319693003326
 31
0.0
  0
LINE
  5
2C4
330
1F
100
AcDbEntity
  8
B-0
  6
Continuous
 62
     3
370
     9
100
AcDbLine
 10
554.7856465405393
 20
-280.4030521983286
 30
0.0
 11
554.7856465405393
 21
-286.4648650815069
 31
0.0
  0
LINE
  5
2C5
330
1F
100
AcDbEntity
  8
B-0
  6
Continuous
 62
     3
370
     9
100
AcDbLine
 10
572.2882053334191
 20
-61.41228912690751
 30
0.0
 11
612.7857182980878
 21
-57.3625749905999
 31
0.0
  0
LINE
  5
2C6
330
1F
100
AcDbEntity
  8
B-0
  6
Continuous
 62
     3
370
     9
100
AcDbLine
 10
572.2882053334191
 20
-43.31281431203978
 30
0.0
 11
612.7857182980878
 21
-47.36252844834767
 31
0.0
  0
LINE
  5
2C7
330
1F
100
AcDbEntity
  8
B-0
  6
Continuous
 62
     3
370
     9
100
AcDbLine
 10
612.7857182980878
 20
-57.3625749905999
 30
0.0
 11
557.7857719836921
 21
-254.8626271297054
 31
0.0
  0
LINE
  5
2C8
330
1F
100
AcDbEntity
  8
B-1
  6
Continuous
 62
     2
370
     9
100
AcDbLine
 10
582.7857025385273
 20
-347.3626860439491
 30
0.0
 11
582.7857025385273
 21
-165.0898761573846
 31
0.0
  0
LINE
  5
2C9
330
1F
100
AcDbEntity
  8
B-0
  6
JWW_CENTER1
 62
     3
370
     9
100
AcDbLine
 10
495.7855329686063
 20
32.6373484208836
 30
0.0
 11
624.7856626683133
 21
32.6373484208836
 31
0.0
  0
LINE
  5
2CA
330
1F
100
AcDbEntity
  8
B-0
  6
Continuous
 62
     3
370
     9
100
AcDbLine
 10
547.7856635078413
 20
-237.3626695479608
 30
0.0
 11
557.7857719836921
 21
-200.0422263172543
 31
0.0
  0
LINE
  5
2CB
330
1F
100
AcDbEntity
  8
B-0
  6
Continuous
 62
     3
370
     9
100
AcDbLine
 10
563.7856512684069
 20
-274.8627202142102
 30
0.0
 11
563.7856512684069
 21
-268.3626651883067
 31
0.0
  0
LINE
  5
2CC
330
1F
100
AcDbEntity
  8
B-1
  6
Continuous
 62
     2
370
     9
100
AcDbLine
 10
554.9860636651661
 20
-279.1527367125552
 30
0.0
 11
575.7856575722311
 21
-279.1527367125552
 31
0.0
  0
LINE
  5
2CD
330
1F
100
AcDbEntity
  8
B-0
  6
Continuous
 62
     3
370
     9
100
AcDbLine
 10
509.7857467683959
 20
-256.3626588844825
 30
0.0
 11
509.7857467683959
 21
-253.3625953749281
 31
0.0
  0
LINE
  5
2CE
330
1F
100
AcDbEntity
  8
B-0
  6
Continuous
 62
     3
370
     9
100
AcDbLine
 10
507.7857250732259
 20
-256.3626588844825
 30
0.0
 11
509.7857467683959
 21
-256.3626588844825
 31
0.0
  0
LINE
  5
2CF
330
1F
100
AcDbEntity
  8
B-0
  6
Continuous
 62
     3
370
     9
100
AcDbLine
 10
507.7857250732259
 20
-253.3625953749281
 30
0.0
 11
509.7857467683959
 21
-253.3625953749281
 31
0.0
  0
LINE
  5
2D0
330
1F
100
AcDbEntity
  8
B-1
  6
Continuous
 62
     2
370
     9
100
AcDbLine
 10
507.7857250732259
 20
366.6373174319916
 30
0.0
 11
510.7856647155833
 21
366.6373174319916
 31
0.0
  0
LINE
  5
2D1
330
1F
100
AcDbEntity
  8
B-1
  6
Continuous
 62
     2
370
     9
100
AcDbLine
 10
510.7856647155833
 20
366.6373174319916
 30
0.0
 11
510.7856647155833
 21
375.6375079606548
 31
0.0
  0
LINE
  5
2D2
330
1F
100
AcDbEntity
  8
B-1
  6
Continuous
 62
     2
370
     9
100
AcDbLine
 10
510.7856647155833
 20
375.6375079606548
 30
0.0
 11
522.7856710194069
 21
375.6375079606548
 31
0.0
  0
LINE
  5
2D3
330
1F
100
AcDbEntity
  8
B-1
  6
Continuous
 62
     2
370
     9
100
AcDbLine
 10
522.7856710194069
 20
375.6375079606548
 30
0.0
 11
522.7856710194069
 21
378.6373237358155
 31
0.0
  0
LINE
  5
2D4
330
1F
100
AcDbEntity
  8
B-1
  6
Continuous
 62
     2
370
     9
100
AcDbLine
 10
522.7856710194069
 20
378.6373237358155
 30
0.0
 11
507.7857250732259
 21
378.6373237358155
 31
0.0
  0
LINE
  5
2D5
330
1F
100
AcDbEntity
  8
B-1
  6
Continuous
 62
     2
370
     9
100
AcDbLine
 10
507.7857250732259
 20
378.6373237358155
 30
0.0
 11
507.7857250732259
 21
366.6373174319916
 31
0.0
  0
LINE
  5
2D6
330
1F
100
AcDbEntity
  8
B-1
  6
Continuous
 62
     2
370
     9
100
AcDbLine
 10
563.7856512684069
 20
334.0275437003917
 30
0.0
 11
582.7857025385273
 21
332.637258282091
 31
0.0
  0
LINE
  5
2D7
330
1F
100
AcDbEntity
  8
B-1
  6
Continuous
 62
     2
370
     9
100
AcDbLine
 10
563.7856512684069
 20
341.3042460510227
 30
0.0
 11
563.7856512684069
 21
333.6373620300737
 31
0.0
  0
LINE
  5
2D8
330
1F
100
AcDbEntity
  8
B-1
  6
Continuous
 62
     2
370
     9
100
AcDbLine
 10
575.7856575722311
 20
399.6375205683029
 30
0.0
 11
572.7856559962751
 21
401.6374803298746
 31
0.0
  0
LINE
  5
2D9
330
1F
100
AcDbEntity
  8
B-1
  6
Continuous
 62
     2
370
     9
100
AcDbLine
 10
572.7856559962751
 20
384.3822843292563
 30
0.0
 11
572.7856559962751
 21
411.6375268721271
 31
0.0
  0
LINE
  5
2DA
330
1F
100
AcDbEntity
  8
B-1
  6
Continuous
 62
     2
370
     9
100
AcDbLine
 10
572.7856559962751
 20
411.6375268721271
 30
0.0
 11
582.7857025385273
 21
412.6376306201099
 31
0.0
  0
LINE
  5
2DB
330
1F
100
AcDbEntity
  8
B-1
  6
Continuous
 62
     2
370
     9
100
AcDbLine
 10
574.0065530227789
 20
342.4396127780492
 30
0.0
 11
563.7856512684069
 21
341.3042460510227
 31
0.0
  0
LINE
  5
2DC
330
1F
100
AcDbEntity
  8
B-1
  6
Continuous
 62
     2
370
     9
100
AcDbLine
 10
573.9085740700104
 20
364.0029098877634
 30
0.0
 11
510.7856647155833
 21
367.8873851833715
 31
0.0
  0
LINE
  5
2DD
330
1F
100
AcDbEntity
  8
B-1
  6
Continuous
 62
     2
370
     9
100
AcDbLine
 10
575.7856575722311
 20
362.0066661420996
 30
0.0
 11
575.7856575722311
 21
344.4274335543219
 31
0.0
  0
LINE
  5
2DE
330
1F
100
AcDbEntity
  8
B-1
  6
Continuous
 62
     2
370
     9
100
AcDbLine
 10
570.2428482441737
 20
382.2728259656018
 30
0.0
 11
522.6712177294476
 21
378.6373237358155
 31
0.0
  0
LINE
  5
2DF
330
1F
100
AcDbEntity
  8
B-1
  6
Continuous
 62
     2
370
     9
100
AcDbLine
 10
575.7856575722311
 20
388.2551161083535
 30
0.0
 11
575.7856575722311
 21
399.6375205683029
 31
0.0
  0
LINE
  5
2E0
330
1F
100
AcDbEntity
  8
B-0
  6
Continuous
 62
     3
370
     9
100
AcDbLine
 10
510.7856647155833
 20
353.6374551145784
 30
0.0
 11
507.7857250732259
 21
353.6374551145784
 31
0.0
  0
LINE
  5
2E1
330
1F
100
AcDbEntity
  8
B-0
  6
Continuous
 62
     3
370
     9
100
AcDbLine
 10
507.7857250732259
 20
365.6374614184026
 30
0.0
 11
522.7856710194069
 21
365.6374614184026
 31
0.0
  0
LINE
  5
2E2
330
1F
100
AcDbEntity
  8
B-0
  6
Continuous
 62
     3
370
     9
100
AcDbLine
 10
522.7856710194069
 20
365.6374614184026
 30
0.0
 11
522.7856710194069
 21
362.6373979088482
 31
0.0
  0
LINE
  5
2E3
330
1F
100
AcDbEntity
  8
B-0
  6
Continuous
 62
     3
370
     9
100
AcDbLine
 10
522.7856710194069
 20
362.6373979088482
 30
0.0
 11
510.7856647155833
 21
362.6373979088482
 31
0.0
  0
LINE
  5
2E4
330
1F
100
AcDbEntity
  8
B-0
  6
Continuous
 62
     3
370
     9
100
AcDbLine
 10
567.7856946587476
 20
266.633383727954
 30
0.0
 11
557.7857719836921
 21
303.9540746930542
 31
0.0
  0
LINE
  5
2E5
330
1F
100
AcDbEntity
  8
B-0
  6
Continuous
 62
     3
370
     9
100
AcDbLine
 10
557.7857719836921
 20
328.7545171272399
 30
0.0
 11
557.7857719836921
 21
303.9540746930542
 31
0.0
  0
LINE
  5
2E6
330
1F
100
AcDbEntity
  8
B-0
  6
Continuous
 62
     3
370
     9
100
AcDbLine
 10
560.5207596918242
 20
332.5490648378795
 30
0.0
 11
563.7856512684069
 21
333.6373620300737
 31
0.0
  0
LINE
  5
2E7
330
1F
100
AcDbEntity
  8
B-0
  6
Continuous
 62
     3
370
     9
100
AcDbLine
 10
557.7151057478457
 20
341.8237450749317
 30
0.0
 11
563.7856512684069
 21
340.1374170559772
 31
0.0
  0
LINE
  5
2E8
330
1F
100
AcDbEntity
  8
B-0
  6
Continuous
 62
     3
370
     9
100
AcDbLine
 10
553.5150787680677
 20
353.6017813618637
 30
0.0
 11
522.7856710194069
 21
365.6374614184026
 31
0.0
  0
LINE
  5
2E9
330
1F
100
AcDbEntity
  8
B-0
  6
Continuous
 62
     3
370
     9
100
AcDbLine
 10
544.6310137365227
 20
347.3194848681567
 30
0.0
 11
510.7856647155833
 21
354.6373111281674
 31
0.0
  0
LINE
  5
2EA
330
1F
100
AcDbEntity
  8
B-0
  6
Continuous
 62
     3
370
     9
100
AcDbLine
 10
547.7856635078413
 20
337.1373535464227
 30
0.0
 11
545.7856418126712
 21
336.1374975328338
 31
0.0
  0
LINE
  5
2EB
330
1F
100
AcDbEntity
  8
B-0
  6
Continuous
 62
     3
370
     9
100
AcDbLine
 10
545.7856418126712
 20
336.1374975328338
 30
0.0
 11
545.7856418126712
 21
304.1373981445051
 31
0.0
  0
LINE
  5
2EC
330
1F
100
AcDbEntity
  8
B-0
  6
Continuous
 62
     3
370
     9
100
AcDbLine
 10
545.7856418126712
 20
304.1373981445051
 30
0.0
 11
547.7856635078413
 21
303.1375421309162
 31
0.0
  0
LINE
  5
2ED
330
1F
100
AcDbEntity
  8
B-0
  6
Continuous
 62
     3
370
     9
100
AcDbLine
 10
547.7856635078413
 20
343.4097406643756
 30
0.0
 11
547.7856635078413
 21
337.1373535464227
 31
0.0
  0
LINE
  5
2EE
330
1F
100
AcDbEntity
  8
B-0
  6
Continuous
 62
     3
370
     9
100
AcDbLine
 10
507.7857250732259
 20
286.6371928283666
 30
0.0
 11
510.7856647155833
 21
286.6371928283666
 31
0.0
  0
LINE
  5
2EF
330
1F
100
AcDbEntity
  8
B-0
  6
Continuous
 62
     3
370
     9
100
AcDbLine
 10
524.0001888852694
 20
304.1373981445051
 30
0.0
 11
545.7856418126712
 21
304.1373981445051
 31
0.0
  0
LINE
  5
2F0
330
1F
100
AcDbEntity
  8
B-0
  6
Continuous
 62
     3
370
     9
100
AcDbLine
 10
524.0001888852694
 20
336.1374975328338
 30
0.0
 11
545.7856418126712
 21
336.1374975328338
 31
0.0
  0
LINE
  5
2F1
330
1F
100
AcDbEntity
  8
B-0
  6
Continuous
 62
     3
370
     9
100
AcDbLine
 10
516.3998834826682
 20
287.1373685695548
 30
0.0
 11
510.7856647155833
 21
287.1373685695548
 31
0.0
  0
LINE
  5
2F2
330
1F
100
AcDbEntity
  8
B-0
  6
Continuous
 62
     3
370
     9
100
AcDbLine
 10
518.3964368963248
 20
289.0201499628344
 30
0.0
 11
519.0088982515263
 21
299.4309401300942
 31
0.0
  0
LINE
  5
2F3
330
1F
100
AcDbEntity
  8
B-0
  6
Continuous
 62
     3
370
     9
100
AcDbLine
 10
516.3998834826682
 20
353.1372793733903
 30
0.0
 11
510.7856647155833
 21
353.1372793733903
 31
0.0
  0
LINE
  5
2F4
330
1F
100
AcDbEntity
  8
B-0
  6
Continuous
 62
     3
370
     9
100
AcDbLine
 10
518.3964368963248
 20
351.2549934488985
 30
0.0
 11
519.0088982515263
 21
340.8437078128509
 31
0.0
  0
LINE
  5
2F5
330
1F
100
AcDbEntity
  8
B-0
  6
Continuous
 62
     3
370
     9
100
AcDbLine
 10
507.7857250732259
 20
308.6374934088369
 30
0.0
 11
512.7856864107533
 21
308.6374934088369
 31
0.0
  0
LINE
  5
2F6
330
1F
100
AcDbEntity
  8
B-0
  6
Continuous
 62
     3
370
     9
100
AcDbLine
 10
512.7856864107533
 20
308.6374934088369
 30
0.0
 11
512.7856864107533
 21
331.637402268502
 31
0.0
  0
LINE
  5
2F7
330
1F
100
AcDbEntity
  8
B-0
  6
Continuous
 62
     3
370
     9
100
AcDbLine
 10
512.7856864107533
 20
313.3873049421718
 30
0.0
 11
510.7856647155833
 21
313.3873049421718
 31
0.0
  0
LINE
  5
2F8
330
1F
100
AcDbEntity
  8
B-0
  6
Continuous
 62
     3
370
     9
100
AcDbLine
 10
510.7856647155833
 20
326.8873430007731
 30
0.0
 11
512.7856864107533
 21
326.8873430007731
 31
0.0
  0
LINE
  5
2F9
330
1F
100
AcDbEntity
  8
B-0
  6
Continuous
 62
     3
370
     9
100
AcDbLine
 10
512.7856864107533
 20
331.637402268502
 30
0.0
 11
507.7857250732259
 21
331.637402268502
 31
0.0
  0
LINE
  5
2FA
330
1F
100
AcDbEntity
  8
B-0
  6
Continuous
 62
     3
370
     9
100
AcDbLine
 10
519.7856075098528
 20
328.1374107521532
 30
0.0
 11
520.7856493242368
 21
327.1375547385643
 31
0.0
  0
LINE
  5
2FB
330
1F
100
AcDbEntity
  8
B-0
  6
Continuous
 62
     3
370
     9
100
AcDbLine
 10
520.7856493242368
 20
327.1375547385643
 30
0.0
 11
520.7856493242368
 21
313.1373409387746
 31
0.0
  0
LINE
  5
2FC
330
1F
100
AcDbEntity
  8
B-0
  6
Continuous
 62
     3
370
     9
100
AcDbLine
 10
520.7856493242368
 20
313.1373409387746
 30
0.0
 11
519.7856075098528
 21
312.1374849251857
 31
0.0
  0
LINE
  5
2FD
330
1F
100
AcDbEntity
  8
B-0
  6
Continuous
 62
     3
370
     9
100
AcDbLine
 10
519.7856075098528
 20
328.1374107521532
 30
0.0
 11
519.7856075098528
 21
312.1374849251857
 31
0.0
  0
LINE
  5
2FE
330
1F
100
AcDbEntity
  8
B-0
  6
Continuous
 62
     3
370
     9
100
AcDbLine
 10
529.785654052105
 20
312.1374849251857
 30
0.0
 11
512.7856864107533
 21
312.1374849251857
 31
0.0
  0
LINE
  5
2FF
330
1F
100
AcDbEntity
  8
B-0
  6
Continuous
 62
     3
370
     9
100
AcDbLine
 10
512.7856864107533
 20
313.1373409387746
 30
0.0
 11
529.785654052105
 21
313.1373409387746
 31
0.0
  0
LINE
  5
300
330
1F
100
AcDbEntity
  8
B-0
  6
Continuous
 62
     3
370
     9
100
AcDbLine
 10
512.7856864107533
 20
327.1375547385643
 30
0.0
 11
529.785654052105
 21
327.1375547385643
 31
0.0
  0
LINE
  5
301
330
1F
100
AcDbEntity
  8
B-0
  6
Continuous
 62
     3
370
     9
100
AcDbLine
 10
512.7856864107533
 20
328.1374107521532
 30
0.0
 11
529.785654052105
 21
328.1374107521532
 31
0.0
  0
LINE
  5
302
330
1F
100
AcDbEntity
  8
B-0
  6
Continuous
 62
     3
370
     9
100
AcDbLine
 10
531.785675747275
 20
310.137525163614
 30
0.0
 11
545.7856418126712
 21
310.137525163614
 31
0.0
  0
LINE
  5
303
330
1F
100
AcDbEntity
  8
B-0
  6
Continuous
 62
     3
370
     9
100
AcDbLine
 10
531.785675747275
 20
330.1373705137249
 30
0.0
 11
545.7856418126712
 21
330.1373705137249
 31
0.0
  0
LINE
  5
304
330
1F
100
AcDbEntity
  8
B-0
  6
Continuous
 62
     3
370
     9
100
AcDbLine
 10
529.785654052105
 20
328.1374107521532
 30
0.0
 11
529.785654052105
 21
312.1374849251857
 31
0.0
  0
LINE
  5
305
330
1F
100
AcDbEntity
  8
B-0
  6
JWW_CENTER1
 62
     3
370
     9
100
AcDbLine
 10
506.1137656491146
 20
320.1375717058665
 30
0.0
 11
547.685516879126
 21
320.1375717058665
 31
0.0
  0
LINE
  5
306
330
1F
100
AcDbEntity
  8
B-0
  6
Continuous
 62
     3
370
     9
100
AcDbLine
 10
521.6355640959468
 20
298.1873134729543
 30
0.0
 11
518.9356927381427
 21
298.1873134729543
 31
0.0
  0
LINE
  5
307
330
1F
100
AcDbEntity
  8
B-0
  6
Continuous
 62
     3
370
     9
100
AcDbLine
 10
518.4533538733123
 20
289.9873050364346
 30
0.0
 11
521.6355640959468
 21
289.9873050364346
 31
0.0
  0
LINE
  5
308
330
1F
100
AcDbEntity
  8
B-0
  6
Continuous
 62
     3
370
     9
100
AcDbLine
 10
522.1356779035366
 20
291.0624723057549
 30
0.0
 11
522.1356779035366
 21
297.1624362855864
 31
0.0
  0
LINE
  5
309
330
1F
100
AcDbEntity
  8
B-0
  6
Continuous
 62
     3
370
     9
100
AcDbLine
 10
518.815108021935
 20
296.1373113638243
 30
0.0
 11
521.6355640959468
 21
296.1373113638243
 31
0.0
  0
LINE
  5
30A
330
1F
100
AcDbEntity
  8
B-0
  6
Continuous
 62
     3
370
     9
100
AcDbLine
 10
521.6355640959468
 20
292.1373918406811
 30
0.0
 11
518.5798222813738
 21
292.1373918406811
 31
0.0
  0
LINE
  5
30B
330
1F
100
AcDbEntity
  8
B-0
  6
Continuous
 62
     3
370
     9
100
AcDbLine
 10
522.1356779035366
 20
292.1373918406811
 30
0.0
 11
524.2855789069872
 21
292.1373918406811
 31
0.0
  0
LINE
  5
30C
330
1F
100
AcDbEntity
  8
B-0
  6
Continuous
 62
     3
370
     9
100
AcDbLine
 10
524.2855789069872
 20
292.1373918406811
 30
0.0
 11
524.7857546481762
 21
292.6373198474756
 31
0.0
  0
LINE
  5
30D
330
1F
100
AcDbEntity
  8
B-0
  6
Continuous
 62
     3
370
     9
100
AcDbLine
 10
524.7857546481762
 20
292.6373198474756
 30
0.0
 11
524.7857546481762
 21
295.63738335703
 31
0.0
  0
LINE
  5
30E
330
1F
100
AcDbEntity
  8
B-0
  6
Continuous
 62
     3
370
     9
100
AcDbLine
 10
524.7857546481762
 20
295.63738335703
 30
0.0
 11
524.2855789069872
 21
296.1373113638243
 31
0.0
  0
LINE
  5
30F
330
1F
100
AcDbEntity
  8
B-0
  6
Continuous
 62
     3
370
     9
100
AcDbLine
 10
524.2855789069872
 20
296.1373113638243
 30
0.0
 11
522.1356779035366
 21
296.1373113638243
 31
0.0
  0
LINE
  5
310
330
1F
100
AcDbEntity
  8
B-0
  6
Continuous
 62
     3
370
     9
100
AcDbLine
 10
522.1356779035366
 20
295.63738335703
 30
0.0
 11
524.7857546481762
 21
295.63738335703
 31
0.0
  0
LINE
  5
311
330
1F
100
AcDbEntity
  8
B-0
  6
Continuous
 62
     3
370
     9
100
AcDbLine
 10
522.1356779035366
 20
292.6373198474756
 30
0.0
 11
524.7857546481762
 21
292.6373198474756
 31
0.0
  0
LINE
  5
312
330
1F
100
AcDbEntity
  8
B-0
  6
Continuous
 62
     3
370
     9
100
AcDbLine
 10
524.2855789069872
 20
292.1373918406811
 30
0.0
 11
524.2855789069872
 21
296.1373113638243
 31
0.0
  0
LINE
  5
313
330
1F
100
AcDbEntity
  8
B-0
  6
Continuous
 62
     3
370
     9
100
AcDbLine
 10
521.6355640959468
 20
342.0873344699908
 30
0.0
 11
518.9356927381427
 21
342.0873344699908
 31
0.0
  0
LINE
  5
314
330
1F
100
AcDbEntity
  8
B-0
  6
Continuous
 62
     3
370
     9
100
AcDbLine
 10
518.4533538733123
 20
350.2873429065105
 30
0.0
 11
521.6355640959468
 21
350.2873429065105
 31
0.0
  0
LINE
  5
315
330
1F
100
AcDbEntity
  8
B-0
  6
Continuous
 62
     3
370
     9
100
AcDbLine
 10
522.1356779035366
 20
349.2124233715842
 30
0.0
 11
522.1356779035366
 21
343.1124593917526
 31
0.0
  0
LINE
  5
316
330
1F
100
AcDbEntity
  8
B-0
  6
Continuous
 62
     3
370
     9
100
AcDbLine
 10
518.815108021935
 20
344.1373365791205
 30
0.0
 11
521.6355640959468
 21
344.1373365791205
 31
0.0
  0
LINE
  5
317
330
1F
100
AcDbEntity
  8
B-0
  6
Continuous
 62
     3
370
     9
100
AcDbLine
 10
521.6355640959468
 20
348.137503836658
 30
0.0
 11
518.5798222813738
 21
348.137503836658
 31
0.0
  0
LINE
  5
318
330
1F
100
AcDbEntity
  8
B-0
  6
Continuous
 62
     3
370
     9
100
AcDbLine
 10
522.1356779035366
 20
348.137503836658
 30
0.0
 11
524.2855789069872
 21
348.137503836658
 31
0.0
  0
LINE
  5
319
330
1F
100
AcDbEntity
  8
B-0
  6
Continuous
 62
     3
370
     9
100
AcDbLine
 10
524.2855789069872
 20
348.137503836658
 30
0.0
 11
524.7857546481762
 21
347.6373280954696
 31
0.0
  0
LINE
  5
31A
330
1F
100
AcDbEntity
  8
B-0
  6
Continuous
 62
     3
370
     9
100
AcDbLine
 10
524.7857546481762
 20
347.6373280954696
 30
0.0
 11
524.7857546481762
 21
344.6375123203089
 31
0.0
  0
LINE
  5
31B
330
1F
100
AcDbEntity
  8
B-0
  6
Continuous
 62
     3
370
     9
100
AcDbLine
 10
524.7857546481762
 20
344.6375123203089
 30
0.0
 11
524.2855789069872
 21
344.1373365791205
 31
0.0
  0
LINE
  5
31C
330
1F
100
AcDbEntity
  8
B-0
  6
Continuous
 62
     3
370
     9
100
AcDbLine
 10
524.2855789069872
 20
344.1373365791205
 30
0.0
 11
522.1356779035366
 21
344.1373365791205
 31
0.0
  0
LINE
  5
31D
330
1F
100
AcDbEntity
  8
B-0
  6
Continuous
 62
     3
370
     9
100
AcDbLine
 10
522.1356779035366
 20
344.6375123203089
 30
0.0
 11
524.7857546481762
 21
344.6375123203089
 31
0.0
  0
LINE
  5
31E
330
1F
100
AcDbEntity
  8
B-0
  6
Continuous
 62
     3
370
     9
100
AcDbLine
 10
522.1356779035366
 20
347.6373280954696
 30
0.0
 11
524.7857546481762
 21
347.6373280954696
 31
0.0
  0
LINE
  5
31F
330
1F
100
AcDbEntity
  8
B-0
  6
Continuous
 62
     3
370
     9
100
AcDbLine
 10
524.2855789069872
 20
348.137503836658
 30
0.0
 11
524.2855789069872
 21
344.1373365791205
 31
0.0
  0
LINE
  5
320
330
1F
100
AcDbEntity
  8
B-0
  6
JWW_CENTER1
 62
     3
370
     9
100
AcDbLine
 10
506.9217513746647
 20
294.1373516022526
 30
0.0
 11
526.493573625797
 21
294.1373516022526
 31
0.0
  0
LINE
  5
321
330
1F
100
AcDbEntity
  8
B-0
  6
JWW_CENTER1
 62
     3
370
     9
100
AcDbLine
 10
506.4325378804042
 20
346.1375440750863
 30
0.0
 11
526.493573625797
 21
346.1375440750863
 31
0.0
  0
LINE
  5
322
330
1F
100
AcDbEntity
  8
B-0
  6
Continuous
 62
     3
370
     9
100
AcDbLine
 10
555.2307013790951
 20
110.5205826290385
 30
0.0
 11
547.7856635078413
 21
111.6373692765258
 31
0.0
  0
LINE
  5
323
330
1F
100
AcDbEntity
  8
B-0
  6
Continuous
 62
     3
370
     9
100
AcDbLine
 10
555.2307013790951
 20
124.7541622278371
 30
0.0
 11
547.7856635078413
 21
123.6373755803499
 31
0.0
  0
LINE
  5
324
330
1F
100
AcDbEntity
  8
B-0
  6
Continuous
 62
     3
370
     9
100
AcDbLine
 10
557.7857719836921
 20
127.7210293286153
 30
0.0
 11
557.7857719836921
 21
265.3169231590215
 31
0.0
  0
LINE
  5
325
330
1F
100
AcDbEntity
  8
B-0
  6
Continuous
 62
     3
370
     9
100
AcDbLine
 10
567.7856946587476
 20
131.6622358004158
 30
0.0
 11
567.7856946587476
 21
266.633383727954
 31
0.0
  0
LINE
  5
326
330
1F
100
AcDbEntity
  8
B-1
  6
Continuous
 62
     2
370
     9
100
AcDbLine
 10
552.7856867789674
 20
353.8874191179759
 30
0.0
 11
552.7856867789674
 21
362.0066661420996
 31
0.0
  0
LINE
  5
327
330
1F
100
AcDbEntity
  8
B-1
  6
Continuous
 62
     2
370
     9
100
AcDbLine
 10
552.7856867789674
 20
362.0066661420996
 30
0.0
 11
575.7856575722311
 21
362.0066661420996
 31
0.0
  0
LINE
  5
328
330
1F
100
AcDbEntity
  8
B-0
  6
Continuous
 62
     3
370
     9
100
AcDbLine
 10
554.7856465405393
 20
345.6777490400959
 30
0.0
 11
554.7856465405393
 21
351.7395619232742
 31
0.0
  0
LINE
  5
329
330
1F
100
AcDbEntity
  8
B-0
  6
Continuous
 62
     3
370
     9
100
AcDbLine
 10
572.2882053334191
 20
126.6872337030687
 30
0.0
 11
612.7857182980878
 21
122.6375195667609
 31
0.0
  0
LINE
  5
32A
330
1F
100
AcDbEntity
  8
B-0
  6
Continuous
 62
     3
370
     9
100
AcDbLine
 10
572.2882053334191
 20
108.5877588882008
 30
0.0
 11
612.7857182980878
 21
112.6374730245086
 31
0.0
  0
LINE
  5
32B
330
1F
100
AcDbEntity
  8
B-0
  6
Continuous
 62
     3
370
     9
100
AcDbLine
 10
612.7857182980878
 20
122.6375195667609
 30
0.0
 11
557.7857719836921
 21
320.1375717058665
 31
0.0
  0
LINE
  5
32C
330
1F
100
AcDbEntity
  8
B-1
  6
Continuous
 62
     2
370
     9
100
AcDbLine
 10
582.7857025385273
 20
412.6376306201099
 30
0.0
 11
582.7857025385273
 21
230.3645729991519
 31
0.0
  0
LINE
  5
32D
330
1F
100
AcDbEntity
  8
B-0
  6
Continuous
 62
     3
370
     9
100
AcDbLine
 10
547.7856635078413
 20
302.6373663897278
 30
0.0
 11
557.7857719836921
 21
265.3169231590215
 31
0.0
  0
LINE
  5
32E
330
1F
100
AcDbEntity
  8
B-0
  6
Continuous
 62
     3
370
     9
100
AcDbLine
 10
563.7856512684069
 20
340.1374170559772
 30
0.0
 11
563.7856512684069
 21
333.6373620300737
 31
0.0
  0
LINE
  5
32F
330
1F
100
AcDbEntity
  8
B-1
  6
Continuous
 62
     2
370
     9
100
AcDbLine
 10
554.9860636651661
 20
344.4274335543219
 30
0.0
 11
575.7856575722311
 21
344.4274335543219
 31
0.0
  0
LINE
  5
330
330
1F
100
AcDbEntity
  8
B-0
  6
Continuous
 62
     3
370
     9
100
AcDbLine
 10
509.7857467683959
 20
321.6373557262498
 30
0.0
 11
509.7857467683959
 21
318.6375399510891
 31
0.0
  0
LINE
  5
331
330
1F
100
AcDbEntity
  8
B-0
  6
Continuous
 62
     3
370
     9
100
AcDbLine
 10
507.7857250732259
 20
321.6373557262498
 30
0.0
 11
509.7857467683959
 21
321.6373557262498
 31
0.0
  0
LINE
  5
332
330
1F
100
AcDbEntity
  8
B-0
  6
Continuous
 62
     3
370
     9
100
AcDbLine
 10
507.7857250732259
 20
318.6375399510891
 30
0.0
 11
509.7857467683959
 21
318.6375399510891
 31
0.0
  0
LINE
  5
333
330
1F
100
AcDbEntity
  8
B-0
  6
Continuous
 62
     3
370
     9
100
AcDbLine
 10
507.7857250732259
 20
-300.3625168422416
 30
0.0
 11
507.7857250732259
 21
365.6374614184026
 31
0.0
  0
LINE
  5
334
330
1F
100
AcDbEntity
  8
B-0
  6
Continuous
 62
     3
370
     9
100
AcDbLine
 10
510.7856647155833
 20
362.6373979088482
 30
0.0
 11
510.7856647155833
 21
-297.3627010670809
 31
0.0
  0
LINE
  5
335
330
1F
100
AcDbEntity
  8
B-0
  6
Continuous
 62
     3
370
     9
100
AcDbLine
 10
557.7857719836921
 20
107.5537155282603
 30
0.0
 11
557.7857719836921
 21
-42.27901868649313
 31
0.0
  0
LINE
  5
336
330
1F
100
AcDbEntity
  8
B-0
  6
Continuous
 62
     3
370
     9
100
AcDbLine
 10
567.7856946587476
 20
103.6125090564598
 30
0.0
 11
567.7856946587476
 21
-38.33756448029889
 31
0.0
  0
LINE
  5
337
330
1F
100
AcDbEntity
  8
B-0
  6
Continuous
 62
     3
370
     9
100
AcDbLine
 10
612.7857182980878
 20
122.6375195667609
 30
0.0
 11
612.7857182980878
 21
-57.3625749905999
 31
0.0
  0
LINE
  5
338
330
1F
100
AcDbEntity
  8
B-A
  6
Continuous
 62
     2
370
     9
100
AcDbLine
 10
562.5074656633248
 20
-337.3616485641212
 30
0.0
 11
568.2853749311479
 21
-337.3616485641212
 31
0.0
  0
LINE
  5
339
330
1F
100
AcDbEntity
  8
B-A
  6
Continuous
 62
     2
370
     9
100
AcDbLine
 10
590.8639495204684
 20
-322.3618264851364
 30
0.0
 11
585.0857305846531
 21
-322.3618264851364
 31
0.0
  0
LINE
  5
33A
330
1F
100
AcDbEntity
  8
B-A
  6
Continuous
 62
     2
370
     9
100
AcDbLine
 10
590.8639495204684
 20
-337.3616485641212
 30
0.0
 11
585.0857305846531
 21
-337.3616485641212
 31
0.0
  0
LINE
  5
33B
330
1F
100
AcDbEntity
  8
B-A
  6
Continuous
 62
     2
370
     9
100
AcDbLine
 10
590.8639495204684
 20
-326.114507083215
 30
0.0
 11
585.0857305846531
 21
-326.114507083215
 31
0.0
  0
LINE
  5
33C
330
1F
100
AcDbEntity
  8
B-A
  6
Continuous
 62
     2
370
     9
100
AcDbLine
 10
590.8639495204684
 20
-333.608472497255
 30
0.0
 11
585.0857305846531
 21
-333.608472497255
 31
0.0
  0
LINE
  5
33D
330
1F
100
AcDbEntity
  8
B-A
  6
Continuous
 62
     2
370
     9
100
AcDbLine
 10
591.5857856105563
 20
-324.238166784176
 30
0.0
 11
591.5857856105563
 21
-335.4853082650822
 31
0.0
  0
LINE
  5
33E
330
1F
100
AcDbEntity
  8
B-A
  6
Continuous
 62
     2
370
     9
100
AcDbLine
 10
560.0857380962193
 20
-332.8618010341835
 30
0.0
 11
561.0854702426112
 21
-333.8621525165603
 31
0.0
  0
LINE
  5
33F
330
1F
100
AcDbEntity
  8
B-A
  6
Continuous
 62
     2
370
     9
100
AcDbLine
 10
561.7855676396382
 20
-333.8621525165603
 30
0.0
 11
561.0854702426112
 21
-333.8621525165603
 31
0.0
  0
LINE
  5
340
330
1F
100
AcDbEntity
  8
B-A
  6
Continuous
 62
     2
370
     9
100
AcDbLine
 10
561.7855676396382
 20
-332.8618010341835
 30
0.0
 11
560.0857380962193
 21
-332.8618010341835
 31
0.0
  0
LINE
  5
341
330
1F
100
AcDbEntity
  8
B-A
  6
Continuous
 62
     2
370
     9
100
AcDbLine
 10
585.0857305846531
 20
-342.8618475764357
 30
0.0
 11
585.0857305846531
 21
-316.8616274728219
 31
0.0
  0
LINE
  5
342
330
1F
100
AcDbEntity
  8
B-A
  6
Continuous
 62
     2
370
     9
100
AcDbLine
 10
585.0857305846531
 20
-342.8618475764357
 30
0.0
 11
582.7857025385273
 21
-342.8618475764357
 31
0.0
  0
LINE
  5
343
330
1F
100
AcDbEntity
  8
B-A
  6
Continuous
 62
     2
370
     9
100
AcDbLine
 10
585.0857305846531
 20
-316.8616274728219
 30
0.0
 11
582.7857025385273
 21
-316.8616274728219
 31
0.0
  0
LINE
  5
344
330
1F
100
AcDbEntity
  8
B-A
  6
JWW_CENTER1
 62
     2
370
     9
100
AcDbLine
 10
555.0857148250932
 20
-329.8617375246288
 30
0.0
 11
596.585870815281
 21
-329.8617375246288
 31
0.0
  0
LINE
  5
345
330
1F
100
AcDbEntity
  8
B-3
  6
Continuous
 62
     4
370
     9
100
AcDbLine
 10
568.2853749311479
 20
-387.3618812753829
 30
0.0
 11
572.7857798634718
 21
-387.3618812753829
 31
0.0
  0
LINE
  5
346
330
1F
100
AcDbEntity
  8
B-A
  6
Continuous
 62
     2
370
     9
100
AcDbLine
 10
562.5074656633248
 20
402.6365931402822
 30
0.0
 11
568.2853749311479
 21
402.6365931402822
 31
0.0
  0
LINE
  5
347
330
1F
100
AcDbEntity
  8
B-A
  6
Continuous
 62
     2
370
     9
100
AcDbLine
 10
590.8639495204684
 20
387.6367710612974
 30
0.0
 11
585.0857305846531
 21
387.6367710612974
 31
0.0
  0
LINE
  5
348
330
1F
100
AcDbEntity
  8
B-A
  6
Continuous
 62
     2
370
     9
100
AcDbLine
 10
590.8639495204684
 20
402.6365931402822
 30
0.0
 11
585.0857305846531
 21
402.6365931402822
 31
0.0
  0
LINE
  5
349
330
1F
100
AcDbEntity
  8
B-A
  6
Continuous
 62
     2
370
     9
100
AcDbLine
 10
590.8639495204684
 20
391.389451659376
 30
0.0
 11
585.0857305846531
 21
391.389451659376
 31
0.0
  0
LINE
  5
34A
330
1F
100
AcDbEntity
  8
B-A
  6
Continuous
 62
     2
370
     9
100
AcDbLine
 10
590.8639495204684
 20
398.8836648078098
 30
0.0
 11
585.0857305846531
 21
398.8836648078098
 31
0.0
  0
LINE
  5
34B
330
1F
100
AcDbEntity
  8
B-A
  6
Continuous
 62
     2
370
     9
100
AcDbLine
 10
591.5857856105563
 20
389.5131113603367
 30
0.0
 11
591.5857856105563
 21
400.7605005756367
 31
0.0
  0
LINE
  5
34C
330
1F
100
AcDbEntity
  8
B-A
  6
Continuous
 62
     2
370
     9
100
AcDbLine
 10
560.0857380962193
 20
398.1367456103442
 30
0.0
 11
561.0854702426112
 21
399.1370970927208
 31
0.0
  0
LINE
  5
34D
330
1F
100
AcDbEntity
  8
B-A
  6
Continuous
 62
     2
370
     9
100
AcDbLine
 10
561.7855676396382
 20
399.1370970927208
 30
0.0
 11
561.0854702426112
 21
399.1370970927208
 31
0.0
  0
LINE
  5
34E
330
1F
100
AcDbEntity
  8
B-A
  6
Continuous
 62
     2
370
     9
100
AcDbLine
 10
561.7855676396382
 20
398.1367456103442
 30
0.0
 11
560.0857380962193
 21
398.1367456103442
 31
0.0
  0
LINE
  5
34F
330
1F
100
AcDbEntity
  8
B-A
  6
Continuous
 62
     2
370
     9
100
AcDbLine
 10
585.0857305846531
 20
408.1370398869905
 30
0.0
 11
585.0857305846531
 21
382.1368197833767
 31
0.0
  0
LINE
  5
350
330
1F
100
AcDbEntity
  8
B-A
  6
Continuous
 62
     2
370
     9
100
AcDbLine
 10
585.0857305846531
 20
408.1370398869905
 30
0.0
 11
582.7857025385273
 21
408.1370398869905
 31
0.0
  0
LINE
  5
351
330
1F
100
AcDbEntity
  8
B-A
  6
Continuous
 62
     2
370
     9
100
AcDbLine
 10
585.0857305846531
 20
382.1368197833767
 30
0.0
 11
582.7857025385273
 21
382.1368197833767
 31
0.0
  0
LINE
  5
352
330
1F
100
AcDbEntity
  8
B-3
  6
Continuous
 62
     4
370
     9
100
AcDbLine
 10
572.7857798634718
 20
452.6370735859377
 30
0.0
 11
568.2853749311479
 21
452.6370735859377
 31
0.0
  0
LINE
  5
353
330
1F
100
AcDbEntity
  8
B-A
  6
JWW_CENTER1
 62
     2
370
     9
100
AcDbLine
 10
555.0857148250932
 20
395.1366821007898
 30
0.0
 11
596.585870815281
 21
395.1366821007898
 31
0.0
  0
LINE
  5
354
330
1F
100
AcDbEntity
  8
B-1
  6
Continuous
 62
     2
370
     9
100
AcDbLine
 10
572.785408261881
 20
-336.362721554509
 30
0.0
 11
530.785633932891
 21
-313.9827060818617
 31
0.0
  0
LINE
  5
355
330
1F
100
AcDbEntity
  8
B-3
  6
Continuous
 62
     4
370
     9
100
AcDbLine
 10
568.2853749311479
 20
-387.3618812753829
 30
0.0
 11
568.2853749311479
 21
-333.964838422812
 31
0.0
  0
LINE
  5
356
330
1F
100
AcDbEntity
  8
B-3
  6
Continuous
 62
     4
370
     9
100
AcDbLine
 10
572.7857798634718
 20
-336.3629073553044
 30
0.0
 11
572.7857798634718
 21
-387.3618812753829
 31
0.0
  0
LINE
  5
357
330
1F
100
AcDbEntity
  8
B-A
  6
Continuous
 62
     2
370
     9
100
AcDbLine
 10
562.5074656633248
 20
-333.608472497255
 30
0.0
 11
567.6166159349432
 21
-333.608472497255
 31
0.0
  0
LINE
  5
358
330
1F
100
AcDbEntity
  8
B-A
  6
Continuous
 62
     2
370
     9
100
AcDbLine
 10
561.0854702426112
 20
-333.8621525165603
 30
0.0
 11
561.0854702426112
 21
-330.1282997324141
 31
0.0
  0
LINE
  5
359
330
1F
100
AcDbEntity
  8
B-A
  6
Continuous
 62
     2
370
     9
100
AcDbLine
 10
560.0857380962193
 20
-332.8618010341835
 30
0.0
 11
560.0857380962193
 21
-329.5955469184343
 31
0.0
  0
LINE
  5
35A
330
1F
100
AcDbEntity
  8
B-A
  6
Continuous
 62
     2
370
     9
100
AcDbLine
 10
561.7855676396382
 20
-335.4853082650822
 30
0.0
 11
561.7855676396382
 21
-330.501325795958
 31
0.0
  0
LINE
  5
35B
330
1F
100
AcDbEntity
  8
B-1
  6
Continuous
 62
     2
370
     9
100
AcDbLine
 10
572.7856559962751
 20
401.6374803298746
 30
0.0
 11
530.785633932891
 21
379.2574029236284
 31
0.0
  0
LINE
  5
35C
330
1F
100
AcDbEntity
  8
B-A
  6
Continuous
 62
     2
370
     9
100
AcDbLine
 10
560.0857380962193
 20
398.1367456103442
 30
0.0
 11
560.0857380962193
 21
394.8702437602012
 31
0.0
  0
LINE
  5
35D
330
1F
100
AcDbEntity
  8
B-A
  6
Continuous
 62
     2
370
     9
100
AcDbLine
 10
561.0854702426112
 20
399.1370970927208
 30
0.0
 11
561.0854702426112
 21
395.4029965741814
 31
0.0
  0
LINE
  5
35E
330
1F
100
AcDbEntity
  8
B-A
  6
Continuous
 62
     2
370
     9
100
AcDbLine
 10
562.5074656633248
 20
398.8836648078098
 30
0.0
 11
567.617668806117
 21
398.8836648078098
 31
0.0
  0
LINE
  5
35F
330
1F
100
AcDbEntity
  8
B-A
  6
Continuous
 62
     2
370
     9
100
AcDbLine
 10
561.7855676396382
 20
400.7605005756367
 30
0.0
 11
561.7855676396382
 21
395.7759607041263
 31
0.0
  0
LINE
  5
360
330
1F
100
AcDbEntity
  8
B-3
  6
Continuous
 62
     4
370
     9
100
AcDbLine
 10
568.2853749311479
 20
452.6370735859377
 30
0.0
 11
568.2853749311479
 21
399.239411397382
 31
0.0
  0
LINE
  5
361
330
1F
100
AcDbEntity
  8
B-3
  6
Continuous
 62
     4
370
     9
100
AcDbLine
 10
572.7857798634718
 20
401.6376041970717
 30
0.0
 11
572.7857798634718
 21
452.6370735859377
 31
0.0
  0
ARC
  5
362
330
1F
100
AcDbEntity
  8
B-1
  6
Continuous
 62
     2
370
     9
100
AcDbCircle
 10
573.7856978106597
 20
-279.1527367125552
 30
0.0
 40
2.000000526459751
100
AcDbArc
 50
0.0
 51
83.65980529785158
  0
ARC
  5
363
330
1F
100
AcDbEntity
  8
B-1
  6
Continuous
 62
     2
370
     9
100
AcDbCircle
 10
573.7856978106597
 20
-296.7319693003326
 30
0.0
 40
2.000000526459751
100
AcDbArc
 50
273.5214385986328
 51
0.0000000000000254
  0
ARC
  5
364
330
1F
100
AcDbEntity
  8
B-1
  6
Continuous
 62
     2
370
     9
100
AcDbCircle
 10
569.785654420319
 20
-322.9804192665863
 30
0.0
 40
6.000001700343312
100
AcDbArc
 50
0.0
 51
85.63021850585938
  0
ARC
  5
365
330
1F
100
AcDbEntity
  8
B-1
  6
Continuous
 62
     2
370
     9
100
AcDbCircle
 10
570.7856962347037
 20
-319.1073397530953
 30
0.0
 40
2.000000526459751
100
AcDbArc
 50
0.0
 51
75.52247619628906
  0
ARC
  5
366
330
1F
100
AcDbEntity
  8
B-0
  6
Continuous
 62
     3
370
     9
100
AcDbCircle
 10
561.7856295732369
 20
-263.4795725510788
 30
0.0
 40
4.000001052919502
100
AcDbArc
 50
180.0
 51
251.5650482177734
  0
ARC
  5
367
330
1F
100
AcDbEntity
  8
B-0
  6
Continuous
 62
     3
370
     9
100
AcDbCircle
 10
558.7856899308795
 20
-280.4030521983286
 30
0.0
 40
4.000001052919502
100
AcDbArc
 50
105.5241088867188
 51
180.0
  0
ARC
  5
368
330
1F
100
AcDbEntity
  8
B-0
  6
Continuous
 62
     3
370
     9
100
AcDbCircle
 10
552.7856867789674
 20
-286.4648650815069
 30
0.0
 40
2.000000526459751
100
AcDbArc
 50
291.3885192871094
 51
0.0000000000000254
  0
ARC
  5
369
330
1F
100
AcDbEntity
  8
B-0
  6
Continuous
 62
     3
370
     9
100
AcDbCircle
 10
543.7856201175011
 20
-278.1350438226086
 30
0.0
 40
4.000001052919502
100
AcDbArc
 50
282.2004547119141
 51
0.0000000000000254
  0
ARC
  5
36A
330
1F
100
AcDbEntity
  8
B-0
  6
Continuous
 62
     3
370
     9
100
AcDbCircle
 10
524.0001888852694
 20
-233.8626780316118
 30
0.0
 40
5.000001497595466
100
AcDbArc
 50
183.366455078125
 51
270.0
  0
ARC
  5
36B
330
1F
100
AcDbEntity
  8
B-0
  6
Continuous
 62
     3
370
     9
100
AcDbCircle
 10
524.0001888852694
 20
-275.8625762277994
 30
0.0
 40
5.000001497595466
100
AcDbArc
 50
90.0
 51
176.6335296630859
  0
ARC
  5
36C
330
1F
100
AcDbEntity
  8
B-0
  6
Continuous
 62
     3
370
     9
100
AcDbCircle
 10
516.3998834826682
 20
-223.8626314893592
 30
0.0
 40
2.000000526459751
100
AcDbArc
 50
3.366455078125005
 51
90.00000000000001
  0
ARC
  5
36D
330
1F
100
AcDbEntity
  8
B-0
  6
Continuous
 62
     3
370
     9
100
AcDbCircle
 10
516.3998834826682
 20
-285.8626227700516
 30
0.0
 40
2.000000526459751
100
AcDbArc
 50
270.0
 51
356.6335296630859
  0
ARC
  5
36E
330
1F
100
AcDbEntity
  8
B-0
  6
Continuous
 62
     3
370
     9
100
AcDbCircle
 10
531.785675747275
 20
-246.8625403490246
 30
0.0
 40
2.000000526459751
100
AcDbArc
 50
90.0
 51
180.0
  0
ARC
  5
36F
330
1F
100
AcDbEntity
  8
B-0
  6
Continuous
 62
     3
370
     9
100
AcDbCircle
 10
531.785675747275
 20
-262.862713910386
 30
0.0
 40
2.000000526459751
100
AcDbArc
 50
180.0
 51
270.0
  0
ARC
  5
370
330
1F
100
AcDbEntity
  8
B-0
  6
Continuous
 62
     3
370
     9
100
AcDbCircle
 10
520.7300948864158
 20
-225.7875277295936
 30
0.0
 40
1.405625233577715
100
AcDbArc
 50
310.1121826171875
 51
49.88780212402347
  0
ARC
  5
371
330
1F
100
AcDbEntity
  8
B-0
  6
Continuous
 62
     3
370
     9
100
AcDbCircle
 10
517.8857324433974
 20
-228.8626547604856
 30
0.0
 40
4.250001103606463
100
AcDbArc
 50
331.9275054931641
 51
28.07247924804685
  0
ARC
  5
372
330
1F
100
AcDbEntity
  8
B-0
  6
Continuous
 62
     3
370
     9
100
AcDbCircle
 10
520.8351342694092
 20
-231.8874917094253
 30
0.0
 40
1.300625405831687
100
AcDbArc
 50
307.9933013916016
 51
52.00668334960942
  0
ARC
  5
373
330
1F
100
AcDbEntity
  8
B-0
  6
Continuous
 62
     3
370
     9
100
AcDbCircle
 10
520.7300948864158
 20
-283.9374787954232
 30
0.0
 40
1.405625233577715
100
AcDbArc
 50
310.1121826171875
 51
49.88780212402347
  0
ARC
  5
374
330
1F
100
AcDbEntity
  8
B-0
  6
Continuous
 62
     3
370
     9
100
AcDbCircle
 10
517.8857324433974
 20
-280.8625994989255
 30
0.0
 40
4.250001103606463
100
AcDbArc
 50
331.9275054931641
 51
28.07247924804685
  0
ARC
  5
375
330
1F
100
AcDbEntity
  8
B-0
  6
Continuous
 62
     3
370
     9
100
AcDbCircle
 10
520.8351342694092
 20
-277.8377625499853
 30
0.0
 40
1.300625405831687
100
AcDbArc
 50
307.9933013916016
 51
52.00668334960942
  0
ARC
  5
376
330
1F
100
AcDbEntity
  8
B-0
  6
Continuous
 62
     3
370
     9
100
AcDbCircle
 10
554.7856465405393
 20
-42.27901868649313
 30
0.0
 40
3.000000850171656
100
AcDbArc
 50
278.53076171875
 51
0.0
  0
ARC
  5
377
330
1F
100
AcDbEntity
  8
B-0
  6
Continuous
 62
     3
370
     9
100
AcDbCircle
 10
554.7856465405393
 20
-62.44608475245444
 30
0.0
 40
3.000000850171656
100
AcDbArc
 50
0.0
 51
81.46922302246094
  0
ARC
  5
378
330
1F
100
AcDbEntity
  8
B-0
  6
Continuous
 62
     3
370
     9
100
AcDbCircle
 10
572.7856559962751
 20
-38.33756448029889
 30
0.0
 40
5.000001497595466
100
AcDbArc
 50
180.0
 51
264.2893981933594
  0
ARC
  5
379
330
1F
100
AcDbEntity
  8
B-0
  6
Continuous
 62
     3
370
     9
100
AcDbCircle
 10
572.7856559962751
 20
-66.38753895864868
 30
0.0
 40
5.000001497595466
100
AcDbArc
 50
95.71058654785156
 51
180.0
  0
ARC
  5
37A
330
1F
100
AcDbEntity
  8
B-1
  6
Continuous
 62
     2
370
     9
100
AcDbCircle
 10
573.7856978106597
 20
344.4274335543219
 30
0.0
 40
2.000000526459751
100
AcDbArc
 50
276.3401947021484
 51
0.0000000000000254
  0
ARC
  5
37B
330
1F
100
AcDbEntity
  8
B-1
  6
Continuous
 62
     2
370
     9
100
AcDbCircle
 10
573.7856978106597
 20
362.0066661420996
 30
0.0
 40
2.000000526459751
100
AcDbArc
 50
0.0
 51
86.4785614013672
  0
ARC
  5
37C
330
1F
100
AcDbEntity
  8
B-1
  6
Continuous
 62
     2
370
     9
100
AcDbCircle
 10
569.785654420319
 20
388.2551161083535
 30
0.0
 40
6.000001700343312
100
AcDbArc
 50
274.3697814941406
 51
0.0
  0
ARC
  5
37D
330
1F
100
AcDbEntity
  8
B-0
  6
Continuous
 62
     3
370
     9
100
AcDbCircle
 10
561.7856295732369
 20
328.7545171272399
 30
0.0
 40
4.000001052919502
100
AcDbArc
 50
108.4349517822266
 51
180.0
  0
ARC
  5
37E
330
1F
100
AcDbEntity
  8
B-0
  6
Continuous
 62
     3
370
     9
100
AcDbCircle
 10
558.7856899308795
 20
345.6777490400959
 30
0.0
 40
4.000001052919502
100
AcDbArc
 50
180.0
 51
254.4758911132812
  0
ARC
  5
37F
330
1F
100
AcDbEntity
  8
B-0
  6
Continuous
 62
     3
370
     9
100
AcDbCircle
 10
552.7856867789674
 20
351.7395619232742
 30
0.0
 40
2.000000526459751
100
AcDbArc
 50
0.0
 51
68.61148071289062
  0
ARC
  5
380
330
1F
100
AcDbEntity
  8
B-0
  6
Continuous
 62
     3
370
     9
100
AcDbCircle
 10
543.7856201175011
 20
343.4097406643756
 30
0.0
 40
4.000001052919502
100
AcDbArc
 50
0.0
 51
77.79954528808594
  0
ARC
  5
381
330
1F
100
AcDbEntity
  8
B-0
  6
Continuous
 62
     3
370
     9
100
AcDbCircle
 10
524.0001888852694
 20
299.137374873379
 30
0.0
 40
5.000001497595466
100
AcDbArc
 50
90.0
 51
176.633544921875
  0
ARC
  5
382
330
1F
100
AcDbEntity
  8
B-0
  6
Continuous
 62
     3
370
     9
100
AcDbCircle
 10
524.0001888852694
 20
341.1375208039599
 30
0.0
 40
5.000001497595466
100
AcDbArc
 50
183.3664703369141
 51
270.0
  0
ARC
  5
383
330
1F
100
AcDbEntity
  8
B-0
  6
Continuous
 62
     3
370
     9
100
AcDbCircle
 10
516.3998834826682
 20
289.1375760655205
 30
0.0
 40
2.000000526459751
100
AcDbArc
 50
270.0
 51
356.633544921875
  0
ARC
  5
384
330
1F
100
AcDbEntity
  8
B-0
  6
Continuous
 62
     3
370
     9
100
AcDbCircle
 10
516.3998834826682
 20
351.1375673462124
 30
0.0
 40
2.000000526459751
100
AcDbArc
 50
3.366470336914102
 51
90.00000000000004
  0
ARC
  5
385
330
1F
100
AcDbEntity
  8
B-0
  6
Continuous
 62
     3
370
     9
100
AcDbCircle
 10
531.785675747275
 20
312.1374849251857
 30
0.0
 40
2.000000526459751
100
AcDbArc
 50
180.0
 51
270.0
  0
ARC
  5
386
330
1F
100
AcDbEntity
  8
B-0
  6
Continuous
 62
     3
370
     9
100
AcDbCircle
 10
531.785675747275
 20
328.1374107521532
 30
0.0
 40
2.000000526459751
100
AcDbArc
 50
90.0
 51
180.0
  0
ARC
  5
387
330
1F
100
AcDbEntity
  8
B-0
  6
Continuous
 62
     3
370
     9
100
AcDbCircle
 10
520.7300948864158
 20
291.0624723057549
 30
0.0
 40
1.405625233577715
100
AcDbArc
 50
310.1121978759766
 51
49.88781738281251
  0
ARC
  5
388
330
1F
100
AcDbEntity
  8
B-0
  6
Continuous
 62
     3
370
     9
100
AcDbCircle
 10
517.8857324433974
 20
294.1373516022526
 30
0.0
 40
4.250001103606463
100
AcDbArc
 50
331.9275207519531
 51
28.07249450683595
  0
ARC
  5
389
330
1F
100
AcDbEntity
  8
B-0
  6
Continuous
 62
     3
370
     9
100
AcDbCircle
 10
520.8351342694092
 20
297.1624362855864
 30
0.0
 40
1.300625405831687
100
AcDbArc
 50
307.9933166503906
 51
52.00669860839847
  0
ARC
  5
38A
330
1F
100
AcDbEntity
  8
B-0
  6
Continuous
 62
     3
370
     9
100
AcDbCircle
 10
520.7300948864158
 20
349.2124233715842
 30
0.0
 40
1.405625233577715
100
AcDbArc
 50
310.1121978759766
 51
49.88781738281251
  0
ARC
  5
38B
330
1F
100
AcDbEntity
  8
B-0
  6
Continuous
 62
     3
370
     9
100
AcDbCircle
 10
517.8857324433974
 20
346.1375440750863
 30
0.0
 40
4.250001103606463
100
AcDbArc
 50
331.9275207519531
 51
28.07249450683595
  0
ARC
  5
38C
330
1F
100
AcDbEntity
  8
B-0
  6
Continuous
 62
     3
370
     9
100
AcDbCircle
 10
520.8351342694092
 20
343.1124593917526
 30
0.0
 40
1.300625405831687
100
AcDbArc
 50
307.9933166503906
 51
52.00669860839847
  0
ARC
  5
38D
330
1F
100
AcDbEntity
  8
B-0
  6
Continuous
 62
     3
370
     9
100
AcDbCircle
 10
554.7856465405393
 20
107.5537155282603
 30
0.0
 40
3.000000850171656
100
AcDbArc
 50
0.0
 51
81.46923828125
  0
ARC
  5
38E
330
1F
100
AcDbEntity
  8
B-0
  6
Continuous
 62
     3
370
     9
100
AcDbCircle
 10
554.7856465405393
 20
127.7210293286153
 30
0.0
 40
3.000000850171656
100
AcDbArc
 50
278.5307769775391
 51
0.0
  0
ARC
  5
38F
330
1F
100
AcDbEntity
  8
B-0
  6
Continuous
 62
     3
370
     9
100
AcDbCircle
 10
572.7856559962751
 20
103.6125090564598
 30
0.0
 40
5.000001497595466
100
AcDbArc
 50
95.71060180664062
 51
180.0
  0
ARC
  5
390
330
1F
100
AcDbEntity
  8
B-0
  6
Continuous
 62
     3
370
     9
100
AcDbCircle
 10
572.7856559962751
 20
131.6622358004158
 30
0.0
 40
5.000001497595466
100
AcDbArc
 50
180.0
 51
264.2894134521484
  0
ARC
  5
391
330
1F
100
AcDbEntity
  8
B-A
  6
Continuous
 62
     2
370
     9
100
AcDbCircle
 10
564.5858333605511
 20
-335.4853082650822
 30
0.0
 40
2.800173304370932
100
AcDbArc
 50
137.9255676269531
 51
222.0746307373047
  0
ARC
  5
392
330
1F
100
AcDbEntity
  8
B-A
  6
Continuous
 62
     2
370
     9
100
AcDbCircle
 10
588.7852102216518
 20
-324.238166784176
 30
0.0
 40
2.800173304370932
100
AcDbArc
 50
317.9255676269531
 51
42.07463073730469
  0
ARC
  5
393
330
1F
100
AcDbEntity
  8
B-A
  6
Continuous
 62
     2
370
     9
100
AcDbCircle
 10
581.4960592177297
 20
-329.8617375246288
 30
0.0
 40
10.08941091855981
100
AcDbArc
 50
338.1978607177734
 51
21.80213928222658
  0
ARC
  5
394
330
1F
100
AcDbEntity
  8
B-A
  6
Continuous
 62
     2
370
     9
100
AcDbCircle
 10
588.7852102216518
 20
-335.4853082650822
 30
0.0
 40
2.800189755483023
100
AcDbArc
 50
317.9257202148438
 51
42.07427978515626
  0
ARC
  5
395
330
1F
100
AcDbEntity
  8
B-A
  6
Continuous
 62
     2
370
     9
100
AcDbCircle
 10
564.5858333605511
 20
400.7605005756367
 30
0.0
 40
2.800173304370932
100
AcDbArc
 50
137.9253692626953
 51
222.0744323730469
  0
ARC
  5
396
330
1F
100
AcDbEntity
  8
B-A
  6
Continuous
 62
     2
370
     9
100
AcDbCircle
 10
588.7852102216518
 20
389.5131113603367
 30
0.0
 40
2.800173304370932
100
AcDbArc
 50
317.9253692626953
 51
42.07443237304689
  0
ARC
  5
397
330
1F
100
AcDbEntity
  8
B-A
  6
Continuous
 62
     2
370
     9
100
AcDbCircle
 10
581.4960592177297
 20
395.1366821007898
 30
0.0
 40
10.08941091855981
100
AcDbArc
 50
338.1978607177734
 51
21.80213928222658
  0
ARC
  5
398
330
1F
100
AcDbEntity
  8
B-A
  6
Continuous
 62
     2
370
     9
100
AcDbCircle
 10
588.7852102216518
 20
400.7605005756367
 30
0.0
 40
2.800189755483023
100
AcDbArc
 50
317.9257202148438
 51
42.07427978515626
  0
ARC
  5
399
330
1F
100
AcDbEntity
  8
B-A
  6
Continuous
 62
     2
370
     9
100
AcDbCircle
 10
571.8747985636778
 20
-329.8617375246288
 30
0.0
 40
10.08941091855981
100
AcDbArc
 50
183.6976165771484
 51
201.8021392822266
  0
ARC
  5
39A
330
1F
100
AcDbEntity
  8
B-A
  6
Continuous
 62
     2
370
     9
100
AcDbCircle
 10
571.8747985636778
 20
395.1366821007898
 30
0.0
 40
10.08941091855981
100
AcDbArc
 50
158.1978607177734
 51
176.3037872314453
  0
ARC
  5
39B
330
1F
100
AcDbEntity
  8
B-1
  6
Continuous
 62
     2
370
     9
100
AcDbCircle
 10
570.7856962347037
 20
384.3820365948625
 30
0.0
 40
2.000000526459751
100
AcDbArc
 50
284.4775238037109
 51
0.0
  0
LINE
  5
39C
330
1F
100
AcDbEntity
  8
B-5
  6
Continuous
 62
     7
370
     9
100
AcDbLine
 10
572.7857798634718
 20
452.6370735859377
 30
0.0
 11
651.9496552615462
 21
589.7529278994544
 31
0.0
  0
LINE
  5
39D
330
1F
100
AcDbEntity
  8
B-5
  6
Continuous
 62
     7
370
     9
100
AcDbLine
 10
572.7857798634718
 20
452.6370735859377
 30
0.0
 11
577.5693227680355
 21
464.1855677423288
 31
0.0
  0
LINE
  5
39E
330
1F
100
AcDbEntity
  8
B-5
  6
Continuous
 62
     7
370
     9
100
AcDbLine
 10
572.7857798634718
 20
452.6370735859377
 30
0.0
 11
580.3952977260806
 21
462.5539903395781
 31
0.0
  0
LINE
  5
39F
330
1F
100
AcDbEntity
  8
B-5
  6
Continuous
 62
     7
370
     9
100
AcDbLine
 10
662.7703372619694
 20
471.2518427151571
 30
0.0
 11
566.9031184195924
 21
351.0174924591394
 31
0.0
  0
LINE
  5
3A0
330
1F
100
AcDbEntity
  8
B-5
  6
Continuous
 62
     7
370
     9
100
AcDbLine
 10
566.9031184195924
 20
351.0174924591394
 30
0.0
 11
574.6436546711763
 21
363.8660526892912
 31
0.0
  0
LINE
  5
3A1
330
1F
100
AcDbEntity
  8
B-5
  6
Continuous
 62
     7
370
     9
100
AcDbLine
 10
566.9031184195924
 20
351.0174924591394
 30
0.0
 11
577.7053513165517
 21
361.424811399173
 31
0.0
  0
LINE
  5
3A2
330
1F
100
AcDbEntity
  8
B-5
  6
Continuous
 62
     7
370
     9
100
AcDbLine
 10
320.3705278478346
 20
503.9474266584415
 30
0.0
 11
454.6169003800358
 21
503.9474266584415
 31
0.0
  0
TEXT
  5
3A3
330
1F
100
AcDbEntity
  8
B-5
  6
Continuous
 62
     7
370
     0
100
AcDbText
 10
327.2955148160045
 20
508.562558626347
 30
0.0
 40
11.43
  1
枠：ＦＣ２００
 41
1.142857142857143
  7
ＭＳ ゴシック
100
AcDbText
  0
TEXT
  5
3A4
330
1F
100
AcDbEntity
  8
B-5
  6
Continuous
 62
     7
370
     0
100
AcDbText
 10
336.0122052918805
 20
483.5624761464061
 30
0.0
 40
11.43
  1
樹脂系塗装
 41
1.133333333333333
  7
ＭＳ ゴシック
100
AcDbText
  0
LINE
  5
3A5
330
1F
100
AcDbEntity
  8
B-5
  6
Continuous
 62
     7
370
     9
100
AcDbLine
 10
526.785693929444
 20
378.947385418471
 30
0.0
 11
454.6169003800358
 21
503.9474266584415
 31
0.0
  0
LINE
  5
3A6
330
1F
100
AcDbEntity
  8
B-5
  6
Continuous
 62
     7
370
     9
100
AcDbLine
 10
526.785693929444
 20
378.947385418471
 30
0.0
 11
519.1761770639462
 21
388.8644023499533
 31
0.0
  0
LINE
  5
3A7
330
1F
100
AcDbEntity
  8
B-5
  6
Continuous
 62
     7
370
     9
100
AcDbLine
 10
526.785693929444
 20
378.947385418471
 30
0.0
 11
522.0021872782618
 21
390.4960205404092
 31
0.0
  0
LINE
  5
3A8
330
1F
100
AcDbEntity
  8
B-5
  6
Continuous
 62
     7
370
     9
100
AcDbLine
 10
651.9496552615462
 20
589.7529278994543
 30
0.0
 11
829.4112154851123
 21
589.7529278994543
 31
0.0
  0
TEXT
  5
3A9
330
1F
100
AcDbEntity
  8
B-5
  6
Continuous
 62
     7
370
     0
100
AcDbText
 10
656.9496552615462
 20
596.8679278994543
 30
0.0
 40
11.43
  1
アンカー：ＳＳ４００
 41
1.15
  7
ＭＳ ゴシック
100
AcDbText
  0
TEXT
  5
3AA
330
1F
100
AcDbEntity
  8
B-5
  6
Continuous
 62
     7
370
     0
100
AcDbText
 10
656.9496552615462
 20
571.8679278994543
 30
0.0
 40
11.43
  1
電気亜鉛めっき
 41
1.142857142857143
  7
ＭＳ ゴシック
100
AcDbText
  0
LINE
  5
3AB
330
1F
100
AcDbEntity
  8
B-5
  6
Continuous
 62
     7
370
     9
100
AcDbLine
 10
507.7854776334035
 20
-261.8232916800151
 30
0.0
 11
503.0019709822212
 21
-273.3718030820422
 31
0.0
  0
LINE
  5
3AC
330
1F
100
AcDbEntity
  8
B-5
  6
Continuous
 62
     7
370
     9
100
AcDbLine
 10
507.7854776334035
 20
-261.8232916800151
 30
0.0
 11
500.1759607679051
 21
-271.7403086114974
 31
0.0
  0
LINE
  5
3AD
330
1F
100
AcDbEntity
  8
B-5
  6
Continuous
 62
     7
370
     9
100
AcDbLine
 10
507.7854776334035
 20
-261.8232916800151
 30
0.0
 11
428.9048788950165
 21
-398.448488807074
 31
0.0
  0
LINE
  5
3AE
330
1F
100
AcDbEntity
  8
B-5
  6
Continuous
 62
     7
370
     9
100
AcDbLine
 10
428.9048788950165
 20
-398.448488807074
 30
0.0
 11
232.4809616916806
 21
-398.448488807074
 31
0.0
  0
TEXT
  5
3AF
330
1F
100
AcDbEntity
  8
B-5
  6
Continuous
 62
     7
370
     0
100
AcDbText
 10
240.5602471844489
 20
-393.8334805590797
 30
0.0
 40
11.43
  1
キャップ：ＳＵＳ３０４
 41
1.151515151515151
  7
ＭＳ ゴシック
100
AcDbText
  0
LINE
  5
3B0
330
1F
100
AcDbEntity
  8
B-4
  6
Continuous
 62
     7
370
     9
100
AcDbLine
 10
682.7857250732259
 20
-267.3625614403239
 30
0.0
 11
682.7857250732259
 21
332.637258282091
 31
0.0
  0
LINE
  5
3B1
330
1F
100
AcDbEntity
  8
B-4
  6
Continuous
 62
     7
370
     9
100
AcDbLine
 10
684.2857250732256
 20
-267.3625614403239
 30
0.0
 11
597.7857025385273
 21
-267.3625614403239
 31
0.0
  0
LINE
  5
3B2
330
1F
100
AcDbEntity
  8
B-4
  6
Continuous
 62
     7
370
     9
100
AcDbLine
 10
684.2857250732256
 20
332.637258282091
 30
0.0
 11
597.7857025385273
 21
332.637258282091
 31
0.0
  0
LINE
  5
3B3
330
1F
100
AcDbEntity
  8
B-4
  6
Continuous
 62
     7
370
     9
100
AcDbLine
 10
732.7857250732259
 20
-347.3626860439491
 30
0.0
 11
732.7857250732259
 21
412.6376306201099
 31
0.0
  0
LINE
  5
3B4
330
1F
100
AcDbEntity
  8
B-4
  6
Continuous
 62
     7
370
     9
100
AcDbLine
 10
734.2857250732256
 20
-347.3626860439491
 30
0.0
 11
597.7857025385273
 21
-347.3626860439491
 31
0.0
  0
LINE
  5
3B5
330
1F
100
AcDbEntity
  8
B-4
  6
Continuous
 62
     7
370
     9
100
AcDbLine
 10
734.2857250732256
 20
412.6376306201099
 30
0.0
 11
597.7857025385273
 21
412.6376306201099
 31
0.0
  0
TEXT
  5
3B6
330
1F
100
AcDbEntity
  8
B-4
  6
Continuous
 62
     2
370
   211
100
AcDbText
 10
726.9657250732258
 20
5.137472288080343
 30
0.0
 40
15.24
  1
□760
 50
90.0
 41
1.1
  7
ＭＳ ゴシック
100
AcDbText
  0
TEXT
  5
3B7
330
1F
100
AcDbEntity
  8
B-4
  6
Continuous
 62
     2
370
   211
100
AcDbText
 10
676.9657250732258
 20
5.137348420883452
 30
0.0
 40
15.24
  1
□600
 50
90.0
 41
1.1
  7
ＭＳ ゴシック
100
AcDbText
  0
LINE
  5
3B8
330
1F
100
AcDbEntity
  8
B-4
  6
Continuous
 62
     7
370
     9
100
AcDbLine
 10
507.7857250732259
 20
-397.3626860439491
 30
0.0
 11
582.7857025385273
 21
-397.3626860439491
 31
0.0
  0
LINE
  5
3B9
330
1F
100
AcDbEntity
  8
B-4
  6
Continuous
 62
     7
370
     9
100
AcDbLine
 10
507.7857250732259
 20
-398.8626860439491
 30
0.0
 11
507.7857250732259
 21
-328.3626268940485
 31
0.0
  0
LINE
  5
3BA
330
1F
100
AcDbEntity
  8
B-4
  6
Continuous
 62
     7
370
     9
100
AcDbLine
 10
582.7857025385273
 20
-398.8626860439491
 30
0.0
 11
582.7857025385273
 21
-362.3626860439491
 31
0.0
  0
TEXT
  5
3BB
330
1F
100
AcDbEntity
  8
B-4
  6
Continuous
 62
     2
370
   211
100
AcDbText
 10
534.6607138058769
 20
-391.542686043949
 30
0.0
 40
15.24
  1
75
 41
1.0625
  7
ＭＳ ゴシック
100
AcDbText
  0
TEXT
  5
3BC
330
1F
100
AcDbEntity
  8
B-5
  6
Continuous
 62
     7
370
     0
100
AcDbText
 10
208.6793283021041
 20
296.4384017521778
 30
0.0
 40
11.43
  1
蓋：ＦＣＤ５００
 41
1.145833333333333
  7
ＭＳ ゴシック
100
AcDbText
  0
LINE
  5
3BD
330
1F
100
AcDbEntity
  8
B-5
  6
Continuous
 62
     7
370
     9
100
AcDbLine
 10
198.566306189082
 20
289.3234017521778
 30
0.0
 11
356.41231033769
 21
289.3234017521778
 31
0.0
  0
TEXT
  5
3BE
330
1F
100
AcDbEntity
  8
B-5
  6
Continuous
 62
     7
370
     0
100
AcDbText
 10
234.989308263386
 20
268.9385131000979
 30
0.0
 40
11.43
  1
樹脂系塗装
 41
1.133333333333334
  7
ＭＳ ゴシック
100
AcDbText
  0
LINE
  5
3BF
330
1F
100
AcDbEntity
  8
B-5
  6
Continuous
 62
     7
370
     9
100
AcDbLine
 10
357.4264739114889
 20
-147.6647508022176
 30
0.0
 11
125.6739648716874
 21
-147.6647508022176
 31
0.0
  0
TEXT
  5
3C0
330
1F
100
AcDbEntity
  8
B-5
  6
Continuous
 62
     7
370
     9
100
AcDbText
 10
199.0502193915881
 20
-166.3915960389043
 30
0.0
 40
11.43
  1
樹脂系塗装
 41
1.133333333333333
  7
ＭＳ ゴシック
100
AcDbText
  0
TEXT
  5
3C1
330
1F
100
AcDbEntity
  8
B-5
  6
Continuous
 62
     7
370
     0
100
AcDbText
 10
140.6819654259525
 20
-141.2382627055709
 30
0.0
 40
11.43
  1
把手ボックス：ＦＣ２００
 41
1.152777777777778
  7
ＭＳ ゴシック
100
AcDbText
  0
LINE
  5
3C2
330
1F
100
AcDbEntity
  8
B-5
  6
Continuous
 62
     7
370
     9
100
AcDbLine
 10
516.9264310219196
 20
-239.7520789140208
 30
0.0
 11
357.4264739114889
 21
-147.6647508022176
 31
0.0
  0
LINE
  5
3C3
330
1F
100
AcDbEntity
  8
B-5
  6
Continuous
 62
     7
370
     9
100
AcDbLine
 10
516.9264310219196
 20
-239.7520789140208
 30
0.0
 11
505.3779196198925
 21
-234.9685104028827
 31
0.0
  0
LINE
  5
3C4
330
1F
100
AcDbEntity
  8
B-5
  6
Continuous
 62
     7
370
     9
100
AcDbLine
 10
516.9264310219196
 20
-239.7520789140208
 30
0.0
 11
507.0095378103488
 21
-232.1425620485226
 31
0.0
  0
LINE
  5
3C5
330
1F
100
AcDbEntity
  8
B-5
  6
Continuous
 62
     7
370
     9
100
AcDbLine
 10
356.41231033769
 20
289.3234017521778
 30
0.0
 11
559.8297186222941
 21
176.865064080094
 31
0.0
  0
LINE
  5
3C6
330
1F
100
AcDbEntity
  8
B-5
  6
Continuous
 62
     7
370
     9
100
AcDbLine
 10
559.8297186222941
 20
176.865064080094
 30
0.0
 11
548.1943558425222
 21
181.4332980855838
 31
0.0
  0
LINE
  5
3C7
330
1F
100
AcDbEntity
  8
B-5
  6
Continuous
 62
     7
370
     9
100
AcDbLine
 10
559.8297186222941
 20
176.865064080094
 30
0.0
 11
549.7731456308462
 21
184.2890629385716
 31
0.0
  0
LINE
  5
3C8
330
1F
100
AcDbEntity
  8
B-4
  6
Continuous
 62
     7
370
     9
100
AcDbLine
 10
429.7990357184926
 20
-300.3625168422416
 30
0.0
 11
429.7990357184926
 21
365.6374614184026
 31
0.0
  0
LINE
  5
3C9
330
1F
100
AcDbEntity
  8
B-4
  6
Continuous
 62
     7
370
     9
100
AcDbLine
 10
428.2990357184928
 20
-300.3625168422416
 30
0.0
 11
492.7857250732259
 21
-300.3625168422416
 31
0.0
  0
LINE
  5
3CA
330
1F
100
AcDbEntity
  8
B-4
  6
Continuous
 62
     7
370
     9
100
AcDbLine
 10
428.2990357184928
 20
365.6374614184026
 30
0.0
 11
492.7857250732259
 21
365.6374614184026
 31
0.0
  0
LINE
  5
3CB
330
1F
100
AcDbEntity
  8
B-4
  6
Continuous
 62
     7
370
     9
100
AcDbLine
 10
379.7990357184926
 20
-313.3626268940485
 30
0.0
 11
379.7990357184926
 21
378.6373237358155
 31
0.0
  0
LINE
  5
3CC
330
1F
100
AcDbEntity
  8
B-4
  6
Continuous
 62
     7
370
     9
100
AcDbLine
 10
378.2990357184928
 20
-313.3626268940485
 30
0.0
 11
492.7857250732259
 21
-313.3626268940485
 31
0.0
  0
LINE
  5
3CD
330
1F
100
AcDbEntity
  8
B-4
  6
Continuous
 62
     7
370
     9
100
AcDbLine
 10
378.2990357184928
 20
378.6373237358155
 30
0.0
 11
492.7857250732259
 21
378.6373237358155
 31
0.0
  0
TEXT
  5
3CE
330
1F
100
AcDbEntity
  8
B-4
  6
Continuous
 62
     2
370
   211
100
AcDbText
 10
373.9790357184925
 20
5.137348420883594
 30
0.0
 40
15.24
  1
□692
 50
90.0
 41
1.1
  7
ＭＳ ゴシック
100
AcDbText
  0
TEXT
  5
3CF
330
1F
100
AcDbEntity
  8
B-4
  6
Continuous
 62
     2
370
   211
100
AcDbText
 10
423.9790357184925
 20
5.137472288080627
 30
0.0
 40
15.24
  1
□666
 50
90.0
 41
1.1
  7
ＭＳ ゴシック
100
AcDbText
  0
LWPOLYLINE
  5
3D0
330
1F
100
AcDbEntity
  8
B-4
  6
Continuous
 62
     7
370
     9
100
AcDbPolyline
 90
        4
 70
     1
 43
0.5
 10
463.8487862364001
 20
365.6374614184026
 42
0.4142135623731
 10
463.5987862364001
 20
365.8874614184026
 42
0.4142135623731
 10
463.3487862364001
 20
365.6374614184026
 42
0.4142135623731
 10
463.5987862364001
 20
365.3874614184026
 42
0.4142135623731
  0
LINE
  5
3D1
330
1F
100
AcDbEntity
  8
B-4
  6
Continuous
 62
     7
370
     9
100
AcDbLine
 10
463.5987862364001
 20
365.6374614184026
 30
0.0
 11
463.5987862364001
 21
366.6373174319916
 31
0.0
  0
LWPOLYLINE
  5
3D2
330
1F
100
AcDbEntity
  8
B-4
  6
Continuous
 62
     7
370
     9
100
AcDbPolyline
 90
        4
 70
     1
 43
0.5
 10
463.8487862364001
 20
366.6373174319916
 42
0.4142135623731
 10
463.5987862364001
 20
366.8873174319916
 42
0.4142135623731
 10
463.3487862364001
 20
366.6373174319916
 42
0.4142135623731
 10
463.5987862364001
 20
366.3873174319916
 42
0.4142135623731
  0
TEXT
  5
3D3
330
1F
100
AcDbEntity
  8
B-4
  6
Continuous
 62
     2
370
   211
100
AcDbText
 10
458.3324137539608
 20
328.37970759386
 30
0.0
 40
15.24
  1
12
 50
90.0
 41
1.0625
  7
ＭＳ ゴシック
100
AcDbText
  0
TEXT
  5
3D4
330
1F
100
AcDbEntity
  8
B-4
  6
Continuous
 62
     2
370
   211
100
AcDbText
 10
455.0242124080823
 20
366.6225151522152
 30
0.0
 40
15.24
  1
1
 50
90.0
 41
0.9999999999999998
  7
ＭＳ ゴシック
100
AcDbText
  0
TEXT
  5
3D5
330
1F
100
AcDbEntity
  8
B-4
  6
Continuous
 62
     2
370
   211
100
AcDbText
 10
457.0091332156094
 20
382.5018816124319
 30
0.0
 40
15.24
  1
12
 50
90.0
 41
1.0625
  7
ＭＳ ゴシック
100
AcDbText
  0
LINE
  5
3D6
330
1F
100
AcDbEntity
  8
B-5
  6
Continuous
 62
     7
370
     9
100
AcDbLine
 10
450.4037915253382
 20
433.7054274229988
 30
0.0
 11
507.7857250732259
 21
378.6373237358155
 31
0.0
  0
LINE
  5
3D7
330
1F
100
AcDbEntity
  8
B-5
  6
Continuous
 62
     7
370
     9
100
AcDbLine
 10
283.1588606956989
 20
433.7054274229988
 30
0.0
 11
450.4037915253382
 21
433.7054274229988
 31
0.0
  0
TEXT
  5
3D8
330
1F
100
AcDbEntity
  8
B-5
  6
Continuous
 62
     7
370
     0
100
AcDbText
 10
289.2813261105185
 20
439.6420690776003
 30
0.0
 40
11.43
  1
目地：ＳＵＳ３０４
 41
1.148148148148148
  7
ＭＳ ゴシック
100
AcDbText
  0
LINE
  5
3D9
330
1F
100
AcDbEntity
  8
B-4
  6
Continuous
 62
     7
370
     9
100
AcDbLine
 10
463.5987862364001
 20
325.7581780565228
 30
0.0
 11
463.5987862364001
 21
365.6374614184026
 31
0.0
  0
LINE
  5
3DA
330
1F
100
AcDbEntity
  8
B-4
  6
Continuous
 62
     7
370
     9
100
AcDbLine
 10
463.5987862364001
 20
366.6373174319916
 30
0.0
 11
463.5987862364001
 21
404.4434521282923
 31
0.0
  0
LINE
  5
3DB
330
1F
100
AcDbEntity
  8
B-5
  6
Continuous
 62
     7
370
     9
100
AcDbLine
 10
507.7857250732259
 20
378.6373237358155
 30
0.0
 11
497.7143628086358
 21
386.0412188009411
 31
0.0
  0
LINE
  5
3DC
330
1F
100
AcDbEntity
  8
B-5
  6
Continuous
 62
     7
370
     9
100
AcDbLine
 10
507.7857250732259
 20
378.6373237358155
 30
0.0
 11
499.9738052067402
 21
388.3955975585573
 31
0.0
  0
LINE
  5
3DD
330
1F
100
AcDbEntity
  8
B-5
  6
Continuous
 62
     7
370
     9
100
AcDbLine
 10
507.7857250732259
 20
359.1490870249837
 30
0.0
 11
498.9340170479257
 21
367.9750297528082
 31
0.0
  0
LINE
  5
3DE
330
1F
100
AcDbEntity
  8
B-5
  6
Continuous
 62
     7
370
     9
100
AcDbLine
 10
507.7857250732259
 20
359.1490870249837
 30
0.0
 11
501.5199537537633
 21
369.9652836657721
 31
0.0
  0
LINE
  5
3DF
330
1F
100
AcDbEntity
  8
B-5
  6
Continuous
 62
     7
370
     9
100
AcDbLine
 10
450.4037915253382
 20
433.7054274229988
 30
0.0
 11
492.3421010183957
 21
379.2149861820761
 31
0.0
  0
LINE
  5
3E0
330
1F
100
AcDbEntity
  8
B-5
  6
Continuous
 62
     7
370
     9
100
AcDbLine
 10
492.3421010183957
 20
379.2149861820761
 30
0.0
 11
507.7857250732259
 21
359.1490870249837
 31
0.0
  0
LINE
  5
3E1
330
1F
100
AcDbEntity
  8
B-4
  6
Continuous
 62
     7
370
     9
100
AcDbLine
 10
462.0987862364001
 20
366.6373174319916
 30
0.0
 11
492.7857250732259
 21
366.6373174319916
 31
0.0
  0
LINE
  5
3E2
330
1F
100
AcDbEntity
  8
B-4
  6
Continuous
 62
     7
370
     9
100
AcDbLine
 10
462.0987862364001
 20
353.6374551145784
 30
0.0
 11
492.7857250732259
 21
353.6374551145784
 31
0.0
  0
TEXT
  5
3E3
330
1F
100
AcDbEntity
  8
B-5
  6
Continuous
 62
     7
370
     0
100
AcDbText
 10
668.051744941632
 20
454.2609096126171
 30
0.0
 40
11.43
  1
エチレンプロピレンゴム
 41
1.151515151515152
  7
ＭＳ ゴシック
100
AcDbText
  0
TEXT
  5
3E4
330
1F
100
AcDbEntity
  8
B-5
  6
Continuous
 62
     7
370
     0
100
AcDbText
 10
669.0511311478965
 20
477.3726460037972
 30
0.0
 40
11.43
  1
パッキン
 41
1.125
  7
ＭＳ ゴシック
100
AcDbText
  0
LINE
  5
3E5
330
1F
100
AcDbEntity
  8
B-5
  6
Continuous
 62
     7
370
     9
100
AcDbLine
 10
662.7703372619694
 20
471.2518427151571
 30
0.0
 11
860.8099902806227
 21
471.2518427151571
 31
0.0
  0
LINE
  5
3E6
330
1F
100
AcDbEntity
  8
B-4
  6
Continuous
 62
     7
370
     9
100
AcDbLine
 10
17.68296529965556
 20
395.1375491711682
 30
0.0
 11
19.31454270240621
 21
382.7444884039955
 31
0.0
  0
LINE
  5
3E7
330
1F
100
AcDbEntity
  8
B-4
  6
Continuous
 62
     7
370
     9
100
AcDbLine
 10
17.68296529965556
 20
395.1375491711682
 30
0.0
 11
16.05138789690492
 21
382.7444884039955
 31
0.0
  0
LINE
  5
3E8
330
1F
100
AcDbEntity
  8
B-4
  6
Continuous
 62
     7
370
     9
100
AcDbLine
 10
17.68296529965556
 20
-329.8628523294009
 30
0.0
 11
16.05138789690492
 21
-317.4697915622283
 31
0.0
  0
LINE
  5
3E9
330
1F
100
AcDbEntity
  8
B-4
  6
Continuous
 62
     7
370
     9
100
AcDbLine
 10
17.68296529965556
 20
-329.8628523294009
 30
0.0
 11
19.31454270240621
 21
-317.4697915622283
 31
0.0
  0
LINE
  5
3EA
330
1F
100
AcDbEntity
  8
B-4
  6
Continuous
 62
     7
370
     9
100
AcDbLine
 10
-32.31703470034444
 20
-192.3627078422193
 30
0.0
 11
-33.94861210309508
 21
-179.9696470750467
 31
0.0
  0
LINE
  5
3EB
330
1F
100
AcDbEntity
  8
B-4
  6
Continuous
 62
     7
370
     9
100
AcDbLine
 10
-32.31703470034444
 20
-192.3627078422193
 30
0.0
 11
-30.68545729759379
 21
-179.9696470750467
 31
0.0
  0
LINE
  5
3EC
330
1F
100
AcDbEntity
  8
B-4
  6
Continuous
 62
     7
370
     9
100
AcDbLine
 10
-32.31703470034444
 20
257.637404683986
 30
0.0
 11
-30.68545729759379
 21
245.2443439168134
 31
0.0
  0
LINE
  5
3ED
330
1F
100
AcDbEntity
  8
B-4
  6
Continuous
 62
     7
370
     9
100
AcDbLine
 10
-32.31703470034444
 20
257.637404683986
 30
0.0
 11
-33.94861210309508
 21
245.2443439168134
 31
0.0
  0
LINE
  5
3EE
330
1F
100
AcDbEntity
  8
B-4
  6
Continuous
 62
     7
370
     9
100
AcDbLine
 10
-257.3169784372417
 20
-417.3626515791163
 30
0.0
 11
-269.7100392044144
 21
-418.994228981867
 31
0.0
  0
LINE
  5
3EF
330
1F
100
AcDbEntity
  8
B-4
  6
Continuous
 62
     7
370
     9
100
AcDbLine
 10
-257.3169784372417
 20
-417.3626515791163
 30
0.0
 11
-269.7100392044144
 21
-415.7310741763656
 31
0.0
  0
LINE
  5
3F0
330
1F
100
AcDbEntity
  8
B-4
  6
Continuous
 62
     7
370
     9
100
AcDbLine
 10
-119.8168339500596
 20
-467.3626515791163
 30
0.0
 11
-132.2098947172322
 21
-468.994228981867
 31
0.0
  0
LINE
  5
3F1
330
1F
100
AcDbEntity
  8
B-4
  6
Continuous
 62
     7
370
     9
100
AcDbLine
 10
-119.8168339500596
 20
-467.3626515791163
 30
0.0
 11
-132.2098947172322
 21
-465.7310741763656
 31
0.0
  0
LINE
  5
3F2
330
1F
100
AcDbEntity
  8
B-4
  6
Continuous
 62
     7
370
     9
100
AcDbLine
 10
-844.8172354506288
 20
-467.3626515791163
 30
0.0
 11
-832.424174683456
 21
-465.7310741763656
 31
0.0
  0
LINE
  5
3F3
330
1F
100
AcDbEntity
  8
B-4
  6
Continuous
 62
     7
370
     9
100
AcDbLine
 10
-844.8172354506288
 20
-467.3626515791163
 30
0.0
 11
-832.424174683456
 21
-468.994228981867
 31
0.0
  0
LINE
  5
3F4
330
1F
100
AcDbEntity
  8
B-4
  6
Continuous
 62
     7
370
     9
100
AcDbLine
 10
-707.3170909634472
 20
-417.3626515791163
 30
0.0
 11
-694.9240301962744
 21
-415.7310741763656
 31
0.0
  0
LINE
  5
3F5
330
1F
100
AcDbEntity
  8
B-4
  6
Continuous
 62
     7
370
     9
100
AcDbLine
 10
-707.3170909634472
 20
-417.3626515791163
 30
0.0
 11
-694.9240301962744
 21
-418.994228981867
 31
0.0
  0
LINE
  5
3F6
330
1F
100
AcDbEntity
  8
B-4
  6
Continuous
 62
     7
370
     9
100
AcDbLine
 10
379.7990357184926
 20
378.6373237358155
 30
0.0
 11
381.4306131212433
 21
366.2442629686428
 31
0.0
  0
LINE
  5
3F7
330
1F
100
AcDbEntity
  8
B-4
  6
Continuous
 62
     7
370
     9
100
AcDbLine
 10
379.7990357184926
 20
378.6373237358155
 30
0.0
 11
378.1674583157419
 21
366.2442629686428
 31
0.0
  0
LINE
  5
3F8
330
1F
100
AcDbEntity
  8
B-4
  6
Continuous
 62
     7
370
     9
100
AcDbLine
 10
429.7990357184926
 20
365.6374614184026
 30
0.0
 11
431.4306131212433
 21
353.24440065123
 31
0.0
  0
LINE
  5
3F9
330
1F
100
AcDbEntity
  8
B-4
  6
Continuous
 62
     7
370
     9
100
AcDbLine
 10
429.7990357184926
 20
365.6374614184026
 30
0.0
 11
428.1674583157419
 21
353.24440065123
 31
0.0
  0
LINE
  5
3FA
330
1F
100
AcDbEntity
  8
B-4
  6
Continuous
 62
     7
370
     9
100
AcDbLine
 10
463.5987862364001
 20
353.6374551145784
 30
0.0
 11
465.2303636391508
 21
341.2443943474058
 31
0.0
  0
LINE
  5
3FB
330
1F
100
AcDbEntity
  8
B-4
  6
Continuous
 62
     7
370
     9
100
AcDbLine
 10
463.5987862364001
 20
353.6374551145784
 30
0.0
 11
461.9672088336494
 21
341.2443943474058
 31
0.0
  0
LINE
  5
3FC
330
1F
100
AcDbEntity
  8
B-4
  6
Continuous
 62
     7
370
     9
100
AcDbLine
 10
463.5987862364001
 20
378.6373237358155
 30
0.0
 11
461.9672088336494
 21
391.0303845029881
 31
0.0
  0
LINE
  5
3FD
330
1F
100
AcDbEntity
  8
B-4
  6
Continuous
 62
     7
370
     9
100
AcDbLine
 10
463.5987862364001
 20
378.6373237358155
 30
0.0
 11
465.2303636391508
 21
391.0303845029881
 31
0.0
  0
LINE
  5
3FE
330
1F
100
AcDbEntity
  8
B-5
  6
Continuous
 62
     7
370
     9
100
AcDbLine
 10
682.7857250732259
 20
332.637258282091
 30
0.0
 11
684.4173024759766
 21
320.2441975149184
 31
0.0
  0
LINE
  5
3FF
330
1F
100
AcDbEntity
  8
B-5
  6
Continuous
 62
     7
370
     9
100
AcDbLine
 10
682.7857250732259
 20
332.637258282091
 30
0.0
 11
681.1541476704753
 21
320.2441975149184
 31
0.0
  0
LINE
  5
400
330
1F
100
AcDbEntity
  8
B-5
  6
Continuous
 62
     7
370
     9
100
AcDbLine
 10
732.7857250732259
 20
412.6376306201099
 30
0.0
 11
734.4173024759766
 21
400.2445698529373
 31
0.0
  0
LINE
  5
401
330
1F
100
AcDbEntity
  8
B-5
  6
Continuous
 62
     7
370
     9
100
AcDbLine
 10
732.7857250732259
 20
412.6376306201099
 30
0.0
 11
731.1541476704753
 21
400.2445698529373
 31
0.0
  0
LINE
  5
402
330
1F
100
AcDbEntity
  8
B-5
  6
Continuous
 62
     7
370
     9
100
AcDbLine
 10
682.7857250732259
 20
-267.3625614403239
 30
0.0
 11
681.1541476704753
 21
-254.9695006731513
 31
0.0
  0
LINE
  5
403
330
1F
100
AcDbEntity
  8
B-5
  6
Continuous
 62
     7
370
     9
100
AcDbLine
 10
682.7857250732259
 20
-267.3625614403239
 30
0.0
 11
684.4173024759766
 21
-254.9695006731513
 31
0.0
  0
LINE
  5
404
330
1F
100
AcDbEntity
  8
B-5
  6
Continuous
 62
     7
370
     9
100
AcDbLine
 10
732.7857250732259
 20
-347.3626860439491
 30
0.0
 11
731.1541476704753
 21
-334.9696252767765
 31
0.0
  0
LINE
  5
405
330
1F
100
AcDbEntity
  8
B-5
  6
Continuous
 62
     7
370
     9
100
AcDbLine
 10
732.7857250732259
 20
-347.3626860439491
 30
0.0
 11
734.4173024759766
 21
-334.9696252767765
 31
0.0
  0
LINE
  5
406
330
1F
100
AcDbEntity
  8
B-5
  6
Continuous
 62
     7
370
     9
100
AcDbLine
 10
429.7990357184926
 20
-300.3625168422416
 30
0.0
 11
428.1674583157419
 21
-287.9694560750689
 31
0.0
  0
LINE
  5
407
330
1F
100
AcDbEntity
  8
B-5
  6
Continuous
 62
     7
370
     9
100
AcDbLine
 10
429.7990357184926
 20
-300.3625168422416
 30
0.0
 11
431.4306131212433
 21
-287.9694560750689
 31
0.0
  0
LINE
  5
408
330
1F
100
AcDbEntity
  8
B-5
  6
Continuous
 62
     7
370
     9
100
AcDbLine
 10
379.7990357184926
 20
-313.3626268940485
 30
0.0
 11
378.1674583157419
 21
-300.9695661268759
 31
0.0
  0
LINE
  5
409
330
1F
100
AcDbEntity
  8
B-5
  6
Continuous
 62
     7
370
     9
100
AcDbLine
 10
379.7990357184926
 20
-313.3626268940485
 30
0.0
 11
381.4306131212433
 21
-300.9695661268759
 31
0.0
  0
LWPOLYLINE
  5
40A
330
1F
100
AcDbEntity
  8
B-4
  6
Continuous
 62
     7
370
     9
100
AcDbPolyline
 90
        4
 70
     1
 43
0.5
 10
558.0357719836921
 20
61.34351790958063
 42
0.4142135623731
 10
557.7857719836921
 20
61.59351790958063
 42
0.4142135623731
 10
557.5357719836921
 20
61.34351790958063
 42
0.4142135623731
 10
557.7857719836921
 20
61.09351790958062
 42
0.4142135623731
  0
TEXT
  5
40B
330
1F
100
AcDbEntity
  8
B-4
  6
Continuous
 62
     2
370
   211
100
AcDbText
 10
578.8928085290862
 20
67.1635179095806
 30
0.0
 40
15.24
  1
10
 41
1.0625
  7
ＭＳ ゴシック
100
AcDbText
  0
TEXT
  5
40C
330
1F
100
AcDbEntity
  8
B-4
  6
Continuous
 62
     2
370
   211
100
AcDbText
 10
518.6020782297691
 20
38.65931289476246
 30
0.0
 40
15.24
  1
40
 41
1.0625
  7
ＭＳ ゴシック
100
AcDbText
  0
TEXT
  5
40D
330
1F
100
AcDbEntity
  8
B-4
  6
Continuous
 62
     2
370
   211
100
AcDbText
 10
533.069139921332
 20
70.61640439254325
 30
0.0
 40
15.24
  1
10
 41
1.0625
  7
ＭＳ ゴシック
100
AcDbText
  0
LINE
  5
40E
330
1F
100
AcDbEntity
  8
B-4
  6
Continuous
 62
     7
370
     9
100
AcDbLine
 10
507.7857250732259
 20
61.34351790958063
 30
0.0
 11
600.1428085290862
 21
61.34351790958063
 31
0.0
  0
LINE
  5
40F
330
1F
100
AcDbEntity
  8
B-5
  6
Continuous
 62
     7
370
     9
100
AcDbLine
 10
507.7857250732259
 20
61.34351790958063
 30
0.0
 11
520.1787858403985
 21
62.97509531233126
 31
0.0
  0
LINE
  5
410
330
1F
100
AcDbEntity
  8
B-5
  6
Continuous
 62
     7
370
     9
100
AcDbLine
 10
507.7857250732259
 20
61.34351790958063
 30
0.0
 11
520.1787858403985
 21
59.71194050682998
 31
0.0
  0
LINE
  5
411
330
1F
100
AcDbEntity
  8
B-5
  6
Continuous
 62
     7
370
     9
100
AcDbLine
 10
547.7856635078413
 20
61.34351790958063
 30
0.0
 11
535.3926027406686
 21
59.71194050682998
 31
0.0
  0
LINE
  5
412
330
1F
100
AcDbEntity
  8
B-5
  6
Continuous
 62
     7
370
     9
100
AcDbLine
 10
547.7856635078413
 20
61.34351790958063
 30
0.0
 11
535.3926027406686
 21
62.97509531233126
 31
0.0
  0
LINE
  5
413
330
1F
100
AcDbEntity
  8
B-5
  6
Continuous
 62
     7
370
     9
100
AcDbLine
 10
567.7856946587476
 20
61.34351790958063
 30
0.0
 11
580.1787554259203
 21
62.97509531233126
 31
0.0
  0
LINE
  5
414
330
1F
100
AcDbEntity
  8
B-5
  6
Continuous
 62
     7
370
     9
100
AcDbLine
 10
567.7856946587476
 20
61.34351790958063
 30
0.0
 11
580.1787554259203
 21
59.71194050682998
 31
0.0
  0
LINE
  5
415
330
1F
100
AcDbEntity
  8
B-0
  6
Continuous
 62
     3
370
     9
100
AcDbLine
 10
547.7856635078413
 20
303.1375421309162
 30
0.0
 11
547.7856635078413
 21
91.39976090849049
 31
0.0
  0
LINE
  5
416
330
1F
100
AcDbEntity
  8
B-0
  6
Continuous
 62
     3
370
     9
100
AcDbLine
 10
547.7856635078413
 20
65.05675305221173
 30
0.0
 11
547.7856635078413
 21
-237.8625975547551
 31
0.0
  0
LINE
  5
417
330
1F
100
AcDbEntity
  8
B-4
  6
Continuous
 62
     7
370
     9
100
AcDbLine
 10
507.7857250732259
 20
-397.3626860439491
 30
0.0
 11
520.1787858403985
 21
-395.7311086411984
 31
0.0
  0
LINE
  5
418
330
1F
100
AcDbEntity
  8
B-4
  6
Continuous
 62
     7
370
     9
100
AcDbLine
 10
507.7857250732259
 20
-397.3626860439491
 30
0.0
 11
520.1787858403985
 21
-398.9942634466997
 31
0.0
  0
LINE
  5
419
330
1F
100
AcDbEntity
  8
B-4
  6
Continuous
 62
     7
370
     9
100
AcDbLine
 10
582.7857025385273
 20
-397.3626860439491
 30
0.0
 11
570.3926417713546
 21
-398.9942634466997
 31
0.0
  0
LINE
  5
41A
330
1F
100
AcDbEntity
  8
B-4
  6
Continuous
 62
     7
370
     9
100
AcDbLine
 10
582.7857025385273
 20
-397.3626860439491
 30
0.0
 11
570.3926417713546
 21
-395.7311086411984
 31
0.0
  0
LINE
  5
41B
330
1F
100
AcDbEntity
  8
B-4
  6
Continuous
 62
     7
370
     9
100
AcDbLine
 10
-503.3171076656349
 20
-188.7751732208709
 30
0.0
 11
-490.9240468984623
 21
-187.1435958181203
 31
0.0
  0
LINE
  5
41C
330
1F
100
AcDbEntity
  8
B-4
  6
Continuous
 62
     7
370
     9
100
AcDbLine
 10
-503.3171076656349
 20
-188.7751732208709
 30
0.0
 11
-490.9240468984623
 21
-190.4067506236215
 31
0.0
  0
LINE
  5
41D
330
1F
100
AcDbEntity
  8
B-4
  6
Continuous
 62
     7
370
     9
100
AcDbLine
 10
-461.3170856022508
 20
-188.7751732208709
 30
0.0
 11
-473.7101463694234
 21
-190.4067506236215
 31
0.0
  0
LINE
  5
41E
330
1F
100
AcDbEntity
  8
B-4
  6
Continuous
 62
     7
370
     9
100
AcDbLine
 10
-461.3170856022508
 20
-188.7751732208709
 30
0.0
 11
-473.7101463694234
 21
-187.1435958181203
 31
0.0
  0
LINE
  5
41F
330
1F
100
AcDbEntity
  8
B-4
  6
Continuous
 62
     7
370
     9
100
AcDbLine
 10
-427.5795603557273
 20
-221.3624959865992
 30
0.0
 11
-425.9479829529766
 21
-233.7555567537718
 31
0.0
  0
LINE
  5
420
330
1F
100
AcDbEntity
  8
B-4
  6
Continuous
 62
     7
370
     9
100
AcDbLine
 10
-427.5795603557273
 20
-221.3624959865992
 30
0.0
 11
-429.211137758478
 21
-233.7555567537718
 31
0.0
  0
LINE
  5
421
330
1F
100
AcDbEntity
  8
B-4
  6
Continuous
 62
     7
370
     9
100
AcDbLine
 10
-427.5795603557273
 20
-288.3627582728113
 30
0.0
 11
-429.211137758478
 21
-275.9696975056387
 31
0.0
  0
LINE
  5
422
330
1F
100
AcDbEntity
  8
B-4
  6
Continuous
 62
     7
370
     9
100
AcDbLine
 10
-427.5795603557273
 20
-288.3627582728113
 30
0.0
 11
-425.9479829529766
 21
-275.9696975056387
 31
0.0
  0
TEXT
  5
423
330
1F
100
AcDbEntity
  8
B-5
  6
Continuous
 62
     7
370
     0
100
AcDbText
 10
240.5602554324426
 20
-418.8334393191094
 30
0.0
 40
11.43
  1
パッキン：クロロプレン
 41
1.151515151515152
  7
ＭＳ ゴシック
100
AcDbText
  0
TEXT
  5
424
330
1F
100
AcDbEntity
  8
F-5ﾚｲﾔ
  6
Continuous
 62
     2
370
     9
100
AcDbText
 10
-423.88375
 20
-659.7995104166666
 30
0.0
 40
13.335
  1
タイル用　ステンレス目地　簡易密閉型　充填深さ４０ｍｍ
 41
1.027513227513227
  7
ＭＳ ゴシック
100
AcDbText
  0
TEXT
  5
425
330
1F
100
AcDbEntity
  8
F-5ﾚｲﾔ
  6
Continuous
 62
     2
370
     9
100
AcDbText
 10
-185.0436622363304
 20
-685.6526699151376
 30
0.0
 40
13.335
  1
カラー舗装用鉄蓋　ＭＫＣＬ－１４－６０７０
 41
1.027210884353742
  7
ＭＳ ゴシック
100
AcDbText
  0
ENDSEC
  0
SECTION
  2
OBJECTS
  0
DICTIONARY
  5
C
330
0
100
AcDbDictionary
281
     1
  3
ACAD_GROUP
350
D
  3
ACAD_LAYOUT
350
1A
  3
ACAD_MLEADERSTYLE
350
427
  3
ACAD_MLINESTYLE
350
17
  3
ACAD_PLOTSETTINGS
350
19
  3
ACAD_PLOTSTYLENAME
350
E
  3
ACAD_TABLESTYLE
350
426
  3
ACAD_VISUALSTYLE
350
2A
  0
DICTIONARY
  5
D
102
{ACAD_REACTORS
330
C
102
}
330
C
100
AcDbDictionary
281
     1
  0
DICTIONARY
  5
1A
102
{ACAD_REACTORS
330
C
102
}
330
C
100
AcDbDictionary
281
     1
  3
Layout1
350
1E
  3
Layout2
350
26
  3
Model
350
22
  0
DICTIONARY
  5
427
102
{ACAD_REACTORS
330
C
102
}
330
C
100
AcDbDictionary
281
     1
  0
DICTIONARY
  5
17
102
{ACAD_REACTORS
330
C
102
}
330
C
100
AcDbDictionary
281
     1
  3
Standard
350
18
  0
DICTIONARY
  5
19
102
{ACAD_REACTORS
330
C
102
}
330
C
100
AcDbDictionary
281
     1
  0
ACDBDICTIONARYWDFLT
  5
E
102
{ACAD_REACTORS
330
C
102
}
330
C
100
AcDbDictionary
281
     1
  3
Normal
350
F
100
AcDbDictionaryWithDefault
340
F
  0
DICTIONARY
  5
426
102
{ACAD_REACTORS
330
C
102
}
330
C
100
AcDbDictionary
281
     1
  0
DICTIONARY
  5
2A
102
{ACAD_REACTORS
330
C
102
}
330
C
100
AcDbDictionary
281
     1
  3
2dWireframe
350
2F
  3
3D Hidden
350
31
  3
3dWireframe
350
30
  3
Basic
350
32
  3
Brighten
350
36
  3
ColorChange
350
3A
  3
Conceptual
350
34
  3
Dim
350
35
  3
Facepattern
350
39
  3
Flat
350
2B
  3
FlatWithEdges
350
2C
  3
Gouraud
350
2D
  3
GouraudWithEdges
350
2E
  3
Linepattern
350
38
  3
Realistic
350
33
  3
Thicken
350
37
  0
LAYOUT
  5
1E
102
{ACAD_REACTORS
330
1A
102
}
330
1A
100
AcDbPlotSettings
  1

  2
none_device
  4

  6

 40
0.0
 41
0.0
 42
0.0
 43
0.0
 44
0.0
 45
0.0
 46
0.0
 47
0.0
 48
0.0
 49
0.0
140
0.0
141
0.0
142
1.0
143
1.0
 70
   688
 72
     0
 73
     0
 74
     5
  7

 75
    16
 76
     0
 77
     5
 78
   300
147
1.0
148
0.0
149
0.0
100
AcDbLayout
  1
Layout1
 70
     1
 71
     1
 10
0.0
 20
0.0
 11
420.0
 21
297.0
 12
0.0
 22
0.0
 32
0.0
 14
1.000000000000000E+20
 24
1.000000000000000E+20
 34
1.000000000000000E+20
 15
-1.000000000000000E+20
 25
-1.000000000000000E+20
 35
-1.000000000000000E+20
146
0.0
 13
0.0
 23
0.0
 33
0.0
 16
1.0
 26
0.0
 36
0.0
 17
0.0
 27
1.0
 37
0.0
 76
     0
330
1B
  0
LAYOUT
  5
26
102
{ACAD_REACTORS
330
1A
102
}
330
1A
100
AcDbPlotSettings
  1

  2
none_device
  4

  6

 40
0.0
 41
0.0
 42
0.0
 43
0.0
 44
0.0
 45
0.0
 46
0.0
 47
0.0
 48
0.0
 49
0.0
140
0.0
141
0.0
142
1.0
143
1.0
 70
   688
 72
     0
 73
     0
 74
     5
  7

 75
    16
 76
     0
 77
     5
 78
   300
147
1.0
148
0.0
149
0.0
100
AcDbLayout
  1
Layout2
 70
     1
 71
     2
 10
0.0
 20
0.0
 11
0.0
 21
0.0
 12
0.0
 22
0.0
 32
0.0
 14
0.0
 24
0.0
 34
0.0
 15
0.0
 25
0.0
 35
0.0
146
0.0
 13
0.0
 23
0.0
 33
0.0
 16
1.0
 26
0.0
 36
0.0
 17
0.0
 27
1.0
 37
0.0
 76
     0
330
23
  0
LAYOUT
  5
22
102
{ACAD_REACTORS
330
1A
102
}
330
1A
100
AcDbPlotSettings
  1

  2
none_device
  4

  6

 40
0.0
 41
0.0
 42
0.0
 43
0.0
 44
0.0
 45
0.0
 46
0.0
 47
0.0
 48
0.0
 49
0.0
140
0.0
141
0.0
142
1.0
143
1.0
 70
  1712
 72
     0
 73
     0
 74
     0
  7

 75
     0
 76
     0
 77
     5
 78
   300
147
1.0
148
0.0
149
0.0
100
AcDbLayout
  1
Model
 70
     1
 71
     0
 10
-1050.0
 20
-742.5
 11
1050.0
 21
742.5
 12
0.0
 22
0.0
 32
0.0
 14
-1050.0
 24
-742.5
 34
0.0
 15
1050.0
 25
742.5
 35
0.0
146
0.0
 13
0.0
 23
0.0
 33
0.0
 16
1.0
 26
0.0
 36
0.0
 17
0.0
 27
1.0
 37
0.0
 76
     0
330
1F
331
29
  0
MLINESTYLE
  5
18
102
{ACAD_REACTORS
330
17
102
}
330
17
100
AcDbMlineStyle
  2
Standard
 70
     0
  3

 62
   256
 51
90.0
 52
90.0
 71
     2
 49
0.5
 62
   256
  6
BYLAYER
 49
-0.5
 62
   256
  6
BYLAYER
  0
ACDBPLACEHOLDER
  5
F
102
{ACAD_REACTORS
330
E
102
}
330
E
  0
VISUALSTYLE
  5
2F
102
{ACAD_REACTORS
330
2A
102
}
330
2A
100
AcDbVisualStyle
  2
2dWireframe
 70
     4
 71
     0
 72
     2
 73
     0
 90
        0
 40
-0.6
 41
-30.0
 62
     5
 63
     7
421
 16777215
 74
     1
 91
        4
 64
     7
 65
   257
 75
     1
175
     1
 42
1.0
 92
        0
 66
   257
 43
1.0
 76
     1
 77
     6
 78
     2
 67
     7
 79
     5
170
     0
171
     0
290
     0
174
     0
 93
        1
 44
0.0
173
     0
291
     0
 45
0.0
1001
ACAD
1000
AcDbSavedByObjectVersion
1070
     0
  0
VISUALSTYLE
  5
31
102
{ACAD_REACTORS
330
2A
102
}
330
2A
100
AcDbVisualStyle
  2
3D Hidden
 70
     6
 71
     1
 72
     2
 73
     2
 90
        0
 40
-0.6
 41
-30.0
 62
     5
 63
     7
421
 16777215
 74
     2
 91
        2
 64
     7
 65
   257
 75
     2
175
     1
 42
40.0
 92
        0
 66
   257
 43
1.0
 76
     1
 77
     6
 78
     2
 67
     7
 79
     3
170
     0
171
     0
290
     0
174
     0
 93
        1
 44
0.0
173
     0
291
     0
 45
0.0
1001
ACAD
1000
AcDbSavedByObjectVersion
1070
     0
  0
VISUALSTYLE
  5
30
102
{ACAD_REACTORS
330
2A
102
}
330
2A
100
AcDbVisualStyle
  2
3dWireframe
 70
     5
 71
     0
 72
     2
 73
     0
 90
        0
 40
-0.6
 41
-30.0
 62
     5
 63
     7
421
 16777215
 74
     1
 91
        4
 64
     7
 65
   257
 75
     1
175
     1
 42
1.0
 92
        0
 66
   257
 43
1.0
 76
     1
 77
     6
 78
     2
 67
     7
 79
     5
170
     0
171
     0
290
     0
174
     0
 93
        1
 44
0.0
173
     0
291
     0
 45
0.0
1001
ACAD
1000
AcDbSavedByObjectVersion
1070
     0
  0
VISUALSTYLE
  5
32
102
{ACAD_REACTORS
330
2A
102
}
330
2A
100
AcDbVisualStyle
  2
Basic
 70
     7
 71
     1
 72
     0
 73
     1
 90
        0
 40
-0.6
 41
-30.0
 62
     5
 63
     7
421
 16777215
 74
     0
 91
        4
 64
     7
 65
   257
 75
     1
175
     1
 42
1.0
 92
        8
 66
     7
 43
1.0
 76
     1
 77
     6
 78
     2
 67
     7
 79
     5
170
     0
171
     0
290
     0
174
     0
 93
        1
 44
0.0
173
     0
291
     1
 45
0.0
1001
ACAD
1000
AcDbSavedByObjectVersion
1070
     0
  0
VISUALSTYLE
  5
36
102
{ACAD_REACTORS
330
2A
102
}
330
2A
100
AcDbVisualStyle
  2
Brighten
 70
    12
 71
     2
 72
     2
 73
     0
 90
        0
 40
-0.6
 41
-30.0
 62
     5
 63
     7
421
 16777215
 74
     1
 91
        4
 64
     7
 65
   257
 75
     1
175
     1
 42
1.0
 92
        8
 66
     7
 43
1.0
 76
     1
 77
     6
 78
     2
 67
     7
 79
     5
170
     0
171
     0
290
     0
174
     0
 93
        1
 44
50.0
173
     0
291
     1
 45
0.0
1001
ACAD
1000
AcDbSavedByObjectVersion
1070
     0
  0
VISUALSTYLE
  5
3A
102
{ACAD_REACTORS
330
2A
102
}
330
2A
100
AcDbVisualStyle
  2
ColorChange
 70
    16
 71
     2
 72
     2
 73
     3
 90
        0
 40
-0.6
 41
-30.0
 62
     5
 63
     8
421
  8421504
 74
     1
 91
        4
 64
     7
 65
   257
 75
     1
175
     1
 42
1.0
 92
        8
 66
     8
424
  8421504
 43
1.0
 76
     1
 77
     6
 78
     2
 67
     7
 79
     5
170
     0
171
     0
290
     0
174
     0
 93
        1
 44
0.0
173
     0
291
     1
 45
0.0
1001
ACAD
1000
AcDbSavedByObjectVersion
1070
     0
  0
VISUALSTYLE
  5
34
102
{ACAD_REACTORS
330
2A
102
}
330
2A
100
AcDbVisualStyle
  2
Conceptual
 70
     9
 71
     3
 72
     2
 73
     0
 90
        0
 40
-0.6
 41
-30.0
 62
     5
 63
     7
421
 16777215
 74
     2
 91
        2
 64
     7
 65
   257
 75
     1
175
     1
 42
40.0
 92
        8
 66
     7
 43
1.0
 76
     1
 77
     6
 78
     2
 67
     7
 79
     3
170
     0
171
     0
290
     0
174
     0
 93
        1
 44
0.0
173
     0
291
     0
 45
0.0
1001
ACAD
1000
AcDbSavedByObjectVersion
1070
     0
  0
VISUALSTYLE
  5
35
102
{ACAD_REACTORS
330
2A
102
}
330
2A
100
AcDbVisualStyle
  2
Dim
 70
    11
 71
     2
 72
     2
 73
     0
 90
        0
 40
-0.6
 41
-30.0
 62
     5
 63
     7
421
 16777215
 74
     1
 91
        4
 64
     7
 65
   257
 75
     1
175
     1
 42
1.0
 92
        8
 66
     7
 43
1.0
 76
     1
 77
     6
 78
     2
 67
     7
 79
     5
170
     0
171
     0
290
     0
174
     0
 93
        1
 44
-50.0
173
     0
291
     1
 45
0.0
1001
ACAD
1000
AcDbSavedByObjectVersion
1070
     0
  0
VISUALSTYLE
  5
39
102
{ACAD_REACTORS
330
2A
102
}
330
2A
100
AcDbVisualStyle
  2
Facepattern
 70
    15
 71
     2
 72
     2
 73
     0
 90
        0
 40
-0.6
 41
-30.0
 62
     5
 63
     7
421
 16777215
 74
     1
 91
        4
 64
     7
 65
   257
 75
     1
175
     1
 42
1.0
 92
        8
 66
     7
 43
1.0
 76
     1
 77
     6
 78
     2
 67
     7
 79
     5
170
     0
171
     0
290
     0
174
     0
 93
        1
 44
0.0
173
     0
291
     1
 45
0.0
1001
ACAD
1000
AcDbSavedByObjectVersion
1070
     0
  0
VISUALSTYLE
  5
2B
102
{ACAD_REACTORS
330
2A
102
}
330
2A
100
AcDbVisualStyle
  2
Flat
 70
     0
 71
     2
 72
     1
 73
     1
 90
        2
 40
-0.6
 41
30.0
 62
     5
 63
     7
421
 16777215
 74
     0
 91
        4
 64
     7
 65
   257
 75
     1
175
     1
 42
1.0
 92
        8
 66
     7
 43
1.0
 76
     1
 77
     6
 78
     2
 67
     7
 79
     5
170
     0
171
     0
290
     0
174
     0
 93
       13
 44
0.0
173
     0
291
     1
 45
0.0
1001
ACAD
1000
AcDbSavedByObjectVersion
1070
     0
  0
VISUALSTYLE
  5
2C
102
{ACAD_REACTORS
330
2A
102
}
330
2A
100
AcDbVisualStyle
  2
FlatWithEdges
 70
     1
 71
     2
 72
     1
 73
     1
 90
        2
 40
-0.6
 41
30.0
 62
     5
 63
     7
421
 16777215
 74
     1
 91
        4
 64
     7
 65
   257
 75
     1
175
     1
 42
1.0
 92
        0
 66
   257
 43
1.0
 76
     1
 77
     6
 78
     2
 67
     7
 79
     5
170
     0
171
     0
290
     0
174
     0
 93
       13
 44
0.0
173
     0
291
     1
 45
0.0
1001
ACAD
1000
AcDbSavedByObjectVersion
1070
     0
  0
VISUALSTYLE
  5
2D
102
{ACAD_REACTORS
330
2A
102
}
330
2A
100
AcDbVisualStyle
  2
Gouraud
 70
     2
 71
     2
 72
     2
 73
     1
 90
        2
 40
-0.6
 41
30.0
 62
     5
 63
     7
421
 16777215
 74
     0
 91
        4
 64
     7
 65
   257
 75
     1
175
     1
 42
1.0
 92
        0
 66
     7
 43
1.0
 76
     1
 77
     6
 78
     2
 67
     7
 79
     5
170
     0
171
     0
290
     0
174
     0
 93
       13
 44
0.0
173
     0
291
     1
 45
0.0
1001
ACAD
1000
AcDbSavedByObjectVersion
1070
     0
  0
VISUALSTYLE
  5
2E
102
{ACAD_REACTORS
330
2A
102
}
330
2A
100
AcDbVisualStyle
  2
GouraudWithEdges
 70
     3
 71
     2
 72
     2
 73
     1
 90
        2
 40
-0.6
 41
30.0
 62
     5
 63
     7
421
 16777215
 74
     1
 91
        4
 64
     7
 65
   257
 75
     1
175
     1
 42
1.0
 92
        0
 66
   257
 43
1.0
 76
     1
 77
     6
 78
     2
 67
     7
 79
     5
170
     0
171
     0
290
     0
174
     0
 93
       13
 44
0.0
173
     0
291
     1
 45
0.0
1001
ACAD
1000
AcDbSavedByObjectVersion
1070
     0
  0
VISUALSTYLE
  5
38
102
{ACAD_REACTORS
330
2A
102
}
330
2A
100
AcDbVisualStyle
  2
Linepattern
 70
    14
 71
     2
 72
     2
 73
     0
 90
        0
 40
-0.6
 41
-30.0
 62
     5
 63
     7
421
 16777215
 74
     1
 91
        4
 64
     7
 65
   257
 75
     7
175
     7
 42
1.0
 92
        8
 66
     7
 43
1.0
 76
     1
 77
     6
 78
     2
 67
     7
 79
     5
170
     0
171
     0
290
     0
174
     0
 93
        1
 44
0.0
173
     0
291
     1
 45
0.0
1001
ACAD
1000
AcDbSavedByObjectVersion
1070
     0
  0
VISUALSTYLE
  5
33
102
{ACAD_REACTORS
330
2A
102
}
330
2A
100
AcDbVisualStyle
  2
Realistic
 70
     8
 71
     2
 72
     2
 73
     0
 90
        0
 40
-0.6
 41
-30.0
 62
     5
 63
     7
421
 16777215
 74
     1
 91
        0
 64
     7
 65
   257
 75
     1
175
     1
 42
1.0
 92
        8
 66
     8
424
  7895160
 43
1.0
 76
     1
 77
     6
 78
     2
 67
     7
 79
     5
170
     0
171
     0
290
     0
174
     0
 93
       13
 44
0.0
173
     0
291
     0
 45
0.0
1001
ACAD
1000
AcDbSavedByObjectVersion
1070
     0
  0
VISUALSTYLE
  5
37
102
{ACAD_REACTORS
330
2A
102
}
330
2A
100
AcDbVisualStyle
  2
Thicken
 70
    13
 71
     2
 72
     2
 73
     0
 90
        0
 40
-0.6
 41
-30.0
 62
     5
 63
     7
421
 16777215
 74
     1
 91
        4
 64
     7
 65
   257
 75
     1
175
     1
 42
1.0
 92
       12
 66
     7
 43
1.0
 76
     1
 77
     6
 78
     2
 67
     7
 79
     5
170
     0
171
     0
290
     0
174
     0
 93
        1
 44
0.0
173
     0
291
     1
 45
0.0
1001
ACAD
1000
AcDbSavedByObjectVersion
1070
     0
  0
ENDSEC
  0
EOF
