  0
SECTION
  2
HEADER
  9
$ACADVER
  1
AC1009
  9
$INSBASE
 10
0
 20
0
 30
0
  9
$EXTMIN
 10
0
 20
0
  9
$EXTMAX
 10
2940
 20
2079
  9
$LIMMIN
 10
0
 20
0
  9
$LIMMAX
 10
2940
 20
2079
  9
$LTSCALE
 40
7
  0
ENDSEC
  0
SECTION
  2
TABLES
  0
TABLE
  2
LTYPE
 70
     9
  0
LTYPE
  2
CONTINUOUS
 70
    64
  3
実線
 72
    65
 73
     0
 40
0.0
  0
LTYPE
  2
DASHED1
 70
    64
  3
--  --  --  --  --  --  --  --  
 72
    65
 73
     2
 40
2.5
 49
1.25
 49
-1.25
  0
LTYPE
  2
DASHED2
 70
    64
  3
----    ----    ----    ----    
 72
    65
 73
     2
 40
5.0
 49
2.5
 49
-2.5
  0
LTYPE
  2
DASHED3
 70
    64
  3
------  ------  ------  ------  
 72
    65
 73
     2
 40
5.0
 49
3.75
 49
-1.25
  0
LTYPE
  2
CENTER1
 70
    64
  3
----- - ----- - ----- - ----- - 
 72
    65
 73
     4
 40
10.0
 49
6.25
 49
-1.25
 49
1.25
 49
-1.25
  0
LTYPE
  2
CENTER2
 70
    64
  3
----------  --  ----------  --  
 72
    65
 73
     4
 40
20.0
 49
12.5
 49
-2.5
 49
2.5
 49
-2.5
  0
LTYPE
  2
PHANTOM1
 70
    64
  3
--- - - --- - - --- - - --- - - 
 72
    65
 73
     6
 40
10.0
 49
3.25
 49
-1.25
 49
1.25
 49
-1.25
 49
1.25
 49
-1.25
  0
LTYPE
  2
PHANTOM2
 70
    64
  3
--------  -  -  --------  -  -  
 72
    65
 73
     6
 40
20.0
 49
10.0
 49
-2.5
 49
1.25
 49
-2.5
 49
1.25
 49
-2.5
  0
LTYPE
  2
DOT
 70
    64
  3
-   -   -   -   -   -   -   -   
 72
    65
 73
     2
 40
2.5
 49
0.625
 49
-1.875
  0
LTYPE
  2
DUMMY
 70
    64
  3
ダミー
 72
    65
 73
     0
 40
0.0
  0
LTYPE
  2
RAND1
 70
    64
  3
ランダム線1
 72
    65
 73
     4
 40
10.0
 49
1.0
 49
-2.0
 49
3.0
 49
-4.0
  0
LTYPE
  2
RAND2
 70
    64
  3
ランダム線2
 72
    65
 73
     4
 40
14.0
 49
2.0
 49
-3.0
 49
4.0
 49
-5.0
  0
LTYPE
  2
RAND3
 70
    64
  3
ランダム線3
 72
    65
 73
     4
 40
18.0
 49
3.0
 49
-4.0
 49
5.0
 49
-6.0
  0
LTYPE
  2
RAND4
 70
    64
  3
ランダム線4
 72
    65
 73
     4
 40
22.0
 49
4.0
 49
-5.0
 49
6.0
 49
-7.0
  0
LTYPE
  2
RAND5
 70
    64
  3
ランダム線5
 72
    65
 73
     4
 40
26.0
 49
5.0
 49
-6.0
 49
7.0
 49
-8.0
  0
LTYPE
  2
LONG1
 70
    64
  3
----------  --  ----------  --  
 72
    65
 73
     4
 40
40.0
 49
32.5
 49
-2.5
 49
2.5
 49
-2.5
  0
LTYPE
  2
LONG2
 70
    64
  3
--------  -  -  --------  -  -  
 72
    65
 73
     6
 40
40.0
 49
30.0
 49
-2.5
 49
1.25
 49
-2.5
 49
1.25
 49
-2.5
  0
LTYPE
  2
LONG3
 70
    64
  3
+++++++++++++++..+++++++++++++++
 72
    65
 73
     2
 40
40.0
 49
37.5
 49
-2.5
  0
LTYPE
  2
LONG4
 70
    64
  3
+++++++++++++++..+++++++++++++++
 72
    65
 73
     2
 40
80.0
 49
75.0
 49
-5.0
  0
LTYPE
  2
LONG5
 70
    64
  3
----------  --  ----------  --  
 72
    65
 73
     4
 40
60.0
 49
37.5
 49
-7.5
 49
7.5
 49
-7.5
  0
LTYPE
  2
dashed
 70
   64
  3
-------   -------------   ------
 72
   65
 73
    2
 40
7.5
 49
6
 49
-1.5
  0
LTYPE
  2
dashed_spaced
 70
   64
  3
----        --------        ----
 72
   65
 73
    2
 40
12
 49
6
 49
-6
  0
LTYPE
  2
long_dashed_dotted
 70
   64
  3
------------- --- --------------
 72
   65
 73
    4
 40
15.25
 49
12
 49
-1.5
 49
0.25
 49
-1.5
  0
LTYPE
  2
long_dashed_double-dotted
 70
   64
  3
----------- --- --- ------------
 72
   65
 73
    6
 40
17
 49
12
 49
-1.5
 49
0.25
 49
-1.5
 49
0.25
 49
-1.5
  0
LTYPE
  2
long_dashed_triplicate-dotted
 70
   64
  3
--------- --- --- --- ----------
 72
   65
 73
    8
 40
18.75
 49
12
 49
-1.5
 49
0.25
 49
-1.5
 49
0.25
 49
-1.5
 49
0.25
 49
-1.5
  0
LTYPE
  2
dotted
 70
   64
  3
   -       -       -       -    
 72
   65
 73
    2
 40
1.75
 49
0.25
 49
-1.5
  0
LTYPE
  2
chain
 70
   64
  3
-------------- -- --------------
 72
   65
 73
    4
 40
18.5
 49
12
 49
-1.5
 49
3.5
 49
-1.5
  0
LTYPE
  2
chain_double_dash
 70
   64
  3
------------ -- -- -------------
 72
   65
 73
    6
 40
23.5
 49
12
 49
-1.5
 49
3.5
 49
-1.5
 49
3.5
 49
-1.5
  0
LTYPE
  2
dashed_dotted
 70
   64
  3
-----------     -     ----------
 72
   65
 73
    4
 40
9.25
 49
6
 49
-1.5
 49
0.25
 49
-1.5
  0
LTYPE
  2
double-dashed_dotted
 70
   64
  3
------   -----------   -   -----
 72
   65
 73
    6
 40
16.75
 49
6
 49
-1.5
 49
6
 49
-1.5
 49
0.25
 49
-1.5
  0
LTYPE
  2
dashed_double-dotted
 70
   64
  3
---------    -    -    ---------
 72
   65
 73
    6
 40
11
 49
6
 49
-1.5
 49
0.25
 49
-1.5
 49
0.25
 49
-1.5
  0
LTYPE
  2
double-dashed_double-dotted
 70
   64
  3
-----   ---------   -   -   ----
 72
   65
 73
    8
 40
18.5
 49
6
 49
-1.5
 49
6
 49
-1.5
 49
0.25
 49
-1.5
 49
0.25
 49
-1.5
  0
LTYPE
  2
dashed_triplicate-dotted
 70
   64
  3
-------    -    -    -    ------
 72
   65
 73
    8
 40
12.75
 49
6
 49
-1.5
 49
0.25
 49
-1.5
 49
0.25
 49
-1.5
 49
0.25
 49
-1.5
  0
LTYPE
  2
double-dashed_triplicate-dotted
 70
   64
  3
-----  ---------  -  -  -  -----
 72
   65
 73
   10
 40
20.25
 49
6
 49
-1.5
 49
6
 49
-1.5
 49
0.25
 49
-1.5
 49
0.25
 49
-1.5
 49
0.25
 49
-1.5
  0
LTYPE
  2
undefined
 70
   64
  3
--------------------------------
 72
   65
 73
    0
 40
0
  0
ENDTAB
  0
TABLE
  2
STYLE
  5
3
100
AcDbSymbolTable
 70
     1
  0
STYLE
  5
10
100
AcDbSymbolTableRecord
100
AcDbTextStyleTableRecord
  2
STANDARD
 70
     0
 40
0.0
 41
1.0
 50
0.0
 71
     0
 42
0.2
  3
txt
  4
bigfont.shx
  0
STYLE
  5
26
100
AcDbSymbolTableRecord
100
AcDbTextStyleTableRecord
  2
TATEGAKI
 70
    68
 40
0.0
 41
1.0
 50
0.0
 71
     0
 42
1.0
  3
txt
  4
bigfont.shx
  0
ENDTAB
  0
TABLE
  2
LAYER
 70
    9
  0
LAYER
  2
_0-0_
 70
   64
 62
    7
  6
CONTINUOUS
  0
LAYER
  2
_0-1_
 70
   64
 62
    7
  6
CONTINUOUS
  0
LAYER
  2
_0-2_
 70
   64
 62
    7
  6
CONTINUOUS
  0
LAYER
  2
_0-4_
 70
   64
 62
    7
  6
CONTINUOUS
  0
LAYER
  2
_0-5_
 70
   64
 62
    7
  6
CONTINUOUS
  0
LAYER
  2
_0-f_
 70
   64
 62
    7
  6
CONTINUOUS
  0
LAYER
  2
_f-5_
 70
   64
 62
    7
  6
CONTINUOUS
  0
LAYER
  2
_f-f_
 70
   64
 62
    7
  6
CONTINUOUS
  0
LAYER
  2
ADD_LINE
 70
   64
 62
    7
  6
CONTINUOUS
  0
ENDTAB
  0
ENDSEC
  0
SECTION
  2
BLOCKS
  0
ENDSEC
  0
SECTION
  2
ENTITIES
  0
LINE
  8
_f-f_
  6
CONTINUOUS
 62
    7
 10
1868.6653347257732
 20
1933.4847279031324
 11
2799.6919763808805
 21
1933.4847279031324
  0
LINE
  8
_f-f_
  6
CONTINUOUS
 62
    7
 10
1868.6653347257732
 20
1926.4847279031324
 11
2799.6919763808805
 21
1926.4847279031324
  0
LINE
  8
_f-f_
  6
CONTINUOUS
 62
    7
 10
2026.4812138504276
 20
1849.4842706162981
 11
2799.6919763808805
 21
1849.4842706162981
  0
TEXT
  8
_f-f_
 62
    3
 10
1887.297392328079
 20
1883.6400196832583
 40
28
 41
1
 50
0
  1
適用規格
  0
TEXT
  8
_f-f_
 62
    3
 10
2041.2950745439125
 20
1889.981302730032
 40
28
 41
1
 50
0
  1
空気調和・衛生工学会規格
  0
LINE
  8
_f-f_
  6
CONTINUOUS
 62
    7
 10
1868.6653347257732
 20
1982.4848030049852
 11
2799.6919763808805
 21
1982.4848030049852
  0
TEXT
  8
_f-f_
 62
    3
 10
1887.297392328079
 20
1944.4940142801361
 40
28
 41
1
 50
0
  1
名称
  0
TEXT
  8
_f-f_
 62
    3
 10
2041.2950745439125
 20
1944.4940142801361
 40
28
 41
1
 50
0
  1
マンホール鉄蓋
  0
TEXT
  8
_f-f_
 62
    3
 10
2041.2950745439125
 20
1809.6191285758446
 40
28
 41
1
 50
0
  1
国土交通省大臣官房庁営繕部設備・環境課監修
  0
TEXT
  8
_f-f_
 62
    3
 10
2041.2950745439125
 20
1768.3101990140035
 40
28
 41
1
 50
0
  1
公共建築設備工事標準図（機械設備工事編）
  0
LINE
  8
_f-f_
  6
CONTINUOUS
 62
    7
 10
1868.6653347257732
 20
1716.4842706162981
 11
2799.6919763808805
 21
1716.4842706162981
  0
LINE
  8
_f-f_
  6
CONTINUOUS
 62
    7
 10
2799.6919763808805
 20
1667.4842305619768
 11
2026.4812138504276
 21
1667.4842305619768
  0
TEXT
  8
_f-f_
 62
    3
 10
1887.297392328079
 20
1677.6140640687995
 40
28
 41
1
 50
0
  1
仕様
  0
LINE
  8
_f-f_
  6
CONTINUOUS
 62
    7
 10
2026.4812138504276
 20
1569.4846044023093
 11
2799.6919763808805
 21
1569.4846044023093
  0
LINE
  8
_f-f_
  6
CONTINUOUS
 62
    7
 10
2799.6919763808805
 20
1618.4842305619768
 11
2026.4812138504276
 21
1618.4842305619768
  0
TEXT
  8
_f-f_
 62
    3
 10
2041.2950745439125
 20
1578.7715793211569
 40
28
 41
1
 50
0
  1
蓋：鋳鉄製　FCD500　樹脂系塗装
  0
TEXT
  8
_f-f_
 62
    3
 10
2041.2950745439125
 20
1530.9401871969194
 40
28
 41
1
 50
0
  1
枠：鋳鉄製　FC200 　樹脂系塗装
  0
TEXT
  8
_f-f_
 62
    3
 10
2041.2950745439125
 20
1629.8642027265923
 40
28
 41
1
 50
0
  1
有効内径φ750mm
  0
TEXT
  8
_f-f_
 62
    3
 10
2206.6875001605649
 20
685.3142560524019
 40
28
 41
1
 50
0
  1
1.5mm以内（有効内径の0.2％以内）
  0
TEXT
  8
_f-f_
 62
    3
 10
2206.6875001605649
 20
736.89043125367084
 40
28
 41
1
 50
0
  1
4.5mm以内（有効内径の0.6％以内）
  0
TEXT
  8
_f-f_
 62
    3
 10
2206.6875001605649
 20
834.88986381745303
 40
28
 41
1
 50
0
  1
φ330mm
  0
TEXT
  8
_f-f_
 62
    3
 10
2206.6875001605649
 20
785.51056054181856
 40
28
 41
1
 50
0
  1
50kN
  0
TEXT
  8
_f-f_
 62
    3
 10
2206.6875001605649
 20
883.89004406189872
 40
28
 41
1
 50
0
  1
小形バス（11～29人）
  0
TEXT
  8
_f-f_
 62
    3
 10
2206.6875001605649
 20
925.38042270324547
 40
28
 41
1
 50
0
  1
大形バス（30人以上）
  0
TEXT
  8
_f-f_
 62
    3
 10
2206.6875001605649
 20
590.06449864791477
 40
28
 41
0.9749999999999999
 50
0
  1
T-20：総重量20トンまでの車両が通行可能
  0
TEXT
  8
_f-f_
 62
    3
 10
2206.6875001605649
 20
638.40971565875304
 40
28
 41
1
 50
0
  1
200kN以下で破壊されない
  0
LINE
  8
_f-f_
  6
CONTINUOUS
 62
    7
 10
1868.6653347257732
 20
1292.8994283418403
 11
1868.6653347257732
 21
579.40968222498452
  0
LINE
  8
_f-f_
  6
CONTINUOUS
 62
    7
 10
1868.6653347257732
 20
579.40968222498452
 11
2799.6919763808805
 21
579.40968222498452
  0
LINE
  8
_f-f_
  6
CONTINUOUS
 62
    7
 10
2177.7530688347479
 20
1243.8993532399886
 11
2177.7530688347479
 21
579.40968222498452
  0
TEXT
  8
_f-f_
 62
    3
 10
1887.297392328079
 20
590.06449864791477
 40
28
 41
1
 50
0
  1
Ｔ荷重（参考）
  0
LINE
  8
_f-f_
  6
CONTINUOUS
 62
    7
 10
1868.6653347257732
 20
628.40984244226968
 11
2799.6919763808805
 21
628.40984244226968
  0
TEXT
  8
_f-f_
 62
    3
 10
1887.297392328079
 20
785.51056054181845
 40
28
 41
1
 50
0
  1
たわみ試験荷重
  0
TEXT
  8
_f-f_
 62
    3
 10
1887.297392328079
 20
638.40971565875304
 40
28
 41
1
 50
0
  1
破壊荷重
  0
LINE
  8
_f-f_
  6
CONTINUOUS
 62
    7
 10
1868.6653347257732
 20
677.40984244226968
 11
2799.6919763808805
 21
677.40984244226968
  0
LINE
  8
_f-f_
  6
CONTINUOUS
 62
    7
 10
1868.6653347257732
 20
726.40968222498452
 11
2799.6919763808805
 21
726.40968222498452
  0
LINE
  8
_f-f_
  6
CONTINUOUS
 62
    7
 10
1868.6653347257732
 20
775.40957541346108
 11
2799.6919763808805
 21
775.40957541346108
  0
LINE
  8
_f-f_
  6
CONTINUOUS
 62
    7
 10
2799.6919763808805
 20
824.40909476160516
 11
1868.6653347257732
 21
824.40909476160516
  0
LINE
  8
_f-f_
  6
CONTINUOUS
 62
    7
 10
1868.6653347257732
 20
873.4092950332124
 11
2799.6919763808805
 21
873.4092950332124
  0
TEXT
  8
_f-f_
 62
    3
 10
1887.297392328079
 20
685.3142560524019
 40
28
 41
1
 50
0
  1
許容残留たわみ量
  0
TEXT
  8
_f-f_
 62
    3
 10
1887.297392328079
 20
736.89043125367084
 40
28
 41
1
 50
0
  1
許容たわみ量
  0
TEXT
  8
_f-f_
 62
    3
 10
1887.297392328079
 20
834.88986381745292
 40
28
 41
1
 50
0
  1
加重体の大きさ
  0
LINE
  8
_f-f_
  6
CONTINUOUS
 62
    7
 10
2799.6919763808805
 20
1292.8994283418403
 11
2799.6919763808805
 21
579.40968222498452
  0
TEXT
  8
_f-f_
 62
    3
 10
2206.6875001605649
 20
967.88972362732841
 40
28
 41
1
 50
0
  1
（積載量5トン以上、総重量8トン以上）
  0
TEXT
  8
_f-f_
 62
    3
 10
2206.6875001605649
 20
1009.3801022686752
 40
28
 41
1
 50
0
  1
大形トラック
  0
TEXT
  8
_f-f_
 62
    3
 10
2206.6875001605649
 20
1058.00077896588
 40
28
 41
1
 50
0
  1
50kN
  0
TEXT
  8
_f-f_
 62
    3
 10
2206.6875001605649
 20
1198.1354674531233
 40
28
 41
1
 50
0
  1
5000K
  0
TEXT
  8
_f-f_
 62
    3
 10
1887.297392328079
 20
1253.2715045743539
 40
28
 41
1
 50
0
  1
強度性能
  0
LINE
  8
_f-f_
  6
CONTINUOUS
 62
    7
 10
1868.6653347257732
 20
1292.8994283418403
 11
2799.6919763808805
 21
1292.8994283418403
  0
TEXT
  8
_f-f_
 62
    3
 10
2206.6875001605649
 20
1109.2328138616713
 40
28
 41
1
 50
0
  1
敷地周辺道路（公共の車道を除く）
  0
TEXT
  8
_f-f_
 62
    3
 10
2206.6875001605649
 20
1150.723192503018
 40
28
 41
1
 50
0
  1
建物内、建物敷地内、公園敷地内及び
  0
TEXT
  8
_f-f_
 62
    3
 10
1887.297392328079
 20
1150.723192503018
 40
28
 41
1
 50
0
  1
使用場所
  0
LINE
  8
_f-f_
  6
CONTINUOUS
 62
    7
 10
1868.6653347257732
 20
1187.8993532399886
 11
2799.6919763808805
 21
1187.8993532399886
  0
TEXT
  8
_f-f_
 62
    3
 10
1887.297392328079
 20
1058.00077896588
 40
28
 41
1
 50
0
  1
安全荷重
  0
LINE
  8
_f-f_
  6
CONTINUOUS
 62
    7
 10
1868.6653347257732
 20
1096.8993532399888
 11
2799.6919763808805
 21
1096.8993532399888
  0
LINE
  8
_f-f_
  6
CONTINUOUS
 62
    7
 10
1868.6653347257732
 20
1047.8993532399888
 11
2799.6919763808805
 21
1047.8993532399888
  0
TEXT
  8
_f-f_
 62
    3
 10
1887.297392328079
 20
1009.3801022686752
 40
28
 41
1
 50
0
  1
許容通過車両
  0
TEXT
  8
_f-f_
 62
    3
 10
1887.297392328079
 20
1198.1354674531233
 40
28
 41
1
 50
0
  1
種類
  0
LINE
  8
_f-f_
  6
CONTINUOUS
 62
    7
 10
1868.6653347257732
 20
1236.8993532399886
 11
2799.6919763808805
 21
1236.8993532399886
  0
LINE
  8
_f-f_
  6
CONTINUOUS
 62
    7
 10
1868.6653347257732
 20
1243.8993532399886
 11
2799.6919763808805
 21
1243.8993532399886
  0
LINE
  8
_f-f_
  6
CONTINUOUS
 62
    7
 10
2026.4812138504276
 20
1520.4849782426415
 11
2799.6919763808805
 21
1520.4849782426415
  0
LINE
  8
_f-f_
  6
CONTINUOUS
 62
    7
 10
2799.6919763808805
 20
1982.4848030049852
 11
2799.6919763808805
 21
1331.1480228024614
  0
LINE
  8
_f-f_
  6
CONTINUOUS
 62
    7
 10
1868.6653347257732
 20
1422.4843373735018
 11
2799.6919763808805
 21
1422.4843373735018
  0
LINE
  8
_f-f_
  6
CONTINUOUS
 62
    7
 10
1868.6653347257732
 20
1331.1480228024614
 11
2799.6919763808805
 21
1331.1480228024614
  0
TEXT
  8
_f-f_
 62
    3
 10
1887.297392328079
 20
1382.6036523088396
 40
28
 41
1
 50
0
  1
品番
  0
TEXT
  8
_f-f_
 62
    3
 10
2041.2950745439125
 20
1382.6036523088396
 40
28
 41
1
 50
0
  1
カネソウ　マンホール鉄蓋
  0
LINE
  8
_f-f_
  6
CONTINUOUS
 62
    7
 10
1868.6653347257732
 20
1982.4848030049852
 11
1868.6653347257732
 21
1331.1480228024614
  0
LINE
  8
_f-f_
  6
CONTINUOUS
 62
    7
 10
2026.4812138504276
 20
1982.4848030049852
 11
2026.4812138504276
 21
1331.1480228024614
  0
LINE
  8
_f-f_
  6
CONTINUOUS
 62
    7
 10
2376.4812138504285
 20
1520.4849782426415
 11
2376.4812138504285
 21
1422.4843373735018
  0
LINE
  8
_f-f_
  6
CONTINUOUS
 62
    7
 10
2376.4812138504285
 20
1471.4849782426415
 11
2799.6919763808805
 21
1471.4849782426415
  0
TEXT
  8
_f-f_
 62
    3
 10
2391.2950745439125
 20
1431.7713122923496
 40
28
 41
1
 50
0
  1
枠:45kg
  0
TEXT
  8
_f-f_
 62
    3
 10
2391.2950745439125
 20
1480.7719531614894
 40
28
 41
1
 50
0
  1
蓋:64kg
  0
TEXT
  8
_f-f_
 62
    3
 10
2041.2950745439125
 20
1458.2730973241569
 40
28
 41
1
 50
0
  1
標準質量：109kg
  0
TEXT
  8
_f-f_
 62
    3
 10
2041.2950745439125
 20
1854.2485621275903
 40
28
 41
1
 50
0
  1
SHASE-S209-2009 水封形 5000K
  0
TEXT
  8
_f-f_
 62
    3
 10
2041.2950745439125
 20
1344.7899498329009
 40
28
 41
1
 50
0
  1
MKH-S-750(角)-a
  0
TEXT
  8
_f-f_
 62
    3
 10
2041.2950745439125
 20
1677.6140640687995
 40
28
 41
1
 50
0
  1
水封形（防臭形）
  0
TEXT
  8
_f-f_
 62
    3
 10
2041.2950745439125
 20
1732.6178344364473
 40
28
 41
1
 50
0
  1
記号 MHD
  0
TEXT
  8
_f-5_
 62
    2
 10
2143.400114136773
 20
106.40011251294953
 40
28
 41
1
 50
0
  1
１：７
  0
ARC
  8
_0-1_
  6
CONTINUOUS
 62
    2
 10
1331.1952492060968
 20
1095.5781849387918
 40
75
 50
270
 51
0
  0
LINE
  8
_0-2_
  6
CONTINUOUS
 62
    3
 10
1066.4037090086731
 20
1820.1156374303457
 11
1073.3201469309706
 21
1842.0511777069503
  0
LINE
  8
_0-2_
  6
CONTINUOUS
 62
    3
 10
845.98654196369785
 20
1820.1156374303457
 11
839.07035148122327
 21
1842.0511777069503
  0
LINE
  8
_0-2_
  6
CONTINUOUS
 62
    3
 10
583.195057852633
 20
1481.5783696938588
 11
633.19522281251511
 21
1481.5783696938588
  0
LINE
  8
_0-2_
  6
CONTINUOUS
 62
    3
 10
835.19519641893385
 20
1489.5780991596528
 11
835.19519641893385
 21
1511.5784686697882
  0
LINE
  8
_0-2_
  6
CONTINUOUS
 62
    3
 10
835.19519641893385
 20
1511.5784686697882
 11
845.19522941091009
 21
1511.5784686697882
  0
LINE
  8
_0-2_
  6
CONTINUOUS
 62
    3
 10
845.19522941091009
 20
1511.5784686697882
 11
845.19522941091009
 21
1489.5780991596528
  0
LINE
  8
_0-2_
  6
CONTINUOUS
 62
    3
 10
845.19522941091009
 20
1489.5780991596528
 11
835.19519641893385
 21
1489.5780991596528
  0
LINE
  8
_0-2_
  6
CONTINUOUS
 62
    3
 10
793.19525580449135
 20
1489.5780991596528
 11
793.19525580449135
 21
1511.5784686697882
  0
LINE
  8
_0-2_
  6
CONTINUOUS
 62
    3
 10
793.19525580449135
 20
1511.5784686697882
 11
829.19502815985402
 21
1511.5784686697882
  0
LINE
  8
_0-2_
  6
CONTINUOUS
 62
    3
 10
829.19502815985402
 20
1511.5784686697882
 11
829.19502815985402
 21
1489.5780991596528
  0
LINE
  8
_0-2_
  6
CONTINUOUS
 62
    3
 10
829.19502815985402
 20
1489.5780991596528
 11
793.19525580449135
 21
1489.5780991596528
  0
LINE
  8
_0-2_
  6
CONTINUOUS
 62
    3
 10
777.19505455343528
 20
1489.5780991596528
 11
777.19505455343528
 21
1511.5784686697882
  0
LINE
  8
_0-2_
  6
CONTINUOUS
 62
    3
 10
777.19505455343528
 20
1511.5784686697882
 11
787.19508754541152
 21
1511.5784686697882
  0
LINE
  8
_0-2_
  6
CONTINUOUS
 62
    3
 10
787.19508754541152
 20
1511.5784686697882
 11
787.19508754541152
 21
1489.5780991596528
  0
LINE
  8
_0-2_
  6
CONTINUOUS
 62
    3
 10
787.19508754541152
 20
1489.5780991596528
 11
777.19505455343528
 21
1489.5780991596528
  0
LINE
  8
_0-2_
  6
CONTINUOUS
 62
    3
 10
735.1951139389937
 20
1511.5784686697882
 11
771.19488629435546
 21
1511.5784686697882
  0
LINE
  8
_0-2_
  6
CONTINUOUS
 62
    3
 10
771.19488629435546
 20
1511.5784686697882
 11
771.19488629435546
 21
1489.5780991596528
  0
LINE
  8
_0-2_
  6
CONTINUOUS
 62
    3
 10
719.19491268793763
 20
1511.5784686697882
 11
729.19494567991387
 21
1511.5784686697882
  0
LINE
  8
_0-2_
  6
CONTINUOUS
 62
    3
 10
677.19497207349514
 20
1511.5784686697882
 11
713.19499186868075
 21
1511.5784686697882
  0
LINE
  8
_0-2_
  6
CONTINUOUS
 62
    3
 10
661.19501826226201
 20
1511.5784686697882
 11
671.19505125423825
 21
1511.5784686697882
  0
LINE
  8
_0-2_
  6
CONTINUOUS
 62
    3
 10
619.19507764781952
 20
1489.5780991596528
 11
619.19507764781952
 21
1511.5784686697882
  0
LINE
  8
_0-2_
  6
CONTINUOUS
 62
    3
 10
619.19507764781952
 20
1511.5784686697882
 11
655.19509744300512
 21
1511.5784686697882
  0
LINE
  8
_0-2_
  6
CONTINUOUS
 62
    3
 10
655.19509744300512
 20
1511.5784686697882
 11
655.19509744300512
 21
1489.5780991596528
  0
LINE
  8
_0-2_
  6
CONTINUOUS
 62
    3
 10
603.19487639676345
 20
1489.5780991596528
 11
603.19487639676345
 21
1511.5784686697882
  0
LINE
  8
_0-2_
  6
CONTINUOUS
 62
    3
 10
603.19487639676345
 20
1511.5784686697882
 11
613.19490938874037
 21
1511.5784686697882
  0
LINE
  8
_0-2_
  6
CONTINUOUS
 62
    3
 10
613.19490938874037
 20
1511.5784686697882
 11
613.19490938874037
 21
1489.5780991596528
  0
LINE
  8
_0-2_
  6
CONTINUOUS
 62
    3
 10
613.19490938874037
 20
1489.5780991596528
 11
603.19487639676345
 21
1489.5780991596528
  0
LINE
  8
_0-2_
  6
CONTINUOUS
 62
    3
 10
597.19470813768362
 20
1511.5784686697882
 11
597.19470813768362
 21
1489.5780991596528
  0
LINE
  8
_0-2_
  6
CONTINUOUS
 62
    3
 10
570.87057516682239
 20
1511.5784686697882
 11
597.19470813768362
 21
1511.5784686697882
  0
LINE
  8
_0-2_
  6
CONTINUOUS
 62
    3
 10
597.19470813768362
 20
1489.5780991596528
 11
569.16126087205862
 21
1489.5780991596528
  0
LINE
  8
_0-2_
  6
CONTINUOUS
 62
    3
 10
568.85146621411991
 20
1481.5783696938588
 11
575.19508094701723
 21
1481.5783696938588
  0
LINE
  8
_0-2_
  6
CONTINUOUS
 62
    3
 10
661.19501826226201
 20
1489.5780991596528
 11
661.19501826226201
 21
1511.5784686697882
  0
LINE
  8
_0-2_
  6
CONTINUOUS
 62
    3
 10
671.19505125423825
 20
1489.5780991596528
 11
661.19501826226201
 21
1489.5780991596528
  0
LINE
  8
_0-2_
  6
CONTINUOUS
 62
    3
 10
671.19505125423825
 20
1511.5784686697882
 11
671.19505125423825
 21
1489.5780991596528
  0
LINE
  8
_0-2_
  6
CONTINUOUS
 62
    3
 10
619.19507764781952
 20
1489.5780991596528
 11
655.19509744300512
 21
1489.5780991596528
  0
LINE
  8
_0-2_
  6
CONTINUOUS
 62
    3
 10
677.19497207349514
 20
1489.5780991596528
 11
677.19497207349514
 21
1511.5784686697882
  0
LINE
  8
_0-2_
  6
CONTINUOUS
 62
    3
 10
756.19508424621495
 20
1486.5781387500247
 11
692.19526900128244
 21
1486.5781387500247
  0
LINE
  8
_0-2_
  6
CONTINUOUS
 62
    3
 10
677.19497207349514
 20
1489.5780991596528
 11
682.01411005913678
 21
1489.5780991596528
  0
LINE
  8
_0-2_
  6
CONTINUOUS
 62
    3
 10
682.01411005913678
 20
1496.5781717420009
 11
682.01411005913678
 21
1489.5780991596528
  0
LINE
  8
_0-2_
  6
CONTINUOUS
 62
    3
 10
713.19499186868075
 20
1496.5781717420009
 11
682.01411005913678
 21
1496.5781717420009
  0
LINE
  8
_0-2_
  6
CONTINUOUS
 62
    3
 10
713.19499186868075
 20
1511.5784686697882
 11
713.19499186868075
 21
1496.5781717420009
  0
LINE
  8
_0-2_
  6
CONTINUOUS
 62
    3
 10
719.19491268793763
 20
1496.5781717420009
 11
719.19491268793763
 21
1511.5784686697882
  0
LINE
  8
_0-2_
  6
CONTINUOUS
 62
    3
 10
729.19494567991387
 20
1496.5781717420009
 11
719.19491268793763
 21
1496.5781717420009
  0
LINE
  8
_0-2_
  6
CONTINUOUS
 62
    3
 10
729.19494567991387
 20
1511.5784686697882
 11
729.19494567991387
 21
1496.5781717420009
  0
LINE
  8
_0-2_
  6
CONTINUOUS
 62
    3
 10
735.1951139389937
 20
1496.5781717420009
 11
735.1951139389937
 21
1511.5784686697882
  0
LINE
  8
_0-2_
  6
CONTINUOUS
 62
    3
 10
765.99865001901912
 20
1496.5781717420009
 11
735.1951139389937
 21
1496.5781717420009
  0
LINE
  8
_0-2_
  6
CONTINUOUS
 62
    3
 10
765.99865001901912
 20
1496.5781717420009
 11
765.99865001901912
 21
1489.5780991596528
  0
LINE
  8
_0-2_
  6
CONTINUOUS
 62
    3
 10
771.19488629435546
 20
1489.5780991596528
 11
765.99865001901912
 21
1489.5780991596528
  0
LINE
  8
_0-2_
  6
CONTINUOUS
 62
    3
 10
765.99865001901912
 20
1481.5783696938588
 11
807.1951535293656
 21
1481.5783696938588
  0
LINE
  8
_0-2_
  6
CONTINUOUS
 62
    3
 10
641.19519971813156
 20
1481.5783696938588
 11
682.01411005913678
 21
1481.5783696938588
  0
LINE
  8
_0-2_
  6
CONTINUOUS
 62
    3
 10
1329.1954405595593
 20
1481.5783696938588
 11
1279.1952755996781
 21
1481.5783696938588
  0
LINE
  8
_0-2_
  6
CONTINUOUS
 62
    3
 10
1077.1953019932585
 20
1489.5780991596528
 11
1077.1953019932585
 21
1511.5784686697882
  0
LINE
  8
_0-2_
  6
CONTINUOUS
 62
    3
 10
1077.1953019932585
 20
1511.5784686697882
 11
1067.1952690012822
 21
1511.5784686697882
  0
LINE
  8
_0-2_
  6
CONTINUOUS
 62
    3
 10
1067.1952690012822
 20
1511.5784686697882
 11
1067.1952690012822
 21
1489.5780991596528
  0
LINE
  8
_0-2_
  6
CONTINUOUS
 62
    3
 10
1067.1952690012822
 20
1489.5780991596528
 11
1077.1953019932585
 21
1489.5780991596528
  0
LINE
  8
_0-2_
  6
CONTINUOUS
 62
    3
 10
1119.1952426077009
 20
1489.5780991596528
 11
1119.1952426077009
 21
1511.5784686697882
  0
LINE
  8
_0-2_
  6
CONTINUOUS
 62
    3
 10
1119.1952426077009
 20
1511.5784686697882
 11
1083.1954702523383
 21
1511.5784686697882
  0
LINE
  8
_0-2_
  6
CONTINUOUS
 62
    3
 10
1083.1954702523383
 20
1511.5784686697882
 11
1083.1954702523383
 21
1489.5780991596528
  0
LINE
  8
_0-2_
  6
CONTINUOUS
 62
    3
 10
1083.1954702523383
 20
1489.5780991596528
 11
1119.1952426077009
 21
1489.5780991596528
  0
LINE
  8
_0-2_
  6
CONTINUOUS
 62
    3
 10
1135.195443858757
 20
1489.5780991596528
 11
1135.195443858757
 21
1511.5784686697882
  0
LINE
  8
_0-2_
  6
CONTINUOUS
 62
    3
 10
1135.195443858757
 20
1511.5784686697882
 11
1125.1954108667808
 21
1511.5784686697882
  0
LINE
  8
_0-2_
  6
CONTINUOUS
 62
    3
 10
1125.1954108667808
 20
1511.5784686697882
 11
1125.1954108667808
 21
1489.5780991596528
  0
LINE
  8
_0-2_
  6
CONTINUOUS
 62
    3
 10
1125.1954108667808
 20
1489.5780991596528
 11
1135.195443858757
 21
1489.5780991596528
  0
LINE
  8
_0-2_
  6
CONTINUOUS
 62
    3
 10
1177.1953844731995
 20
1511.5784686697882
 11
1141.1956121178353
 21
1511.5784686697882
  0
LINE
  8
_0-2_
  6
CONTINUOUS
 62
    3
 10
1141.1956121178353
 20
1511.5784686697882
 11
1141.1956121178353
 21
1489.5780991596528
  0
LINE
  8
_0-2_
  6
CONTINUOUS
 62
    3
 10
1193.1955857242556
 20
1511.5784686697882
 11
1183.1955527322793
 21
1511.5784686697882
  0
LINE
  8
_0-2_
  6
CONTINUOUS
 62
    3
 10
1235.1955263386981
 20
1511.5784686697882
 11
1199.1955065435125
 21
1511.5784686697882
  0
LINE
  8
_0-2_
  6
CONTINUOUS
 62
    3
 10
1251.1954801499312
 20
1511.5784686697882
 11
1241.1954471579534
 21
1511.5784686697882
  0
LINE
  8
_0-2_
  6
CONTINUOUS
 62
    3
 10
1293.1954207643737
 20
1489.5780991596528
 11
1293.1954207643737
 21
1511.5784686697882
  0
LINE
  8
_0-2_
  6
CONTINUOUS
 62
    3
 10
1293.1954207643737
 20
1511.5784686697882
 11
1257.1954009691881
 21
1511.5784686697882
  0
LINE
  8
_0-2_
  6
CONTINUOUS
 62
    3
 10
1257.1954009691881
 20
1511.5784686697882
 11
1257.1954009691881
 21
1489.5780991596528
  0
LINE
  8
_0-2_
  6
CONTINUOUS
 62
    3
 10
1309.1956220154298
 20
1489.5780991596528
 11
1309.1956220154298
 21
1511.5784686697882
  0
LINE
  8
_0-2_
  6
CONTINUOUS
 62
    3
 10
1309.1956220154298
 20
1511.5784686697882
 11
1299.1955890234519
 21
1511.5784686697882
  0
LINE
  8
_0-2_
  6
CONTINUOUS
 62
    3
 10
1299.1955890234519
 20
1511.5784686697882
 11
1299.1955890234519
 21
1489.5780991596528
  0
LINE
  8
_0-2_
  6
CONTINUOUS
 62
    3
 10
1299.1955890234519
 20
1489.5780991596528
 11
1309.1956220154298
 21
1489.5780991596528
  0
LINE
  8
_0-2_
  6
CONTINUOUS
 62
    3
 10
1315.195790274508
 20
1511.5784686697882
 11
1315.195790274508
 21
1489.5780991596528
  0
LINE
  8
_0-2_
  6
CONTINUOUS
 62
    3
 10
1341.5199232453692
 20
1511.5784686697882
 11
1315.195790274508
 21
1511.5784686697882
  0
LINE
  8
_0-2_
  6
CONTINUOUS
 62
    3
 10
1315.195790274508
 20
1489.5780991596528
 11
1343.2292375401337
 21
1489.5780991596528
  0
LINE
  8
_0-2_
  6
CONTINUOUS
 62
    3
 10
1343.5390321980724
 20
1481.5783696938588
 11
1337.1954174651751
 21
1481.5783696938588
  0
LINE
  8
_0-2_
  6
CONTINUOUS
 62
    3
 10
1251.1954801499312
 20
1489.5780991596528
 11
1251.1954801499312
 21
1511.5784686697882
  0
LINE
  8
_0-2_
  6
CONTINUOUS
 62
    3
 10
1241.1954471579534
 20
1489.5780991596528
 11
1251.1954801499312
 21
1489.5780991596528
  0
LINE
  8
_0-2_
  6
CONTINUOUS
 62
    3
 10
1241.1954471579534
 20
1511.5784686697882
 11
1241.1954471579534
 21
1489.5780991596528
  0
LINE
  8
_0-2_
  6
CONTINUOUS
 62
    3
 10
1293.1954207643737
 20
1489.5780991596528
 11
1257.1954009691881
 21
1489.5780991596528
  0
LINE
  8
_0-2_
  6
CONTINUOUS
 62
    3
 10
1235.1955263386981
 20
1489.5780991596528
 11
1235.1955263386981
 21
1511.5784686697882
  0
LINE
  8
_0-2_
  6
CONTINUOUS
 62
    3
 10
1156.1954141659783
 20
1486.5781387500247
 11
1220.1952294109108
 21
1486.5781387500247
  0
LINE
  8
_0-2_
  6
CONTINUOUS
 62
    3
 10
1235.1955263386981
 20
1489.5780991596528
 11
1230.3763883530564
 21
1489.5780991596528
  0
LINE
  8
_0-2_
  6
CONTINUOUS
 62
    3
 10
1230.3763883530564
 20
1496.5781717420009
 11
1230.3763883530564
 21
1489.5780991596528
  0
LINE
  8
_0-2_
  6
CONTINUOUS
 62
    3
 10
1199.1955065435125
 20
1496.5781717420009
 11
1230.3763883530564
 21
1496.5781717420009
  0
LINE
  8
_0-2_
  6
CONTINUOUS
 62
    3
 10
1199.1955065435125
 20
1511.5784686697882
 11
1199.1955065435125
 21
1496.5781717420009
  0
LINE
  8
_0-2_
  6
CONTINUOUS
 62
    3
 10
1193.1955857242556
 20
1496.5781717420009
 11
1193.1955857242556
 21
1511.5784686697882
  0
LINE
  8
_0-2_
  6
CONTINUOUS
 62
    3
 10
1183.1955527322793
 20
1496.5781717420009
 11
1193.1955857242556
 21
1496.5781717420009
  0
LINE
  8
_0-2_
  6
CONTINUOUS
 62
    3
 10
1183.1955527322793
 20
1511.5784686697882
 11
1183.1955527322793
 21
1496.5781717420009
  0
LINE
  8
_0-2_
  6
CONTINUOUS
 62
    3
 10
1177.1953844731995
 20
1496.5781717420009
 11
1177.1953844731995
 21
1511.5784686697882
  0
LINE
  8
_0-2_
  6
CONTINUOUS
 62
    3
 10
1146.3918483931748
 20
1496.5781717420009
 11
1177.1953844731995
 21
1496.5781717420009
  0
LINE
  8
_0-2_
  6
CONTINUOUS
 62
    3
 10
1146.3918483931748
 20
1496.5781717420009
 11
1146.3918483931748
 21
1489.5780991596528
  0
LINE
  8
_0-2_
  6
CONTINUOUS
 62
    3
 10
1141.1956121178353
 20
1489.5780991596528
 11
1146.3918483931748
 21
1489.5780991596528
  0
LINE
  8
_0-2_
  6
CONTINUOUS
 62
    3
 10
1146.3918483931748
 20
1481.5783696938588
 11
1105.1953448828283
 21
1481.5783696938588
  0
LINE
  8
_0-2_
  6
CONTINUOUS
 62
    3
 10
1271.1952986940607
 20
1481.5783696938588
 11
1230.3763883530564
 21
1481.5783696938588
  0
LINE
  8
_0-2_
  6
CONTINUOUS
 62
    3
 10
1220.1952294109108
 20
1486.5781387500247
 11
1220.1952294109108
 21
1470.5781849387915
  0
LINE
  8
_0-2_
  6
CONTINUOUS
 62
    3
 10
1181.1952492060959
 20
1470.5781849387915
 11
1181.1952492060959
 21
1486.5781387500247
  0
LINE
  8
_0-2_
  6
CONTINUOUS
 62
    3
 10
1195.1953943707915
 20
1470.5781849387915
 11
1195.1953943707915
 21
1486.5781387500247
  0
LINE
  8
_0-2_
  6
CONTINUOUS
 62
    3
 10
1156.1954141659783
 20
1486.5781387500247
 11
1156.1954141659783
 21
1470.5781849387915
  0
LINE
  8
_0-2_
  6
CONTINUOUS
 62
    3
 10
873.19527230047993
 20
1541.5783202058944
 11
923.19518982053978
 21
1541.5783202058944
  0
LINE
  8
_0-2_
  6
CONTINUOUS
 62
    3
 10
815.19513043498137
 20
1541.5783202058944
 11
865.19529539486257
 21
1541.5783202058944
  0
LINE
  8
_0-2_
  6
CONTINUOUS
 62
    3
 10
583.195057852633
 20
1541.5783202058944
 11
633.19522281251511
 21
1541.5783202058944
  0
LINE
  8
_0-2_
  6
CONTINUOUS
 62
    3
 10
951.19523271010803
 20
1549.5780496716889
 11
951.19523271010803
 21
1571.5784191818234
  0
LINE
  8
_0-2_
  6
CONTINUOUS
 62
    3
 10
909.19529209566554
 20
1549.5780496716889
 11
909.19529209566554
 21
1571.5784191818234
  0
LINE
  8
_0-2_
  6
CONTINUOUS
 62
    3
 10
909.19529209566554
 20
1571.5784191818234
 11
945.1950644510282
 21
1571.5784191818234
  0
LINE
  8
_0-2_
  6
CONTINUOUS
 62
    3
 10
945.1950644510282
 20
1571.5784191818234
 11
945.1950644510282
 21
1549.5780496716889
  0
LINE
  8
_0-2_
  6
CONTINUOUS
 62
    3
 10
945.1950644510282
 20
1549.5780496716889
 11
909.19529209566554
 21
1549.5780496716889
  0
LINE
  8
_0-2_
  6
CONTINUOUS
 62
    3
 10
893.19509084460947
 20
1549.5780496716889
 11
893.19509084460947
 21
1571.5784191818234
  0
LINE
  8
_0-2_
  6
CONTINUOUS
 62
    3
 10
893.19509084460947
 20
1571.5784191818234
 11
903.19512383658571
 21
1571.5784191818234
  0
LINE
  8
_0-2_
  6
CONTINUOUS
 62
    3
 10
903.19512383658571
 20
1571.5784191818234
 11
903.19512383658571
 21
1549.5780496716889
  0
LINE
  8
_0-2_
  6
CONTINUOUS
 62
    3
 10
903.19512383658571
 20
1549.5780496716889
 11
893.19509084460947
 21
1549.5780496716889
  0
LINE
  8
_0-2_
  6
CONTINUOUS
 62
    3
 10
851.19515023016697
 20
1549.5780496716889
 11
851.19515023016697
 21
1571.5784191818234
  0
LINE
  8
_0-2_
  6
CONTINUOUS
 62
    3
 10
851.19515023016697
 20
1571.5784191818234
 11
887.19517002535258
 21
1571.5784191818234
  0
LINE
  8
_0-2_
  6
CONTINUOUS
 62
    3
 10
887.19517002535258
 20
1571.5784191818234
 11
887.19517002535258
 21
1549.5780496716889
  0
LINE
  8
_0-2_
  6
CONTINUOUS
 62
    3
 10
887.19517002535258
 20
1549.5780496716889
 11
851.19515023016697
 21
1549.5780496716889
  0
LINE
  8
_0-2_
  6
CONTINUOUS
 62
    3
 10
835.19519641893385
 20
1549.5780496716889
 11
835.19519641893385
 21
1571.5784191818234
  0
LINE
  8
_0-2_
  6
CONTINUOUS
 62
    3
 10
835.19519641893385
 20
1571.5784191818234
 11
845.19522941091009
 21
1571.5784191818234
  0
LINE
  8
_0-2_
  6
CONTINUOUS
 62
    3
 10
845.19522941091009
 20
1571.5784191818234
 11
845.19522941091009
 21
1549.5780496716889
  0
LINE
  8
_0-2_
  6
CONTINUOUS
 62
    3
 10
845.19522941091009
 20
1549.5780496716889
 11
835.19519641893385
 21
1549.5780496716889
  0
LINE
  8
_0-2_
  6
CONTINUOUS
 62
    3
 10
793.19525580449135
 20
1549.5780496716889
 11
793.19525580449135
 21
1571.5784191818234
  0
LINE
  8
_0-2_
  6
CONTINUOUS
 62
    3
 10
793.19525580449135
 20
1571.5784191818234
 11
829.19502815985402
 21
1571.5784191818234
  0
LINE
  8
_0-2_
  6
CONTINUOUS
 62
    3
 10
829.19502815985402
 20
1571.5784191818234
 11
829.19502815985402
 21
1549.5780496716889
  0
LINE
  8
_0-2_
  6
CONTINUOUS
 62
    3
 10
829.19502815985402
 20
1549.5780496716889
 11
793.19525580449135
 21
1549.5780496716889
  0
LINE
  8
_0-2_
  6
CONTINUOUS
 62
    3
 10
777.19505455343528
 20
1549.5780496716889
 11
777.19505455343528
 21
1571.5784191818234
  0
LINE
  8
_0-2_
  6
CONTINUOUS
 62
    3
 10
777.19505455343528
 20
1571.5784191818234
 11
787.19508754541152
 21
1571.5784191818234
  0
LINE
  8
_0-2_
  6
CONTINUOUS
 62
    3
 10
787.19508754541152
 20
1571.5784191818234
 11
787.19508754541152
 21
1549.5780496716889
  0
LINE
  8
_0-2_
  6
CONTINUOUS
 62
    3
 10
787.19508754541152
 20
1549.5780496716889
 11
777.19505455343528
 21
1549.5780496716889
  0
LINE
  8
_0-2_
  6
CONTINUOUS
 62
    3
 10
661.19501826226201
 20
1571.5784191818234
 11
671.19505125423825
 21
1571.5784191818234
  0
LINE
  8
_0-2_
  6
CONTINUOUS
 62
    3
 10
619.19507764781952
 20
1549.5780496716889
 11
619.19507764781952
 21
1571.5784191818234
  0
LINE
  8
_0-2_
  6
CONTINUOUS
 62
    3
 10
619.19507764781952
 20
1571.5784191818234
 11
655.19509744300512
 21
1571.5784191818234
  0
LINE
  8
_0-2_
  6
CONTINUOUS
 62
    3
 10
655.19509744300512
 20
1571.5784191818234
 11
655.19509744300512
 21
1549.5780496716889
  0
LINE
  8
_0-2_
  6
CONTINUOUS
 62
    3
 10
603.19487639676345
 20
1549.5780496716889
 11
603.19487639676345
 21
1571.5784191818234
  0
LINE
  8
_0-2_
  6
CONTINUOUS
 62
    3
 10
603.19487639676345
 20
1571.5784191818234
 11
613.19490938874037
 21
1571.5784191818234
  0
LINE
  8
_0-2_
  6
CONTINUOUS
 62
    3
 10
613.19490938874037
 20
1571.5784191818234
 11
613.19490938874037
 21
1549.5780496716889
  0
LINE
  8
_0-2_
  6
CONTINUOUS
 62
    3
 10
613.19490938874037
 20
1549.5780496716889
 11
603.19487639676345
 21
1549.5780496716889
  0
LINE
  8
_0-2_
  6
CONTINUOUS
 62
    3
 10
597.19470813768362
 20
1571.5784191818234
 11
597.19470813768362
 21
1549.5780496716889
  0
LINE
  8
_0-2_
  6
CONTINUOUS
 62
    3
 10
931.19541416597849
 20
1541.5783202058944
 11
981.19508424621381
 21
1541.5783202058944
  0
LINE
  8
_0-2_
  6
CONTINUOUS
 62
    3
 10
961.19526570208427
 20
1549.5780496716889
 11
951.19523271010803
 21
1549.5780496716889
  0
LINE
  8
_0-2_
  6
CONTINUOUS
 62
    3
 10
951.19523271010803
 20
1571.5784191818234
 11
961.19526570208427
 21
1571.5784191818234
  0
LINE
  8
_0-2_
  6
CONTINUOUS
 62
    3
 10
661.19501826226201
 20
1549.5780496716889
 11
661.19501826226201
 21
1571.5784191818234
  0
LINE
  8
_0-2_
  6
CONTINUOUS
 62
    3
 10
671.19505125423825
 20
1549.5780496716889
 11
661.19501826226201
 21
1549.5780496716889
  0
LINE
  8
_0-2_
  6
CONTINUOUS
 62
    3
 10
671.19505125423825
 20
1571.5784191818234
 11
671.19505125423825
 21
1549.5780496716889
  0
LINE
  8
_0-2_
  6
CONTINUOUS
 62
    3
 10
619.19507764781952
 20
1549.5780496716889
 11
655.19509744300512
 21
1549.5780496716889
  0
LINE
  8
_0-2_
  6
CONTINUOUS
 62
    3
 10
1039.1952261117124
 20
1541.5783202058944
 11
989.19530859165411
 21
1541.5783202058944
  0
LINE
  8
_0-2_
  6
CONTINUOUS
 62
    3
 10
1097.1953679772109
 20
1541.5783202058944
 11
1047.1952030173297
 21
1541.5783202058944
  0
LINE
  8
_0-2_
  6
CONTINUOUS
 62
    3
 10
1329.1954405595593
 20
1541.5783202058944
 11
1279.1952755996781
 21
1541.5783202058944
  0
LINE
  8
_0-2_
  6
CONTINUOUS
 62
    3
 10
961.19526570208427
 20
1549.5780496716889
 11
961.19526570208427
 21
1571.5784191818234
  0
LINE
  8
_0-2_
  6
CONTINUOUS
 62
    3
 10
1003.1952063165268
 20
1549.5780496716889
 11
1003.1952063165268
 21
1571.5784191818234
  0
LINE
  8
_0-2_
  6
CONTINUOUS
 62
    3
 10
1003.1952063165268
 20
1571.5784191818234
 11
967.1954339611641
 21
1571.5784191818234
  0
LINE
  8
_0-2_
  6
CONTINUOUS
 62
    3
 10
967.1954339611641
 20
1571.5784191818234
 11
967.1954339611641
 21
1549.5780496716889
  0
LINE
  8
_0-2_
  6
CONTINUOUS
 62
    3
 10
967.1954339611641
 20
1549.5780496716889
 11
1003.1952063165268
 21
1549.5780496716889
  0
LINE
  8
_0-2_
  6
CONTINUOUS
 62
    3
 10
1019.1954075675828
 20
1549.5780496716889
 11
1019.1954075675828
 21
1571.5784191818234
  0
LINE
  8
_0-2_
  6
CONTINUOUS
 62
    3
 10
1019.1954075675828
 20
1571.5784191818234
 11
1009.1953745756066
 21
1571.5784191818234
  0
LINE
  8
_0-2_
  6
CONTINUOUS
 62
    3
 10
1009.1953745756066
 20
1571.5784191818234
 11
1009.1953745756066
 21
1549.5780496716889
  0
LINE
  8
_0-2_
  6
CONTINUOUS
 62
    3
 10
1009.1953745756066
 20
1549.5780496716889
 11
1019.1954075675828
 21
1549.5780496716889
  0
LINE
  8
_0-2_
  6
CONTINUOUS
 62
    3
 10
1061.1953481820253
 20
1549.5780496716889
 11
1061.1953481820253
 21
1571.5784191818234
  0
LINE
  8
_0-2_
  6
CONTINUOUS
 62
    3
 10
1061.1953481820253
 20
1571.5784191818234
 11
1025.1953283868397
 21
1571.5784191818234
  0
LINE
  8
_0-2_
  6
CONTINUOUS
 62
    3
 10
1025.1953283868397
 20
1571.5784191818234
 11
1025.1953283868397
 21
1549.5780496716889
  0
LINE
  8
_0-2_
  6
CONTINUOUS
 62
    3
 10
1025.1953283868397
 20
1549.5780496716889
 11
1061.1953481820253
 21
1549.5780496716889
  0
LINE
  8
_0-2_
  6
CONTINUOUS
 62
    3
 10
1077.1953019932585
 20
1549.5780496716889
 11
1077.1953019932585
 21
1571.5784191818234
  0
LINE
  8
_0-2_
  6
CONTINUOUS
 62
    3
 10
1077.1953019932585
 20
1571.5784191818234
 11
1067.1952690012822
 21
1571.5784191818234
  0
LINE
  8
_0-2_
  6
CONTINUOUS
 62
    3
 10
1067.1952690012822
 20
1571.5784191818234
 11
1067.1952690012822
 21
1549.5780496716889
  0
LINE
  8
_0-2_
  6
CONTINUOUS
 62
    3
 10
1067.1952690012822
 20
1549.5780496716889
 11
1077.1953019932585
 21
1549.5780496716889
  0
LINE
  8
_0-2_
  6
CONTINUOUS
 62
    3
 10
1119.1952426077009
 20
1549.5780496716889
 11
1119.1952426077009
 21
1571.5784191818234
  0
LINE
  8
_0-2_
  6
CONTINUOUS
 62
    3
 10
1119.1952426077009
 20
1571.5784191818234
 11
1083.1954702523383
 21
1571.5784191818234
  0
LINE
  8
_0-2_
  6
CONTINUOUS
 62
    3
 10
1083.1954702523383
 20
1571.5784191818234
 11
1083.1954702523383
 21
1549.5780496716889
  0
LINE
  8
_0-2_
  6
CONTINUOUS
 62
    3
 10
1083.1954702523383
 20
1549.5780496716889
 11
1119.1952426077009
 21
1549.5780496716889
  0
LINE
  8
_0-2_
  6
CONTINUOUS
 62
    3
 10
1293.1954207643737
 20
1549.5780496716889
 11
1293.1954207643737
 21
1571.5784191818234
  0
LINE
  8
_0-2_
  6
CONTINUOUS
 62
    3
 10
1293.1954207643737
 20
1571.5784191818234
 11
1257.1954009691881
 21
1571.5784191818234
  0
LINE
  8
_0-2_
  6
CONTINUOUS
 62
    3
 10
1257.1954009691881
 20
1571.5784191818234
 11
1257.1954009691881
 21
1549.5780496716889
  0
LINE
  8
_0-2_
  6
CONTINUOUS
 62
    3
 10
1309.1956220154298
 20
1549.5780496716889
 11
1309.1956220154298
 21
1571.5784191818234
  0
LINE
  8
_0-2_
  6
CONTINUOUS
 62
    3
 10
1309.1956220154298
 20
1571.5784191818234
 11
1299.1955890234519
 21
1571.5784191818234
  0
LINE
  8
_0-2_
  6
CONTINUOUS
 62
    3
 10
1299.1955890234519
 20
1571.5784191818234
 11
1299.1955890234519
 21
1549.5780496716889
  0
LINE
  8
_0-2_
  6
CONTINUOUS
 62
    3
 10
1299.1955890234519
 20
1549.5780496716889
 11
1309.1956220154298
 21
1549.5780496716889
  0
LINE
  8
_0-2_
  6
CONTINUOUS
 62
    3
 10
1315.195790274508
 20
1571.5784191818234
 11
1315.195790274508
 21
1549.5780496716889
  0
LINE
  8
_0-2_
  6
CONTINUOUS
 62
    3
 10
1293.1954207643737
 20
1549.5780496716889
 11
1257.1954009691881
 21
1549.5780496716889
  0
LINE
  8
_0-2_
  6
CONTINUOUS
 62
    3
 10
735.1951139389937
 20
1549.5780496716889
 11
735.1951139389937
 21
1571.5784191818234
  0
LINE
  8
_0-2_
  6
CONTINUOUS
 62
    3
 10
735.1951139389937
 20
1571.5784191818234
 11
771.1951337341784
 21
1571.5784191818234
  0
LINE
  8
_0-2_
  6
CONTINUOUS
 62
    3
 10
771.1951337341784
 20
1571.5784191818234
 11
771.1951337341784
 21
1549.5780496716889
  0
LINE
  8
_0-2_
  6
CONTINUOUS
 62
    3
 10
771.1951337341784
 20
1549.5780496716889
 11
735.1951139389937
 21
1549.5780496716889
  0
LINE
  8
_0-2_
  6
CONTINUOUS
 62
    3
 10
719.19516012775966
 20
1549.5780496716889
 11
719.19516012775966
 21
1571.5784191818234
  0
LINE
  8
_0-2_
  6
CONTINUOUS
 62
    3
 10
719.19516012775966
 20
1571.5784191818234
 11
729.19519311973681
 21
1571.5784191818234
  0
LINE
  8
_0-2_
  6
CONTINUOUS
 62
    3
 10
729.19519311973681
 20
1571.5784191818234
 11
729.19519311973681
 21
1549.5780496716889
  0
LINE
  8
_0-2_
  6
CONTINUOUS
 62
    3
 10
729.19519311973681
 20
1549.5780496716889
 11
719.19516012775966
 21
1549.5780496716889
  0
LINE
  8
_0-2_
  6
CONTINUOUS
 62
    3
 10
677.19521951331808
 20
1549.5780496716889
 11
677.19521951331808
 21
1571.5784191818234
  0
LINE
  8
_0-2_
  6
CONTINUOUS
 62
    3
 10
677.19521951331808
 20
1571.5784191818234
 11
713.19499186868075
 21
1571.5784191818234
  0
LINE
  8
_0-2_
  6
CONTINUOUS
 62
    3
 10
713.19499186868075
 20
1571.5784191818234
 11
713.19499186868075
 21
1549.5780496716889
  0
LINE
  8
_0-2_
  6
CONTINUOUS
 62
    3
 10
713.19499186868075
 20
1549.5780496716889
 11
677.19521951331808
 21
1549.5780496716889
  0
LINE
  8
_0-2_
  6
CONTINUOUS
 62
    3
 10
1279.1952755996781
 20
1541.5783202058944
 11
1279.1952755996781
 21
1519.5783218554934
  0
LINE
  8
_0-2_
  6
CONTINUOUS
 62
    3
 10
1329.1954405595593
 20
1519.5783218554934
 11
1329.1954405595593
 21
1541.5783202058944
  0
LINE
  8
_0-2_
  6
CONTINUOUS
 62
    3
 10
1097.1953679772109
 20
1519.5783218554934
 11
1097.1953679772109
 21
1541.5783202058944
  0
LINE
  8
_0-2_
  6
CONTINUOUS
 62
    3
 10
989.19530859165411
 20
1541.5783202058944
 11
989.19530859165411
 21
1519.5783218554934
  0
LINE
  8
_0-2_
  6
CONTINUOUS
 62
    3
 10
1039.1952261117124
 20
1519.5783218554934
 11
1039.1952261117124
 21
1541.5783202058944
  0
LINE
  8
_0-2_
  6
CONTINUOUS
 62
    3
 10
981.19508424621381
 20
1519.5783218554934
 11
981.19508424621381
 21
1541.5783202058944
  0
LINE
  8
_0-2_
  6
CONTINUOUS
 62
    3
 10
633.19522281251511
 20
1541.5783202058944
 11
633.19522281251511
 21
1519.5783218554934
  0
LINE
  8
_0-2_
  6
CONTINUOUS
 62
    3
 10
583.195057852633
 20
1519.5783218554934
 11
583.195057852633
 21
1541.5783202058944
  0
LINE
  8
_0-2_
  6
CONTINUOUS
 62
    3
 10
815.19513043498137
 20
1519.5783218554934
 11
815.19513043498137
 21
1541.5783202058944
  0
LINE
  8
_0-2_
  6
CONTINUOUS
 62
    3
 10
923.19518982053978
 20
1541.5783202058944
 11
923.19518982053978
 21
1519.5783218554934
  0
LINE
  8
_0-2_
  6
CONTINUOUS
 62
    3
 10
873.19527230047993
 20
1519.5783218554934
 11
873.19527230047993
 21
1541.5783202058944
  0
LINE
  8
_0-2_
  6
CONTINUOUS
 62
    3
 10
931.19541416597849
 20
1519.5783218554934
 11
931.19541416597849
 21
1541.5783202058944
  0
LINE
  8
_0-2_
  6
CONTINUOUS
 62
    3
 10
699.19509414380718
 20
1541.5783202058944
 11
749.19501166386704
 21
1541.5783202058944
  0
LINE
  8
_0-2_
  6
CONTINUOUS
 62
    3
 10
641.19495227830862
 20
1541.5783202058944
 11
691.19511723819141
 21
1541.5783202058944
  0
LINE
  8
_0-2_
  6
CONTINUOUS
 62
    3
 10
757.19523600930575
 20
1541.5783202058944
 11
807.19490608954266
 21
1541.5783202058944
  0
LINE
  8
_0-2_
  6
CONTINUOUS
 62
    3
 10
807.19490608954266
 20
1519.5783218554934
 11
807.19490608954266
 21
1541.5783202058944
  0
LINE
  8
_0-2_
  6
CONTINUOUS
 62
    3
 10
691.19511723819141
 20
1541.5783202058944
 11
691.19511723819141
 21
1519.5783218554934
  0
LINE
  8
_0-2_
  6
CONTINUOUS
 62
    3
 10
641.19495227830862
 20
1519.5783218554934
 11
641.19495227830862
 21
1541.5783202058944
  0
LINE
  8
_0-2_
  6
CONTINUOUS
 62
    3
 10
749.19501166386704
 20
1541.5783202058944
 11
749.19501166386704
 21
1519.5783218554934
  0
LINE
  8
_0-2_
  6
CONTINUOUS
 62
    3
 10
699.19509414380718
 20
1519.5783218554934
 11
699.19509414380718
 21
1541.5783202058944
  0
LINE
  8
_0-2_
  6
CONTINUOUS
 62
    3
 10
757.19523600930575
 20
1519.5783218554934
 11
757.19523600930575
 21
1541.5783202058944
  0
LINE
  8
_0-2_
  6
CONTINUOUS
 62
    3
 10
583.195057852633
 20
1519.5783218554934
 11
633.19522281251511
 21
1519.5783218554934
  0
LINE
  8
_0-2_
  6
CONTINUOUS
 62
    3
 10
641.19495227830862
 20
1519.5783218554934
 11
691.19511723819141
 21
1519.5783218554934
  0
LINE
  8
_0-2_
  6
CONTINUOUS
 62
    3
 10
699.19497042389662
 20
1519.5783218554934
 11
749.19513538377851
 21
1519.5783218554934
  0
LINE
  8
_0-2_
  6
CONTINUOUS
 62
    3
 10
757.19498856948371
 20
1519.5783218554934
 11
807.1951535293656
 21
1519.5783218554934
  0
LINE
  8
_0-2_
  6
CONTINUOUS
 62
    3
 10
815.19488299515842
 20
1519.5783218554934
 11
865.19504795504122
 21
1519.5783218554934
  0
LINE
  8
_0-2_
  6
CONTINUOUS
 62
    3
 10
873.19490114074551
 20
1519.5783218554934
 11
923.19506610062831
 21
1519.5783218554934
  0
LINE
  8
_0-2_
  6
CONTINUOUS
 62
    3
 10
931.19491928633261
 20
1519.5783218554934
 11
981.19508424621381
 21
1519.5783218554934
  0
LINE
  8
_0-2_
  6
CONTINUOUS
 62
    3
 10
989.1949374319197
 20
1519.5783218554934
 11
1039.1951023918009
 21
1519.5783218554934
  0
LINE
  8
_0-2_
  6
CONTINUOUS
 62
    3
 10
1047.1949555775068
 20
1519.5783218554934
 11
1097.195120537388
 21
1519.5783218554934
  0
LINE
  8
_0-2_
  6
CONTINUOUS
 62
    3
 10
1279.1950281598552
 20
1519.5783218554934
 11
1329.1951931197364
 21
1519.5783218554934
  0
LINE
  8
_0-2_
  6
CONTINUOUS
 62
    3
 10
1135.195443858757
 20
1549.5780496716889
 11
1135.195443858757
 21
1571.5784191818234
  0
LINE
  8
_0-2_
  6
CONTINUOUS
 62
    3
 10
1135.195443858757
 20
1571.5784191818234
 11
1125.1954108667808
 21
1571.5784191818234
  0
LINE
  8
_0-2_
  6
CONTINUOUS
 62
    3
 10
1125.1954108667808
 20
1571.5784191818234
 11
1125.1954108667808
 21
1549.5780496716889
  0
LINE
  8
_0-2_
  6
CONTINUOUS
 62
    3
 10
1125.1954108667808
 20
1549.5780496716889
 11
1135.195443858757
 21
1549.5780496716889
  0
LINE
  8
_0-2_
  6
CONTINUOUS
 62
    3
 10
1177.1953844731995
 20
1549.5780496716889
 11
1177.1953844731995
 21
1571.5784191818234
  0
LINE
  8
_0-2_
  6
CONTINUOUS
 62
    3
 10
1177.1953844731995
 20
1571.5784191818234
 11
1141.1956121178353
 21
1571.5784191818234
  0
LINE
  8
_0-2_
  6
CONTINUOUS
 62
    3
 10
1141.1956121178353
 20
1571.5784191818234
 11
1141.1956121178353
 21
1549.5780496716889
  0
LINE
  8
_0-2_
  6
CONTINUOUS
 62
    3
 10
1141.1956121178353
 20
1549.5780496716889
 11
1177.1953844731995
 21
1549.5780496716889
  0
LINE
  8
_0-2_
  6
CONTINUOUS
 62
    3
 10
1193.1955857242556
 20
1549.5780496716889
 11
1193.1955857242556
 21
1571.5784191818234
  0
LINE
  8
_0-2_
  6
CONTINUOUS
 62
    3
 10
1193.1955857242556
 20
1571.5784191818234
 11
1183.1955527322793
 21
1571.5784191818234
  0
LINE
  8
_0-2_
  6
CONTINUOUS
 62
    3
 10
1183.1955527322793
 20
1571.5784191818234
 11
1183.1955527322793
 21
1549.5780496716889
  0
LINE
  8
_0-2_
  6
CONTINUOUS
 62
    3
 10
1183.1955527322793
 20
1549.5780496716889
 11
1193.1955857242556
 21
1549.5780496716889
  0
LINE
  8
_0-2_
  6
CONTINUOUS
 62
    3
 10
1235.1955263386981
 20
1549.5780496716889
 11
1235.1955263386981
 21
1571.5784191818234
  0
LINE
  8
_0-2_
  6
CONTINUOUS
 62
    3
 10
1235.1955263386981
 20
1571.5784191818234
 11
1199.1957539833338
 21
1571.5784191818234
  0
LINE
  8
_0-2_
  6
CONTINUOUS
 62
    3
 10
1199.1957539833338
 20
1571.5784191818234
 11
1199.1957539833338
 21
1549.5780496716889
  0
LINE
  8
_0-2_
  6
CONTINUOUS
 62
    3
 10
1199.1957539833338
 20
1549.5780496716889
 11
1235.1955263386981
 21
1549.5780496716889
  0
LINE
  8
_0-2_
  6
CONTINUOUS
 62
    3
 10
1251.1957275897541
 20
1549.5780496716889
 11
1251.1957275897541
 21
1571.5784191818234
  0
LINE
  8
_0-2_
  6
CONTINUOUS
 62
    3
 10
1251.1957275897541
 20
1571.5784191818234
 11
1241.1956945977763
 21
1571.5784191818234
  0
LINE
  8
_0-2_
  6
CONTINUOUS
 62
    3
 10
1241.1956945977763
 20
1571.5784191818234
 11
1241.1956945977763
 21
1549.5780496716889
  0
LINE
  8
_0-2_
  6
CONTINUOUS
 62
    3
 10
1241.1956945977763
 20
1549.5780496716889
 11
1251.1957275897541
 21
1549.5780496716889
  0
LINE
  8
_0-2_
  6
CONTINUOUS
 62
    3
 10
1105.1955923226512
 20
1541.5783202058944
 11
1155.1952624028866
 21
1541.5783202058944
  0
LINE
  8
_0-2_
  6
CONTINUOUS
 62
    3
 10
1213.1954042683851
 20
1541.5783202058944
 11
1163.1954867483269
 21
1541.5783202058944
  0
LINE
  8
_0-2_
  6
CONTINUOUS
 62
    3
 10
1271.1955461338837
 20
1541.5783202058944
 11
1221.1953811740009
 21
1541.5783202058944
  0
LINE
  8
_0-2_
  6
CONTINUOUS
 62
    3
 10
1221.1953811740009
 20
1541.5783202058944
 11
1221.1953811740009
 21
1519.5783218554934
  0
LINE
  8
_0-2_
  6
CONTINUOUS
 62
    3
 10
1271.1955461338837
 20
1519.5783218554934
 11
1271.1955461338837
 21
1541.5783202058944
  0
LINE
  8
_0-2_
  6
CONTINUOUS
 62
    3
 10
1163.1954867483269
 20
1541.5783202058944
 11
1163.1954867483269
 21
1519.5783218554934
  0
LINE
  8
_0-2_
  6
CONTINUOUS
 62
    3
 10
1213.1954042683851
 20
1519.5783218554934
 11
1213.1954042683851
 21
1541.5783202058944
  0
LINE
  8
_0-2_
  6
CONTINUOUS
 62
    3
 10
1155.1952624028866
 20
1519.5783218554934
 11
1155.1952624028866
 21
1541.5783202058944
  0
LINE
  8
_0-2_
  6
CONTINUOUS
 62
    3
 10
1105.1955923226512
 20
1519.5783218554934
 11
1105.1955923226512
 21
1541.5783202058944
  0
LINE
  8
_0-2_
  6
CONTINUOUS
 62
    3
 10
1105.1950974430054
 20
1519.5783218554934
 11
1155.1952624028866
 21
1519.5783218554934
  0
LINE
  8
_0-2_
  6
CONTINUOUS
 62
    3
 10
1163.1951155885924
 20
1519.5783218554934
 11
1213.1952805484736
 21
1519.5783218554934
  0
LINE
  8
_0-2_
  6
CONTINUOUS
 62
    3
 10
1221.1951337341795
 20
1519.5783218554934
 11
1271.1952986940607
 21
1519.5783218554934
  0
LINE
  8
_0-2_
  6
CONTINUOUS
 62
    3
 10
873.19527230047993
 20
1601.5782707179305
 11
923.19518982053978
 21
1601.5782707179305
  0
LINE
  8
_0-2_
  6
CONTINUOUS
 62
    3
 10
815.19513043498137
 20
1601.5782707179305
 11
865.19529539486257
 21
1601.5782707179305
  0
LINE
  8
_0-2_
  6
CONTINUOUS
 62
    3
 10
951.19523271010803
 20
1609.5780001837238
 11
951.19523271010803
 21
1631.5783696938593
  0
LINE
  8
_0-2_
  6
CONTINUOUS
 62
    3
 10
909.19529209566554
 20
1609.5780001837238
 11
909.19529209566554
 21
1631.5783696938593
  0
LINE
  8
_0-2_
  6
CONTINUOUS
 62
    3
 10
909.19529209566554
 20
1631.5783696938593
 11
945.1950644510282
 21
1631.5783696938593
  0
LINE
  8
_0-2_
  6
CONTINUOUS
 62
    3
 10
945.1950644510282
 20
1631.5783696938593
 11
945.1950644510282
 21
1609.5780001837238
  0
LINE
  8
_0-2_
  6
CONTINUOUS
 62
    3
 10
945.1950644510282
 20
1609.5780001837238
 11
909.19529209566554
 21
1609.5780001837238
  0
LINE
  8
_0-2_
  6
CONTINUOUS
 62
    3
 10
893.19509084460947
 20
1609.5780001837238
 11
893.19509084460947
 21
1631.5783696938593
  0
LINE
  8
_0-2_
  6
CONTINUOUS
 62
    3
 10
893.19509084460947
 20
1631.5783696938593
 11
903.19512383658571
 21
1631.5783696938593
  0
LINE
  8
_0-2_
  6
CONTINUOUS
 62
    3
 10
903.19512383658571
 20
1631.5783696938593
 11
903.19512383658571
 21
1609.5780001837238
  0
LINE
  8
_0-2_
  6
CONTINUOUS
 62
    3
 10
903.19512383658571
 20
1609.5780001837238
 11
893.19509084460947
 21
1609.5780001837238
  0
LINE
  8
_0-2_
  6
CONTINUOUS
 62
    3
 10
851.19515023016697
 20
1609.5780001837238
 11
851.19515023016697
 21
1631.5783696938593
  0
LINE
  8
_0-2_
  6
CONTINUOUS
 62
    3
 10
851.19515023016697
 20
1631.5783696938593
 11
887.19517002535258
 21
1631.5783696938593
  0
LINE
  8
_0-2_
  6
CONTINUOUS
 62
    3
 10
887.19517002535258
 20
1631.5783696938593
 11
887.19517002535258
 21
1609.5780001837238
  0
LINE
  8
_0-2_
  6
CONTINUOUS
 62
    3
 10
887.19517002535258
 20
1609.5780001837238
 11
851.19515023016697
 21
1609.5780001837238
  0
LINE
  8
_0-2_
  6
CONTINUOUS
 62
    3
 10
835.19519641893385
 20
1609.5780001837238
 11
835.19519641893385
 21
1631.5783696938593
  0
LINE
  8
_0-2_
  6
CONTINUOUS
 62
    3
 10
835.19519641893385
 20
1631.5783696938593
 11
845.19522941091009
 21
1631.5783696938593
  0
LINE
  8
_0-2_
  6
CONTINUOUS
 62
    3
 10
845.19522941091009
 20
1631.5783696938593
 11
845.19522941091009
 21
1609.5780001837238
  0
LINE
  8
_0-2_
  6
CONTINUOUS
 62
    3
 10
845.19522941091009
 20
1609.5780001837238
 11
835.19519641893385
 21
1609.5780001837238
  0
LINE
  8
_0-2_
  6
CONTINUOUS
 62
    3
 10
793.19525580449135
 20
1609.5780001837238
 11
793.19525580449135
 21
1631.5783696938593
  0
LINE
  8
_0-2_
  6
CONTINUOUS
 62
    3
 10
793.19525580449135
 20
1631.5783696938593
 11
829.19502815985402
 21
1631.5783696938593
  0
LINE
  8
_0-2_
  6
CONTINUOUS
 62
    3
 10
829.19502815985402
 20
1631.5783696938593
 11
829.19502815985402
 21
1609.5780001837238
  0
LINE
  8
_0-2_
  6
CONTINUOUS
 62
    3
 10
829.19502815985402
 20
1609.5780001837238
 11
793.19525580449135
 21
1609.5780001837238
  0
LINE
  8
_0-2_
  6
CONTINUOUS
 62
    3
 10
777.19505455343528
 20
1609.5780001837238
 11
777.19505455343528
 21
1631.5783696938593
  0
LINE
  8
_0-2_
  6
CONTINUOUS
 62
    3
 10
777.19505455343528
 20
1631.5783696938593
 11
787.19508754541152
 21
1631.5783696938593
  0
LINE
  8
_0-2_
  6
CONTINUOUS
 62
    3
 10
787.19508754541152
 20
1631.5783696938593
 11
787.19508754541152
 21
1609.5780001837238
  0
LINE
  8
_0-2_
  6
CONTINUOUS
 62
    3
 10
787.19508754541152
 20
1609.5780001837238
 11
777.19505455343528
 21
1609.5780001837238
  0
LINE
  8
_0-2_
  6
CONTINUOUS
 62
    3
 10
661.19501826226201
 20
1631.5783696938593
 11
671.19505125423825
 21
1631.5783696938593
  0
LINE
  8
_0-2_
  6
CONTINUOUS
 62
    3
 10
619.19507764781952
 20
1609.5780001837238
 11
619.19507764781952
 21
1631.5783696938593
  0
LINE
  8
_0-2_
  6
CONTINUOUS
 62
    3
 10
619.19507764781952
 20
1631.5783696938593
 11
655.19509744300512
 21
1631.5783696938593
  0
LINE
  8
_0-2_
  6
CONTINUOUS
 62
    3
 10
655.19509744300512
 20
1631.5783696938593
 11
655.19509744300512
 21
1609.5780001837238
  0
LINE
  8
_0-2_
  6
CONTINUOUS
 62
    3
 10
613.19490938874037
 20
1631.5783696938593
 11
613.19490938874037
 21
1609.5780001837238
  0
LINE
  8
_0-2_
  6
CONTINUOUS
 62
    3
 10
613.19490938874037
 20
1609.5780001837238
 11
603.19487639676345
 21
1609.5780001837238
  0
LINE
  8
_0-2_
  6
CONTINUOUS
 62
    3
 10
931.19541416597849
 20
1601.5782707179305
 11
981.19508424621381
 21
1601.5782707179305
  0
LINE
  8
_0-2_
  6
CONTINUOUS
 62
    3
 10
961.19526570208427
 20
1609.5780001837238
 11
951.19523271010803
 21
1609.5780001837238
  0
LINE
  8
_0-2_
  6
CONTINUOUS
 62
    3
 10
951.19523271010803
 20
1631.5783696938593
 11
961.19526570208427
 21
1631.5783696938593
  0
LINE
  8
_0-2_
  6
CONTINUOUS
 62
    3
 10
661.19501826226201
 20
1609.5780001837238
 11
661.19501826226201
 21
1631.5783696938593
  0
LINE
  8
_0-2_
  6
CONTINUOUS
 62
    3
 10
671.19505125423825
 20
1609.5780001837238
 11
661.19501826226201
 21
1609.5780001837238
  0
LINE
  8
_0-2_
  6
CONTINUOUS
 62
    3
 10
671.19505125423825
 20
1631.5783696938593
 11
671.19505125423825
 21
1609.5780001837238
  0
LINE
  8
_0-2_
  6
CONTINUOUS
 62
    3
 10
619.19507764781952
 20
1609.5780001837238
 11
655.19509744300512
 21
1609.5780001837238
  0
LINE
  8
_0-2_
  6
CONTINUOUS
 62
    3
 10
1039.1952261117124
 20
1601.5782707179305
 11
989.19530859165411
 21
1601.5782707179305
  0
LINE
  8
_0-2_
  6
CONTINUOUS
 62
    3
 10
1097.1953679772109
 20
1601.5782707179305
 11
1047.1952030173297
 21
1601.5782707179305
  0
LINE
  8
_0-2_
  6
CONTINUOUS
 62
    3
 10
961.19526570208427
 20
1609.5780001837238
 11
961.19526570208427
 21
1631.5783696938593
  0
LINE
  8
_0-2_
  6
CONTINUOUS
 62
    3
 10
1003.1952063165268
 20
1609.5780001837238
 11
1003.1952063165268
 21
1631.5783696938593
  0
LINE
  8
_0-2_
  6
CONTINUOUS
 62
    3
 10
1003.1952063165268
 20
1631.5783696938593
 11
967.1954339611641
 21
1631.5783696938593
  0
LINE
  8
_0-2_
  6
CONTINUOUS
 62
    3
 10
967.1954339611641
 20
1631.5783696938593
 11
967.1954339611641
 21
1609.5780001837238
  0
LINE
  8
_0-2_
  6
CONTINUOUS
 62
    3
 10
967.1954339611641
 20
1609.5780001837238
 11
1003.1952063165268
 21
1609.5780001837238
  0
LINE
  8
_0-2_
  6
CONTINUOUS
 62
    3
 10
1019.1954075675828
 20
1609.5780001837238
 11
1019.1954075675828
 21
1631.5783696938593
  0
LINE
  8
_0-2_
  6
CONTINUOUS
 62
    3
 10
1019.1954075675828
 20
1631.5783696938593
 11
1009.1953745756066
 21
1631.5783696938593
  0
LINE
  8
_0-2_
  6
CONTINUOUS
 62
    3
 10
1009.1953745756066
 20
1631.5783696938593
 11
1009.1953745756066
 21
1609.5780001837238
  0
LINE
  8
_0-2_
  6
CONTINUOUS
 62
    3
 10
1009.1953745756066
 20
1609.5780001837238
 11
1019.1954075675828
 21
1609.5780001837238
  0
LINE
  8
_0-2_
  6
CONTINUOUS
 62
    3
 10
1061.1953481820253
 20
1609.5780001837238
 11
1061.1953481820253
 21
1631.5783696938593
  0
LINE
  8
_0-2_
  6
CONTINUOUS
 62
    3
 10
1061.1953481820253
 20
1631.5783696938593
 11
1025.1953283868397
 21
1631.5783696938593
  0
LINE
  8
_0-2_
  6
CONTINUOUS
 62
    3
 10
1025.1953283868397
 20
1631.5783696938593
 11
1025.1953283868397
 21
1609.5780001837238
  0
LINE
  8
_0-2_
  6
CONTINUOUS
 62
    3
 10
1025.1953283868397
 20
1609.5780001837238
 11
1061.1953481820253
 21
1609.5780001837238
  0
LINE
  8
_0-2_
  6
CONTINUOUS
 62
    3
 10
1077.1953019932585
 20
1609.5780001837238
 11
1077.1953019932585
 21
1631.5783696938593
  0
LINE
  8
_0-2_
  6
CONTINUOUS
 62
    3
 10
1077.1953019932585
 20
1631.5783696938593
 11
1067.1952690012822
 21
1631.5783696938593
  0
LINE
  8
_0-2_
  6
CONTINUOUS
 62
    3
 10
1067.1952690012822
 20
1631.5783696938593
 11
1067.1952690012822
 21
1609.5780001837238
  0
LINE
  8
_0-2_
  6
CONTINUOUS
 62
    3
 10
1067.1952690012822
 20
1609.5780001837238
 11
1077.1953019932585
 21
1609.5780001837238
  0
LINE
  8
_0-2_
  6
CONTINUOUS
 62
    3
 10
1119.1952426077009
 20
1609.5780001837238
 11
1119.1952426077009
 21
1631.5783696938593
  0
LINE
  8
_0-2_
  6
CONTINUOUS
 62
    3
 10
1119.1952426077009
 20
1631.5783696938593
 11
1083.1954702523383
 21
1631.5783696938593
  0
LINE
  8
_0-2_
  6
CONTINUOUS
 62
    3
 10
1083.1954702523383
 20
1631.5783696938593
 11
1083.1954702523383
 21
1609.5780001837238
  0
LINE
  8
_0-2_
  6
CONTINUOUS
 62
    3
 10
1083.1954702523383
 20
1609.5780001837238
 11
1119.1952426077009
 21
1609.5780001837238
  0
LINE
  8
_0-2_
  6
CONTINUOUS
 62
    3
 10
1293.1954207643737
 20
1609.5780001837238
 11
1293.1954207643737
 21
1631.5783696938593
  0
LINE
  8
_0-2_
  6
CONTINUOUS
 62
    3
 10
1293.1954207643737
 20
1631.5783696938593
 11
1257.1954009691881
 21
1631.5783696938593
  0
LINE
  8
_0-2_
  6
CONTINUOUS
 62
    3
 10
1257.1954009691881
 20
1631.5783696938593
 11
1257.1954009691881
 21
1609.5780001837238
  0
LINE
  8
_0-2_
  6
CONTINUOUS
 62
    3
 10
1299.1955890234519
 20
1631.5783696938593
 11
1299.1955890234519
 21
1609.5780001837238
  0
LINE
  8
_0-2_
  6
CONTINUOUS
 62
    3
 10
1299.1955890234519
 20
1609.5780001837238
 11
1309.1956220154298
 21
1609.5780001837238
  0
LINE
  8
_0-2_
  6
CONTINUOUS
 62
    3
 10
1293.1954207643737
 20
1609.5780001837238
 11
1257.1954009691881
 21
1609.5780001837238
  0
LINE
  8
_0-2_
  6
CONTINUOUS
 62
    3
 10
735.1951139389937
 20
1609.5780001837238
 11
735.1951139389937
 21
1631.5783696938593
  0
LINE
  8
_0-2_
  6
CONTINUOUS
 62
    3
 10
735.1951139389937
 20
1631.5783696938593
 11
771.1951337341784
 21
1631.5783696938593
  0
LINE
  8
_0-2_
  6
CONTINUOUS
 62
    3
 10
771.1951337341784
 20
1631.5783696938593
 11
771.1951337341784
 21
1609.5780001837238
  0
LINE
  8
_0-2_
  6
CONTINUOUS
 62
    3
 10
771.1951337341784
 20
1609.5780001837238
 11
735.1951139389937
 21
1609.5780001837238
  0
LINE
  8
_0-2_
  6
CONTINUOUS
 62
    3
 10
719.19516012775966
 20
1609.5780001837238
 11
719.19516012775966
 21
1631.5783696938593
  0
LINE
  8
_0-2_
  6
CONTINUOUS
 62
    3
 10
719.19516012775966
 20
1631.5783696938593
 11
729.19519311973681
 21
1631.5783696938593
  0
LINE
  8
_0-2_
  6
CONTINUOUS
 62
    3
 10
729.19519311973681
 20
1631.5783696938593
 11
729.19519311973681
 21
1609.5780001837238
  0
LINE
  8
_0-2_
  6
CONTINUOUS
 62
    3
 10
729.19519311973681
 20
1609.5780001837238
 11
719.19516012775966
 21
1609.5780001837238
  0
LINE
  8
_0-2_
  6
CONTINUOUS
 62
    3
 10
677.19521951331808
 20
1609.5780001837238
 11
677.19521951331808
 21
1631.5783696938593
  0
LINE
  8
_0-2_
  6
CONTINUOUS
 62
    3
 10
677.19521951331808
 20
1631.5783696938593
 11
713.19499186868075
 21
1631.5783696938593
  0
LINE
  8
_0-2_
  6
CONTINUOUS
 62
    3
 10
713.19499186868075
 20
1631.5783696938593
 11
713.19499186868075
 21
1609.5780001837238
  0
LINE
  8
_0-2_
  6
CONTINUOUS
 62
    3
 10
713.19499186868075
 20
1609.5780001837238
 11
677.19521951331808
 21
1609.5780001837238
  0
LINE
  8
_0-2_
  6
CONTINUOUS
 62
    3
 10
1279.1952755996781
 20
1601.5782707179305
 11
1279.1952755996781
 21
1579.5782723675291
  0
LINE
  8
_0-2_
  6
CONTINUOUS
 62
    3
 10
1047.1952030173297
 20
1601.5782707179305
 11
1047.1952030173297
 21
1579.5782723675291
  0
LINE
  8
_0-2_
  6
CONTINUOUS
 62
    3
 10
1097.1953679772109
 20
1579.5782723675291
 11
1097.1953679772109
 21
1601.5782707179305
  0
LINE
  8
_0-2_
  6
CONTINUOUS
 62
    3
 10
989.19530859165411
 20
1601.5782707179305
 11
989.19530859165411
 21
1579.5782723675291
  0
LINE
  8
_0-2_
  6
CONTINUOUS
 62
    3
 10
1039.1952261117124
 20
1579.5782723675291
 11
1039.1952261117124
 21
1601.5782707179305
  0
LINE
  8
_0-2_
  6
CONTINUOUS
 62
    3
 10
981.19508424621381
 20
1579.5782723675291
 11
981.19508424621381
 21
1601.5782707179305
  0
LINE
  8
_0-2_
  6
CONTINUOUS
 62
    3
 10
633.19522281251511
 20
1601.5782707179305
 11
633.19522281251511
 21
1579.5782723675291
  0
LINE
  8
_0-2_
  6
CONTINUOUS
 62
    3
 10
865.19529539486257
 20
1601.5782707179305
 11
865.19529539486257
 21
1579.5782723675291
  0
LINE
  8
_0-2_
  6
CONTINUOUS
 62
    3
 10
815.19513043498137
 20
1579.5782723675291
 11
815.19513043498137
 21
1601.5782707179305
  0
LINE
  8
_0-2_
  6
CONTINUOUS
 62
    3
 10
923.19518982053978
 20
1601.5782707179305
 11
923.19518982053978
 21
1579.5782723675291
  0
LINE
  8
_0-2_
  6
CONTINUOUS
 62
    3
 10
873.19527230047993
 20
1579.5782723675291
 11
873.19527230047993
 21
1601.5782707179305
  0
LINE
  8
_0-2_
  6
CONTINUOUS
 62
    3
 10
931.19541416597849
 20
1579.5782723675291
 11
931.19541416597849
 21
1601.5782707179305
  0
LINE
  8
_0-2_
  6
CONTINUOUS
 62
    3
 10
699.19509414380718
 20
1601.5782707179305
 11
749.19501166386704
 21
1601.5782707179305
  0
LINE
  8
_0-2_
  6
CONTINUOUS
 62
    3
 10
641.19495227830862
 20
1601.5782707179305
 11
691.19511723819141
 21
1601.5782707179305
  0
LINE
  8
_0-2_
  6
CONTINUOUS
 62
    3
 10
757.19523600930575
 20
1601.5782707179305
 11
807.19490608954266
 21
1601.5782707179305
  0
LINE
  8
_0-2_
  6
CONTINUOUS
 62
    3
 10
807.19490608954266
 20
1579.5782723675291
 11
807.19490608954266
 21
1601.5782707179305
  0
LINE
  8
_0-2_
  6
CONTINUOUS
 62
    3
 10
691.19511723819141
 20
1601.5782707179305
 11
691.19511723819141
 21
1579.5782723675291
  0
LINE
  8
_0-2_
  6
CONTINUOUS
 62
    3
 10
641.19495227830862
 20
1579.5782723675291
 11
641.19495227830862
 21
1601.5782707179305
  0
LINE
  8
_0-2_
  6
CONTINUOUS
 62
    3
 10
749.19501166386704
 20
1601.5782707179305
 11
749.19501166386704
 21
1579.5782723675291
  0
LINE
  8
_0-2_
  6
CONTINUOUS
 62
    3
 10
699.19509414380718
 20
1579.5782723675291
 11
699.19509414380718
 21
1601.5782707179305
  0
LINE
  8
_0-2_
  6
CONTINUOUS
 62
    3
 10
757.19523600930575
 20
1579.5782723675291
 11
757.19523600930575
 21
1601.5782707179305
  0
LINE
  8
_0-2_
  6
CONTINUOUS
 62
    3
 10
641.19495227830862
 20
1579.5782723675291
 11
691.19511723819141
 21
1579.5782723675291
  0
LINE
  8
_0-2_
  6
CONTINUOUS
 62
    3
 10
699.19497042389662
 20
1579.5782723675291
 11
749.19513538377851
 21
1579.5782723675291
  0
LINE
  8
_0-2_
  6
CONTINUOUS
 62
    3
 10
757.19498856948371
 20
1579.5782723675291
 11
807.1951535293656
 21
1579.5782723675291
  0
LINE
  8
_0-2_
  6
CONTINUOUS
 62
    3
 10
815.19488299515842
 20
1579.5782723675291
 11
865.19504795504122
 21
1579.5782723675291
  0
LINE
  8
_0-2_
  6
CONTINUOUS
 62
    3
 10
873.19490114074551
 20
1579.5782723675291
 11
923.19506610062831
 21
1579.5782723675291
  0
LINE
  8
_0-2_
  6
CONTINUOUS
 62
    3
 10
931.19491928633261
 20
1579.5782723675291
 11
981.19508424621381
 21
1579.5782723675291
  0
LINE
  8
_0-2_
  6
CONTINUOUS
 62
    3
 10
989.1949374319197
 20
1579.5782723675291
 11
1039.1951023918009
 21
1579.5782723675291
  0
LINE
  8
_0-2_
  6
CONTINUOUS
 62
    3
 10
1047.1949555775068
 20
1579.5782723675291
 11
1097.195120537388
 21
1579.5782723675291
  0
LINE
  8
_0-2_
  6
CONTINUOUS
 62
    3
 10
1135.195443858757
 20
1609.5780001837238
 11
1135.195443858757
 21
1631.5783696938593
  0
LINE
  8
_0-2_
  6
CONTINUOUS
 62
    3
 10
1135.195443858757
 20
1631.5783696938593
 11
1125.1954108667808
 21
1631.5783696938593
  0
LINE
  8
_0-2_
  6
CONTINUOUS
 62
    3
 10
1125.1954108667808
 20
1631.5783696938593
 11
1125.1954108667808
 21
1609.5780001837238
  0
LINE
  8
_0-2_
  6
CONTINUOUS
 62
    3
 10
1125.1954108667808
 20
1609.5780001837238
 11
1135.195443858757
 21
1609.5780001837238
  0
LINE
  8
_0-2_
  6
CONTINUOUS
 62
    3
 10
1177.1953844731995
 20
1609.5780001837238
 11
1177.1953844731995
 21
1631.5783696938593
  0
LINE
  8
_0-2_
  6
CONTINUOUS
 62
    3
 10
1177.1953844731995
 20
1631.5783696938593
 11
1141.1956121178353
 21
1631.5783696938593
  0
LINE
  8
_0-2_
  6
CONTINUOUS
 62
    3
 10
1141.1956121178353
 20
1631.5783696938593
 11
1141.1956121178353
 21
1609.5780001837238
  0
LINE
  8
_0-2_
  6
CONTINUOUS
 62
    3
 10
1141.1956121178353
 20
1609.5780001837238
 11
1177.1953844731995
 21
1609.5780001837238
  0
LINE
  8
_0-2_
  6
CONTINUOUS
 62
    3
 10
1193.1955857242556
 20
1609.5780001837238
 11
1193.1955857242556
 21
1631.5783696938593
  0
LINE
  8
_0-2_
  6
CONTINUOUS
 62
    3
 10
1193.1955857242556
 20
1631.5783696938593
 11
1183.1955527322793
 21
1631.5783696938593
  0
LINE
  8
_0-2_
  6
CONTINUOUS
 62
    3
 10
1183.1955527322793
 20
1631.5783696938593
 11
1183.1955527322793
 21
1609.5780001837238
  0
LINE
  8
_0-2_
  6
CONTINUOUS
 62
    3
 10
1183.1955527322793
 20
1609.5780001837238
 11
1193.1955857242556
 21
1609.5780001837238
  0
LINE
  8
_0-2_
  6
CONTINUOUS
 62
    3
 10
1235.1955263386981
 20
1609.5780001837238
 11
1235.1955263386981
 21
1631.5783696938593
  0
LINE
  8
_0-2_
  6
CONTINUOUS
 62
    3
 10
1235.1955263386981
 20
1631.5783696938593
 11
1199.1957539833338
 21
1631.5783696938593
  0
LINE
  8
_0-2_
  6
CONTINUOUS
 62
    3
 10
1199.1957539833338
 20
1631.5783696938593
 11
1199.1957539833338
 21
1609.5780001837238
  0
LINE
  8
_0-2_
  6
CONTINUOUS
 62
    3
 10
1199.1957539833338
 20
1609.5780001837238
 11
1235.1955263386981
 21
1609.5780001837238
  0
LINE
  8
_0-2_
  6
CONTINUOUS
 62
    3
 10
1251.1957275897541
 20
1609.5780001837238
 11
1251.1957275897541
 21
1631.5783696938593
  0
LINE
  8
_0-2_
  6
CONTINUOUS
 62
    3
 10
1251.1957275897541
 20
1631.5783696938593
 11
1241.1956945977763
 21
1631.5783696938593
  0
LINE
  8
_0-2_
  6
CONTINUOUS
 62
    3
 10
1241.1956945977763
 20
1631.5783696938593
 11
1241.1956945977763
 21
1609.5780001837238
  0
LINE
  8
_0-2_
  6
CONTINUOUS
 62
    3
 10
1241.1956945977763
 20
1609.5780001837238
 11
1251.1957275897541
 21
1609.5780001837238
  0
LINE
  8
_0-2_
  6
CONTINUOUS
 62
    3
 10
1105.1955923226512
 20
1601.5782707179305
 11
1155.1952624028866
 21
1601.5782707179305
  0
LINE
  8
_0-2_
  6
CONTINUOUS
 62
    3
 10
1213.1954042683851
 20
1601.5782707179305
 11
1163.1954867483269
 21
1601.5782707179305
  0
LINE
  8
_0-2_
  6
CONTINUOUS
 62
    3
 10
1271.1955461338837
 20
1601.5782707179305
 11
1221.1953811740009
 21
1601.5782707179305
  0
LINE
  8
_0-2_
  6
CONTINUOUS
 62
    3
 10
1221.1953811740009
 20
1601.5782707179305
 11
1221.1953811740009
 21
1579.5782723675291
  0
LINE
  8
_0-2_
  6
CONTINUOUS
 62
    3
 10
1271.1955461338837
 20
1579.5782723675291
 11
1271.1955461338837
 21
1601.5782707179305
  0
LINE
  8
_0-2_
  6
CONTINUOUS
 62
    3
 10
1163.1954867483269
 20
1601.5782707179305
 11
1163.1954867483269
 21
1579.5782723675291
  0
LINE
  8
_0-2_
  6
CONTINUOUS
 62
    3
 10
1213.1954042683851
 20
1579.5782723675291
 11
1213.1954042683851
 21
1601.5782707179305
  0
LINE
  8
_0-2_
  6
CONTINUOUS
 62
    3
 10
1155.1952624028866
 20
1579.5782723675291
 11
1155.1952624028866
 21
1601.5782707179305
  0
LINE
  8
_0-2_
  6
CONTINUOUS
 62
    3
 10
1105.1955923226512
 20
1579.5782723675291
 11
1105.1955923226512
 21
1601.5782707179305
  0
LINE
  8
_0-2_
  6
CONTINUOUS
 62
    3
 10
1105.1950974430054
 20
1579.5782723675291
 11
1155.1952624028866
 21
1579.5782723675291
  0
LINE
  8
_0-2_
  6
CONTINUOUS
 62
    3
 10
1163.1951155885924
 20
1579.5782723675291
 11
1213.1952805484736
 21
1579.5782723675291
  0
LINE
  8
_0-2_
  6
CONTINUOUS
 62
    3
 10
1221.1951337341795
 20
1579.5782723675291
 11
1271.1952986940607
 21
1579.5782723675291
  0
LINE
  8
_0-2_
  6
CONTINUOUS
 62
    3
 10
815.19513043498137
 20
1661.5783449498765
 11
865.19529539486257
 21
1661.5783449498765
  0
LINE
  8
_0-2_
  6
CONTINUOUS
 62
    3
 10
835.19519641893385
 20
1669.5780744156709
 11
835.19519641893385
 21
1691.5784439258064
  0
LINE
  8
_0-2_
  6
CONTINUOUS
 62
    3
 10
835.19519641893385
 20
1691.5784439258064
 11
845.19522941091009
 21
1691.5784439258064
  0
LINE
  8
_0-2_
  6
CONTINUOUS
 62
    3
 10
845.19522941091009
 20
1691.5784439258064
 11
845.19522941091009
 21
1669.5780744156709
  0
LINE
  8
_0-2_
  6
CONTINUOUS
 62
    3
 10
845.19522941091009
 20
1669.5780744156709
 11
835.19519641893385
 21
1669.5780744156709
  0
LINE
  8
_0-2_
  6
CONTINUOUS
 62
    3
 10
793.19525580449135
 20
1669.5780744156709
 11
793.19525580449135
 21
1691.5784439258064
  0
LINE
  8
_0-2_
  6
CONTINUOUS
 62
    3
 10
793.19525580449135
 20
1691.5784439258064
 11
829.19502815985402
 21
1691.5784439258064
  0
LINE
  8
_0-2_
  6
CONTINUOUS
 62
    3
 10
829.19502815985402
 20
1691.5784439258064
 11
829.19502815985402
 21
1669.5780744156709
  0
LINE
  8
_0-2_
  6
CONTINUOUS
 62
    3
 10
829.19502815985402
 20
1669.5780744156709
 11
793.19525580449135
 21
1669.5780744156709
  0
LINE
  8
_0-2_
  6
CONTINUOUS
 62
    3
 10
777.19505455343528
 20
1669.5780744156709
 11
777.19505455343528
 21
1691.5784439258064
  0
LINE
  8
_0-2_
  6
CONTINUOUS
 62
    3
 10
777.19505455343528
 20
1691.5784439258064
 11
787.19508754541152
 21
1691.5784439258064
  0
LINE
  8
_0-2_
  6
CONTINUOUS
 62
    3
 10
787.19508754541152
 20
1691.5784439258064
 11
787.19508754541152
 21
1669.5780744156709
  0
LINE
  8
_0-2_
  6
CONTINUOUS
 62
    3
 10
787.19508754541152
 20
1669.5780744156709
 11
777.19505455343528
 21
1669.5780744156709
  0
LINE
  8
_0-2_
  6
CONTINUOUS
 62
    3
 10
661.19501826226201
 20
1691.5784439258064
 11
671.19505125423825
 21
1691.5784439258064
  0
LINE
  8
_0-2_
  6
CONTINUOUS
 62
    3
 10
655.19509744300512
 20
1691.5784439258064
 11
655.19509744300512
 21
1669.5780744156709
  0
LINE
  8
_0-2_
  6
CONTINUOUS
 62
    3
 10
661.19501826226201
 20
1669.5780744156709
 11
661.19501826226201
 21
1691.5784439258064
  0
LINE
  8
_0-2_
  6
CONTINUOUS
 62
    3
 10
671.19505125423825
 20
1669.5780744156709
 11
661.19501826226201
 21
1669.5780744156709
  0
LINE
  8
_0-2_
  6
CONTINUOUS
 62
    3
 10
671.19505125423825
 20
1691.5784439258064
 11
671.19505125423825
 21
1669.5780744156709
  0
LINE
  8
_0-2_
  6
CONTINUOUS
 62
    3
 10
1097.1953679772109
 20
1661.5783449498765
 11
1047.1952030173297
 21
1661.5783449498765
  0
LINE
  8
_0-2_
  6
CONTINUOUS
 62
    3
 10
1077.1953019932585
 20
1669.5780744156709
 11
1077.1953019932585
 21
1691.5784439258064
  0
LINE
  8
_0-2_
  6
CONTINUOUS
 62
    3
 10
1077.1953019932585
 20
1691.5784439258064
 11
1067.1952690012822
 21
1691.5784439258064
  0
LINE
  8
_0-2_
  6
CONTINUOUS
 62
    3
 10
1067.1952690012822
 20
1691.5784439258064
 11
1067.1952690012822
 21
1669.5780744156709
  0
LINE
  8
_0-2_
  6
CONTINUOUS
 62
    3
 10
1067.1952690012822
 20
1669.5780744156709
 11
1077.1953019932585
 21
1669.5780744156709
  0
LINE
  8
_0-2_
  6
CONTINUOUS
 62
    3
 10
1119.1952426077009
 20
1669.5780744156709
 11
1119.1952426077009
 21
1691.5784439258064
  0
LINE
  8
_0-2_
  6
CONTINUOUS
 62
    3
 10
1119.1952426077009
 20
1691.5784439258064
 11
1083.1954702523383
 21
1691.5784439258064
  0
LINE
  8
_0-2_
  6
CONTINUOUS
 62
    3
 10
1083.1954702523383
 20
1691.5784439258064
 11
1083.1954702523383
 21
1669.5780744156709
  0
LINE
  8
_0-2_
  6
CONTINUOUS
 62
    3
 10
1083.1954702523383
 20
1669.5780744156709
 11
1119.1952426077009
 21
1669.5780744156709
  0
LINE
  8
_0-2_
  6
CONTINUOUS
 62
    3
 10
1257.1954009691881
 20
1691.5784439258064
 11
1257.1954009691881
 21
1669.5780744156709
  0
LINE
  8
_0-2_
  6
CONTINUOUS
 62
    3
 10
735.1951139389937
 20
1669.5780744156709
 11
735.1951139389937
 21
1691.5784439258064
  0
LINE
  8
_0-2_
  6
CONTINUOUS
 62
    3
 10
735.1951139389937
 20
1691.5784439258064
 11
771.1951337341784
 21
1691.5784439258064
  0
LINE
  8
_0-2_
  6
CONTINUOUS
 62
    3
 10
771.1951337341784
 20
1691.5784439258064
 11
771.1951337341784
 21
1669.5780744156709
  0
LINE
  8
_0-2_
  6
CONTINUOUS
 62
    3
 10
771.1951337341784
 20
1669.5780744156709
 11
735.1951139389937
 21
1669.5780744156709
  0
LINE
  8
_0-2_
  6
CONTINUOUS
 62
    3
 10
719.19516012775966
 20
1669.5780744156709
 11
719.19516012775966
 21
1691.5784439258064
  0
LINE
  8
_0-2_
  6
CONTINUOUS
 62
    3
 10
719.19516012775966
 20
1691.5784439258064
 11
729.19519311973681
 21
1691.5784439258064
  0
LINE
  8
_0-2_
  6
CONTINUOUS
 62
    3
 10
729.19519311973681
 20
1691.5784439258064
 11
729.19519311973681
 21
1669.5780744156709
  0
LINE
  8
_0-2_
  6
CONTINUOUS
 62
    3
 10
729.19519311973681
 20
1669.5780744156709
 11
719.19516012775966
 21
1669.5780744156709
  0
LINE
  8
_0-2_
  6
CONTINUOUS
 62
    3
 10
677.19521951331808
 20
1669.5780744156709
 11
677.19521951331808
 21
1691.5784439258064
  0
LINE
  8
_0-2_
  6
CONTINUOUS
 62
    3
 10
677.19521951331808
 20
1691.5784439258064
 11
713.19499186868075
 21
1691.5784439258064
  0
LINE
  8
_0-2_
  6
CONTINUOUS
 62
    3
 10
713.19499186868075
 20
1691.5784439258064
 11
713.19499186868075
 21
1669.5780744156709
  0
LINE
  8
_0-2_
  6
CONTINUOUS
 62
    3
 10
713.19499186868075
 20
1669.5780744156709
 11
677.19521951331808
 21
1669.5780744156709
  0
LINE
  8
_0-2_
  6
CONTINUOUS
 62
    3
 10
1279.1952755996781
 20
1661.5783449498765
 11
1279.1952755996781
 21
1639.5783465994755
  0
LINE
  8
_0-2_
  6
CONTINUOUS
 62
    3
 10
1047.1952030173297
 20
1661.5783449498765
 11
1047.1952030173297
 21
1639.5783465994755
  0
LINE
  8
_0-2_
  6
CONTINUOUS
 62
    3
 10
1097.1953679772109
 20
1639.5783465994755
 11
1097.1953679772109
 21
1661.5783449498765
  0
LINE
  8
_0-2_
  6
CONTINUOUS
 62
    3
 10
633.19522281251511
 20
1661.5783449498765
 11
633.19522281251511
 21
1639.5783465994755
  0
LINE
  8
_0-2_
  6
CONTINUOUS
 62
    3
 10
865.19529539486257
 20
1661.5783449498765
 11
865.19529539486257
 21
1639.5783465994755
  0
LINE
  8
_0-2_
  6
CONTINUOUS
 62
    3
 10
815.19513043498137
 20
1639.5783465994755
 11
815.19513043498137
 21
1661.5783449498765
  0
LINE
  8
_0-2_
  6
CONTINUOUS
 62
    3
 10
699.19509414380718
 20
1661.5783449498765
 11
749.19501166386704
 21
1661.5783449498765
  0
LINE
  8
_0-2_
  6
CONTINUOUS
 62
    3
 10
641.19495227830862
 20
1661.5783449498765
 11
691.19511723819141
 21
1661.5783449498765
  0
LINE
  8
_0-2_
  6
CONTINUOUS
 62
    3
 10
757.19523600930575
 20
1661.5783449498765
 11
807.19490608954266
 21
1661.5783449498765
  0
LINE
  8
_0-2_
  6
CONTINUOUS
 62
    3
 10
807.19490608954266
 20
1639.5783465994755
 11
807.19490608954266
 21
1661.5783449498765
  0
LINE
  8
_0-2_
  6
CONTINUOUS
 62
    3
 10
691.19511723819141
 20
1661.5783449498765
 11
691.19511723819141
 21
1639.5783465994755
  0
LINE
  8
_0-2_
  6
CONTINUOUS
 62
    3
 10
641.19495227830862
 20
1639.5783465994755
 11
641.19495227830862
 21
1661.5783449498765
  0
LINE
  8
_0-2_
  6
CONTINUOUS
 62
    3
 10
749.19501166386704
 20
1661.5783449498765
 11
749.19501166386704
 21
1639.5783465994755
  0
LINE
  8
_0-2_
  6
CONTINUOUS
 62
    3
 10
699.19509414380718
 20
1639.5783465994755
 11
699.19509414380718
 21
1661.5783449498765
  0
LINE
  8
_0-2_
  6
CONTINUOUS
 62
    3
 10
757.19523600930575
 20
1639.5783465994755
 11
757.19523600930575
 21
1661.5783449498765
  0
LINE
  8
_0-2_
  6
CONTINUOUS
 62
    3
 10
641.19495227830862
 20
1639.5783465994755
 11
691.19511723819141
 21
1639.5783465994755
  0
LINE
  8
_0-2_
  6
CONTINUOUS
 62
    3
 10
699.19497042389662
 20
1639.5783465994755
 11
749.19513538377851
 21
1639.5783465994755
  0
LINE
  8
_0-2_
  6
CONTINUOUS
 62
    3
 10
757.19498856948371
 20
1639.5783465994755
 11
807.1951535293656
 21
1639.5783465994755
  0
LINE
  8
_0-2_
  6
CONTINUOUS
 62
    3
 10
815.19488299515842
 20
1639.5783465994755
 11
865.19504795504122
 21
1639.5783465994755
  0
LINE
  8
_0-2_
  6
CONTINUOUS
 62
    3
 10
1047.1949555775068
 20
1639.5783465994755
 11
1097.195120537388
 21
1639.5783465994755
  0
LINE
  8
_0-2_
  6
CONTINUOUS
 62
    3
 10
1135.195443858757
 20
1669.5780744156709
 11
1135.195443858757
 21
1691.5784439258064
  0
LINE
  8
_0-2_
  6
CONTINUOUS
 62
    3
 10
1135.195443858757
 20
1691.5784439258064
 11
1125.1954108667808
 21
1691.5784439258064
  0
LINE
  8
_0-2_
  6
CONTINUOUS
 62
    3
 10
1125.1954108667808
 20
1691.5784439258064
 11
1125.1954108667808
 21
1669.5780744156709
  0
LINE
  8
_0-2_
  6
CONTINUOUS
 62
    3
 10
1125.1954108667808
 20
1669.5780744156709
 11
1135.195443858757
 21
1669.5780744156709
  0
LINE
  8
_0-2_
  6
CONTINUOUS
 62
    3
 10
1177.1953844731995
 20
1669.5780744156709
 11
1177.1953844731995
 21
1691.5784439258064
  0
LINE
  8
_0-2_
  6
CONTINUOUS
 62
    3
 10
1177.1953844731995
 20
1691.5784439258064
 11
1141.1956121178353
 21
1691.5784439258064
  0
LINE
  8
_0-2_
  6
CONTINUOUS
 62
    3
 10
1141.1956121178353
 20
1691.5784439258064
 11
1141.1956121178353
 21
1669.5780744156709
  0
LINE
  8
_0-2_
  6
CONTINUOUS
 62
    3
 10
1141.1956121178353
 20
1669.5780744156709
 11
1177.1953844731995
 21
1669.5780744156709
  0
LINE
  8
_0-2_
  6
CONTINUOUS
 62
    3
 10
1193.1955857242556
 20
1669.5780744156709
 11
1193.1955857242556
 21
1691.5784439258064
  0
LINE
  8
_0-2_
  6
CONTINUOUS
 62
    3
 10
1193.1955857242556
 20
1691.5784439258064
 11
1183.1955527322793
 21
1691.5784439258064
  0
LINE
  8
_0-2_
  6
CONTINUOUS
 62
    3
 10
1183.1955527322793
 20
1691.5784439258064
 11
1183.1955527322793
 21
1669.5780744156709
  0
LINE
  8
_0-2_
  6
CONTINUOUS
 62
    3
 10
1183.1955527322793
 20
1669.5780744156709
 11
1193.1955857242556
 21
1669.5780744156709
  0
LINE
  8
_0-2_
  6
CONTINUOUS
 62
    3
 10
1235.1955263386981
 20
1669.5780744156709
 11
1235.1955263386981
 21
1691.5784439258064
  0
LINE
  8
_0-2_
  6
CONTINUOUS
 62
    3
 10
1235.1955263386981
 20
1691.5784439258064
 11
1199.1957539833338
 21
1691.5784439258064
  0
LINE
  8
_0-2_
  6
CONTINUOUS
 62
    3
 10
1199.1957539833338
 20
1691.5784439258064
 11
1199.1957539833338
 21
1669.5780744156709
  0
LINE
  8
_0-2_
  6
CONTINUOUS
 62
    3
 10
1199.1957539833338
 20
1669.5780744156709
 11
1235.1955263386981
 21
1669.5780744156709
  0
LINE
  8
_0-2_
  6
CONTINUOUS
 62
    3
 10
1251.1957275897541
 20
1669.5780744156709
 11
1251.1957275897541
 21
1691.5784439258064
  0
LINE
  8
_0-2_
  6
CONTINUOUS
 62
    3
 10
1251.1957275897541
 20
1691.5784439258064
 11
1241.1956945977763
 21
1691.5784439258064
  0
LINE
  8
_0-2_
  6
CONTINUOUS
 62
    3
 10
1241.1956945977763
 20
1691.5784439258064
 11
1241.1956945977763
 21
1669.5780744156709
  0
LINE
  8
_0-2_
  6
CONTINUOUS
 62
    3
 10
1241.1956945977763
 20
1669.5780744156709
 11
1251.1957275897541
 21
1669.5780744156709
  0
LINE
  8
_0-2_
  6
CONTINUOUS
 62
    3
 10
1105.1955923226512
 20
1661.5783449498765
 11
1155.1952624028866
 21
1661.5783449498765
  0
LINE
  8
_0-2_
  6
CONTINUOUS
 62
    3
 10
1213.1954042683851
 20
1661.5783449498765
 11
1163.1954867483269
 21
1661.5783449498765
  0
LINE
  8
_0-2_
  6
CONTINUOUS
 62
    3
 10
1271.1955461338837
 20
1661.5783449498765
 11
1221.1953811740009
 21
1661.5783449498765
  0
LINE
  8
_0-2_
  6
CONTINUOUS
 62
    3
 10
1221.1953811740009
 20
1661.5783449498765
 11
1221.1953811740009
 21
1639.5783465994755
  0
LINE
  8
_0-2_
  6
CONTINUOUS
 62
    3
 10
1271.1955461338837
 20
1639.5783465994755
 11
1271.1955461338837
 21
1661.5783449498765
  0
LINE
  8
_0-2_
  6
CONTINUOUS
 62
    3
 10
1163.1954867483269
 20
1661.5783449498765
 11
1163.1954867483269
 21
1639.5783465994755
  0
LINE
  8
_0-2_
  6
CONTINUOUS
 62
    3
 10
1213.1954042683851
 20
1639.5783465994755
 11
1213.1954042683851
 21
1661.5783449498765
  0
LINE
  8
_0-2_
  6
CONTINUOUS
 62
    3
 10
1155.1952624028866
 20
1639.5783465994755
 11
1155.1952624028866
 21
1661.5783449498765
  0
LINE
  8
_0-2_
  6
CONTINUOUS
 62
    3
 10
1105.1955923226512
 20
1639.5783465994755
 11
1105.1955923226512
 21
1661.5783449498765
  0
LINE
  8
_0-2_
  6
CONTINUOUS
 62
    3
 10
1105.1950974430054
 20
1639.5783465994755
 11
1155.1952624028866
 21
1639.5783465994755
  0
LINE
  8
_0-2_
  6
CONTINUOUS
 62
    3
 10
1163.1951155885924
 20
1639.5783465994755
 11
1213.1952805484736
 21
1639.5783465994755
  0
LINE
  8
_0-2_
  6
CONTINUOUS
 62
    3
 10
1221.1951337341795
 20
1639.5783465994755
 11
1271.1952986940607
 21
1639.5783465994755
  0
LINE
  8
_0-2_
  6
CONTINUOUS
 62
    3
 10
815.19513043498137
 20
1721.5784191818241
 11
865.19529539486257
 21
1721.5784191818241
  0
LINE
  8
_0-2_
  6
CONTINUOUS
 62
    3
 10
951.19523271010803
 20
1729.578148647618
 11
951.19523271010803
 21
1751.5785181577528
  0
LINE
  8
_0-2_
  6
CONTINUOUS
 62
    3
 10
909.19529209566554
 20
1729.578148647618
 11
909.19529209566554
 21
1751.5785181577528
  0
LINE
  8
_0-2_
  6
CONTINUOUS
 62
    3
 10
909.19529209566554
 20
1751.5785181577528
 11
945.1950644510282
 21
1751.5785181577528
  0
LINE
  8
_0-2_
  6
CONTINUOUS
 62
    3
 10
945.1950644510282
 20
1751.5785181577528
 11
945.1950644510282
 21
1729.578148647618
  0
LINE
  8
_0-2_
  6
CONTINUOUS
 62
    3
 10
945.1950644510282
 20
1729.578148647618
 11
909.19529209566554
 21
1729.578148647618
  0
LINE
  8
_0-2_
  6
CONTINUOUS
 62
    3
 10
893.19509084460947
 20
1729.578148647618
 11
893.19509084460947
 21
1751.5785181577528
  0
LINE
  8
_0-2_
  6
CONTINUOUS
 62
    3
 10
893.19509084460947
 20
1751.5785181577528
 11
903.19512383658571
 21
1751.5785181577528
  0
LINE
  8
_0-2_
  6
CONTINUOUS
 62
    3
 10
903.19512383658571
 20
1751.5785181577528
 11
903.19512383658571
 21
1729.578148647618
  0
LINE
  8
_0-2_
  6
CONTINUOUS
 62
    3
 10
903.19512383658571
 20
1729.578148647618
 11
893.19509084460947
 21
1729.578148647618
  0
LINE
  8
_0-2_
  6
CONTINUOUS
 62
    3
 10
851.19515023016697
 20
1729.578148647618
 11
851.19515023016697
 21
1751.5785181577528
  0
LINE
  8
_0-2_
  6
CONTINUOUS
 62
    3
 10
851.19515023016697
 20
1751.5785181577528
 11
887.19517002535258
 21
1751.5785181577528
  0
LINE
  8
_0-2_
  6
CONTINUOUS
 62
    3
 10
887.19517002535258
 20
1751.5785181577528
 11
887.19517002535258
 21
1729.578148647618
  0
LINE
  8
_0-2_
  6
CONTINUOUS
 62
    3
 10
887.19517002535258
 20
1729.578148647618
 11
851.19515023016697
 21
1729.578148647618
  0
LINE
  8
_0-2_
  6
CONTINUOUS
 62
    3
 10
835.19519641893385
 20
1729.578148647618
 11
835.19519641893385
 21
1751.5785181577528
  0
LINE
  8
_0-2_
  6
CONTINUOUS
 62
    3
 10
835.19519641893385
 20
1751.5785181577528
 11
845.19522941091009
 21
1751.5785181577528
  0
LINE
  8
_0-2_
  6
CONTINUOUS
 62
    3
 10
845.19522941091009
 20
1751.5785181577528
 11
845.19522941091009
 21
1729.578148647618
  0
LINE
  8
_0-2_
  6
CONTINUOUS
 62
    3
 10
845.19522941091009
 20
1729.578148647618
 11
835.19519641893385
 21
1729.578148647618
  0
LINE
  8
_0-2_
  6
CONTINUOUS
 62
    3
 10
793.19525580449135
 20
1729.578148647618
 11
793.19525580449135
 21
1751.5785181577528
  0
LINE
  8
_0-2_
  6
CONTINUOUS
 62
    3
 10
793.19525580449135
 20
1751.5785181577528
 11
829.19502815985402
 21
1751.5785181577528
  0
LINE
  8
_0-2_
  6
CONTINUOUS
 62
    3
 10
829.19502815985402
 20
1751.5785181577528
 11
829.19502815985402
 21
1729.578148647618
  0
LINE
  8
_0-2_
  6
CONTINUOUS
 62
    3
 10
829.19502815985402
 20
1729.578148647618
 11
793.19525580449135
 21
1729.578148647618
  0
LINE
  8
_0-2_
  6
CONTINUOUS
 62
    3
 10
777.19505455343528
 20
1729.578148647618
 11
777.19505455343528
 21
1751.5785181577528
  0
LINE
  8
_0-2_
  6
CONTINUOUS
 62
    3
 10
777.19505455343528
 20
1751.5785181577528
 11
787.19508754541152
 21
1751.5785181577528
  0
LINE
  8
_0-2_
  6
CONTINUOUS
 62
    3
 10
787.19508754541152
 20
1751.5785181577528
 11
787.19508754541152
 21
1729.578148647618
  0
LINE
  8
_0-2_
  6
CONTINUOUS
 62
    3
 10
787.19508754541152
 20
1729.578148647618
 11
777.19505455343528
 21
1729.578148647618
  0
LINE
  8
_0-2_
  6
CONTINUOUS
 62
    3
 10
961.19526570208427
 20
1729.578148647618
 11
951.19523271010803
 21
1729.578148647618
  0
LINE
  8
_0-2_
  6
CONTINUOUS
 62
    3
 10
951.19523271010803
 20
1751.5785181577528
 11
961.19526570208427
 21
1751.5785181577528
  0
LINE
  8
_0-2_
  6
CONTINUOUS
 62
    3
 10
1097.1953679772109
 20
1721.5784191818241
 11
1047.1952030173297
 21
1721.5784191818241
  0
LINE
  8
_0-2_
  6
CONTINUOUS
 62
    3
 10
961.19526570208427
 20
1729.578148647618
 11
961.19526570208427
 21
1751.5785181577528
  0
LINE
  8
_0-2_
  6
CONTINUOUS
 62
    3
 10
1003.1952063165268
 20
1729.578148647618
 11
1003.1952063165268
 21
1751.5785181577528
  0
LINE
  8
_0-2_
  6
CONTINUOUS
 62
    3
 10
1003.1952063165268
 20
1751.5785181577528
 11
967.1954339611641
 21
1751.5785181577528
  0
LINE
  8
_0-2_
  6
CONTINUOUS
 62
    3
 10
967.1954339611641
 20
1751.5785181577528
 11
967.1954339611641
 21
1729.578148647618
  0
LINE
  8
_0-2_
  6
CONTINUOUS
 62
    3
 10
967.1954339611641
 20
1729.578148647618
 11
1003.1952063165268
 21
1729.578148647618
  0
LINE
  8
_0-2_
  6
CONTINUOUS
 62
    3
 10
1019.1954075675828
 20
1729.578148647618
 11
1019.1954075675828
 21
1751.5785181577528
  0
LINE
  8
_0-2_
  6
CONTINUOUS
 62
    3
 10
1019.1954075675828
 20
1751.5785181577528
 11
1009.1953745756066
 21
1751.5785181577528
  0
LINE
  8
_0-2_
  6
CONTINUOUS
 62
    3
 10
1009.1953745756066
 20
1751.5785181577528
 11
1009.1953745756066
 21
1729.578148647618
  0
LINE
  8
_0-2_
  6
CONTINUOUS
 62
    3
 10
1009.1953745756066
 20
1729.578148647618
 11
1019.1954075675828
 21
1729.578148647618
  0
LINE
  8
_0-2_
  6
CONTINUOUS
 62
    3
 10
1061.1953481820253
 20
1729.578148647618
 11
1061.1953481820253
 21
1751.5785181577528
  0
LINE
  8
_0-2_
  6
CONTINUOUS
 62
    3
 10
1061.1953481820253
 20
1751.5785181577528
 11
1025.1953283868397
 21
1751.5785181577528
  0
LINE
  8
_0-2_
  6
CONTINUOUS
 62
    3
 10
1025.1953283868397
 20
1751.5785181577528
 11
1025.1953283868397
 21
1729.578148647618
  0
LINE
  8
_0-2_
  6
CONTINUOUS
 62
    3
 10
1025.1953283868397
 20
1729.578148647618
 11
1061.1953481820253
 21
1729.578148647618
  0
LINE
  8
_0-2_
  6
CONTINUOUS
 62
    3
 10
1077.1953019932585
 20
1729.578148647618
 11
1077.1953019932585
 21
1751.5785181577528
  0
LINE
  8
_0-2_
  6
CONTINUOUS
 62
    3
 10
1077.1953019932585
 20
1751.5785181577528
 11
1067.1952690012822
 21
1751.5785181577528
  0
LINE
  8
_0-2_
  6
CONTINUOUS
 62
    3
 10
1067.1952690012822
 20
1751.5785181577528
 11
1067.1952690012822
 21
1729.578148647618
  0
LINE
  8
_0-2_
  6
CONTINUOUS
 62
    3
 10
1067.1952690012822
 20
1729.578148647618
 11
1077.1953019932585
 21
1729.578148647618
  0
LINE
  8
_0-2_
  6
CONTINUOUS
 62
    3
 10
1119.1952426077009
 20
1729.578148647618
 11
1119.1952426077009
 21
1751.5785181577528
  0
LINE
  8
_0-2_
  6
CONTINUOUS
 62
    3
 10
1119.1952426077009
 20
1751.5785181577528
 11
1083.1954702523383
 21
1751.5785181577528
  0
LINE
  8
_0-2_
  6
CONTINUOUS
 62
    3
 10
1083.1954702523383
 20
1751.5785181577528
 11
1083.1954702523383
 21
1729.578148647618
  0
LINE
  8
_0-2_
  6
CONTINUOUS
 62
    3
 10
1083.1954702523383
 20
1729.578148647618
 11
1119.1952426077009
 21
1729.578148647618
  0
LINE
  8
_0-2_
  6
CONTINUOUS
 62
    3
 10
735.1951139389937
 20
1729.578148647618
 11
735.1951139389937
 21
1751.5785181577528
  0
LINE
  8
_0-2_
  6
CONTINUOUS
 62
    3
 10
735.1951139389937
 20
1751.5785181577528
 11
771.1951337341784
 21
1751.5785181577528
  0
LINE
  8
_0-2_
  6
CONTINUOUS
 62
    3
 10
771.1951337341784
 20
1751.5785181577528
 11
771.1951337341784
 21
1729.578148647618
  0
LINE
  8
_0-2_
  6
CONTINUOUS
 62
    3
 10
771.1951337341784
 20
1729.578148647618
 11
735.1951139389937
 21
1729.578148647618
  0
LINE
  8
_0-2_
  6
CONTINUOUS
 62
    3
 10
719.19516012775966
 20
1729.578148647618
 11
719.19516012775966
 21
1751.5785181577528
  0
LINE
  8
_0-2_
  6
CONTINUOUS
 62
    3
 10
719.19516012775966
 20
1751.5785181577528
 11
729.19519311973681
 21
1751.5785181577528
  0
LINE
  8
_0-2_
  6
CONTINUOUS
 62
    3
 10
729.19519311973681
 20
1751.5785181577528
 11
729.19519311973681
 21
1729.578148647618
  0
LINE
  8
_0-2_
  6
CONTINUOUS
 62
    3
 10
729.19519311973681
 20
1729.578148647618
 11
719.19516012775966
 21
1729.578148647618
  0
LINE
  8
_0-2_
  6
CONTINUOUS
 62
    3
 10
713.19499186868075
 20
1751.5785181577528
 11
713.19499186868075
 21
1729.578148647618
  0
LINE
  8
_0-2_
  6
CONTINUOUS
 62
    3
 10
713.19499186868075
 20
1729.578148647618
 11
677.19521951331808
 21
1729.578148647618
  0
LINE
  8
_0-2_
  6
CONTINUOUS
 62
    3
 10
1047.1952030173297
 20
1721.5784191818241
 11
1047.1952030173297
 21
1699.5782971115111
  0
LINE
  8
_0-2_
  6
CONTINUOUS
 62
    3
 10
1097.1953679772109
 20
1699.5782971115111
 11
1097.1953679772109
 21
1721.5784191818241
  0
LINE
  8
_0-2_
  6
CONTINUOUS
 62
    3
 10
865.19529539486257
 20
1721.5784191818241
 11
865.19529539486257
 21
1699.5782971115111
  0
LINE
  8
_0-2_
  6
CONTINUOUS
 62
    3
 10
815.19513043498137
 20
1699.5782971115111
 11
815.19513043498137
 21
1721.5784191818241
  0
LINE
  8
_0-2_
  6
CONTINUOUS
 62
    3
 10
699.19509414380718
 20
1721.5784191818241
 11
749.19501166386704
 21
1721.5784191818241
  0
LINE
  8
_0-2_
  6
CONTINUOUS
 62
    3
 10
757.19523600930575
 20
1721.5784191818241
 11
807.19490608954266
 21
1721.5784191818241
  0
LINE
  8
_0-2_
  6
CONTINUOUS
 62
    3
 10
807.19490608954266
 20
1699.5782971115111
 11
807.19490608954266
 21
1721.5784191818241
  0
LINE
  8
_0-2_
  6
CONTINUOUS
 62
    3
 10
691.19511723819141
 20
1721.5784191818241
 11
691.19511723819141
 21
1699.5782971115111
  0
LINE
  8
_0-2_
  6
CONTINUOUS
 62
    3
 10
749.19501166386704
 20
1721.5784191818241
 11
749.19501166386704
 21
1699.5782971115111
  0
LINE
  8
_0-2_
  6
CONTINUOUS
 62
    3
 10
699.19509414380718
 20
1699.5782971115111
 11
699.19509414380718
 21
1721.5784191818241
  0
LINE
  8
_0-2_
  6
CONTINUOUS
 62
    3
 10
757.19523600930575
 20
1699.5782971115111
 11
757.19523600930575
 21
1721.5784191818241
  0
LINE
  8
_0-2_
  6
CONTINUOUS
 62
    3
 10
699.19497042389662
 20
1699.5782971115111
 11
749.19513538377851
 21
1699.5782971115111
  0
LINE
  8
_0-2_
  6
CONTINUOUS
 62
    3
 10
757.19498856948371
 20
1699.5782971115111
 11
807.1951535293656
 21
1699.5782971115111
  0
LINE
  8
_0-2_
  6
CONTINUOUS
 62
    3
 10
815.19488299515842
 20
1699.5782971115111
 11
865.19504795504122
 21
1699.5782971115111
  0
LINE
  8
_0-2_
  6
CONTINUOUS
 62
    3
 10
1047.1949555775068
 20
1699.5782971115111
 11
1097.195120537388
 21
1699.5782971115111
  0
LINE
  8
_0-2_
  6
CONTINUOUS
 62
    3
 10
1135.195443858757
 20
1729.578148647618
 11
1135.195443858757
 21
1751.5785181577528
  0
LINE
  8
_0-2_
  6
CONTINUOUS
 62
    3
 10
1135.195443858757
 20
1751.5785181577528
 11
1125.1954108667808
 21
1751.5785181577528
  0
LINE
  8
_0-2_
  6
CONTINUOUS
 62
    3
 10
1125.1954108667808
 20
1751.5785181577528
 11
1125.1954108667808
 21
1729.578148647618
  0
LINE
  8
_0-2_
  6
CONTINUOUS
 62
    3
 10
1125.1954108667808
 20
1729.578148647618
 11
1135.195443858757
 21
1729.578148647618
  0
LINE
  8
_0-2_
  6
CONTINUOUS
 62
    3
 10
1177.1953844731995
 20
1729.578148647618
 11
1177.1953844731995
 21
1751.5785181577528
  0
LINE
  8
_0-2_
  6
CONTINUOUS
 62
    3
 10
1177.1953844731995
 20
1751.5785181577528
 11
1141.1956121178353
 21
1751.5785181577528
  0
LINE
  8
_0-2_
  6
CONTINUOUS
 62
    3
 10
1141.1956121178353
 20
1751.5785181577528
 11
1141.1956121178353
 21
1729.578148647618
  0
LINE
  8
_0-2_
  6
CONTINUOUS
 62
    3
 10
1141.1956121178353
 20
1729.578148647618
 11
1177.1953844731995
 21
1729.578148647618
  0
LINE
  8
_0-2_
  6
CONTINUOUS
 62
    3
 10
1193.1955857242556
 20
1729.578148647618
 11
1193.1955857242556
 21
1751.5785181577528
  0
LINE
  8
_0-2_
  6
CONTINUOUS
 62
    3
 10
1193.1955857242556
 20
1751.5785181577528
 11
1183.1955527322793
 21
1751.5785181577528
  0
LINE
  8
_0-2_
  6
CONTINUOUS
 62
    3
 10
1183.1955527322793
 20
1751.5785181577528
 11
1183.1955527322793
 21
1729.578148647618
  0
LINE
  8
_0-2_
  6
CONTINUOUS
 62
    3
 10
1183.1955527322793
 20
1729.578148647618
 11
1193.1955857242556
 21
1729.578148647618
  0
LINE
  8
_0-2_
  6
CONTINUOUS
 62
    3
 10
1199.1957539833338
 20
1751.5785181577528
 11
1199.1957539833338
 21
1729.578148647618
  0
LINE
  8
_0-2_
  6
CONTINUOUS
 62
    3
 10
1199.1957539833338
 20
1729.578148647618
 11
1235.1955263386981
 21
1729.578148647618
  0
LINE
  8
_0-2_
  6
CONTINUOUS
 62
    3
 10
1105.1955923226512
 20
1721.5784191818241
 11
1155.1952624028866
 21
1721.5784191818241
  0
LINE
  8
_0-2_
  6
CONTINUOUS
 62
    3
 10
1213.1954042683851
 20
1721.5784191818241
 11
1163.1954867483269
 21
1721.5784191818241
  0
LINE
  8
_0-2_
  6
CONTINUOUS
 62
    3
 10
1221.1953811740009
 20
1721.5784191818241
 11
1221.1953811740009
 21
1699.5782971115111
  0
LINE
  8
_0-2_
  6
CONTINUOUS
 62
    3
 10
1163.1954867483269
 20
1721.5784191818241
 11
1163.1954867483269
 21
1699.5782971115111
  0
LINE
  8
_0-2_
  6
CONTINUOUS
 62
    3
 10
1213.1954042683851
 20
1699.5782971115111
 11
1213.1954042683851
 21
1721.5784191818241
  0
LINE
  8
_0-2_
  6
CONTINUOUS
 62
    3
 10
1155.1952624028866
 20
1699.5782971115111
 11
1155.1952624028866
 21
1721.5784191818241
  0
LINE
  8
_0-2_
  6
CONTINUOUS
 62
    3
 10
1105.1955923226512
 20
1699.5782971115111
 11
1105.1955923226512
 21
1721.5784191818241
  0
LINE
  8
_0-2_
  6
CONTINUOUS
 62
    3
 10
1105.1950974430054
 20
1699.5782971115111
 11
1155.1952624028866
 21
1699.5782971115111
  0
LINE
  8
_0-2_
  6
CONTINUOUS
 62
    3
 10
1163.1951155885924
 20
1699.5782971115111
 11
1213.1952805484736
 21
1699.5782971115111
  0
LINE
  8
_0-2_
  6
CONTINUOUS
 62
    3
 10
873.19527230047993
 20
1781.5783696938588
 11
923.19518982053978
 21
1781.5783696938588
  0
LINE
  8
_0-2_
  6
CONTINUOUS
 62
    3
 10
815.19513043498137
 20
1781.5783696938588
 11
865.19529539486257
 21
1781.5783696938588
  0
LINE
  8
_0-2_
  6
CONTINUOUS
 62
    3
 10
951.19523271010803
 20
1789.5780991596534
 11
951.19523271010803
 21
1811.5784686697884
  0
LINE
  8
_0-2_
  6
CONTINUOUS
 62
    3
 10
909.19529209566554
 20
1789.5780991596534
 11
909.19529209566554
 21
1811.5784686697884
  0
LINE
  8
_0-2_
  6
CONTINUOUS
 62
    3
 10
909.19529209566554
 20
1811.5784686697884
 11
945.1950644510282
 21
1811.5784686697884
  0
LINE
  8
_0-2_
  6
CONTINUOUS
 62
    3
 10
945.1950644510282
 20
1811.5784686697884
 11
945.1950644510282
 21
1789.5780991596534
  0
LINE
  8
_0-2_
  6
CONTINUOUS
 62
    3
 10
945.1950644510282
 20
1789.5780991596534
 11
909.19529209566554
 21
1789.5780991596534
  0
LINE
  8
_0-2_
  6
CONTINUOUS
 62
    3
 10
893.19509084460947
 20
1789.5780991596534
 11
893.19509084460947
 21
1811.5784686697884
  0
LINE
  8
_0-2_
  6
CONTINUOUS
 62
    3
 10
893.19509084460947
 20
1811.5784686697884
 11
903.19512383658571
 21
1811.5784686697884
  0
LINE
  8
_0-2_
  6
CONTINUOUS
 62
    3
 10
903.19512383658571
 20
1811.5784686697884
 11
903.19512383658571
 21
1789.5780991596534
  0
LINE
  8
_0-2_
  6
CONTINUOUS
 62
    3
 10
903.19512383658571
 20
1789.5780991596534
 11
893.19509084460947
 21
1789.5780991596534
  0
LINE
  8
_0-2_
  6
CONTINUOUS
 62
    3
 10
851.19515023016697
 20
1789.5780991596534
 11
851.19515023016697
 21
1811.5784686697884
  0
LINE
  8
_0-2_
  6
CONTINUOUS
 62
    3
 10
851.19515023016697
 20
1811.5784686697884
 11
887.19517002535258
 21
1811.5784686697884
  0
LINE
  8
_0-2_
  6
CONTINUOUS
 62
    3
 10
887.19517002535258
 20
1811.5784686697884
 11
887.19517002535258
 21
1789.5780991596534
  0
LINE
  8
_0-2_
  6
CONTINUOUS
 62
    3
 10
887.19517002535258
 20
1789.5780991596534
 11
851.19515023016697
 21
1789.5780991596534
  0
LINE
  8
_0-2_
  6
CONTINUOUS
 62
    3
 10
835.19519641893385
 20
1789.5780991596534
 11
835.19519641893385
 21
1811.5784686697884
  0
LINE
  8
_0-2_
  6
CONTINUOUS
 62
    3
 10
845.19522941091009
 20
1789.5780991596534
 11
835.19519641893385
 21
1789.5780991596534
  0
LINE
  8
_0-2_
  6
CONTINUOUS
 62
    3
 10
793.19525580449135
 20
1789.5780991596534
 11
793.19525580449135
 21
1811.5784686697884
  0
LINE
  8
_0-2_
  6
CONTINUOUS
 62
    3
 10
793.19525580449135
 20
1811.5784686697884
 11
829.19502815985402
 21
1811.5784686697884
  0
LINE
  8
_0-2_
  6
CONTINUOUS
 62
    3
 10
829.19502815985402
 20
1811.5784686697884
 11
829.19502815985402
 21
1789.5780991596534
  0
LINE
  8
_0-2_
  6
CONTINUOUS
 62
    3
 10
829.19502815985402
 20
1789.5780991596534
 11
793.19525580449135
 21
1789.5780991596534
  0
LINE
  8
_0-2_
  6
CONTINUOUS
 62
    3
 10
777.19505455343528
 20
1789.5780991596534
 11
777.19505455343528
 21
1811.5784686697884
  0
LINE
  8
_0-2_
  6
CONTINUOUS
 62
    3
 10
777.19505455343528
 20
1811.5784686697884
 11
787.19508754541152
 21
1811.5784686697884
  0
LINE
  8
_0-2_
  6
CONTINUOUS
 62
    3
 10
787.19508754541152
 20
1811.5784686697884
 11
787.19508754541152
 21
1789.5780991596534
  0
LINE
  8
_0-2_
  6
CONTINUOUS
 62
    3
 10
787.19508754541152
 20
1789.5780991596534
 11
777.19505455343528
 21
1789.5780991596534
  0
LINE
  8
_0-2_
  6
CONTINUOUS
 62
    3
 10
931.19541416597849
 20
1781.5783696938588
 11
981.19508424621381
 21
1781.5783696938588
  0
LINE
  8
_0-2_
  6
CONTINUOUS
 62
    3
 10
961.19526570208427
 20
1789.5780991596534
 11
951.19523271010803
 21
1789.5780991596534
  0
LINE
  8
_0-2_
  6
CONTINUOUS
 62
    3
 10
951.19523271010803
 20
1811.5784686697884
 11
961.19526570208427
 21
1811.5784686697884
  0
LINE
  8
_0-2_
  6
CONTINUOUS
 62
    3
 10
1039.1952261117124
 20
1781.5783696938588
 11
989.19530859165411
 21
1781.5783696938588
  0
LINE
  8
_0-2_
  6
CONTINUOUS
 62
    3
 10
1097.1953679772109
 20
1781.5783696938588
 11
1047.1952030173297
 21
1781.5783696938588
  0
LINE
  8
_0-2_
  6
CONTINUOUS
 62
    3
 10
961.19526570208427
 20
1789.5780991596534
 11
961.19526570208427
 21
1811.5784686697884
  0
LINE
  8
_0-2_
  6
CONTINUOUS
 62
    3
 10
1003.1952063165268
 20
1789.5780991596534
 11
1003.1952063165268
 21
1811.5784686697884
  0
LINE
  8
_0-2_
  6
CONTINUOUS
 62
    3
 10
1003.1952063165268
 20
1811.5784686697884
 11
967.1954339611641
 21
1811.5784686697884
  0
LINE
  8
_0-2_
  6
CONTINUOUS
 62
    3
 10
967.1954339611641
 20
1811.5784686697884
 11
967.1954339611641
 21
1789.5780991596534
  0
LINE
  8
_0-2_
  6
CONTINUOUS
 62
    3
 10
967.1954339611641
 20
1789.5780991596534
 11
1003.1952063165268
 21
1789.5780991596534
  0
LINE
  8
_0-2_
  6
CONTINUOUS
 62
    3
 10
1019.1954075675828
 20
1789.5780991596534
 11
1019.1954075675828
 21
1811.5784686697884
  0
LINE
  8
_0-2_
  6
CONTINUOUS
 62
    3
 10
1019.1954075675828
 20
1811.5784686697884
 11
1009.1953745756066
 21
1811.5784686697884
  0
LINE
  8
_0-2_
  6
CONTINUOUS
 62
    3
 10
1009.1953745756066
 20
1811.5784686697884
 11
1009.1953745756066
 21
1789.5780991596534
  0
LINE
  8
_0-2_
  6
CONTINUOUS
 62
    3
 10
1009.1953745756066
 20
1789.5780991596534
 11
1019.1954075675828
 21
1789.5780991596534
  0
LINE
  8
_0-2_
  6
CONTINUOUS
 62
    3
 10
1061.1953481820253
 20
1789.5780991596534
 11
1061.1953481820253
 21
1811.5784686697884
  0
LINE
  8
_0-2_
  6
CONTINUOUS
 62
    3
 10
1061.1953481820253
 20
1811.5784686697884
 11
1025.1953283868397
 21
1811.5784686697884
  0
LINE
  8
_0-2_
  6
CONTINUOUS
 62
    3
 10
1025.1953283868397
 20
1811.5784686697884
 11
1025.1953283868397
 21
1789.5780991596534
  0
LINE
  8
_0-2_
  6
CONTINUOUS
 62
    3
 10
1025.1953283868397
 20
1789.5780991596534
 11
1061.1953481820253
 21
1789.5780991596534
  0
LINE
  8
_0-2_
  6
CONTINUOUS
 62
    3
 10
1077.1953019932585
 20
1789.5780991596534
 11
1077.1953019932585
 21
1811.5784686697884
  0
LINE
  8
_0-2_
  6
CONTINUOUS
 62
    3
 10
1067.1952690012822
 20
1789.5780991596534
 11
1077.1953019932585
 21
1789.5780991596534
  0
LINE
  8
_0-2_
  6
CONTINUOUS
 62
    3
 10
1119.1952426077009
 20
1789.5780991596534
 11
1119.1952426077009
 21
1811.5784686697884
  0
LINE
  8
_0-2_
  6
CONTINUOUS
 62
    3
 10
1119.1952426077009
 20
1811.5784686697884
 11
1083.1954702523383
 21
1811.5784686697884
  0
LINE
  8
_0-2_
  6
CONTINUOUS
 62
    3
 10
1083.1954702523383
 20
1811.5784686697884
 11
1083.1954702523383
 21
1789.5780991596534
  0
LINE
  8
_0-2_
  6
CONTINUOUS
 62
    3
 10
1083.1954702523383
 20
1789.5780991596534
 11
1119.1952426077009
 21
1789.5780991596534
  0
LINE
  8
_0-2_
  6
CONTINUOUS
 62
    3
 10
1047.1952030173297
 20
1781.5783696938588
 11
1047.1952030173297
 21
1759.5782476235468
  0
LINE
  8
_0-2_
  6
CONTINUOUS
 62
    3
 10
1097.1953679772109
 20
1759.5782476235468
 11
1097.1953679772109
 21
1781.5783696938588
  0
LINE
  8
_0-2_
  6
CONTINUOUS
 62
    3
 10
989.19530859165411
 20
1781.5783696938588
 11
989.19530859165411
 21
1759.5782476235468
  0
LINE
  8
_0-2_
  6
CONTINUOUS
 62
    3
 10
1039.1952261117124
 20
1759.5782476235468
 11
1039.1952261117124
 21
1781.5783696938588
  0
LINE
  8
_0-2_
  6
CONTINUOUS
 62
    3
 10
981.19508424621381
 20
1759.5782476235468
 11
981.19508424621381
 21
1781.5783696938588
  0
LINE
  8
_0-2_
  6
CONTINUOUS
 62
    3
 10
865.19529539486257
 20
1781.5783696938588
 11
865.19529539486257
 21
1759.5782476235468
  0
LINE
  8
_0-2_
  6
CONTINUOUS
 62
    3
 10
815.19513043498137
 20
1759.5782476235468
 11
815.19513043498137
 21
1781.5783696938588
  0
LINE
  8
_0-2_
  6
CONTINUOUS
 62
    3
 10
923.19518982053978
 20
1781.5783696938588
 11
923.19518982053978
 21
1759.5782476235468
  0
LINE
  8
_0-2_
  6
CONTINUOUS
 62
    3
 10
873.19527230047993
 20
1759.5782476235468
 11
873.19527230047993
 21
1781.5783696938588
  0
LINE
  8
_0-2_
  6
CONTINUOUS
 62
    3
 10
931.19541416597849
 20
1759.5782476235468
 11
931.19541416597849
 21
1781.5783696938588
  0
LINE
  8
_0-2_
  6
CONTINUOUS
 62
    3
 10
757.19523600930575
 20
1781.5783696938588
 11
807.19490608954266
 21
1781.5783696938588
  0
LINE
  8
_0-2_
  6
CONTINUOUS
 62
    3
 10
807.19490608954266
 20
1759.5782476235468
 11
807.19490608954266
 21
1781.5783696938588
  0
LINE
  8
_0-2_
  6
CONTINUOUS
 62
    3
 10
749.19501166386704
 20
1781.5783696938588
 11
749.19501166386704
 21
1759.5782476235468
  0
LINE
  8
_0-2_
  6
CONTINUOUS
 62
    3
 10
757.19523600930575
 20
1759.5782476235468
 11
757.19523600930575
 21
1781.5783696938588
  0
LINE
  8
_0-2_
  6
CONTINUOUS
 62
    3
 10
699.19497042389662
 20
1759.5782476235468
 11
749.19513538377851
 21
1759.5782476235468
  0
LINE
  8
_0-2_
  6
CONTINUOUS
 62
    3
 10
757.19498856948371
 20
1759.5782476235468
 11
807.1951535293656
 21
1759.5782476235468
  0
LINE
  8
_0-2_
  6
CONTINUOUS
 62
    3
 10
815.19488299515842
 20
1759.5782476235468
 11
865.19504795504122
 21
1759.5782476235468
  0
LINE
  8
_0-2_
  6
CONTINUOUS
 62
    3
 10
873.19490114074551
 20
1759.5782476235468
 11
923.19506610062831
 21
1759.5782476235468
  0
LINE
  8
_0-2_
  6
CONTINUOUS
 62
    3
 10
931.19491928633261
 20
1759.5782476235468
 11
981.19508424621381
 21
1759.5782476235468
  0
LINE
  8
_0-2_
  6
CONTINUOUS
 62
    3
 10
989.1949374319197
 20
1759.5782476235468
 11
1039.1951023918009
 21
1759.5782476235468
  0
LINE
  8
_0-2_
  6
CONTINUOUS
 62
    3
 10
1047.1949555775068
 20
1759.5782476235468
 11
1097.195120537388
 21
1759.5782476235468
  0
LINE
  8
_0-2_
  6
CONTINUOUS
 62
    3
 10
1135.195443858757
 20
1789.5780991596534
 11
1135.195443858757
 21
1811.5784686697884
  0
LINE
  8
_0-2_
  6
CONTINUOUS
 62
    3
 10
1135.195443858757
 20
1811.5784686697884
 11
1125.1954108667808
 21
1811.5784686697884
  0
LINE
  8
_0-2_
  6
CONTINUOUS
 62
    3
 10
1125.1954108667808
 20
1811.5784686697884
 11
1125.1954108667808
 21
1789.5780991596534
  0
LINE
  8
_0-2_
  6
CONTINUOUS
 62
    3
 10
1125.1954108667808
 20
1789.5780991596534
 11
1135.195443858757
 21
1789.5780991596534
  0
LINE
  8
_0-2_
  6
CONTINUOUS
 62
    3
 10
1105.1955923226512
 20
1781.5783696938588
 11
1155.1952624028866
 21
1781.5783696938588
  0
LINE
  8
_0-2_
  6
CONTINUOUS
 62
    3
 10
1163.1954867483269
 20
1781.5783696938588
 11
1163.1954867483269
 21
1759.5782476235468
  0
LINE
  8
_0-2_
  6
CONTINUOUS
 62
    3
 10
1155.1952624028866
 20
1759.5782476235468
 11
1155.1952624028866
 21
1781.5783696938588
  0
LINE
  8
_0-2_
  6
CONTINUOUS
 62
    3
 10
1105.1955923226512
 20
1759.5782476235468
 11
1105.1955923226512
 21
1781.5783696938588
  0
LINE
  8
_0-2_
  6
CONTINUOUS
 62
    3
 10
1105.1950974430054
 20
1759.5782476235468
 11
1155.1952624028866
 21
1759.5782476235468
  0
LINE
  8
_0-2_
  6
CONTINUOUS
 62
    3
 10
931.19491928633261
 20
1819.5781981355824
 11
981.19508424621381
 21
1819.5781981355824
  0
LINE
  8
_0-2_
  6
CONTINUOUS
 62
    3
 10
597.19470813768362
 20
1549.5780496716889
 11
576.83362745250702
 21
1549.5780496716889
  0
LINE
  8
_0-2_
  6
CONTINUOUS
 62
    3
 10
582.08937300518778
 20
1571.5784191818234
 11
597.19470813768362
 21
1571.5784191818234
  0
LINE
  8
_0-2_
  6
CONTINUOUS
 62
    3
 10
591.51014937237528
 20
1601.5782707179305
 11
633.19522281251511
 21
1601.5782707179305
  0
LINE
  8
_0-2_
  6
CONTINUOUS
 62
    3
 10
584.34144655090222
 20
1579.5782723675291
 11
633.19522281251511
 21
1579.5782723675291
  0
LINE
  8
_0-2_
  6
CONTINUOUS
 62
    3
 10
603.72513993667008
 20
1631.5783696938593
 11
613.19490938874037
 21
1631.5783696938593
  0
LINE
  8
_0-2_
  6
CONTINUOUS
 62
    3
 10
603.19487639676345
 20
1609.5780001837238
 11
603.19487639676345
 21
1630.4124332496026
  0
LINE
  8
_0-2_
  6
CONTINUOUS
 62
    3
 10
607.49018427788701
 20
1639.5783465994755
 11
633.19522281251511
 21
1639.5783465994755
  0
LINE
  8
_0-2_
  6
CONTINUOUS
 62
    3
 10
619.03770592062392
 20
1661.5783449498765
 11
633.19522281251511
 21
1661.5783449498765
  0
LINE
  8
_0-2_
  6
CONTINUOUS
 62
    3
 10
623.69675034102079
 20
1669.5780744156709
 11
655.19509744300512
 21
1669.5780744156709
  0
LINE
  8
_0-2_
  6
CONTINUOUS
 62
    3
 10
637.89484736382428
 20
1691.5784439258064
 11
655.19509744300512
 21
1691.5784439258064
  0
LINE
  8
_0-2_
  6
CONTINUOUS
 62
    3
 10
643.60093339370155
 20
1699.5782971115111
 11
691.19511723819141
 21
1699.5782971115111
  0
LINE
  8
_0-2_
  6
CONTINUOUS
 62
    3
 10
660.97479682011704
 20
1721.5784191818241
 11
691.19511723819141
 21
1721.5784191818241
  0
LINE
  8
_0-2_
  6
CONTINUOUS
 62
    3
 10
677.19521951331808
 20
1729.578148647618
 11
677.19521951331808
 21
1739.493062340608
  0
LINE
  8
_0-2_
  6
CONTINUOUS
 62
    3
 10
689.37123830554719
 20
1751.5785181577528
 11
713.19499186868075
 21
1751.5785181577528
  0
LINE
  8
_0-2_
  6
CONTINUOUS
 62
    3
 10
699.19509414380718
 20
1759.5782476235468
 11
699.19509414380718
 21
1760.5905239379476
  0
LINE
  8
_0-2_
  6
CONTINUOUS
 62
    3
 10
725.0348636618603
 20
1781.5783696938588
 11
749.19501166386704
 21
1781.5783696938588
  0
LINE
  8
_0-2_
  6
CONTINUOUS
 62
    3
 10
771.1951337341784
 20
1789.5780991596534
 11
736.20590561445761
 21
1789.5780991596534
  0
LINE
  8
_0-2_
  6
CONTINUOUS
 62
    3
 10
771.1951337341784
 20
1811.0647835979978
 11
771.1951337341784
 21
1789.5780991596534
  0
LINE
  8
_0-2_
  6
CONTINUOUS
 62
    3
 10
787.80515042811999
 20
1819.5781981355824
 11
807.1951535293656
 21
1819.5781981355824
  0
LINE
  8
_0-2_
  6
CONTINUOUS
 62
    3
 10
807.19490608954266
 20
1819.5781981355824
 11
807.19490608954266
 21
1828.2863478135807
  0
LINE
  8
_0-2_
  6
CONTINUOUS
 62
    3
 10
815.19513043498137
 20
1819.5781981355824
 11
815.19513043498137
 21
1831.5146951795014
  0
LINE
  8
_0-2_
  6
CONTINUOUS
 62
    3
 10
815.19488299515842
 20
1819.5781981355824
 11
837.7677045349601
 21
1819.5781981355824
  0
LINE
  8
_0-2_
  6
CONTINUOUS
 62
    3
 10
874.21212625159956
 20
1819.5781981355824
 11
923.19506610062831
 21
1819.5781981355824
  0
LINE
  8
_0-2_
  6
CONTINUOUS
 62
    3
 10
923.19518982053978
 20
1827.5561528969843
 11
923.19518982053978
 21
1819.5781981355824
  0
LINE
  8
_0-2_
  6
CONTINUOUS
 62
    3
 10
931.19541416597849
 20
1819.5781981355824
 11
931.19541416597849
 21
1828.2054349915793
  0
LINE
  8
_0-2_
  6
CONTINUOUS
 62
    3
 10
981.19508424621381
 20
1819.5781981355824
 11
981.19508424621381
 21
1828.2054349915793
  0
LINE
  8
_0-2_
  6
CONTINUOUS
 62
    3
 10
989.19530859165411
 20
1827.5561528969843
 11
989.19530859165411
 21
1819.5781981355824
  0
LINE
  8
_0-2_
  6
CONTINUOUS
 62
    3
 10
989.1949374319197
 20
1819.5781981355824
 11
1038.1783721605943
 21
1819.5781981355824
  0
LINE
  8
_0-2_
  6
CONTINUOUS
 62
    3
 10
1074.6227938772322
 20
1819.5781981355824
 11
1097.195120537388
 21
1819.5781981355824
  0
LINE
  8
_0-2_
  6
CONTINUOUS
 62
    3
 10
1074.6227938772322
 20
1819.5781981355824
 11
1080.323683670834
 21
1837.6591208551772
  0
LINE
  8
_0-2_
  6
CONTINUOUS
 62
    3
 10
1097.1953679772109
 20
1819.5781981355824
 11
1097.1953679772109
 21
1831.5146951795014
  0
LINE
  8
_0-2_
  6
CONTINUOUS
 62
    3
 10
1105.1955923226512
 20
1819.5781981355824
 11
1105.1955923226512
 21
1828.2863478135807
  0
LINE
  8
_0-2_
  6
CONTINUOUS
 62
    3
 10
1105.1950974430054
 20
1819.5781981355824
 11
1124.5853479840739
 21
1819.5781981355824
  0
LINE
  8
_0-2_
  6
CONTINUOUS
 62
    3
 10
1163.1951155885924
 20
1759.5782476235468
 11
1213.1952805484736
 21
1759.5782476235468
  0
LINE
  8
_0-2_
  6
CONTINUOUS
 62
    3
 10
1213.1954042683851
 20
1759.5782476235468
 11
1213.1954042683851
 21
1760.5905239379476
  0
LINE
  8
_0-2_
  6
CONTINUOUS
 62
    3
 10
1223.019260106646
 20
1751.5785181577528
 11
1199.1957539833338
 21
1751.5785181577528
  0
LINE
  8
_0-2_
  6
CONTINUOUS
 62
    3
 10
1235.1955263386981
 20
1729.578148647618
 11
1235.1955263386981
 21
1739.4928149007851
  0
LINE
  8
_0-2_
  6
CONTINUOUS
 62
    3
 10
837.7677045349601
 20
1819.5781981355824
 11
832.06681474135826
 21
1837.6591208551772
  0
LINE
  8
_0-2_
  6
CONTINUOUS
 62
    3
 10
1141.1956121178353
 20
1811.0647835979978
 11
1141.1956121178353
 21
1789.5780991596534
  0
LINE
  8
_0-2_
  6
CONTINUOUS
 62
    3
 10
1141.1956121178353
 20
1789.5780991596534
 11
1176.1845927977356
 21
1789.5780991596534
  0
LINE
  8
_0-2_
  6
CONTINUOUS
 62
    3
 10
1187.355634750332
 20
1781.5783696938588
 11
1163.1954867483269
 21
1781.5783696938588
  0
LINE
  8
_0-2_
  6
CONTINUOUS
 62
    3
 10
1251.4157015920762
 20
1721.5784191818241
 11
1221.1953811740009
 21
1721.5784191818241
  0
LINE
  8
_0-2_
  6
CONTINUOUS
 62
    3
 10
1221.1951337341795
 20
1699.5782971115111
 11
1268.7895650184907
 21
1699.5782971115111
  0
LINE
  8
_0-2_
  6
CONTINUOUS
 62
    3
 10
1274.495651048368
 20
1691.5784439258064
 11
1257.1954009691881
 21
1691.5784439258064
  0
LINE
  8
_0-2_
  6
CONTINUOUS
 62
    3
 10
1288.6937480711724
 20
1669.5780744156709
 11
1257.1954009691881
 21
1669.5780744156709
  0
LINE
  8
_0-2_
  6
CONTINUOUS
 62
    3
 10
1293.3527924915693
 20
1661.5783449498765
 11
1279.1952755996781
 21
1661.5783449498765
  0
LINE
  8
_0-2_
  6
CONTINUOUS
 62
    3
 10
1279.1950281598552
 20
1639.5783465994755
 11
1304.9003141343062
 21
1639.5783465994755
  0
LINE
  8
_0-2_
  6
CONTINUOUS
 62
    3
 10
1309.1956220154298
 20
1609.5780001837238
 11
1309.1956220154298
 21
1630.4124332496026
  0
LINE
  8
_0-2_
  6
CONTINUOUS
 62
    3
 10
1308.6653584755215
 20
1631.5783696938593
 11
1299.1955890234519
 21
1631.5783696938593
  0
LINE
  8
_0-2_
  6
CONTINUOUS
 62
    3
 10
1320.8803490398163
 20
1601.5782707179305
 11
1279.1952755996781
 21
1601.5782707179305
  0
LINE
  8
_0-2_
  6
CONTINUOUS
 62
    3
 10
1279.1950281598552
 20
1579.5782723675291
 11
1328.0490518612901
 21
1579.5782723675291
  0
LINE
  8
_0-2_
  6
CONTINUOUS
 62
    3
 10
1330.3011254070038
 20
1571.5784191818234
 11
1315.195790274508
 21
1571.5784191818234
  0
LINE
  8
_0-2_
  6
CONTINUOUS
 62
    3
 10
1315.195790274508
 20
1549.5780496716889
 11
1335.5568709596862
 21
1549.5780496716889
  0
LINE
  8
_0-2_
  6
CONTINUOUS
 62
    3
 10
835.19519641893385
 20
1811.5784686697884
 11
845.19522941091009
 21
1811.5784686697884
  0
LINE
  8
_0-2_
  6
CONTINUOUS
 62
    3
 10
845.19522941091009
 20
1811.5784686697884
 11
845.19522941091009
 21
1789.5780991596534
  0
LINE
  8
_0-2_
  6
CONTINUOUS
 62
    3
 10
1067.1952690012822
 20
1811.5784686697884
 11
1067.1952690012822
 21
1789.5780991596534
  0
LINE
  8
_0-2_
  6
CONTINUOUS
 62
    3
 10
1077.1953019932585
 20
1811.5784686697884
 11
1067.1952690012822
 21
1811.5784686697884
  0
LINE
  8
_0-1_
  6
CENTER1
 62
    2
 10
541.38106826490093
 20
1862.3328302090622
 11
565.85633088103259
 21
1886.8080928251941
  0
LINE
  8
_0-1_
  6
CONTINUOUS
 62
    2
 10
550.08303194733367
 20
1798.9083125517566
 11
520.19527065088073
 21
1831.2952160568241
  0
LINE
  8
_0-1_
  6
CONTINUOUS
 62
    2
 10
543.012191575712
 20
1791.8374721801342
 11
550.08315566724514
 21
1798.9083125517566
  0
LINE
  8
_0-1_
  6
CONTINUOUS
 62
    2
 10
609.44310307803494
 20
1725.4065606778122
 11
543.012191575712
 21
1791.8374721801342
  0
LINE
  8
_0-1_
  6
CONTINUOUS
 62
    2
 10
613.93203262036991
 20
1735.0594355986311
 11
550.08315566724514
 21
1798.9083125517566
  0
LINE
  8
_0-1_
  6
CONTINUOUS
 62
    2
 10
615.06159541069974
 20
1736.7583574208443
 11
522.19532673724052
 21
1829.6245023743916
  0
LINE
  8
_0-1_
  6
CONTINUOUS
 62
    2
 10
522.19532673724052
 20
1831.2952160568241
 11
522.19532673724052
 21
1829.6245023743916
  0
LINE
  8
_0-1_
  6
CONTINUOUS
 62
    2
 10
529.02367608267946
 20
1802.9975030606245
 11
607.74183057750656
 21
1724.2792248458863
  0
LINE
  8
_0-1_
  6
CONTINUOUS
 62
    2
 10
627.86512159313156
 20
1876.690278477643
 11
595.47821808806407
 21
1906.5780397740959
  0
LINE
  8
_0-1_
  6
CONTINUOUS
 62
    2
 10
634.93596196475346
 20
1883.7611188492647
 11
627.86512159313156
 21
1876.690278477643
  0
LINE
  8
_0-1_
  6
CONTINUOUS
 62
    2
 10
595.47821808806407
 20
1904.5779836877362
 11
597.14893177049657
 21
1904.5779836877362
  0
LINE
  8
_0-1_
  6
CONTINUOUS
 62
    2
 10
691.42931903031513
 20
1813.1262047603714
 11
627.86512159313156
 21
1876.690278477643
  0
LINE
  8
_0-1_
  6
CONTINUOUS
 62
    2
 10
701.07984327281906
 20
1817.6172375411988
 11
634.93596196475346
 21
1883.7611188492647
  0
LINE
  8
_0-1_
  6
CONTINUOUS
 62
    2
 10
623.77593108426368
 20
1897.7496343422968
 11
702.49420929900134
 21
1819.0316035673816
  0
LINE
  8
_0-1_
  6
CONTINUOUS
 62
    2
 10
690.01507672404341
 20
1811.7118387341889
 11
597.14893177049657
 21
1904.5779836877362
  0
LINE
  8
_0-1_
  6
CONTINUOUS
 62
    2
 10
574.5680684364595
 20
1842.154607552812
 11
644.08319360801784
 21
1768.7654407981672
  0
LINE
  8
_0-1_
  6
CONTINUOUS
 62
    2
 10
648.98633741344429
 20
1770.7162563598226
 11
575.98626977989284
 21
1843.7164477132851
  0
LINE
  8
_0-1_
  6
CONTINUOUS
 62
    2
 10
584.61882659207618
 20
1852.2053657084286
 11
658.00799334672138
 21
1782.6901168169593
  0
LINE
  8
_0-1_
  6
CONTINUOUS
 62
    2
 10
656.05717778506596
 20
1777.7870967314434
 11
583.05698643160304
 21
1850.7870406450838
  0
LINE
  8
_0-1_
  6
CENTER1
 62
    2
 10
566.19903503538285
 20
1860.5745228294168
 11
539.23799196105801
 21
1887.5355659037411
  0
LINE
  8
_0-1_
  6
CONTINUOUS
 62
    2
 10
526.83111181431013
 20
1806.0128047392568
 11
543.01206785580052
 21
1791.8374721801342
  0
LINE
  8
_0-1_
  6
CONTINUOUS
 62
    2
 10
620.76075312554326
 20
1899.9421986106665
 11
634.93596196475346
 21
1883.7613662890869
  0
LINE
  8
_0-1_
  6
CONTINUOUS
 62
    2
 10
626.60441569680552
 20
1904.5779836877362
 11
838.89219480892598
 21
1904.5779836877362
  0
LINE
  8
_0-1_
  6
CONTINUOUS
 62
    2
 10
595.47821808806407
 20
1906.5780397740959
 11
838.89219480892598
 21
1906.5780397740959
  0
LINE
  8
_0-1_
  6
CENTER1
 62
    2
 10
1371.0095538672028
 20
1862.3328302090622
 11
1346.5342912510705
 21
1886.8080928251941
  0
LINE
  8
_0-1_
  6
CONTINUOUS
 62
    2
 10
1362.3075901847701
 20
1798.9083125517566
 11
1392.195351481223
 21
1831.2952160568241
  0
LINE
  8
_0-1_
  6
CONTINUOUS
 62
    2
 10
1369.3784305563927
 20
1791.8374721801342
 11
1362.3073427449472
 21
1798.9083125517566
  0
LINE
  8
_0-1_
  6
CONTINUOUS
 62
    2
 10
1302.9472716142475
 20
1725.4065606778122
 11
1369.3784305563927
 21
1791.8374721801342
  0
LINE
  8
_0-1_
  6
CONTINUOUS
 62
    2
 10
1298.4584657918233
 20
1735.0594355986311
 11
1362.3073427449472
 21
1798.9083125517566
  0
LINE
  8
_0-1_
  6
CONTINUOUS
 62
    2
 10
1297.3289030014935
 20
1736.7583574208443
 11
1390.1950479550412
 21
1829.6245023743916
  0
LINE
  8
_0-1_
  6
CONTINUOUS
 62
    2
 10
1390.1950479550412
 20
1831.2952160568241
 11
1390.1950479550412
 21
1829.6245023743916
  0
LINE
  8
_0-1_
  6
CONTINUOUS
 62
    2
 10
1383.3666986096014
 20
1802.9975030606245
 11
1304.6486678346857
 21
1724.2792248458863
  0
LINE
  8
_0-1_
  6
CONTINUOUS
 62
    2
 10
1284.5253768190607
 20
1876.690278477643
 11
1316.9122803241282
 21
1906.5780397740959
  0
LINE
  8
_0-1_
  6
CONTINUOUS
 62
    2
 10
1277.4545364474398
 20
1883.7611188492647
 11
1284.5253768190607
 21
1876.690278477643
  0
LINE
  8
_0-1_
  6
CONTINUOUS
 62
    2
 10
1316.9122803241282
 20
1904.5779836877362
 11
1315.241566641695
 21
1904.5779836877362
  0
LINE
  8
_0-1_
  6
CONTINUOUS
 62
    2
 10
1220.9610556619657
 20
1813.1262047603714
 11
1284.5253768190607
 21
1876.690278477643
  0
LINE
  8
_0-1_
  6
CONTINUOUS
 62
    2
 10
1211.3106551393741
 20
1817.6172375411988
 11
1277.4545364474398
 21
1883.7611188492647
  0
LINE
  8
_0-1_
  6
CONTINUOUS
 62
    2
 10
1288.6145673279295
 20
1897.7496343422968
 11
1209.896289113191
 21
1819.0316035673816
  0
LINE
  8
_0-1_
  6
CONTINUOUS
 62
    2
 10
1222.3754216881489
 20
1811.7118387341889
 11
1315.241566641695
 21
1904.5779836877362
  0
LINE
  8
_0-1_
  6
CONTINUOUS
 62
    2
 10
1337.8224299757328
 20
1842.154607552812
 11
1268.307181084263
 21
1768.7654407981672
  0
LINE
  8
_0-1_
  6
CONTINUOUS
 62
    2
 10
1263.4041609987489
 20
1770.7162563598226
 11
1336.4041049123889
 21
1843.7164477132851
  0
LINE
  8
_0-1_
  6
CONTINUOUS
 62
    2
 10
1327.771671820117
 20
1852.2053657084286
 11
1254.3825050654709
 21
1782.6901168169593
  0
LINE
  8
_0-1_
  6
CONTINUOUS
 62
    2
 10
1256.3333206271263
 20
1777.7870967314434
 11
1329.3335119805893
 21
1850.7870406450838
  0
LINE
  8
_0-1_
  6
CENTER1
 62
    2
 10
1346.1913396568989
 20
1860.5745228294168
 11
1373.1523827312228
 21
1887.5355659037411
  0
LINE
  8
_0-1_
  6
CONTINUOUS
 62
    2
 10
1385.5595103177936
 20
1806.0128047392568
 11
1369.3784305563927
 21
1791.8374721801342
  0
LINE
  8
_0-1_
  6
CONTINUOUS
 62
    2
 10
1291.6298690065605
 20
1899.9421986106665
 11
1277.4545364474398
 21
1883.7613662890869
  0
LINE
  8
_0-1_
  6
CONTINUOUS
 62
    2
 10
1390.1950479550412
 20
1800.1690184480826
 11
1390.1950479550412
 21
1587.8813630558736
  0
LINE
  8
_0-1_
  6
CONTINUOUS
 62
    2
 10
1392.195351481223
 20
1831.2952160568241
 11
1392.195351481223
 21
1587.8813630558736
  0
LINE
  8
_0-1_
  6
CONTINUOUS
 62
    2
 10
1285.7860827153877
 20
1904.5779836877362
 11
1073.4983036032663
 21
1904.5779836877362
  0
LINE
  8
_0-1_
  6
CONTINUOUS
 62
    2
 10
1316.9122803241282
 20
1906.5780397740959
 11
1073.4983036032663
 21
1906.5780397740959
  0
LINE
  8
_0-1_
  6
CONTINUOUS
 62
    2
 10
1406.1952492060957
 20
1845.5781849387918
 11
1406.1952492060957
 21
1095.5781849387918
  0
LINE
  8
_0-2_
  6
CONTINUOUS
 62
    3
 10
873.19527230047993
 20
1721.5784191818241
 11
923.19518982053978
 21
1721.5784191818241
  0
LINE
  8
_0-2_
  6
CONTINUOUS
 62
    3
 10
931.19541416597849
 20
1721.5784191818241
 11
981.19508424621381
 21
1721.5784191818241
  0
LINE
  8
_0-2_
  6
CONTINUOUS
 62
    3
 10
1039.1952261117124
 20
1721.5784191818241
 11
989.19530859165411
 21
1721.5784191818241
  0
LINE
  8
_0-2_
  6
CONTINUOUS
 62
    3
 10
989.19530859165411
 20
1721.5784191818241
 11
989.19530859165411
 21
1699.5782971115111
  0
LINE
  8
_0-2_
  6
CONTINUOUS
 62
    3
 10
1039.1952261117124
 20
1699.5782971115111
 11
1039.1952261117124
 21
1721.5784191818241
  0
LINE
  8
_0-2_
  6
CONTINUOUS
 62
    3
 10
981.19508424621381
 20
1699.5782971115111
 11
981.19508424621381
 21
1721.5784191818241
  0
LINE
  8
_0-2_
  6
CONTINUOUS
 62
    3
 10
923.19518982053978
 20
1721.5784191818241
 11
923.19518982053978
 21
1699.5782971115111
  0
LINE
  8
_0-2_
  6
CONTINUOUS
 62
    3
 10
873.19527230047993
 20
1699.5782971115111
 11
873.19527230047993
 21
1721.5784191818241
  0
LINE
  8
_0-2_
  6
CONTINUOUS
 62
    3
 10
931.19541416597849
 20
1699.5782971115111
 11
931.19541416597849
 21
1721.5784191818241
  0
LINE
  8
_0-2_
  6
CONTINUOUS
 62
    3
 10
873.19490114074551
 20
1699.5782971115111
 11
923.19506610062831
 21
1699.5782971115111
  0
LINE
  8
_0-2_
  6
CONTINUOUS
 62
    3
 10
931.19491928633261
 20
1699.5782971115111
 11
981.19508424621381
 21
1699.5782971115111
  0
LINE
  8
_0-2_
  6
CONTINUOUS
 62
    3
 10
989.1949374319197
 20
1699.5782971115111
 11
1039.1951023918009
 21
1699.5782971115111
  0
LINE
  8
_0-2_
  6
CONTINUOUS
 62
    3
 10
873.19527230047993
 20
1661.5783449498765
 11
923.19518982053978
 21
1661.5783449498765
  0
LINE
  8
_0-2_
  6
CONTINUOUS
 62
    3
 10
931.19541416597849
 20
1661.5783449498765
 11
981.19508424621381
 21
1661.5783449498765
  0
LINE
  8
_0-2_
  6
CONTINUOUS
 62
    3
 10
1039.1952261117124
 20
1661.5783449498765
 11
989.19530859165411
 21
1661.5783449498765
  0
LINE
  8
_0-2_
  6
CONTINUOUS
 62
    3
 10
989.19530859165411
 20
1661.5783449498765
 11
989.19530859165411
 21
1639.5782228795638
  0
LINE
  8
_0-2_
  6
CONTINUOUS
 62
    3
 10
1039.1952261117124
 20
1639.5782228795638
 11
1039.1952261117124
 21
1661.5783449498765
  0
LINE
  8
_0-2_
  6
CONTINUOUS
 62
    3
 10
981.19508424621381
 20
1639.5782228795638
 11
981.19508424621381
 21
1661.5783449498765
  0
LINE
  8
_0-2_
  6
CONTINUOUS
 62
    3
 10
923.19518982053978
 20
1661.5783449498765
 11
923.19518982053978
 21
1639.5782228795638
  0
LINE
  8
_0-2_
  6
CONTINUOUS
 62
    3
 10
873.19527230047993
 20
1639.5782228795638
 11
873.19527230047993
 21
1661.5783449498765
  0
LINE
  8
_0-2_
  6
CONTINUOUS
 62
    3
 10
931.19541416597849
 20
1639.5782228795638
 11
931.19541416597849
 21
1661.5783449498765
  0
LINE
  8
_0-2_
  6
CONTINUOUS
 62
    3
 10
873.19490114074551
 20
1639.5782228795638
 11
923.19506610062831
 21
1639.5782228795638
  0
LINE
  8
_0-2_
  6
CONTINUOUS
 62
    3
 10
931.19491928633261
 20
1639.5782228795638
 11
981.19508424621381
 21
1639.5782228795638
  0
LINE
  8
_0-2_
  6
CONTINUOUS
 62
    3
 10
989.1949374319197
 20
1639.5782228795638
 11
1039.1951023918009
 21
1639.5782228795638
  0
LINE
  8
_0-2_
  6
CONTINUOUS
 62
    3
 10
951.19523271010803
 20
1669.5780744156709
 11
951.19523271010803
 21
1691.5784439258064
  0
LINE
  8
_0-2_
  6
CONTINUOUS
 62
    3
 10
909.19529209566554
 20
1669.5780744156709
 11
909.19529209566554
 21
1691.5784439258064
  0
LINE
  8
_0-2_
  6
CONTINUOUS
 62
    3
 10
909.19529209566554
 20
1691.5784439258064
 11
945.1950644510282
 21
1691.5784439258064
  0
LINE
  8
_0-2_
  6
CONTINUOUS
 62
    3
 10
945.1950644510282
 20
1691.5784439258064
 11
945.1950644510282
 21
1669.5780744156709
  0
LINE
  8
_0-2_
  6
CONTINUOUS
 62
    3
 10
945.1950644510282
 20
1669.5780744156709
 11
909.19529209566554
 21
1669.5780744156709
  0
LINE
  8
_0-2_
  6
CONTINUOUS
 62
    3
 10
893.19509084460947
 20
1669.5780744156709
 11
893.19509084460947
 21
1691.5784439258064
  0
LINE
  8
_0-2_
  6
CONTINUOUS
 62
    3
 10
893.19509084460947
 20
1691.5784439258064
 11
903.19512383658571
 21
1691.5784439258064
  0
LINE
  8
_0-2_
  6
CONTINUOUS
 62
    3
 10
903.19512383658571
 20
1691.5784439258064
 11
903.19512383658571
 21
1669.5780744156709
  0
LINE
  8
_0-2_
  6
CONTINUOUS
 62
    3
 10
903.19512383658571
 20
1669.5780744156709
 11
893.19509084460947
 21
1669.5780744156709
  0
LINE
  8
_0-2_
  6
CONTINUOUS
 62
    3
 10
851.19515023016697
 20
1669.5780744156709
 11
851.19515023016697
 21
1691.5784439258064
  0
LINE
  8
_0-2_
  6
CONTINUOUS
 62
    3
 10
851.19515023016697
 20
1691.5784439258064
 11
887.19517002535258
 21
1691.5784439258064
  0
LINE
  8
_0-2_
  6
CONTINUOUS
 62
    3
 10
887.19517002535258
 20
1691.5784439258064
 11
887.19517002535258
 21
1669.5780744156709
  0
LINE
  8
_0-2_
  6
CONTINUOUS
 62
    3
 10
887.19517002535258
 20
1669.5780744156709
 11
851.19515023016697
 21
1669.5780744156709
  0
LINE
  8
_0-2_
  6
CONTINUOUS
 62
    3
 10
961.19526570208427
 20
1669.5780744156709
 11
951.19523271010803
 21
1669.5780744156709
  0
LINE
  8
_0-2_
  6
CONTINUOUS
 62
    3
 10
951.19523271010803
 20
1691.5784439258064
 11
961.19526570208427
 21
1691.5784439258064
  0
LINE
  8
_0-2_
  6
CONTINUOUS
 62
    3
 10
961.19526570208427
 20
1669.5780744156709
 11
961.19526570208427
 21
1691.5784439258064
  0
LINE
  8
_0-2_
  6
CONTINUOUS
 62
    3
 10
1003.1952063165268
 20
1669.5780744156709
 11
1003.1952063165268
 21
1691.5784439258064
  0
LINE
  8
_0-2_
  6
CONTINUOUS
 62
    3
 10
1003.1952063165268
 20
1691.5784439258064
 11
967.1954339611641
 21
1691.5784439258064
  0
LINE
  8
_0-2_
  6
CONTINUOUS
 62
    3
 10
967.1954339611641
 20
1691.5784439258064
 11
967.1954339611641
 21
1669.5780744156709
  0
LINE
  8
_0-2_
  6
CONTINUOUS
 62
    3
 10
967.1954339611641
 20
1669.5780744156709
 11
1003.1952063165268
 21
1669.5780744156709
  0
LINE
  8
_0-2_
  6
CONTINUOUS
 62
    3
 10
1019.1954075675828
 20
1669.5780744156709
 11
1019.1954075675828
 21
1691.5784439258064
  0
LINE
  8
_0-2_
  6
CONTINUOUS
 62
    3
 10
1019.1954075675828
 20
1691.5784439258064
 11
1009.1953745756066
 21
1691.5784439258064
  0
LINE
  8
_0-2_
  6
CONTINUOUS
 62
    3
 10
1009.1953745756066
 20
1691.5784439258064
 11
1009.1953745756066
 21
1669.5780744156709
  0
LINE
  8
_0-2_
  6
CONTINUOUS
 62
    3
 10
1009.1953745756066
 20
1669.5780744156709
 11
1019.1954075675828
 21
1669.5780744156709
  0
LINE
  8
_0-2_
  6
CONTINUOUS
 62
    3
 10
1061.1953481820253
 20
1669.5780744156709
 11
1061.1953481820253
 21
1691.5784439258064
  0
LINE
  8
_0-2_
  6
CONTINUOUS
 62
    3
 10
1061.1953481820253
 20
1691.5784439258064
 11
1025.1953283868397
 21
1691.5784439258064
  0
LINE
  8
_0-2_
  6
CONTINUOUS
 62
    3
 10
1025.1953283868397
 20
1691.5784439258064
 11
1025.1953283868397
 21
1669.5780744156709
  0
LINE
  8
_0-2_
  6
CONTINUOUS
 62
    3
 10
1025.1953283868397
 20
1669.5780744156709
 11
1061.1953481820253
 21
1669.5780744156709
  0
LINE
  8
_0-2_
  6
CONTINUOUS
 62
    3
 10
865.19529539486257
 20
1541.5783202058944
 11
865.19529539486257
 21
1519.5783218554934
  0
LINE
  8
_0-2_
  6
CONTINUOUS
 62
    3
 10
1047.1952030173297
 20
1541.5783202058944
 11
1047.1952030173297
 21
1519.5783218554934
  0
ARC
  8
_0-2_
  6
CONTINUOUS
 62
    3
 10
956.19524920609615
 20
1470.5781849387915
 40
366.49997814281551
 50
72.500015258789063
 51
107.5
  0
ARC
  8
_0-2_
  6
CONTINUOUS
 62
    3
 10
956.19524920609615
 20
1470.5781849387915
 40
387.49994845003698
 50
173.92637634277344
 51
177.18952941894531
  0
ARC
  8
_0-2_
  6
CONTINUOUS
 62
    3
 10
956.19524920609615
 20
1470.5781849387915
 40
389.49994267644109
 50
72.500015258789063
 51
107.5
  0
ARC
  8
_0-2_
  6
CONTINUOUS
 62
    3
 10
956.19524920609615
 20
1470.5781849387915
 40
387.49994845003698
 50
2.8104705810546875
 51
6.0736236572265616
  0
ARC
  8
_0-2_
  6
CONTINUOUS
 62
    3
 10
956.19524920609615
 20
1470.5781849387915
 40
358.4999703072213
 50
95.281570434570313
 51
103.21958923339844
  0
ARC
  8
_0-2_
  6
CONTINUOUS
 62
    3
 10
956.19524920609615
 20
1470.5781849387915
 40
358.4999703072213
 50
86.001266479492173
 51
93.998733520507813
  0
ARC
  8
_0-2_
  6
CONTINUOUS
 62
    3
 10
956.19524920609615
 20
1470.5781849387915
 40
358.4999703072213
 50
76.780410766601563
 51
84.718429565429687
  0
ARC
  8
_0-2_
  6
CONTINUOUS
 62
    3
 10
956.19524920609615
 20
1470.5781849387915
 40
387.49997938001468
 50
11.763397216796875
 51
15.108383178710938
  0
ARC
  8
_0-2_
  6
CONTINUOUS
 62
    3
 10
956.19524920609615
 20
1470.5781849387915
 40
387.49997938001468
 50
16.337249755859375
 51
19.759017944335937
  0
ARC
  8
_0-2_
  6
CONTINUOUS
 62
    3
 10
956.19524920609615
 20
1470.5781849387915
 40
387.49997938001468
 50
24.360443115234375
 51
24.549819946289063
  0
ARC
  8
_0-2_
  6
CONTINUOUS
 62
    3
 10
956.19524920609615
 20
1470.5781849387915
 40
387.49997938001468
 50
25.857177734375004
 51
29.531600952148445
  0
ARC
  8
_0-2_
  6
CONTINUOUS
 62
    3
 10
956.19524920609615
 20
1470.5781849387915
 40
387.49997938001468
 50
30.900466918945313
 51
34.77276611328125
  0
ARC
  8
_0-2_
  6
CONTINUOUS
 62
    3
 10
956.19524920609615
 20
1470.5781849387915
 40
387.49997938001468
 50
36.225738525390625
 51
40.371612548828125
  0
ARC
  8
_0-2_
  6
CONTINUOUS
 62
    3
 10
956.19524920609615
 20
1470.5781849387915
 40
387.49997938001468
 50
43.945449829101563
 51
46.482345581054688
  0
ARC
  8
_0-2_
  6
CONTINUOUS
 62
    3
 10
956.19524920609615
 20
1470.5781849387915
 40
387.49997938001468
 50
48.45361328125
 51
53.377288818359375
  0
ARC
  8
_0-2_
  6
CONTINUOUS
 62
    3
 10
956.19524920609615
 20
1470.5781849387915
 40
387.49997938001468
 50
55.40899658203125
 51
61.482955932617188
  0
ARC
  8
_0-2_
  6
CONTINUOUS
 62
    3
 10
956.19524920609615
 20
1470.5781849387915
 40
387.49997938001468
 50
64.243011474609375
 51
67.386245727539063
  0
ARC
  8
_0-2_
  6
CONTINUOUS
 62
    3
 10
956.19524920609615
 20
1470.5781849387915
 40
387.49997938001468
 50
68.661865234375
 51
71.317031860351563
  0
ARC
  8
_0-2_
  6
CONTINUOUS
 62
    3
 10
956.19524920609615
 20
1470.5781849387915
 40
387.49997938001468
 50
108.68296813964844
 51
111.338134765625
  0
ARC
  8
_0-2_
  6
CONTINUOUS
 62
    3
 10
956.19524920609615
 20
1470.5781849387915
 40
387.49997938001468
 50
112.61375427246095
 51
115.75698852539064
  0
ARC
  8
_0-2_
  6
CONTINUOUS
 62
    3
 10
956.19524920609615
 20
1470.5781849387915
 40
387.49997938001468
 50
118.51701354980467
 51
124.59100341796874
  0
ARC
  8
_0-2_
  6
CONTINUOUS
 62
    3
 10
956.19524920609615
 20
1470.5781849387915
 40
387.49997938001468
 50
126.62271118164062
 51
131.54638671875
  0
ARC
  8
_0-2_
  6
CONTINUOUS
 62
    3
 10
956.19524920609615
 20
1470.5781849387915
 40
387.49997938001468
 50
133.51765441894531
 51
136.05448913574219
  0
ARC
  8
_0-2_
  6
CONTINUOUS
 62
    3
 10
956.19524920609615
 20
1470.5781849387915
 40
387.49997938001468
 50
139.62838745117187
 51
143.77426147460938
  0
ARC
  8
_0-2_
  6
CONTINUOUS
 62
    3
 10
956.19524920609615
 20
1470.5781849387915
 40
387.49997938001468
 50
145.22723388671875
 51
149.09953308105469
  0
ARC
  8
_0-2_
  6
CONTINUOUS
 62
    3
 10
956.19524920609615
 20
1470.5781849387915
 40
387.49997938001468
 50
150.46839904785156
 51
154.14282226562497
  0
ARC
  8
_0-2_
  6
CONTINUOUS
 62
    3
 10
956.19524920609615
 20
1470.5781849387915
 40
387.49997938001468
 50
155.45018005371094
 51
155.63955688476562
  0
ARC
  8
_0-2_
  6
CONTINUOUS
 62
    3
 10
956.19524920609615
 20
1470.5781849387915
 40
387.49997938001468
 50
160.24098205566409
 51
163.66275024414062
  0
ARC
  8
_0-2_
  6
CONTINUOUS
 62
    3
 10
956.19524920609615
 20
1470.5781849387915
 40
387.49997938001468
 50
164.89161682128906
 51
168.23660278320312
  0
ARC
  8
_0-1_
  6
CONTINUOUS
 62
    2
 10
581.19524920609638
 20
1845.5781849387918
 40
75
 50
90
 51
180
  0
ARC
  8
_0-1_
  6
CONTINUOUS
 62
    2
 10
581.19524920609638
 20
1845.5781849387918
 40
73.499996597702449
 50
90
 51
180
  0
CIRCLE
  8
_0-1_
  6
CONTINUOUS
 62
    2
 10
552.91089796031906
 20
1873.8625361845691
 40
7.4999996133752767
  0
CIRCLE
  8
_0-1_
  6
CONTINUOUS
 62
    2
 10
552.91089796031906
 20
1873.8625361845691
 40
8.9999991494256086
  0
ARC
  8
_0-1_
  6
CONTINUOUS
 62
    2
 10
534.19529209566576
 20
1831.2952160568241
 40
13.99999921386306
 50
66.266128540039077
 51
180
  0
ARC
  8
_0-1_
  6
CONTINUOUS
 62
    2
 10
619.30419860960183
 20
1741.0009606197464
 40
5.9999995940440414
 50
225
 51
321.24609375
  0
ARC
  8
_0-1_
  6
CONTINUOUS
 62
    2
 10
603.49922737860447
 20
1720.0366216469843
 40
5.9999995940440414
 50
324.72903442382812
 51
45.000000000000028
  0
ARC
  8
_0-1_
  6
CONTINUOUS
 62
    2
 10
534.19529209566576
 20
1831.2952160568241
 40
11.999999188088083
 50
66.266128540039077
 51
180
  0
ARC
  8
_0-1_
  6
CONTINUOUS
 62
    2
 10
526.19531519004909
 20
1800.1690184480826
 40
3.9999998099095113
 50
45.001251220703125
 51
180.00000000000003
  0
ARC
  8
_0-1_
  6
CONTINUOUS
 62
    2
 10
595.47821808806407
 20
1892.5781420492224
 40
11.999999188088083
 50
90
 51
203.73387145996094
  0
ARC
  8
_0-1_
  6
CONTINUOUS
 62
    2
 10
626.60441569680552
 20
1900.5781189548391
 40
3.9999998099095113
 50
90
 51
224.9987487792969
  0
ARC
  8
_0-1_
  6
CONTINUOUS
 62
    2
 10
619.30419860960183
 20
1741.0009606197464
 40
7.9999996198190226
 50
225
 51
285.89585876464844
  0
ARC
  8
_0-1_
  6
CONTINUOUS
 62
    2
 10
956.19524920609615
 20
1470.5781849387915
 40
425.49999340160457
 50
141.86917114257815
 51
144.10534667968753
  0
ARC
  8
_0-1_
  6
CONTINUOUS
 62
    2
 10
603.49922737860447
 20
1720.0366216469843
 40
7.9999996198190226
 50
0.076202392578125
 51
45
  0
ARC
  8
_0-1_
  6
CONTINUOUS
 62
    2
 10
685.77247352514223
 20
1807.4692355352868
 40
5.9999995940440414
 50
308.75390625
 51
45
  0
ARC
  8
_0-1_
  6
CONTINUOUS
 62
    2
 10
706.73681249790343
 20
1823.2742067662832
 40
5.9999995940440414
 50
225.00000000000006
 51
305.27096557617193
  0
ARC
  8
_0-1_
  6
CONTINUOUS
 62
    2
 10
685.77247352514223
 20
1807.4692355352868
 40
7.9999996198190226
 50
344.10414123535156
 51
45.000000000000014
  0
ARC
  8
_0-1_
  6
CONTINUOUS
 62
    2
 10
956.19524920609615
 20
1470.5781849387915
 40
425.49999340160457
 50
125.8946533203125
 51
128.13082885742185
  0
ARC
  8
_0-1_
  6
CONTINUOUS
 62
    2
 10
706.73681249790343
 20
1823.2742067662832
 40
7.9999996198190226
 50
225.00000000000006
 51
269.92379760742193
  0
ARC
  8
_0-1_
  6
CONTINUOUS
 62
    2
 10
644.7437342145422
 20
1766.4736531609205
 40
5.9999995940440414
 50
316.46627807617187
 51
45.000000000000028
  0
ARC
  8
_0-1_
  6
CONTINUOUS
 62
    2
 10
639.72713925043763
 20
1764.6393817557257
 40
5.9999995940440414
 50
317.10148620605469
 51
43.44679260253907
  0
ARC
  8
_0-1_
  6
CONTINUOUS
 62
    2
 10
570.93800251849052
 20
1838.716183777474
 40
4.9999995811565503
 50
43.44696044921875
 51
117.15342712402344
  0
ARC
  8
_0-1_
  6
CONTINUOUS
 62
    2
 10
571.03635984798848
 20
1838.7666615012918
 40
6.9999996069315298
 50
44.999282836914063
 51
117.31411743164064
  0
ARC
  8
_0-1_
  6
CONTINUOUS
 62
    2
 10
660.29978098396805
 20
1782.0296999303453
 40
5.9999995940440414
 50
225.00000000000006
 51
313.53372192382818
  0
ARC
  8
_0-1_
  6
CONTINUOUS
 62
    2
 10
662.13405238916175
 20
1787.0462948944501
 40
5.9999995940440414
 50
226.55320739746099
 51
312.89851379394537
  0
ARC
  8
_0-1_
  6
CONTINUOUS
 62
    2
 10
588.0572503674141
 20
1855.8353079064862
 40
4.9999995811565503
 50
152.84657287597656
 51
226.55303955078125
  0
ARC
  8
_0-1_
  6
CONTINUOUS
 62
    2
 10
588.00677264359683
 20
1855.7370742968997
 40
6.9999996069315298
 50
152.6858825683594
 51
225.00071716308597
  0
ARC
  8
_0-1_
  6
CONTINUOUS
 62
    2
 10
956.19524920609615
 20
1470.5781849387915
 40
425.99997649321688
 50
128.75404357910156
 51
132.89813232421878
  0
ARC
  8
_0-1_
  6
CONTINUOUS
 62
    2
 10
956.19524920609615
 20
1470.5781849387915
 40
425.99997649321688
 50
137.10186767578125
 51
141.24595642089847
  0
ARC
  8
_0-1_
  6
CONTINUOUS
 62
    2
 10
956.19524920609615
 20
1470.5781849387915
 40
423.59999579352302
 50
133.53277587890625
 51
136.46720886230469
  0
ARC
  8
_0-1_
  6
CONTINUOUS
 62
    2
 10
552.91089796031906
 20
1873.8625361845691
 40
34.49999706165211
 50
332.84584045410156
 51
23.733764648437496
  0
ARC
  8
_0-1_
  6
CONTINUOUS
 62
    2
 10
552.91089796031906
 20
1873.8625361845691
 40
34.49999706165211
 50
246.26623535156253
 51
297.15406799316406
  0
ARC
  8
_0-1_
  6
CONTINUOUS
 62
    2
 10
552.91089796031906
 20
1873.8625361845691
 40
32.499998969000742
 50
246.2663879394531
 51
23.733612060546854
  0
ARC
  8
_0-1_
  6
CONTINUOUS
 62
    2
 10
524.19525910368952
 20
1803.003936496013
 40
3.9999998099095113
 50
48.780731201171882
 51
180
  0
ARC
  8
_0-1_
  6
CONTINUOUS
 62
    2
 10
623.76949764887513
 20
1902.5779276013761
 40
3.9999998099095113
 50
90
 51
221.21910095214844
  0
ARC
  8
_0-1_
  6
CONTINUOUS
 62
    2
 10
595.47821808806407
 20
1892.5781420492224
 40
13.99999921386306
 50
90
 51
203.73387145996094
  0
ARC
  8
_0-1_
  6
CONTINUOUS
 62
    2
 10
534.19529209566576
 20
1587.8813630558736
 40
11.999999188088083
 50
180
 51
344.46583557128906
  0
ARC
  8
_0-1_
  6
CONTINUOUS
 62
    2
 10
534.19529209566576
 20
1587.8813630558736
 40
13.99999921386306
 50
180
 51
313.93801879882812
  0
ARC
  8
_0-1_
  6
CONTINUOUS
 62
    2
 10
956.19524920609615
 20
1470.5781849387915
 40
425.99997649321688
 50
144.72859191894531
 51
164.46568298339841
  0
ARC
  8
_0-1_
  6
CONTINUOUS
 62
    2
 10
838.89219480892598
 20
1892.5783894890453
 40
11.999999188088083
 50
285.53416442871094
 51
90.000000000000028
  0
ARC
  8
_0-1_
  6
CONTINUOUS
 62
    2
 10
838.89219480892598
 20
1892.5783894890453
 40
13.99999921386306
 50
316.06198120117187
 51
90
  0
ARC
  8
_0-1_
  6
CONTINUOUS
 62
    2
 10
956.19524920609615
 20
1470.5781849387915
 40
425.99997649321688
 50
105.5343017578125
 51
125.2714080810547
  0
ARC
  8
_0-1_
  6
CONTINUOUS
 62
    2
 10
581.19524920609638
 20
1095.5781849387918
 40
75
 50
180
 51
270
  0
ARC
  8
_0-1_
  6
CONTINUOUS
 62
    2
 10
1331.1952492060968
 20
1845.5781849387918
 40
75
 50
0
 51
90
  0
ARC
  8
_0-1_
  6
CONTINUOUS
 62
    2
 10
1331.1952492060968
 20
1845.5781849387918
 40
73.499996597702449
 50
0
 51
90
  0
CIRCLE
  8
_0-1_
  6
CONTINUOUS
 62
    2
 10
1359.4796004518741
 20
1873.8625361845691
 40
7.4999996133752767
  0
CIRCLE
  8
_0-1_
  6
CONTINUOUS
 62
    2
 10
1359.4796004518741
 20
1873.8625361845691
 40
8.9999991494256086
  0
ARC
  8
_0-1_
  6
CONTINUOUS
 62
    2
 10
1378.1952063165274
 20
1831.2952160568241
 40
13.99999921386306
 50
0
 51
113.73387145996088
  0
ARC
  8
_0-1_
  6
CONTINUOUS
 62
    2
 10
1293.0862998025914
 20
1741.0009606197464
 40
5.9999995940440414
 50
218.75390625
 51
315
  0
ARC
  8
_0-1_
  6
CONTINUOUS
 62
    2
 10
1308.8912710335878
 20
1720.0366216469843
 40
5.9999995940440414
 50
135.00000000000006
 51
215.27096557617193
  0
ARC
  8
_0-1_
  6
CONTINUOUS
 62
    2
 10
1378.1952063165274
 20
1831.2952160568241
 40
11.999999188088083
 50
0
 51
113.73387145996088
  0
ARC
  8
_0-1_
  6
CONTINUOUS
 62
    2
 10
1386.1951832221432
 20
1800.1690184480826
 40
3.9999998099095113
 50
0
 51
134.99874877929693
  0
ARC
  8
_0-1_
  6
CONTINUOUS
 62
    2
 10
1316.9122803241282
 20
1892.5781420492224
 40
11.999999188088083
 50
336.26612854003906
 51
90.000000000000014
  0
ARC
  8
_0-1_
  6
CONTINUOUS
 62
    2
 10
1285.7860827153877
 20
1900.5781189548391
 40
3.9999998099095113
 50
315.00125122070313
 51
90.000000000000028
  0
ARC
  8
_0-1_
  6
CONTINUOUS
 62
    2
 10
1293.0862998025914
 20
1741.0009606197464
 40
7.9999996198190226
 50
254.10414123535156
 51
315
  0
ARC
  8
_0-1_
  6
CONTINUOUS
 62
    2
 10
956.19524920609615
 20
1470.5781849387915
 40
425.49999340160457
 50
35.894653320312528
 51
38.130828857421903
  0
ARC
  8
_0-1_
  6
CONTINUOUS
 62
    2
 10
1308.8912710335878
 20
1720.0366216469843
 40
7.9999996198190226
 50
135.00000000000006
 51
179.92379760742193
  0
ARC
  8
_0-1_
  6
CONTINUOUS
 62
    2
 10
1226.618024887051
 20
1807.4692355352868
 40
5.9999995940440414
 50
135
 51
231.24609375
  0
ARC
  8
_0-1_
  6
CONTINUOUS
 62
    2
 10
1205.6536859142889
 20
1823.2742067662832
 40
5.9999995940440414
 50
234.72903442382815
 51
315
  0
ARC
  8
_0-1_
  6
CONTINUOUS
 62
    2
 10
1226.618024887051
 20
1807.4692355352868
 40
7.9999996198190226
 50
135
 51
195.89585876464844
  0
ARC
  8
_0-1_
  6
CONTINUOUS
 62
    2
 10
956.19524920609615
 20
1470.5781849387915
 40
425.49999340160457
 50
51.869171142578146
 51
54.105346679687521
  0
ARC
  8
_0-1_
  6
CONTINUOUS
 62
    2
 10
1205.6536859142889
 20
1823.2742067662832
 40
7.9999996198190226
 50
270.07620239257812
 51
315
  0
ARC
  8
_0-1_
  6
CONTINUOUS
 62
    2
 10
1267.646764197651
 20
1766.4736531609205
 40
5.9999995940440414
 50
135.00000000000006
 51
223.53372192382818
  0
ARC
  8
_0-1_
  6
CONTINUOUS
 62
    2
 10
1272.6633591617556
 20
1764.6393817557257
 40
5.9999995940440414
 50
136.55320739746099
 51
222.89851379394534
  0
ARC
  8
_0-1_
  6
CONTINUOUS
 62
    2
 10
1341.4523721737903
 20
1838.716183777474
 40
4.9999995811565503
 50
62.846572875976555
 51
136.55303955078125
  0
ARC
  8
_0-1_
  6
CONTINUOUS
 62
    2
 10
1341.3541385642047
 20
1838.7666615012918
 40
6.9999996069315298
 50
62.685882568359389
 51
135.00071716308597
  0
ARC
  8
_0-1_
  6
CONTINUOUS
 62
    2
 10
1252.0907174282243
 20
1782.0296999303453
 40
5.9999995940440414
 50
226.4662780761719
 51
315
  0
ARC
  8
_0-1_
  6
CONTINUOUS
 62
    2
 10
1250.2564460230299
 20
1787.0462948944501
 40
5.9999995940440414
 50
227.10148620605469
 51
313.44679260253906
  0
ARC
  8
_0-1_
  6
CONTINUOUS
 62
    2
 10
1324.3332480447782
 20
1855.8353079064862
 40
4.9999995811565503
 50
313.44696044921875
 51
27.153427124023438
  0
ARC
  8
_0-1_
  6
CONTINUOUS
 62
    2
 10
1324.3837257685964
 20
1855.7370742968997
 40
6.9999996069315298
 50
314.99928283691406
 51
27.314117431640625
  0
ARC
  8
_0-1_
  6
CONTINUOUS
 62
    2
 10
956.19524920609615
 20
1470.5781849387915
 40
425.99997649321688
 50
47.101867675781257
 51
51.245956420898445
  0
ARC
  8
_0-1_
  6
CONTINUOUS
 62
    2
 10
956.19524920609615
 20
1470.5781849387915
 40
425.99997649321688
 50
38.75404357910157
 51
42.898132324218757
  0
ARC
  8
_0-1_
  6
CONTINUOUS
 62
    2
 10
956.19524920609615
 20
1470.5781849387915
 40
423.59999579352302
 50
43.532791137695327
 51
46.467224121093764
  0
ARC
  8
_0-1_
  6
CONTINUOUS
 62
    2
 10
1359.4796004518741
 20
1873.8625361845691
 40
34.49999706165211
 50
156.26623535156253
 51
207.15415954589847
  0
ARC
  8
_0-1_
  6
CONTINUOUS
 62
    2
 10
1359.4796004518741
 20
1873.8625361845691
 40
34.49999706165211
 50
242.84593200683597
 51
293.7337646484375
  0
ARC
  8
_0-1_
  6
CONTINUOUS
 62
    2
 10
1359.4796004518741
 20
1873.8625361845691
 40
32.499998969000742
 50
156.2663879394531
 51
293.73361206054687
  0
ARC
  8
_0-1_
  6
CONTINUOUS
 62
    2
 10
1388.1952393085037
 20
1803.003936496013
 40
3.9999998099095113
 50
0
 51
131.21926879882813
  0
ARC
  8
_0-1_
  6
CONTINUOUS
 62
    2
 10
1288.6210007633181
 20
1902.5779276013761
 40
3.9999998099095113
 50
318.78089904785156
 51
90
  0
ARC
  8
_0-1_
  6
CONTINUOUS
 62
    2
 10
1316.9122803241282
 20
1892.5781420492224
 40
13.99999921386306
 50
336.26612854003906
 51
90.000000000000014
  0
ARC
  8
_0-1_
  6
CONTINUOUS
 62
    2
 10
1378.1952063165274
 20
1587.8813630558736
 40
11.999999188088083
 50
195.53416442871094
 51
0
  0
ARC
  8
_0-1_
  6
CONTINUOUS
 62
    2
 10
1378.1952063165274
 20
1587.8813630558736
 40
13.99999921386306
 50
226.06198120117187
 51
0
  0
ARC
  8
_0-1_
  6
CONTINUOUS
 62
    2
 10
1073.4983036032663
 20
1892.5783894890453
 40
11.999999188088083
 50
90
 51
254.46583557128909
  0
ARC
  8
_0-1_
  6
CONTINUOUS
 62
    2
 10
1073.4983036032663
 20
1892.5783894890453
 40
13.99999921386306
 50
90
 51
223.93801879882813
  0
ARC
  8
_0-1_
  6
CONTINUOUS
 62
    2
 10
956.19524920609615
 20
1470.5781849387915
 40
425.99997649321688
 50
54.728591918945305
 51
74.4656982421875
  0
ARC
  8
_0-1_
  6
CONTINUOUS
 62
    2
 10
956.19524920609615
 20
1470.5781849387915
 40
425.99997649321688
 50
15.534317016601577
 51
35.271408081054702
  0
ARC
  8
_0-1_
  6
CONTINUOUS
 62
    2
 10
956.19524920609615
 20
1470.5781849387915
 40
425.99997649321688
 50
0
 51
14.577804565429688
  0
CIRCLE
  8
_0-2_
  6
CONTINUOUS
 62
    3
 10
956.19524920609615
 20
1470.5781849387915
 40
412.49996907002208
  0
CIRCLE
  8
_0-1_
  6
CONTINUOUS
 62
    2
 10
956.19524920609615
 20
1470.5781849387915
 40
414.9999463880385
  0
CIRCLE
  8
_0-1_
  6
CONTINUOUS
 62
    2
 10
956.19524920609615
 20
1470.5781849387915
 40
421.99998804040854
  0
LINE
  8
_0-2_
  6
CONTINUOUS
 62
    3
 10
583.195057852633
 20
1459.578000183724
 11
633.19522281251511
 21
1459.578000183724
  0
LINE
  8
_0-2_
  6
CONTINUOUS
 62
    3
 10
835.19519641893385
 20
1451.5782707179301
 11
835.19519641893385
 21
1429.5779012077953
  0
LINE
  8
_0-2_
  6
CONTINUOUS
 62
    3
 10
835.19519641893385
 20
1429.5779012077953
 11
845.19522941091009
 21
1429.5779012077953
  0
LINE
  8
_0-2_
  6
CONTINUOUS
 62
    3
 10
845.19522941091009
 20
1429.5779012077953
 11
845.19522941091009
 21
1451.5782707179301
  0
LINE
  8
_0-2_
  6
CONTINUOUS
 62
    3
 10
845.19522941091009
 20
1451.5782707179301
 11
835.19519641893385
 21
1451.5782707179301
  0
LINE
  8
_0-2_
  6
CONTINUOUS
 62
    3
 10
793.19525580449135
 20
1451.5782707179301
 11
793.19525580449135
 21
1429.5779012077953
  0
LINE
  8
_0-2_
  6
CONTINUOUS
 62
    3
 10
793.19525580449135
 20
1429.5779012077953
 11
829.19502815985402
 21
1429.5779012077953
  0
LINE
  8
_0-2_
  6
CONTINUOUS
 62
    3
 10
829.19502815985402
 20
1429.5779012077953
 11
829.19502815985402
 21
1451.5782707179301
  0
LINE
  8
_0-2_
  6
CONTINUOUS
 62
    3
 10
829.19502815985402
 20
1451.5782707179301
 11
793.19525580449135
 21
1451.5782707179301
  0
LINE
  8
_0-2_
  6
CONTINUOUS
 62
    3
 10
777.19505455343528
 20
1451.5782707179301
 11
777.19505455343528
 21
1429.5779012077953
  0
LINE
  8
_0-2_
  6
CONTINUOUS
 62
    3
 10
777.19505455343528
 20
1429.5779012077953
 11
787.19508754541152
 21
1429.5779012077953
  0
LINE
  8
_0-2_
  6
CONTINUOUS
 62
    3
 10
787.19508754541152
 20
1429.5779012077953
 11
787.19508754541152
 21
1451.5782707179301
  0
LINE
  8
_0-2_
  6
CONTINUOUS
 62
    3
 10
787.19508754541152
 20
1451.5782707179301
 11
777.19505455343528
 21
1451.5782707179301
  0
LINE
  8
_0-2_
  6
CONTINUOUS
 62
    3
 10
735.1951139389937
 20
1429.5779012077953
 11
771.19488629435546
 21
1429.5779012077953
  0
LINE
  8
_0-2_
  6
CONTINUOUS
 62
    3
 10
771.19488629435546
 20
1429.5779012077953
 11
771.19488629435546
 21
1451.5782707179301
  0
LINE
  8
_0-2_
  6
CONTINUOUS
 62
    3
 10
719.19491268793763
 20
1429.5779012077953
 11
729.19494567991387
 21
1429.5779012077953
  0
LINE
  8
_0-2_
  6
CONTINUOUS
 62
    3
 10
677.19497207349514
 20
1429.5779012077953
 11
713.19499186868075
 21
1429.5779012077953
  0
LINE
  8
_0-2_
  6
CONTINUOUS
 62
    3
 10
661.19501826226201
 20
1429.5779012077953
 11
671.19505125423825
 21
1429.5779012077953
  0
LINE
  8
_0-2_
  6
CONTINUOUS
 62
    3
 10
619.19507764781952
 20
1451.5782707179301
 11
619.19507764781952
 21
1429.5779012077953
  0
LINE
  8
_0-2_
  6
CONTINUOUS
 62
    3
 10
619.19507764781952
 20
1429.5779012077953
 11
655.19509744300512
 21
1429.5779012077953
  0
LINE
  8
_0-2_
  6
CONTINUOUS
 62
    3
 10
655.19509744300512
 20
1429.5779012077953
 11
655.19509744300512
 21
1451.5782707179301
  0
LINE
  8
_0-2_
  6
CONTINUOUS
 62
    3
 10
603.19487639676345
 20
1451.5782707179301
 11
603.19487639676345
 21
1429.5779012077953
  0
LINE
  8
_0-2_
  6
CONTINUOUS
 62
    3
 10
603.19487639676345
 20
1429.5779012077953
 11
613.19490938874037
 21
1429.5779012077953
  0
LINE
  8
_0-2_
  6
CONTINUOUS
 62
    3
 10
613.19490938874037
 20
1429.5779012077953
 11
613.19490938874037
 21
1451.5782707179301
  0
LINE
  8
_0-2_
  6
CONTINUOUS
 62
    3
 10
613.19490938874037
 20
1451.5782707179301
 11
603.19487639676345
 21
1451.5782707179301
  0
LINE
  8
_0-2_
  6
CONTINUOUS
 62
    3
 10
597.19470813768362
 20
1429.5779012077953
 11
597.19470813768362
 21
1451.5782707179301
  0
LINE
  8
_0-2_
  6
CONTINUOUS
 62
    3
 10
570.87057516682239
 20
1429.5779012077953
 11
597.19470813768362
 21
1429.5779012077953
  0
LINE
  8
_0-2_
  6
CONTINUOUS
 62
    3
 10
597.19470813768362
 20
1451.5782707179301
 11
569.16126087205862
 21
1451.5782707179301
  0
LINE
  8
_0-2_
  6
CONTINUOUS
 62
    3
 10
568.85146621411991
 20
1459.578000183724
 11
575.19508094701723
 21
1459.578000183724
  0
LINE
  8
_0-2_
  6
CONTINUOUS
 62
    3
 10
661.19501826226201
 20
1451.5782707179301
 11
661.19501826226201
 21
1429.5779012077953
  0
LINE
  8
_0-2_
  6
CONTINUOUS
 62
    3
 10
671.19505125423825
 20
1451.5782707179301
 11
661.19501826226201
 21
1451.5782707179301
  0
LINE
  8
_0-2_
  6
CONTINUOUS
 62
    3
 10
671.19505125423825
 20
1429.5779012077953
 11
671.19505125423825
 21
1451.5782707179301
  0
LINE
  8
_0-2_
  6
CONTINUOUS
 62
    3
 10
619.19507764781952
 20
1451.5782707179301
 11
655.19509744300512
 21
1451.5782707179301
  0
LINE
  8
_0-2_
  6
CONTINUOUS
 62
    3
 10
677.19497207349514
 20
1451.5782707179301
 11
677.19497207349514
 21
1429.5779012077953
  0
LINE
  8
_0-2_
  6
CONTINUOUS
 62
    3
 10
756.19508424621495
 20
1454.5782311275589
 11
692.19526900128244
 21
1454.5782311275589
  0
LINE
  8
_0-2_
  6
CONTINUOUS
 62
    3
 10
677.19497207349514
 20
1451.5782707179301
 11
682.01411005913678
 21
1451.5782707179301
  0
LINE
  8
_0-2_
  6
CONTINUOUS
 62
    3
 10
682.01411005913678
 20
1444.5781981355822
 11
682.01411005913678
 21
1451.5782707179301
  0
LINE
  8
_0-2_
  6
CONTINUOUS
 62
    3
 10
713.19499186868075
 20
1444.5781981355822
 11
682.01411005913678
 21
1444.5781981355822
  0
LINE
  8
_0-2_
  6
CONTINUOUS
 62
    3
 10
713.19499186868075
 20
1429.5779012077953
 11
713.19499186868075
 21
1444.5781981355822
  0
LINE
  8
_0-2_
  6
CONTINUOUS
 62
    3
 10
719.19491268793763
 20
1444.5781981355822
 11
719.19491268793763
 21
1429.5779012077953
  0
LINE
  8
_0-2_
  6
CONTINUOUS
 62
    3
 10
729.19494567991387
 20
1444.5781981355822
 11
719.19491268793763
 21
1444.5781981355822
  0
LINE
  8
_0-2_
  6
CONTINUOUS
 62
    3
 10
729.19494567991387
 20
1429.5779012077953
 11
729.19494567991387
 21
1444.5781981355822
  0
LINE
  8
_0-2_
  6
CONTINUOUS
 62
    3
 10
735.1951139389937
 20
1444.5781981355822
 11
735.1951139389937
 21
1429.5779012077953
  0
LINE
  8
_0-2_
  6
CONTINUOUS
 62
    3
 10
765.99865001901912
 20
1444.5781981355822
 11
735.1951139389937
 21
1444.5781981355822
  0
LINE
  8
_0-2_
  6
CONTINUOUS
 62
    3
 10
765.99865001901912
 20
1444.5781981355822
 11
765.99865001901912
 21
1451.5782707179301
  0
LINE
  8
_0-2_
  6
CONTINUOUS
 62
    3
 10
771.19488629435546
 20
1451.5782707179301
 11
765.99865001901912
 21
1451.5782707179301
  0
LINE
  8
_0-2_
  6
CONTINUOUS
 62
    3
 10
765.99865001901912
 20
1459.578000183724
 11
807.1951535293656
 21
1459.578000183724
  0
LINE
  8
_0-2_
  6
CONTINUOUS
 62
    3
 10
641.19519971813156
 20
1459.578000183724
 11
682.01411005913678
 21
1459.578000183724
  0
LINE
  8
_0-2_
  6
CONTINUOUS
 62
    3
 10
1329.1954405595593
 20
1459.578000183724
 11
1279.1952755996781
 21
1459.578000183724
  0
LINE
  8
_0-2_
  6
CONTINUOUS
 62
    3
 10
1077.1953019932585
 20
1451.5782707179301
 11
1077.1953019932585
 21
1429.5779012077953
  0
LINE
  8
_0-2_
  6
CONTINUOUS
 62
    3
 10
1077.1953019932585
 20
1429.5779012077953
 11
1067.1952690012822
 21
1429.5779012077953
  0
LINE
  8
_0-2_
  6
CONTINUOUS
 62
    3
 10
1067.1952690012822
 20
1429.5779012077953
 11
1067.1952690012822
 21
1451.5782707179301
  0
LINE
  8
_0-2_
  6
CONTINUOUS
 62
    3
 10
1067.1952690012822
 20
1451.5782707179301
 11
1077.1953019932585
 21
1451.5782707179301
  0
LINE
  8
_0-2_
  6
CONTINUOUS
 62
    3
 10
1119.1952426077009
 20
1451.5782707179301
 11
1119.1952426077009
 21
1429.5779012077953
  0
LINE
  8
_0-2_
  6
CONTINUOUS
 62
    3
 10
1119.1952426077009
 20
1429.5779012077953
 11
1083.1954702523383
 21
1429.5779012077953
  0
LINE
  8
_0-2_
  6
CONTINUOUS
 62
    3
 10
1083.1954702523383
 20
1429.5779012077953
 11
1083.1954702523383
 21
1451.5782707179301
  0
LINE
  8
_0-2_
  6
CONTINUOUS
 62
    3
 10
1083.1954702523383
 20
1451.5782707179301
 11
1119.1952426077009
 21
1451.5782707179301
  0
LINE
  8
_0-2_
  6
CONTINUOUS
 62
    3
 10
1135.195443858757
 20
1451.5782707179301
 11
1135.195443858757
 21
1429.5779012077953
  0
LINE
  8
_0-2_
  6
CONTINUOUS
 62
    3
 10
1135.195443858757
 20
1429.5779012077953
 11
1125.1954108667808
 21
1429.5779012077953
  0
LINE
  8
_0-2_
  6
CONTINUOUS
 62
    3
 10
1125.1954108667808
 20
1429.5779012077953
 11
1125.1954108667808
 21
1451.5782707179301
  0
LINE
  8
_0-2_
  6
CONTINUOUS
 62
    3
 10
1125.1954108667808
 20
1451.5782707179301
 11
1135.195443858757
 21
1451.5782707179301
  0
LINE
  8
_0-2_
  6
CONTINUOUS
 62
    3
 10
1177.1953844731995
 20
1429.5779012077953
 11
1141.1956121178353
 21
1429.5779012077953
  0
LINE
  8
_0-2_
  6
CONTINUOUS
 62
    3
 10
1141.1956121178353
 20
1429.5779012077953
 11
1141.1956121178353
 21
1451.5782707179301
  0
LINE
  8
_0-2_
  6
CONTINUOUS
 62
    3
 10
1193.1955857242556
 20
1429.5779012077953
 11
1183.1955527322793
 21
1429.5779012077953
  0
LINE
  8
_0-2_
  6
CONTINUOUS
 62
    3
 10
1235.1955263386981
 20
1429.5779012077953
 11
1199.1955065435125
 21
1429.5779012077953
  0
LINE
  8
_0-2_
  6
CONTINUOUS
 62
    3
 10
1251.1954801499312
 20
1429.5779012077953
 11
1241.1954471579534
 21
1429.5779012077953
  0
LINE
  8
_0-2_
  6
CONTINUOUS
 62
    3
 10
1293.1954207643737
 20
1451.5782707179301
 11
1293.1954207643737
 21
1429.5779012077953
  0
LINE
  8
_0-2_
  6
CONTINUOUS
 62
    3
 10
1293.1954207643737
 20
1429.5779012077953
 11
1257.1954009691881
 21
1429.5779012077953
  0
LINE
  8
_0-2_
  6
CONTINUOUS
 62
    3
 10
1257.1954009691881
 20
1429.5779012077953
 11
1257.1954009691881
 21
1451.5782707179301
  0
LINE
  8
_0-2_
  6
CONTINUOUS
 62
    3
 10
1309.1956220154298
 20
1451.5782707179301
 11
1309.1956220154298
 21
1429.5779012077953
  0
LINE
  8
_0-2_
  6
CONTINUOUS
 62
    3
 10
1309.1956220154298
 20
1429.5779012077953
 11
1299.1955890234519
 21
1429.5779012077953
  0
LINE
  8
_0-2_
  6
CONTINUOUS
 62
    3
 10
1299.1955890234519
 20
1429.5779012077953
 11
1299.1955890234519
 21
1451.5782707179301
  0
LINE
  8
_0-2_
  6
CONTINUOUS
 62
    3
 10
1299.1955890234519
 20
1451.5782707179301
 11
1309.1956220154298
 21
1451.5782707179301
  0
LINE
  8
_0-2_
  6
CONTINUOUS
 62
    3
 10
1315.195790274508
 20
1429.5779012077953
 11
1315.195790274508
 21
1451.5782707179301
  0
LINE
  8
_0-2_
  6
CONTINUOUS
 62
    3
 10
1341.5199232453692
 20
1429.5779012077953
 11
1315.195790274508
 21
1429.5779012077953
  0
LINE
  8
_0-2_
  6
CONTINUOUS
 62
    3
 10
1315.195790274508
 20
1451.5782707179301
 11
1343.2292375401337
 21
1451.5782707179301
  0
LINE
  8
_0-2_
  6
CONTINUOUS
 62
    3
 10
1343.5390321980724
 20
1459.578000183724
 11
1337.1954174651751
 21
1459.578000183724
  0
LINE
  8
_0-2_
  6
CONTINUOUS
 62
    3
 10
1251.1954801499312
 20
1451.5782707179301
 11
1251.1954801499312
 21
1429.5779012077953
  0
LINE
  8
_0-2_
  6
CONTINUOUS
 62
    3
 10
1241.1954471579534
 20
1451.5782707179301
 11
1251.1954801499312
 21
1451.5782707179301
  0
LINE
  8
_0-2_
  6
CONTINUOUS
 62
    3
 10
1241.1954471579534
 20
1429.5779012077953
 11
1241.1954471579534
 21
1451.5782707179301
  0
LINE
  8
_0-2_
  6
CONTINUOUS
 62
    3
 10
1293.1954207643737
 20
1451.5782707179301
 11
1257.1954009691881
 21
1451.5782707179301
  0
LINE
  8
_0-2_
  6
CONTINUOUS
 62
    3
 10
1235.1955263386981
 20
1451.5782707179301
 11
1235.1955263386981
 21
1429.5779012077953
  0
LINE
  8
_0-2_
  6
CONTINUOUS
 62
    3
 10
1156.1954141659783
 20
1454.5782311275589
 11
1220.1952294109108
 21
1454.5782311275589
  0
LINE
  8
_0-2_
  6
CONTINUOUS
 62
    3
 10
1235.1955263386981
 20
1451.5782707179301
 11
1230.3763883530564
 21
1451.5782707179301
  0
LINE
  8
_0-2_
  6
CONTINUOUS
 62
    3
 10
1230.3763883530564
 20
1444.5781981355822
 11
1230.3763883530564
 21
1451.5782707179301
  0
LINE
  8
_0-2_
  6
CONTINUOUS
 62
    3
 10
1199.1955065435125
 20
1444.5781981355822
 11
1230.3763883530564
 21
1444.5781981355822
  0
LINE
  8
_0-2_
  6
CONTINUOUS
 62
    3
 10
1199.1955065435125
 20
1429.5779012077953
 11
1199.1955065435125
 21
1444.5781981355822
  0
LINE
  8
_0-2_
  6
CONTINUOUS
 62
    3
 10
1193.1955857242556
 20
1444.5781981355822
 11
1193.1955857242556
 21
1429.5779012077953
  0
LINE
  8
_0-2_
  6
CONTINUOUS
 62
    3
 10
1183.1955527322793
 20
1444.5781981355822
 11
1193.1955857242556
 21
1444.5781981355822
  0
LINE
  8
_0-2_
  6
CONTINUOUS
 62
    3
 10
1183.1955527322793
 20
1429.5779012077953
 11
1183.1955527322793
 21
1444.5781981355822
  0
LINE
  8
_0-2_
  6
CONTINUOUS
 62
    3
 10
1177.1953844731995
 20
1444.5781981355822
 11
1177.1953844731995
 21
1429.5779012077953
  0
LINE
  8
_0-2_
  6
CONTINUOUS
 62
    3
 10
1146.3918483931748
 20
1444.5781981355822
 11
1177.1953844731995
 21
1444.5781981355822
  0
LINE
  8
_0-2_
  6
CONTINUOUS
 62
    3
 10
1146.3918483931748
 20
1444.5781981355822
 11
1146.3918483931748
 21
1451.5782707179301
  0
LINE
  8
_0-2_
  6
CONTINUOUS
 62
    3
 10
1141.1956121178353
 20
1451.5782707179301
 11
1146.3918483931748
 21
1451.5782707179301
  0
LINE
  8
_0-2_
  6
CONTINUOUS
 62
    3
 10
1146.3918483931748
 20
1459.578000183724
 11
1105.1953448828283
 21
1459.578000183724
  0
LINE
  8
_0-2_
  6
CONTINUOUS
 62
    3
 10
1271.1952986940607
 20
1459.578000183724
 11
1230.3763883530564
 21
1459.578000183724
  0
LINE
  8
_0-2_
  6
CONTINUOUS
 62
    3
 10
1220.1952294109108
 20
1454.5782311275589
 11
1220.1952294109108
 21
1470.5781849387915
  0
LINE
  8
_0-2_
  6
CONTINUOUS
 62
    3
 10
1181.1952492060959
 20
1470.5781849387915
 11
1181.1952492060959
 21
1454.5782311275589
  0
LINE
  8
_0-2_
  6
CONTINUOUS
 62
    3
 10
1195.1953943707915
 20
1470.5781849387915
 11
1195.1953943707915
 21
1454.5782311275589
  0
LINE
  8
_0-2_
  6
CONTINUOUS
 62
    3
 10
1156.1954141659783
 20
1454.5782311275589
 11
1156.1954141659783
 21
1470.5781849387915
  0
LINE
  8
_0-2_
  6
CONTINUOUS
 62
    3
 10
873.19527230047993
 20
1399.5780496716884
 11
923.19518982053978
 21
1399.5780496716884
  0
LINE
  8
_0-2_
  6
CONTINUOUS
 62
    3
 10
815.19513043498137
 20
1399.5780496716884
 11
865.19529539486257
 21
1399.5780496716884
  0
LINE
  8
_0-2_
  6
CONTINUOUS
 62
    3
 10
583.195057852633
 20
1399.5780496716884
 11
633.19522281251511
 21
1399.5780496716884
  0
LINE
  8
_0-2_
  6
CONTINUOUS
 62
    3
 10
951.19523271010803
 20
1391.5783202058947
 11
951.19523271010803
 21
1369.5779506957597
  0
LINE
  8
_0-2_
  6
CONTINUOUS
 62
    3
 10
909.19529209566554
 20
1391.5783202058947
 11
909.19529209566554
 21
1369.5779506957597
  0
LINE
  8
_0-2_
  6
CONTINUOUS
 62
    3
 10
909.19529209566554
 20
1369.5779506957597
 11
945.1950644510282
 21
1369.5779506957597
  0
LINE
  8
_0-2_
  6
CONTINUOUS
 62
    3
 10
945.1950644510282
 20
1369.5779506957597
 11
945.1950644510282
 21
1391.5783202058947
  0
LINE
  8
_0-2_
  6
CONTINUOUS
 62
    3
 10
945.1950644510282
 20
1391.5783202058947
 11
909.19529209566554
 21
1391.5783202058947
  0
LINE
  8
_0-2_
  6
CONTINUOUS
 62
    3
 10
893.19509084460947
 20
1391.5783202058947
 11
893.19509084460947
 21
1369.5779506957597
  0
LINE
  8
_0-2_
  6
CONTINUOUS
 62
    3
 10
893.19509084460947
 20
1369.5779506957597
 11
903.19512383658571
 21
1369.5779506957597
  0
LINE
  8
_0-2_
  6
CONTINUOUS
 62
    3
 10
903.19512383658571
 20
1369.5779506957597
 11
903.19512383658571
 21
1391.5783202058947
  0
LINE
  8
_0-2_
  6
CONTINUOUS
 62
    3
 10
903.19512383658571
 20
1391.5783202058947
 11
893.19509084460947
 21
1391.5783202058947
  0
LINE
  8
_0-2_
  6
CONTINUOUS
 62
    3
 10
851.19515023016697
 20
1391.5783202058947
 11
851.19515023016697
 21
1369.5779506957597
  0
LINE
  8
_0-2_
  6
CONTINUOUS
 62
    3
 10
851.19515023016697
 20
1369.5779506957597
 11
887.19517002535258
 21
1369.5779506957597
  0
LINE
  8
_0-2_
  6
CONTINUOUS
 62
    3
 10
887.19517002535258
 20
1369.5779506957597
 11
887.19517002535258
 21
1391.5783202058947
  0
LINE
  8
_0-2_
  6
CONTINUOUS
 62
    3
 10
887.19517002535258
 20
1391.5783202058947
 11
851.19515023016697
 21
1391.5783202058947
  0
LINE
  8
_0-2_
  6
CONTINUOUS
 62
    3
 10
835.19519641893385
 20
1391.5783202058947
 11
835.19519641893385
 21
1369.5779506957597
  0
LINE
  8
_0-2_
  6
CONTINUOUS
 62
    3
 10
835.19519641893385
 20
1369.5779506957597
 11
845.19522941091009
 21
1369.5779506957597
  0
LINE
  8
_0-2_
  6
CONTINUOUS
 62
    3
 10
845.19522941091009
 20
1369.5779506957597
 11
845.19522941091009
 21
1391.5783202058947
  0
LINE
  8
_0-2_
  6
CONTINUOUS
 62
    3
 10
845.19522941091009
 20
1391.5783202058947
 11
835.19519641893385
 21
1391.5783202058947
  0
LINE
  8
_0-2_
  6
CONTINUOUS
 62
    3
 10
793.19525580449135
 20
1391.5783202058947
 11
793.19525580449135
 21
1369.5779506957597
  0
LINE
  8
_0-2_
  6
CONTINUOUS
 62
    3
 10
793.19525580449135
 20
1369.5779506957597
 11
829.19502815985402
 21
1369.5779506957597
  0
LINE
  8
_0-2_
  6
CONTINUOUS
 62
    3
 10
829.19502815985402
 20
1369.5779506957597
 11
829.19502815985402
 21
1391.5783202058947
  0
LINE
  8
_0-2_
  6
CONTINUOUS
 62
    3
 10
829.19502815985402
 20
1391.5783202058947
 11
793.19525580449135
 21
1391.5783202058947
  0
LINE
  8
_0-2_
  6
CONTINUOUS
 62
    3
 10
777.19505455343528
 20
1391.5783202058947
 11
777.19505455343528
 21
1369.5779506957597
  0
LINE
  8
_0-2_
  6
CONTINUOUS
 62
    3
 10
777.19505455343528
 20
1369.5779506957597
 11
787.19508754541152
 21
1369.5779506957597
  0
LINE
  8
_0-2_
  6
CONTINUOUS
 62
    3
 10
787.19508754541152
 20
1369.5779506957597
 11
787.19508754541152
 21
1391.5783202058947
  0
LINE
  8
_0-2_
  6
CONTINUOUS
 62
    3
 10
787.19508754541152
 20
1391.5783202058947
 11
777.19505455343528
 21
1391.5783202058947
  0
LINE
  8
_0-2_
  6
CONTINUOUS
 62
    3
 10
661.19501826226201
 20
1369.5779506957597
 11
671.19505125423825
 21
1369.5779506957597
  0
LINE
  8
_0-2_
  6
CONTINUOUS
 62
    3
 10
619.19507764781952
 20
1391.5783202058947
 11
619.19507764781952
 21
1369.5779506957597
  0
LINE
  8
_0-2_
  6
CONTINUOUS
 62
    3
 10
619.19507764781952
 20
1369.5779506957597
 11
655.19509744300512
 21
1369.5779506957597
  0
LINE
  8
_0-2_
  6
CONTINUOUS
 62
    3
 10
655.19509744300512
 20
1369.5779506957597
 11
655.19509744300512
 21
1391.5783202058947
  0
LINE
  8
_0-2_
  6
CONTINUOUS
 62
    3
 10
603.19487639676345
 20
1391.5783202058947
 11
603.19487639676345
 21
1369.5779506957597
  0
LINE
  8
_0-2_
  6
CONTINUOUS
 62
    3
 10
603.19487639676345
 20
1369.5779506957597
 11
613.19490938874037
 21
1369.5779506957597
  0
LINE
  8
_0-2_
  6
CONTINUOUS
 62
    3
 10
613.19490938874037
 20
1369.5779506957597
 11
613.19490938874037
 21
1391.5783202058947
  0
LINE
  8
_0-2_
  6
CONTINUOUS
 62
    3
 10
613.19490938874037
 20
1391.5783202058947
 11
603.19487639676345
 21
1391.5783202058947
  0
LINE
  8
_0-2_
  6
CONTINUOUS
 62
    3
 10
597.19470813768362
 20
1369.5779506957597
 11
597.19470813768362
 21
1391.5783202058947
  0
LINE
  8
_0-2_
  6
CONTINUOUS
 62
    3
 10
931.19541416597849
 20
1399.5780496716884
 11
981.19508424621381
 21
1399.5780496716884
  0
LINE
  8
_0-2_
  6
CONTINUOUS
 62
    3
 10
961.19526570208427
 20
1391.5783202058947
 11
951.19523271010803
 21
1391.5783202058947
  0
LINE
  8
_0-2_
  6
CONTINUOUS
 62
    3
 10
951.19523271010803
 20
1369.5779506957597
 11
961.19526570208427
 21
1369.5779506957597
  0
LINE
  8
_0-2_
  6
CONTINUOUS
 62
    3
 10
661.19501826226201
 20
1391.5783202058947
 11
661.19501826226201
 21
1369.5779506957597
  0
LINE
  8
_0-2_
  6
CONTINUOUS
 62
    3
 10
671.19505125423825
 20
1391.5783202058947
 11
661.19501826226201
 21
1391.5783202058947
  0
LINE
  8
_0-2_
  6
CONTINUOUS
 62
    3
 10
671.19505125423825
 20
1369.5779506957597
 11
671.19505125423825
 21
1391.5783202058947
  0
LINE
  8
_0-2_
  6
CONTINUOUS
 62
    3
 10
619.19507764781952
 20
1391.5783202058947
 11
655.19509744300512
 21
1391.5783202058947
  0
LINE
  8
_0-2_
  6
CONTINUOUS
 62
    3
 10
1039.1952261117124
 20
1399.5780496716884
 11
989.19530859165411
 21
1399.5780496716884
  0
LINE
  8
_0-2_
  6
CONTINUOUS
 62
    3
 10
1097.1953679772109
 20
1399.5780496716884
 11
1047.1952030173297
 21
1399.5780496716884
  0
LINE
  8
_0-2_
  6
CONTINUOUS
 62
    3
 10
1329.1954405595593
 20
1399.5780496716884
 11
1279.1952755996781
 21
1399.5780496716884
  0
LINE
  8
_0-2_
  6
CONTINUOUS
 62
    3
 10
961.19526570208427
 20
1391.5783202058947
 11
961.19526570208427
 21
1369.5779506957597
  0
LINE
  8
_0-2_
  6
CONTINUOUS
 62
    3
 10
1003.1952063165268
 20
1391.5783202058947
 11
1003.1952063165268
 21
1369.5779506957597
  0
LINE
  8
_0-2_
  6
CONTINUOUS
 62
    3
 10
1003.1952063165268
 20
1369.5779506957597
 11
967.1954339611641
 21
1369.5779506957597
  0
LINE
  8
_0-2_
  6
CONTINUOUS
 62
    3
 10
967.1954339611641
 20
1369.5779506957597
 11
967.1954339611641
 21
1391.5783202058947
  0
LINE
  8
_0-2_
  6
CONTINUOUS
 62
    3
 10
967.1954339611641
 20
1391.5783202058947
 11
1003.1952063165268
 21
1391.5783202058947
  0
LINE
  8
_0-2_
  6
CONTINUOUS
 62
    3
 10
1019.1954075675828
 20
1391.5783202058947
 11
1019.1954075675828
 21
1369.5779506957597
  0
LINE
  8
_0-2_
  6
CONTINUOUS
 62
    3
 10
1019.1954075675828
 20
1369.5779506957597
 11
1009.1953745756066
 21
1369.5779506957597
  0
LINE
  8
_0-2_
  6
CONTINUOUS
 62
    3
 10
1009.1953745756066
 20
1369.5779506957597
 11
1009.1953745756066
 21
1391.5783202058947
  0
LINE
  8
_0-2_
  6
CONTINUOUS
 62
    3
 10
1009.1953745756066
 20
1391.5783202058947
 11
1019.1954075675828
 21
1391.5783202058947
  0
LINE
  8
_0-2_
  6
CONTINUOUS
 62
    3
 10
1061.1953481820253
 20
1391.5783202058947
 11
1061.1953481820253
 21
1369.5779506957597
  0
LINE
  8
_0-2_
  6
CONTINUOUS
 62
    3
 10
1061.1953481820253
 20
1369.5779506957597
 11
1025.1953283868397
 21
1369.5779506957597
  0
LINE
  8
_0-2_
  6
CONTINUOUS
 62
    3
 10
1025.1953283868397
 20
1369.5779506957597
 11
1025.1953283868397
 21
1391.5783202058947
  0
LINE
  8
_0-2_
  6
CONTINUOUS
 62
    3
 10
1025.1953283868397
 20
1391.5783202058947
 11
1061.1953481820253
 21
1391.5783202058947
  0
LINE
  8
_0-2_
  6
CONTINUOUS
 62
    3
 10
1077.1953019932585
 20
1391.5783202058947
 11
1077.1953019932585
 21
1369.5779506957597
  0
LINE
  8
_0-2_
  6
CONTINUOUS
 62
    3
 10
1077.1953019932585
 20
1369.5779506957597
 11
1067.1952690012822
 21
1369.5779506957597
  0
LINE
  8
_0-2_
  6
CONTINUOUS
 62
    3
 10
1067.1952690012822
 20
1369.5779506957597
 11
1067.1952690012822
 21
1391.5783202058947
  0
LINE
  8
_0-2_
  6
CONTINUOUS
 62
    3
 10
1067.1952690012822
 20
1391.5783202058947
 11
1077.1953019932585
 21
1391.5783202058947
  0
LINE
  8
_0-2_
  6
CONTINUOUS
 62
    3
 10
1119.1952426077009
 20
1391.5783202058947
 11
1119.1952426077009
 21
1369.5779506957597
  0
LINE
  8
_0-2_
  6
CONTINUOUS
 62
    3
 10
1119.1952426077009
 20
1369.5779506957597
 11
1083.1954702523383
 21
1369.5779506957597
  0
LINE
  8
_0-2_
  6
CONTINUOUS
 62
    3
 10
1083.1954702523383
 20
1369.5779506957597
 11
1083.1954702523383
 21
1391.5783202058947
  0
LINE
  8
_0-2_
  6
CONTINUOUS
 62
    3
 10
1083.1954702523383
 20
1391.5783202058947
 11
1119.1952426077009
 21
1391.5783202058947
  0
LINE
  8
_0-2_
  6
CONTINUOUS
 62
    3
 10
1293.1954207643737
 20
1391.5783202058947
 11
1293.1954207643737
 21
1369.5779506957597
  0
LINE
  8
_0-2_
  6
CONTINUOUS
 62
    3
 10
1293.1954207643737
 20
1369.5779506957597
 11
1257.1954009691881
 21
1369.5779506957597
  0
LINE
  8
_0-2_
  6
CONTINUOUS
 62
    3
 10
1257.1954009691881
 20
1369.5779506957597
 11
1257.1954009691881
 21
1391.5783202058947
  0
LINE
  8
_0-2_
  6
CONTINUOUS
 62
    3
 10
1309.1956220154298
 20
1391.5783202058947
 11
1309.1956220154298
 21
1369.5779506957597
  0
LINE
  8
_0-2_
  6
CONTINUOUS
 62
    3
 10
1309.1956220154298
 20
1369.5779506957597
 11
1299.1955890234519
 21
1369.5779506957597
  0
LINE
  8
_0-2_
  6
CONTINUOUS
 62
    3
 10
1299.1955890234519
 20
1369.5779506957597
 11
1299.1955890234519
 21
1391.5783202058947
  0
LINE
  8
_0-2_
  6
CONTINUOUS
 62
    3
 10
1299.1955890234519
 20
1391.5783202058947
 11
1309.1956220154298
 21
1391.5783202058947
  0
LINE
  8
_0-2_
  6
CONTINUOUS
 62
    3
 10
1315.195790274508
 20
1369.5779506957597
 11
1315.195790274508
 21
1391.5783202058947
  0
LINE
  8
_0-2_
  6
CONTINUOUS
 62
    3
 10
1293.1954207643737
 20
1391.5783202058947
 11
1257.1954009691881
 21
1391.5783202058947
  0
LINE
  8
_0-2_
  6
CONTINUOUS
 62
    3
 10
735.1951139389937
 20
1391.5783202058947
 11
735.1951139389937
 21
1369.5779506957597
  0
LINE
  8
_0-2_
  6
CONTINUOUS
 62
    3
 10
735.1951139389937
 20
1369.5779506957597
 11
771.1951337341784
 21
1369.5779506957597
  0
LINE
  8
_0-2_
  6
CONTINUOUS
 62
    3
 10
771.1951337341784
 20
1369.5779506957597
 11
771.1951337341784
 21
1391.5783202058947
  0
LINE
  8
_0-2_
  6
CONTINUOUS
 62
    3
 10
771.1951337341784
 20
1391.5783202058947
 11
735.1951139389937
 21
1391.5783202058947
  0
LINE
  8
_0-2_
  6
CONTINUOUS
 62
    3
 10
719.19516012775966
 20
1391.5783202058947
 11
719.19516012775966
 21
1369.5779506957597
  0
LINE
  8
_0-2_
  6
CONTINUOUS
 62
    3
 10
719.19516012775966
 20
1369.5779506957597
 11
729.19519311973681
 21
1369.5779506957597
  0
LINE
  8
_0-2_
  6
CONTINUOUS
 62
    3
 10
729.19519311973681
 20
1369.5779506957597
 11
729.19519311973681
 21
1391.5783202058947
  0
LINE
  8
_0-2_
  6
CONTINUOUS
 62
    3
 10
729.19519311973681
 20
1391.5783202058947
 11
719.19516012775966
 21
1391.5783202058947
  0
LINE
  8
_0-2_
  6
CONTINUOUS
 62
    3
 10
677.19521951331808
 20
1391.5783202058947
 11
677.19521951331808
 21
1369.5779506957597
  0
LINE
  8
_0-2_
  6
CONTINUOUS
 62
    3
 10
677.19521951331808
 20
1369.5779506957597
 11
713.19499186868075
 21
1369.5779506957597
  0
LINE
  8
_0-2_
  6
CONTINUOUS
 62
    3
 10
713.19499186868075
 20
1369.5779506957597
 11
713.19499186868075
 21
1391.5783202058947
  0
LINE
  8
_0-2_
  6
CONTINUOUS
 62
    3
 10
713.19499186868075
 20
1391.5783202058947
 11
677.19521951331808
 21
1391.5783202058947
  0
LINE
  8
_0-2_
  6
CONTINUOUS
 62
    3
 10
1279.1952755996781
 20
1399.5780496716884
 11
1279.1952755996781
 21
1421.5780480220894
  0
LINE
  8
_0-2_
  6
CONTINUOUS
 62
    3
 10
1329.1954405595593
 20
1421.5780480220894
 11
1329.1954405595593
 21
1399.5780496716884
  0
LINE
  8
_0-2_
  6
CONTINUOUS
 62
    3
 10
1097.1953679772109
 20
1421.5780480220894
 11
1097.1953679772109
 21
1399.5780496716884
  0
LINE
  8
_0-2_
  6
CONTINUOUS
 62
    3
 10
989.19530859165411
 20
1399.5780496716884
 11
989.19530859165411
 21
1421.5780480220894
  0
LINE
  8
_0-2_
  6
CONTINUOUS
 62
    3
 10
1039.1952261117124
 20
1421.5780480220894
 11
1039.1952261117124
 21
1399.5780496716884
  0
LINE
  8
_0-2_
  6
CONTINUOUS
 62
    3
 10
981.19508424621381
 20
1421.5780480220894
 11
981.19508424621381
 21
1399.5780496716884
  0
LINE
  8
_0-2_
  6
CONTINUOUS
 62
    3
 10
633.19522281251511
 20
1399.5780496716884
 11
633.19522281251511
 21
1421.5780480220894
  0
LINE
  8
_0-2_
  6
CONTINUOUS
 62
    3
 10
583.195057852633
 20
1421.5780480220894
 11
583.195057852633
 21
1399.5780496716884
  0
LINE
  8
_0-2_
  6
CONTINUOUS
 62
    3
 10
815.19513043498137
 20
1421.5780480220894
 11
815.19513043498137
 21
1399.5780496716884
  0
LINE
  8
_0-2_
  6
CONTINUOUS
 62
    3
 10
923.19518982053978
 20
1399.5780496716884
 11
923.19518982053978
 21
1421.5780480220894
  0
LINE
  8
_0-2_
  6
CONTINUOUS
 62
    3
 10
873.19527230047993
 20
1421.5780480220894
 11
873.19527230047993
 21
1399.5780496716884
  0
LINE
  8
_0-2_
  6
CONTINUOUS
 62
    3
 10
931.19541416597849
 20
1421.5780480220894
 11
931.19541416597849
 21
1399.5780496716884
  0
LINE
  8
_0-2_
  6
CONTINUOUS
 62
    3
 10
699.19509414380718
 20
1399.5780496716884
 11
749.19501166386704
 21
1399.5780496716884
  0
LINE
  8
_0-2_
  6
CONTINUOUS
 62
    3
 10
641.19495227830862
 20
1399.5780496716884
 11
691.19511723819141
 21
1399.5780496716884
  0
LINE
  8
_0-2_
  6
CONTINUOUS
 62
    3
 10
757.19523600930575
 20
1399.5780496716884
 11
807.19490608954266
 21
1399.5780496716884
  0
LINE
  8
_0-2_
  6
CONTINUOUS
 62
    3
 10
807.19490608954266
 20
1421.5780480220894
 11
807.19490608954266
 21
1399.5780496716884
  0
LINE
  8
_0-2_
  6
CONTINUOUS
 62
    3
 10
691.19511723819141
 20
1399.5780496716884
 11
691.19511723819141
 21
1421.5780480220894
  0
LINE
  8
_0-2_
  6
CONTINUOUS
 62
    3
 10
641.19495227830862
 20
1421.5780480220894
 11
641.19495227830862
 21
1399.5780496716884
  0
LINE
  8
_0-2_
  6
CONTINUOUS
 62
    3
 10
749.19501166386704
 20
1399.5780496716884
 11
749.19501166386704
 21
1421.5780480220894
  0
LINE
  8
_0-2_
  6
CONTINUOUS
 62
    3
 10
699.19509414380718
 20
1421.5780480220894
 11
699.19509414380718
 21
1399.5780496716884
  0
LINE
  8
_0-2_
  6
CONTINUOUS
 62
    3
 10
757.19523600930575
 20
1421.5780480220894
 11
757.19523600930575
 21
1399.5780496716884
  0
LINE
  8
_0-2_
  6
CONTINUOUS
 62
    3
 10
583.195057852633
 20
1421.5780480220894
 11
633.19522281251511
 21
1421.5780480220894
  0
LINE
  8
_0-2_
  6
CONTINUOUS
 62
    3
 10
641.19495227830862
 20
1421.5780480220894
 11
691.19511723819141
 21
1421.5780480220894
  0
LINE
  8
_0-2_
  6
CONTINUOUS
 62
    3
 10
699.19497042389662
 20
1421.5780480220894
 11
749.19513538377851
 21
1421.5780480220894
  0
LINE
  8
_0-2_
  6
CONTINUOUS
 62
    3
 10
757.19498856948371
 20
1421.5780480220894
 11
807.1951535293656
 21
1421.5780480220894
  0
LINE
  8
_0-2_
  6
CONTINUOUS
 62
    3
 10
815.19488299515842
 20
1421.5780480220894
 11
865.19504795504122
 21
1421.5780480220894
  0
LINE
  8
_0-2_
  6
CONTINUOUS
 62
    3
 10
873.19490114074551
 20
1421.5780480220894
 11
923.19506610062831
 21
1421.5780480220894
  0
LINE
  8
_0-2_
  6
CONTINUOUS
 62
    3
 10
931.19491928633261
 20
1421.5780480220894
 11
981.19508424621381
 21
1421.5780480220894
  0
LINE
  8
_0-2_
  6
CONTINUOUS
 62
    3
 10
989.1949374319197
 20
1421.5780480220894
 11
1039.1951023918009
 21
1421.5780480220894
  0
LINE
  8
_0-2_
  6
CONTINUOUS
 62
    3
 10
1047.1949555775068
 20
1421.5780480220894
 11
1097.195120537388
 21
1421.5780480220894
  0
LINE
  8
_0-2_
  6
CONTINUOUS
 62
    3
 10
1279.1950281598552
 20
1421.5780480220894
 11
1329.1951931197364
 21
1421.5780480220894
  0
LINE
  8
_0-2_
  6
CONTINUOUS
 62
    3
 10
1135.195443858757
 20
1391.5783202058947
 11
1135.195443858757
 21
1369.5779506957597
  0
LINE
  8
_0-2_
  6
CONTINUOUS
 62
    3
 10
1135.195443858757
 20
1369.5779506957597
 11
1125.1954108667808
 21
1369.5779506957597
  0
LINE
  8
_0-2_
  6
CONTINUOUS
 62
    3
 10
1125.1954108667808
 20
1369.5779506957597
 11
1125.1954108667808
 21
1391.5783202058947
  0
LINE
  8
_0-2_
  6
CONTINUOUS
 62
    3
 10
1125.1954108667808
 20
1391.5783202058947
 11
1135.195443858757
 21
1391.5783202058947
  0
LINE
  8
_0-2_
  6
CONTINUOUS
 62
    3
 10
1177.1953844731995
 20
1391.5783202058947
 11
1177.1953844731995
 21
1369.5779506957597
  0
LINE
  8
_0-2_
  6
CONTINUOUS
 62
    3
 10
1177.1953844731995
 20
1369.5779506957597
 11
1141.1956121178353
 21
1369.5779506957597
  0
LINE
  8
_0-2_
  6
CONTINUOUS
 62
    3
 10
1141.1956121178353
 20
1369.5779506957597
 11
1141.1956121178353
 21
1391.5783202058947
  0
LINE
  8
_0-2_
  6
CONTINUOUS
 62
    3
 10
1141.1956121178353
 20
1391.5783202058947
 11
1177.1953844731995
 21
1391.5783202058947
  0
LINE
  8
_0-2_
  6
CONTINUOUS
 62
    3
 10
1193.1955857242556
 20
1391.5783202058947
 11
1193.1955857242556
 21
1369.5779506957597
  0
LINE
  8
_0-2_
  6
CONTINUOUS
 62
    3
 10
1193.1955857242556
 20
1369.5779506957597
 11
1183.1955527322793
 21
1369.5779506957597
  0
LINE
  8
_0-2_
  6
CONTINUOUS
 62
    3
 10
1183.1955527322793
 20
1369.5779506957597
 11
1183.1955527322793
 21
1391.5783202058947
  0
LINE
  8
_0-2_
  6
CONTINUOUS
 62
    3
 10
1183.1955527322793
 20
1391.5783202058947
 11
1193.1955857242556
 21
1391.5783202058947
  0
LINE
  8
_0-2_
  6
CONTINUOUS
 62
    3
 10
1235.1955263386981
 20
1391.5783202058947
 11
1235.1955263386981
 21
1369.5779506957597
  0
LINE
  8
_0-2_
  6
CONTINUOUS
 62
    3
 10
1235.1955263386981
 20
1369.5779506957597
 11
1199.1957539833338
 21
1369.5779506957597
  0
LINE
  8
_0-2_
  6
CONTINUOUS
 62
    3
 10
1199.1957539833338
 20
1369.5779506957597
 11
1199.1957539833338
 21
1391.5783202058947
  0
LINE
  8
_0-2_
  6
CONTINUOUS
 62
    3
 10
1199.1957539833338
 20
1391.5783202058947
 11
1235.1955263386981
 21
1391.5783202058947
  0
LINE
  8
_0-2_
  6
CONTINUOUS
 62
    3
 10
1251.1957275897541
 20
1391.5783202058947
 11
1251.1957275897541
 21
1369.5779506957597
  0
LINE
  8
_0-2_
  6
CONTINUOUS
 62
    3
 10
1251.1957275897541
 20
1369.5779506957597
 11
1241.1956945977763
 21
1369.5779506957597
  0
LINE
  8
_0-2_
  6
CONTINUOUS
 62
    3
 10
1241.1956945977763
 20
1369.5779506957597
 11
1241.1956945977763
 21
1391.5783202058947
  0
LINE
  8
_0-2_
  6
CONTINUOUS
 62
    3
 10
1241.1956945977763
 20
1391.5783202058947
 11
1251.1957275897541
 21
1391.5783202058947
  0
LINE
  8
_0-2_
  6
CONTINUOUS
 62
    3
 10
1105.1955923226512
 20
1399.5780496716884
 11
1155.1952624028866
 21
1399.5780496716884
  0
LINE
  8
_0-2_
  6
CONTINUOUS
 62
    3
 10
1213.1954042683851
 20
1399.5780496716884
 11
1163.1954867483269
 21
1399.5780496716884
  0
LINE
  8
_0-2_
  6
CONTINUOUS
 62
    3
 10
1271.1955461338837
 20
1399.5780496716884
 11
1221.1953811740009
 21
1399.5780496716884
  0
LINE
  8
_0-2_
  6
CONTINUOUS
 62
    3
 10
1221.1953811740009
 20
1399.5780496716884
 11
1221.1953811740009
 21
1421.5780480220894
  0
LINE
  8
_0-2_
  6
CONTINUOUS
 62
    3
 10
1271.1955461338837
 20
1421.5780480220894
 11
1271.1955461338837
 21
1399.5780496716884
  0
LINE
  8
_0-2_
  6
CONTINUOUS
 62
    3
 10
1163.1954867483269
 20
1399.5780496716884
 11
1163.1954867483269
 21
1421.5780480220894
  0
LINE
  8
_0-2_
  6
CONTINUOUS
 62
    3
 10
1213.1954042683851
 20
1421.5780480220894
 11
1213.1954042683851
 21
1399.5780496716884
  0
LINE
  8
_0-2_
  6
CONTINUOUS
 62
    3
 10
1155.1952624028866
 20
1421.5780480220894
 11
1155.1952624028866
 21
1399.5780496716884
  0
LINE
  8
_0-2_
  6
CONTINUOUS
 62
    3
 10
1105.1955923226512
 20
1421.5780480220894
 11
1105.1955923226512
 21
1399.5780496716884
  0
LINE
  8
_0-2_
  6
CONTINUOUS
 62
    3
 10
1105.1950974430054
 20
1421.5780480220894
 11
1155.1952624028866
 21
1421.5780480220894
  0
LINE
  8
_0-2_
  6
CONTINUOUS
 62
    3
 10
1163.1951155885924
 20
1421.5780480220894
 11
1213.1952805484736
 21
1421.5780480220894
  0
LINE
  8
_0-2_
  6
CONTINUOUS
 62
    3
 10
1221.1951337341795
 20
1421.5780480220894
 11
1271.1952986940607
 21
1421.5780480220894
  0
LINE
  8
_0-2_
  6
CONTINUOUS
 62
    3
 10
873.19527230047993
 20
1339.5780991596534
 11
923.19518982053978
 21
1339.5780991596534
  0
LINE
  8
_0-2_
  6
CONTINUOUS
 62
    3
 10
815.19513043498137
 20
1339.5780991596534
 11
865.19529539486257
 21
1339.5780991596534
  0
LINE
  8
_0-2_
  6
CONTINUOUS
 62
    3
 10
951.19523271010803
 20
1331.578369693859
 11
951.19523271010803
 21
1309.5780001837243
  0
LINE
  8
_0-2_
  6
CONTINUOUS
 62
    3
 10
909.19529209566554
 20
1331.578369693859
 11
909.19529209566554
 21
1309.5780001837243
  0
LINE
  8
_0-2_
  6
CONTINUOUS
 62
    3
 10
909.19529209566554
 20
1309.5780001837243
 11
945.1950644510282
 21
1309.5780001837243
  0
LINE
  8
_0-2_
  6
CONTINUOUS
 62
    3
 10
945.1950644510282
 20
1309.5780001837243
 11
945.1950644510282
 21
1331.578369693859
  0
LINE
  8
_0-2_
  6
CONTINUOUS
 62
    3
 10
945.1950644510282
 20
1331.578369693859
 11
909.19529209566554
 21
1331.578369693859
  0
LINE
  8
_0-2_
  6
CONTINUOUS
 62
    3
 10
893.19509084460947
 20
1331.578369693859
 11
893.19509084460947
 21
1309.5780001837243
  0
LINE
  8
_0-2_
  6
CONTINUOUS
 62
    3
 10
893.19509084460947
 20
1309.5780001837243
 11
903.19512383658571
 21
1309.5780001837243
  0
LINE
  8
_0-2_
  6
CONTINUOUS
 62
    3
 10
903.19512383658571
 20
1309.5780001837243
 11
903.19512383658571
 21
1331.578369693859
  0
LINE
  8
_0-2_
  6
CONTINUOUS
 62
    3
 10
903.19512383658571
 20
1331.578369693859
 11
893.19509084460947
 21
1331.578369693859
  0
LINE
  8
_0-2_
  6
CONTINUOUS
 62
    3
 10
851.19515023016697
 20
1331.578369693859
 11
851.19515023016697
 21
1309.5780001837243
  0
LINE
  8
_0-2_
  6
CONTINUOUS
 62
    3
 10
851.19515023016697
 20
1309.5780001837243
 11
887.19517002535258
 21
1309.5780001837243
  0
LINE
  8
_0-2_
  6
CONTINUOUS
 62
    3
 10
887.19517002535258
 20
1309.5780001837243
 11
887.19517002535258
 21
1331.578369693859
  0
LINE
  8
_0-2_
  6
CONTINUOUS
 62
    3
 10
887.19517002535258
 20
1331.578369693859
 11
851.19515023016697
 21
1331.578369693859
  0
LINE
  8
_0-2_
  6
CONTINUOUS
 62
    3
 10
835.19519641893385
 20
1331.578369693859
 11
835.19519641893385
 21
1309.5780001837243
  0
LINE
  8
_0-2_
  6
CONTINUOUS
 62
    3
 10
835.19519641893385
 20
1309.5780001837243
 11
845.19522941091009
 21
1309.5780001837243
  0
LINE
  8
_0-2_
  6
CONTINUOUS
 62
    3
 10
845.19522941091009
 20
1309.5780001837243
 11
845.19522941091009
 21
1331.578369693859
  0
LINE
  8
_0-2_
  6
CONTINUOUS
 62
    3
 10
845.19522941091009
 20
1331.578369693859
 11
835.19519641893385
 21
1331.578369693859
  0
LINE
  8
_0-2_
  6
CONTINUOUS
 62
    3
 10
793.19525580449135
 20
1331.578369693859
 11
793.19525580449135
 21
1309.5780001837243
  0
LINE
  8
_0-2_
  6
CONTINUOUS
 62
    3
 10
793.19525580449135
 20
1309.5780001837243
 11
829.19502815985402
 21
1309.5780001837243
  0
LINE
  8
_0-2_
  6
CONTINUOUS
 62
    3
 10
829.19502815985402
 20
1309.5780001837243
 11
829.19502815985402
 21
1331.578369693859
  0
LINE
  8
_0-2_
  6
CONTINUOUS
 62
    3
 10
829.19502815985402
 20
1331.578369693859
 11
793.19525580449135
 21
1331.578369693859
  0
LINE
  8
_0-2_
  6
CONTINUOUS
 62
    3
 10
777.19505455343528
 20
1331.578369693859
 11
777.19505455343528
 21
1309.5780001837243
  0
LINE
  8
_0-2_
  6
CONTINUOUS
 62
    3
 10
777.19505455343528
 20
1309.5780001837243
 11
787.19508754541152
 21
1309.5780001837243
  0
LINE
  8
_0-2_
  6
CONTINUOUS
 62
    3
 10
787.19508754541152
 20
1309.5780001837243
 11
787.19508754541152
 21
1331.578369693859
  0
LINE
  8
_0-2_
  6
CONTINUOUS
 62
    3
 10
787.19508754541152
 20
1331.578369693859
 11
777.19505455343528
 21
1331.578369693859
  0
LINE
  8
_0-2_
  6
CONTINUOUS
 62
    3
 10
661.19501826226201
 20
1309.5780001837243
 11
671.19505125423825
 21
1309.5780001837243
  0
LINE
  8
_0-2_
  6
CONTINUOUS
 62
    3
 10
619.19507764781952
 20
1331.578369693859
 11
619.19507764781952
 21
1309.5780001837243
  0
LINE
  8
_0-2_
  6
CONTINUOUS
 62
    3
 10
619.19507764781952
 20
1309.5780001837243
 11
655.19509744300512
 21
1309.5780001837243
  0
LINE
  8
_0-2_
  6
CONTINUOUS
 62
    3
 10
655.19509744300512
 20
1309.5780001837243
 11
655.19509744300512
 21
1331.578369693859
  0
LINE
  8
_0-2_
  6
CONTINUOUS
 62
    3
 10
613.19490938874037
 20
1309.5780001837243
 11
613.19490938874037
 21
1331.578369693859
  0
LINE
  8
_0-2_
  6
CONTINUOUS
 62
    3
 10
613.19490938874037
 20
1331.578369693859
 11
603.19487639676345
 21
1331.578369693859
  0
LINE
  8
_0-2_
  6
CONTINUOUS
 62
    3
 10
931.19541416597849
 20
1339.5780991596534
 11
981.19508424621381
 21
1339.5780991596534
  0
LINE
  8
_0-2_
  6
CONTINUOUS
 62
    3
 10
961.19526570208427
 20
1331.578369693859
 11
951.19523271010803
 21
1331.578369693859
  0
LINE
  8
_0-2_
  6
CONTINUOUS
 62
    3
 10
951.19523271010803
 20
1309.5780001837243
 11
961.19526570208427
 21
1309.5780001837243
  0
LINE
  8
_0-2_
  6
CONTINUOUS
 62
    3
 10
661.19501826226201
 20
1331.578369693859
 11
661.19501826226201
 21
1309.5780001837243
  0
LINE
  8
_0-2_
  6
CONTINUOUS
 62
    3
 10
671.19505125423825
 20
1331.578369693859
 11
661.19501826226201
 21
1331.578369693859
  0
LINE
  8
_0-2_
  6
CONTINUOUS
 62
    3
 10
671.19505125423825
 20
1309.5780001837243
 11
671.19505125423825
 21
1331.578369693859
  0
LINE
  8
_0-2_
  6
CONTINUOUS
 62
    3
 10
619.19507764781952
 20
1331.578369693859
 11
655.19509744300512
 21
1331.578369693859
  0
LINE
  8
_0-2_
  6
CONTINUOUS
 62
    3
 10
1039.1952261117124
 20
1339.5780991596534
 11
989.19530859165411
 21
1339.5780991596534
  0
LINE
  8
_0-2_
  6
CONTINUOUS
 62
    3
 10
1097.1953679772109
 20
1339.5780991596534
 11
1047.1952030173297
 21
1339.5780991596534
  0
LINE
  8
_0-2_
  6
CONTINUOUS
 62
    3
 10
961.19526570208427
 20
1331.578369693859
 11
961.19526570208427
 21
1309.5780001837243
  0
LINE
  8
_0-2_
  6
CONTINUOUS
 62
    3
 10
1003.1952063165268
 20
1331.578369693859
 11
1003.1952063165268
 21
1309.5780001837243
  0
LINE
  8
_0-2_
  6
CONTINUOUS
 62
    3
 10
1003.1952063165268
 20
1309.5780001837243
 11
967.1954339611641
 21
1309.5780001837243
  0
LINE
  8
_0-2_
  6
CONTINUOUS
 62
    3
 10
967.1954339611641
 20
1309.5780001837243
 11
967.1954339611641
 21
1331.578369693859
  0
LINE
  8
_0-2_
  6
CONTINUOUS
 62
    3
 10
967.1954339611641
 20
1331.578369693859
 11
1003.1952063165268
 21
1331.578369693859
  0
LINE
  8
_0-2_
  6
CONTINUOUS
 62
    3
 10
1019.1954075675828
 20
1331.578369693859
 11
1019.1954075675828
 21
1309.5780001837243
  0
LINE
  8
_0-2_
  6
CONTINUOUS
 62
    3
 10
1019.1954075675828
 20
1309.5780001837243
 11
1009.1953745756066
 21
1309.5780001837243
  0
LINE
  8
_0-2_
  6
CONTINUOUS
 62
    3
 10
1009.1953745756066
 20
1309.5780001837243
 11
1009.1953745756066
 21
1331.578369693859
  0
LINE
  8
_0-2_
  6
CONTINUOUS
 62
    3
 10
1009.1953745756066
 20
1331.578369693859
 11
1019.1954075675828
 21
1331.578369693859
  0
LINE
  8
_0-2_
  6
CONTINUOUS
 62
    3
 10
1061.1953481820253
 20
1331.578369693859
 11
1061.1953481820253
 21
1309.5780001837243
  0
LINE
  8
_0-2_
  6
CONTINUOUS
 62
    3
 10
1061.1953481820253
 20
1309.5780001837243
 11
1025.1953283868397
 21
1309.5780001837243
  0
LINE
  8
_0-2_
  6
CONTINUOUS
 62
    3
 10
1025.1953283868397
 20
1309.5780001837243
 11
1025.1953283868397
 21
1331.578369693859
  0
LINE
  8
_0-2_
  6
CONTINUOUS
 62
    3
 10
1025.1953283868397
 20
1331.578369693859
 11
1061.1953481820253
 21
1331.578369693859
  0
LINE
  8
_0-2_
  6
CONTINUOUS
 62
    3
 10
1077.1953019932585
 20
1331.578369693859
 11
1077.1953019932585
 21
1309.5780001837243
  0
LINE
  8
_0-2_
  6
CONTINUOUS
 62
    3
 10
1077.1953019932585
 20
1309.5780001837243
 11
1067.1952690012822
 21
1309.5780001837243
  0
LINE
  8
_0-2_
  6
CONTINUOUS
 62
    3
 10
1067.1952690012822
 20
1309.5780001837243
 11
1067.1952690012822
 21
1331.578369693859
  0
LINE
  8
_0-2_
  6
CONTINUOUS
 62
    3
 10
1067.1952690012822
 20
1331.578369693859
 11
1077.1953019932585
 21
1331.578369693859
  0
LINE
  8
_0-2_
  6
CONTINUOUS
 62
    3
 10
1119.1952426077009
 20
1331.578369693859
 11
1119.1952426077009
 21
1309.5780001837243
  0
LINE
  8
_0-2_
  6
CONTINUOUS
 62
    3
 10
1119.1952426077009
 20
1309.5780001837243
 11
1083.1954702523383
 21
1309.5780001837243
  0
LINE
  8
_0-2_
  6
CONTINUOUS
 62
    3
 10
1083.1954702523383
 20
1309.5780001837243
 11
1083.1954702523383
 21
1331.578369693859
  0
LINE
  8
_0-2_
  6
CONTINUOUS
 62
    3
 10
1083.1954702523383
 20
1331.578369693859
 11
1119.1952426077009
 21
1331.578369693859
  0
LINE
  8
_0-2_
  6
CONTINUOUS
 62
    3
 10
1293.1954207643737
 20
1331.578369693859
 11
1293.1954207643737
 21
1309.5780001837243
  0
LINE
  8
_0-2_
  6
CONTINUOUS
 62
    3
 10
1293.1954207643737
 20
1309.5780001837243
 11
1257.1954009691881
 21
1309.5780001837243
  0
LINE
  8
_0-2_
  6
CONTINUOUS
 62
    3
 10
1257.1954009691881
 20
1309.5780001837243
 11
1257.1954009691881
 21
1331.578369693859
  0
LINE
  8
_0-2_
  6
CONTINUOUS
 62
    3
 10
1299.1955890234519
 20
1309.5780001837243
 11
1299.1955890234519
 21
1331.578369693859
  0
LINE
  8
_0-2_
  6
CONTINUOUS
 62
    3
 10
1299.1955890234519
 20
1331.578369693859
 11
1309.1956220154298
 21
1331.578369693859
  0
LINE
  8
_0-2_
  6
CONTINUOUS
 62
    3
 10
1293.1954207643737
 20
1331.578369693859
 11
1257.1954009691881
 21
1331.578369693859
  0
LINE
  8
_0-2_
  6
CONTINUOUS
 62
    3
 10
735.1951139389937
 20
1331.578369693859
 11
735.1951139389937
 21
1309.5780001837243
  0
LINE
  8
_0-2_
  6
CONTINUOUS
 62
    3
 10
735.1951139389937
 20
1309.5780001837243
 11
771.1951337341784
 21
1309.5780001837243
  0
LINE
  8
_0-2_
  6
CONTINUOUS
 62
    3
 10
771.1951337341784
 20
1309.5780001837243
 11
771.1951337341784
 21
1331.578369693859
  0
LINE
  8
_0-2_
  6
CONTINUOUS
 62
    3
 10
771.1951337341784
 20
1331.578369693859
 11
735.1951139389937
 21
1331.578369693859
  0
LINE
  8
_0-2_
  6
CONTINUOUS
 62
    3
 10
719.19516012775966
 20
1331.578369693859
 11
719.19516012775966
 21
1309.5780001837243
  0
LINE
  8
_0-2_
  6
CONTINUOUS
 62
    3
 10
719.19516012775966
 20
1309.5780001837243
 11
729.19519311973681
 21
1309.5780001837243
  0
LINE
  8
_0-2_
  6
CONTINUOUS
 62
    3
 10
729.19519311973681
 20
1309.5780001837243
 11
729.19519311973681
 21
1331.578369693859
  0
LINE
  8
_0-2_
  6
CONTINUOUS
 62
    3
 10
729.19519311973681
 20
1331.578369693859
 11
719.19516012775966
 21
1331.578369693859
  0
LINE
  8
_0-2_
  6
CONTINUOUS
 62
    3
 10
677.19521951331808
 20
1331.578369693859
 11
677.19521951331808
 21
1309.5780001837243
  0
LINE
  8
_0-2_
  6
CONTINUOUS
 62
    3
 10
677.19521951331808
 20
1309.5780001837243
 11
713.19499186868075
 21
1309.5780001837243
  0
LINE
  8
_0-2_
  6
CONTINUOUS
 62
    3
 10
713.19499186868075
 20
1309.5780001837243
 11
713.19499186868075
 21
1331.578369693859
  0
LINE
  8
_0-2_
  6
CONTINUOUS
 62
    3
 10
713.19499186868075
 20
1331.578369693859
 11
677.19521951331808
 21
1331.578369693859
  0
LINE
  8
_0-2_
  6
CONTINUOUS
 62
    3
 10
1279.1952755996781
 20
1339.5780991596534
 11
1279.1952755996781
 21
1361.5780975100545
  0
LINE
  8
_0-2_
  6
CONTINUOUS
 62
    3
 10
1047.1952030173297
 20
1339.5780991596534
 11
1047.1952030173297
 21
1361.5780975100545
  0
LINE
  8
_0-2_
  6
CONTINUOUS
 62
    3
 10
1097.1953679772109
 20
1361.5780975100545
 11
1097.1953679772109
 21
1339.5780991596534
  0
LINE
  8
_0-2_
  6
CONTINUOUS
 62
    3
 10
989.19530859165411
 20
1339.5780991596534
 11
989.19530859165411
 21
1361.5780975100545
  0
LINE
  8
_0-2_
  6
CONTINUOUS
 62
    3
 10
1039.1952261117124
 20
1361.5780975100545
 11
1039.1952261117124
 21
1339.5780991596534
  0
LINE
  8
_0-2_
  6
CONTINUOUS
 62
    3
 10
981.19508424621381
 20
1361.5780975100545
 11
981.19508424621381
 21
1339.5780991596534
  0
LINE
  8
_0-2_
  6
CONTINUOUS
 62
    3
 10
633.19522281251511
 20
1339.5780991596534
 11
633.19522281251511
 21
1361.5780975100545
  0
LINE
  8
_0-2_
  6
CONTINUOUS
 62
    3
 10
865.19529539486257
 20
1339.5780991596534
 11
865.19529539486257
 21
1361.5780975100545
  0
LINE
  8
_0-2_
  6
CONTINUOUS
 62
    3
 10
815.19513043498137
 20
1361.5780975100545
 11
815.19513043498137
 21
1339.5780991596534
  0
LINE
  8
_0-2_
  6
CONTINUOUS
 62
    3
 10
923.19518982053978
 20
1339.5780991596534
 11
923.19518982053978
 21
1361.5780975100545
  0
LINE
  8
_0-2_
  6
CONTINUOUS
 62
    3
 10
873.19527230047993
 20
1361.5780975100545
 11
873.19527230047993
 21
1339.5780991596534
  0
LINE
  8
_0-2_
  6
CONTINUOUS
 62
    3
 10
931.19541416597849
 20
1361.5780975100545
 11
931.19541416597849
 21
1339.5780991596534
  0
LINE
  8
_0-2_
  6
CONTINUOUS
 62
    3
 10
699.19509414380718
 20
1339.5780991596534
 11
749.19501166386704
 21
1339.5780991596534
  0
LINE
  8
_0-2_
  6
CONTINUOUS
 62
    3
 10
641.19495227830862
 20
1339.5780991596534
 11
691.19511723819141
 21
1339.5780991596534
  0
LINE
  8
_0-2_
  6
CONTINUOUS
 62
    3
 10
757.19523600930575
 20
1339.5780991596534
 11
807.19490608954266
 21
1339.5780991596534
  0
LINE
  8
_0-2_
  6
CONTINUOUS
 62
    3
 10
807.19490608954266
 20
1361.5780975100545
 11
807.19490608954266
 21
1339.5780991596534
  0
LINE
  8
_0-2_
  6
CONTINUOUS
 62
    3
 10
691.19511723819141
 20
1339.5780991596534
 11
691.19511723819141
 21
1361.5780975100545
  0
LINE
  8
_0-2_
  6
CONTINUOUS
 62
    3
 10
641.19495227830862
 20
1361.5780975100545
 11
641.19495227830862
 21
1339.5780991596534
  0
LINE
  8
_0-2_
  6
CONTINUOUS
 62
    3
 10
749.19501166386704
 20
1339.5780991596534
 11
749.19501166386704
 21
1361.5780975100545
  0
LINE
  8
_0-2_
  6
CONTINUOUS
 62
    3
 10
699.19509414380718
 20
1361.5780975100545
 11
699.19509414380718
 21
1339.5780991596534
  0
LINE
  8
_0-2_
  6
CONTINUOUS
 62
    3
 10
757.19523600930575
 20
1361.5780975100545
 11
757.19523600930575
 21
1339.5780991596534
  0
LINE
  8
_0-2_
  6
CONTINUOUS
 62
    3
 10
641.19495227830862
 20
1361.5780975100545
 11
691.19511723819141
 21
1361.5780975100545
  0
LINE
  8
_0-2_
  6
CONTINUOUS
 62
    3
 10
699.19497042389662
 20
1361.5780975100545
 11
749.19513538377851
 21
1361.5780975100545
  0
LINE
  8
_0-2_
  6
CONTINUOUS
 62
    3
 10
757.19498856948371
 20
1361.5780975100545
 11
807.1951535293656
 21
1361.5780975100545
  0
LINE
  8
_0-2_
  6
CONTINUOUS
 62
    3
 10
815.19488299515842
 20
1361.5780975100545
 11
865.19504795504122
 21
1361.5780975100545
  0
LINE
  8
_0-2_
  6
CONTINUOUS
 62
    3
 10
873.19490114074551
 20
1361.5780975100545
 11
923.19506610062831
 21
1361.5780975100545
  0
LINE
  8
_0-2_
  6
CONTINUOUS
 62
    3
 10
931.19491928633261
 20
1361.5780975100545
 11
981.19508424621381
 21
1361.5780975100545
  0
LINE
  8
_0-2_
  6
CONTINUOUS
 62
    3
 10
989.1949374319197
 20
1361.5780975100545
 11
1039.1951023918009
 21
1361.5780975100545
  0
LINE
  8
_0-2_
  6
CONTINUOUS
 62
    3
 10
1047.1949555775068
 20
1361.5780975100545
 11
1097.195120537388
 21
1361.5780975100545
  0
LINE
  8
_0-2_
  6
CONTINUOUS
 62
    3
 10
1135.195443858757
 20
1331.578369693859
 11
1135.195443858757
 21
1309.5780001837243
  0
LINE
  8
_0-2_
  6
CONTINUOUS
 62
    3
 10
1135.195443858757
 20
1309.5780001837243
 11
1125.1954108667808
 21
1309.5780001837243
  0
LINE
  8
_0-2_
  6
CONTINUOUS
 62
    3
 10
1125.1954108667808
 20
1309.5780001837243
 11
1125.1954108667808
 21
1331.578369693859
  0
LINE
  8
_0-2_
  6
CONTINUOUS
 62
    3
 10
1125.1954108667808
 20
1331.578369693859
 11
1135.195443858757
 21
1331.578369693859
  0
LINE
  8
_0-2_
  6
CONTINUOUS
 62
    3
 10
1177.1953844731995
 20
1331.578369693859
 11
1177.1953844731995
 21
1309.5780001837243
  0
LINE
  8
_0-2_
  6
CONTINUOUS
 62
    3
 10
1177.1953844731995
 20
1309.5780001837243
 11
1141.1956121178353
 21
1309.5780001837243
  0
LINE
  8
_0-2_
  6
CONTINUOUS
 62
    3
 10
1141.1956121178353
 20
1309.5780001837243
 11
1141.1956121178353
 21
1331.578369693859
  0
LINE
  8
_0-2_
  6
CONTINUOUS
 62
    3
 10
1141.1956121178353
 20
1331.578369693859
 11
1177.1953844731995
 21
1331.578369693859
  0
LINE
  8
_0-2_
  6
CONTINUOUS
 62
    3
 10
1193.1955857242556
 20
1331.578369693859
 11
1193.1955857242556
 21
1309.5780001837243
  0
LINE
  8
_0-2_
  6
CONTINUOUS
 62
    3
 10
1193.1955857242556
 20
1309.5780001837243
 11
1183.1955527322793
 21
1309.5780001837243
  0
LINE
  8
_0-2_
  6
CONTINUOUS
 62
    3
 10
1183.1955527322793
 20
1309.5780001837243
 11
1183.1955527322793
 21
1331.578369693859
  0
LINE
  8
_0-2_
  6
CONTINUOUS
 62
    3
 10
1183.1955527322793
 20
1331.578369693859
 11
1193.1955857242556
 21
1331.578369693859
  0
LINE
  8
_0-2_
  6
CONTINUOUS
 62
    3
 10
1235.1955263386981
 20
1331.578369693859
 11
1235.1955263386981
 21
1309.5780001837243
  0
LINE
  8
_0-2_
  6
CONTINUOUS
 62
    3
 10
1235.1955263386981
 20
1309.5780001837243
 11
1199.1957539833338
 21
1309.5780001837243
  0
LINE
  8
_0-2_
  6
CONTINUOUS
 62
    3
 10
1199.1957539833338
 20
1309.5780001837243
 11
1199.1957539833338
 21
1331.578369693859
  0
LINE
  8
_0-2_
  6
CONTINUOUS
 62
    3
 10
1199.1957539833338
 20
1331.578369693859
 11
1235.1955263386981
 21
1331.578369693859
  0
LINE
  8
_0-2_
  6
CONTINUOUS
 62
    3
 10
1251.1957275897541
 20
1331.578369693859
 11
1251.1957275897541
 21
1309.5780001837243
  0
LINE
  8
_0-2_
  6
CONTINUOUS
 62
    3
 10
1251.1957275897541
 20
1309.5780001837243
 11
1241.1956945977763
 21
1309.5780001837243
  0
LINE
  8
_0-2_
  6
CONTINUOUS
 62
    3
 10
1241.1956945977763
 20
1309.5780001837243
 11
1241.1956945977763
 21
1331.578369693859
  0
LINE
  8
_0-2_
  6
CONTINUOUS
 62
    3
 10
1241.1956945977763
 20
1331.578369693859
 11
1251.1957275897541
 21
1331.578369693859
  0
LINE
  8
_0-2_
  6
CONTINUOUS
 62
    3
 10
1105.1955923226512
 20
1339.5780991596534
 11
1155.1952624028866
 21
1339.5780991596534
  0
LINE
  8
_0-2_
  6
CONTINUOUS
 62
    3
 10
1213.1954042683851
 20
1339.5780991596534
 11
1163.1954867483269
 21
1339.5780991596534
  0
LINE
  8
_0-2_
  6
CONTINUOUS
 62
    3
 10
1271.1955461338837
 20
1339.5780991596534
 11
1221.1953811740009
 21
1339.5780991596534
  0
LINE
  8
_0-2_
  6
CONTINUOUS
 62
    3
 10
1221.1953811740009
 20
1339.5780991596534
 11
1221.1953811740009
 21
1361.5780975100545
  0
LINE
  8
_0-2_
  6
CONTINUOUS
 62
    3
 10
1271.1955461338837
 20
1361.5780975100545
 11
1271.1955461338837
 21
1339.5780991596534
  0
LINE
  8
_0-2_
  6
CONTINUOUS
 62
    3
 10
1163.1954867483269
 20
1339.5780991596534
 11
1163.1954867483269
 21
1361.5780975100545
  0
LINE
  8
_0-2_
  6
CONTINUOUS
 62
    3
 10
1213.1954042683851
 20
1361.5780975100545
 11
1213.1954042683851
 21
1339.5780991596534
  0
LINE
  8
_0-2_
  6
CONTINUOUS
 62
    3
 10
1155.1952624028866
 20
1361.5780975100545
 11
1155.1952624028866
 21
1339.5780991596534
  0
LINE
  8
_0-2_
  6
CONTINUOUS
 62
    3
 10
1105.1955923226512
 20
1361.5780975100545
 11
1105.1955923226512
 21
1339.5780991596534
  0
LINE
  8
_0-2_
  6
CONTINUOUS
 62
    3
 10
1105.1950974430054
 20
1361.5780975100545
 11
1155.1952624028866
 21
1361.5780975100545
  0
LINE
  8
_0-2_
  6
CONTINUOUS
 62
    3
 10
1163.1951155885924
 20
1361.5780975100545
 11
1213.1952805484736
 21
1361.5780975100545
  0
LINE
  8
_0-2_
  6
CONTINUOUS
 62
    3
 10
1221.1951337341795
 20
1361.5780975100545
 11
1271.1952986940607
 21
1361.5780975100545
  0
LINE
  8
_0-2_
  6
CONTINUOUS
 62
    3
 10
815.19513043498137
 20
1279.5780249277063
 11
865.19529539486257
 21
1279.5780249277063
  0
LINE
  8
_0-2_
  6
CONTINUOUS
 62
    3
 10
835.19519641893385
 20
1271.5782954619126
 11
835.19519641893385
 21
1249.5779259517776
  0
LINE
  8
_0-2_
  6
CONTINUOUS
 62
    3
 10
835.19519641893385
 20
1249.5779259517776
 11
845.19522941091009
 21
1249.5779259517776
  0
LINE
  8
_0-2_
  6
CONTINUOUS
 62
    3
 10
845.19522941091009
 20
1249.5779259517776
 11
845.19522941091009
 21
1271.5782954619126
  0
LINE
  8
_0-2_
  6
CONTINUOUS
 62
    3
 10
845.19522941091009
 20
1271.5782954619126
 11
835.19519641893385
 21
1271.5782954619126
  0
LINE
  8
_0-2_
  6
CONTINUOUS
 62
    3
 10
793.19525580449135
 20
1271.5782954619126
 11
793.19525580449135
 21
1249.5779259517776
  0
LINE
  8
_0-2_
  6
CONTINUOUS
 62
    3
 10
793.19525580449135
 20
1249.5779259517776
 11
829.19502815985402
 21
1249.5779259517776
  0
LINE
  8
_0-2_
  6
CONTINUOUS
 62
    3
 10
829.19502815985402
 20
1249.5779259517776
 11
829.19502815985402
 21
1271.5782954619126
  0
LINE
  8
_0-2_
  6
CONTINUOUS
 62
    3
 10
829.19502815985402
 20
1271.5782954619126
 11
793.19525580449135
 21
1271.5782954619126
  0
LINE
  8
_0-2_
  6
CONTINUOUS
 62
    3
 10
777.19505455343528
 20
1271.5782954619126
 11
777.19505455343528
 21
1249.5779259517776
  0
LINE
  8
_0-2_
  6
CONTINUOUS
 62
    3
 10
777.19505455343528
 20
1249.5779259517776
 11
787.19508754541152
 21
1249.5779259517776
  0
LINE
  8
_0-2_
  6
CONTINUOUS
 62
    3
 10
787.19508754541152
 20
1249.5779259517776
 11
787.19508754541152
 21
1271.5782954619126
  0
LINE
  8
_0-2_
  6
CONTINUOUS
 62
    3
 10
787.19508754541152
 20
1271.5782954619126
 11
777.19505455343528
 21
1271.5782954619126
  0
LINE
  8
_0-2_
  6
CONTINUOUS
 62
    3
 10
661.19501826226201
 20
1249.5779259517776
 11
671.19505125423825
 21
1249.5779259517776
  0
LINE
  8
_0-2_
  6
CONTINUOUS
 62
    3
 10
655.19509744300512
 20
1249.5779259517776
 11
655.19509744300512
 21
1271.5782954619126
  0
LINE
  8
_0-2_
  6
CONTINUOUS
 62
    3
 10
661.19501826226201
 20
1271.5782954619126
 11
661.19501826226201
 21
1249.5779259517776
  0
LINE
  8
_0-2_
  6
CONTINUOUS
 62
    3
 10
671.19505125423825
 20
1271.5782954619126
 11
661.19501826226201
 21
1271.5782954619126
  0
LINE
  8
_0-2_
  6
CONTINUOUS
 62
    3
 10
671.19505125423825
 20
1249.5779259517776
 11
671.19505125423825
 21
1271.5782954619126
  0
LINE
  8
_0-2_
  6
CONTINUOUS
 62
    3
 10
1097.1953679772109
 20
1279.5780249277063
 11
1047.1952030173297
 21
1279.5780249277063
  0
LINE
  8
_0-2_
  6
CONTINUOUS
 62
    3
 10
1077.1953019932585
 20
1271.5782954619126
 11
1077.1953019932585
 21
1249.5779259517776
  0
LINE
  8
_0-2_
  6
CONTINUOUS
 62
    3
 10
1077.1953019932585
 20
1249.5779259517776
 11
1067.1952690012822
 21
1249.5779259517776
  0
LINE
  8
_0-2_
  6
CONTINUOUS
 62
    3
 10
1067.1952690012822
 20
1249.5779259517776
 11
1067.1952690012822
 21
1271.5782954619126
  0
LINE
  8
_0-2_
  6
CONTINUOUS
 62
    3
 10
1067.1952690012822
 20
1271.5782954619126
 11
1077.1953019932585
 21
1271.5782954619126
  0
LINE
  8
_0-2_
  6
CONTINUOUS
 62
    3
 10
1119.1952426077009
 20
1271.5782954619126
 11
1119.1952426077009
 21
1249.5779259517776
  0
LINE
  8
_0-2_
  6
CONTINUOUS
 62
    3
 10
1119.1952426077009
 20
1249.5779259517776
 11
1083.1954702523383
 21
1249.5779259517776
  0
LINE
  8
_0-2_
  6
CONTINUOUS
 62
    3
 10
1083.1954702523383
 20
1249.5779259517776
 11
1083.1954702523383
 21
1271.5782954619126
  0
LINE
  8
_0-2_
  6
CONTINUOUS
 62
    3
 10
1083.1954702523383
 20
1271.5782954619126
 11
1119.1952426077009
 21
1271.5782954619126
  0
LINE
  8
_0-2_
  6
CONTINUOUS
 62
    3
 10
1257.1954009691881
 20
1249.5779259517776
 11
1257.1954009691881
 21
1271.5782954619126
  0
LINE
  8
_0-2_
  6
CONTINUOUS
 62
    3
 10
735.1951139389937
 20
1271.5782954619126
 11
735.1951139389937
 21
1249.5779259517776
  0
LINE
  8
_0-2_
  6
CONTINUOUS
 62
    3
 10
735.1951139389937
 20
1249.5779259517776
 11
771.1951337341784
 21
1249.5779259517776
  0
LINE
  8
_0-2_
  6
CONTINUOUS
 62
    3
 10
771.1951337341784
 20
1249.5779259517776
 11
771.1951337341784
 21
1271.5782954619126
  0
LINE
  8
_0-2_
  6
CONTINUOUS
 62
    3
 10
771.1951337341784
 20
1271.5782954619126
 11
735.1951139389937
 21
1271.5782954619126
  0
LINE
  8
_0-2_
  6
CONTINUOUS
 62
    3
 10
719.19516012775966
 20
1271.5782954619126
 11
719.19516012775966
 21
1249.5779259517776
  0
LINE
  8
_0-2_
  6
CONTINUOUS
 62
    3
 10
719.19516012775966
 20
1249.5779259517776
 11
729.19519311973681
 21
1249.5779259517776
  0
LINE
  8
_0-2_
  6
CONTINUOUS
 62
    3
 10
729.19519311973681
 20
1249.5779259517776
 11
729.19519311973681
 21
1271.5782954619126
  0
LINE
  8
_0-2_
  6
CONTINUOUS
 62
    3
 10
729.19519311973681
 20
1271.5782954619126
 11
719.19516012775966
 21
1271.5782954619126
  0
LINE
  8
_0-2_
  6
CONTINUOUS
 62
    3
 10
677.19521951331808
 20
1271.5782954619126
 11
677.19521951331808
 21
1249.5779259517776
  0
LINE
  8
_0-2_
  6
CONTINUOUS
 62
    3
 10
677.19521951331808
 20
1249.5779259517776
 11
713.19499186868075
 21
1249.5779259517776
  0
LINE
  8
_0-2_
  6
CONTINUOUS
 62
    3
 10
713.19499186868075
 20
1249.5779259517776
 11
713.19499186868075
 21
1271.5782954619126
  0
LINE
  8
_0-2_
  6
CONTINUOUS
 62
    3
 10
713.19499186868075
 20
1271.5782954619126
 11
677.19521951331808
 21
1271.5782954619126
  0
LINE
  8
_0-2_
  6
CONTINUOUS
 62
    3
 10
1279.1952755996781
 20
1279.5780249277063
 11
1279.1952755996781
 21
1301.5780232781074
  0
LINE
  8
_0-2_
  6
CONTINUOUS
 62
    3
 10
1047.1952030173297
 20
1279.5780249277063
 11
1047.1952030173297
 21
1301.5780232781074
  0
LINE
  8
_0-2_
  6
CONTINUOUS
 62
    3
 10
1097.1953679772109
 20
1301.5780232781074
 11
1097.1953679772109
 21
1279.5780249277063
  0
LINE
  8
_0-2_
  6
CONTINUOUS
 62
    3
 10
633.19522281251511
 20
1279.5780249277063
 11
633.19522281251511
 21
1301.5780232781074
  0
LINE
  8
_0-2_
  6
CONTINUOUS
 62
    3
 10
865.19529539486257
 20
1279.5780249277063
 11
865.19529539486257
 21
1301.5780232781074
  0
LINE
  8
_0-2_
  6
CONTINUOUS
 62
    3
 10
815.19513043498137
 20
1301.5780232781074
 11
815.19513043498137
 21
1279.5780249277063
  0
LINE
  8
_0-2_
  6
CONTINUOUS
 62
    3
 10
699.19509414380718
 20
1279.5780249277063
 11
749.19501166386704
 21
1279.5780249277063
  0
LINE
  8
_0-2_
  6
CONTINUOUS
 62
    3
 10
641.19495227830862
 20
1279.5780249277063
 11
691.19511723819141
 21
1279.5780249277063
  0
LINE
  8
_0-2_
  6
CONTINUOUS
 62
    3
 10
757.19523600930575
 20
1279.5780249277063
 11
807.19490608954266
 21
1279.5780249277063
  0
LINE
  8
_0-2_
  6
CONTINUOUS
 62
    3
 10
807.19490608954266
 20
1301.5780232781074
 11
807.19490608954266
 21
1279.5780249277063
  0
LINE
  8
_0-2_
  6
CONTINUOUS
 62
    3
 10
691.19511723819141
 20
1279.5780249277063
 11
691.19511723819141
 21
1301.5780232781074
  0
LINE
  8
_0-2_
  6
CONTINUOUS
 62
    3
 10
641.19495227830862
 20
1301.5780232781074
 11
641.19495227830862
 21
1279.5780249277063
  0
LINE
  8
_0-2_
  6
CONTINUOUS
 62
    3
 10
749.19501166386704
 20
1279.5780249277063
 11
749.19501166386704
 21
1301.5780232781074
  0
LINE
  8
_0-2_
  6
CONTINUOUS
 62
    3
 10
699.19509414380718
 20
1301.5780232781074
 11
699.19509414380718
 21
1279.5780249277063
  0
LINE
  8
_0-2_
  6
CONTINUOUS
 62
    3
 10
757.19523600930575
 20
1301.5780232781074
 11
757.19523600930575
 21
1279.5780249277063
  0
LINE
  8
_0-2_
  6
CONTINUOUS
 62
    3
 10
641.19495227830862
 20
1301.5780232781074
 11
691.19511723819141
 21
1301.5780232781074
  0
LINE
  8
_0-2_
  6
CONTINUOUS
 62
    3
 10
699.19497042389662
 20
1301.5780232781074
 11
749.19513538377851
 21
1301.5780232781074
  0
LINE
  8
_0-2_
  6
CONTINUOUS
 62
    3
 10
757.19498856948371
 20
1301.5780232781074
 11
807.1951535293656
 21
1301.5780232781074
  0
LINE
  8
_0-2_
  6
CONTINUOUS
 62
    3
 10
815.19488299515842
 20
1301.5780232781074
 11
865.19504795504122
 21
1301.5780232781074
  0
LINE
  8
_0-2_
  6
CONTINUOUS
 62
    3
 10
1047.1949555775068
 20
1301.5780232781074
 11
1097.195120537388
 21
1301.5780232781074
  0
LINE
  8
_0-2_
  6
CONTINUOUS
 62
    3
 10
1135.195443858757
 20
1271.5782954619126
 11
1135.195443858757
 21
1249.5779259517776
  0
LINE
  8
_0-2_
  6
CONTINUOUS
 62
    3
 10
1135.195443858757
 20
1249.5779259517776
 11
1125.1954108667808
 21
1249.5779259517776
  0
LINE
  8
_0-2_
  6
CONTINUOUS
 62
    3
 10
1125.1954108667808
 20
1249.5779259517776
 11
1125.1954108667808
 21
1271.5782954619126
  0
LINE
  8
_0-2_
  6
CONTINUOUS
 62
    3
 10
1125.1954108667808
 20
1271.5782954619126
 11
1135.195443858757
 21
1271.5782954619126
  0
LINE
  8
_0-2_
  6
CONTINUOUS
 62
    3
 10
1177.1953844731995
 20
1271.5782954619126
 11
1177.1953844731995
 21
1249.5779259517776
  0
LINE
  8
_0-2_
  6
CONTINUOUS
 62
    3
 10
1177.1953844731995
 20
1249.5779259517776
 11
1141.1956121178353
 21
1249.5779259517776
  0
LINE
  8
_0-2_
  6
CONTINUOUS
 62
    3
 10
1141.1956121178353
 20
1249.5779259517776
 11
1141.1956121178353
 21
1271.5782954619126
  0
LINE
  8
_0-2_
  6
CONTINUOUS
 62
    3
 10
1141.1956121178353
 20
1271.5782954619126
 11
1177.1953844731995
 21
1271.5782954619126
  0
LINE
  8
_0-2_
  6
CONTINUOUS
 62
    3
 10
1193.1955857242556
 20
1271.5782954619126
 11
1193.1955857242556
 21
1249.5779259517776
  0
LINE
  8
_0-2_
  6
CONTINUOUS
 62
    3
 10
1193.1955857242556
 20
1249.5779259517776
 11
1183.1955527322793
 21
1249.5779259517776
  0
LINE
  8
_0-2_
  6
CONTINUOUS
 62
    3
 10
1183.1955527322793
 20
1249.5779259517776
 11
1183.1955527322793
 21
1271.5782954619126
  0
LINE
  8
_0-2_
  6
CONTINUOUS
 62
    3
 10
1183.1955527322793
 20
1271.5782954619126
 11
1193.1955857242556
 21
1271.5782954619126
  0
LINE
  8
_0-2_
  6
CONTINUOUS
 62
    3
 10
1235.1955263386981
 20
1271.5782954619126
 11
1235.1955263386981
 21
1249.5779259517776
  0
LINE
  8
_0-2_
  6
CONTINUOUS
 62
    3
 10
1235.1955263386981
 20
1249.5779259517776
 11
1199.1957539833338
 21
1249.5779259517776
  0
LINE
  8
_0-2_
  6
CONTINUOUS
 62
    3
 10
1199.1957539833338
 20
1249.5779259517776
 11
1199.1957539833338
 21
1271.5782954619126
  0
LINE
  8
_0-2_
  6
CONTINUOUS
 62
    3
 10
1199.1957539833338
 20
1271.5782954619126
 11
1235.1955263386981
 21
1271.5782954619126
  0
LINE
  8
_0-2_
  6
CONTINUOUS
 62
    3
 10
1251.1957275897541
 20
1271.5782954619126
 11
1251.1957275897541
 21
1249.5779259517776
  0
LINE
  8
_0-2_
  6
CONTINUOUS
 62
    3
 10
1251.1957275897541
 20
1249.5779259517776
 11
1241.1956945977763
 21
1249.5779259517776
  0
LINE
  8
_0-2_
  6
CONTINUOUS
 62
    3
 10
1241.1956945977763
 20
1249.5779259517776
 11
1241.1956945977763
 21
1271.5782954619126
  0
LINE
  8
_0-2_
  6
CONTINUOUS
 62
    3
 10
1241.1956945977763
 20
1271.5782954619126
 11
1251.1957275897541
 21
1271.5782954619126
  0
LINE
  8
_0-2_
  6
CONTINUOUS
 62
    3
 10
1105.1955923226512
 20
1279.5780249277063
 11
1155.1952624028866
 21
1279.5780249277063
  0
LINE
  8
_0-2_
  6
CONTINUOUS
 62
    3
 10
1213.1954042683851
 20
1279.5780249277063
 11
1163.1954867483269
 21
1279.5780249277063
  0
LINE
  8
_0-2_
  6
CONTINUOUS
 62
    3
 10
1271.1955461338837
 20
1279.5780249277063
 11
1221.1953811740009
 21
1279.5780249277063
  0
LINE
  8
_0-2_
  6
CONTINUOUS
 62
    3
 10
1221.1953811740009
 20
1279.5780249277063
 11
1221.1953811740009
 21
1301.5780232781074
  0
LINE
  8
_0-2_
  6
CONTINUOUS
 62
    3
 10
1271.1955461338837
 20
1301.5780232781074
 11
1271.1955461338837
 21
1279.5780249277063
  0
LINE
  8
_0-2_
  6
CONTINUOUS
 62
    3
 10
1163.1954867483269
 20
1279.5780249277063
 11
1163.1954867483269
 21
1301.5780232781074
  0
LINE
  8
_0-2_
  6
CONTINUOUS
 62
    3
 10
1213.1954042683851
 20
1301.5780232781074
 11
1213.1954042683851
 21
1279.5780249277063
  0
LINE
  8
_0-2_
  6
CONTINUOUS
 62
    3
 10
1155.1952624028866
 20
1301.5780232781074
 11
1155.1952624028866
 21
1279.5780249277063
  0
LINE
  8
_0-2_
  6
CONTINUOUS
 62
    3
 10
1105.1955923226512
 20
1301.5780232781074
 11
1105.1955923226512
 21
1279.5780249277063
  0
LINE
  8
_0-2_
  6
CONTINUOUS
 62
    3
 10
1105.1950974430054
 20
1301.5780232781074
 11
1155.1952624028866
 21
1301.5780232781074
  0
LINE
  8
_0-2_
  6
CONTINUOUS
 62
    3
 10
1163.1951155885924
 20
1301.5780232781074
 11
1213.1952805484736
 21
1301.5780232781074
  0
LINE
  8
_0-2_
  6
CONTINUOUS
 62
    3
 10
1221.1951337341795
 20
1301.5780232781074
 11
1271.1952986940607
 21
1301.5780232781074
  0
LINE
  8
_0-2_
  6
CONTINUOUS
 62
    3
 10
815.19513043498137
 20
1219.5779506957599
 11
865.19529539486257
 21
1219.5779506957599
  0
LINE
  8
_0-2_
  6
CONTINUOUS
 62
    3
 10
951.19523271010803
 20
1211.5782212299659
 11
951.19523271010803
 21
1189.5778517198307
  0
LINE
  8
_0-2_
  6
CONTINUOUS
 62
    3
 10
909.19529209566554
 20
1211.5782212299659
 11
909.19529209566554
 21
1189.5778517198307
  0
LINE
  8
_0-2_
  6
CONTINUOUS
 62
    3
 10
909.19529209566554
 20
1189.5778517198307
 11
945.1950644510282
 21
1189.5778517198307
  0
LINE
  8
_0-2_
  6
CONTINUOUS
 62
    3
 10
945.1950644510282
 20
1189.5778517198307
 11
945.1950644510282
 21
1211.5782212299659
  0
LINE
  8
_0-2_
  6
CONTINUOUS
 62
    3
 10
945.1950644510282
 20
1211.5782212299659
 11
909.19529209566554
 21
1211.5782212299659
  0
LINE
  8
_0-2_
  6
CONTINUOUS
 62
    3
 10
893.19509084460947
 20
1211.5782212299659
 11
893.19509084460947
 21
1189.5778517198307
  0
LINE
  8
_0-2_
  6
CONTINUOUS
 62
    3
 10
893.19509084460947
 20
1189.5778517198307
 11
903.19512383658571
 21
1189.5778517198307
  0
LINE
  8
_0-2_
  6
CONTINUOUS
 62
    3
 10
903.19512383658571
 20
1189.5778517198307
 11
903.19512383658571
 21
1211.5782212299659
  0
LINE
  8
_0-2_
  6
CONTINUOUS
 62
    3
 10
903.19512383658571
 20
1211.5782212299659
 11
893.19509084460947
 21
1211.5782212299659
  0
LINE
  8
_0-2_
  6
CONTINUOUS
 62
    3
 10
851.19515023016697
 20
1211.5782212299659
 11
851.19515023016697
 21
1189.5778517198307
  0
LINE
  8
_0-2_
  6
CONTINUOUS
 62
    3
 10
851.19515023016697
 20
1189.5778517198307
 11
887.19517002535258
 21
1189.5778517198307
  0
LINE
  8
_0-2_
  6
CONTINUOUS
 62
    3
 10
887.19517002535258
 20
1189.5778517198307
 11
887.19517002535258
 21
1211.5782212299659
  0
LINE
  8
_0-2_
  6
CONTINUOUS
 62
    3
 10
887.19517002535258
 20
1211.5782212299659
 11
851.19515023016697
 21
1211.5782212299659
  0
LINE
  8
_0-2_
  6
CONTINUOUS
 62
    3
 10
835.19519641893385
 20
1211.5782212299659
 11
835.19519641893385
 21
1189.5778517198307
  0
LINE
  8
_0-2_
  6
CONTINUOUS
 62
    3
 10
835.19519641893385
 20
1189.5778517198307
 11
845.19522941091009
 21
1189.5778517198307
  0
LINE
  8
_0-2_
  6
CONTINUOUS
 62
    3
 10
845.19522941091009
 20
1189.5778517198307
 11
845.19522941091009
 21
1211.5782212299659
  0
LINE
  8
_0-2_
  6
CONTINUOUS
 62
    3
 10
845.19522941091009
 20
1211.5782212299659
 11
835.19519641893385
 21
1211.5782212299659
  0
LINE
  8
_0-2_
  6
CONTINUOUS
 62
    3
 10
793.19525580449135
 20
1211.5782212299659
 11
793.19525580449135
 21
1189.5778517198307
  0
LINE
  8
_0-2_
  6
CONTINUOUS
 62
    3
 10
793.19525580449135
 20
1189.5778517198307
 11
829.19502815985402
 21
1189.5778517198307
  0
LINE
  8
_0-2_
  6
CONTINUOUS
 62
    3
 10
829.19502815985402
 20
1189.5778517198307
 11
829.19502815985402
 21
1211.5782212299659
  0
LINE
  8
_0-2_
  6
CONTINUOUS
 62
    3
 10
829.19502815985402
 20
1211.5782212299659
 11
793.19525580449135
 21
1211.5782212299659
  0
LINE
  8
_0-2_
  6
CONTINUOUS
 62
    3
 10
777.19505455343528
 20
1211.5782212299659
 11
777.19505455343528
 21
1189.5778517198307
  0
LINE
  8
_0-2_
  6
CONTINUOUS
 62
    3
 10
777.19505455343528
 20
1189.5778517198307
 11
787.19508754541152
 21
1189.5778517198307
  0
LINE
  8
_0-2_
  6
CONTINUOUS
 62
    3
 10
787.19508754541152
 20
1189.5778517198307
 11
787.19508754541152
 21
1211.5782212299659
  0
LINE
  8
_0-2_
  6
CONTINUOUS
 62
    3
 10
787.19508754541152
 20
1211.5782212299659
 11
777.19505455343528
 21
1211.5782212299659
  0
LINE
  8
_0-2_
  6
CONTINUOUS
 62
    3
 10
961.19526570208427
 20
1211.5782212299659
 11
951.19523271010803
 21
1211.5782212299659
  0
LINE
  8
_0-2_
  6
CONTINUOUS
 62
    3
 10
951.19523271010803
 20
1189.5778517198307
 11
961.19526570208427
 21
1189.5778517198307
  0
LINE
  8
_0-2_
  6
CONTINUOUS
 62
    3
 10
1097.1953679772109
 20
1219.5779506957599
 11
1047.1952030173297
 21
1219.5779506957599
  0
LINE
  8
_0-2_
  6
CONTINUOUS
 62
    3
 10
961.19526570208427
 20
1211.5782212299659
 11
961.19526570208427
 21
1189.5778517198307
  0
LINE
  8
_0-2_
  6
CONTINUOUS
 62
    3
 10
1003.1952063165268
 20
1211.5782212299659
 11
1003.1952063165268
 21
1189.5778517198307
  0
LINE
  8
_0-2_
  6
CONTINUOUS
 62
    3
 10
1003.1952063165268
 20
1189.5778517198307
 11
967.1954339611641
 21
1189.5778517198307
  0
LINE
  8
_0-2_
  6
CONTINUOUS
 62
    3
 10
967.1954339611641
 20
1189.5778517198307
 11
967.1954339611641
 21
1211.5782212299659
  0
LINE
  8
_0-2_
  6
CONTINUOUS
 62
    3
 10
967.1954339611641
 20
1211.5782212299659
 11
1003.1952063165268
 21
1211.5782212299659
  0
LINE
  8
_0-2_
  6
CONTINUOUS
 62
    3
 10
1019.1954075675828
 20
1211.5782212299659
 11
1019.1954075675828
 21
1189.5778517198307
  0
LINE
  8
_0-2_
  6
CONTINUOUS
 62
    3
 10
1019.1954075675828
 20
1189.5778517198307
 11
1009.1953745756066
 21
1189.5778517198307
  0
LINE
  8
_0-2_
  6
CONTINUOUS
 62
    3
 10
1009.1953745756066
 20
1189.5778517198307
 11
1009.1953745756066
 21
1211.5782212299659
  0
LINE
  8
_0-2_
  6
CONTINUOUS
 62
    3
 10
1009.1953745756066
 20
1211.5782212299659
 11
1019.1954075675828
 21
1211.5782212299659
  0
LINE
  8
_0-2_
  6
CONTINUOUS
 62
    3
 10
1061.1953481820253
 20
1211.5782212299659
 11
1061.1953481820253
 21
1189.5778517198307
  0
LINE
  8
_0-2_
  6
CONTINUOUS
 62
    3
 10
1061.1953481820253
 20
1189.5778517198307
 11
1025.1953283868397
 21
1189.5778517198307
  0
LINE
  8
_0-2_
  6
CONTINUOUS
 62
    3
 10
1025.1953283868397
 20
1189.5778517198307
 11
1025.1953283868397
 21
1211.5782212299659
  0
LINE
  8
_0-2_
  6
CONTINUOUS
 62
    3
 10
1025.1953283868397
 20
1211.5782212299659
 11
1061.1953481820253
 21
1211.5782212299659
  0
LINE
  8
_0-2_
  6
CONTINUOUS
 62
    3
 10
1077.1953019932585
 20
1211.5782212299659
 11
1077.1953019932585
 21
1189.5778517198307
  0
LINE
  8
_0-2_
  6
CONTINUOUS
 62
    3
 10
1077.1953019932585
 20
1189.5778517198307
 11
1067.1952690012822
 21
1189.5778517198307
  0
LINE
  8
_0-2_
  6
CONTINUOUS
 62
    3
 10
1067.1952690012822
 20
1189.5778517198307
 11
1067.1952690012822
 21
1211.5782212299659
  0
LINE
  8
_0-2_
  6
CONTINUOUS
 62
    3
 10
1067.1952690012822
 20
1211.5782212299659
 11
1077.1953019932585
 21
1211.5782212299659
  0
LINE
  8
_0-2_
  6
CONTINUOUS
 62
    3
 10
1119.1952426077009
 20
1211.5782212299659
 11
1119.1952426077009
 21
1189.5778517198307
  0
LINE
  8
_0-2_
  6
CONTINUOUS
 62
    3
 10
1119.1952426077009
 20
1189.5778517198307
 11
1083.1954702523383
 21
1189.5778517198307
  0
LINE
  8
_0-2_
  6
CONTINUOUS
 62
    3
 10
1083.1954702523383
 20
1189.5778517198307
 11
1083.1954702523383
 21
1211.5782212299659
  0
LINE
  8
_0-2_
  6
CONTINUOUS
 62
    3
 10
1083.1954702523383
 20
1211.5782212299659
 11
1119.1952426077009
 21
1211.5782212299659
  0
LINE
  8
_0-2_
  6
CONTINUOUS
 62
    3
 10
735.1951139389937
 20
1211.5782212299659
 11
735.1951139389937
 21
1189.5778517198307
  0
LINE
  8
_0-2_
  6
CONTINUOUS
 62
    3
 10
735.1951139389937
 20
1189.5778517198307
 11
771.1951337341784
 21
1189.5778517198307
  0
LINE
  8
_0-2_
  6
CONTINUOUS
 62
    3
 10
771.1951337341784
 20
1189.5778517198307
 11
771.1951337341784
 21
1211.5782212299659
  0
LINE
  8
_0-2_
  6
CONTINUOUS
 62
    3
 10
771.1951337341784
 20
1211.5782212299659
 11
735.1951139389937
 21
1211.5782212299659
  0
LINE
  8
_0-2_
  6
CONTINUOUS
 62
    3
 10
719.19516012775966
 20
1211.5782212299659
 11
719.19516012775966
 21
1189.5778517198307
  0
LINE
  8
_0-2_
  6
CONTINUOUS
 62
    3
 10
719.19516012775966
 20
1189.5778517198307
 11
729.19519311973681
 21
1189.5778517198307
  0
LINE
  8
_0-2_
  6
CONTINUOUS
 62
    3
 10
729.19519311973681
 20
1189.5778517198307
 11
729.19519311973681
 21
1211.5782212299659
  0
LINE
  8
_0-2_
  6
CONTINUOUS
 62
    3
 10
729.19519311973681
 20
1211.5782212299659
 11
719.19516012775966
 21
1211.5782212299659
  0
LINE
  8
_0-2_
  6
CONTINUOUS
 62
    3
 10
713.19499186868075
 20
1189.5778517198307
 11
713.19499186868075
 21
1211.5782212299659
  0
LINE
  8
_0-2_
  6
CONTINUOUS
 62
    3
 10
713.19499186868075
 20
1211.5782212299659
 11
677.19521951331808
 21
1211.5782212299659
  0
LINE
  8
_0-2_
  6
CONTINUOUS
 62
    3
 10
1047.1952030173297
 20
1219.5779506957599
 11
1047.1952030173297
 21
1241.5780727660724
  0
LINE
  8
_0-2_
  6
CONTINUOUS
 62
    3
 10
1097.1953679772109
 20
1241.5780727660724
 11
1097.1953679772109
 21
1219.5779506957599
  0
LINE
  8
_0-2_
  6
CONTINUOUS
 62
    3
 10
865.19529539486257
 20
1219.5779506957599
 11
865.19529539486257
 21
1241.5780727660724
  0
LINE
  8
_0-2_
  6
CONTINUOUS
 62
    3
 10
815.19513043498137
 20
1241.5780727660724
 11
815.19513043498137
 21
1219.5779506957599
  0
LINE
  8
_0-2_
  6
CONTINUOUS
 62
    3
 10
699.19509414380718
 20
1219.5779506957599
 11
749.19501166386704
 21
1219.5779506957599
  0
LINE
  8
_0-2_
  6
CONTINUOUS
 62
    3
 10
757.19523600930575
 20
1219.5779506957599
 11
807.19490608954266
 21
1219.5779506957599
  0
LINE
  8
_0-2_
  6
CONTINUOUS
 62
    3
 10
807.19490608954266
 20
1241.5780727660724
 11
807.19490608954266
 21
1219.5779506957599
  0
LINE
  8
_0-2_
  6
CONTINUOUS
 62
    3
 10
691.19511723819141
 20
1219.5779506957599
 11
691.19511723819141
 21
1241.5780727660724
  0
LINE
  8
_0-2_
  6
CONTINUOUS
 62
    3
 10
749.19501166386704
 20
1219.5779506957599
 11
749.19501166386704
 21
1241.5780727660724
  0
LINE
  8
_0-2_
  6
CONTINUOUS
 62
    3
 10
699.19509414380718
 20
1241.5780727660724
 11
699.19509414380718
 21
1219.5779506957599
  0
LINE
  8
_0-2_
  6
CONTINUOUS
 62
    3
 10
757.19523600930575
 20
1241.5780727660724
 11
757.19523600930575
 21
1219.5779506957599
  0
LINE
  8
_0-2_
  6
CONTINUOUS
 62
    3
 10
699.19497042389662
 20
1241.5780727660724
 11
749.19513538377851
 21
1241.5780727660724
  0
LINE
  8
_0-2_
  6
CONTINUOUS
 62
    3
 10
757.19498856948371
 20
1241.5780727660724
 11
807.1951535293656
 21
1241.5780727660724
  0
LINE
  8
_0-2_
  6
CONTINUOUS
 62
    3
 10
815.19488299515842
 20
1241.5780727660724
 11
865.19504795504122
 21
1241.5780727660724
  0
LINE
  8
_0-2_
  6
CONTINUOUS
 62
    3
 10
1047.1949555775068
 20
1241.5780727660724
 11
1097.195120537388
 21
1241.5780727660724
  0
LINE
  8
_0-2_
  6
CONTINUOUS
 62
    3
 10
1135.195443858757
 20
1211.5782212299659
 11
1135.195443858757
 21
1189.5778517198307
  0
LINE
  8
_0-2_
  6
CONTINUOUS
 62
    3
 10
1135.195443858757
 20
1189.5778517198307
 11
1125.1954108667808
 21
1189.5778517198307
  0
LINE
  8
_0-2_
  6
CONTINUOUS
 62
    3
 10
1125.1954108667808
 20
1189.5778517198307
 11
1125.1954108667808
 21
1211.5782212299659
  0
LINE
  8
_0-2_
  6
CONTINUOUS
 62
    3
 10
1125.1954108667808
 20
1211.5782212299659
 11
1135.195443858757
 21
1211.5782212299659
  0
LINE
  8
_0-2_
  6
CONTINUOUS
 62
    3
 10
1177.1953844731995
 20
1211.5782212299659
 11
1177.1953844731995
 21
1189.5778517198307
  0
LINE
  8
_0-2_
  6
CONTINUOUS
 62
    3
 10
1177.1953844731995
 20
1189.5778517198307
 11
1141.1956121178353
 21
1189.5778517198307
  0
LINE
  8
_0-2_
  6
CONTINUOUS
 62
    3
 10
1141.1956121178353
 20
1189.5778517198307
 11
1141.1956121178353
 21
1211.5782212299659
  0
LINE
  8
_0-2_
  6
CONTINUOUS
 62
    3
 10
1141.1956121178353
 20
1211.5782212299659
 11
1177.1953844731995
 21
1211.5782212299659
  0
LINE
  8
_0-2_
  6
CONTINUOUS
 62
    3
 10
1193.1955857242556
 20
1211.5782212299659
 11
1193.1955857242556
 21
1189.5778517198307
  0
LINE
  8
_0-2_
  6
CONTINUOUS
 62
    3
 10
1193.1955857242556
 20
1189.5778517198307
 11
1183.1955527322793
 21
1189.5778517198307
  0
LINE
  8
_0-2_
  6
CONTINUOUS
 62
    3
 10
1183.1955527322793
 20
1189.5778517198307
 11
1183.1955527322793
 21
1211.5782212299659
  0
LINE
  8
_0-2_
  6
CONTINUOUS
 62
    3
 10
1183.1955527322793
 20
1211.5782212299659
 11
1193.1955857242556
 21
1211.5782212299659
  0
LINE
  8
_0-2_
  6
CONTINUOUS
 62
    3
 10
1199.1957539833338
 20
1189.5778517198307
 11
1199.1957539833338
 21
1211.5782212299659
  0
LINE
  8
_0-2_
  6
CONTINUOUS
 62
    3
 10
1199.1957539833338
 20
1211.5782212299659
 11
1235.1955263386981
 21
1211.5782212299659
  0
LINE
  8
_0-2_
  6
CONTINUOUS
 62
    3
 10
1105.1955923226512
 20
1219.5779506957599
 11
1155.1952624028866
 21
1219.5779506957599
  0
LINE
  8
_0-2_
  6
CONTINUOUS
 62
    3
 10
1213.1954042683851
 20
1219.5779506957599
 11
1163.1954867483269
 21
1219.5779506957599
  0
LINE
  8
_0-2_
  6
CONTINUOUS
 62
    3
 10
1221.1953811740009
 20
1219.5779506957599
 11
1221.1953811740009
 21
1241.5780727660724
  0
LINE
  8
_0-2_
  6
CONTINUOUS
 62
    3
 10
1163.1954867483269
 20
1219.5779506957599
 11
1163.1954867483269
 21
1241.5780727660724
  0
LINE
  8
_0-2_
  6
CONTINUOUS
 62
    3
 10
1213.1954042683851
 20
1241.5780727660724
 11
1213.1954042683851
 21
1219.5779506957599
  0
LINE
  8
_0-2_
  6
CONTINUOUS
 62
    3
 10
1155.1952624028866
 20
1241.5780727660724
 11
1155.1952624028866
 21
1219.5779506957599
  0
LINE
  8
_0-2_
  6
CONTINUOUS
 62
    3
 10
1105.1955923226512
 20
1241.5780727660724
 11
1105.1955923226512
 21
1219.5779506957599
  0
LINE
  8
_0-2_
  6
CONTINUOUS
 62
    3
 10
1105.1950974430054
 20
1241.5780727660724
 11
1155.1952624028866
 21
1241.5780727660724
  0
LINE
  8
_0-2_
  6
CONTINUOUS
 62
    3
 10
1163.1951155885924
 20
1241.5780727660724
 11
1213.1952805484736
 21
1241.5780727660724
  0
LINE
  8
_0-2_
  6
CONTINUOUS
 62
    3
 10
873.19527230047993
 20
1159.5780001837243
 11
923.19518982053978
 21
1159.5780001837243
  0
LINE
  8
_0-2_
  6
CONTINUOUS
 62
    3
 10
815.19513043498137
 20
1159.5780001837243
 11
865.19529539486257
 21
1159.5780001837243
  0
LINE
  8
_0-2_
  6
CONTINUOUS
 62
    3
 10
951.19523271010803
 20
1151.5782707179301
 11
951.19523271010803
 21
1129.5779012077951
  0
LINE
  8
_0-2_
  6
CONTINUOUS
 62
    3
 10
909.19529209566554
 20
1151.5782707179301
 11
909.19529209566554
 21
1129.5779012077951
  0
LINE
  8
_0-2_
  6
CONTINUOUS
 62
    3
 10
909.19529209566554
 20
1129.5779012077951
 11
945.1950644510282
 21
1129.5779012077951
  0
LINE
  8
_0-2_
  6
CONTINUOUS
 62
    3
 10
945.1950644510282
 20
1129.5779012077951
 11
945.1950644510282
 21
1151.5782707179301
  0
LINE
  8
_0-2_
  6
CONTINUOUS
 62
    3
 10
945.1950644510282
 20
1151.5782707179301
 11
909.19529209566554
 21
1151.5782707179301
  0
LINE
  8
_0-2_
  6
CONTINUOUS
 62
    3
 10
893.19509084460947
 20
1151.5782707179301
 11
893.19509084460947
 21
1129.5779012077951
  0
LINE
  8
_0-2_
  6
CONTINUOUS
 62
    3
 10
893.19509084460947
 20
1129.5779012077951
 11
903.19512383658571
 21
1129.5779012077951
  0
LINE
  8
_0-2_
  6
CONTINUOUS
 62
    3
 10
903.19512383658571
 20
1129.5779012077951
 11
903.19512383658571
 21
1151.5782707179301
  0
LINE
  8
_0-2_
  6
CONTINUOUS
 62
    3
 10
903.19512383658571
 20
1151.5782707179301
 11
893.19509084460947
 21
1151.5782707179301
  0
LINE
  8
_0-2_
  6
CONTINUOUS
 62
    3
 10
851.19515023016697
 20
1151.5782707179301
 11
851.19515023016697
 21
1129.5779012077951
  0
LINE
  8
_0-2_
  6
CONTINUOUS
 62
    3
 10
851.19515023016697
 20
1129.5779012077951
 11
887.19517002535258
 21
1129.5779012077951
  0
LINE
  8
_0-2_
  6
CONTINUOUS
 62
    3
 10
887.19517002535258
 20
1129.5779012077951
 11
887.19517002535258
 21
1151.5782707179301
  0
LINE
  8
_0-2_
  6
CONTINUOUS
 62
    3
 10
887.19517002535258
 20
1151.5782707179301
 11
851.19515023016697
 21
1151.5782707179301
  0
LINE
  8
_0-2_
  6
CONTINUOUS
 62
    3
 10
835.19519641893385
 20
1151.5782707179301
 11
835.19519641893385
 21
1129.5779012077951
  0
LINE
  8
_0-2_
  6
CONTINUOUS
 62
    3
 10
845.19522941091009
 20
1151.5782707179301
 11
835.19519641893385
 21
1151.5782707179301
  0
LINE
  8
_0-2_
  6
CONTINUOUS
 62
    3
 10
793.19525580449135
 20
1151.5782707179301
 11
793.19525580449135
 21
1129.5779012077951
  0
LINE
  8
_0-2_
  6
CONTINUOUS
 62
    3
 10
793.19525580449135
 20
1129.5779012077951
 11
829.19502815985402
 21
1129.5779012077951
  0
LINE
  8
_0-2_
  6
CONTINUOUS
 62
    3
 10
829.19502815985402
 20
1129.5779012077951
 11
829.19502815985402
 21
1151.5782707179301
  0
LINE
  8
_0-2_
  6
CONTINUOUS
 62
    3
 10
829.19502815985402
 20
1151.5782707179301
 11
793.19525580449135
 21
1151.5782707179301
  0
LINE
  8
_0-2_
  6
CONTINUOUS
 62
    3
 10
777.19505455343528
 20
1151.5782707179301
 11
777.19505455343528
 21
1129.5779012077951
  0
LINE
  8
_0-2_
  6
CONTINUOUS
 62
    3
 10
777.19505455343528
 20
1129.5779012077951
 11
787.19508754541152
 21
1129.5779012077951
  0
LINE
  8
_0-2_
  6
CONTINUOUS
 62
    3
 10
787.19508754541152
 20
1129.5779012077951
 11
787.19508754541152
 21
1151.5782707179301
  0
LINE
  8
_0-2_
  6
CONTINUOUS
 62
    3
 10
787.19508754541152
 20
1151.5782707179301
 11
777.19505455343528
 21
1151.5782707179301
  0
LINE
  8
_0-2_
  6
CONTINUOUS
 62
    3
 10
931.19541416597849
 20
1159.5780001837243
 11
981.19508424621381
 21
1159.5780001837243
  0
LINE
  8
_0-2_
  6
CONTINUOUS
 62
    3
 10
961.19526570208427
 20
1151.5782707179301
 11
951.19523271010803
 21
1151.5782707179301
  0
LINE
  8
_0-2_
  6
CONTINUOUS
 62
    3
 10
951.19523271010803
 20
1129.5779012077951
 11
961.19526570208427
 21
1129.5779012077951
  0
LINE
  8
_0-2_
  6
CONTINUOUS
 62
    3
 10
1039.1952261117124
 20
1159.5780001837243
 11
989.19530859165411
 21
1159.5780001837243
  0
LINE
  8
_0-2_
  6
CONTINUOUS
 62
    3
 10
1097.1953679772109
 20
1159.5780001837243
 11
1047.1952030173297
 21
1159.5780001837243
  0
LINE
  8
_0-2_
  6
CONTINUOUS
 62
    3
 10
961.19526570208427
 20
1151.5782707179301
 11
961.19526570208427
 21
1129.5779012077951
  0
LINE
  8
_0-2_
  6
CONTINUOUS
 62
    3
 10
1003.1952063165268
 20
1151.5782707179301
 11
1003.1952063165268
 21
1129.5779012077951
  0
LINE
  8
_0-2_
  6
CONTINUOUS
 62
    3
 10
1003.1952063165268
 20
1129.5779012077951
 11
967.1954339611641
 21
1129.5779012077951
  0
LINE
  8
_0-2_
  6
CONTINUOUS
 62
    3
 10
967.1954339611641
 20
1129.5779012077951
 11
967.1954339611641
 21
1151.5782707179301
  0
LINE
  8
_0-2_
  6
CONTINUOUS
 62
    3
 10
967.1954339611641
 20
1151.5782707179301
 11
1003.1952063165268
 21
1151.5782707179301
  0
LINE
  8
_0-2_
  6
CONTINUOUS
 62
    3
 10
1019.1954075675828
 20
1151.5782707179301
 11
1019.1954075675828
 21
1129.5779012077951
  0
LINE
  8
_0-2_
  6
CONTINUOUS
 62
    3
 10
1019.1954075675828
 20
1129.5779012077951
 11
1009.1953745756066
 21
1129.5779012077951
  0
LINE
  8
_0-2_
  6
CONTINUOUS
 62
    3
 10
1009.1953745756066
 20
1129.5779012077951
 11
1009.1953745756066
 21
1151.5782707179301
  0
LINE
  8
_0-2_
  6
CONTINUOUS
 62
    3
 10
1009.1953745756066
 20
1151.5782707179301
 11
1019.1954075675828
 21
1151.5782707179301
  0
LINE
  8
_0-2_
  6
CONTINUOUS
 62
    3
 10
1061.1953481820253
 20
1151.5782707179301
 11
1061.1953481820253
 21
1129.5779012077951
  0
LINE
  8
_0-2_
  6
CONTINUOUS
 62
    3
 10
1061.1953481820253
 20
1129.5779012077951
 11
1025.1953283868397
 21
1129.5779012077951
  0
LINE
  8
_0-2_
  6
CONTINUOUS
 62
    3
 10
1025.1953283868397
 20
1129.5779012077951
 11
1025.1953283868397
 21
1151.5782707179301
  0
LINE
  8
_0-2_
  6
CONTINUOUS
 62
    3
 10
1025.1953283868397
 20
1151.5782707179301
 11
1061.1953481820253
 21
1151.5782707179301
  0
LINE
  8
_0-2_
  6
CONTINUOUS
 62
    3
 10
1077.1953019932585
 20
1151.5782707179301
 11
1077.1953019932585
 21
1129.5779012077951
  0
LINE
  8
_0-2_
  6
CONTINUOUS
 62
    3
 10
1067.1952690012822
 20
1151.5782707179301
 11
1077.1953019932585
 21
1151.5782707179301
  0
LINE
  8
_0-2_
  6
CONTINUOUS
 62
    3
 10
1119.1952426077009
 20
1151.5782707179301
 11
1119.1952426077009
 21
1129.5779012077951
  0
LINE
  8
_0-2_
  6
CONTINUOUS
 62
    3
 10
1119.1952426077009
 20
1129.5779012077951
 11
1083.1954702523383
 21
1129.5779012077951
  0
LINE
  8
_0-2_
  6
CONTINUOUS
 62
    3
 10
1083.1954702523383
 20
1129.5779012077951
 11
1083.1954702523383
 21
1151.5782707179301
  0
LINE
  8
_0-2_
  6
CONTINUOUS
 62
    3
 10
1083.1954702523383
 20
1151.5782707179301
 11
1119.1952426077009
 21
1151.5782707179301
  0
LINE
  8
_0-2_
  6
CONTINUOUS
 62
    3
 10
1047.1952030173297
 20
1159.5780001837243
 11
1047.1952030173297
 21
1181.5781222540368
  0
LINE
  8
_0-2_
  6
CONTINUOUS
 62
    3
 10
1097.1953679772109
 20
1181.5781222540368
 11
1097.1953679772109
 21
1159.5780001837243
  0
LINE
  8
_0-2_
  6
CONTINUOUS
 62
    3
 10
989.19530859165411
 20
1159.5780001837243
 11
989.19530859165411
 21
1181.5781222540368
  0
LINE
  8
_0-2_
  6
CONTINUOUS
 62
    3
 10
1039.1952261117124
 20
1181.5781222540368
 11
1039.1952261117124
 21
1159.5780001837243
  0
LINE
  8
_0-2_
  6
CONTINUOUS
 62
    3
 10
981.19508424621381
 20
1181.5781222540368
 11
981.19508424621381
 21
1159.5780001837243
  0
LINE
  8
_0-2_
  6
CONTINUOUS
 62
    3
 10
865.19529539486257
 20
1159.5780001837243
 11
865.19529539486257
 21
1181.5781222540368
  0
LINE
  8
_0-2_
  6
CONTINUOUS
 62
    3
 10
815.19513043498137
 20
1181.5781222540368
 11
815.19513043498137
 21
1159.5780001837243
  0
LINE
  8
_0-2_
  6
CONTINUOUS
 62
    3
 10
923.19518982053978
 20
1159.5780001837243
 11
923.19518982053978
 21
1181.5781222540368
  0
LINE
  8
_0-2_
  6
CONTINUOUS
 62
    3
 10
873.19527230047993
 20
1181.5781222540368
 11
873.19527230047993
 21
1159.5780001837243
  0
LINE
  8
_0-2_
  6
CONTINUOUS
 62
    3
 10
931.19541416597849
 20
1181.5781222540368
 11
931.19541416597849
 21
1159.5780001837243
  0
LINE
  8
_0-2_
  6
CONTINUOUS
 62
    3
 10
757.19523600930575
 20
1159.5780001837243
 11
807.19490608954266
 21
1159.5780001837243
  0
LINE
  8
_0-2_
  6
CONTINUOUS
 62
    3
 10
807.19490608954266
 20
1181.5781222540368
 11
807.19490608954266
 21
1159.5780001837243
  0
LINE
  8
_0-2_
  6
CONTINUOUS
 62
    3
 10
749.19501166386704
 20
1159.5780001837243
 11
749.19501166386704
 21
1181.5781222540368
  0
LINE
  8
_0-2_
  6
CONTINUOUS
 62
    3
 10
757.19523600930575
 20
1181.5781222540368
 11
757.19523600930575
 21
1159.5780001837243
  0
LINE
  8
_0-2_
  6
CONTINUOUS
 62
    3
 10
699.19497042389662
 20
1181.5781222540368
 11
749.19513538377851
 21
1181.5781222540368
  0
LINE
  8
_0-2_
  6
CONTINUOUS
 62
    3
 10
757.19498856948371
 20
1181.5781222540368
 11
807.1951535293656
 21
1181.5781222540368
  0
LINE
  8
_0-2_
  6
CONTINUOUS
 62
    3
 10
815.19488299515842
 20
1181.5781222540368
 11
865.19504795504122
 21
1181.5781222540368
  0
LINE
  8
_0-2_
  6
CONTINUOUS
 62
    3
 10
873.19490114074551
 20
1181.5781222540368
 11
923.19506610062831
 21
1181.5781222540368
  0
LINE
  8
_0-2_
  6
CONTINUOUS
 62
    3
 10
931.19491928633261
 20
1181.5781222540368
 11
981.19508424621381
 21
1181.5781222540368
  0
LINE
  8
_0-2_
  6
CONTINUOUS
 62
    3
 10
989.1949374319197
 20
1181.5781222540368
 11
1039.1951023918009
 21
1181.5781222540368
  0
LINE
  8
_0-2_
  6
CONTINUOUS
 62
    3
 10
1047.1949555775068
 20
1181.5781222540368
 11
1097.195120537388
 21
1181.5781222540368
  0
LINE
  8
_0-2_
  6
CONTINUOUS
 62
    3
 10
1135.195443858757
 20
1151.5782707179301
 11
1135.195443858757
 21
1129.5779012077951
  0
LINE
  8
_0-2_
  6
CONTINUOUS
 62
    3
 10
1135.195443858757
 20
1129.5779012077951
 11
1125.1954108667808
 21
1129.5779012077951
  0
LINE
  8
_0-2_
  6
CONTINUOUS
 62
    3
 10
1125.1954108667808
 20
1129.5779012077951
 11
1125.1954108667808
 21
1151.5782707179301
  0
LINE
  8
_0-2_
  6
CONTINUOUS
 62
    3
 10
1125.1954108667808
 20
1151.5782707179301
 11
1135.195443858757
 21
1151.5782707179301
  0
LINE
  8
_0-2_
  6
CONTINUOUS
 62
    3
 10
1105.1955923226512
 20
1159.5780001837243
 11
1155.1952624028866
 21
1159.5780001837243
  0
LINE
  8
_0-2_
  6
CONTINUOUS
 62
    3
 10
1163.1954867483269
 20
1159.5780001837243
 11
1163.1954867483269
 21
1181.5781222540368
  0
LINE
  8
_0-2_
  6
CONTINUOUS
 62
    3
 10
1155.1952624028866
 20
1181.5781222540368
 11
1155.1952624028866
 21
1159.5780001837243
  0
LINE
  8
_0-2_
  6
CONTINUOUS
 62
    3
 10
1105.1955923226512
 20
1181.5781222540368
 11
1105.1955923226512
 21
1159.5780001837243
  0
LINE
  8
_0-2_
  6
CONTINUOUS
 62
    3
 10
1105.1950974430054
 20
1181.5781222540368
 11
1155.1952624028866
 21
1181.5781222540368
  0
LINE
  8
_0-2_
  6
CONTINUOUS
 62
    3
 10
931.19491928633261
 20
1121.5781717420007
 11
981.19508424621381
 21
1121.5781717420007
  0
LINE
  8
_0-2_
  6
CONTINUOUS
 62
    3
 10
597.19470813768362
 20
1391.5783202058947
 11
576.83362745250702
 21
1391.5783202058947
  0
LINE
  8
_0-2_
  6
CONTINUOUS
 62
    3
 10
582.08937300518778
 20
1369.5779506957597
 11
597.19470813768362
 21
1369.5779506957597
  0
LINE
  8
_0-2_
  6
CONTINUOUS
 62
    3
 10
591.51014937237528
 20
1339.5780991596534
 11
633.19522281251511
 21
1339.5780991596534
  0
LINE
  8
_0-2_
  6
CONTINUOUS
 62
    3
 10
584.34144655090222
 20
1361.5780975100545
 11
633.19522281251511
 21
1361.5780975100545
  0
LINE
  8
_0-2_
  6
CONTINUOUS
 62
    3
 10
603.72513993667008
 20
1309.5780001837243
 11
613.19490938874037
 21
1309.5780001837243
  0
LINE
  8
_0-2_
  6
CONTINUOUS
 62
    3
 10
603.19487639676345
 20
1331.578369693859
 11
603.19487639676345
 21
1310.7439366279814
  0
LINE
  8
_0-2_
  6
CONTINUOUS
 62
    3
 10
607.49018427788701
 20
1301.5780232781074
 11
633.19522281251511
 21
1301.5780232781074
  0
LINE
  8
_0-2_
  6
CONTINUOUS
 62
    3
 10
619.03770592062392
 20
1279.5780249277063
 11
633.19522281251511
 21
1279.5780249277063
  0
LINE
  8
_0-2_
  6
CONTINUOUS
 62
    3
 10
623.69675034102079
 20
1271.5782954619126
 11
655.19509744300512
 21
1271.5782954619126
  0
LINE
  8
_0-2_
  6
CONTINUOUS
 62
    3
 10
637.89484736382428
 20
1249.5779259517776
 11
655.19509744300512
 21
1249.5779259517776
  0
LINE
  8
_0-2_
  6
CONTINUOUS
 62
    3
 10
643.60093339370155
 20
1241.5780727660724
 11
691.19511723819141
 21
1241.5780727660724
  0
LINE
  8
_0-2_
  6
CONTINUOUS
 62
    3
 10
660.97479682011704
 20
1219.5779506957599
 11
691.19511723819141
 21
1219.5779506957599
  0
LINE
  8
_0-2_
  6
CONTINUOUS
 62
    3
 10
677.19521951331808
 20
1211.5782212299659
 11
677.19521951331808
 21
1201.6633075369759
  0
LINE
  8
_0-2_
  6
CONTINUOUS
 62
    3
 10
689.37123830554719
 20
1189.5778517198307
 11
713.19499186868075
 21
1189.5778517198307
  0
LINE
  8
_0-2_
  6
CONTINUOUS
 62
    3
 10
699.19509414380718
 20
1181.5781222540368
 11
699.19509414380718
 21
1180.5658459396363
  0
LINE
  8
_0-2_
  6
CONTINUOUS
 62
    3
 10
725.0348636618603
 20
1159.5780001837243
 11
749.19501166386704
 21
1159.5780001837243
  0
LINE
  8
_0-2_
  6
CONTINUOUS
 62
    3
 10
771.1951337341784
 20
1151.5782707179301
 11
736.20590561445761
 21
1151.5782707179301
  0
LINE
  8
_0-2_
  6
CONTINUOUS
 62
    3
 10
771.1951337341784
 20
1130.0915862795853
 11
771.1951337341784
 21
1151.5782707179301
  0
LINE
  8
_0-2_
  6
CONTINUOUS
 62
    3
 10
787.80515042811999
 20
1121.5781717420007
 11
807.1951535293656
 21
1121.5781717420007
  0
LINE
  8
_0-2_
  6
CONTINUOUS
 62
    3
 10
807.19490608954266
 20
1121.5781717420007
 11
807.19490608954266
 21
1112.8700220640026
  0
LINE
  8
_0-2_
  6
CONTINUOUS
 62
    3
 10
874.21212625159956
 20
1121.5781717420007
 11
923.19506610062831
 21
1121.5781717420007
  0
LINE
  8
_0-2_
  6
CONTINUOUS
 62
    3
 10
923.19518982053978
 20
1113.6002169805993
 11
923.19518982053978
 21
1121.5781717420007
  0
LINE
  8
_0-2_
  6
CONTINUOUS
 62
    3
 10
931.19541416597849
 20
1121.5781717420007
 11
931.19541416597849
 21
1112.9509348860047
  0
LINE
  8
_0-2_
  6
CONTINUOUS
 62
    3
 10
981.19508424621381
 20
1121.5781717420007
 11
981.19508424621381
 21
1112.9509348860047
  0
LINE
  8
_0-2_
  6
CONTINUOUS
 62
    3
 10
989.19530859165411
 20
1113.6002169805993
 11
989.19530859165411
 21
1121.5781717420007
  0
LINE
  8
_0-2_
  6
CONTINUOUS
 62
    3
 10
989.1949374319197
 20
1121.5781717420007
 11
1038.1783721605943
 21
1121.5781717420007
  0
LINE
  8
_0-2_
  6
CONTINUOUS
 62
    3
 10
1097.1953679772109
 20
1121.5781717420007
 11
1097.1953679772109
 21
1109.6416746980826
  0
LINE
  8
_0-2_
  6
CONTINUOUS
 62
    3
 10
1105.1955923226512
 20
1121.5781717420007
 11
1105.1955923226512
 21
1112.8700220640026
  0
LINE
  8
_0-2_
  6
CONTINUOUS
 62
    3
 10
1105.1950974430054
 20
1121.5781717420007
 11
1124.5853479840739
 21
1121.5781717420007
  0
LINE
  8
_0-2_
  6
CONTINUOUS
 62
    3
 10
1163.1951155885924
 20
1181.5781222540368
 11
1213.1952805484736
 21
1181.5781222540368
  0
LINE
  8
_0-2_
  6
CONTINUOUS
 62
    3
 10
1213.1954042683851
 20
1181.5781222540368
 11
1213.1954042683851
 21
1180.5658459396363
  0
LINE
  8
_0-2_
  6
CONTINUOUS
 62
    3
 10
1223.019260106646
 20
1189.5778517198307
 11
1199.1957539833338
 21
1189.5778517198307
  0
LINE
  8
_0-2_
  6
CONTINUOUS
 62
    3
 10
1235.1955263386981
 20
1211.5782212299659
 11
1235.1955263386981
 21
1201.6635549767984
  0
LINE
  8
_0-2_
  6
CONTINUOUS
 62
    3
 10
1141.1956121178353
 20
1130.0915862795853
 11
1141.1956121178353
 21
1151.5782707179301
  0
LINE
  8
_0-2_
  6
CONTINUOUS
 62
    3
 10
1141.1956121178353
 20
1151.5782707179301
 11
1176.1845927977356
 21
1151.5782707179301
  0
LINE
  8
_0-2_
  6
CONTINUOUS
 62
    3
 10
1187.355634750332
 20
1159.5780001837243
 11
1163.1954867483269
 21
1159.5780001837243
  0
LINE
  8
_0-2_
  6
CONTINUOUS
 62
    3
 10
1251.4157015920762
 20
1219.5779506957599
 11
1221.1953811740009
 21
1219.5779506957599
  0
LINE
  8
_0-2_
  6
CONTINUOUS
 62
    3
 10
1221.1951337341795
 20
1241.5780727660724
 11
1268.7895650184907
 21
1241.5780727660724
  0
LINE
  8
_0-2_
  6
CONTINUOUS
 62
    3
 10
1274.495651048368
 20
1249.5779259517776
 11
1257.1954009691881
 21
1249.5779259517776
  0
LINE
  8
_0-2_
  6
CONTINUOUS
 62
    3
 10
1288.6937480711724
 20
1271.5782954619126
 11
1257.1954009691881
 21
1271.5782954619126
  0
LINE
  8
_0-2_
  6
CONTINUOUS
 62
    3
 10
1293.3527924915693
 20
1279.5780249277063
 11
1279.1952755996781
 21
1279.5780249277063
  0
LINE
  8
_0-2_
  6
CONTINUOUS
 62
    3
 10
1279.1950281598552
 20
1301.5780232781074
 11
1304.9003141343062
 21
1301.5780232781074
  0
LINE
  8
_0-2_
  6
CONTINUOUS
 62
    3
 10
1309.1956220154298
 20
1331.578369693859
 11
1309.1956220154298
 21
1310.7439366279814
  0
LINE
  8
_0-2_
  6
CONTINUOUS
 62
    3
 10
1308.6653584755215
 20
1309.5780001837243
 11
1299.1955890234519
 21
1309.5780001837243
  0
LINE
  8
_0-2_
  6
CONTINUOUS
 62
    3
 10
1320.8803490398163
 20
1339.5780991596534
 11
1279.1952755996781
 21
1339.5780991596534
  0
LINE
  8
_0-2_
  6
CONTINUOUS
 62
    3
 10
1279.1950281598552
 20
1361.5780975100545
 11
1328.0490518612901
 21
1361.5780975100545
  0
LINE
  8
_0-2_
  6
CONTINUOUS
 62
    3
 10
1330.3011254070038
 20
1369.5779506957597
 11
1315.195790274508
 21
1369.5779506957597
  0
LINE
  8
_0-2_
  6
CONTINUOUS
 62
    3
 10
1315.195790274508
 20
1391.5783202058947
 11
1335.5568709596862
 21
1391.5783202058947
  0
LINE
  8
_0-2_
  6
CONTINUOUS
 62
    3
 10
835.19519641893385
 20
1129.5779012077951
 11
845.19522941091009
 21
1129.5779012077951
  0
LINE
  8
_0-2_
  6
CONTINUOUS
 62
    3
 10
845.19522941091009
 20
1129.5779012077951
 11
845.19522941091009
 21
1151.5782707179301
  0
LINE
  8
_0-2_
  6
CONTINUOUS
 62
    3
 10
1067.1952690012822
 20
1129.5779012077951
 11
1067.1952690012822
 21
1151.5782707179301
  0
LINE
  8
_0-2_
  6
CONTINUOUS
 62
    3
 10
1077.1953019932585
 20
1129.5779012077951
 11
1067.1952690012822
 21
1129.5779012077951
  0
LINE
  8
_0-2_
  6
CONTINUOUS
 62
    3
 10
873.19527230047993
 20
1219.5779506957599
 11
923.19518982053978
 21
1219.5779506957599
  0
LINE
  8
_0-2_
  6
CONTINUOUS
 62
    3
 10
931.19541416597849
 20
1219.5779506957599
 11
981.19508424621381
 21
1219.5779506957599
  0
LINE
  8
_0-2_
  6
CONTINUOUS
 62
    3
 10
1039.1952261117124
 20
1219.5779506957599
 11
989.19530859165411
 21
1219.5779506957599
  0
LINE
  8
_0-2_
  6
CONTINUOUS
 62
    3
 10
989.19530859165411
 20
1219.5779506957599
 11
989.19530859165411
 21
1241.5780727660724
  0
LINE
  8
_0-2_
  6
CONTINUOUS
 62
    3
 10
1039.1952261117124
 20
1241.5780727660724
 11
1039.1952261117124
 21
1219.5779506957599
  0
LINE
  8
_0-2_
  6
CONTINUOUS
 62
    3
 10
981.19508424621381
 20
1241.5780727660724
 11
981.19508424621381
 21
1219.5779506957599
  0
LINE
  8
_0-2_
  6
CONTINUOUS
 62
    3
 10
923.19518982053978
 20
1219.5779506957599
 11
923.19518982053978
 21
1241.5780727660724
  0
LINE
  8
_0-2_
  6
CONTINUOUS
 62
    3
 10
873.19527230047993
 20
1241.5780727660724
 11
873.19527230047993
 21
1219.5779506957599
  0
LINE
  8
_0-2_
  6
CONTINUOUS
 62
    3
 10
931.19541416597849
 20
1241.5780727660724
 11
931.19541416597849
 21
1219.5779506957599
  0
LINE
  8
_0-2_
  6
CONTINUOUS
 62
    3
 10
873.19490114074551
 20
1241.5780727660724
 11
923.19506610062831
 21
1241.5780727660724
  0
LINE
  8
_0-2_
  6
CONTINUOUS
 62
    3
 10
931.19491928633261
 20
1241.5780727660724
 11
981.19508424621381
 21
1241.5780727660724
  0
LINE
  8
_0-2_
  6
CONTINUOUS
 62
    3
 10
989.1949374319197
 20
1241.5780727660724
 11
1039.1951023918009
 21
1241.5780727660724
  0
LINE
  8
_0-2_
  6
CONTINUOUS
 62
    3
 10
873.19527230047993
 20
1279.5780249277063
 11
923.19518982053978
 21
1279.5780249277063
  0
LINE
  8
_0-2_
  6
CONTINUOUS
 62
    3
 10
931.19541416597849
 20
1279.5780249277063
 11
981.19508424621381
 21
1279.5780249277063
  0
LINE
  8
_0-2_
  6
CONTINUOUS
 62
    3
 10
1039.1952261117124
 20
1279.5780249277063
 11
989.19530859165411
 21
1279.5780249277063
  0
LINE
  8
_0-2_
  6
CONTINUOUS
 62
    3
 10
989.19530859165411
 20
1279.5780249277063
 11
989.19530859165411
 21
1301.5781469980193
  0
LINE
  8
_0-2_
  6
CONTINUOUS
 62
    3
 10
1039.1952261117124
 20
1301.5781469980193
 11
1039.1952261117124
 21
1279.5780249277063
  0
LINE
  8
_0-2_
  6
CONTINUOUS
 62
    3
 10
981.19508424621381
 20
1301.5781469980193
 11
981.19508424621381
 21
1279.5780249277063
  0
LINE
  8
_0-2_
  6
CONTINUOUS
 62
    3
 10
923.19518982053978
 20
1279.5780249277063
 11
923.19518982053978
 21
1301.5781469980193
  0
LINE
  8
_0-2_
  6
CONTINUOUS
 62
    3
 10
873.19527230047993
 20
1301.5781469980193
 11
873.19527230047993
 21
1279.5780249277063
  0
LINE
  8
_0-2_
  6
CONTINUOUS
 62
    3
 10
931.19541416597849
 20
1301.5781469980193
 11
931.19541416597849
 21
1279.5780249277063
  0
LINE
  8
_0-2_
  6
CONTINUOUS
 62
    3
 10
873.19490114074551
 20
1301.5781469980193
 11
923.19506610062831
 21
1301.5781469980193
  0
LINE
  8
_0-2_
  6
CONTINUOUS
 62
    3
 10
931.19491928633261
 20
1301.5781469980193
 11
981.19508424621381
 21
1301.5781469980193
  0
LINE
  8
_0-2_
  6
CONTINUOUS
 62
    3
 10
989.1949374319197
 20
1301.5781469980193
 11
1039.1951023918009
 21
1301.5781469980193
  0
LINE
  8
_0-2_
  6
CONTINUOUS
 62
    3
 10
951.19523271010803
 20
1271.5782954619126
 11
951.19523271010803
 21
1249.5779259517776
  0
LINE
  8
_0-2_
  6
CONTINUOUS
 62
    3
 10
909.19529209566554
 20
1271.5782954619126
 11
909.19529209566554
 21
1249.5779259517776
  0
LINE
  8
_0-2_
  6
CONTINUOUS
 62
    3
 10
909.19529209566554
 20
1249.5779259517776
 11
945.1950644510282
 21
1249.5779259517776
  0
LINE
  8
_0-2_
  6
CONTINUOUS
 62
    3
 10
945.1950644510282
 20
1249.5779259517776
 11
945.1950644510282
 21
1271.5782954619126
  0
LINE
  8
_0-2_
  6
CONTINUOUS
 62
    3
 10
945.1950644510282
 20
1271.5782954619126
 11
909.19529209566554
 21
1271.5782954619126
  0
LINE
  8
_0-2_
  6
CONTINUOUS
 62
    3
 10
893.19509084460947
 20
1271.5782954619126
 11
893.19509084460947
 21
1249.5779259517776
  0
LINE
  8
_0-2_
  6
CONTINUOUS
 62
    3
 10
893.19509084460947
 20
1249.5779259517776
 11
903.19512383658571
 21
1249.5779259517776
  0
LINE
  8
_0-2_
  6
CONTINUOUS
 62
    3
 10
903.19512383658571
 20
1249.5779259517776
 11
903.19512383658571
 21
1271.5782954619126
  0
LINE
  8
_0-2_
  6
CONTINUOUS
 62
    3
 10
903.19512383658571
 20
1271.5782954619126
 11
893.19509084460947
 21
1271.5782954619126
  0
LINE
  8
_0-2_
  6
CONTINUOUS
 62
    3
 10
851.19515023016697
 20
1271.5782954619126
 11
851.19515023016697
 21
1249.5779259517776
  0
LINE
  8
_0-2_
  6
CONTINUOUS
 62
    3
 10
851.19515023016697
 20
1249.5779259517776
 11
887.19517002535258
 21
1249.5779259517776
  0
LINE
  8
_0-2_
  6
CONTINUOUS
 62
    3
 10
887.19517002535258
 20
1249.5779259517776
 11
887.19517002535258
 21
1271.5782954619126
  0
LINE
  8
_0-2_
  6
CONTINUOUS
 62
    3
 10
887.19517002535258
 20
1271.5782954619126
 11
851.19515023016697
 21
1271.5782954619126
  0
LINE
  8
_0-2_
  6
CONTINUOUS
 62
    3
 10
961.19526570208427
 20
1271.5782954619126
 11
951.19523271010803
 21
1271.5782954619126
  0
LINE
  8
_0-2_
  6
CONTINUOUS
 62
    3
 10
951.19523271010803
 20
1249.5779259517776
 11
961.19526570208427
 21
1249.5779259517776
  0
LINE
  8
_0-2_
  6
CONTINUOUS
 62
    3
 10
961.19526570208427
 20
1271.5782954619126
 11
961.19526570208427
 21
1249.5779259517776
  0
LINE
  8
_0-2_
  6
CONTINUOUS
 62
    3
 10
1003.1952063165268
 20
1271.5782954619126
 11
1003.1952063165268
 21
1249.5779259517776
  0
LINE
  8
_0-2_
  6
CONTINUOUS
 62
    3
 10
1003.1952063165268
 20
1249.5779259517776
 11
967.1954339611641
 21
1249.5779259517776
  0
LINE
  8
_0-2_
  6
CONTINUOUS
 62
    3
 10
967.1954339611641
 20
1249.5779259517776
 11
967.1954339611641
 21
1271.5782954619126
  0
LINE
  8
_0-2_
  6
CONTINUOUS
 62
    3
 10
967.1954339611641
 20
1271.5782954619126
 11
1003.1952063165268
 21
1271.5782954619126
  0
LINE
  8
_0-2_
  6
CONTINUOUS
 62
    3
 10
1019.1954075675828
 20
1271.5782954619126
 11
1019.1954075675828
 21
1249.5779259517776
  0
LINE
  8
_0-2_
  6
CONTINUOUS
 62
    3
 10
1019.1954075675828
 20
1249.5779259517776
 11
1009.1953745756066
 21
1249.5779259517776
  0
LINE
  8
_0-2_
  6
CONTINUOUS
 62
    3
 10
1009.1953745756066
 20
1249.5779259517776
 11
1009.1953745756066
 21
1271.5782954619126
  0
LINE
  8
_0-2_
  6
CONTINUOUS
 62
    3
 10
1009.1953745756066
 20
1271.5782954619126
 11
1019.1954075675828
 21
1271.5782954619126
  0
LINE
  8
_0-2_
  6
CONTINUOUS
 62
    3
 10
1061.1953481820253
 20
1271.5782954619126
 11
1061.1953481820253
 21
1249.5779259517776
  0
LINE
  8
_0-2_
  6
CONTINUOUS
 62
    3
 10
1061.1953481820253
 20
1249.5779259517776
 11
1025.1953283868397
 21
1249.5779259517776
  0
LINE
  8
_0-2_
  6
CONTINUOUS
 62
    3
 10
1025.1953283868397
 20
1249.5779259517776
 11
1025.1953283868397
 21
1271.5782954619126
  0
LINE
  8
_0-2_
  6
CONTINUOUS
 62
    3
 10
1025.1953283868397
 20
1271.5782954619126
 11
1061.1953481820253
 21
1271.5782954619126
  0
LINE
  8
_0-2_
  6
CONTINUOUS
 62
    3
 10
865.19529539486257
 20
1399.5780496716884
 11
865.19529539486257
 21
1421.5780480220894
  0
LINE
  8
_0-2_
  6
CONTINUOUS
 62
    3
 10
1047.1952030173297
 20
1399.5780496716884
 11
1047.1952030173297
 21
1421.5780480220894
  0
ARC
  8
_0-2_
  6
CONTINUOUS
 62
    3
 10
956.19524920609615
 20
1470.5781849387915
 40
387.49994845003698
 50
182.81047058105469
 51
186.07362365722656
  0
ARC
  8
_0-2_
  6
CONTINUOUS
 62
    3
 10
956.19524920609615
 20
1470.5781849387915
 40
387.49994845003698
 50
353.92637634277344
 51
357.18952941894531
  0
ARC
  8
_0-2_
  6
CONTINUOUS
 62
    3
 10
956.19524920609615
 20
1470.5781849387915
 40
358.4999703072213
 50
256.78041076660156
 51
264.71842956542969
  0
ARC
  8
_0-2_
  6
CONTINUOUS
 62
    3
 10
956.19524920609615
 20
1470.5781849387915
 40
358.4999703072213
 50
266.00126647949219
 51
273.99873352050781
  0
ARC
  8
_0-2_
  6
CONTINUOUS
 62
    3
 10
956.19524920609615
 20
1470.5781849387915
 40
358.4999703072213
 50
275.28157043457031
 51
283.21958923339844
  0
ARC
  8
_0-2_
  6
CONTINUOUS
 62
    3
 10
956.19524920609615
 20
1470.5781849387915
 40
387.49997938001468
 50
344.89161682128906
 51
348.23660278320313
  0
ARC
  8
_0-2_
  6
CONTINUOUS
 62
    3
 10
956.19524920609615
 20
1470.5781849387915
 40
387.49997938001468
 50
340.24098205566406
 51
343.66275024414062
  0
ARC
  8
_0-2_
  6
CONTINUOUS
 62
    3
 10
956.19524920609615
 20
1470.5781849387915
 40
387.49997938001468
 50
335.45018005371094
 51
335.63955688476562
  0
ARC
  8
_0-2_
  6
CONTINUOUS
 62
    3
 10
956.19524920609615
 20
1470.5781849387915
 40
387.49997938001468
 50
330.46839904785156
 51
334.142822265625
  0
ARC
  8
_0-2_
  6
CONTINUOUS
 62
    3
 10
956.19524920609615
 20
1470.5781849387915
 40
387.49997938001468
 50
325.22723388671875
 51
329.09953308105469
  0
ARC
  8
_0-2_
  6
CONTINUOUS
 62
    3
 10
956.19524920609615
 20
1470.5781849387915
 40
387.49997938001468
 50
319.62838745117187
 51
323.77426147460938
  0
ARC
  8
_0-2_
  6
CONTINUOUS
 62
    3
 10
956.19524920609615
 20
1470.5781849387915
 40
387.49997938001468
 50
313.51765441894531
 51
316.05455017089844
  0
ARC
  8
_0-2_
  6
CONTINUOUS
 62
    3
 10
956.19524920609615
 20
1470.5781849387915
 40
387.49997938001468
 50
306.62271118164062
 51
311.54638671875
  0
ARC
  8
_0-2_
  6
CONTINUOUS
 62
    3
 10
956.19524920609615
 20
1470.5781849387915
 40
387.49997938001468
 50
298.51704406738281
 51
304.59100341796875
  0
ARC
  8
_0-2_
  6
CONTINUOUS
 62
    3
 10
956.19524920609615
 20
1470.5781849387915
 40
387.49997938001468
 50
292.61375427246094
 51
295.75698852539062
  0
ARC
  8
_0-2_
  6
CONTINUOUS
 62
    3
 10
956.19524920609615
 20
1470.5781849387915
 40
387.49997938001468
 50
244.24301147460937
 51
247.38624572753906
  0
ARC
  8
_0-2_
  6
CONTINUOUS
 62
    3
 10
956.19524920609615
 20
1470.5781849387915
 40
387.49997938001468
 50
235.40899658203125
 51
241.48298645019531
  0
ARC
  8
_0-2_
  6
CONTINUOUS
 62
    3
 10
956.19524920609615
 20
1470.5781849387915
 40
387.49997938001468
 50
228.45361328125
 51
233.37728881835937
  0
ARC
  8
_0-2_
  6
CONTINUOUS
 62
    3
 10
956.19524920609615
 20
1470.5781849387915
 40
387.49997938001468
 50
223.94551086425781
 51
226.48234558105469
  0
ARC
  8
_0-2_
  6
CONTINUOUS
 62
    3
 10
956.19524920609615
 20
1470.5781849387915
 40
387.49997938001468
 50
216.22573852539062
 51
220.37161254882812
  0
ARC
  8
_0-2_
  6
CONTINUOUS
 62
    3
 10
956.19524920609615
 20
1470.5781849387915
 40
387.49997938001468
 50
210.90046691894531
 51
214.77276611328125
  0
ARC
  8
_0-2_
  6
CONTINUOUS
 62
    3
 10
956.19524920609615
 20
1470.5781849387915
 40
387.49997938001468
 50
205.85717773437503
 51
209.53160095214844
  0
ARC
  8
_0-2_
  6
CONTINUOUS
 62
    3
 10
956.19524920609615
 20
1470.5781849387915
 40
387.49997938001468
 50
204.36044311523437
 51
204.54981994628906
  0
ARC
  8
_0-2_
  6
CONTINUOUS
 62
    3
 10
956.19524920609615
 20
1470.5781849387915
 40
387.49997938001468
 50
196.33724975585937
 51
199.75901794433591
  0
ARC
  8
_0-2_
  6
CONTINUOUS
 62
    3
 10
956.19524920609615
 20
1470.5781849387915
 40
387.49997938001468
 50
191.76339721679687
 51
195.10838317871094
  0
ARC
  8
_0-2_
  6
CONTINUOUS
 62
    3
 10
956.19524920609615
 20
1470.5781849387915
 40
387.49994845003698
 50
358.37329309779597
 51
1.626678466796875
  0
LINE
  8
_0-2_
  6
CONTINUOUS
 62
    3
 10
1337.1954174651751
 20
1459.578000183724
 11
1337.1954174651751
 21
1481.5783696938588
  0
LINE
  8
_0-2_
  6
CONTINUOUS
 62
    3
 10
1329.1954405595593
 20
1459.578000183724
 11
1329.1954405595593
 21
1481.5783696938588
  0
LINE
  8
_0-2_
  6
CONTINUOUS
 62
    3
 10
1279.1952755996781
 20
1459.578000183724
 11
1279.1952755996781
 21
1481.5783696938588
  0
LINE
  8
_0-2_
  6
CONTINUOUS
 62
    3
 10
1271.1952986940607
 20
1459.578000183724
 11
1271.1952986940607
 21
1481.5783696938588
  0
LINE
  8
_0-2_
  6
CONTINUOUS
 62
    3
 10
1230.3763883530564
 20
1459.578000183724
 11
1230.3763883530564
 21
1481.5783696938588
  0
LINE
  8
_0-2_
  6
CONTINUOUS
 62
    3
 10
1146.3918483931748
 20
1459.578000183724
 11
1146.3918483931748
 21
1481.5783696938588
  0
LINE
  8
_0-2_
  6
CONTINUOUS
 62
    3
 10
1105.1953448828283
 20
1481.5783696938588
 11
1105.1953448828283
 21
1459.578000183724
  0
LINE
  8
_0-2_
  6
CONTINUOUS
 62
    3
 10
1097.1953679772109
 20
1481.5783696938588
 11
1097.1953679772109
 21
1459.578000183724
  0
LINE
  8
_0-2_
  6
CONTINUOUS
 62
    3
 10
815.19513043498137
 20
1459.578000183724
 11
815.19513043498137
 21
1481.5783696938588
  0
LINE
  8
_0-2_
  6
CONTINUOUS
 62
    3
 10
807.1951535293656
 20
1459.578000183724
 11
807.1951535293656
 21
1481.5783696938588
  0
LINE
  8
_0-2_
  6
CONTINUOUS
 62
    3
 10
765.99865001901912
 20
1481.5783696938588
 11
765.99865001901912
 21
1459.578000183724
  0
LINE
  8
_0-2_
  6
CONTINUOUS
 62
    3
 10
756.19508424621495
 20
1454.5782311275589
 11
756.19508424621495
 21
1486.5781387500247
  0
LINE
  8
_0-2_
  6
CONTINUOUS
 62
    3
 10
731.19524920609638
 20
1454.5782311275589
 11
731.19524920609638
 21
1486.5781387500247
  0
LINE
  8
_0-2_
  6
CONTINUOUS
 62
    3
 10
717.19535148122304
 20
1486.5781387500247
 11
717.19535148122304
 21
1454.5782311275589
  0
LINE
  8
_0-2_
  6
CONTINUOUS
 62
    3
 10
692.19526900128244
 20
1486.5781387500247
 11
692.19526900128244
 21
1454.5782311275589
  0
LINE
  8
_0-2_
  6
CONTINUOUS
 62
    3
 10
682.01411005913678
 20
1459.578000183724
 11
682.01411005913678
 21
1481.5783696938588
  0
LINE
  8
_0-2_
  6
CONTINUOUS
 62
    3
 10
641.19519971813156
 20
1459.578000183724
 11
641.19519971813156
 21
1481.5783696938588
  0
LINE
  8
_0-2_
  6
CONTINUOUS
 62
    3
 10
633.19522281251511
 20
1459.578000183724
 11
633.19522281251511
 21
1481.5783696938588
  0
LINE
  8
_0-2_
  6
CONTINUOUS
 62
    3
 10
583.195057852633
 20
1459.578000183724
 11
583.195057852633
 21
1481.5783696938588
  0
LINE
  8
_0-2_
  6
CONTINUOUS
 62
    3
 10
575.19508094701723
 20
1459.578000183724
 11
575.19508094701723
 21
1481.5783696938588
  0
ARC
  8
_0-2_
  6
CONTINUOUS
 62
    3
 10
956.19524920609615
 20
1470.5781849387915
 40
387.49994845003698
 50
178.34622350797477
 51
181.62667846679685
  0
LINE
  8
_0-2_
  6
CONTINUOUS
 62
    3
 10
1044.8596186556431
 20
1114.9648224665716
 11
1050.4238136743431
 21
1092.6480551750954
  0
ARC
  8
_0-2_
  6
CONTINUOUS
 62
    3
 10
956.19524920609615
 20
1470.5781849387915
 40
389.49994267644109
 50
256
 51
284
  0
LINE
  8
_0-2_
  6
CONTINUOUS
 62
    3
 10
867.53087975654921
 20
1114.9648224665716
 11
861.96668473784916
 21
1092.6480551750954
  0
ARC
  8
_0-2_
  6
CONTINUOUS
 62
    3
 10
956.19524920609615
 20
1470.5781849387915
 40
366.49997814281551
 50
256
 51
284
  0
ARC
  8
_0-2_
  6
CONTINUOUS
 62
    3
 10
956.19524920609615
 20
1470.5781849387915
 40
387.49997938001468
 50
285.03507688897281
 51
291.338134765625
  0
LINE
  8
_0-2_
  6
CONTINUOUS
 62
    3
 10
1050.4250208941453
 20
1121.5781717420007
 11
1056.7167518906592
 21
1096.3434170222481
  0
LINE
  8
_0-2_
  6
CONTINUOUS
 62
    3
 10
1050.4250208941453
 20
1121.5781717420007
 11
1097.195120537388
 21
1121.5781717420007
  0
LINE
  8
_0-2_
  6
CONTINUOUS
 62
    3
 10
815.19513043498137
 20
1121.5781717420007
 11
815.19513043498137
 21
1109.6416746980826
  0
ARC
  8
_0-2_
  6
CONTINUOUS
 62
    3
 10
956.19524920609615
 20
1470.5781849387915
 40
387.49997938001468
 50
248.661865234375
 51
254.96492311102719
  0
LINE
  8
_0-2_
  6
CONTINUOUS
 62
    3
 10
861.9654775180486
 20
1121.5781717420007
 11
855.67374652153467
 21
1096.3434170222481
  0
LINE
  8
_0-2_
  6
CONTINUOUS
 62
    3
 10
861.9654775180486
 20
1121.5781717420007
 11
815.19537787480431
 21
1121.5781717420007
  0
LINE
  8
_0-1_
  6
CENTER1
 62
    2
 10
541.38106826490093
 20
1078.8235396685213
 11
565.85633088103259
 21
1054.3482770523892
  0
LINE
  8
_0-1_
  6
CONTINUOUS
 62
    2
 10
550.08303194733367
 20
1142.2480573258274
 11
520.19527065088073
 21
1109.8611538207599
  0
LINE
  8
_0-1_
  6
CONTINUOUS
 62
    2
 10
543.012191575712
 20
1149.3188976974488
 11
550.08315566724514
 21
1142.2480573258274
  0
LINE
  8
_0-1_
  6
CONTINUOUS
 62
    2
 10
609.44310307803494
 20
1215.7498091997713
 11
543.012191575712
 21
1149.3188976974488
  0
LINE
  8
_0-1_
  6
CONTINUOUS
 62
    2
 10
613.93203262036991
 20
1206.0969342789519
 11
550.08315566724514
 21
1142.2480573258274
  0
LINE
  8
_0-1_
  6
CONTINUOUS
 62
    2
 10
615.06159541069974
 20
1204.3980124567397
 11
522.19532673724052
 21
1111.5318675031915
  0
LINE
  8
_0-1_
  6
CONTINUOUS
 62
    2
 10
522.19532673724052
 20
1109.8611538207599
 11
522.19532673724052
 21
1111.5318675031915
  0
LINE
  8
_0-1_
  6
CONTINUOUS
 62
    2
 10
529.02367608267946
 20
1138.1588668169586
 11
607.74183057750656
 21
1216.8771450316972
  0
LINE
  8
_0-1_
  6
CONTINUOUS
 62
    2
 10
627.86512159313156
 20
1064.4660913999405
 11
595.47821808806407
 21
1034.578330103488
  0
LINE
  8
_0-1_
  6
CONTINUOUS
 62
    2
 10
634.93596196475346
 20
1057.3952510283189
 11
627.86512159313156
 21
1064.4660913999405
  0
LINE
  8
_0-1_
  6
CONTINUOUS
 62
    2
 10
595.47821808806407
 20
1036.5783861898472
 11
597.14893177049657
 21
1036.5783861898472
  0
LINE
  8
_0-1_
  6
CONTINUOUS
 62
    2
 10
691.42931903031513
 20
1128.0301651172122
 11
627.86512159313156
 21
1064.4660913999405
  0
LINE
  8
_0-1_
  6
CONTINUOUS
 62
    2
 10
701.07984327281906
 20
1123.5391323363842
 11
634.93596196475346
 21
1057.3952510283189
  0
LINE
  8
_0-1_
  6
CONTINUOUS
 62
    2
 10
623.77593108426368
 20
1043.4067355352868
 11
702.49420929900134
 21
1122.1247663102024
  0
LINE
  8
_0-1_
  6
CONTINUOUS
 62
    2
 10
690.01507672404341
 20
1129.4445311433951
 11
597.14893177049657
 21
1036.5783861898472
  0
LINE
  8
_0-1_
  6
CONTINUOUS
 62
    2
 10
574.5680684364595
 20
1099.0017623247711
 11
644.08319360801784
 21
1172.3909290794168
  0
LINE
  8
_0-1_
  6
CONTINUOUS
 62
    2
 10
648.98633741344429
 20
1170.4401135177613
 11
575.98626977989284
 21
1097.4399221642984
  0
LINE
  8
_0-1_
  6
CONTINUOUS
 62
    2
 10
584.61882659207618
 20
1088.9510041691549
 11
658.00799334672138
 21
1158.4662530606247
  0
LINE
  8
_0-1_
  6
CONTINUOUS
 62
    2
 10
656.05717778506596
 20
1163.3692731461397
 11
583.05698643160304
 21
1090.3693292324997
  0
LINE
  8
_0-1_
  6
CENTER1
 62
    2
 10
566.19903503538285
 20
1080.5818470481668
 11
539.23799196105801
 21
1053.6208039738424
  0
LINE
  8
_0-1_
  6
CONTINUOUS
 62
    2
 10
526.83111181431013
 20
1135.1435651383272
 11
543.01206785580052
 21
1149.3188976974488
  0
LINE
  8
_0-1_
  6
CONTINUOUS
 62
    2
 10
620.76075312554326
 20
1041.2141712669165
 11
634.93596196475346
 21
1057.3950035884959
  0
LINE
  8
_0-1_
  6
CONTINUOUS
 62
    2
 10
522.19532673724052
 20
1140.9873514295009
 11
522.19532673724052
 21
1353.2750068217099
  0
LINE
  8
_0-1_
  6
CONTINUOUS
 62
    2
 10
520.19527065088073
 20
1109.8611538207599
 11
520.19527065088073
 21
1353.2750068217099
  0
LINE
  8
_0-1_
  6
CONTINUOUS
 62
    2
 10
626.60441569680552
 20
1036.5783861898472
 11
838.89219480892598
 21
1036.5783861898472
  0
LINE
  8
_0-1_
  6
CONTINUOUS
 62
    2
 10
595.47821808806407
 20
1034.578330103488
 11
838.89219480892598
 21
1034.578330103488
  0
LINE
  8
_0-1_
  6
CENTER1
 62
    2
 10
1371.0095538672028
 20
1078.8235396685213
 11
1346.5342912510705
 21
1054.3482770523892
  0
LINE
  8
_0-1_
  6
CONTINUOUS
 62
    2
 10
1362.3075901847701
 20
1142.2480573258274
 11
1392.195351481223
 21
1109.8611538207599
  0
LINE
  8
_0-1_
  6
CONTINUOUS
 62
    2
 10
1369.3784305563927
 20
1149.3188976974488
 11
1362.3073427449472
 21
1142.2480573258274
  0
LINE
  8
_0-1_
  6
CONTINUOUS
 62
    2
 10
1302.9472716142475
 20
1215.7498091997713
 11
1369.3784305563927
 21
1149.3188976974488
  0
LINE
  8
_0-1_
  6
CONTINUOUS
 62
    2
 10
1298.4584657918233
 20
1206.0969342789519
 11
1362.3073427449472
 21
1142.2480573258274
  0
LINE
  8
_0-1_
  6
CONTINUOUS
 62
    2
 10
1297.3289030014935
 20
1204.3980124567397
 11
1390.1950479550412
 21
1111.5318675031915
  0
LINE
  8
_0-1_
  6
CONTINUOUS
 62
    2
 10
1390.1950479550412
 20
1109.8611538207599
 11
1390.1950479550412
 21
1111.5318675031915
  0
LINE
  8
_0-1_
  6
CONTINUOUS
 62
    2
 10
1383.3666986096014
 20
1138.1588668169586
 11
1304.6486678346857
 21
1216.8771450316972
  0
LINE
  8
_0-1_
  6
CONTINUOUS
 62
    2
 10
1284.5253768190607
 20
1064.4660913999405
 11
1316.9122803241282
 21
1034.578330103488
  0
LINE
  8
_0-1_
  6
CONTINUOUS
 62
    2
 10
1277.4545364474398
 20
1057.3952510283189
 11
1284.5253768190607
 21
1064.4660913999405
  0
LINE
  8
_0-1_
  6
CONTINUOUS
 62
    2
 10
1316.9122803241282
 20
1036.5783861898472
 11
1315.241566641695
 21
1036.5783861898472
  0
LINE
  8
_0-1_
  6
CONTINUOUS
 62
    2
 10
1220.9610556619657
 20
1128.0301651172122
 11
1284.5253768190607
 21
1064.4660913999405
  0
LINE
  8
_0-1_
  6
CONTINUOUS
 62
    2
 10
1211.3106551393741
 20
1123.5391323363842
 11
1277.4545364474398
 21
1057.3952510283189
  0
LINE
  8
_0-1_
  6
CONTINUOUS
 62
    2
 10
1288.6145673279295
 20
1043.4067355352868
 11
1209.896289113191
 21
1122.1247663102024
  0
LINE
  8
_0-1_
  6
CONTINUOUS
 62
    2
 10
1222.3754216881489
 20
1129.4445311433951
 11
1315.241566641695
 21
1036.5783861898472
  0
LINE
  8
_0-1_
  6
CONTINUOUS
 62
    2
 10
1337.8224299757328
 20
1099.0017623247711
 11
1268.307181084263
 21
1172.3909290794168
  0
LINE
  8
_0-1_
  6
CONTINUOUS
 62
    2
 10
1263.4041609987489
 20
1170.4401135177613
 11
1336.4041049123889
 21
1097.4399221642984
  0
LINE
  8
_0-1_
  6
CONTINUOUS
 62
    2
 10
1327.771671820117
 20
1088.9510041691549
 11
1254.3825050654709
 21
1158.4662530606247
  0
LINE
  8
_0-1_
  6
CONTINUOUS
 62
    2
 10
1256.3333206271263
 20
1163.3692731461397
 11
1329.3335119805893
 21
1090.3693292324997
  0
LINE
  8
_0-1_
  6
CENTER1
 62
    2
 10
1346.1913396568989
 20
1080.5818470481668
 11
1373.1523827312228
 21
1053.6208039738424
  0
LINE
  8
_0-1_
  6
CONTINUOUS
 62
    2
 10
1385.5595103177936
 20
1135.1435651383272
 11
1369.3784305563927
 21
1149.3188976974488
  0
LINE
  8
_0-1_
  6
CONTINUOUS
 62
    2
 10
1291.6298690065605
 20
1041.2141712669165
 11
1277.4545364474398
 21
1057.3950035884959
  0
LINE
  8
_0-1_
  6
CONTINUOUS
 62
    2
 10
1390.1950479550412
 20
1140.9873514295009
 11
1390.1950479550412
 21
1353.2750068217099
  0
LINE
  8
_0-1_
  6
CONTINUOUS
 62
    2
 10
1392.195351481223
 20
1109.8611538207599
 11
1392.195351481223
 21
1353.2750068217099
  0
LINE
  8
_0-1_
  6
CONTINUOUS
 62
    2
 10
1285.7860827153877
 20
1036.5783861898472
 11
1073.4983036032663
 21
1036.5783861898472
  0
LINE
  8
_0-1_
  6
CONTINUOUS
 62
    2
 10
1316.9122803241282
 20
1034.578330103488
 11
1073.4983036032663
 21
1034.578330103488
  0
ARC
  8
_0-1_
  6
CONTINUOUS
 62
    2
 10
581.19524920609638
 20
1095.5781849387918
 40
73.499996597702449
 50
180
 51
270
  0
CIRCLE
  8
_0-1_
  6
CONTINUOUS
 62
    2
 10
552.91089796031906
 20
1067.2938336930142
 40
7.4999996133752767
  0
CIRCLE
  8
_0-1_
  6
CONTINUOUS
 62
    2
 10
552.91089796031906
 20
1067.2938336930142
 40
8.9999991494256086
  0
ARC
  8
_0-1_
  6
CONTINUOUS
 62
    2
 10
534.19529209566576
 20
1109.8611538207599
 40
13.99999921386306
 50
180
 51
293.73387145996094
  0
ARC
  8
_0-1_
  6
CONTINUOUS
 62
    2
 10
619.30419860960183
 20
1200.1554092578376
 40
5.9999995940440414
 50
38.75390625
 51
135
  0
ARC
  8
_0-1_
  6
CONTINUOUS
 62
    2
 10
603.49922737860447
 20
1221.1197482305993
 40
5.9999995940440414
 50
315
 51
35.270965576171847
  0
ARC
  8
_0-1_
  6
CONTINUOUS
 62
    2
 10
534.19529209566576
 20
1109.8611538207599
 40
11.999999188088083
 50
180
 51
293.73387145996094
  0
ARC
  8
_0-1_
  6
CONTINUOUS
 62
    2
 10
526.19531519004909
 20
1140.9873514295009
 40
3.9999998099095113
 50
179.99999999999997
 51
314.99874877929682
  0
ARC
  8
_0-1_
  6
CONTINUOUS
 62
    2
 10
595.47821808806407
 20
1048.5782278283607
 40
11.999999188088083
 50
156.26612854003906
 51
270
  0
ARC
  8
_0-1_
  6
CONTINUOUS
 62
    2
 10
626.60441569680552
 20
1040.5782509227445
 40
3.9999998099095113
 50
135.0012512207031
 51
270
  0
ARC
  8
_0-1_
  6
CONTINUOUS
 62
    2
 10
619.30419860960183
 20
1200.1554092578376
 40
7.9999996198190226
 50
74.104141235351548
 51
135
  0
ARC
  8
_0-1_
  6
CONTINUOUS
 62
    2
 10
956.19524920609615
 20
1470.5781849387915
 40
425.49999340160457
 50
215.89465332031247
 51
218.13082885742185
  0
ARC
  8
_0-1_
  6
CONTINUOUS
 62
    2
 10
603.49922737860447
 20
1221.1197482305993
 40
7.9999996198190226
 50
315
 51
359.92379760742187
  0
ARC
  8
_0-1_
  6
CONTINUOUS
 62
    2
 10
685.77247352514223
 20
1133.6871343422972
 40
5.9999995940440414
 50
315
 51
51.24609375
  0
ARC
  8
_0-1_
  6
CONTINUOUS
 62
    2
 10
706.73681249790343
 20
1117.8821631113003
 40
5.9999995940440414
 50
54.729034423828075
 51
134.99999999999994
  0
ARC
  8
_0-1_
  6
CONTINUOUS
 62
    2
 10
685.77247352514223
 20
1133.6871343422972
 40
7.9999996198190226
 50
315
 51
15.895858764648436
  0
ARC
  8
_0-1_
  6
CONTINUOUS
 62
    2
 10
956.19524920609615
 20
1470.5781849387915
 40
425.49999340160457
 50
231.8691711425781
 51
234.10534667968747
  0
ARC
  8
_0-1_
  6
CONTINUOUS
 62
    2
 10
706.73681249790343
 20
1117.8821631113003
 40
7.9999996198190226
 50
90.076202392578068
 51
134.99999999999994
  0
ARC
  8
_0-1_
  6
CONTINUOUS
 62
    2
 10
644.7437342145422
 20
1174.6827167166634
 40
5.9999995940440414
 50
315
 51
43.533721923828104
  0
ARC
  8
_0-1_
  6
CONTINUOUS
 62
    2
 10
639.72713925043763
 20
1176.5169881218578
 40
5.9999995940440414
 50
316.55320739746094
 51
42.898513793945305
  0
ARC
  8
_0-1_
  6
CONTINUOUS
 62
    2
 10
570.93800251849052
 20
1102.4401861001095
 40
4.9999995811565503
 50
242.84657287597656
 51
316.55303955078125
  0
ARC
  8
_0-1_
  6
CONTINUOUS
 62
    2
 10
571.03635984798848
 20
1102.3897083762918
 40
6.9999996069315298
 50
242.68588256835937
 51
315.00071716308594
  0
ARC
  8
_0-1_
  6
CONTINUOUS
 62
    2
 10
660.29978098396805
 20
1159.1266699472376
 40
5.9999995940440414
 50
46.466278076171818
 51
134.99999999999994
  0
ARC
  8
_0-1_
  6
CONTINUOUS
 62
    2
 10
662.13405238916175
 20
1154.110074983133
 40
5.9999995940440414
 50
47.101486206054645
 51
133.44679260253901
  0
ARC
  8
_0-1_
  6
CONTINUOUS
 62
    2
 10
588.0572503674141
 20
1085.3210619710974
 40
4.9999995811565503
 50
133.44696044921875
 51
207.15342712402344
  0
ARC
  8
_0-1_
  6
CONTINUOUS
 62
    2
 10
588.00677264359683
 20
1085.4192955806839
 40
6.9999996069315298
 50
134.99928283691403
 51
207.3141174316406
  0
ARC
  8
_0-1_
  6
CONTINUOUS
 62
    2
 10
956.19524920609615
 20
1470.5781849387915
 40
425.99997649321688
 50
227.10186767578122
 51
231.24595642089844
  0
ARC
  8
_0-1_
  6
CONTINUOUS
 62
    2
 10
956.19524920609615
 20
1470.5781849387915
 40
425.99997649321688
 50
218.75404357910153
 51
222.89813232421875
  0
ARC
  8
_0-1_
  6
CONTINUOUS
 62
    2
 10
956.19524920609615
 20
1470.5781849387915
 40
423.59999579352302
 50
223.53279113769531
 51
226.46722412109375
  0
ARC
  8
_0-1_
  6
CONTINUOUS
 62
    2
 10
552.91089796031906
 20
1067.2938336930142
 40
34.49999706165211
 50
336.2662353515625
 51
27.154159545898452
  0
ARC
  8
_0-1_
  6
CONTINUOUS
 62
    2
 10
552.91089796031906
 20
1067.2938336930142
 40
34.49999706165211
 50
62.845932006835909
 51
113.73376464843747
  0
ARC
  8
_0-1_
  6
CONTINUOUS
 62
    2
 10
552.91089796031906
 20
1067.2938336930142
 40
32.499998969000742
 50
336.26638793945312
 51
113.7336120605469
  0
ARC
  8
_0-1_
  6
CONTINUOUS
 62
    2
 10
524.19525910368952
 20
1138.1524333815705
 40
3.9999998099095113
 50
180
 51
311.21926879882812
  0
ARC
  8
_0-1_
  6
CONTINUOUS
 62
    2
 10
623.76949764887513
 20
1038.5784422762074
 40
3.9999998099095113
 50
138.78089904785156
 51
270
  0
ARC
  8
_0-1_
  6
CONTINUOUS
 62
    2
 10
595.47821808806407
 20
1048.5782278283607
 40
13.99999921386306
 50
156.26612854003906
 51
270
  0
ARC
  8
_0-1_
  6
CONTINUOUS
 62
    2
 10
534.19529209566576
 20
1353.2750068217099
 40
11.999999188088083
 50
15.534164428710913
 51
180
  0
ARC
  8
_0-1_
  6
CONTINUOUS
 62
    2
 10
534.19529209566576
 20
1353.2750068217099
 40
13.99999921386306
 50
46.061981201171868
 51
180
  0
ARC
  8
_0-1_
  6
CONTINUOUS
 62
    2
 10
956.19524920609615
 20
1470.5781849387915
 40
425.99997649321688
 50
195.53431701660159
 51
215.27140808105469
  0
ARC
  8
_0-1_
  6
CONTINUOUS
 62
    2
 10
838.89219480892598
 20
1048.577980388538
 40
11.999999188088083
 50
270
 51
74.465835571289063
  0
ARC
  8
_0-1_
  6
CONTINUOUS
 62
    2
 10
838.89219480892598
 20
1048.577980388538
 40
13.99999921386306
 50
270
 51
43.938018798828132
  0
ARC
  8
_0-1_
  6
CONTINUOUS
 62
    2
 10
956.19524920609615
 20
1470.5781849387915
 40
425.99997649321688
 50
234.72859191894531
 51
254.4656982421875
  0
ARC
  8
_0-1_
  6
CONTINUOUS
 62
    2
 10
1331.1952492060968
 20
1095.5781849387918
 40
73.499996597702449
 50
270
 51
0
  0
CIRCLE
  8
_0-1_
  6
CONTINUOUS
 62
    2
 10
1359.4796004518741
 20
1067.2938336930142
 40
7.4999996133752767
  0
CIRCLE
  8
_0-1_
  6
CONTINUOUS
 62
    2
 10
1359.4796004518741
 20
1067.2938336930142
 40
8.9999991494256086
  0
ARC
  8
_0-1_
  6
CONTINUOUS
 62
    2
 10
1378.1952063165274
 20
1109.8611538207599
 40
13.99999921386306
 50
246.26612854003906
 51
0
  0
ARC
  8
_0-1_
  6
CONTINUOUS
 62
    2
 10
1293.0862998025914
 20
1200.1554092578376
 40
5.9999995940440414
 50
45
 51
141.24609375
  0
ARC
  8
_0-1_
  6
CONTINUOUS
 62
    2
 10
1308.8912710335878
 20
1221.1197482305993
 40
5.9999995940440414
 50
144.72903442382807
 51
224.99999999999994
  0
ARC
  8
_0-1_
  6
CONTINUOUS
 62
    2
 10
1378.1952063165274
 20
1109.8611538207599
 40
11.999999188088083
 50
246.26612854003906
 51
0
  0
ARC
  8
_0-1_
  6
CONTINUOUS
 62
    2
 10
1386.1951832221432
 20
1140.9873514295009
 40
3.9999998099095113
 50
225.0012512207031
 51
0
  0
ARC
  8
_0-1_
  6
CONTINUOUS
 62
    2
 10
1316.9122803241282
 20
1048.5782278283607
 40
11.999999188088083
 50
270
 51
23.733871459960941
  0
ARC
  8
_0-1_
  6
CONTINUOUS
 62
    2
 10
1285.7860827153877
 20
1040.5782509227445
 40
3.9999998099095113
 50
270
 51
44.998748779296875
  0
ARC
  8
_0-1_
  6
CONTINUOUS
 62
    2
 10
1293.0862998025914
 20
1200.1554092578376
 40
7.9999996198190226
 50
44.999999999999986
 51
105.89585876464844
  0
ARC
  8
_0-1_
  6
CONTINUOUS
 62
    2
 10
956.19524920609615
 20
1470.5781849387915
 40
425.49999340160457
 50
321.86917114257812
 51
324.1053466796875
  0
ARC
  8
_0-1_
  6
CONTINUOUS
 62
    2
 10
1308.8912710335878
 20
1221.1197482305993
 40
7.9999996198190226
 50
180.07620239257807
 51
224.99999999999994
  0
ARC
  8
_0-1_
  6
CONTINUOUS
 62
    2
 10
1226.618024887051
 20
1133.6871343422972
 40
5.9999995940440414
 50
128.75390625
 51
225
  0
ARC
  8
_0-1_
  6
CONTINUOUS
 62
    2
 10
1205.6536859142889
 20
1117.8821631113003
 40
5.9999995940440414
 50
44.999999999999972
 51
125.27096557617185
  0
ARC
  8
_0-1_
  6
CONTINUOUS
 62
    2
 10
1226.618024887051
 20
1133.6871343422972
 40
7.9999996198190226
 50
164.10414123535156
 51
225
  0
ARC
  8
_0-1_
  6
CONTINUOUS
 62
    2
 10
956.19524920609615
 20
1470.5781849387915
 40
425.49999340160457
 50
305.8946533203125
 51
308.13082885742187
  0
ARC
  8
_0-1_
  6
CONTINUOUS
 62
    2
 10
1205.6536859142889
 20
1117.8821631113003
 40
7.9999996198190226
 50
45
 51
89.923797607421875
  0
ARC
  8
_0-1_
  6
CONTINUOUS
 62
    2
 10
1267.646764197651
 20
1174.6827167166634
 40
5.9999995940440414
 50
136.46627807617182
 51
224.99999999999994
  0
ARC
  8
_0-1_
  6
CONTINUOUS
 62
    2
 10
1272.6633591617556
 20
1176.5169881218578
 40
5.9999995940440414
 50
137.10148620605466
 51
223.44679260253901
  0
ARC
  8
_0-1_
  6
CONTINUOUS
 62
    2
 10
1341.4523721737903
 20
1102.4401861001095
 40
4.9999995811565503
 50
223.44696044921875
 51
297.15342712402344
  0
ARC
  8
_0-1_
  6
CONTINUOUS
 62
    2
 10
1341.3541385642047
 20
1102.3897083762918
 40
6.9999996069315298
 50
224.99928283691403
 51
297.31411743164062
  0
ARC
  8
_0-1_
  6
CONTINUOUS
 62
    2
 10
1252.0907174282243
 20
1159.1266699472376
 40
5.9999995940440414
 50
44.999999999999972
 51
133.5337219238281
  0
ARC
  8
_0-1_
  6
CONTINUOUS
 62
    2
 10
1250.2564460230299
 20
1154.110074983133
 40
5.9999995940440414
 50
46.55320739746093
 51
132.89851379394531
  0
ARC
  8
_0-1_
  6
CONTINUOUS
 62
    2
 10
1324.3332480447782
 20
1085.3210619710974
 40
4.9999995811565503
 50
332.84657287597656
 51
46.553039550781243
  0
ARC
  8
_0-1_
  6
CONTINUOUS
 62
    2
 10
1324.3837257685964
 20
1085.4192955806839
 40
6.9999996069315298
 50
332.68588256835937
 51
45.00071716308593
  0
ARC
  8
_0-1_
  6
CONTINUOUS
 62
    2
 10
956.19524920609615
 20
1470.5781849387915
 40
425.99997649321688
 50
308.75404357910156
 51
312.89813232421875
  0
ARC
  8
_0-1_
  6
CONTINUOUS
 62
    2
 10
956.19524920609615
 20
1470.5781849387915
 40
425.99997649321688
 50
317.10186767578125
 51
321.24595642089844
  0
ARC
  8
_0-1_
  6
CONTINUOUS
 62
    2
 10
956.19524920609615
 20
1470.5781849387915
 40
423.59999579352302
 50
313.53277587890625
 51
316.46720886230469
  0
ARC
  8
_0-1_
  6
CONTINUOUS
 62
    2
 10
1359.4796004518741
 20
1067.2938336930142
 40
34.49999706165211
 50
152.84584045410153
 51
203.73376464843747
  0
ARC
  8
_0-1_
  6
CONTINUOUS
 62
    2
 10
1359.4796004518741
 20
1067.2938336930142
 40
34.49999706165211
 50
66.2662353515625
 51
117.15406799316403
  0
ARC
  8
_0-1_
  6
CONTINUOUS
 62
    2
 10
1359.4796004518741
 20
1067.2938336930142
 40
32.499998969000742
 50
66.266387939453153
 51
203.7336120605469
  0
ARC
  8
_0-1_
  6
CONTINUOUS
 62
    2
 10
1388.1952393085037
 20
1138.1524333815705
 40
3.9999998099095113
 50
228.78073120117187
 51
0
  0
ARC
  8
_0-1_
  6
CONTINUOUS
 62
    2
 10
1288.6210007633181
 20
1038.5784422762074
 40
3.9999998099095113
 50
270
 51
41.219100952148437
  0
ARC
  8
_0-1_
  6
CONTINUOUS
 62
    2
 10
1316.9122803241282
 20
1048.5782278283607
 40
13.99999921386306
 50
270
 51
23.733871459960941
  0
ARC
  8
_0-1_
  6
CONTINUOUS
 62
    2
 10
1378.1952063165274
 20
1353.2750068217099
 40
11.999999188088083
 50
0
 51
164.46583557128906
  0
ARC
  8
_0-1_
  6
CONTINUOUS
 62
    2
 10
1378.1952063165274
 20
1353.2750068217099
 40
13.99999921386306
 50
0
 51
133.93801879882812
  0
ARC
  8
_0-1_
  6
CONTINUOUS
 62
    2
 10
1073.4983036032663
 20
1048.577980388538
 40
11.999999188088083
 50
105.53416442871091
 51
270
  0
ARC
  8
_0-1_
  6
CONTINUOUS
 62
    2
 10
1073.4983036032663
 20
1048.577980388538
 40
13.99999921386306
 50
136.06198120117187
 51
270
  0
ARC
  8
_0-1_
  6
CONTINUOUS
 62
    2
 10
956.19524920609615
 20
1470.5781849387915
 40
425.99997649321688
 50
285.5343017578125
 51
305.27140808105469
  0
ARC
  8
_0-1_
  6
CONTINUOUS
 62
    2
 10
956.19524920609615
 20
1470.5781849387915
 40
425.99997649321688
 50
324.72859191894531
 51
344.46568298339844
  0
ARC
  8
_0-1_
  6
CONTINUOUS
 62
    2
 10
956.19524920609615
 20
1470.5781849387915
 40
425.99997649321688
 50
345.42219543457031
 51
0
  0
LINE
  8
_0-1_
  6
CONTINUOUS
 62
    2
 10
507.69522941091049
 20
1095.5781849387918
 11
507.69522941091049
 21
1845.5781849387918
  0
LINE
  8
_0-1_
  6
CONTINUOUS
 62
    2
 10
1404.6952690012827
 20
1095.5781849387918
 11
1404.6952690012827
 21
1845.5781849387918
  0
LINE
  8
_0-1_
  6
CONTINUOUS
 62
    2
 10
1331.1952492060968
 20
1919.0782047339776
 11
581.19524920609638
 21
1919.0782047339776
  0
LINE
  8
_0-1_
  6
CONTINUOUS
 62
    2
 10
1331.1952492060968
 20
1920.5781849387915
 11
581.19524920609638
 21
1920.5781849387915
  0
LINE
  8
_0-1_
  6
CONTINUOUS
 62
    2
 10
1331.1952492060968
 20
1020.5781849387915
 11
581.19524920609638
 21
1020.5781849387915
  0
LINE
  8
_0-1_
  6
CONTINUOUS
 62
    2
 10
1331.1952492060968
 20
1022.0781651436058
 11
581.19524920609638
 21
1022.0781651436058
  0
TEXT
  8
_0-4_
 62
    2
 10
1546.4680627460348
 20
1447.8281849387915
 40
28
 41
1
 50
90
  1
807
  0
TEXT
  8
_0-4_
 62
    2
 10
933.44524920609615
 20
913.99499904755066
 40
28
 41
1
 50
0
  1
807
  0
LINE
  8
_0-1_
  6
CONTINUOUS
 62
    2
 10
522.19532673724052
 20
1720.578184938792
 11
522.19532673724052
 21
1800.1690184480826
  0
ARC
  8
_0-1_
  6
CONTINUOUS
 62
    2
 10
527.19532673724098
 20
1720.578184938792
 40
4.9999999999999982
 50
180
 51
270
  0
LINE
  8
_0-1_
  6
CONTINUOUS
 62
    2
 10
522.19532673724052
 20
1680.578184938792
 11
522.19532673724052
 21
1587.8813630558736
  0
ARC
  8
_0-1_
  6
CONTINUOUS
 62
    2
 10
527.19532673724098
 20
1680.578184938792
 40
4.9999999999999982
 50
90
 51
180
  0
CIRCLE
  8
_0-1_
  6
CONTINUOUS
 62
    2
 10
561.19524920609615
 20
1700.5781849387918
 40
6.4999999999999982
  0
CIRCLE
  8
_0-1_
  6
CONTINUOUS
 62
    2
 10
561.19524920609615
 20
1700.5781849387918
 40
8
  0
ARC
  8
_0-1_
  6
CONTINUOUS
 62
    2
 10
561.19524920609615
 20
1700.5781849387918
 40
12.999999999999996
 50
270
 51
90
  0
ARC
  8
_0-1_
  6
CONTINUOUS
 62
    2
 10
561.19524920609615
 20
1700.5781849387918
 40
15
 50
270
 51
90
  0
LINE
  8
_0-1_
  6
CONTINUOUS
 62
    2
 10
527.19532673724098
 20
1685.578184938792
 11
561.19524920609615
 21
1685.578184938792
  0
LINE
  8
_0-1_
  6
CONTINUOUS
 62
    2
 10
527.19532673724098
 20
1715.578184938792
 11
561.19524920609615
 21
1715.578184938792
  0
ARC
  8
_0-1_
  6
CONTINUOUS
 62
    2
 10
527.19532673724098
 20
1720.578184938792
 40
7
 50
180
 51
270
  0
ARC
  8
_0-1_
  6
CONTINUOUS
 62
    2
 10
527.19532673724098
 20
1680.578184938792
 40
7
 50
90
 51
180
  0
LINE
  8
_0-1_
  6
CONTINUOUS
 62
    2
 10
527.19532673724098
 20
1687.578184938792
 11
561.19524920609615
 21
1687.578184938792
  0
LINE
  8
_0-1_
  6
CONTINUOUS
 62
    2
 10
520.19527065088073
 20
1680.578184938792
 11
520.19527065088073
 21
1587.8813630558736
  0
LINE
  8
_0-1_
  6
CONTINUOUS
 62
    2
 10
527.19532673724098
 20
1713.578184938792
 11
561.19524920609615
 21
1713.578184938792
  0
LINE
  8
_0-1_
  6
CONTINUOUS
 62
    2
 10
520.19527065088073
 20
1720.578184938792
 11
520.19527065088073
 21
1831.2952160568241
  0
LINE
  8
_0-1_
  6
CENTER1
 62
    2
 10
580.33472911153376
 20
1700.5781849387918
 11
542.05576930065922
 21
1700.5781849387918
  0
LINE
  8
_0-1_
  6
CENTER1
 62
    2
 10
561.19524920609615
 20
1719.7176648442287
 11
561.19524920609615
 21
1681.4387050333539
  0
LINE
  8
_0-1_
  6
CONTINUOUS
 62
    2
 10
506.19524920609666
 20
1095.5781849387918
 11
506.19524920609666
 21
1845.5781849387918
  0
LINE
  8
_0-4_
  6
CONTINUOUS
 62
    7
 10
1550.6680627460341
 20
1873.8627836243913
 11
1550.6680627460341
 21
1067.2935862531922
  0
POINT
  8
_0-4_
 62
    7
 10
1550.6680627460341
 20
1873.8627836243913
  0
POINT
  8
_0-4_
 62
    7
 10
1550.6680627460341
 20
1067.2935862531922
  0
LINE
  8
_0-4_
  6
CONTINUOUS
 62
    7
 10
1552.7680627460338
 20
1873.8627836243913
 11
1373.4796004518726
 21
1873.8627836243913
  0
LINE
  8
_0-4_
  6
CONTINUOUS
 62
    7
 10
1552.7680627460338
 20
1067.2935862531922
 11
1373.4796004518726
 21
1067.2935862531922
  0
TEXT
  8
_0-5_
 62
    2
 10
446.47142628176221
 20
1386.578184938792
 40
28
 41
1
 50
0
  1
Ａ
  0
TEXT
  8
_0-5_
 62
    2
 10
1437.9190721304262
 20
1386.578184938792
 40
28
 41
1
 50
0
  1
Ａ
  0
TEXT
  8
_0-5_
 62
    2
 10
1418.6791975145636
 20
978.59813106554236
 40
28
 41
1
 50
0
  1
4×φ15
  0
LINE
  8
_0-5_
  6
CONTINUOUS
 62
    7
 10
1363.9797487537794
 20
1059.499691665151
 11
1378.8944018101549
 21
1040.062580970472
  0
LINE
  8
_0-5_
  6
CONTINUOUS
 62
    7
 10
1363.9797487537794
 20
1059.499691665151
 11
1373.3554217900967
 21
1036.8646093171781
  0
LINE
  8
_0-5_
  6
CONTINUOUS
 62
    7
 10
1363.9797487537794
 20
1059.499691665151
 11
1413.113189906614
 21
974.39813106554266
  0
LINE
  8
_0-5_
  6
CONTINUOUS
 62
    7
 10
1413.113189906614
 20
974.39813106554266
 11
1527.1791975145636
 21
974.39813106554266
  0
LINE
  8
_0-5_
  6
CONTINUOUS
 62
    4
 10
460.4714262817638
 20
1470.5781849387915
 11
460.4714262817638
 21
1421.5781849387915
  0
LINE
  8
_0-5_
  6
CONTINUOUS
 62
    4
 10
460.4714262817638
 20
1470.5781849387915
 11
466.07142628176348
 21
1449.5781849387915
  0
LINE
  8
_0-5_
  6
CONTINUOUS
 62
    4
 10
460.4714262817638
 20
1470.5781849387915
 11
454.87142628176252
 21
1449.5781849387915
  0
SOLID
  8
_0-5_
  6
CONTINUOUS
 62
    4
 10
442.9714262817638
 20
1468.8281849387915
 11
477.971426281763
 21
1468.8281849387915
 12
442.9714262817638
 22
1472.3281849387915
 13
477.971426281763
 23
1472.3281849387915
  0
LINE
  8
_0-5_
  6
CONTINUOUS
 62
    4
 10
1451.9190721304283
 20
1470.5781849387915
 11
1451.9190721304283
 21
1421.5781849387915
  0
LINE
  8
_0-5_
  6
CONTINUOUS
 62
    4
 10
1451.9190721304283
 20
1470.5781849387915
 11
1457.519072130428
 21
1449.5781849387915
  0
LINE
  8
_0-5_
  6
CONTINUOUS
 62
    4
 10
1451.9190721304283
 20
1470.5781849387915
 11
1446.319072130427
 21
1449.5781849387915
  0
SOLID
  8
_0-5_
  6
CONTINUOUS
 62
    4
 10
1434.4190721304283
 20
1468.8281849387915
 11
1469.4190721304274
 21
1468.8281849387915
 12
1434.4190721304283
 22
1472.3281849387915
 13
1469.4190721304274
 23
1472.3281849387915
  0
LINE
  8
_0-4_
  6
CONTINUOUS
 62
    7
 10
1359.4796004518735
 20
909.79499904755085
 11
552.91089796031906
 21
909.79499904755085
  0
POINT
  8
_0-4_
 62
    7
 10
1359.4796004518735
 20
909.79499904755085
  0
POINT
  8
_0-4_
 62
    7
 10
552.91089796031906
 20
909.79499904755085
  0
LINE
  8
_0-4_
  6
CONTINUOUS
 62
    7
 10
1359.4796004518735
 20
907.69499904755037
 11
1359.4796004518735
 21
1053.2935862531922
  0
LINE
  8
_0-4_
  6
CONTINUOUS
 62
    7
 10
552.91089796031906
 20
907.69499904755037
 11
552.91089796031906
 21
1053.293709973103
  0
TEXT
  8
_0-f_
 62
    7
 10
868.61805514811635
 20
1094.6444993360576
 40
20.000000000000043
 41
0.9999999999999995
 50
-14.166631107532812
  1
Ｋ
  0
TEXT
  8
_0-f_
 62
    7
 10
1022.1702874126022
 20
1089.1917327765752
 40
20.000000000000007
 41
0.9999999999999995
 50
14.166631107528382
  1
Ｏ
  0
TEXT
  8
_0-f_
 62
    7
 10
898.80977035735964
 20
1087.470136264757
 40
20.000000000000028
 41
1.0000000000000007
 50
-8.5000594315072995
  1
Ａ
  0
TEXT
  8
_0-f_
 62
    7
 10
991.54564377167162
 20
1084.1769135245711
 40
20.000000000000014
 41
1.0000000000000016
 50
8.5000594315118096
  1
Ｓ
  0
TEXT
  8
_0-f_
 62
    7
 10
929.56236928484009
 20
1083.3119305981236
 40
20.000000000000057
 41
0.9999999999999983
 50
-2.8332371729136567
  1
Ｎ
  0
TEXT
  8
_0-f_
 62
    7
 10
960.57537801573585
 20
1082.2107449394894
 40
20
 41
0.9999999999999998
 50
2.8332371729136567
  1
Ｅ
  0
ARC
  8
_0-1_
  6
CONTINUOUS
 62
    2
 10
956.19524920609615
 20
1470.5781849387915
 40
425.99997649321688
 50
255.42221035646017
 51
284.5777896435398
  0
ARC
  8
_0-1_
  6
CONTINUOUS
 62
    2
 10
956.19524920609615
 20
1470.5781849387915
 40
425.99997649321688
 50
165.42219543457031
 51
194.57781412419064
  0
ARC
  8
_0-1_
  6
CONTINUOUS
 62
    2
 10
956.19524920609615
 20
1470.5781849387915
 40
425.99997649321688
 50
75.422210356460184
 51
104.57778964353983
  0
LINE
  8
_0-2_
  6
CONTINUOUS
 62
    3
 10
765.99865001901844
 20
607.16883192763567
 11
767.03666007497293
 21
605.18399339036785
  0
LINE
  8
_0-2_
  6
CONTINUOUS
 62
    3
 10
682.01361517949158
 20
605.57012323359038
 11
681.05206402873114
 21
603.54717896363638
  0
LINE
  8
_0-2_
  6
CONTINUOUS
 62
    3
 10
586.61121204393407
 20
584.00017529492879
 11
588.39079924832595
 21
587.52903832543973
  0
LINE
  8
_0-2_
  6
CONTINUOUS
 62
    3
 10
543.69574408574158
 20
601.67529670540171
 11
545.69505785263323
 21
587.6758938601738
  0
LINE
  8
_0-2_
  6
CONTINUOUS
 62
    3
 10
545.69505785263323
 20
587.6758938601738
 11
546.89613075170428
 21
587.6758938601738
  0
LINE
  8
_0-2_
  6
CONTINUOUS
 62
    3
 10
567.31437003591009
 20
583.17570580590859
 11
585.27182028401012
 21
583.17570580590859
  0
LINE
  8
_0-2_
  6
CONTINUOUS
 62
    3
 10
568.69533168603709
 20
602.49593087717119
 11
569.69523600930552
 21
600.52569128943901
  0
LINE
  8
_0-2_
  6
CONTINUOUS
 62
    3
 10
692.19526900128199
 20
605.79442743280913
 11
694.55460771010803
 21
587.47126112685464
  0
LINE
  8
_0-2_
  6
CONTINUOUS
 62
    3
 10
756.19533168603698
 20
607.01195508008516
 11
754.03790387248137
 21
587.56132922229392
  0
LINE
  8
_0-2_
  6
CONTINUOUS
 62
    3
 10
1146.3918483931741
 20
607.16883192763567
 11
1145.3538383372195
 21
605.18399339036785
  0
LINE
  8
_0-2_
  6
CONTINUOUS
 62
    3
 10
1230.3766357928782
 20
605.57012323359038
 11
1231.3381869436387
 21
603.54717896363638
  0
LINE
  8
_0-2_
  6
CONTINUOUS
 62
    3
 10
1325.7795338080809
 20
584.00017529492879
 11
1323.9996991638666
 21
587.52903832543973
  0
LINE
  8
_0-2_
  6
CONTINUOUS
 62
    3
 10
1343.6951667261553
 20
602.49593087717119
 11
1342.6952624028866
 21
600.52569128943901
  0
LINE
  8
_0-2_
  6
CONTINUOUS
 62
    3
 10
1220.1952294109105
 20
605.79442743280913
 11
1217.8358907020845
 21
587.47126112685464
  0
LINE
  8
_0-2_
  6
CONTINUOUS
 62
    3
 10
1156.1951667261553
 20
607.01195508008516
 11
1158.3523470998884
 21
587.56132922229392
  0
LINE
  8
_0-2_
  6
CONTINUOUS
 62
    3
 10
549.88916284629863
 20
584.88365918164766
 11
552.09088238810614
 21
553.17535939015693
  0
LINE
  8
_0-2_
  6
CONTINUOUS
 62
    3
 10
552.09088238810614
 20
553.17535939015693
 11
560.3142974535624
 21
553.17535939015693
  0
LINE
  8
_0-2_
  6
CONTINUOUS
 62
    3
 10
562.32994224874824
 20
578.5713455863139
 11
560.3142974535624
 21
553.17535939015693
  0
LINE
  8
_0-2_
  6
CONTINUOUS
 62
    3
 10
1368.6947543264512
 20
601.67529670540171
 11
1366.6951931197366
 21
587.6758938601738
  0
LINE
  8
_0-2_
  6
CONTINUOUS
 62
    3
 10
1366.6951931197366
 20
587.6758938601738
 11
1365.4943676604878
 21
587.6758938601738
  0
LINE
  8
_0-2_
  6
CONTINUOUS
 62
    3
 10
1345.0763758161045
 20
583.17570580590859
 11
1327.1186781281822
 21
583.17570580590859
  0
LINE
  8
_0-2_
  6
CONTINUOUS
 62
    3
 10
1362.5013355658934
 20
584.88365918164766
 11
1360.2993685842637
 21
553.17535939015693
  0
LINE
  8
_0-2_
  6
CONTINUOUS
 62
    3
 10
1360.2993685842637
 20
553.17535939015693
 11
1352.0762009586301
 21
553.17535939015693
  0
LINE
  8
_0-2_
  6
CONTINUOUS
 62
    3
 10
1350.0605561634441
 20
578.5713455863139
 11
1352.0762009586301
 21
553.17535939015693
  0
LINE
  8
_0-1_
  6
CONTINUOUS
 62
    2
 10
1378.1952063165268
 20
601.67529670540171
 11
1371.1951337341789
 21
601.67529670540171
  0
LINE
  8
_0-1_
  6
CONTINUOUS
 62
    2
 10
1380.3989053769153
 20
559.36321075470494
 11
1378.1952063165268
 21
601.67529670540171
  0
LINE
  8
_0-1_
  6
CONTINUOUS
 62
    2
 10
534.19516837575429
 20
601.67529670540171
 11
541.19511723819051
 21
601.67529670540171
  0
LINE
  8
_0-1_
  6
CONTINUOUS
 62
    2
 10
531.99134559545416
 20
559.36321075470494
 11
534.19516837575429
 21
601.67529670540171
  0
LINE
  8
_0-1_
  6
CONTINUOUS
 62
    2
 10
549.55648000476606
 20
554.17551115324818
 11
549.55648000476606
 21
553.17535939015693
  0
LINE
  8
_0-1_
  6
CONTINUOUS
 62
    2
 10
564.55652949273042
 20
553.17535939015693
 11
549.55648000476606
 21
553.17535939015693
  0
LINE
  8
_0-1_
  6
CONTINUOUS
 62
    2
 10
564.55652949273042
 20
554.17551115324818
 11
564.55652949273042
 21
553.17535939015693
  0
LINE
  8
_0-1_
  6
CONTINUOUS
 62
    2
 10
543.72358106578804
 20
557.00597528437163
 11
541.19511723819051
 21
601.67529670540171
  0
LINE
  8
_0-1_
  6
CONTINUOUS
 62
    2
 10
546.71896383869762
 20
554.17551115324818
 11
549.55648000476606
 21
554.17551115324818
  0
LINE
  8
_0-1_
  6
CONTINUOUS
 62
    2
 10
567.50378522013739
 20
554.17551115324818
 11
564.55652949273042
 21
554.17551115324818
  0
LINE
  8
_0-1_
  6
CONTINUOUS
 62
    2
 10
1362.8341421273378
 20
554.17551115324818
 11
1362.8341421273378
 21
553.17535939015693
  0
LINE
  8
_0-1_
  6
CONTINUOUS
 62
    2
 10
1347.834092639373
 20
553.17535939015693
 11
1362.8341421273378
 21
553.17535939015693
  0
LINE
  8
_0-1_
  6
CONTINUOUS
 62
    2
 10
1347.834092639373
 20
554.17551115324818
 11
1347.834092639373
 21
553.17535939015693
  0
LINE
  8
_0-1_
  6
CONTINUOUS
 62
    2
 10
1347.834092639373
 20
554.17551115324818
 11
1342.1627719045762
 21
554.17551115324818
  0
LINE
  8
_0-1_
  6
CONTINUOUS
 62
    2
 10
1362.8341421273378
 20
554.17551115324818
 11
1368.5064526214253
 21
554.17551115324818
  0
LINE
  8
_0-1_
  6
CONTINUOUS
 62
    2
 10
1368.5064526214253
 20
554.17551115324818
 11
1371.1951337341789
 21
601.67529670540171
  0
LINE
  8
_0-1_
  6
CONTINUOUS
 62
    2
 10
1339.8403017293226
 20
578.1753181501864
 11
1333.5964052449476
 21
578.1753181501864
  0
LINE
  8
_0-1_
  6
CONTINUOUS
 62
    2
 10
1342.1627719045762
 20
554.17551115324818
 11
1339.8403017293226
 21
578.1753181501864
  0
LINE
  8
_0-1_
  6
CONTINUOUS
 62
    2
 10
570.48988899969822
 20
556.88658556994994
 11
572.55007296295844
 21
578.1753181501864
  0
LINE
  8
_0-1_
  6
CONTINUOUS
 62
    2
 10
572.55007296295844
 20
578.1753181501864
 11
578.79384572742219
 21
578.1753181501864
  0
LINE
  8
_0-1_
  6
CONTINUOUS
 62
    2
 10
581.19524920609638
 20
541.67534619336641
 11
578.79384572742219
 21
578.1753181501864
  0
LINE
  8
_0-1_
  6
CONTINUOUS
 62
    2
 10
506.19524920609626
 20
541.67534619336641
 11
507.69522941091049
 21
553.67531155179086
  0
LINE
  8
_0-1_
  6
CONTINUOUS
 62
    2
 10
525.99934285052188
 20
553.67531155179086
 11
507.69522941091049
 21
553.67531155179086
  0
LINE
  8
_0-1_
  6
CONTINUOUS
 62
    2
 10
1386.3906606820251
 20
553.67531155179086
 11
1404.695269001282
 21
553.67531155179086
  0
LINE
  8
_0-1_
  6
CONTINUOUS
 62
    2
 10
1406.1952492060962
 20
541.67534619336641
 11
1404.695269001282
 21
553.67531155179086
  0
ARC
  8
_0-2_
  6
CONTINUOUS
 62
    3
 10
567.31437003591009
 20
578.17544187009787
 40
4.9999995811565503
 50
90
 51
175.46209716796875
  0
ARC
  8
_0-2_
  6
CONTINUOUS
 62
    3
 10
585.27182028401012
 20
584.67556229081129
 40
1.4999997776907841
 50
270
 51
333.23588562011719
  0
ARC
  8
_0-2_
  6
CONTINUOUS
 62
    3
 10
956.19524920609615
 20
-11591.344962017676
 40
12197.999366554053
 50
89.111465454101577
 51
90.888534545898466
  0
ARC
  8
_0-2_
  6
CONTINUOUS
 62
    3
 10
956.19524920609615
 20
-11591.344962017676
 40
12199.999670080237
 50
88.062377929687514
 51
91.937622070312514
  0
ARC
  8
_0-2_
  6
CONTINUOUS
 62
    3
 10
546.89613075170428
 20
584.67593345054536
 40
2.9999995553815682
 50
3.972686767578125
 51
90.000000000000014
  0
ARC
  8
_0-2_
  6
CONTINUOUS
 62
    3
 10
591.06958276817386
 20
586.17814061376328
 40
2.9999995553815682
 50
91.716476440429702
 51
153.23609924316409
  0
ARC
  8
_0-2_
  6
CONTINUOUS
 62
    3
 10
956.19524920609615
 20
-11591.344962017676
 40
12197.999366554053
 50
91.292495727539062
 51
91.815750122070313
  0
ARC
  8
_0-2_
  6
CONTINUOUS
 62
    3
 10
724.29044095546283
 20
591.44390747926161
 40
29.99999652037749
 50
187.60951232910156
 51
241.19699096679687
  0
ARC
  8
_0-2_
  6
CONTINUOUS
 62
    3
 10
956.19524920609615
 20
-11591.344962017676
 40
12158.998891469597
 50
91.02020263671875
 51
91.160980224609375
  0
ARC
  8
_0-2_
  6
CONTINUOUS
 62
    3
 10
724.29044095546283
 20
591.44390747926161
 40
29.99999652037749
 50
300.93595886230469
 51
352.56391906738287
  0
ARC
  8
_0-2_
  6
CONTINUOUS
 62
    3
 10
956.19524920609615
 20
-11591.344962017676
 40
12151.99931376689
 50
90.992752075195313
 51
91.188385009765625
  0
ARC
  8
_0-2_
  6
CONTINUOUS
 62
    3
 10
724.29044095546283
 20
591.44390747926161
 40
38.999995669803106
 50
303.22029113769531
 51
354.60635375976562
  0
ARC
  8
_0-2_
  6
CONTINUOUS
 62
    3
 10
769.09115292231263
 20
587.21392371131412
 40
5.9999991107631363
 50
90.880218505859375
 51
174.60643005371094
  0
CIRCLE
  8
_0-2_
  6
CONTINUOUS
 62
    3
 10
1188.1953217884443
 20
596.44392397524973
 40
6.999998640369725
  0
ARC
  8
_0-2_
  6
CONTINUOUS
 62
    3
 10
1327.1186781281822
 20
584.67556229081129
 40
1.4999997776907841
 50
206.76411437988281
 51
270
  0
ARC
  8
_0-2_
  6
CONTINUOUS
 62
    3
 10
1321.3209156440187
 20
586.17814061376328
 40
2.9999995553815682
 50
26.763900756835938
 51
88.283523559570313
  0
ARC
  8
_0-2_
  6
CONTINUOUS
 62
    3
 10
956.19524920609615
 20
-11591.344962017676
 40
12197.999366554053
 50
88.184249877929702
 51
88.707504272460952
  0
ARC
  8
_0-2_
  6
CONTINUOUS
 62
    3
 10
1188.1003048965524
 20
591.44390747926161
 40
29.99999652037749
 50
298.80300903320318
 51
352.39048767089849
  0
ARC
  8
_0-2_
  6
CONTINUOUS
 62
    3
 10
956.19524920609615
 20
-11591.344962017676
 40
12158.998891469597
 50
88.839019775390611
 51
88.979797363281236
  0
ARC
  8
_0-2_
  6
CONTINUOUS
 62
    3
 10
1188.1003048965524
 20
591.44390747926161
 40
29.99999652037749
 50
187.43608093261716
 51
239.06404113769531
  0
ARC
  8
_0-2_
  6
CONTINUOUS
 62
    3
 10
956.19524920609615
 20
-11591.344962017676
 40
12151.99931376689
 50
88.811614990234389
 51
89.007247924804702
  0
ARC
  8
_0-2_
  6
CONTINUOUS
 62
    3
 10
1188.1003048965524
 20
591.44390747926161
 40
38.999995669803106
 50
185.3936462402344
 51
236.77970886230469
  0
ARC
  8
_0-2_
  6
CONTINUOUS
 62
    3
 10
1143.2993454898801
 20
587.21392371131412
 40
5.9999991107631363
 50
5.3935699462890616
 51
89.119781494140625
  0
ARC
  8
_0-2_
  6
CONTINUOUS
 62
    3
 10
1345.0763758161045
 20
578.17544187009787
 40
4.9999995811565503
 50
4.53790283203125
 51
90
  0
ARC
  8
_0-2_
  6
CONTINUOUS
 62
    3
 10
1365.4943676604878
 20
584.67593345054536
 40
2.9999995553815682
 50
90
 51
176.02731323242187
  0
ARC
  8
_0-1_
  6
CONTINUOUS
 62
    2
 10
1386.3906606820251
 20
559.67535609095921
 40
5.9999991107631363
 50
182.9814453125
 51
270
  0
ARC
  8
_0-1_
  6
CONTINUOUS
 62
    2
 10
525.99934285052188
 20
559.67535609095921
 40
5.9999991107631363
 50
270
 51
357.0185546875
  0
ARC
  8
_0-1_
  6
CONTINUOUS
 62
    2
 10
546.71896383869762
 20
557.17547156287662
 40
2.9999995553815682
 50
183.23991394042969
 51
270
  0
ARC
  8
_0-1_
  6
CONTINUOUS
 62
    2
 10
567.50378522013739
 20
557.17547156287662
 40
2.9999995553815682
 50
270
 51
354.47245788574219
  0
CIRCLE
  8
_0-2_
  6
CONTINUOUS
 62
    3
 10
724.19517662374824
 20
596.44392397524973
 40
6.999998640369725
  0
LINE
  8
_0-4_
  6
CONTINUOUS
 62
    7
 10
1550.6680627460341
 20
541.67534619336641
 11
1550.6680627460341
 21
601.67529670540171
  0
POINT
  8
_0-4_
 62
    7
 10
1550.6680627460341
 20
541.67534619336641
  0
POINT
  8
_0-4_
 62
    7
 10
1550.6680627460341
 20
601.67529670540171
  0
LINE
  8
_0-4_
  6
CONTINUOUS
 62
    7
 10
1552.7680627460338
 20
541.67534619336641
 11
1420.1952492060962
 21
541.67534619336641
  0
LINE
  8
_0-4_
  6
CONTINUOUS
 62
    7
 10
1552.7680627460338
 20
601.67529670540171
 11
1392.1952063165268
 21
601.67529670540171
  0
TEXT
  8
_0-4_
 62
    2
 10
1546.4680627460339
 20
556.80032144938411
 40
28
 41
1
 50
90
  1
60
  0
LINE
  8
_0-5_
  6
CONTINUOUS
 62
    7
 10
1355.5305091936966
 20
602.11014285003591
 11
1364.9064247210404
 21
624.74522519800917
  0
LINE
  8
_0-5_
  6
CONTINUOUS
 62
    7
 10
1355.5305091936966
 20
602.11014285003591
 11
1370.4451622500737
 21
621.54737479022845
  0
LINE
  8
_0-5_
  6
CONTINUOUS
 62
    7
 10
1355.5305091936998
 20
602.11014285003876
 11
1480.9443593091955
 21
819.33324837405746
  0
LINE
  8
_0-5_
  6
CONTINUOUS
 62
    7
 10
1379.2754929859768
 20
580.93351850717238
 11
1394.1901460423539
 21
600.37068982460789
  0
LINE
  8
_0-5_
  6
CONTINUOUS
 62
    7
 10
1379.2754929859768
 20
580.93351850717238
 11
1388.6511660222925
 21
603.56860085514518
  0
LINE
  8
_0-5_
  6
CONTINUOUS
 62
    7
 10
1379.2754929859768
 20
580.93351850717238
 11
1439.9306641258568
 21
685.99169905609733
  0
LINE
  8
_0-5_
  6
CONTINUOUS
 62
    7
 10
1480.9443593091955
 20
819.33324837405746
 11
1640.0739077810072
 21
819.33324837405746
  0
TEXT
  8
_0-5_
 62
    2
 10
1485.1989077810072
 20
823.53324837405762
 40
28
 41
1
 50
0
  1
蓋：FCD500
  0
LINE
  8
_0-5_
  6
CONTINUOUS
 62
    7
 10
1598.2610933283436
 20
685.99169905609733
 11
1439.9306641258568
 21
685.99169905609733
  0
TEXT
  8
_0-5_
 62
    2
 10
1486.0739077810072
 20
785.73324837405778
 40
28
 41
1
 50
0
  1
樹脂系塗装
  0
TEXT
  8
_0-5_
 62
    2
 10
1451.5379303447125
 20
690.19169905609749
 40
28
 41
1
 50
0
  1
枠：FC200
  0
TEXT
  8
_0-5_
 62
    2
 10
1444.2610933283452
 20
652.39169905609754
 40
28
 41
1
 50
0
  1
樹脂系塗装
  0
LINE
  8
_0-4_
  6
CONTINUOUS
 62
    7
 10
1016.2940744192765
 20
608.50764625704221
 11
1016.2940744192765
 21
606.50717323458127
  0
POINT
  8
_0-4_
 62
    7
 10
1016.2940744192765
 20
608.50764625704221
  0
POINT
  8
_0-4_
 62
    7
 10
1016.2940744192765
 20
606.50717323458127
  0
LINE
  8
_0-4_
  6
CONTINUOUS
 62
    7
 10
1016.2940744192765
 20
606.50717323458127
 11
1016.2940744192765
 21
594.50636451876096
  0
POINT
  8
_0-4_
 62
    7
 10
1016.2940744192765
 20
594.50636451876096
  0
TEXT
  8
_0-4_
 62
    2
 10
1012.0940744192762
 20
554.39849419710072
 40
28
 41
1
 50
90
  1
12
  0
TEXT
  8
_0-4_
 62
    2
 10
1012.0940744192762
 20
613.96118529245143
 40
28
 41
1
 50
90
  1
2
  0
LINE
  8
_0-4_
  6
CONTINUOUS
 62
    7
 10
1016.2940744192765
 20
608.50764625704221
 11
1016.2940744192765
 21
627.96118529245143
  0
LINE
  8
_0-4_
  6
CONTINUOUS
 62
    7
 10
1016.2940744192765
 20
594.50636451876096
 11
1016.2940744192765
 21
554.39849419710072
  0
LINE
  8
_0-4_
  6
CONTINUOUS
 62
    7
 10
506.19524920609626
 20
765.37950750445214
 11
1406.1952492060962
 21
765.37950750445214
  0
POINT
  8
_0-4_
 62
    7
 10
506.19524920609626
 20
765.37950750445214
  0
POINT
  8
_0-4_
 62
    7
 10
1406.1952492060962
 20
765.37950750445214
  0
LINE
  8
_0-4_
  6
CONTINUOUS
 62
    7
 10
506.19524920609626
 20
767.47950750445227
 11
506.19524920609626
 21
555.67534619336641
  0
LINE
  8
_0-4_
  6
CONTINUOUS
 62
    7
 10
1406.1952492060962
 20
767.47950750445227
 11
1406.1952492060962
 21
555.67534619336641
  0
TEXT
  8
_0-4_
 62
    2
 10
917.69524920609615
 20
769.57950750445207
 40
28
 41
1
 50
0
  1
□900
  0
LINE
  8
_0-4_
  6
CONTINUOUS
 62
    7
 10
543.69574408574158
 20
697.68801814275002
 11
1368.6947961441547
 21
697.68801814275002
  0
POINT
  8
_0-4_
 62
    7
 10
543.69574408574158
 20
697.68801814275002
  0
POINT
  8
_0-4_
 62
    7
 10
1368.6947961441547
 20
697.68801814275002
  0
LINE
  8
_0-4_
  6
CONTINUOUS
 62
    7
 10
543.69574408574158
 20
699.78801814275005
 11
543.69574408574158
 21
615.67529670540171
  0
LINE
  8
_0-4_
  6
CONTINUOUS
 62
    7
 10
1368.6947961441547
 20
699.78801814275005
 11
1368.6947961441547
 21
615.6791121705545
  0
TEXT
  8
_0-4_
 62
    2
 10
917.69527011494824
 20
701.88801814274984
 40
28
 41
1
 50
0
  1
φ825
  0
LINE
  8
_0-4_
  6
CONTINUOUS
 62
    7
 10
581.19524920609638
 20
452.74983660511214
 11
1331.1950017662732
 21
452.74983660511214
  0
POINT
  8
_0-4_
 62
    7
 10
581.19524920609638
 20
452.74983660511214
  0
POINT
  8
_0-4_
 62
    7
 10
1331.1950017662732
 20
452.74983660511214
  0
LINE
  8
_0-4_
  6
CONTINUOUS
 62
    7
 10
581.19524920609638
 20
450.64983660511206
 11
581.19524920609638
 21
527.67534619336641
  0
LINE
  8
_0-4_
  6
CONTINUOUS
 62
    7
 10
1331.1950017662732
 20
450.64983660511206
 11
1331.1950017662732
 21
527.67534619336641
  0
TEXT
  8
_0-4_
 62
    2
 10
917.69512548618468
 20
456.9498366051123
 40
28
 41
1
 50
0
  1
φ750
  0
LINE
  8
_0-5_
  6
CONTINUOUS
 62
    7
 10
850.84527011494856
 20
259.4565748415597
 11
1061.5452701149479
 21
259.4565748415597
  0
TEXT
  8
_0-5_
 62
    2
 10
863.44503531186024
 20
268.22027115018011
 40
28
 41
1
 50
0
  1
Ａ－Ａ断面図
  0
LINE
  8
_0-0_
  6
CENTER1
 62
    3
 10
956.19524920609615
 20
998.07823442675613
 11
956.19524920609615
 21
1943.0781354508274
  0
LINE
  8
_0-0_
  6
CENTER1
 62
    3
 10
460.4714262817638
 20
1470.5781849387915
 11
1451.9190721304283
 21
1470.5781849387915
  0
LINE
  8
_0-0_
  6
CENTER1
 62
    3
 10
956.19524920609615
 20
635.43140846902088
 11
956.19524920609615
 21
523.05797393829869
  0
TEXT
  8
_0-5_
 62
    6
 10
922.4914658882667
 20
1854.8046185166543
 40
19.9999999999993
 41
1.0000000000000344
 50
-177.00014067240815
  1
－
  0
TEXT
  8
_0-5_
 62
    6
 10
902.57416882880693
 20
1853.1885160968297
 40
19.999999999998831
 41
1.0000000000000624
 50
-173.99986179015428
  1
７
  0
TEXT
  8
_0-5_
 62
    6
 10
882.63394256802349
 20
1849.4675052338723
 40
19.999999999999275
 41
1.0000000000000326
 50
-171.00015811345534
  1
５
  0
TEXT
  8
_0-5_
 62
    6
 10
864.05556620144353
 20
1845.7161557464387
 40
20.00000000000005
 41
1.0000000000000007
 50
-168.00002815124867
  1
０
  0
TEXT
  8
_0-5_
 62
    6
 10
942.38367639846001
 20
1855.7009123881789
 40
19.999999999999631
 41
1.0000000000000173
 50
180
  1
Ｓ
  0
TEXT
  8
_0-5_
 62
    6
 10
962.94186765176892
 20
1856.5711624535745
 40
20
 41
0.9999999999999975
 50
177.00014067240792
  1
－
  0
TEXT
  8
_0-5_
 62
    6
 10
1016.439549349881
 20
1853.0391888783347
 40
19.999999999999716
 41
1.0000000000000122
 50
174.0000113311626
  1
（Ｙ）
  0
TEXT
  8
_0-5_
 62
    6
 10
1027.505037960241
 20
1850.6254898971147
 40
19.999999999999936
 41
0.9999999999999996
 50
171.00015811345463
  1
Ｈ
  0
TEXT
  8
_0-5_
 62
    6
 10
1046.5926127423838
 20
1845.8889236940327
 40
19.999999999999869
 41
1.0000000000000024
 50
168.00002815123347
  1
Ｋ
  0
TEXT
  8
_0-5_
 62
    6
 10
1067.0333750436616
 20
1841.1319775062416
 40
19.999999999999719
 41
1.0000000000000087
 50
164.99981600171841
  1
Ｍ
  0
LINE
  8
_0-2_
  6
CONTINUOUS
 62
    3
 10
951.19523271010803
 20
1429.5781486476171
 11
951.19523271010803
 21
1451.5785181577521
  0
LINE
  8
_0-2_
  6
CONTINUOUS
 62
    3
 10
909.19529209566554
 20
1429.5781486476171
 11
909.19529209566554
 21
1451.5785181577521
  0
LINE
  8
_0-2_
  6
CONTINUOUS
 62
    3
 10
909.19529209566554
 20
1451.5785181577521
 11
945.1950644510282
 21
1451.5785181577521
  0
LINE
  8
_0-2_
  6
CONTINUOUS
 62
    3
 10
945.1950644510282
 20
1451.5785181577521
 11
945.1950644510282
 21
1429.5781486476171
  0
LINE
  8
_0-2_
  6
CONTINUOUS
 62
    3
 10
945.1950644510282
 20
1429.5781486476171
 11
909.19529209566554
 21
1429.5781486476171
  0
LINE
  8
_0-2_
  6
CONTINUOUS
 62
    3
 10
893.19509084460947
 20
1429.5781486476171
 11
893.19509084460947
 21
1451.5785181577521
  0
LINE
  8
_0-2_
  6
CONTINUOUS
 62
    3
 10
893.19509084460947
 20
1451.5785181577521
 11
903.19512383658571
 21
1451.5785181577521
  0
LINE
  8
_0-2_
  6
CONTINUOUS
 62
    3
 10
903.19512383658571
 20
1451.5785181577521
 11
903.19512383658571
 21
1429.5781486476171
  0
LINE
  8
_0-2_
  6
CONTINUOUS
 62
    3
 10
903.19512383658571
 20
1429.5781486476171
 11
893.19509084460947
 21
1429.5781486476171
  0
LINE
  8
_0-2_
  6
CONTINUOUS
 62
    3
 10
851.19515023016697
 20
1429.5781486476171
 11
851.19515023016697
 21
1451.5785181577521
  0
LINE
  8
_0-2_
  6
CONTINUOUS
 62
    3
 10
851.19515023016697
 20
1451.5785181577521
 11
887.19517002535258
 21
1451.5785181577521
  0
LINE
  8
_0-2_
  6
CONTINUOUS
 62
    3
 10
887.19517002535258
 20
1451.5785181577521
 11
887.19517002535258
 21
1429.5781486476171
  0
LINE
  8
_0-2_
  6
CONTINUOUS
 62
    3
 10
887.19517002535258
 20
1429.5781486476171
 11
851.19515023016697
 21
1429.5781486476171
  0
LINE
  8
_0-2_
  6
CONTINUOUS
 62
    3
 10
961.19526570208427
 20
1429.5781486476171
 11
951.19523271010803
 21
1429.5781486476171
  0
LINE
  8
_0-2_
  6
CONTINUOUS
 62
    3
 10
951.19523271010803
 20
1451.5785181577521
 11
961.19526570208427
 21
1451.5785181577521
  0
LINE
  8
_0-2_
  6
CONTINUOUS
 62
    3
 10
961.19526570208427
 20
1429.5781486476171
 11
961.19526570208427
 21
1451.5785181577521
  0
LINE
  8
_0-2_
  6
CONTINUOUS
 62
    3
 10
1003.1952063165268
 20
1429.5781486476171
 11
1003.1952063165268
 21
1451.5785181577521
  0
LINE
  8
_0-2_
  6
CONTINUOUS
 62
    3
 10
1003.1952063165268
 20
1451.5785181577521
 11
967.1954339611641
 21
1451.5785181577521
  0
LINE
  8
_0-2_
  6
CONTINUOUS
 62
    3
 10
967.1954339611641
 20
1451.5785181577521
 11
967.1954339611641
 21
1429.5781486476171
  0
LINE
  8
_0-2_
  6
CONTINUOUS
 62
    3
 10
967.1954339611641
 20
1429.5781486476171
 11
1003.1952063165268
 21
1429.5781486476171
  0
LINE
  8
_0-2_
  6
CONTINUOUS
 62
    3
 10
1019.1954075675828
 20
1429.5781486476171
 11
1019.1954075675828
 21
1451.5785181577521
  0
LINE
  8
_0-2_
  6
CONTINUOUS
 62
    3
 10
1019.1954075675828
 20
1451.5785181577521
 11
1009.1953745756066
 21
1451.5785181577521
  0
LINE
  8
_0-2_
  6
CONTINUOUS
 62
    3
 10
1009.1953745756066
 20
1451.5785181577521
 11
1009.1953745756066
 21
1429.5781486476171
  0
LINE
  8
_0-2_
  6
CONTINUOUS
 62
    3
 10
1009.1953745756066
 20
1429.5781486476171
 11
1019.1954075675828
 21
1429.5781486476171
  0
LINE
  8
_0-2_
  6
CONTINUOUS
 62
    3
 10
1025.1953283868397
 20
1451.5785181577521
 11
1025.1953283868397
 21
1429.5781486476171
  0
LINE
  8
_0-2_
  6
CONTINUOUS
 62
    3
 10
873.19527230047993
 20
1481.5783696938588
 11
923.19518982053978
 21
1481.5783696938588
  0
LINE
  8
_0-2_
  6
CONTINUOUS
 62
    3
 10
951.19523271010803
 20
1489.5780991596523
 11
951.19523271010803
 21
1511.5784686697875
  0
LINE
  8
_0-2_
  6
CONTINUOUS
 62
    3
 10
909.19529209566554
 20
1489.5780991596523
 11
909.19529209566554
 21
1511.5784686697875
  0
LINE
  8
_0-2_
  6
CONTINUOUS
 62
    3
 10
909.19529209566554
 20
1511.5784686697875
 11
945.1950644510282
 21
1511.5784686697875
  0
LINE
  8
_0-2_
  6
CONTINUOUS
 62
    3
 10
945.1950644510282
 20
1511.5784686697875
 11
945.1950644510282
 21
1489.5780991596523
  0
LINE
  8
_0-2_
  6
CONTINUOUS
 62
    3
 10
945.1950644510282
 20
1489.5780991596523
 11
909.19529209566554
 21
1489.5780991596523
  0
LINE
  8
_0-2_
  6
CONTINUOUS
 62
    3
 10
893.19509084460947
 20
1489.5780991596523
 11
893.19509084460947
 21
1511.5784686697875
  0
LINE
  8
_0-2_
  6
CONTINUOUS
 62
    3
 10
893.19509084460947
 20
1511.5784686697875
 11
903.19512383658571
 21
1511.5784686697875
  0
LINE
  8
_0-2_
  6
CONTINUOUS
 62
    3
 10
903.19512383658571
 20
1511.5784686697875
 11
903.19512383658571
 21
1489.5780991596523
  0
LINE
  8
_0-2_
  6
CONTINUOUS
 62
    3
 10
903.19512383658571
 20
1489.5780991596523
 11
893.19509084460947
 21
1489.5780991596523
  0
LINE
  8
_0-2_
  6
CONTINUOUS
 62
    3
 10
851.19515023016697
 20
1489.5780991596523
 11
851.19515023016697
 21
1511.5784686697875
  0
LINE
  8
_0-2_
  6
CONTINUOUS
 62
    3
 10
851.19515023016697
 20
1511.5784686697875
 11
887.19517002535258
 21
1511.5784686697875
  0
LINE
  8
_0-2_
  6
CONTINUOUS
 62
    3
 10
887.19517002535258
 20
1511.5784686697875
 11
887.19517002535258
 21
1489.5780991596523
  0
LINE
  8
_0-2_
  6
CONTINUOUS
 62
    3
 10
887.19517002535258
 20
1489.5780991596523
 11
851.19515023016697
 21
1489.5780991596523
  0
LINE
  8
_0-2_
  6
CONTINUOUS
 62
    3
 10
931.19541416597849
 20
1481.5783696938588
 11
981.19508424621381
 21
1481.5783696938588
  0
LINE
  8
_0-2_
  6
CONTINUOUS
 62
    3
 10
961.19526570208427
 20
1489.5780991596523
 11
951.19523271010803
 21
1489.5780991596523
  0
LINE
  8
_0-2_
  6
CONTINUOUS
 62
    3
 10
951.19523271010803
 20
1511.5784686697875
 11
961.19526570208427
 21
1511.5784686697875
  0
LINE
  8
_0-2_
  6
CONTINUOUS
 62
    3
 10
1039.1952261117124
 20
1481.5783696938588
 11
989.19530859165411
 21
1481.5783696938588
  0
LINE
  8
_0-2_
  6
CONTINUOUS
 62
    3
 10
961.19526570208427
 20
1489.5780991596523
 11
961.19526570208427
 21
1511.5784686697875
  0
LINE
  8
_0-2_
  6
CONTINUOUS
 62
    3
 10
1003.1952063165268
 20
1489.5780991596523
 11
1003.1952063165268
 21
1511.5784686697875
  0
LINE
  8
_0-2_
  6
CONTINUOUS
 62
    3
 10
1003.1952063165268
 20
1511.5784686697875
 11
967.1954339611641
 21
1511.5784686697875
  0
LINE
  8
_0-2_
  6
CONTINUOUS
 62
    3
 10
967.1954339611641
 20
1511.5784686697875
 11
967.1954339611641
 21
1489.5780991596523
  0
LINE
  8
_0-2_
  6
CONTINUOUS
 62
    3
 10
967.1954339611641
 20
1489.5780991596523
 11
1003.1952063165268
 21
1489.5780991596523
  0
LINE
  8
_0-2_
  6
CONTINUOUS
 62
    3
 10
1019.1954075675828
 20
1489.5780991596523
 11
1019.1954075675828
 21
1511.5784686697875
  0
LINE
  8
_0-2_
  6
CONTINUOUS
 62
    3
 10
1019.1954075675828
 20
1511.5784686697875
 11
1009.1953745756066
 21
1511.5784686697875
  0
LINE
  8
_0-2_
  6
CONTINUOUS
 62
    3
 10
1009.1953745756066
 20
1511.5784686697875
 11
1009.1953745756066
 21
1489.5780991596523
  0
LINE
  8
_0-2_
  6
CONTINUOUS
 62
    3
 10
1009.1953745756066
 20
1489.5780991596523
 11
1019.1954075675828
 21
1489.5780991596523
  0
LINE
  8
_0-2_
  6
CONTINUOUS
 62
    3
 10
1061.1953481820253
 20
1489.5780991596523
 11
1061.1953481820253
 21
1511.5784686697875
  0
LINE
  8
_0-2_
  6
CONTINUOUS
 62
    3
 10
1061.1953481820253
 20
1511.5784686697875
 11
1025.1953283868397
 21
1511.5784686697875
  0
LINE
  8
_0-2_
  6
CONTINUOUS
 62
    3
 10
1025.1953283868397
 20
1511.5784686697875
 11
1025.1953283868397
 21
1489.5780991596523
  0
LINE
  8
_0-2_
  6
CONTINUOUS
 62
    3
 10
1025.1953283868397
 20
1489.5780991596523
 11
1061.1953481820253
 21
1489.5780991596523
  0
LINE
  8
_0-2_
  6
CONTINUOUS
 62
    3
 10
989.19530859165411
 20
1481.5783696938588
 11
989.19530859165411
 21
1459.5783713434571
  0
LINE
  8
_0-2_
  6
CONTINUOUS
 62
    3
 10
1039.1952261117124
 20
1459.5783713434571
 11
1039.1952261117124
 21
1481.5783696938588
  0
LINE
  8
_0-2_
  6
CONTINUOUS
 62
    3
 10
981.19508424621381
 20
1459.5783713434571
 11
981.19508424621381
 21
1481.5783696938588
  0
LINE
  8
_0-2_
  6
CONTINUOUS
 62
    3
 10
923.19518982053978
 20
1481.5783696938588
 11
923.19518982053978
 21
1459.5783713434571
  0
LINE
  8
_0-2_
  6
CONTINUOUS
 62
    3
 10
873.19527230047993
 20
1459.5783713434571
 11
873.19527230047993
 21
1481.5783696938588
  0
LINE
  8
_0-2_
  6
CONTINUOUS
 62
    3
 10
931.19541416597849
 20
1459.5783713434571
 11
931.19541416597849
 21
1481.5783696938588
  0
LINE
  8
_0-2_
  6
CONTINUOUS
 62
    3
 10
873.19490114074551
 20
1459.5783713434571
 11
923.19506610062831
 21
1459.5783713434571
  0
LINE
  8
_0-2_
  6
CONTINUOUS
 62
    3
 10
931.19491928633261
 20
1459.5783713434571
 11
981.19508424621381
 21
1459.5783713434571
  0
LINE
  8
_0-2_
  6
CONTINUOUS
 62
    3
 10
989.1949374319197
 20
1459.5783713434571
 11
1039.1951023918009
 21
1459.5783713434571
  0
LINE
  8
_0-2_
  6
CONTINUOUS
 62
    3
 10
1061.1953481820253
 20
1429.5779012077942
 11
1061.1953481820253
 21
1451.5782707179296
  0
LINE
  8
_0-2_
  6
CONTINUOUS
 62
    3
 10
1061.1953481820253
 20
1451.5782707179296
 11
1025.1953283868397
 21
1451.5782707179296
  0
LINE
  8
_0-2_
  6
CONTINUOUS
 62
    3
 10
1025.1953283868397
 20
1429.5779012077942
 11
1061.1953481820253
 21
1429.5779012077942
  0
LINE
  8
_0-2_
  6
CONTINUOUS
 62
    3
 10
815.19513043498137
 20
1481.5783696938588
 11
865.19529539486257
 21
1481.5783696938588
  0
LINE
  8
_0-2_
  6
CONTINUOUS
 62
    3
 10
815.19513043498137
 20
1459.578000183724
 11
865.19529539486257
 21
1459.578000183724
  0
LINE
  8
_0-2_
  6
CONTINUOUS
 62
    3
 10
865.19529539486257
 20
1481.5783696938588
 11
865.19529539486257
 21
1459.578000183724
  0
LINE
  8
_0-2_
  6
CONTINUOUS
 62
    3
 10
1097.1953679772109
 20
1481.5783696938588
 11
1047.1952030173297
 21
1481.5783696938588
  0
LINE
  8
_0-2_
  6
CONTINUOUS
 62
    3
 10
1047.1952030173297
 20
1481.5783696938588
 11
1047.1952030173297
 21
1459.578000183724
  0
LINE
  8
_0-2_
  6
CONTINUOUS
 62
    3
 10
1097.1953679772109
 20
1459.578000183724
 11
1047.1952030173297
 21
1459.578000183724
  0
LINE
  8
_0-1_
  6
CONTINUOUS
 62
    2
 10
1331.1950077747892
 20
541.67534619336641
 11
1333.5964052449476
 21
578.1753181501864
  0
LINE
  8
_0-1_
  6
CONTINUOUS
 62
    2
 10
506.19524920609626
 20
541.67534619336641
 11
1406.1952492060962
 21
541.67534619336641
  0
ARC
  8
_0-2_
  6
CONTINUOUS
 62
    3
 10
956.19524920609615
 20
-11591.344962017676
 40
12185.999524915542
 50
89.119811137402806
 51
90.880188862597208
  0
ARC
  8
_0-2_
  6
CONTINUOUS
 62
    3
 10
956.19524920609615
 20
-11591.344962017676
 40
12185.999524915542
 50
91.300851014693862
 51
91.717422485351548
  0
ARC
  8
_0-2_
  6
CONTINUOUS
 62
    3
 10
724.29044095546283
 20
591.44390747926161
 40
38.999995669803106
 50
187.57036914467071
 51
238.93470764160151
  0
ARC
  8
_0-2_
  6
CONTINUOUS
 62
    3
 10
679.68267402781976
 20
585.51543887019318
 40
6
 50
7.5703691446705283
 51
91.300851014693961
  0
ARC
  8
_0-2_
  6
CONTINUOUS
 62
    3
 10
956.19524920609615
 20
-11591.344962017676
 40
12185.999524915542
 50
88.282577514648438
 51
88.69914782453148
  0
ARC
  8
_0-2_
  6
CONTINUOUS
 62
    3
 10
1188.1003048965524
 20
591.44390747926161
 40
38.999995669803106
 50
301.06529235839844
 51
352.42962365994464
  0
ARC
  8
_0-2_
  6
CONTINUOUS
 62
    3
 10
1232.7080710795267
 20
585.51543326822946
 40
6
 50
88.699147824531423
 51
172.42962365994421
  0
TEXT
  8
_f-5_
 62
    2
 10
1426.2723373534909
 20
88.629020682270152
 40
28
 41
0.8499999999999999
 50
0
  1
ＭＫＨ－Ｓ－７５０（角）－ａ
  0
TEXT
  8
_f-5_
 62
    2
 10
962.49988030614145
 20
122.02655135319458
 40
28
 41
0.8499999999999999
 50
0
  1
マンホール鉄蓋　水封形（防臭形）角枠　鎖なし
  0
ENDSEC
  0
EOF
