  0
SECTION
  2
HEADER
  9
$ACADVER
  1
AC1018
  9
$ACADMAINTVER
 70
     0
  9
$DWGCODEPAGE
  3
ANSI_932
  9
$INSBASE
 10
0.0
 20
0.0
 30
0.0
  9
$EXTMIN
 10
-1050.0
 20
-742.5
 30
0.0
  9
$EXTMAX
 10
1050.0
 20
742.5
 30
0.0
  9
$LIMMIN
 10
-1050.0
 20
-742.5
  9
$LIMMAX
 10
1050.0
 20
742.5
  9
$ORTHOMODE
 70
     0
  9
$REGENMODE
 70
     1
  9
$FILLMODE
 70
     1
  9
$QTEXTMODE
 70
     0
  9
$MIRRTEXT
 70
     1
  9
$LTSCALE
 40
5.0
  9
$ATTMODE
 70
     1
  9
$TEXTSIZE
 40
2.5
  9
$TRACEWID
 40
1.0
  9
$TEXTSTYLE
  7
Standard
  9
$CLAYER
  8
0
  9
$CELTYPE
  6
ByLayer
  9
$CECOLOR
 62
   256
  9
$CELTSCALE
 40
1.0
  9
$DISPSILH
 70
     0
  9
$DIMSCALE
 40
1.0
  9
$DIMASZ
 40
2.5
  9
$DIMEXO
 40
0.625
  9
$DIMDLI
 40
3.75
  9
$DIMRND
 40
0.0
  9
$DIMDLE
 40
0.0
  9
$DIMEXE
 40
1.25
  9
$DIMTP
 40
0.0
  9
$DIMTM
 40
0.0
  9
$DIMTXT
 40
2.5
  9
$DIMCEN
 40
2.5
  9
$DIMTSZ
 40
0.0
  9
$DIMTOL
 70
     0
  9
$DIMLIM
 70
     0
  9
$DIMTIH
 70
     0
  9
$DIMTOH
 70
     0
  9
$DIMSE1
 70
     0
  9
$DIMSE2
 70
     0
  9
$DIMTAD
 70
     1
  9
$DIMZIN
 70
     8
  9
$DIMBLK
  1

  9
$DIMASO
 70
     1
  9
$DIMSHO
 70
     1
  9
$DIMPOST
  1

  9
$DIMAPOST
  1

  9
$DIMALT
 70
     0
  9
$DIMALTD
 70
     3
  9
$DIMALTF
 40
0.03937007874016
  9
$DIMLFAC
 40
1.0
  9
$DIMTOFL
 70
     1
  9
$DIMTVP
 40
0.0
  9
$DIMTIX
 70
     0
  9
$DIMSOXD
 70
     0
  9
$DIMSAH
 70
     0
  9
$DIMBLK1
  1

  9
$DIMBLK2
  1

  9
$DIMSTYLE
  2
ISO-25
  9
$DIMCLRD
 70
     0
  9
$DIMCLRE
 70
     0
  9
$DIMCLRT
 70
     0
  9
$DIMTFAC
 40
1.0
  9
$DIMGAP
 40
0.625
  9
$DIMJUST
 70
     0
  9
$DIMSD1
 70
     0
  9
$DIMSD2
 70
     0
  9
$DIMTOLJ
 70
     0
  9
$DIMTZIN
 70
     8
  9
$DIMALTZ
 70
     0
  9
$DIMALTTZ
 70
     0
  9
$DIMUPT
 70
     0
  9
$DIMDEC
 70
     2
  9
$DIMTDEC
 70
     2
  9
$DIMALTU
 70
     2
  9
$DIMALTTD
 70
     3
  9
$DIMTXSTY
  7
Standard
  9
$DIMAUNIT
 70
     0
  9
$DIMADEC
 70
     0
  9
$DIMALTRND
 40
0.0
  9
$DIMAZIN
 70
     0
  9
$DIMDSEP
 70
    44
  9
$DIMATFIT
 70
     3
  9
$DIMFRAC
 70
     0
  9
$DIMLDRBLK
  1

  9
$DIMLUNIT
 70
     2
  9
$DIMLWD
 70
    -2
  9
$DIMLWE
 70
    -2
  9
$DIMTMOVE
 70
     0
  9
$LUNITS
 70
     2
  9
$LUPREC
 70
     4
  9
$SKETCHINC
 40
1.0
  9
$FILLETRAD
 40
10.0
  9
$AUNITS
 70
     0
  9
$AUPREC
 70
     0
  9
$MENU
  1
.
  9
$ELEVATION
 40
0.0
  9
$PELEVATION
 40
0.0
  9
$THICKNESS
 40
0.0
  9
$LIMCHECK
 70
     0
  9
$CHAMFERA
 40
10.0
  9
$CHAMFERB
 40
10.0
  9
$CHAMFERC
 40
20.0
  9
$CHAMFERD
 40
0.0
  9
$SKPOLY
 70
     0
  9
$TDCREATE
 40
2457904.644833553
  9
$TDUCREATE
 40
2457904.269833553
  9
$TDUPDATE
 40
2457904.644833565
  9
$TDUUPDATE
 40
2457904.269833565
  9
$TDINDWG
 40
0.0000000116
  9
$TDUSRTIMER
 40
0.0000000116
  9
$USRTIMER
 70
     1
  9
$ANGBASE
 50
0.0
  9
$ANGDIR
 70
     0
  9
$PDMODE
 70
     0
  9
$PDSIZE
 40
0.0
  9
$PLINEWID
 40
0.0
  9
$SPLFRAME
 70
     0
  9
$SPLINETYPE
 70
     6
  9
$SPLINESEGS
 70
     8
  9
$HANDSEED
  5
5BA
  9
$SURFTAB1
 70
     6
  9
$SURFTAB2
 70
     6
  9
$SURFTYPE
 70
     6
  9
$SURFU
 70
     6
  9
$SURFV
 70
     6
  9
$UCSBASE
  2

  9
$UCSNAME
  2

  9
$UCSORG
 10
0.0
 20
0.0
 30
0.0
  9
$UCSXDIR
 10
1.0
 20
0.0
 30
0.0
  9
$UCSYDIR
 10
0.0
 20
1.0
 30
0.0
  9
$UCSORTHOREF
  2

  9
$UCSORTHOVIEW
 70
     0
  9
$UCSORGTOP
 10
0.0
 20
0.0
 30
0.0
  9
$UCSORGBOTTOM
 10
0.0
 20
0.0
 30
0.0
  9
$UCSORGLEFT
 10
0.0
 20
0.0
 30
0.0
  9
$UCSORGRIGHT
 10
0.0
 20
0.0
 30
0.0
  9
$UCSORGFRONT
 10
0.0
 20
0.0
 30
0.0
  9
$UCSORGBACK
 10
0.0
 20
0.0
 30
0.0
  9
$PUCSBASE
  2

  9
$PUCSNAME
  2

  9
$PUCSORG
 10
0.0
 20
0.0
 30
0.0
  9
$PUCSXDIR
 10
1.0
 20
0.0
 30
0.0
  9
$PUCSYDIR
 10
0.0
 20
1.0
 30
0.0
  9
$PUCSORTHOREF
  2

  9
$PUCSORTHOVIEW
 70
     0
  9
$PUCSORGTOP
 10
0.0
 20
0.0
 30
0.0
  9
$PUCSORGBOTTOM
 10
0.0
 20
0.0
 30
0.0
  9
$PUCSORGLEFT
 10
0.0
 20
0.0
 30
0.0
  9
$PUCSORGRIGHT
 10
0.0
 20
0.0
 30
0.0
  9
$PUCSORGFRONT
 10
0.0
 20
0.0
 30
0.0
  9
$PUCSORGBACK
 10
0.0
 20
0.0
 30
0.0
  9
$USERI1
 70
     0
  9
$USERI2
 70
     0
  9
$USERI3
 70
     0
  9
$USERI4
 70
     0
  9
$USERI5
 70
     0
  9
$USERR1
 40
0.0
  9
$USERR2
 40
0.0
  9
$USERR3
 40
0.0
  9
$USERR4
 40
0.0
  9
$USERR5
 40
0.0
  9
$WORLDVIEW
 70
     1
  9
$SHADEDGE
 70
     3
  9
$SHADEDIF
 70
    70
  9
$TILEMODE
 70
     1
  9
$MAXACTVP
 70
    64
  9
$PINSBASE
 10
0.0
 20
0.0
 30
0.0
  9
$PLIMCHECK
 70
     0
  9
$PEXTMIN
 10
1.000000000000000E+20
 20
1.000000000000000E+20
 30
1.000000000000000E+20
  9
$PEXTMAX
 10
-1.000000000000000E+20
 20
-1.000000000000000E+20
 30
-1.000000000000000E+20
  9
$PLIMMIN
 10
0.0
 20
0.0
  9
$PLIMMAX
 10
420.0
 20
297.0
  9
$UNITMODE
 70
     0
  9
$VISRETAIN
 70
     1
  9
$PLINEGEN
 70
     0
  9
$PSLTSCALE
 70
     1
  9
$TREEDEPTH
 70
  3020
  9
$CMLSTYLE
  2
Standard
  9
$CMLJUST
 70
     0
  9
$CMLSCALE
 40
20.0
  9
$PROXYGRAPHICS
 70
     1
  9
$MEASUREMENT
 70
     1
  9
$CELWEIGHT
370
    -1
  9
$ENDCAPS
280
     0
  9
$JOINSTYLE
280
     0
  9
$LWDISPLAY
290
     0
  9
$INSUNITS
 70
     4
  9
$HYPERLINKBASE
  1

  9
$STYLESHEET
  1

  9
$XEDIT
290
     1
  9
$CEPSNTYPE
380
     0
  9
$PSTYLEMODE
290
     1
  9
$FINGERPRINTGUID
  2
{937CB108-A0B0-4497-BCD6-739A946D670F}
  9
$VERSIONGUID
  2
{FAEB1C32-E019-11D5-929B-00C0DF256EC4}
  9
$EXTNAMES
290
     1
  9
$PSVPSCALE
 40
0.0
  9
$OLESTARTUP
290
     0
  9
$SORTENTS
280
   127
  9
$INDEXCTL
280
     0
  9
$HIDETEXT
280
     1
  9
$XCLIPFRAME
290
     0
  9
$HALOGAP
280
     0
  9
$OBSCOLOR
 70
   257
  9
$OBSLTYPE
280
     0
  9
$INTERSECTIONDISPLAY
280
     0
  9
$INTERSECTIONCOLOR
 70
   257
  9
$DIMASSOC
280
     2
  9
$PROJECTNAME
  1

  0
ENDSEC
  0
SECTION
  2
CLASSES
  0
CLASS
  1
ACDBDICTIONARYWDFLT
  2
AcDbDictionaryWithDefault
  3
ObjectDBX Classes
 90
        0
 91
        4
280
     0
281
     0
  0
CLASS
  1
VISUALSTYLE
  2
AcDbVisualStyle
  3
ObjectDBX Classes
 90
     4095
 91
        4
280
     0
281
     0
  0
ENDSEC
  0
SECTION
  2
TABLES
  0
TABLE
  2
VPORT
  5
8
330
0
100
AcDbSymbolTable
 70
     1
  0
VPORT
  5
29
330
8
100
AcDbSymbolTableRecord
100
AcDbViewportTableRecord
  2
*Active
 70
     0
 10
0.0
 20
0.0
 11
1.0
 21
1.0
 12
0.0
 22
0.0
 13
0.0
 23
0.0
 14
10.0
 24
10.0
 15
10.0
 25
10.0
 16
0.0
 26
0.0
 36
1.0
 17
0.0
 27
0.0
 37
0.0
 40
1633.5
 41
1.414141414141414
 42
50.0
 43
0.0
 44
0.0
 50
0.0
 51
0.0
 71
     0
 72
 10000
 73
     1
 74
     3
 75
     0
 76
     0
 77
     0
 78
     0
281
     0
 65
     1
110
0.0
120
0.0
130
0.0
111
1.0
121
0.0
131
0.0
112
0.0
122
1.0
132
0.0
 79
     0
146
0.0
  0
ENDTAB
  0
TABLE
  2
LTYPE
  5
5
330
0
100
AcDbSymbolTable
 70
     5
  0
LTYPE
  5
14
330
5
100
AcDbSymbolTableRecord
100
AcDbLinetypeTableRecord
  2
ByBlock
 70
     0
  3

 72
    65
 73
     0
 40
0.0
  0
LTYPE
  5
15
330
5
100
AcDbSymbolTableRecord
100
AcDbLinetypeTableRecord
  2
ByLayer
 70
     0
  3

 72
    65
 73
     0
 40
0.0
  0
LTYPE
  5
16
330
5
100
AcDbSymbolTableRecord
100
AcDbLinetypeTableRecord
  2
Continuous
 70
     0
  3
Solid line
 72
    65
 73
     0
 40
0.0
  0
LTYPE
  5
3C
330
5
100
AcDbSymbolTableRecord
100
AcDbLinetypeTableRecord
  2
JWW_CENTER1
 70
     0
  3
-----  --  ----------  --  -----
 72
    65
 73
     4
 40
6.773333333333333
 49
4.233333333333333
 74
     0
 49
-0.8466666666666667
 74
     0
 49
0.8466666666666667
 74
     0
 49
-0.8466666666666667
 74
     0
  0
LTYPE
  5
3D
330
5
100
AcDbSymbolTableRecord
100
AcDbLinetypeTableRecord
  2
JWW_DASHED1
 70
     0
  3
-  --  --  --  --  --  --  --  -
 72
    65
 73
     2
 40
1.693333333333333
 49
0.8466666666666667
 74
     0
 49
-0.8466666666666667
 74
     0
  0
LTYPE
  5
3E
330
5
100
AcDbSymbolTableRecord
100
AcDbLinetypeTableRecord
  2
JWW_DASHED3
 70
     0
  3
---  ------  ------  ------  ---
 72
    65
 73
     2
 40
3.386666666666667
 49
2.54
 74
     0
 49
-0.8466666666666667
 74
     0
  0
LTYPE
  5
3F
330
5
100
AcDbSymbolTableRecord
100
AcDbLinetypeTableRecord
  2
JWW_PHANTOM2
 70
     0
  3
------------  -  -  ------------
 72
    65
 73
     6
 40
13.54666666666667
 49
10.16
 74
     0
 49
-0.8466666666666667
 74
     0
 49
0.4233333333333333
 74
     0
 49
-0.8466666666666667
 74
     0
 49
0.4233333333333333
 74
     0
 49
-0.8466666666666667
 74
     0
  0
ENDTAB
  0
TABLE
  2
LAYER
  5
2
330
0
100
AcDbSymbolTable
 70
    23
  0
LAYER
  5
10
330
2
100
AcDbSymbolTableRecord
100
AcDbLayerTableRecord
  2
0
 70
     0
 62
     7
  6
Continuous
370
    -3
390
F
  0
LAYER
  5
40
330
2
100
AcDbSymbolTableRecord
100
AcDbLayerTableRecord
  2
1-4
 70
     0
 62
     7
  6
Continuous
370
    -3
390
F
  0
LAYER
  5
41
330
2
100
AcDbSymbolTableRecord
100
AcDbLayerTableRecord
  2
0-4
 70
     0
 62
     7
  6
Continuous
370
    -3
390
F
  0
LAYER
  5
42
330
2
100
AcDbSymbolTableRecord
100
AcDbLayerTableRecord
  2
0-0
 70
     0
 62
     7
  6
Continuous
370
    -3
390
F
  0
LAYER
  5
43
330
2
100
AcDbSymbolTableRecord
100
AcDbLayerTableRecord
  2
0-1
 70
     0
 62
     7
  6
Continuous
370
    -3
390
F
  0
LAYER
  5
44
330
2
100
AcDbSymbolTableRecord
100
AcDbLayerTableRecord
  2
0-A
 70
     0
 62
     7
  6
Continuous
370
    -3
390
F
  0
LAYER
  5
45
330
2
100
AcDbSymbolTableRecord
100
AcDbLayerTableRecord
  2
0-3
 70
     0
 62
     7
  6
Continuous
370
    -3
390
F
  0
LAYER
  5
46
330
2
100
AcDbSymbolTableRecord
100
AcDbLayerTableRecord
  2
0-7
 70
     0
 62
     7
  6
Continuous
370
    -3
390
F
  0
LAYER
  5
47
330
2
100
AcDbSymbolTableRecord
100
AcDbLayerTableRecord
  2
0-9
 70
     0
 62
     7
  6
Continuous
370
    -3
390
F
  0
LAYER
  5
48
330
2
100
AcDbSymbolTableRecord
100
AcDbLayerTableRecord
  2
D-4
 70
     0
 62
     7
  6
Continuous
370
    -3
390
F
  0
LAYER
  5
49
330
2
100
AcDbSymbolTableRecord
100
AcDbLayerTableRecord
  2
D-1
 70
     0
 62
     7
  6
Continuous
370
    -3
390
F
  0
LAYER
  5
4A
330
2
100
AcDbSymbolTableRecord
100
AcDbLayerTableRecord
  2
D-5
 70
     0
 62
     7
  6
Continuous
370
    -3
390
F
  0
LAYER
  5
4B
330
2
100
AcDbSymbolTableRecord
100
AcDbLayerTableRecord
  2
D-A
 70
     0
 62
     7
  6
Continuous
370
    -3
390
F
  0
LAYER
  5
4C
330
2
100
AcDbSymbolTableRecord
100
AcDbLayerTableRecord
  2
D-7
 70
     0
 62
     7
  6
Continuous
370
    -3
390
F
  0
LAYER
  5
4D
330
2
100
AcDbSymbolTableRecord
100
AcDbLayerTableRecord
  2
D-6
 70
     0
 62
     7
  6
Continuous
370
    -3
390
F
  0
LAYER
  5
4E
330
2
100
AcDbSymbolTableRecord
100
AcDbLayerTableRecord
  2
D-B
 70
     0
 62
     7
  6
Continuous
370
    -3
390
F
  0
LAYER
  5
4F
330
2
100
AcDbSymbolTableRecord
100
AcDbLayerTableRecord
  2
D-3
 70
     0
 62
     7
  6
Continuous
370
    -3
390
F
  0
LAYER
  5
50
330
2
100
AcDbSymbolTableRecord
100
AcDbLayerTableRecord
  2
D-0
 70
     0
 62
     7
  6
Continuous
370
    -3
390
F
  0
LAYER
  5
51
330
2
100
AcDbSymbolTableRecord
100
AcDbLayerTableRecord
  2
0-2
 70
     0
 62
     7
  6
Continuous
370
    -3
390
F
  0
LAYER
  5
52
330
2
100
AcDbSymbolTableRecord
100
AcDbLayerTableRecord
  2
D-2
 70
     0
 62
     7
  6
Continuous
370
    -3
390
F
  0
LAYER
  5
53
330
2
100
AcDbSymbolTableRecord
100
AcDbLayerTableRecord
  2
D-F
 70
     0
 62
     7
  6
Continuous
370
    -3
390
F
  0
LAYER
  5
54
330
2
100
AcDbSymbolTableRecord
100
AcDbLayerTableRecord
  2
D-D
 70
     0
 62
     7
  6
Continuous
370
    -3
390
F
  0
LAYER
  5
55
330
2
100
AcDbSymbolTableRecord
100
AcDbLayerTableRecord
  2
F-0
 70
     0
 62
     7
  6
Continuous
370
    -3
390
F
  0
ENDTAB
  0
TABLE
  2
STYLE
  5
3
330
0
100
AcDbSymbolTable
 70
     2
  0
STYLE
  5
11
330
3
100
AcDbSymbolTableRecord
100
AcDbTextStyleTableRecord
  2
Standard
 70
     0
 40
0.0
 41
1.0
 50
0.0
 71
     0
 42
2.5
  3
txt
  4

1001
ACAD
1000

1071
        0
  0
STYLE
  5
3B
330
3
100
AcDbSymbolTableRecord
100
AcDbTextStyleTableRecord
  2
ＭＳ ゴシック
 70
     0
 40
1.0
 41
1.0
 50
0.0
 71
     0
 42
10.0
  3

  4

1001
ACAD
1000
MS Gothic
1071
    32817
  0
ENDTAB
  0
TABLE
  2
VIEW
  5
6
330
0
100
AcDbSymbolTable
 70
     0
  0
ENDTAB
  0
TABLE
  2
UCS
  5
7
330
0
100
AcDbSymbolTable
 70
     0
  0
ENDTAB
  0
TABLE
  2
APPID
  5
9
330
0
100
AcDbSymbolTable
 70
     1
  0
APPID
  5
12
330
9
100
AcDbSymbolTableRecord
100
AcDbRegAppTableRecord
  2
ACAD
 70
     0
  0
ENDTAB
  0
TABLE
  2
DIMSTYLE
  5
A
330
0
100
AcDbSymbolTable
 70
     1
100
AcDbDimStyleTable
  0
DIMSTYLE
105
27
330
A
100
AcDbSymbolTableRecord
100
AcDbDimStyleTableRecord
  2
ISO-25
 70
     0
 41
2.5
 42
0.625
 43
3.75
 44
1.25
 73
     0
 74
     0
 77
     1
 78
     8
140
2.5
141
2.5
143
0.03937007874016
147
0.625
171
     3
172
     1
271
     2
272
     2
274
     3
278
    44
283
     0
284
     8
340
11
  0
ENDTAB
  0
TABLE
  2
BLOCK_RECORD
  5
1
330
0
100
AcDbSymbolTable
 70
     1
  0
BLOCK_RECORD
  5
1F
330
1
100
AcDbSymbolTableRecord
100
AcDbBlockTableRecord
  2
*Model_Space
340
22
  0
BLOCK_RECORD
  5
1B
330
1
100
AcDbSymbolTableRecord
100
AcDbBlockTableRecord
  2
*Paper_Space
340
1E
  0
BLOCK_RECORD
  5
23
330
1
100
AcDbSymbolTableRecord
100
AcDbBlockTableRecord
  2
*Paper_Space0
340
26
  0
ENDTAB
  0
ENDSEC
  0
SECTION
  2
BLOCKS
  0
BLOCK
  5
20
330
1F
100
AcDbEntity
  8
0
100
AcDbBlockBegin
  2
*Model_Space
 70
     0
 10
0.0
 20
0.0
 30
0.0
  3
*Model_Space
  1

  0
ENDBLK
  5
21
330
1F
100
AcDbEntity
  8
0
100
AcDbBlockEnd
  0
BLOCK
  5
1C
330
1B
100
AcDbEntity
 67
     1
  8
0
100
AcDbBlockBegin
  2
*Paper_Space
 70
     0
 10
0.0
 20
0.0
 30
0.0
  3
*Paper_Space
  1

  0
ENDBLK
  5
1D
330
1B
100
AcDbEntity
 67
     1
  8
0
100
AcDbBlockEnd
  0
BLOCK
  5
24
330
23
100
AcDbEntity
  8
0
100
AcDbBlockBegin
  2
*Paper_Space0
 70
     0
 10
0.0
 20
0.0
 30
0.0
  3
*Paper_Space0
  1

  0
ENDBLK
  5
25
330
23
100
AcDbEntity
  8
0
100
AcDbBlockEnd
  0
ENDSEC
  0
SECTION
  2
ENTITIES
  0
LINE
  5
56
330
1F
100
AcDbEntity
  8
1-4
  6
Continuous
 62
     7
370
     9
100
AcDbLine
 10
-589.8415436615815
 20
-211.4576432511612
 30
0.0
 11
-324.5773934029244
 21
-211.4576432511612
 31
0.0
  0
LINE
  5
57
330
1F
100
AcDbEntity
  8
0-4
  6
Continuous
 62
     7
370
     9
100
AcDbLine
 10
-600.8476051124367
 20
306.9996766786318
 30
0.0
 11
-300.8476051124366
 21
306.9996766786318
 31
0.0
  0
LINE
  5
58
330
1F
100
AcDbEntity
  8
0-4
  6
Continuous
 62
     7
370
     9
100
AcDbLine
 10
-613.8475366540856
 20
346.4915672508447
 30
0.0
 11
-287.8476117108319
 21
346.4915672508447
 31
0.0
  0
LINE
  5
59
330
1F
100
AcDbEntity
  8
0-4
  6
Continuous
 62
     7
370
     9
100
AcDbLine
 10
-613.8475366540856
 20
227.6002584921348
 30
0.0
 11
-613.8475366540856
 21
347.9915474556589
 31
0.0
  0
LINE
  5
5A
330
1F
100
AcDbEntity
  8
0-4
  6
Continuous
 62
     7
370
     9
100
AcDbLine
 10
-287.8476117108319
 20
227.6002584921348
 30
0.0
 11
-287.8476117108319
 21
347.9915474556589
 31
0.0
  0
LINE
  5
5B
330
1F
100
AcDbEntity
  8
0-4
  6
Continuous
 62
     7
370
     9
100
AcDbLine
 10
-700.746794004698
 20
207.0994361671242
 30
0.0
 11
-700.7437010069151
 21
-92.90056383287578
 31
0.0
  0
LINE
  5
5C
330
1F
100
AcDbEntity
  8
0-4
  6
Continuous
 62
     7
370
     9
100
AcDbLine
 10
-740.2388082968221
 20
220.0989346890837
 30
0.0
 11
-740.2354678592167
 21
-105.9009902541702
 31
0.0
  0
LINE
  5
5D
330
1F
100
AcDbEntity
  8
0-4
  6
Continuous
 62
     7
370
     9
100
AcDbLine
 10
-621.3475613980679
 20
220.1001718881969
 30
0.0
 11
-741.7387885016365
 21
220.0989346890837
 31
0.0
  0
LINE
  5
5E
330
1F
100
AcDbEntity
  8
0-4
  6
Continuous
 62
     7
370
     9
100
AcDbLine
 10
-621.3442209604624
 20
-105.899753055057
 30
0.0
 11
-741.7354480640308
 21
-105.9009902541702
 31
0.0
  0
LINE
  5
5F
330
1F
100
AcDbEntity
  8
0-4
  6
Continuous
 62
     7
370
     9
100
AcDbLine
 10
-600.8476051124367
 20
227.6002584921348
 30
0.0
 11
-600.8476051124367
 21
308.4996568834459
 31
0.0
  0
LINE
  5
60
330
1F
100
AcDbEntity
  8
0-4
  6
Continuous
 62
     7
370
     9
100
AcDbLine
 10
-300.8476051124366
 20
227.6002584921348
 30
0.0
 11
-300.8476051124366
 21
308.4996568834459
 31
0.0
  0
LINE
  5
61
330
1F
100
AcDbEntity
  8
0-4
  6
Continuous
 62
     7
370
     9
100
AcDbLine
 10
-621.3474376781567
 20
207.1002403465478
 30
0.0
 11
-702.2467742095123
 21
207.0993743071685
 31
0.0
  0
LINE
  5
62
330
1F
100
AcDbEntity
  8
0-4
  6
Continuous
 62
     7
370
     9
100
AcDbLine
 10
-621.3443446803738
 20
-92.89975965345221
 30
0.0
 11
-702.2436812117293
 21
-92.90062569283151
 31
0.0
  0
TEXT
  5
63
330
1F
100
AcDbEntity
  8
1-4
  6
Continuous
 62
     2
370
     9
100
AcDbText
 10
-578.1178428031303
 20
-205.2776578995988
 30
0.0
 40
15.24
  1
平面詳細図　Ｓ＝１：５
 41
1.113636363636364
  7
ＭＳ ゴシック
100
AcDbText
  0
TEXT
  5
64
330
1F
100
AcDbEntity
  8
0-4
  6
Continuous
 62
     2
370
     9
100
AcDbText
 10
-467.0976051124366
 20
312.8196370882602
 30
0.0
 40
15.24
  1
300
 41
1.083333333333333
  7
ＭＳ ゴシック
100
AcDbText
  0
TEXT
  5
65
330
1F
100
AcDbEntity
  8
0-4
  6
Continuous
 62
     2
370
     9
100
AcDbText
 10
-467.0976051124366
 20
352.311527660473
 30
0.0
 40
15.24
  1
326
 41
1.083333333333333
  7
ＭＳ ゴシック
100
AcDbText
  0
TEXT
  5
66
330
1F
100
AcDbEntity
  8
0-4
  6
Continuous
 62
     2
370
     9
100
AcDbText
 10
-706.5650223353617
 20
40.84934747018699
 30
0.0
 40
15.24
  1
300
 50
90.00054527941217
 41
1.083333333333333
  7
ＭＳ ゴシック
100
AcDbText
  0
TEXT
  5
67
330
1F
100
AcDbEntity
  8
0-4
  6
Continuous
 62
     2
370
     9
100
AcDbText
 10
-746.0569129075029
 20
40.84890908327772
 30
0.0
 40
15.24
  1
326
 50
90.00065433529458
 41
1.083333333333333
  7
ＭＳ ゴシック
100
AcDbText
  0
LWPOLYLINE
  5
68
330
1F
100
AcDbEntity
  8
0-4
  6
Continuous
 62
     7
370
     9
100
AcDbPolyline
 90
        4
 70
     1
 43
0.5
 10
-600.5976051124367
 20
306.9996766786318
 42
0.4142135623731
 10
-600.8476051124367
 20
307.2496766786318
 42
0.4142135623731
 10
-601.0976051124367
 20
306.9996766786318
 42
0.4142135623731
 10
-600.8476051124367
 20
306.7496766786318
 42
0.4142135623731
  0
LWPOLYLINE
  5
69
330
1F
100
AcDbEntity
  8
0-4
  6
Continuous
 62
     7
370
     9
100
AcDbPolyline
 90
        4
 70
     1
 43
0.5
 10
-300.5976051124366
 20
306.9996766786318
 42
0.4142135623731
 10
-300.8476051124366
 20
307.2496766786318
 42
0.4142135623731
 10
-301.0976051124366
 20
306.9996766786318
 42
0.4142135623731
 10
-300.8476051124366
 20
306.7496766786318
 42
0.4142135623731
  0
LWPOLYLINE
  5
6A
330
1F
100
AcDbEntity
  8
0-4
  6
Continuous
 62
     7
370
     9
100
AcDbPolyline
 90
        4
 70
     1
 43
0.5
 10
-613.5975366540857
 20
346.4915672508447
 42
0.4142135623731
 10
-613.8475366540856
 20
346.7415672508446
 42
0.4142135623731
 10
-614.0975366540856
 20
346.4915672508447
 42
0.4142135623731
 10
-613.8475366540856
 20
346.2415672508447
 42
0.4142135623731
  0
LWPOLYLINE
  5
6B
330
1F
100
AcDbEntity
  8
0-4
  6
Continuous
 62
     7
370
     9
100
AcDbPolyline
 90
        4
 70
     1
 43
0.5
 10
-287.5976117108319
 20
346.4915672508447
 42
0.4142135623731
 10
-287.8476117108319
 20
346.7415672508446
 42
0.4142135623731
 10
-288.0976117108319
 20
346.4915672508447
 42
0.4142135623731
 10
-287.8476117108319
 20
346.2415672508447
 42
0.4142135623731
  0
LWPOLYLINE
  5
6C
330
1F
100
AcDbEntity
  8
0-4
  6
Continuous
 62
     7
370
     9
100
AcDbPolyline
 90
        4
 70
     1
 43
0.5
 10
-700.496794004698
 20
207.0994361671242
 42
0.4142135623731
 10
-700.746794004698
 20
207.3494361671242
 42
0.4142135623731
 10
-700.9967940046981
 20
207.0994361671242
 42
0.4142135623731
 10
-700.746794004698
 20
206.8494361671242
 42
0.4142135623731
  0
LWPOLYLINE
  5
6D
330
1F
100
AcDbEntity
  8
0-4
  6
Continuous
 62
     7
370
     9
100
AcDbPolyline
 90
        4
 70
     1
 43
0.5
 10
-700.493701006915
 20
-92.90056383287578
 42
0.4142135623731
 10
-700.7437010069151
 20
-92.65056383287578
 42
0.4142135623731
 10
-700.9937010069152
 20
-92.90056383287578
 42
0.4142135623731
 10
-700.7437010069151
 20
-93.15056383287578
 42
0.4142135623731
  0
LWPOLYLINE
  5
6E
330
1F
100
AcDbEntity
  8
0-4
  6
Continuous
 62
     7
370
     9
100
AcDbPolyline
 90
        4
 70
     1
 43
0.5
 10
-739.9888082968221
 20
220.0989346890837
 42
0.4142135623731
 10
-740.2388082968221
 20
220.3489346890837
 42
0.4142135623731
 10
-740.4888082968222
 20
220.0989346890837
 42
0.4142135623731
 10
-740.2388082968221
 20
219.8489346890838
 42
0.4142135623731
  0
LWPOLYLINE
  5
6F
330
1F
100
AcDbEntity
  8
0-4
  6
Continuous
 62
     7
370
     9
100
AcDbPolyline
 90
        4
 70
     1
 43
0.5
 10
-739.9854678592167
 20
-105.9009902541702
 42
0.4142135623731
 10
-740.2354678592167
 20
-105.6509902541702
 42
0.4142135623731
 10
-740.4854678592167
 20
-105.9009902541702
 42
0.4142135623731
 10
-740.2354678592167
 20
-106.1509902541702
 42
0.4142135623731
  0
LINE
  5
70
330
1F
100
AcDbEntity
  8
0-0
  6
Continuous
 62
     4
370
     9
100
AcDbLine
 10
-312.8475446664228
 20
-80.9010572985791
 30
0.0
 11
-588.8476036984947
 21
-80.9010572985791
 31
0.0
  0
LINE
  5
71
330
1F
100
AcDbEntity
  8
0-0
  6
Continuous
 62
     4
370
     9
100
AcDbLine
 10
-312.8475446664228
 20
195.0990017334928
 30
0.0
 11
-312.8475446664228
 21
-80.9010572985791
 31
0.0
  0
LINE
  5
72
330
1F
100
AcDbEntity
  8
0-0
  6
Continuous
 62
     4
370
     9
100
AcDbLine
 10
-588.8476036984947
 20
195.0990017334928
 30
0.0
 11
-312.8475446664228
 21
195.0990017334928
 31
0.0
  0
LINE
  5
73
330
1F
100
AcDbEntity
  8
0-0
  6
Continuous
 62
     4
370
     9
100
AcDbLine
 10
-588.8476036984947
 20
-80.9010572985791
 30
0.0
 11
-588.8476036984947
 21
195.0990017334928
 31
0.0
  0
LINE
  5
74
330
1F
100
AcDbEntity
  8
0-0
  6
Continuous
 62
     4
370
     9
100
AcDbLine
 10
-600.8476199588259
 20
-92.90102106631934
 30
0.0
 11
-600.8476199588259
 21
207.0990179938239
 31
0.0
  0
LINE
  5
75
330
1F
100
AcDbEntity
  8
0-0
  6
Continuous
 62
     4
370
     9
100
AcDbLine
 10
-300.8475808986825
 20
-92.90102106631934
 30
0.0
 11
-600.8476199588259
 21
-92.90102106631934
 31
0.0
  0
LINE
  5
76
330
1F
100
AcDbEntity
  8
0-0
  6
Continuous
 62
     4
370
     9
100
AcDbLine
 10
-300.8475808986825
 20
207.0990179938239
 30
0.0
 11
-300.8475808986825
 21
-92.90102106631934
 31
0.0
  0
LINE
  5
77
330
1F
100
AcDbEntity
  8
0-0
  6
Continuous
 62
     4
370
     9
100
AcDbLine
 10
-600.8476199588259
 20
207.0990179938239
 30
0.0
 11
-300.8475808986825
 21
207.0990179938239
 31
0.0
  0
LINE
  5
78
330
1F
100
AcDbEntity
  8
0-0
  6
Continuous
 62
     4
370
     9
100
AcDbLine
 10
-598.3475028373099
 20
204.5990058574898
 30
0.0
 11
-303.3475930350166
 21
204.5990058574898
 31
0.0
  0
LINE
  5
79
330
1F
100
AcDbEntity
  8
0-0
  6
Continuous
 62
     4
370
     9
100
AcDbLine
 10
-598.3475028373099
 20
-90.40100892998531
 30
0.0
 11
-598.3475028373099
 21
204.5990058574898
 31
0.0
  0
LINE
  5
7A
330
1F
100
AcDbEntity
  8
0-0
  6
Continuous
 62
     4
370
     9
100
AcDbLine
 10
-303.3475930350167
 20
-90.40100892998531
 30
0.0
 11
-598.3475028373099
 21
-90.40100892998531
 31
0.0
  0
LINE
  5
7B
330
1F
100
AcDbEntity
  8
0-0
  6
Continuous
 62
     4
370
     9
100
AcDbLine
 10
-303.3475930350166
 20
204.5990058574898
 30
0.0
 11
-303.3475930350167
 21
-90.40100892998531
 31
0.0
  0
LINE
  5
7C
330
1F
100
AcDbEntity
  8
0-0
  6
Continuous
 62
     4
370
     9
100
AcDbLine
 10
-591.3475108496472
 20
197.5990138698269
 30
0.0
 11
-310.3475325300886
 21
197.5990138698269
 31
0.0
  0
LINE
  5
7D
330
1F
100
AcDbEntity
  8
0-0
  6
Continuous
 62
     4
370
     9
100
AcDbLine
 10
-591.3475108496472
 20
-83.40106943491335
 30
0.0
 11
-591.3475108496472
 21
197.5990138698269
 31
0.0
  0
LINE
  5
7E
330
1F
100
AcDbEntity
  8
0-0
  6
Continuous
 62
     4
370
     9
100
AcDbLine
 10
-310.3475325300886
 20
-83.40106943491335
 30
0.0
 11
-591.3475108496472
 21
-83.40106943491335
 31
0.0
  0
LINE
  5
7F
330
1F
100
AcDbEntity
  8
0-0
  6
Continuous
 62
     4
370
     9
100
AcDbLine
 10
-310.3475325300886
 20
197.5990138698269
 30
0.0
 11
-310.3475325300886
 21
-83.40106943491335
 31
0.0
  0
LINE
  5
80
330
1F
100
AcDbEntity
  8
0-1
  6
Continuous
 62
     2
370
     9
100
AcDbLine
 10
-601.8474988311414
 20
208.0990018513214
 30
0.0
 11
-299.8475445485943
 21
208.0990018513212
 31
0.0
  0
LINE
  5
81
330
1F
100
AcDbEntity
  8
0-1
  6
Continuous
 62
     2
370
     9
100
AcDbLine
 10
-613.8475150914725
 20
220.0989131264707
 30
0.0
 11
-287.847580780854
 21
220.0989131264707
 31
0.0
  0
LINE
  5
82
330
1F
100
AcDbEntity
  8
0-1
  6
Continuous
 62
     2
370
     9
100
AcDbLine
 10
-601.8474988311414
 20
-93.90105741640767
 30
0.0
 11
-601.8474988311414
 21
208.0990018513214
 31
0.0
  0
LINE
  5
83
330
1F
100
AcDbEntity
  8
0-1
  6
Continuous
 62
     2
370
     9
100
AcDbLine
 10
-613.8475150914725
 20
-105.9010211841479
 30
0.0
 11
-613.8475150914725
 21
220.0989131264707
 31
0.0
  0
LINE
  5
84
330
1F
100
AcDbEntity
  8
0-1
  6
Continuous
 62
     2
370
     9
100
AcDbLine
 10
-299.8475445485943
 20
-93.90105741640767
 30
0.0
 11
-601.8474988311414
 21
-93.90105741640767
 31
0.0
  0
LINE
  5
85
330
1F
100
AcDbEntity
  8
0-1
  6
Continuous
 62
     2
370
     9
100
AcDbLine
 10
-299.8475445485943
 20
208.0990018513212
 30
0.0
 11
-299.8475445485943
 21
-93.90105741640767
 31
0.0
  0
LINE
  5
86
330
1F
100
AcDbEntity
  8
0-1
  6
Continuous
 62
     2
370
     9
100
AcDbLine
 10
-287.847580780854
 20
220.0989131264707
 30
0.0
 11
-287.847580780854
 21
-105.9010211841479
 31
0.0
  0
LINE
  5
87
330
1F
100
AcDbEntity
  8
0-1
  6
Continuous
 62
     2
370
     9
100
AcDbLine
 10
-287.847580780854
 20
-105.9010211841479
 30
0.0
 11
-613.8475150914725
 21
-105.9010211841479
 31
0.0
  0
LINE
  5
88
330
1F
100
AcDbEntity
  8
0-1
  6
Continuous
 62
     2
370
     9
100
AcDbLine
 10
-611.3473979699565
 20
217.5989009901365
 30
0.0
 11
-290.3475929171882
 21
217.5989009901365
 31
0.0
  0
LINE
  5
89
330
1F
100
AcDbEntity
  8
0-1
  6
Continuous
 62
     2
370
     9
100
AcDbLine
 10
-290.3475929171882
 20
217.5989009901365
 30
0.0
 11
-290.3475929171882
 21
-103.4010090478137
 31
0.0
  0
LINE
  5
8A
330
1F
100
AcDbEntity
  8
0-1
  6
Continuous
 62
     2
370
     9
100
AcDbLine
 10
-290.3475929171882
 20
-103.4010090478137
 30
0.0
 11
-611.3473979699565
 21
-103.4010090478137
 31
0.0
  0
LINE
  5
8B
330
1F
100
AcDbEntity
  8
0-1
  6
Continuous
 62
     2
370
     9
100
AcDbLine
 10
-611.3473979699565
 20
-103.4010090478137
 30
0.0
 11
-611.3473979699565
 21
217.5989009901365
 31
0.0
  0
LINE
  5
8C
330
1F
100
AcDbEntity
  8
0-1
  6
Continuous
 62
     2
370
     9
100
AcDbLine
 10
-604.3474059822936
 20
-96.40106955274177
 30
0.0
 11
-604.3474059822936
 21
210.5990139876555
 31
0.0
  0
LINE
  5
8D
330
1F
100
AcDbEntity
  8
0-1
  6
Continuous
 62
     2
370
     9
100
AcDbLine
 10
-604.3474059822936
 20
210.5990139876555
 30
0.0
 11
-297.3475324122601
 21
210.5990139876555
 31
0.0
  0
LINE
  5
8E
330
1F
100
AcDbEntity
  8
0-1
  6
Continuous
 62
     2
370
     9
100
AcDbLine
 10
-297.3475324122601
 20
-96.40106955274177
 30
0.0
 11
-604.3474059822936
 21
-96.40106955274177
 31
0.0
  0
LINE
  5
8F
330
1F
100
AcDbEntity
  8
0-1
  6
Continuous
 62
     2
370
     9
100
AcDbLine
 10
-297.3475324122601
 20
210.5990139876555
 30
0.0
 11
-297.3475324122601
 21
-96.40106955274177
 31
0.0
  0
LINE
  5
90
330
1F
100
AcDbEntity
  8
0-1
  6
Continuous
 62
     2
370
     9
100
AcDbLine
 10
-299.8475445485943
 20
-93.90105741640767
 30
0.0
 11
-287.847580780854
 21
-105.9010211841479
 31
0.0
  0
LINE
  5
91
330
1F
100
AcDbEntity
  8
0-1
  6
Continuous
 62
     2
370
     9
100
AcDbLine
 10
-601.8474988311414
 20
-93.90105741640767
 30
0.0
 11
-613.8475150914725
 21
-105.9010211841479
 31
0.0
  0
LINE
  5
92
330
1F
100
AcDbEntity
  8
0-1
  6
Continuous
 62
     2
370
     9
100
AcDbLine
 10
-601.8474988311414
 20
208.0990018513214
 30
0.0
 11
-613.8475150914725
 21
220.0989131264707
 31
0.0
  0
LINE
  5
93
330
1F
100
AcDbEntity
  8
0-1
  6
Continuous
 62
     2
370
     9
100
AcDbLine
 10
-299.8475445485943
 20
208.0990018513212
 30
0.0
 11
-287.847580780854
 21
220.0989131264707
 31
0.0
  0
LINE
  5
94
330
1F
100
AcDbEntity
  8
0-1
  6
JWW_CENTER1
 62
     2
370
     9
100
AcDbLine
 10
-390.8475453733937
 20
178.2308225889464
 30
0.0
 11
-390.8475453733937
 21
207.5233156064304
 31
0.0
  0
LINE
  5
95
330
1F
100
AcDbEntity
  8
0-A
  6
JWW_DASHED1
 62
     2
370
     9
100
AcDbLine
 10
-506.7475116980121
 20
207.0990179938239
 30
0.0
 11
-506.7475116980121
 21
206.7989703439839
 31
0.0
  0
LINE
  5
96
330
1F
100
AcDbEntity
  8
0-A
  6
JWW_DASHED1
 62
     2
370
     9
100
AcDbLine
 10
-508.7976623299498
 20
204.7490296824098
 30
0.0
 11
-506.7475116980121
 21
206.7989703439839
 31
0.0
  0
LINE
  5
97
330
1F
100
AcDbEntity
  8
0-A
  6
JWW_DASHED1
 62
     2
370
     9
100
AcDbLine
 10
-512.8975436530978
 20
204.7490296824098
 30
0.0
 11
-508.7976623299498
 21
204.7490296824098
 31
0.0
  0
LINE
  5
98
330
1F
100
AcDbEntity
  8
0-A
  6
JWW_DASHED1
 62
     2
370
     9
100
AcDbLine
 10
-512.8975436530978
 20
204.7490296824098
 30
0.0
 11
-514.9474843146718
 21
206.7989703439839
 31
0.0
  0
LINE
  5
99
330
1F
100
AcDbEntity
  8
0-A
  6
JWW_DASHED1
 62
     2
370
     9
100
AcDbLine
 10
-506.7475116980121
 20
206.7989703439839
 30
0.0
 11
-514.9474843146718
 21
206.7989703439839
 31
0.0
  0
LINE
  5
9A
330
1F
100
AcDbEntity
  8
0-A
  6
JWW_DASHED1
 62
     2
370
     9
100
AcDbLine
 10
-514.9474843146718
 20
207.0990179938239
 30
0.0
 11
-514.9474843146718
 21
206.7989703439839
 31
0.0
  0
LINE
  5
9B
330
1F
100
AcDbEntity
  8
0-A
  6
JWW_DASHED1
 62
     2
370
     9
100
AcDbLine
 10
-508.7976623299498
 20
204.7490296824098
 30
0.0
 11
-508.7976623299498
 21
198.7656092109829
 31
0.0
  0
LINE
  5
9C
330
1F
100
AcDbEntity
  8
0-A
  6
JWW_DASHED1
 62
     2
370
     9
100
AcDbLine
 10
-512.8975436530978
 20
204.7490296824098
 30
0.0
 11
-512.8975436530978
 21
198.7656092109829
 31
0.0
  0
LINE
  5
9D
330
1F
100
AcDbEntity
  8
0-A
  6
JWW_DASHED1
 62
     2
370
     9
100
AcDbLine
 10
-512.8975436530978
 20
198.7656092109829
 30
0.0
 11
-510.8476029915238
 21
182.0990016156644
 31
0.0
  0
LINE
  5
9E
330
1F
100
AcDbEntity
  8
0-A
  6
JWW_DASHED1
 62
     2
370
     9
100
AcDbLine
 10
-510.8476029915238
 20
182.0990016156644
 30
0.0
 11
-508.7976623299498
 21
198.7656092109829
 31
0.0
  0
LINE
  5
9F
330
1F
100
AcDbEntity
  8
0-A
  6
JWW_DASHED1
 62
     2
370
     9
100
AcDbLine
 10
-511.5253873258024
 20
183.5130470305337
 30
0.0
 11
-510.139792895225
 21
183.7572425636087
 31
0.0
  0
LINE
  5
A0
330
1F
100
AcDbEntity
  8
0-A
  6
JWW_DASHED1
 62
     2
370
     9
100
AcDbLine
 10
-511.7420767412222
 20
185.2748033678211
 30
0.0
 11
-509.9134448430712
 21
185.5972128614037
 31
0.0
  0
LINE
  5
A1
330
1F
100
AcDbEntity
  8
0-A
  6
JWW_DASHED1
 62
     2
370
     9
100
AcDbLine
 10
-513.2589026491612
 20
197.6073076991962
 30
0.0
 11
-508.3294284187228
 21
198.4765850052412
 31
0.0
  0
LINE
  5
A2
330
1F
100
AcDbEntity
  8
0-A
  6
JWW_DASHED1
 62
     2
370
     9
100
AcDbLine
 10
-513.0422132337414
 20
195.845551361909
 30
0.0
 11
-508.5555665005127
 21
196.6366147074461
 31
0.0
  0
LINE
  5
A3
330
1F
100
AcDbEntity
  8
0-A
  6
JWW_DASHED1
 62
     2
370
     9
100
AcDbLine
 10
-512.8255238183216
 20
194.0837950246215
 30
0.0
 11
-508.7819145526664
 21
194.796749394833
 31
0.0
  0
LINE
  5
A4
330
1F
100
AcDbEntity
  8
0-A
  6
JWW_DASHED1
 62
     2
370
     9
100
AcDbLine
 10
-512.6088344029017
 20
192.3219337021523
 30
0.0
 11
-509.0082626048202
 21
192.9568840822199
 31
0.0
  0
LINE
  5
A5
330
1F
100
AcDbEntity
  8
0-A
  6
JWW_DASHED1
 62
     2
370
     9
100
AcDbLine
 10
-512.3921449874819
 20
190.5601773648651
 30
0.0
 11
-509.2346106569738
 21
191.1169137844249
 31
0.0
  0
LINE
  5
A6
330
1F
100
AcDbEntity
  8
0-A
  6
JWW_DASHED1
 62
     2
370
     9
100
AcDbLine
 10
-512.175455572062
 20
188.7984210275776
 30
0.0
 11
-509.4609587091276
 21
189.27694348663
 31
0.0
  0
LINE
  5
A7
330
1F
100
AcDbEntity
  8
0-A
  6
JWW_DASHED1
 62
     2
370
     9
100
AcDbLine
 10
-511.9587661566421
 20
187.0365597051084
 30
0.0
 11
-509.6873067612813
 21
187.4371831591986
 31
0.0
  0
LINE
  5
A8
330
1F
100
AcDbEntity
  8
0-A
  6
JWW_DASHED1
 62
     2
370
     9
100
AcDbLine
 10
-394.9475316817234
 20
207.0990179938239
 30
0.0
 11
-394.9475316817234
 21
206.7989703439839
 31
0.0
  0
LINE
  5
A9
330
1F
100
AcDbEntity
  8
0-A
  6
JWW_DASHED1
 62
     2
370
     9
100
AcDbLine
 10
-392.8974860349676
 20
204.7490296824098
 30
0.0
 11
-394.9475316817234
 21
206.7989703439839
 31
0.0
  0
LINE
  5
AA
330
1F
100
AcDbEntity
  8
0-A
  6
JWW_DASHED1
 62
     2
370
     9
100
AcDbLine
 10
-388.7976047118198
 20
204.7490296824098
 30
0.0
 11
-392.8974860349676
 21
204.7490296824098
 31
0.0
  0
LINE
  5
AB
330
1F
100
AcDbEntity
  8
0-A
  6
JWW_DASHED1
 62
     2
370
     9
100
AcDbLine
 10
-388.7976047118198
 20
204.7490296824098
 30
0.0
 11
-386.7475590650639
 21
206.7989703439839
 31
0.0
  0
LINE
  5
AC
330
1F
100
AcDbEntity
  8
0-A
  6
JWW_DASHED1
 62
     2
370
     9
100
AcDbLine
 10
-394.9475316817234
 20
206.7989703439839
 30
0.0
 11
-386.7475590650639
 21
206.7989703439839
 31
0.0
  0
LINE
  5
AD
330
1F
100
AcDbEntity
  8
0-A
  6
JWW_DASHED1
 62
     2
370
     9
100
AcDbLine
 10
-386.7475590650639
 20
207.0990179938239
 30
0.0
 11
-386.7475590650639
 21
206.7989703439839
 31
0.0
  0
LINE
  5
AE
330
1F
100
AcDbEntity
  8
0-A
  6
JWW_DASHED1
 62
     2
370
     9
100
AcDbLine
 10
-392.8974860349676
 20
204.7490296824098
 30
0.0
 11
-392.8974860349676
 21
198.7656092109829
 31
0.0
  0
LINE
  5
AF
330
1F
100
AcDbEntity
  8
0-A
  6
JWW_DASHED1
 62
     2
370
     9
100
AcDbLine
 10
-388.7976047118198
 20
204.7490296824098
 30
0.0
 11
-388.7976047118198
 21
198.7656092109829
 31
0.0
  0
LINE
  5
B0
330
1F
100
AcDbEntity
  8
0-A
  6
JWW_DASHED1
 62
     2
370
     9
100
AcDbLine
 10
-388.7976047118198
 20
198.7656092109829
 30
0.0
 11
-390.8475453733937
 21
182.0990016156644
 31
0.0
  0
LINE
  5
B1
330
1F
100
AcDbEntity
  8
0-A
  6
JWW_DASHED1
 62
     2
370
     9
100
AcDbLine
 10
-390.8475453733937
 20
182.0990016156644
 30
0.0
 11
-392.8974860349676
 21
198.7656092109829
 31
0.0
  0
LINE
  5
B2
330
1F
100
AcDbEntity
  8
0-A
  6
JWW_DASHED1
 62
     2
370
     9
100
AcDbLine
 10
-390.1697610391153
 20
183.5130470305337
 30
0.0
 11
-391.5553554696925
 21
183.7572425636087
 31
0.0
  0
LINE
  5
B3
330
1F
100
AcDbEntity
  8
0-A
  6
JWW_DASHED1
 62
     2
370
     9
100
AcDbLine
 10
-389.9530716236953
 20
185.2748033678211
 30
0.0
 11
-391.7815985366644
 21
185.5972128614037
 31
0.0
  0
LINE
  5
B4
330
1F
100
AcDbEntity
  8
0-A
  6
JWW_DASHED1
 62
     2
370
     9
100
AcDbLine
 10
-388.4362457157562
 20
197.6073076991962
 30
0.0
 11
-393.3657199461947
 21
198.4765850052412
 31
0.0
  0
LINE
  5
B5
330
1F
100
AcDbEntity
  8
0-A
  6
JWW_DASHED1
 62
     2
370
     9
100
AcDbLine
 10
-388.652935131176
 20
195.845551361909
 30
0.0
 11
-393.1394768792229
 21
196.6366147074461
 31
0.0
  0
LINE
  5
B6
330
1F
100
AcDbEntity
  8
0-A
  6
JWW_DASHED1
 62
     2
370
     9
100
AcDbLine
 10
-388.8696245465959
 20
194.0837950246215
 30
0.0
 11
-392.9132338122511
 21
194.796749394833
 31
0.0
  0
LINE
  5
B7
330
1F
100
AcDbEntity
  8
0-A
  6
JWW_DASHED1
 62
     2
370
     9
100
AcDbLine
 10
-389.0863139620158
 20
192.3219337021523
 30
0.0
 11
-392.6868857600973
 21
192.9568840822199
 31
0.0
  0
LINE
  5
B8
330
1F
100
AcDbEntity
  8
0-A
  6
JWW_DASHED1
 62
     2
370
     9
100
AcDbLine
 10
-389.3030033774357
 20
190.5601773648651
 30
0.0
 11
-392.4605377079437
 21
191.1169137844249
 31
0.0
  0
LINE
  5
B9
330
1F
100
AcDbEntity
  8
0-A
  6
JWW_DASHED1
 62
     2
370
     9
100
AcDbLine
 10
-389.5196927928556
 20
188.7984210275776
 30
0.0
 11
-392.2341896557899
 21
189.27694348663
 31
0.0
  0
LINE
  5
BA
330
1F
100
AcDbEntity
  8
0-A
  6
JWW_DASHED1
 62
     2
370
     9
100
AcDbLine
 10
-389.7363822082755
 20
187.0365597051084
 30
0.0
 11
-392.0078416036363
 21
187.4371831591986
 31
0.0
  0
LINE
  5
BB
330
1F
100
AcDbEntity
  8
0-1
  6
JWW_CENTER1
 62
     2
370
     9
100
AcDbLine
 10
-572.8474945304016
 20
-36.54985723900509
 30
0.0
 11
-572.8474945304016
 21
-48.84257218644414
 31
0.0
  0
LINE
  5
BC
330
1F
100
AcDbEntity
  8
0-1
  6
JWW_CENTER1
 62
     2
370
     9
100
AcDbLine
 10
-566.8448617706887
 20
-42.90104080259098
 30
0.0
 11
-579.1375767181279
 21
-42.90104080259098
 31
0.0
  0
LINE
  5
BD
330
1F
100
AcDbEntity
  8
0-1
  6
JWW_CENTER1
 62
     2
370
     9
100
AcDbLine
 10
-572.8474945304016
 20
150.7478016739186
 30
0.0
 11
-572.8474945304016
 21
163.0405166213578
 31
0.0
  0
LINE
  5
BE
330
1F
100
AcDbEntity
  8
0-1
  6
JWW_CENTER1
 62
     2
370
     9
100
AcDbLine
 10
-566.8448617706887
 20
157.0989852375047
 30
0.0
 11
-579.1375767181279
 21
157.0989852375047
 31
0.0
  0
LINE
  5
BF
330
1F
100
AcDbEntity
  8
0-3
  6
Continuous
 62
     3
370
     9
100
AcDbLine
 10
-579.3475470819068
 20
-71.40094818940021
 30
0.0
 11
-579.3475470819068
 21
185.598892624314
 31
0.0
  0
LINE
  5
C0
330
1F
100
AcDbEntity
  8
0-3
  6
Continuous
 62
     3
370
     9
100
AcDbLine
 10
-322.3476012830108
 20
-71.40094818940021
 30
0.0
 11
-579.3475470819068
 21
-71.40094818940021
 31
0.0
  0
LINE
  5
C1
330
1F
100
AcDbEntity
  8
0-3
  6
Continuous
 62
     3
370
     9
100
AcDbLine
 10
-322.3476012830107
 20
185.598892624314
 30
0.0
 11
-322.3476012830108
 21
-71.40094818940021
 31
0.0
  0
LINE
  5
C2
330
1F
100
AcDbEntity
  8
0-3
  6
Continuous
 62
     3
370
     9
100
AcDbLine
 10
-579.3475470819068
 20
185.598892624314
 30
0.0
 11
-322.3476012830107
 21
185.598892624314
 31
0.0
  0
LINE
  5
C3
330
1F
100
AcDbEntity
  8
0-0
  6
Continuous
 62
     4
370
     9
100
AcDbLine
 10
-579.8474865180644
 20
-71.90094011814885
 30
0.0
 11
-579.8474865180644
 21
186.0988845530626
 31
0.0
  0
LINE
  5
C4
330
1F
100
AcDbEntity
  8
0-0
  6
Continuous
 62
     4
370
     9
100
AcDbLine
 10
-579.8474865180644
 20
186.0988845530626
 30
0.0
 11
-321.8476093542621
 21
186.0988845530626
 31
0.0
  0
LINE
  5
C5
330
1F
100
AcDbEntity
  8
0-0
  6
Continuous
 62
     4
370
     9
100
AcDbLine
 10
-600.8476199588259
 20
207.0990179938239
 30
0.0
 11
-579.8474865180644
 21
186.0988845530626
 31
0.0
  0
LINE
  5
C6
330
1F
100
AcDbEntity
  8
0-0
  6
Continuous
 62
     4
370
     9
100
AcDbLine
 10
-600.8476199588259
 20
-92.90102106631934
 30
0.0
 11
-579.8474865180644
 21
-71.90094011814885
 31
0.0
  0
LINE
  5
C7
330
1F
100
AcDbEntity
  8
0-0
  6
Continuous
 62
     4
370
     9
100
AcDbLine
 10
-321.8476093542621
 20
-71.90094011814885
 30
0.0
 11
-579.8474865180644
 21
-71.90094011814885
 31
0.0
  0
LINE
  5
C8
330
1F
100
AcDbEntity
  8
0-0
  6
Continuous
 62
     4
370
     9
100
AcDbLine
 10
-321.8476093542621
 20
-71.90099261073982
 30
0.0
 11
-300.8475808986825
 21
-92.90102106631934
 31
0.0
  0
LINE
  5
C9
330
1F
100
AcDbEntity
  8
0-0
  6
Continuous
 62
     4
370
     9
100
AcDbLine
 10
-321.8476093542621
 20
186.0988845530626
 30
0.0
 11
-300.8475808986825
 21
207.0990179938239
 31
0.0
  0
LINE
  5
CA
330
1F
100
AcDbEntity
  8
0-0
  6
Continuous
 62
     4
370
     9
100
AcDbLine
 10
-321.8476093542621
 20
186.0988845530626
 30
0.0
 11
-321.8476093542621
 21
-71.90099261073982
 31
0.0
  0
LINE
  5
CB
330
1F
100
AcDbEntity
  8
0-1
  6
JWW_CENTER1
 62
     2
370
     9
100
AcDbLine
 10
-572.8474945304016
 20
63.45015578104281
 30
0.0
 11
-572.8474945304016
 21
51.15744083360369
 31
0.0
  0
LINE
  5
CC
330
1F
100
AcDbEntity
  8
0-1
  6
JWW_CENTER1
 62
     2
370
     9
100
AcDbLine
 10
-510.8476029915238
 20
178.2308225889464
 30
0.0
 11
-510.8476029915238
 21
207.5233156064304
 31
0.0
  0
LINE
  5
CD
330
1F
100
AcDbEntity
  8
0-7
  6
Continuous
 62
     3
370
     9
100
AcDbLine
 10
-616.8475716491464
 20
0.099052458656459
 30
0.0
 11
-616.8475716491464
 21
2.399067823491094
 31
0.0
  0
LINE
  5
CE
330
1F
100
AcDbEntity
  8
0-7
  6
Continuous
 62
     3
370
     9
100
AcDbLine
 10
-636.8474587694558
 20
13.09905257648495
 30
0.0
 11
-636.8474587694558
 21
0.099052458656459
 31
0.0
  0
LINE
  5
CF
330
1F
100
AcDbEntity
  8
0-7
  6
Continuous
 62
     3
370
     9
100
AcDbLine
 10
-613.8475150914725
 20
15.09907278407042
 30
0.0
 11
-634.8474910544611
 21
15.09907278407042
 31
0.0
  0
LINE
  5
D0
330
1F
100
AcDbEntity
  8
0-7
  6
Continuous
 62
     3
370
     9
100
AcDbLine
 10
-636.8474587694558
 20
2.399067823491094
 30
0.0
 11
-613.8475150914725
 21
2.399067823491094
 31
0.0
  0
LINE
  5
D1
330
1F
100
AcDbEntity
  8
0-7
  6
Continuous
 62
     3
370
     9
100
AcDbLine
 10
-636.8474587694558
 20
0.099052458656459
 30
0.0
 11
-613.8475150914725
 21
0.099052458656459
 31
0.0
  0
LINE
  5
D2
330
1F
100
AcDbEntity
  8
0-7
  6
Continuous
 62
     3
370
     9
100
AcDbLine
 10
-616.8475716491464
 20
126.0990132217702
 30
0.0
 11
-616.8475716491464
 21
128.3990285866049
 31
0.0
  0
LINE
  5
D3
330
1F
100
AcDbEntity
  8
0-7
  6
Continuous
 62
     3
370
     9
100
AcDbLine
 10
-636.8474587694558
 20
139.0990133395988
 30
0.0
 11
-636.8474587694558
 21
126.0990132217702
 31
0.0
  0
LINE
  5
D4
330
1F
100
AcDbEntity
  8
0-7
  6
Continuous
 62
     3
370
     9
100
AcDbLine
 10
-613.8475150914725
 20
141.0990335471844
 30
0.0
 11
-634.8474910544611
 21
141.0990335471844
 31
0.0
  0
LINE
  5
D5
330
1F
100
AcDbEntity
  8
0-7
  6
Continuous
 62
     3
370
     9
100
AcDbLine
 10
-636.8474587694558
 20
128.3990285866049
 30
0.0
 11
-613.8475150914725
 21
128.3990285866049
 31
0.0
  0
LINE
  5
D6
330
1F
100
AcDbEntity
  8
0-7
  6
Continuous
 62
     3
370
     9
100
AcDbLine
 10
-636.8474587694558
 20
126.0990132217702
 30
0.0
 11
-613.8475150914725
 21
126.0990132217702
 31
0.0
  0
LINE
  5
D7
330
1F
100
AcDbEntity
  8
0-7
  6
Continuous
 62
     3
370
     9
100
AcDbLine
 10
-284.8475767157712
 20
114.0988394836663
 30
0.0
 11
-284.8475767157712
 21
111.7988241188316
 31
0.0
  0
LINE
  5
D8
330
1F
100
AcDbEntity
  8
0-7
  6
Continuous
 62
     3
370
     9
100
AcDbLine
 10
-264.8476895954618
 20
101.0988393658378
 30
0.0
 11
-264.8476895954618
 21
114.0988394836663
 31
0.0
  0
LINE
  5
D9
330
1F
100
AcDbEntity
  8
0-7
  6
Continuous
 62
     3
370
     9
100
AcDbLine
 10
-287.847633273445
 20
99.09887165084314
 30
0.0
 11
-266.8476573104563
 21
99.09887165084314
 31
0.0
  0
LINE
  5
DA
330
1F
100
AcDbEntity
  8
0-7
  6
Continuous
 62
     3
370
     9
100
AcDbLine
 10
-264.8476895954618
 20
111.7988241188316
 30
0.0
 11
-287.847633273445
 21
111.7988241188316
 31
0.0
  0
LINE
  5
DB
330
1F
100
AcDbEntity
  8
0-7
  6
Continuous
 62
     3
370
     9
100
AcDbLine
 10
-264.8476895954618
 20
114.0988394836663
 30
0.0
 11
-287.847633273445
 21
114.0988394836663
 31
0.0
  0
LINE
  5
DC
330
1F
100
AcDbEntity
  8
0-7
  6
Continuous
 62
     3
370
     9
100
AcDbLine
 10
-284.8475767157712
 20
-11.90109503315213
 30
0.0
 11
-284.8475767157712
 21
-14.20111039798684
 31
0.0
  0
LINE
  5
DD
330
1F
100
AcDbEntity
  8
0-7
  6
Continuous
 62
     3
370
     9
100
AcDbLine
 10
-264.8476895954618
 20
-24.90109515098062
 30
0.0
 11
-264.8476895954618
 21
-11.90109503315213
 31
0.0
  0
LINE
  5
DE
330
1F
100
AcDbEntity
  8
0-7
  6
Continuous
 62
     3
370
     9
100
AcDbLine
 10
-287.847633273445
 20
-26.90111535856616
 30
0.0
 11
-266.8476573104563
 21
-26.90111535856616
 31
0.0
  0
LINE
  5
DF
330
1F
100
AcDbEntity
  8
0-7
  6
Continuous
 62
     3
370
     9
100
AcDbLine
 10
-264.8476895954618
 20
-14.20111039798684
 30
0.0
 11
-287.847633273445
 21
-14.20111039798684
 31
0.0
  0
LINE
  5
E0
330
1F
100
AcDbEntity
  8
0-7
  6
Continuous
 62
     3
370
     9
100
AcDbLine
 10
-264.8476895954618
 20
-11.90109503315213
 30
0.0
 11
-287.847633273445
 21
-11.90109503315213
 31
0.0
  0
LINE
  5
E1
330
1F
100
AcDbEntity
  8
0-7
  6
Continuous
 62
     3
370
     9
100
AcDbLine
 10
-393.8476544236584
 20
-108.9010252492308
 30
0.0
 11
-396.1476697884931
 21
-108.9010252492308
 31
0.0
  0
LINE
  5
E2
330
1F
100
AcDbEntity
  8
0-7
  6
Continuous
 62
     3
370
     9
100
AcDbLine
 10
-406.8476545414869
 20
-128.9009123695402
 30
0.0
 11
-393.8476544236584
 21
-128.9009123695402
 31
0.0
  0
LINE
  5
E3
330
1F
100
AcDbEntity
  8
0-7
  6
Continuous
 62
     3
370
     9
100
AcDbLine
 10
-408.8476747490724
 20
-105.900968691557
 30
0.0
 11
-408.8476747490724
 21
-126.9009446545456
 31
0.0
  0
LINE
  5
E4
330
1F
100
AcDbEntity
  8
0-7
  6
Continuous
 62
     3
370
     9
100
AcDbLine
 10
-396.1476697884931
 20
-128.9009123695402
 30
0.0
 11
-396.1476697884931
 21
-105.900968691557
 31
0.0
  0
LINE
  5
E5
330
1F
100
AcDbEntity
  8
0-7
  6
Continuous
 62
     3
370
     9
100
AcDbLine
 10
-393.8476544236584
 20
-128.9009123695402
 30
0.0
 11
-393.8476544236584
 21
-105.900968691557
 31
0.0
  0
LINE
  5
E6
330
1F
100
AcDbEntity
  8
0-7
  6
Continuous
 62
     3
370
     9
100
AcDbLine
 10
-519.8476151867723
 20
-108.9010252492308
 30
0.0
 11
-522.147630551607
 21
-108.9010252492308
 31
0.0
  0
LINE
  5
E7
330
1F
100
AcDbEntity
  8
0-7
  6
Continuous
 62
     3
370
     9
100
AcDbLine
 10
-532.8476153046007
 20
-128.9009123695402
 30
0.0
 11
-519.8476151867723
 21
-128.9009123695402
 31
0.0
  0
LINE
  5
E8
330
1F
100
AcDbEntity
  8
0-7
  6
Continuous
 62
     3
370
     9
100
AcDbLine
 10
-534.8476355121862
 20
-105.900968691557
 30
0.0
 11
-534.8476355121862
 21
-126.9009446545456
 31
0.0
  0
LINE
  5
E9
330
1F
100
AcDbEntity
  8
0-7
  6
Continuous
 62
     3
370
     9
100
AcDbLine
 10
-522.147630551607
 20
-128.9009123695402
 30
0.0
 11
-522.147630551607
 21
-105.900968691557
 31
0.0
  0
LINE
  5
EA
330
1F
100
AcDbEntity
  8
0-7
  6
Continuous
 62
     3
370
     9
100
AcDbLine
 10
-519.8476151867723
 20
-128.9009123695402
 30
0.0
 11
-519.8476151867723
 21
-105.900968691557
 31
0.0
  0
LINE
  5
EB
330
1F
100
AcDbEntity
  8
0-7
  6
Continuous
 62
     3
370
     9
100
AcDbLine
 10
-507.8474414486681
 20
223.0989696841444
 30
0.0
 11
-505.5474260838335
 21
223.0989696841444
 31
0.0
  0
LINE
  5
EC
330
1F
100
AcDbEntity
  8
0-7
  6
Continuous
 62
     3
370
     9
100
AcDbLine
 10
-494.8474413308398
 20
243.0988568044539
 30
0.0
 11
-507.8474414486681
 21
243.0988568044539
 31
0.0
  0
LINE
  5
ED
330
1F
100
AcDbEntity
  8
0-7
  6
Continuous
 62
     3
370
     9
100
AcDbLine
 10
-492.8474736158452
 20
220.0989131264707
 30
0.0
 11
-492.8474736158452
 21
241.0988890894593
 31
0.0
  0
LINE
  5
EE
330
1F
100
AcDbEntity
  8
0-7
  6
Continuous
 62
     3
370
     9
100
AcDbLine
 10
-505.5474260838335
 20
243.0988568044539
 30
0.0
 11
-505.5474260838335
 21
220.0989131264707
 31
0.0
  0
LINE
  5
EF
330
1F
100
AcDbEntity
  8
0-7
  6
Continuous
 62
     3
370
     9
100
AcDbLine
 10
-507.8474414486681
 20
243.0988568044539
 30
0.0
 11
-507.8474414486681
 21
220.0989131264707
 31
0.0
  0
LINE
  5
F0
330
1F
100
AcDbEntity
  8
0-7
  6
Continuous
 62
     3
370
     9
100
AcDbLine
 10
-381.8474806855544
 20
223.0989696841444
 30
0.0
 11
-379.5474653207197
 21
223.0989696841444
 31
0.0
  0
LINE
  5
F1
330
1F
100
AcDbEntity
  8
0-7
  6
Continuous
 62
     3
370
     9
100
AcDbLine
 10
-368.8474805677259
 20
243.0988568044539
 30
0.0
 11
-381.8474806855544
 21
243.0988568044539
 31
0.0
  0
LINE
  5
F2
330
1F
100
AcDbEntity
  8
0-7
  6
Continuous
 62
     3
370
     9
100
AcDbLine
 10
-366.8475128527313
 20
220.0989131264707
 30
0.0
 11
-366.8475128527313
 21
241.0988890894593
 31
0.0
  0
LINE
  5
F3
330
1F
100
AcDbEntity
  8
0-7
  6
Continuous
 62
     3
370
     9
100
AcDbLine
 10
-379.5474653207197
 20
243.0988568044539
 30
0.0
 11
-379.5474653207197
 21
220.0989131264707
 31
0.0
  0
LINE
  5
F4
330
1F
100
AcDbEntity
  8
0-7
  6
Continuous
 62
     3
370
     9
100
AcDbLine
 10
-381.8474806855544
 20
243.0988568044539
 30
0.0
 11
-381.8474806855544
 21
220.0989131264707
 31
0.0
  0
LINE
  5
F5
330
1F
100
AcDbEntity
  8
0-1
  6
JWW_CENTER1
 62
     2
370
     9
100
AcDbLine
 10
-357.1987447259968
 20
-64.900948130486
 30
0.0
 11
-344.9060297785577
 21
-64.900948130486
 31
0.0
  0
LINE
  5
F6
330
1F
100
AcDbEntity
  8
0-1
  6
JWW_CENTER1
 62
     2
370
     9
100
AcDbLine
 10
-350.847561162411
 20
-58.89831537077306
 30
0.0
 11
-350.847561162411
 21
-71.19103031821219
 31
0.0
  0
LINE
  5
F7
330
1F
100
AcDbEntity
  8
0-1
  6
JWW_CENTER1
 62
     2
370
     9
100
AcDbLine
 10
-544.4964036389207
 20
-64.900948130486
 30
0.0
 11
-556.7891185863597
 21
-64.900948130486
 31
0.0
  0
LINE
  5
F8
330
1F
100
AcDbEntity
  8
0-1
  6
JWW_CENTER1
 62
     2
370
     9
100
AcDbLine
 10
-550.8475872025066
 20
-58.89831537077306
 30
0.0
 11
-550.8475872025066
 21
-71.19103031821219
 31
0.0
  0
LINE
  5
F9
330
1F
100
AcDbEntity
  8
0-1
  6
JWW_CENTER1
 62
     2
370
     9
100
AcDbLine
 10
-457.1987577460447
 20
-64.900948130486
 30
0.0
 11
-444.9060427986057
 21
-64.900948130486
 31
0.0
  0
LINE
  5
FA
330
1F
100
AcDbEntity
  8
0-1
  6
JWW_CENTER1
 62
     2
370
     9
100
AcDbLine
 10
-328.8476538345159
 20
150.7478016739186
 30
0.0
 11
-328.8476538345159
 21
163.0405166213578
 31
0.0
  0
LINE
  5
FB
330
1F
100
AcDbEntity
  8
0-1
  6
JWW_CENTER1
 62
     2
370
     9
100
AcDbLine
 10
-334.8502865942288
 20
157.0989852375047
 30
0.0
 11
-322.5575716467897
 21
157.0989852375047
 31
0.0
  0
LINE
  5
FC
330
1F
100
AcDbEntity
  8
0-1
  6
JWW_CENTER1
 62
     2
370
     9
100
AcDbLine
 10
-328.8476538345159
 20
-36.54985723900509
 30
0.0
 11
-328.8476538345159
 21
-48.84257218644414
 31
0.0
  0
LINE
  5
FD
330
1F
100
AcDbEntity
  8
0-1
  6
JWW_CENTER1
 62
     2
370
     9
100
AcDbLine
 10
-334.8502865942288
 20
-42.90104080259098
 30
0.0
 11
-322.5575716467897
 21
-42.90104080259098
 31
0.0
  0
LINE
  5
FE
330
1F
100
AcDbEntity
  8
0-1
  6
JWW_CENTER1
 62
     2
370
     9
100
AcDbLine
 10
-328.8476538345159
 20
50.74778865387088
 30
0.0
 11
-328.8476538345159
 21
63.04050360130994
 31
0.0
  0
LINE
  5
FF
330
1F
100
AcDbEntity
  8
0-1
  6
JWW_CENTER1
 62
     2
370
     9
100
AcDbLine
 10
-544.4964036389207
 20
179.0988925653997
 30
0.0
 11
-556.7891185863597
 21
179.0988925653997
 31
0.0
  0
LINE
  5
100
330
1F
100
AcDbEntity
  8
0-1
  6
JWW_CENTER1
 62
     2
370
     9
100
AcDbLine
 10
-550.8475872025066
 20
173.0962598056868
 30
0.0
 11
-550.8475872025066
 21
185.388974753126
 31
0.0
  0
LINE
  5
101
330
1F
100
AcDbEntity
  8
0-1
  6
JWW_CENTER1
 62
     2
370
     9
100
AcDbLine
 10
-357.1987447259968
 20
179.0988925653997
 30
0.0
 11
-344.9060297785577
 21
179.0988925653997
 31
0.0
  0
LINE
  5
102
330
1F
100
AcDbEntity
  8
0-1
  6
JWW_CENTER1
 62
     2
370
     9
100
AcDbLine
 10
-350.847561162411
 20
173.0962598056868
 30
0.0
 11
-350.847561162411
 21
185.388974753126
 31
0.0
  0
LINE
  5
103
330
1F
100
AcDbEntity
  8
0-1
  6
JWW_CENTER1
 62
     2
370
     9
100
AcDbLine
 10
-444.4963906188729
 20
179.0988925653997
 30
0.0
 11
-456.7891055663119
 21
179.0988925653997
 31
0.0
  0
CIRCLE
  5
104
330
1F
100
AcDbEntity
  8
0-1
  6
JWW_DASHED1
 62
     2
370
     9
100
AcDbCircle
 10
-572.8474945304016
 20
-42.90104080259098
 30
0.0
 40
1.999999907716361
  0
CIRCLE
  5
105
330
1F
100
AcDbEntity
  8
0-1
  6
JWW_DASHED1
 62
     2
370
     9
100
AcDbCircle
 10
-572.8474945304016
 20
157.0989852375047
 30
0.0
 40
1.999999907716361
  0
CIRCLE
  5
106
330
1F
100
AcDbEntity
  8
0-1
  6
JWW_DASHED1
 62
     2
370
     9
100
AcDbCircle
 10
-572.8474945304016
 20
57.09897221745678
 30
0.0
 40
1.999999907716361
  0
ARC
  5
107
330
1F
100
AcDbEntity
  8
0-7
  6
Continuous
 62
     3
370
     9
100
AcDbCircle
 10
-634.8474910544611
 20
13.09905257648495
 30
0.0
 40
2.000000112765544
100
AcDbArc
 50
90.0
 51
180.0
  0
ARC
  5
108
330
1F
100
AcDbEntity
  8
0-7
  6
Continuous
 62
     3
370
     9
100
AcDbCircle
 10
-634.8474910544611
 20
139.0990133395988
 30
0.0
 40
2.000000112765544
100
AcDbArc
 50
90.0
 51
180.0
  0
ARC
  5
109
330
1F
100
AcDbEntity
  8
0-7
  6
Continuous
 62
     3
370
     9
100
AcDbCircle
 10
-266.8476573104563
 20
101.0988393658378
 30
0.0
 40
2.000000112765544
100
AcDbArc
 50
270.0
 51
0.0
  0
ARC
  5
10A
330
1F
100
AcDbEntity
  8
0-7
  6
Continuous
 62
     3
370
     9
100
AcDbCircle
 10
-266.8476573104563
 20
-24.90109515098062
 30
0.0
 40
2.000000112765544
100
AcDbArc
 50
270.0
 51
0.0
  0
ARC
  5
10B
330
1F
100
AcDbEntity
  8
0-7
  6
Continuous
 62
     3
370
     9
100
AcDbCircle
 10
-406.8476545414869
 20
-126.9009446545456
 30
0.0
 40
2.000000112765544
100
AcDbArc
 50
180.0
 51
270.0
  0
ARC
  5
10C
330
1F
100
AcDbEntity
  8
0-7
  6
Continuous
 62
     3
370
     9
100
AcDbCircle
 10
-532.8476153046007
 20
-126.9009446545456
 30
0.0
 40
2.000000112765544
100
AcDbArc
 50
180.0
 51
270.0
  0
ARC
  5
10D
330
1F
100
AcDbEntity
  8
0-7
  6
Continuous
 62
     3
370
     9
100
AcDbCircle
 10
-494.8474413308398
 20
241.0988890894593
 30
0.0
 40
2.000000112765544
100
AcDbArc
 50
0.0
 51
90.0
  0
ARC
  5
10E
330
1F
100
AcDbEntity
  8
0-7
  6
Continuous
 62
     3
370
     9
100
AcDbCircle
 10
-368.8474805677259
 20
241.0988890894593
 30
0.0
 40
2.000000112765544
100
AcDbArc
 50
0.0
 51
90.0
  0
CIRCLE
  5
10F
330
1F
100
AcDbEntity
  8
0-1
  6
JWW_DASHED1
 62
     2
370
     9
100
AcDbCircle
 10
-350.847561162411
 20
-64.900948130486
 30
0.0
 40
1.999999907716361
  0
CIRCLE
  5
110
330
1F
100
AcDbEntity
  8
0-1
  6
JWW_DASHED1
 62
     2
370
     9
100
AcDbCircle
 10
-550.8475872025066
 20
-64.900948130486
 30
0.0
 40
1.999999907716361
  0
CIRCLE
  5
111
330
1F
100
AcDbEntity
  8
0-1
  6
JWW_DASHED1
 62
     2
370
     9
100
AcDbCircle
 10
-450.8475741824588
 20
-64.900948130486
 30
0.0
 40
1.999999907716361
  0
CIRCLE
  5
112
330
1F
100
AcDbEntity
  8
0-1
  6
JWW_DASHED1
 62
     2
370
     9
100
AcDbCircle
 10
-328.8476538345159
 20
157.0989852375047
 30
0.0
 40
1.999999907716361
  0
CIRCLE
  5
113
330
1F
100
AcDbEntity
  8
0-1
  6
JWW_DASHED1
 62
     2
370
     9
100
AcDbCircle
 10
-328.8476538345159
 20
-42.90104080259098
 30
0.0
 40
1.999999907716361
  0
CIRCLE
  5
114
330
1F
100
AcDbEntity
  8
0-1
  6
JWW_DASHED1
 62
     2
370
     9
100
AcDbCircle
 10
-328.8476538345159
 20
57.09897221745678
 30
0.0
 40
1.999999907716361
  0
CIRCLE
  5
115
330
1F
100
AcDbEntity
  8
0-1
  6
JWW_DASHED1
 62
     2
370
     9
100
AcDbCircle
 10
-550.8475872025066
 20
179.0988925653997
 30
0.0
 40
1.999999907716361
  0
CIRCLE
  5
116
330
1F
100
AcDbEntity
  8
0-1
  6
JWW_DASHED1
 62
     2
370
     9
100
AcDbCircle
 10
-350.847561162411
 20
179.0988925653997
 30
0.0
 40
1.999999907716361
  0
CIRCLE
  5
117
330
1F
100
AcDbEntity
  8
0-1
  6
JWW_DASHED1
 62
     2
370
     9
100
AcDbCircle
 10
-450.8475741824588
 20
179.0988925653997
 30
0.0
 40
1.999999907716361
  0
LINE
  5
118
330
1F
100
AcDbEntity
  8
0-0
  6
JWW_CENTER1
 62
     4
370
     9
100
AcDbLine
 10
-450.8475741824588
 20
-125.9010211841479
 30
0.0
 11
-450.8475741824588
 21
240.0989131264707
 31
0.0
  0
LINE
  5
119
330
1F
100
AcDbEntity
  8
0-0
  6
JWW_CENTER1
 62
     4
370
     9
100
AcDbLine
 10
-267.847580780854
 20
57.09897221745678
 30
0.0
 11
-633.8475150914725
 21
57.09897221745678
 31
0.0
  0
LINE
  5
11A
330
1F
100
AcDbEntity
  8
0-9
  6
JWW_DASHED3
 62
     2
370
     9
100
AcDbLine
 10
-575.8475741824587
 20
-67.90102778254322
 30
0.0
 11
-325.8475741824588
 21
-67.90102778254322
 31
0.0
  0
LINE
  5
11B
330
1F
100
AcDbEntity
  8
0-9
  6
JWW_DASHED3
 62
     2
370
     9
100
AcDbLine
 10
-325.8475741824588
 20
-67.90102778254322
 30
0.0
 11
-325.8475741824588
 21
182.0989722174568
 31
0.0
  0
LINE
  5
11C
330
1F
100
AcDbEntity
  8
0-9
  6
JWW_DASHED3
 62
     2
370
     9
100
AcDbLine
 10
-325.8475741824588
 20
182.0989722174568
 30
0.0
 11
-575.8475741824587
 21
182.0989722174568
 31
0.0
  0
LINE
  5
11D
330
1F
100
AcDbEntity
  8
0-9
  6
JWW_DASHED3
 62
     2
370
     9
100
AcDbLine
 10
-575.8475741824587
 20
182.0989722174568
 30
0.0
 11
-575.8475741824587
 21
-67.90102778254322
 31
0.0
  0
LINE
  5
11E
330
1F
100
AcDbEntity
  8
0-4
  6
Continuous
 62
     7
370
     9
100
AcDbLine
 10
-575.8475741824587
 20
267.5077242464633
 30
0.0
 11
-325.8475741824588
 21
267.5077242464633
 31
0.0
  0
LWPOLYLINE
  5
11F
330
1F
100
AcDbEntity
  8
0-4
  6
Continuous
 62
     7
370
     9
100
AcDbPolyline
 90
        4
 70
     1
 43
0.5
 10
-575.5975741824589
 20
267.5077242464633
 42
0.4142135623731
 10
-575.8475741824587
 20
267.7577242464633
 42
0.4142135623731
 10
-576.0975741824587
 20
267.5077242464633
 42
0.4142135623731
 10
-575.8475741824587
 20
267.2577242464633
 42
0.4142135623731
  0
LWPOLYLINE
  5
120
330
1F
100
AcDbEntity
  8
0-4
  6
Continuous
 62
     7
370
     9
100
AcDbPolyline
 90
        4
 70
     1
 43
0.5
 10
-325.5975741824588
 20
267.5077242464633
 42
0.4142135623731
 10
-325.8475741824588
 20
267.7577242464633
 42
0.4142135623731
 10
-326.0975741824587
 20
267.5077242464633
 42
0.4142135623731
 10
-325.8475741824588
 20
267.2577242464633
 42
0.4142135623731
  0
TEXT
  5
121
330
1F
100
AcDbEntity
  8
0-4
  6
Continuous
 62
     2
370
   211
100
AcDbText
 10
-467.0975741824588
 20
273.3277243656726
 30
0.0
 40
15.24
  1
250
 41
1.083333333333333
  7
ＭＳ ゴシック
100
AcDbText
  0
LINE
  5
122
330
1F
100
AcDbEntity
  8
0-4
  6
Continuous
 62
     7
370
     9
100
AcDbLine
 10
-575.8475741824587
 20
269.0077243060679
 30
0.0
 11
-575.8475741824587
 21
227.6002584921348
 31
0.0
  0
LINE
  5
123
330
1F
100
AcDbEntity
  8
0-4
  6
Continuous
 62
     7
370
     9
100
AcDbLine
 10
-325.8475741824588
 20
269.0077243060679
 30
0.0
 11
-325.8475741824588
 21
227.6002584921348
 31
0.0
  0
LINE
  5
124
330
1F
100
AcDbEntity
  8
0-4
  6
Continuous
 62
     7
370
     9
100
AcDbLine
 10
-661.2559937560884
 20
182.0985574491047
 30
0.0
 11
-661.2538065581986
 21
-67.90144254132755
 31
0.0
  0
LWPOLYLINE
  5
125
330
1F
100
AcDbEntity
  8
0-4
  6
Continuous
 62
     7
370
     9
100
AcDbPolyline
 90
        4
 70
     1
 43
0.5
 10
-661.0059937560884
 20
182.0985574491047
 42
0.4142135623731
 10
-661.2559937560884
 20
182.3485574491047
 42
0.4142135623731
 10
-661.5059937560885
 20
182.0985574491047
 42
0.4142135623731
 10
-661.2559937560884
 20
181.8485574491048
 42
0.4142135623731
  0
LWPOLYLINE
  5
126
330
1F
100
AcDbEntity
  8
0-4
  6
Continuous
 62
     7
370
     9
100
AcDbPolyline
 90
        4
 70
     1
 43
0.5
 10
-661.0038065581984
 20
-67.90144254132755
 42
0.4142135623731
 10
-661.2538065581986
 20
-67.65144254132755
 42
0.4142135623731
 10
-661.5038065581986
 20
-67.90144254132755
 42
0.4142135623731
 10
-661.2538065581986
 20
-68.15144254132755
 42
0.4142135623731
  0
LINE
  5
127
330
1F
100
AcDbEntity
  8
0-4
  6
Continuous
 62
     7
370
     9
100
AcDbLine
 10
-662.7559938156356
 20
182.0985443259169
 30
0.0
 11
-621.3485280032872
 21
182.0989065912044
 31
0.0
  0
LINE
  5
128
330
1F
100
AcDbEntity
  8
0-4
  6
Continuous
 62
     7
370
     9
100
AcDbLine
 10
-662.7538066177458
 20
-67.90145566451542
 30
0.0
 11
-621.3463408053973
 21
-67.901093399228
 31
0.0
  0
TEXT
  5
129
330
1F
100
AcDbEntity
  8
0-4
  6
Continuous
 62
     2
370
   211
100
AcDbText
 10
-667.0747581082671
 20
40.84850653654257
 30
0.0
 40
15.24
  1
250
 50
90.00050126883222
 41
1.083333333333333
  7
ＭＳ ゴシック
100
AcDbText
  0
LINE
  5
12A
330
1F
100
AcDbEntity
  8
0-0
  6
JWW_DASHED1
 62
   211
370
     5
100
AcDbLine
 10
-567.8474702577333
 20
-59.90081887263571
 30
0.0
 11
-567.8474702577333
 21
174.0987633075494
 31
0.0
  0
LINE
  5
12B
330
1F
100
AcDbEntity
  8
0-0
  6
JWW_DASHED1
 62
   211
370
     5
100
AcDbLine
 10
-567.8474702577333
 20
174.0987633075494
 30
0.0
 11
-333.8477305997753
 21
174.0987633075494
 31
0.0
  0
LINE
  5
12C
330
1F
100
AcDbEntity
  8
0-0
  6
JWW_DASHED1
 62
   211
370
     5
100
AcDbLine
 10
-333.8477305997753
 20
174.0987633075494
 30
0.0
 11
-333.847888077548
 21
-59.90081887263571
 31
0.0
  0
LINE
  5
12D
330
1F
100
AcDbEntity
  8
0-0
  6
JWW_DASHED1
 62
   211
370
     5
100
AcDbLine
 10
-333.847888077548
 20
-59.90081887263571
 30
0.0
 11
-567.8474702577333
 21
-59.90081887263571
 31
0.0
  0
LINE
  5
12E
330
1F
100
AcDbEntity
  8
D-4
  6
Continuous
 62
     7
370
     9
100
AcDbLine
 10
305.548838022593
 20
13.07032692462485
 30
0.0
 11
570.81298828125
 21
13.07032692462485
 31
0.0
  0
LINE
  5
12F
330
1F
100
AcDbEntity
  8
D-1
  6
Continuous
 62
     2
370
     9
100
AcDbLine
 10
535.7997584987331
 20
451.6446693945361
 30
0.0
 11
542.049840978674
 21
447.8947188825007
 31
0.0
  0
LINE
  5
130
330
1F
100
AcDbEntity
  8
D-1
  6
Continuous
 62
     2
370
     9
100
AcDbLine
 10
542.049840978674
 20
447.8947188825007
 30
0.0
 11
542.049840978674
 21
446.644652898548
 31
0.0
  0
LINE
  5
131
330
1F
100
AcDbEntity
  8
D-5
  6
Continuous
 62
     7
370
     9
100
AcDbLine
 10
493.2999894425677
 20
375.3947271304949
 30
0.0
 11
493.2999894425677
 21
373.0065616823318
 31
0.0
  0
LINE
  5
132
330
1F
100
AcDbEntity
  8
D-5
  6
Continuous
 62
     7
370
     9
100
AcDbLine
 10
465.7997749947214
 20
375.3947271304949
 30
0.0
 11
465.7997749947214
 21
373.0065616823318
 31
0.0
  0
LINE
  5
133
330
1F
100
AcDbEntity
  8
D-5
  6
Continuous
 62
     7
370
     9
100
AcDbLine
 10
490.1749482025971
 20
381.6446858905244
 30
0.0
 11
490.1749482025971
 21
375.3947271304949
 31
0.0
  0
LINE
  5
134
330
1F
100
AcDbEntity
  8
D-5
  6
Continuous
 62
     7
370
     9
100
AcDbLine
 10
493.2999894425677
 20
375.3947271304949
 30
0.0
 11
490.1749482025971
 21
375.3947271304949
 31
0.0
  0
LINE
  5
135
330
1F
100
AcDbEntity
  8
D-5
  6
Continuous
 62
     7
370
     9
100
AcDbLine
 10
468.9248162346919
 20
381.6446858905244
 30
0.0
 11
468.9248162346919
 21
375.3947271304949
 31
0.0
  0
LINE
  5
136
330
1F
100
AcDbEntity
  8
D-5
  6
Continuous
 62
     7
370
     9
100
AcDbLine
 10
468.9248162346919
 20
375.3947271304949
 30
0.0
 11
465.7997749947214
 21
375.3947271304949
 31
0.0
  0
LINE
  5
137
330
1F
100
AcDbEntity
  8
D-5
  6
Continuous
 62
     7
370
     9
100
AcDbLine
 10
487.0499069626268
 20
381.6446858905244
 30
0.0
 11
487.0499069626268
 21
373.1959768665589
 31
0.0
  0
LINE
  5
138
330
1F
100
AcDbEntity
  8
D-5
  6
Continuous
 62
     7
370
     9
100
AcDbLine
 10
487.0499069626268
 20
381.6446858905244
 30
0.0
 11
472.0499811945734
 21
381.6446858905244
 31
0.0
  0
LINE
  5
139
330
1F
100
AcDbEntity
  8
D-5
  6
Continuous
 62
     7
370
     9
100
AcDbLine
 10
472.0499811945734
 20
381.6446858905244
 30
0.0
 11
472.0499811945734
 21
373.1959768665589
 31
0.0
  0
LINE
  5
13A
330
1F
100
AcDbEntity
  8
D-1
  6
Continuous
 62
     2
370
     9
100
AcDbLine
 10
512.0496182828335
 20
381.6446858905244
 30
0.0
 11
493.2999894425677
 21
381.6446858905244
 31
0.0
  0
LINE
  5
13B
330
1F
100
AcDbEntity
  8
D-1
  6
Continuous
 62
     2
370
     9
100
AcDbLine
 10
465.7997749947214
 20
381.6446858905244
 30
0.0
 11
447.0497749947214
 21
381.6446858905244
 31
0.0
  0
LINE
  5
13C
330
1F
100
AcDbEntity
  8
D-1
  6
Continuous
 62
     2
370
     9
100
AcDbLine
 10
495.1749646985854
 20
376.6447931144475
 30
0.0
 11
493.2999894425677
 21
376.6447931144475
 31
0.0
  0
LINE
  5
13D
330
1F
100
AcDbEntity
  8
D-1
  6
Continuous
 62
     2
370
     9
100
AcDbLine
 10
463.9247997387037
 20
376.6447931144475
 30
0.0
 11
465.7997749947214
 21
376.6447931144475
 31
0.0
  0
LINE
  5
13E
330
1F
100
AcDbEntity
  8
D-1
  6
Continuous
 62
     2
370
     9
100
AcDbLine
 10
485.1748079866977
 20
349.1445786666012
 30
0.0
 11
485.1748079866977
 21
346.6445704186071
 31
0.0
  0
LINE
  5
13F
330
1F
100
AcDbEntity
  8
D-1
  6
Continuous
 62
     2
370
     9
100
AcDbLine
 10
488.9248822186445
 20
349.1445786666012
 30
0.0
 11
485.1748079866977
 21
349.1445786666012
 31
0.0
  0
LINE
  5
140
330
1F
100
AcDbEntity
  8
D-1
  6
Continuous
 62
     2
370
     9
100
AcDbLine
 10
488.9248822186445
 20
357.8947931144475
 30
0.0
 11
488.9248822186445
 21
349.1445786666012
 31
0.0
  0
LINE
  5
141
330
1F
100
AcDbEntity
  8
D-1
  6
Continuous
 62
     2
370
     9
100
AcDbLine
 10
473.9249564505914
 20
349.1445786666012
 30
0.0
 11
473.9249564505914
 21
346.6445704186071
 31
0.0
  0
LINE
  5
142
330
1F
100
AcDbEntity
  8
D-1
  6
Continuous
 62
     2
370
     9
100
AcDbLine
 10
470.1748822186445
 20
349.1445786666012
 30
0.0
 11
473.9249564505914
 21
349.1445786666012
 31
0.0
  0
LINE
  5
143
330
1F
100
AcDbEntity
  8
D-1
  6
Continuous
 62
     2
370
     9
100
AcDbLine
 10
488.9248822186445
 20
357.8947931144475
 30
0.0
 11
470.1748822186445
 21
357.8947931144475
 31
0.0
  0
LINE
  5
144
330
1F
100
AcDbEntity
  8
D-1
  6
Continuous
 62
     2
370
     9
100
AcDbLine
 10
470.1748822186445
 20
357.8947931144475
 30
0.0
 11
470.1748822186445
 21
349.1445786666012
 31
0.0
  0
LINE
  5
145
330
1F
100
AcDbEntity
  8
D-1
  6
Continuous
 62
     2
370
     9
100
AcDbLine
 10
453.2996100348396
 20
376.6447931144475
 30
0.0
 11
457.6745935388513
 21
376.6447931144475
 31
0.0
  0
LINE
  5
146
330
1F
100
AcDbEntity
  8
D-1
  6
Continuous
 62
     2
370
     9
100
AcDbLine
 10
447.0497749947214
 20
381.6446858905244
 30
0.0
 11
447.0497749947214
 21
346.6445704186071
 31
0.0
  0
LINE
  5
147
330
1F
100
AcDbEntity
  8
D-1
  6
Continuous
 62
     2
370
     9
100
AcDbLine
 10
450.7998492266682
 20
352.894652898548
 30
0.0
 11
450.7998492266682
 21
374.1446611465421
 31
0.0
  0
LINE
  5
148
330
1F
100
AcDbEntity
  8
D-1
  6
Continuous
 62
     2
370
     9
100
AcDbLine
 10
463.9251708984375
 20
350.394644650554
 30
0.0
 11
453.2996100348396
 21
350.394644650554
 31
0.0
  0
LINE
  5
149
330
1F
100
AcDbEntity
  8
D-1
  6
Continuous
 62
     2
370
     9
100
AcDbLine
 10
466.4248079866977
 20
355.3946611465421
 30
0.0
 11
466.4248079866977
 21
352.894652898548
 31
0.0
  0
LINE
  5
14A
330
1F
100
AcDbEntity
  8
D-1
  6
Continuous
 62
     2
370
     9
100
AcDbLine
 10
462.6747337547511
 20
357.8947931144475
 30
0.0
 11
463.9251708984375
 21
357.8947931144475
 31
0.0
  0
LINE
  5
14B
330
1F
100
AcDbEntity
  8
D-1
  6
Continuous
 62
     2
370
     9
100
AcDbLine
 10
460.1750966664909
 20
360.3946776425303
 30
0.0
 11
460.1750966664909
 21
374.1446611465421
 31
0.0
  0
LINE
  5
14C
330
1F
100
AcDbEntity
  8
D-1
  6
Continuous
 62
     2
370
     9
100
AcDbLine
 10
524.5499069626269
 20
351.6445869145952
 30
0.0
 11
517.0501296584672
 21
351.6445869145952
 31
0.0
  0
LINE
  5
14D
330
1F
100
AcDbEntity
  8
D-1
  6
Continuous
 62
     2
370
     9
100
AcDbLine
 10
509.5499811945734
 20
376.6447931144475
 30
0.0
 11
501.4247997387037
 21
376.6447931144475
 31
0.0
  0
LINE
  5
14E
330
1F
100
AcDbEntity
  8
D-1
  6
Continuous
 62
     2
370
     9
100
AcDbLine
 10
498.9250389305323
 20
361.6448673463943
 30
0.0
 11
498.9250389305323
 21
374.1446611465421
 31
0.0
  0
LINE
  5
14F
330
1F
100
AcDbEntity
  8
D-1
  6
Continuous
 62
     2
370
     9
100
AcDbLine
 10
495.1749646985854
 20
357.8947931144475
 30
0.0
 11
492.6745852908573
 21
357.8947931144475
 31
0.0
  0
LINE
  5
150
330
1F
100
AcDbEntity
  8
D-1
  6
Continuous
 62
     2
370
     9
100
AcDbLine
 10
529.5499234586148
 20
354.1447188825007
 30
0.0
 11
529.5499234586148
 21
346.6445704186071
 31
0.0
  0
LINE
  5
151
330
1F
100
AcDbEntity
  8
D-1
  6
Continuous
 62
     2
370
     9
100
AcDbLine
 10
524.5499069626269
 20
354.1447188825007
 30
0.0
 11
524.5499069626269
 21
351.6445869145952
 31
0.0
  0
LINE
  5
152
330
1F
100
AcDbEntity
  8
D-1
  6
Continuous
 62
     2
370
     9
100
AcDbLine
 10
512.0496182828335
 20
352.894652898548
 30
0.0
 11
512.0496182828335
 21
374.1446611465421
 31
0.0
  0
LINE
  5
153
330
1F
100
AcDbEntity
  8
D-1
  6
Continuous
 62
     2
370
     9
100
AcDbLine
 10
495.1749646985854
 20
350.394644650554
 30
0.0
 11
509.5499811945734
 21
350.394644650554
 31
0.0
  0
LINE
  5
154
330
1F
100
AcDbEntity
  8
D-1
  6
Continuous
 62
     2
370
     9
100
AcDbLine
 10
492.6745852908573
 20
352.894652898548
 30
0.0
 11
492.6745852908573
 21
357.8947931144475
 31
0.0
  0
LINE
  5
155
330
1F
100
AcDbEntity
  8
D-1
  6
Continuous
 62
     2
370
     9
100
AcDbLine
 10
529.5499234586148
 20
401.6445044346543
 30
0.0
 11
517.0501296584672
 21
401.6445044346543
 31
0.0
  0
LINE
  5
156
330
1F
100
AcDbEntity
  8
D-1
  6
Continuous
 62
     2
370
     9
100
AcDbLine
 10
529.5499234586148
 20
394.1443559707608
 30
0.0
 11
529.5499234586148
 21
401.6445044346543
 31
0.0
  0
LINE
  5
157
330
1F
100
AcDbEntity
  8
D-1
  6
Continuous
 62
     2
370
     9
100
AcDbLine
 10
524.5499069626269
 20
394.1443559707608
 30
0.0
 11
524.5499069626269
 21
396.6447353784889
 31
0.0
  0
LINE
  5
158
330
1F
100
AcDbEntity
  8
D-1
  6
Continuous
 62
     2
370
     9
100
AcDbLine
 10
524.5499069626269
 20
396.6447353784889
 30
0.0
 11
517.0501296584672
 21
396.6447353784889
 31
0.0
  0
LINE
  5
159
330
1F
100
AcDbEntity
  8
D-1
  6
Continuous
 62
     2
370
     9
100
AcDbLine
 10
517.0501296584672
 20
396.6447353784889
 30
0.0
 11
517.0501296584672
 21
351.6445869145952
 31
0.0
  0
LINE
  5
15A
330
1F
100
AcDbEntity
  8
D-1
  6
Continuous
 62
     2
370
     9
100
AcDbLine
 10
522.0497749947214
 20
446.644652898548
 30
0.0
 11
542.049840978674
 21
446.644652898548
 31
0.0
  0
LINE
  5
15B
330
1F
100
AcDbEntity
  8
D-1
  6
Continuous
 62
     2
370
     9
100
AcDbLine
 10
517.0501296584672
 20
441.6446364025598
 30
0.0
 11
517.0501296584672
 21
401.6445044346543
 31
0.0
  0
LINE
  5
15C
330
1F
100
AcDbEntity
  8
D-1
  6
Continuous
 62
     2
370
     9
100
AcDbLine
 10
529.5499234586148
 20
346.6445704186071
 30
0.0
 11
485.1748079866977
 21
346.6445704186071
 31
0.0
  0
LINE
  5
15D
330
1F
100
AcDbEntity
  8
D-1
  6
Continuous
 62
     2
370
     9
100
AcDbLine
 10
473.9249564505914
 20
346.6445704186071
 30
0.0
 11
447.0497749947214
 21
346.6445704186071
 31
0.0
  0
LINE
  5
15E
330
1F
100
AcDbEntity
  8
D-1
  6
Continuous
 62
     2
370
     9
100
AcDbLine
 10
480.2996248812289
 20
362.1445720682059
 30
0.0
 11
478.799768396326
 21
362.1445720682059
 31
0.0
  0
LINE
  5
15F
330
1F
100
AcDbEntity
  8
D-1
  6
Continuous
 62
     2
370
     9
100
AcDbLine
 10
480.2996248812289
 20
362.8945621706131
 30
0.0
 11
480.2996248812289
 21
362.1445720682059
 31
0.0
  0
LINE
  5
160
330
1F
100
AcDbEntity
  8
D-1
  6
Continuous
 62
     2
370
     9
100
AcDbLine
 10
478.799768396326
 20
362.8945621706131
 30
0.0
 11
478.799768396326
 21
362.1445720682059
 31
0.0
  0
LINE
  5
161
330
1F
100
AcDbEntity
  8
D-1
  6
Continuous
 62
     2
370
     9
100
AcDbLine
 10
495.1749646985854
 20
365.3945704186071
 30
0.0
 11
495.1749646985854
 21
376.6447931144475
 31
0.0
  0
LINE
  5
162
330
1F
100
AcDbEntity
  8
D-1
  6
Continuous
 62
     2
370
     9
100
AcDbLine
 10
492.6749564505914
 20
362.8945621706131
 30
0.0
 11
480.2996248812289
 21
362.8945621706131
 31
0.0
  0
LINE
  5
163
330
1F
100
AcDbEntity
  8
D-1
  6
Continuous
 62
     2
370
     9
100
AcDbLine
 10
466.4248079866977
 20
362.8945621706131
 30
0.0
 11
478.799768396326
 21
362.8945621706131
 31
0.0
  0
LINE
  5
164
330
1F
100
AcDbEntity
  8
D-1
  6
Continuous
 62
     2
370
     9
100
AcDbLine
 10
463.9247997387037
 20
365.3945704186071
 30
0.0
 11
463.9247997387037
 21
376.6447931144475
 31
0.0
  0
LINE
  5
165
330
1F
100
AcDbEntity
  8
D-1
  6
JWW_CENTER1
 62
     2
370
     9
100
AcDbLine
 10
479.5500059385557
 20
385.8543795930159
 30
0.0
 11
479.5500059385557
 21
344.0132953447051
 31
0.0
  0
LINE
  5
166
330
1F
100
AcDbEntity
  8
D-1
  6
Continuous
 62
     2
370
     9
100
AcDbLine
 10
535.7997584987331
 20
451.6446693945361
 30
0.0
 11
518.2997007627745
 21
451.6446693945361
 31
0.0
  0
LINE
  5
167
330
1F
100
AcDbEntity
  8
D-1
  6
Continuous
 62
     2
370
     9
100
AcDbLine
 10
518.2997007627745
 20
451.6446693945361
 30
0.0
 11
512.0496182828335
 21
446.644652898548
 31
0.0
  0
LINE
  5
168
330
1F
100
AcDbEntity
  8
D-1
  6
Continuous
 62
     2
370
     9
100
AcDbLine
 10
512.0496182828335
 20
446.644652898548
 30
0.0
 11
512.0496182828335
 21
381.6446858905244
 31
0.0
  0
LINE
  5
169
330
1F
100
AcDbEntity
  8
D-1
  6
Continuous
 62
     2
370
     9
100
AcDbLine
 10
537.049824482686
 20
343.0198244568251
 30
0.0
 11
599.5499069626269
 21
343.0198244568251
 31
0.0
  0
LINE
  5
16A
330
1F
100
AcDbEntity
  8
D-1
  6
Continuous
 62
     2
370
     9
100
AcDbLine
 10
518.79977664432
 20
396.0197023865126
 30
0.0
 11
524.5499069626269
 21
396.0197023865126
 31
0.0
  0
LINE
  5
16B
330
1F
100
AcDbEntity
  8
D-1
  6
Continuous
 62
     2
370
     9
100
AcDbLine
 10
524.5499069626269
 20
352.2696199065717
 30
0.0
 11
518.79977664432
 21
352.2696199065717
 31
0.0
  0
LINE
  5
16C
330
1F
100
AcDbEntity
  8
D-1
  6
Continuous
 62
     2
370
     9
100
AcDbLine
 10
518.79977664432
 20
396.0197023865126
 30
0.0
 11
518.79977664432
 21
352.2696199065717
 31
0.0
  0
LINE
  5
16D
330
1F
100
AcDbEntity
  8
D-1
  6
Continuous
 62
     2
370
     9
100
AcDbLine
 10
599.5499069626269
 20
357.2697601224712
 30
0.0
 11
599.5499069626269
 21
337.2696941385184
 31
0.0
  0
LINE
  5
16E
330
1F
100
AcDbEntity
  8
D-1
  6
Continuous
 62
     2
370
     9
100
AcDbLine
 10
535.5853518924198
 20
351.2342079687548
 30
0.0
 11
524.5499069626269
 21
362.269652898548
 31
0.0
  0
LINE
  5
16F
330
1F
100
AcDbEntity
  8
D-1
  6
Continuous
 62
     2
370
     9
100
AcDbLine
 10
537.049824482686
 20
347.6986640630327
 30
0.0
 11
537.049824482686
 21
337.2696941385184
 31
0.0
  0
LINE
  5
170
330
1F
100
AcDbEntity
  8
D-A
  6
Continuous
 62
     2
370
     9
100
AcDbLine
 10
542.0499646985854
 20
383.5197848664534
 30
0.0
 11
546.3587580500422
 21
383.5197848664534
 31
0.0
  0
LINE
  5
171
330
1F
100
AcDbEntity
  8
D-1
  6
JWW_DASHED3
 62
     2
370
     9
100
AcDbLine
 10
546.3587580500422
 20
363.5197188825007
 30
0.0
 11
542.0499646985854
 21
363.5197188825007
 31
0.0
  0
LINE
  5
172
330
1F
100
AcDbEntity
  8
D-A
  6
Continuous
 62
     2
370
     9
100
AcDbLine
 10
548.7486555769638
 20
374.7696941385184
 30
0.0
 11
548.7486555769638
 21
372.2696858905244
 31
0.0
  0
LINE
  5
173
330
1F
100
AcDbEntity
  8
D-A
  6
Continuous
 62
     2
370
     9
100
AcDbLine
 10
549.7517766179266
 20
372.2696858905244
 30
0.0
 11
548.7486555769638
 21
372.2696858905244
 31
0.0
  0
LINE
  5
174
330
1F
100
AcDbEntity
  8
D-A
  6
Continuous
 62
     2
370
     9
100
AcDbLine
 10
549.7517766179266
 20
374.7696941385184
 30
0.0
 11
548.7486555769638
 21
374.7696941385184
 31
0.0
  0
LINE
  5
175
330
1F
100
AcDbEntity
  8
D-A
  6
Continuous
 62
     2
370
     9
100
AcDbLine
 10
517.0501296584672
 20
368.5196116585775
 30
0.0
 11
517.0501296584672
 21
378.519644650554
 31
0.0
  0
LINE
  5
176
330
1F
100
AcDbEntity
  8
D-A
  6
Continuous
 62
     2
370
     9
100
AcDbLine
 10
538.5500521273227
 20
378.519644650554
 30
0.0
 11
539.82684161212
 21
377.7823976990126
 31
0.0
  0
LINE
  5
177
330
1F
100
AcDbEntity
  8
D-1
  6
JWW_DASHED3
 62
     2
370
     9
100
AcDbLine
 10
538.5500521273227
 20
368.5196116585775
 30
0.0
 11
539.82684161212
 21
369.2567348902076
 31
0.0
  0
LINE
  5
178
330
1F
100
AcDbEntity
  8
D-A
  6
Continuous
 62
     2
370
     9
100
AcDbLine
 10
538.5499284074115
 20
377.0195407258284
 30
0.0
 11
541.8064839131125
 21
378.965407491031
 31
0.0
  0
LINE
  5
179
330
1F
100
AcDbEntity
  8
D-1
  6
JWW_DASHED3
 62
     2
370
     9
100
AcDbLine
 10
538.5499284074115
 20
370.019715583303
 30
0.0
 11
541.8064839131125
 21
368.0739725380116
 31
0.0
  0
LINE
  5
17A
330
1F
100
AcDbEntity
  8
D-7
  6
JWW_CENTER1
 62
     3
370
     9
100
AcDbLine
 10
517.0501296584672
 20
373.519751874477
 30
0.0
 11
552.0926810599665
 21
373.519751874477
 31
0.0
  0
LINE
  5
17B
330
1F
100
AcDbEntity
  8
D-A
  6
Continuous
 62
     2
370
     9
100
AcDbLine
 10
518.79977664432
 20
378.519644650554
 30
0.0
 11
517.0501296584672
 21
378.519644650554
 31
0.0
  0
LINE
  5
17C
330
1F
100
AcDbEntity
  8
D-A
  6
Continuous
 62
     2
370
     9
100
AcDbLine
 10
518.79977664432
 20
377.0195407258284
 30
0.0
 11
517.0501296584672
 21
377.0195407258284
 31
0.0
  0
LINE
  5
17D
330
1F
100
AcDbEntity
  8
D-1
  6
JWW_DASHED3
 62
     2
370
     9
100
AcDbLine
 10
538.5499284074115
 20
370.019715583303
 30
0.0
 11
524.5499069626269
 21
370.019715583303
 31
0.0
  0
LINE
  5
17E
330
1F
100
AcDbEntity
  8
D-A
  6
Continuous
 62
     2
370
     9
100
AcDbLine
 10
518.79977664432
 20
370.019715583303
 30
0.0
 11
517.0501296584672
 21
370.019715583303
 31
0.0
  0
LINE
  5
17F
330
1F
100
AcDbEntity
  8
D-1
  6
JWW_DASHED3
 62
     2
370
     9
100
AcDbLine
 10
538.5500521273227
 20
368.5196116585775
 30
0.0
 11
524.5499069626269
 21
368.5196116585775
 31
0.0
  0
LINE
  5
180
330
1F
100
AcDbEntity
  8
D-A
  6
Continuous
 62
     2
370
     9
100
AcDbLine
 10
518.79977664432
 20
368.5196116585775
 30
0.0
 11
517.0501296584672
 21
368.5196116585775
 31
0.0
  0
LINE
  5
181
330
1F
100
AcDbEntity
  8
D-1
  6
Continuous
 62
     2
370
     9
100
AcDbLine
 10
554.7275440112967
 20
362.269652898548
 30
0.0
 11
594.5498904666385
 21
362.269652898548
 31
0.0
  0
LINE
  5
182
330
1F
100
AcDbEntity
  8
D-1
  6
Continuous
 62
     2
370
     9
100
AcDbLine
 10
537.049824482686
 20
337.2696941385184
 30
0.0
 11
599.5499069626269
 21
337.2696941385184
 31
0.0
  0
LINE
  5
183
330
1F
100
AcDbEntity
  8
D-6
  6
Continuous
 62
     6
370
     5
100
AcDbLine
 10
523.4996486354519
 20
440.3945704186071
 30
0.0
 11
727.5954375395904
 21
440.3945704186071
 31
0.0
  0
LINE
  5
184
330
1F
100
AcDbEntity
  8
D-6
  6
Continuous
 62
     6
370
     5
100
AcDbLine
 10
523.4996486354519
 20
434.1444879386662
 30
0.0
 11
727.5954375395904
 21
434.1444879386662
 31
0.0
  0
LINE
  5
185
330
1F
100
AcDbEntity
  8
D-6
  6
Continuous
 62
     6
370
     5
100
AcDbLine
 10
656.6722560573269
 20
359.1444879386662
 30
0.0
 11
727.5954375395904
 21
288.221430176314
 31
0.0
  0
LINE
  5
186
330
1F
100
AcDbEntity
  8
D-6
  6
Continuous
 62
     6
370
     5
100
AcDbLine
 10
651.3690020586995
 20
359.1444879386662
 30
0.0
 11
727.5954375395904
 21
282.9180524577752
 31
0.0
  0
LINE
  5
187
330
1F
100
AcDbEntity
  8
D-6
  6
Continuous
 62
     6
370
     5
100
AcDbLine
 10
646.0657480600719
 20
359.1444879386662
 30
0.0
 11
727.5954375395904
 21
277.6147984591477
 31
0.0
  0
LINE
  5
188
330
1F
100
AcDbEntity
  8
D-6
  6
Continuous
 62
     6
370
     5
100
AcDbLine
 10
622.0498574746623
 20
359.1444879386662
 30
0.0
 11
727.5954375395904
 21
359.1444879386662
 31
0.0
  0
LINE
  5
189
330
1F
100
AcDbEntity
  8
D-6
  6
Continuous
 62
     6
370
     5
100
AcDbLine
 10
622.0498574746623
 20
359.1444879386662
 30
0.0
 11
622.0498574746623
 21
309.1445704186071
 31
0.0
  0
LINE
  5
18A
330
1F
100
AcDbEntity
  8
D-6
  6
Continuous
 62
     6
370
     5
100
AcDbLine
 10
509.5498574746622
 20
309.1445704186071
 30
0.0
 11
622.0498574746623
 21
309.1445704186071
 31
0.0
  0
LINE
  5
18B
330
1F
100
AcDbEntity
  8
D-6
  6
JWW_DASHED3
 62
     6
370
     5
100
AcDbLine
 10
564.2506367451438
 20
264.8665750770741
 30
0.0
 11
564.2506367451438
 21
309.1445704186071
 31
0.0
  0
LINE
  5
18C
330
1F
100
AcDbEntity
  8
D-6
  6
JWW_DASHED3
 62
     6
370
     5
100
AcDbLine
 10
586.7505872571792
 20
264.8665750770741
 30
0.0
 11
586.7505872571792
 21
309.1445704186071
 31
0.0
  0
LINE
  5
18D
330
1F
100
AcDbEntity
  8
D-6
  6
Continuous
 62
     6
370
     5
100
AcDbLine
 10
542.0497172587627
 20
446.6445291786366
 30
0.0
 11
786.8143442514781
 21
446.6445291786366
 31
0.0
  0
LINE
  5
18E
330
1F
100
AcDbEntity
  8
D-6
  6
Continuous
 62
     6
370
     5
100
AcDbLine
 10
447.0497749947214
 20
346.6445704186071
 30
0.0
 11
447.0497749947214
 21
58.25246737806658
 31
0.0
  0
LINE
  5
18F
330
1F
100
AcDbEntity
  8
D-6
  6
JWW_CENTER1
 62
     6
370
     5
100
AcDbLine
 10
575.50048828125
 20
264.8665750770741
 30
0.0
 11
575.50048828125
 21
380.9665770565928
 31
0.0
  0
LINE
  5
190
330
1F
100
AcDbEntity
  8
D-6
  6
Continuous
 62
     6
370
     5
100
AcDbLine
 10
564.2506367451438
 20
309.1445704186071
 30
0.0
 11
564.2506367451438
 21
337.8946034105835
 31
0.0
  0
LINE
  5
191
330
1F
100
AcDbEntity
  8
D-6
  6
Continuous
 62
     6
370
     5
100
AcDbLine
 10
586.7505872571792
 20
309.1445704186071
 30
0.0
 11
586.7505872571792
 21
337.8946034105835
 31
0.0
  0
LINE
  5
192
330
1F
100
AcDbEntity
  8
D-6
  6
Continuous
 62
     6
370
     5
100
AcDbLine
 10
586.7505872571792
 20
362.8945621706131
 30
0.0
 11
586.7505872571792
 21
371.0603237573951
 31
0.0
  0
LINE
  5
193
330
1F
100
AcDbEntity
  8
D-6
  6
JWW_DASHED3
 62
     6
370
     5
100
AcDbLine
 10
586.7505872571792
 20
337.8946034105835
 30
0.0
 11
586.7505872571792
 21
362.8945621706131
 31
0.0
  0
LINE
  5
194
330
1F
100
AcDbEntity
  8
D-6
  6
Continuous
 62
     6
370
     5
100
AcDbLine
 10
564.2506367451438
 20
362.8945621706131
 30
0.0
 11
564.2506367451438
 21
371.0603237573951
 31
0.0
  0
LINE
  5
195
330
1F
100
AcDbEntity
  8
D-6
  6
JWW_DASHED3
 62
     6
370
     5
100
AcDbLine
 10
564.2506367451438
 20
337.8946034105835
 30
0.0
 11
564.2506367451438
 21
362.8945621706131
 31
0.0
  0
LINE
  5
196
330
1F
100
AcDbEntity
  8
D-6
  6
Continuous
 62
     6
370
     5
100
AcDbLine
 10
656.4239501953125
 20
415.3944879386662
 30
0.0
 11
727.5954375395904
 21
415.3944879386662
 31
0.0
  0
LINE
  5
197
330
1F
100
AcDbEntity
  8
D-6
  6
Continuous
 62
     6
370
     5
100
AcDbLine
 10
523.4996486354519
 20
421.6445704186071
 30
0.0
 11
622.484114363387
 21
421.6445704186071
 31
0.0
  0
LINE
  5
198
330
1F
100
AcDbEntity
  8
D-6
  6
Continuous
 62
     6
370
     5
100
AcDbLine
 10
656.4239501953125
 20
421.6445704186071
 30
0.0
 11
727.5954375395904
 21
421.6445704186071
 31
0.0
  0
LINE
  5
199
330
1F
100
AcDbEntity
  8
D-6
  6
Continuous
 62
     6
370
     5
100
AcDbLine
 10
523.4996486354519
 20
427.8945291786366
 30
0.0
 11
622.484114363387
 21
427.8945291786366
 31
0.0
  0
LINE
  5
19A
330
1F
100
AcDbEntity
  8
D-6
  6
Continuous
 62
     6
370
     5
100
AcDbLine
 10
656.4239501953125
 20
427.8945291786366
 30
0.0
 11
727.5954375395904
 21
427.8945291786366
 31
0.0
  0
LINE
  5
19B
330
1F
100
AcDbEntity
  8
D-4
  6
Continuous
 62
     7
370
     9
100
AcDbLine
 10
607.5893505199537
 20
337.8946034105835
 30
0.0
 11
653.5479571368245
 21
337.8946034105835
 31
0.0
  0
LINE
  5
19C
330
1F
100
AcDbEntity
  8
D-4
  6
Continuous
 62
     7
370
     9
100
AcDbLine
 10
607.5893505199537
 20
362.8945621706131
 30
0.0
 11
653.5479571368245
 21
362.8945621706131
 31
0.0
  0
LINE
  5
19D
330
1F
100
AcDbEntity
  8
D-4
  6
Continuous
 62
     7
370
     9
100
AcDbLine
 10
759.7593977644638
 20
309.1445704186071
 30
0.0
 11
759.7593977644638
 21
446.6445291786366
 31
0.0
  0
LINE
  5
19E
330
1F
100
AcDbEntity
  8
D-4
  6
Continuous
 62
     7
370
     9
100
AcDbLine
 10
635.3829048775339
 20
309.1445704186071
 30
0.0
 11
761.2593779692779
 21
309.1445704186071
 31
0.0
  0
LINE
  5
19F
330
1F
100
AcDbEntity
  8
D-4
  6
Continuous
 62
     7
370
     9
100
AcDbLine
 10
135.8813311602619
 20
123.4008982796713
 30
0.0
 11
599.5497832427154
 21
123.4008982796713
 31
0.0
  0
LINE
  5
1A0
330
1F
100
AcDbEntity
  8
D-4
  6
Continuous
 62
     7
370
     9
100
AcDbLine
 10
529.5496760187922
 20
323.9715357506383
 30
0.0
 11
529.5496760187922
 21
121.9009180748571
 31
0.0
  0
LINE
  5
1A1
330
1F
100
AcDbEntity
  8
D-4
  6
Continuous
 62
     7
370
     9
100
AcDbLine
 10
599.5497832427154
 20
323.9715357506383
 30
0.0
 11
599.5497832427154
 21
121.9009180748571
 31
0.0
  0
LINE
  5
1A2
330
1F
100
AcDbEntity
  8
D-4
  6
Continuous
 62
     7
370
     9
100
AcDbLine
 10
447.0497749947214
 20
74.90875531883937
 30
0.0
 11
622.0498574746623
 21
74.90875531883937
 31
0.0
  0
LINE
  5
1A3
330
1F
100
AcDbEntity
  8
D-4
  6
Continuous
 62
     7
370
     9
100
AcDbLine
 10
622.0498574746623
 20
297.4143144668546
 30
0.0
 11
622.0498574746623
 21
73.40877511402518
 31
0.0
  0
LINE
  5
1A4
330
1F
100
AcDbEntity
  8
D-6
  6
Continuous
 62
     6
370
     5
100
AcDbLine
 10
564.2506367451438
 20
371.0603237573951
 30
0.0
 11
586.7505872571792
 21
371.0603237573951
 31
0.0
  0
LINE
  5
1A5
330
1F
100
AcDbEntity
  8
D-4
  6
Continuous
 62
     7
370
     9
100
AcDbLine
 10
135.8813311602619
 20
524.2793921299669
 30
0.0
 11
542.049840978674
 21
524.2793921299669
 31
0.0
  0
LINE
  5
1A6
330
1F
100
AcDbEntity
  8
D-4
  6
Continuous
 62
     7
370
     9
100
AcDbLine
 10
509.5499811945734
 20
461.23036440351
 30
0.0
 11
509.5499811945734
 21
525.7793723347812
 31
0.0
  0
LINE
  5
1A7
330
1F
100
AcDbEntity
  8
D-4
  6
Continuous
 62
     7
370
     9
100
AcDbLine
 10
512.0499894425677
 20
461.23036440351
 30
0.0
 11
512.0499894425677
 21
525.7793723347812
 31
0.0
  0
LINE
  5
1A8
330
1F
100
AcDbEntity
  8
D-4
  6
Continuous
 62
     7
370
     9
100
AcDbLine
 10
542.049840978674
 20
461.23036440351
 30
0.0
 11
542.049840978674
 21
566.7776146872409
 31
0.0
  0
LINE
  5
1A9
330
1F
100
AcDbEntity
  8
D-4
  6
Continuous
 62
     7
370
     9
100
AcDbLine
 10
135.8813311602619
 20
565.2777582023381
 30
0.0
 11
542.049840978674
 21
565.2777582023381
 31
0.0
  0
LINE
  5
1AA
330
1F
100
AcDbEntity
  8
D-1
  6
Continuous
 62
     2
370
     9
100
AcDbLine
 10
524.5499069626269
 20
394.1443559707608
 30
0.0
 11
524.5499069626269
 21
387.2697353784889
 31
0.0
  0
LINE
  5
1AB
330
1F
100
AcDbEntity
  8
D-1
  6
JWW_DASHED3
 62
     2
370
     9
100
AcDbLine
 10
524.5499069626269
 20
387.2697353784889
 30
0.0
 11
524.5499069626269
 21
362.269652898548
 31
0.0
  0
LINE
  5
1AC
330
1F
100
AcDbEntity
  8
D-1
  6
Continuous
 62
     2
370
     9
100
AcDbLine
 10
524.5499069626269
 20
362.269652898548
 30
0.0
 11
524.5499069626269
 21
354.1447188825007
 31
0.0
  0
LINE
  5
1AD
330
1F
100
AcDbEntity
  8
D-1
  6
Continuous
 62
     2
370
     9
100
AcDbLine
 10
545.8887461069469
 20
365.9308962341688
 30
0.0
 11
524.5499069626269
 21
387.2697353784889
 31
0.0
  0
LINE
  5
1AE
330
1F
100
AcDbEntity
  8
D-A
  6
Continuous
 62
     2
370
     9
100
AcDbLine
 10
538.5500521273227
 20
378.519644650554
 30
0.0
 11
533.2999976905617
 21
378.519644650554
 31
0.0
  0
LINE
  5
1AF
330
1F
100
AcDbEntity
  8
D-A
  6
Continuous
 62
     2
370
     9
100
AcDbLine
 10
538.5499284074115
 20
377.0195407258284
 30
0.0
 11
534.8001016152873
 21
377.0195407258284
 31
0.0
  0
LINE
  5
1B0
330
1F
100
AcDbEntity
  8
D-1
  6
JWW_DASHED3
 62
     2
370
     9
100
AcDbLine
 10
534.8001016152873
 20
377.0195407258284
 30
0.0
 11
524.5499069626269
 21
377.0195407258284
 31
0.0
  0
LINE
  5
1B1
330
1F
100
AcDbEntity
  8
D-1
  6
JWW_DASHED3
 62
     2
370
     9
100
AcDbLine
 10
533.2999976905617
 20
378.519644650554
 30
0.0
 11
524.5499069626269
 21
378.519644650554
 31
0.0
  0
LINE
  5
1B2
330
1F
100
AcDbEntity
  8
D-A
  6
Continuous
 62
     2
370
     9
100
AcDbLine
 10
538.5500521273227
 20
373.2695902137929
 30
0.0
 11
538.5500521273227
 21
378.519644650554
 31
0.0
  0
LINE
  5
1B3
330
1F
100
AcDbEntity
  8
D-1
  6
JWW_DASHED3
 62
     2
370
     9
100
AcDbLine
 10
538.5500521273227
 20
368.5196116585775
 30
0.0
 11
538.5500521273227
 21
373.2695902137929
 31
0.0
  0
LINE
  5
1B4
330
1F
100
AcDbEntity
  8
D-A
  6
Continuous
 62
     2
370
     9
100
AcDbLine
 10
542.0499646985854
 20
369.7696776425303
 30
0.0
 11
542.0499646985854
 21
383.5197848664534
 31
0.0
  0
LINE
  5
1B5
330
1F
100
AcDbEntity
  8
D-1
  6
JWW_DASHED3
 62
     2
370
     9
100
AcDbLine
 10
542.0499646985854
 20
363.5197188825007
 30
0.0
 11
542.0499646985854
 21
369.7696776425303
 31
0.0
  0
LINE
  5
1B6
330
1F
100
AcDbEntity
  8
D-4
  6
Continuous
 62
     7
370
     9
100
AcDbLine
 10
554.7275440112967
 20
362.269652898548
 30
0.0
 11
559.7876883841852
 21
373.6996406255327
 31
0.0
  0
LINE
  5
1B7
330
1F
100
AcDbEntity
  8
D-4
  6
Continuous
 62
     7
370
     9
100
AcDbLine
 10
554.7275440112967
 20
362.269652898548
 30
0.0
 11
562.5734896273227
 21
372.0005950834087
 31
0.0
  0
LINE
  5
1B8
330
1F
100
AcDbEntity
  8
D-4
  6
Continuous
 62
     7
370
     9
100
AcDbLine
 10
523.516845703125
 20
401.6445044346543
 30
0.0
 11
528.5769900760135
 21
413.0744921616392
 31
0.0
  0
LINE
  5
1B9
330
1F
100
AcDbEntity
  8
D-4
  6
Continuous
 62
     7
370
     9
100
AcDbLine
 10
523.516845703125
 20
401.6445044346543
 30
0.0
 11
531.3627913191513
 21
411.375446619515
 31
0.0
  0
LINE
  5
1BA
330
1F
100
AcDbEntity
  8
D-5
  6
Continuous
 62
     7
370
     9
100
AcDbLine
 10
509.5499811945734
 20
384.1445704186071
 30
0.0
 11
509.5499811945734
 21
381.6446858905244
 31
0.0
  0
LINE
  5
1BB
330
1F
100
AcDbEntity
  8
D-5
  6
Continuous
 62
     7
370
     9
100
AcDbLine
 10
449.5499069626268
 20
384.1445704186071
 30
0.0
 11
449.5499069626268
 21
381.6446858905244
 31
0.0
  0
LINE
  5
1BC
330
1F
100
AcDbEntity
  8
D-5
  6
Continuous
 62
     7
370
     9
100
AcDbLine
 10
506.3264589051943
 20
381.6446858905244
 30
0.0
 11
508.8263434332771
 21
384.1445704186071
 31
0.0
  0
LINE
  5
1BD
330
1F
100
AcDbEntity
  8
D-5
  6
Continuous
 62
     7
370
     9
100
AcDbLine
 10
492.3953494510135
 20
372.6633626483369
 30
0.0
 11
493.2999894425677
 21
373.5680026398909
 31
0.0
  0
LINE
  5
1BE
330
1F
100
AcDbEntity
  8
D-5
  6
Continuous
 62
     7
370
     9
100
AcDbLine
 10
501.376672693201
 20
381.6446858905244
 30
0.0
 11
503.8765572212839
 21
384.1445704186071
 31
0.0
  0
LINE
  5
1BF
330
1F
100
AcDbEntity
  8
D-5
  6
Continuous
 62
     7
370
     9
100
AcDbLine
 10
485.6815647434544
 20
370.899364152771
 30
0.0
 11
490.1769277211784
 21
375.3947271304949
 31
0.0
  0
LINE
  5
1C0
330
1F
100
AcDbEntity
  8
D-5
  6
Continuous
 62
     7
370
     9
100
AcDbLine
 10
496.4268864812078
 20
381.6446858905244
 30
0.0
 11
498.9267710092906
 21
384.1445704186071
 31
0.0
  0
LINE
  5
1C1
330
1F
100
AcDbEntity
  8
D-5
  6
Continuous
 62
     7
370
     9
100
AcDbLine
 10
480.2333110087628
 20
370.4008966300725
 30
0.0
 11
482.3366732210727
 21
372.5042588423825
 31
0.0
  0
LINE
  5
1C2
330
1F
100
AcDbEntity
  8
D-5
  6
Continuous
 62
     7
370
     9
100
AcDbLine
 10
487.0499069626268
 20
377.2174925839365
 30
0.0
 11
490.1749482025971
 21
380.3425338239069
 31
0.0
  0
LINE
  5
1C3
330
1F
100
AcDbEntity
  8
D-5
  6
Continuous
 62
     7
370
     9
100
AcDbLine
 10
491.4771002692146
 20
381.6446858905244
 30
0.0
 11
493.9769847972974
 21
384.1445704186071
 31
0.0
  0
LINE
  5
1C4
330
1F
100
AcDbEntity
  8
D-5
  6
Continuous
 62
     7
370
     9
100
AcDbLine
 10
475.4970653637037
 20
370.6143134770952
 30
0.0
 11
477.3459357184333
 21
372.4631838318251
 31
0.0
  0
LINE
  5
1C5
330
1F
100
AcDbEntity
  8
D-5
  6
Continuous
 62
     7
370
     9
100
AcDbLine
 10
486.5274377771325
 20
381.6446858905244
 30
0.0
 11
489.0273223052154
 21
384.1445704186071
 31
0.0
  0
LINE
  5
1C6
330
1F
100
AcDbEntity
  8
D-5
  6
Continuous
 62
     7
370
     9
100
AcDbLine
 10
471.2564416833825
 20
371.3233522888563
 30
0.0
 11
472.9471979914484
 21
373.0141085969222
 31
0.0
  0
LINE
  5
1C7
330
1F
100
AcDbEntity
  8
D-5
  6
Continuous
 62
     7
370
     9
100
AcDbLine
 10
481.5777752850508
 20
381.6446858905244
 30
0.0
 11
484.0776598131336
 21
384.1445704186071
 31
0.0
  0
LINE
  5
1C8
330
1F
100
AcDbEntity
  8
D-5
  6
Continuous
 62
     7
370
     9
100
AcDbLine
 10
467.4007106471706
 20
372.4174074646376
 30
0.0
 11
472.0499811945734
 21
377.0666780120404
 31
0.0
  0
LINE
  5
1C9
330
1F
100
AcDbEntity
  8
D-5
  6
Continuous
 62
     7
370
     9
100
AcDbLine
 10
476.6279890730576
 20
381.6446858905244
 30
0.0
 11
479.1278736011404
 21
384.1445704186071
 31
0.0
  0
LINE
  5
1CA
330
1F
100
AcDbEntity
  8
D-5
  6
Continuous
 62
     7
370
     9
100
AcDbLine
 10
468.9248162346919
 20
378.8912992641519
 30
0.0
 11
474.1780873891472
 21
384.1445704186071
 31
0.0
  0
LINE
  5
1CB
330
1F
100
AcDbEntity
  8
D-5
  6
Continuous
 62
     7
370
     9
100
AcDbLine
 10
466.7284166490711
 20
381.6446858905244
 30
0.0
 11
469.2283011771539
 21
384.1445704186071
 31
0.0
  0
LINE
  5
1CC
330
1F
100
AcDbEntity
  8
D-5
  6
Continuous
 62
     7
370
     9
100
AcDbLine
 10
461.7786304370779
 20
381.6446858905244
 30
0.0
 11
464.2785149651607
 21
384.1445704186071
 31
0.0
  0
LINE
  5
1CD
330
1F
100
AcDbEntity
  8
D-5
  6
Continuous
 62
     7
370
     9
100
AcDbLine
 10
456.8288442250847
 20
381.6446858905244
 30
0.0
 11
459.3287287531672
 21
384.1445704186071
 31
0.0
  0
LINE
  5
1CE
330
1F
100
AcDbEntity
  8
D-5
  6
Continuous
 62
     7
370
     9
100
AcDbLine
 10
451.8790580130914
 20
381.6446858905244
 30
0.0
 11
454.378942541174
 21
384.1445704186071
 31
0.0
  0
LINE
  5
1CF
330
1F
100
AcDbEntity
  8
D-5
  6
Continuous
 62
     7
370
     9
100
AcDbLine
 10
457.0498079866977
 20
384.1445704186071
 30
0.0
 11
449.5499069626268
 21
384.1445704186071
 31
0.0
  0
LINE
  5
1D0
330
1F
100
AcDbEntity
  8
D-5
  6
Continuous
 62
     7
370
     9
100
AcDbLine
 10
497.0500636745143
 20
384.1445704186071
 30
0.0
 11
467.0499646985854
 21
384.1445704186071
 31
0.0
  0
LINE
  5
1D1
330
1F
100
AcDbEntity
  8
D-5
  6
Continuous
 62
     7
370
     9
100
AcDbLine
 10
493.2999894425677
 20
381.6446858905244
 30
0.0
 11
490.1749482025971
 21
381.6446858905244
 31
0.0
  0
LINE
  5
1D2
330
1F
100
AcDbEntity
  8
D-5
  6
Continuous
 62
     7
370
     9
100
AcDbLine
 10
465.7997749947214
 20
381.6446858905244
 30
0.0
 11
468.9248162346919
 21
381.6446858905244
 31
0.0
  0
LINE
  5
1D3
330
1F
100
AcDbEntity
  8
D-4
  6
Continuous
 62
     7
370
     9
100
AcDbLine
 10
479.5500059385557
 20
370.3947106345066
 30
0.0
 11
474.4898615656672
 21
358.9647229075218
 31
0.0
  0
LINE
  5
1D4
330
1F
100
AcDbEntity
  8
D-4
  6
Continuous
 62
     7
370
     9
100
AcDbLine
 10
479.5500059385557
 20
370.3947106345066
 30
0.0
 11
471.7040603225297
 21
360.663768449646
 31
0.0
  0
LINE
  5
1D5
330
1F
100
AcDbEntity
  8
D-4
  6
Continuous
 62
     7
370
     9
100
AcDbLine
 10
387.0158015070734
 20
473.9766082670024
 30
0.0
 11
315.0129163587417
 21
473.9766082670024
 31
0.0
  0
LINE
  5
1D6
330
1F
100
AcDbEntity
  8
D-4
  6
Continuous
 62
     7
370
     9
100
AcDbLine
 10
347.4744229703336
 20
409.1444673186811
 30
0.0
 11
352.5345673432221
 21
420.5744550456658
 31
0.0
  0
LINE
  5
1D7
330
1F
100
AcDbEntity
  8
D-4
  6
Continuous
 62
     7
370
     9
100
AcDbLine
 10
347.4744229703336
 20
409.1444673186811
 30
0.0
 11
355.3203685863599
 21
418.8754095035417
 31
0.0
  0
LINE
  5
1D8
330
1F
100
AcDbEntity
  8
D-4
  6
Continuous
 62
     7
370
     9
100
AcDbLine
 10
381.9582552523227
 20
404.1442652428258
 30
0.0
 11
387.0183996252112
 21
415.5742529698106
 31
0.0
  0
LINE
  5
1D9
330
1F
100
AcDbEntity
  8
D-4
  6
Continuous
 62
     7
370
     9
100
AcDbLine
 10
381.9582552523227
 20
404.1442652428258
 30
0.0
 11
389.804200868349
 21
413.8752074276865
 31
0.0
  0
LINE
  5
1DA
330
1F
100
AcDbEntity
  8
0-4
  6
Continuous
 62
     7
370
     9
100
AcDbLine
 10
506.4248162346919
 20
449.1445992865864
 30
0.0
 11
511.4849606075802
 21
460.5745870135713
 31
0.0
  0
LINE
  5
1DB
330
1F
100
AcDbEntity
  8
0-4
  6
Continuous
 62
     7
370
     9
100
AcDbLine
 10
506.4248162346919
 20
449.1445992865864
 30
0.0
 11
514.2707618507179
 21
458.8754796114915
 31
0.0
  0
LINE
  5
1DC
330
1F
100
AcDbEntity
  8
D-6
  6
Continuous
 62
     6
370
     5
100
AcDbLine
 10
509.5498574746622
 20
309.1445704186071
 30
0.0
 11
509.5498574746622
 21
169.5316611531404
 31
0.0
  0
LINE
  5
1DD
330
1F
100
AcDbEntity
  8
D-6
  6
Continuous
 62
     6
370
     5
100
AcDbLine
 10
509.5498574746622
 20
256.2670514812127
 30
0.0
 11
596.2849385029563
 21
169.5316611531404
 31
0.0
  0
LINE
  5
1DE
330
1F
100
AcDbEntity
  8
D-6
  6
Continuous
 62
     6
370
     5
100
AcDbLine
 10
509.5498574746622
 20
250.9637974825852
 30
0.0
 11
590.9816845043287
 21
169.5316611531404
 31
0.0
  0
LINE
  5
1DF
330
1F
100
AcDbEntity
  8
D-6
  6
Continuous
 62
     6
370
     5
100
AcDbLine
 10
509.5498574746622
 20
245.6605434839576
 30
0.0
 11
585.6783067857898
 21
169.5316611531404
 31
0.0
  0
LINE
  5
1E0
330
1F
100
AcDbEntity
  8
D-6
  6
Continuous
 62
     6
370
     5
100
AcDbLine
 10
571.0657480600719
 20
309.1445704186071
 30
0.0
 11
710.6784717456717
 21
169.5316611531404
 31
0.0
  0
LINE
  5
1E1
330
1F
100
AcDbEntity
  8
D-6
  6
Continuous
 62
     6
370
     5
100
AcDbLine
 10
576.3690020586995
 20
309.1445704186071
 30
0.0
 11
715.9820969040331
 21
169.5316611531404
 31
0.0
  0
LINE
  5
1E2
330
1F
100
AcDbEntity
  8
D-6
  6
Continuous
 62
     6
370
     5
100
AcDbLine
 10
581.6722560573269
 20
309.1445704186071
 30
0.0
 11
721.2853509026606
 21
169.5316611531404
 31
0.0
  0
LINE
  5
1E3
330
1F
100
AcDbEntity
  8
D-B
  6
Continuous
 62
     7
370
     9
100
AcDbLine
 10
455.7997420027451
 20
404.1445126826485
 30
0.0
 11
455.7997420027451
 21
409.144652898548
 31
0.0
  0
LINE
  5
1E4
330
1F
100
AcDbEntity
  8
D-3
  6
Continuous
 62
     3
370
     9
100
AcDbLine
 10
455.7997420027451
 20
404.1445126826485
 30
0.0
 11
455.7997420027451
 21
396.1446594969433
 31
0.0
  0
LINE
  5
1E5
330
1F
100
AcDbEntity
  8
D-B
  6
Continuous
 62
     7
370
     9
100
AcDbLine
 10
498.2997584987331
 20
425.2696875401231
 30
0.0
 11
498.2997584987331
 21
409.144652898548
 31
0.0
  0
LINE
  5
1E6
330
1F
100
AcDbEntity
  8
D-3
  6
Continuous
 62
     3
370
     9
100
AcDbLine
 10
455.7997420027451
 20
404.1445126826485
 30
0.0
 11
444.5497667467274
 21
404.1445126826485
 31
0.0
  0
LINE
  5
1E7
330
1F
100
AcDbEntity
  8
D-B
  6
Continuous
 62
     7
370
     9
100
AcDbLine
 10
498.2997584987331
 20
446.644652898548
 30
0.0
 11
498.2997584987331
 21
435.5197584728723
 31
0.0
  0
LINE
  5
1E8
330
1F
100
AcDbEntity
  8
D-B
  6
Continuous
 62
     7
370
     9
100
AcDbLine
 10
444.5497667467274
 20
409.144652898548
 30
0.0
 11
498.2997584987331
 21
409.144652898548
 31
0.0
  0
LINE
  5
1E9
330
1F
100
AcDbEntity
  8
D-B
  6
Continuous
 62
     7
370
     9
100
AcDbLine
 10
445.4205074825802
 20
404.1445126826485
 30
0.0
 11
444.5497667467274
 21
405.0152534185015
 31
0.0
  0
LINE
  5
1EA
330
1F
100
AcDbEntity
  8
D-B
  6
Continuous
 62
     7
370
     9
100
AcDbLine
 10
450.7238852011193
 20
404.1445126826485
 30
0.0
 11
445.7237449852198
 21
409.144652898548
 31
0.0
  0
LINE
  5
1EB
330
1F
100
AcDbEntity
  8
D-B
  6
Continuous
 62
     7
370
     9
100
AcDbLine
 10
455.7997420027451
 20
404.3720335995615
 30
0.0
 11
451.0271227037586
 21
409.144652898548
 31
0.0
  0
LINE
  5
1EC
330
1F
100
AcDbEntity
  8
D-B
  6
Continuous
 62
     7
370
     9
100
AcDbLine
 10
334.0510600322003
 20
404.1445126826485
 30
0.0
 11
329.051043536212
 21
409.144652898548
 31
0.0
  0
LINE
  5
1ED
330
1F
100
AcDbEntity
  8
D-B
  6
Continuous
 62
     7
370
     9
100
AcDbLine
 10
339.3543140308279
 20
404.1445126826485
 30
0.0
 11
334.3541738149284
 21
409.144652898548
 31
0.0
  0
LINE
  5
1EE
330
1F
100
AcDbEntity
  8
D-B
  6
Continuous
 62
     7
370
     9
100
AcDbLine
 10
344.6575680294552
 20
404.1445126826485
 30
0.0
 11
339.6575515334672
 21
409.144652898548
 31
0.0
  0
LINE
  5
1EF
330
1F
100
AcDbEntity
  8
D-B
  6
Continuous
 62
     7
370
     9
100
AcDbLine
 10
349.9609457479943
 20
404.1445126826485
 30
0.0
 11
344.9608055320948
 21
409.144652898548
 31
0.0
  0
LINE
  5
1F0
330
1F
100
AcDbEntity
  8
D-B
  6
Continuous
 62
     7
370
     9
100
AcDbLine
 10
355.2641997466216
 20
404.1445126826485
 30
0.0
 11
350.2641832506336
 21
409.144652898548
 31
0.0
  0
LINE
  5
1F1
330
1F
100
AcDbEntity
  8
D-B
  6
Continuous
 62
     7
370
     9
100
AcDbLine
 10
360.5675774651604
 20
404.1445126826485
 30
0.0
 11
355.5674372492609
 21
409.144652898548
 31
0.0
  0
LINE
  5
1F2
330
1F
100
AcDbEntity
  8
D-B
  6
Continuous
 62
     7
370
     9
100
AcDbLine
 10
365.870831463788
 20
404.1445126826485
 30
0.0
 11
360.8708149678
 21
409.144652898548
 31
0.0
  0
LINE
  5
1F3
330
1F
100
AcDbEntity
  8
D-B
  6
Continuous
 62
     7
370
     9
100
AcDbLine
 10
371.1742091823268
 20
404.1445126826485
 30
0.0
 11
366.1741926863388
 21
409.144652898548
 31
0.0
  0
LINE
  5
1F4
330
1F
100
AcDbEntity
  8
D-B
  6
Continuous
 62
     7
370
     9
100
AcDbLine
 10
408.2973583324537
 20
404.1445126826485
 30
0.0
 11
403.2972181165542
 21
409.144652898548
 31
0.0
  0
LINE
  5
1F5
330
1F
100
AcDbEntity
  8
D-B
  6
Continuous
 62
     7
370
     9
100
AcDbLine
 10
413.6006123310813
 20
404.1445126826485
 30
0.0
 11
408.600595835093
 21
409.144652898548
 31
0.0
  0
LINE
  5
1F6
330
1F
100
AcDbEntity
  8
D-B
  6
Continuous
 62
     7
370
     9
100
AcDbLine
 10
418.9039900496201
 20
404.1445126826485
 30
0.0
 11
413.9038498337206
 21
409.144652898548
 31
0.0
  0
LINE
  5
1F7
330
1F
100
AcDbEntity
  8
D-B
  6
Continuous
 62
     7
370
     9
100
AcDbLine
 10
424.2073677681589
 20
404.1445126826485
 30
0.0
 11
419.2072275522594
 21
409.144652898548
 31
0.0
  0
LINE
  5
1F8
330
1F
100
AcDbEntity
  8
D-B
  6
Continuous
 62
     7
370
     9
100
AcDbLine
 10
429.5106217667865
 20
404.1445126826485
 30
0.0
 11
424.5106052707982
 21
409.144652898548
 31
0.0
  0
LINE
  5
1F9
330
1F
100
AcDbEntity
  8
D-B
  6
Continuous
 62
     7
370
     9
100
AcDbLine
 10
434.5497337547511
 20
404.4086546933115
 30
0.0
 11
429.8137355495143
 21
409.144652898548
 31
0.0
  0
LINE
  5
1FA
330
1F
100
AcDbEntity
  8
D-B
  6
Continuous
 62
     7
370
     9
100
AcDbLine
 10
498.2997584987331
 20
416.6445539226189
 30
0.0
 11
444.5497667467274
 21
416.6445539226189
 31
0.0
  0
LINE
  5
1FB
330
1F
100
AcDbEntity
  8
D-B
  6
Continuous
 62
     7
370
     9
100
AcDbLine
 10
498.2997584987331
 20
424.1447023865126
 30
0.0
 11
442.4492500923776
 21
424.1447023865126
 31
0.0
  0
LINE
  5
1FC
330
1F
100
AcDbEntity
  8
D-A
  6
Continuous
 62
     2
370
     9
100
AcDbLine
 10
507.0498492266682
 20
440.6446083593798
 30
0.0
 11
506.2997354043497
 21
440.6446083593798
 31
0.0
  0
LINE
  5
1FD
330
1F
100
AcDbEntity
  8
D-A
  6
Continuous
 62
     2
370
     9
100
AcDbLine
 10
501.1748855178422
 20
435.5197584728723
 30
0.0
 11
506.2997354043497
 21
440.6446083593798
 31
0.0
  0
LINE
  5
1FE
330
1F
100
AcDbEntity
  8
D-A
  6
Continuous
 62
     2
370
     9
100
AcDbLine
 10
501.1748855178422
 20
425.2696875401231
 30
0.0
 11
501.1748855178422
 21
435.5197584728723
 31
0.0
  0
LINE
  5
1FF
330
1F
100
AcDbEntity
  8
D-A
  6
Continuous
 62
     2
370
     9
100
AcDbLine
 10
501.1748855178422
 20
425.2696875401231
 30
0.0
 11
506.2997354043497
 21
420.1447139337042
 31
0.0
  0
LINE
  5
200
330
1F
100
AcDbEntity
  8
D-A
  6
Continuous
 62
     2
370
     9
100
AcDbLine
 10
506.2997354043497
 20
440.6446083593798
 30
0.0
 11
506.2997354043497
 21
420.1447139337042
 31
0.0
  0
LINE
  5
201
330
1F
100
AcDbEntity
  8
D-A
  6
Continuous
 62
     2
370
     9
100
AcDbLine
 10
507.0498492266682
 20
420.1447139337042
 30
0.0
 11
506.2997354043497
 21
420.1447139337042
 31
0.0
  0
LINE
  5
202
330
1F
100
AcDbEntity
  8
D-A
  6
Continuous
 62
     2
370
     9
100
AcDbLine
 10
501.1748855178422
 20
435.5197584728723
 30
0.0
 11
486.2165296399917
 21
435.5197584728723
 31
0.0
  0
LINE
  5
203
330
1F
100
AcDbEntity
  8
D-A
  6
Continuous
 62
     2
370
     9
100
AcDbLine
 10
501.1748855178422
 20
425.2696875401231
 30
0.0
 11
486.2165296399917
 21
425.2696875401231
 31
0.0
  0
LINE
  5
204
330
1F
100
AcDbEntity
  8
D-A
  6
Continuous
 62
     2
370
     9
100
AcDbLine
 10
486.2165296399917
 20
425.2696875401231
 30
0.0
 11
444.5498904666385
 21
430.3946611465421
 31
0.0
  0
LINE
  5
205
330
1F
100
AcDbEntity
  8
D-A
  6
Continuous
 62
     2
370
     9
100
AcDbLine
 10
444.5498904666385
 20
430.3946611465421
 30
0.0
 11
486.2165296399917
 21
435.5197584728723
 31
0.0
  0
LINE
  5
206
330
1F
100
AcDbEntity
  8
D-A
  6
Continuous
 62
     2
370
     9
100
AcDbLine
 10
448.0849394927154
 20
428.7004406809593
 30
0.0
 11
448.6957446948904
 21
432.1639795982946
 31
0.0
  0
LINE
  5
207
330
1F
100
AcDbEntity
  8
D-A
  6
Continuous
 62
     2
370
     9
100
AcDbLine
 10
452.4894920555323
 20
428.1586711892996
 30
0.0
 11
453.2955272777662
 21
432.7298744726611
 31
0.0
  0
LINE
  5
208
330
1F
100
AcDbEntity
  8
D-A
  6
Continuous
 62
     2
370
     9
100
AcDbLine
 10
483.3207413956927
 20
424.3664084675935
 30
0.0
 11
485.4937579180745
 21
436.6902725538478
 31
0.0
  0
LINE
  5
209
330
1F
100
AcDbEntity
  8
D-A
  6
Continuous
 62
     2
370
     9
100
AcDbLine
 10
478.9163125527872
 20
424.9081779592532
 30
0.0
 11
480.8940990551099
 21
436.1245013993926
 31
0.0
  0
LINE
  5
20A
330
1F
100
AcDbEntity
  8
D-A
  6
Continuous
 62
     2
370
     9
100
AcDbLine
 10
474.5118837098818
 20
425.4499474509128
 30
0.0
 11
476.2943164722341
 21
435.5587302449373
 31
0.0
  0
LINE
  5
20B
330
1F
100
AcDbEntity
  8
D-A
  6
Continuous
 62
     2
370
     9
100
AcDbLine
 10
470.1073311470651
 20
425.9917169425725
 30
0.0
 11
471.6945338893581
 21
434.9929590904821
 31
0.0
  0
LINE
  5
20C
330
1F
100
AcDbEntity
  8
D-A
  6
Continuous
 62
     2
370
     9
100
AcDbLine
 10
465.7029023041596
 20
426.5333627143207
 30
0.0
 11
467.0947513064823
 21
434.4271879360269
 31
0.0
  0
LINE
  5
20D
330
1F
100
AcDbEntity
  8
D-A
  6
Continuous
 62
     2
370
     9
100
AcDbLine
 10
461.298349741343
 20
427.0751322059804
 30
0.0
 11
462.4949687236065
 21
433.8614167815717
 31
0.0
  0
LINE
  5
20E
330
1F
100
AcDbEntity
  8
D-A
  6
Continuous
 62
     2
370
     9
100
AcDbLine
 10
456.8939208984375
 20
427.61690169764
 30
0.0
 11
457.8953098606419
 21
433.2956456271165
 31
0.0
  0
LINE
  5
20F
330
1F
100
AcDbEntity
  8
D-A
  6
Continuous
 62
     2
370
     9
100
AcDbLine
 10
430.7997832427154
 20
389.0736954054103
 30
0.0
 11
430.7997832427154
 21
391.1445192810438
 31
0.0
  0
LINE
  5
210
330
1F
100
AcDbEntity
  8
D-A
  6
Continuous
 62
     2
370
     9
100
AcDbLine
 10
448.2997172587628
 20
389.0736954054103
 30
0.0
 11
448.2997172587628
 21
391.1445192810438
 31
0.0
  0
LINE
  5
211
330
1F
100
AcDbEntity
  8
D-A
  6
Continuous
 62
     2
370
     9
100
AcDbLine
 10
438.2247100005279
 20
388.1446825913267
 30
0.0
 11
440.8747905009503
 21
388.1446825913267
 31
0.0
  0
LINE
  5
212
330
1F
100
AcDbEntity
  8
D-A
  6
Continuous
 62
     2
370
     9
100
AcDbLine
 10
438.2247100005279
 20
384.6837417921291
 30
0.0
 11
438.2247100005279
 21
388.1446825913267
 31
0.0
  0
LINE
  5
213
330
1F
100
AcDbEntity
  8
D-A
  6
Continuous
 62
     2
370
     9
100
AcDbLine
 10
446.3172293998102
 20
392.7789830294602
 30
0.0
 11
433.2820995433912
 21
398.1113112072473
 31
0.0
  0
LINE
  5
214
330
1F
100
AcDbEntity
  8
D-A
  6
Continuous
 62
     2
370
     9
100
AcDbLine
 10
446.3172293998102
 20
397.4166239051991
 30
0.0
 11
433.2820995433912
 21
402.749199522809
 31
0.0
  0
LINE
  5
215
330
1F
100
AcDbEntity
  8
D-A
  6
Continuous
 62
     2
370
     9
100
AcDbLine
 10
446.3172293998102
 20
402.0543885008495
 30
0.0
 11
433.2820995433912
 21
407.3870878383706
 31
0.0
  0
LINE
  5
216
330
1F
100
AcDbEntity
  8
D-A
  6
Continuous
 62
     2
370
     9
100
AcDbLine
 10
446.3172293998102
 20
406.6921530964998
 30
0.0
 11
432.7997156091638
 21
412.2220619726611
 31
0.0
  0
LINE
  5
217
330
1F
100
AcDbEntity
  8
D-A
  6
Continuous
 62
     2
370
     9
100
AcDbLine
 10
439.5497502507391
 20
431.1445275290378
 30
0.0
 11
444.5497667467274
 21
419.0734232216054
 31
0.0
  0
LINE
  5
218
330
1F
100
AcDbEntity
  8
D-A
  6
Continuous
 62
     2
370
     9
100
AcDbLine
 10
444.5497667467274
 20
391.1445192810438
 30
0.0
 11
444.5497667467274
 21
419.0734232216054
 31
0.0
  0
LINE
  5
219
330
1F
100
AcDbEntity
  8
D-A
  6
Continuous
 62
     2
370
     9
100
AcDbLine
 10
434.5497337547511
 20
391.1445192810438
 30
0.0
 11
434.5497337547511
 21
419.0734232216054
 31
0.0
  0
LINE
  5
21A
330
1F
100
AcDbEntity
  8
D-A
  6
Continuous
 62
     2
370
     9
100
AcDbLine
 10
439.5497502507391
 20
431.1445275290378
 30
0.0
 11
434.5497337547511
 21
419.0734232216054
 31
0.0
  0
LINE
  5
21B
330
1F
100
AcDbEntity
  8
D-A
  6
Continuous
 62
     2
370
     9
100
AcDbLine
 10
444.916720003695
 20
422.7602765788689
 30
0.0
 11
435.7380635029563
 21
426.5150521674457
 31
0.0
  0
LINE
  5
21C
330
1F
100
AcDbEntity
  8
D-A
  6
Continuous
 62
     2
370
     9
100
AcDbLine
 10
446.2997848923143
 20
418.7689485198529
 30
0.0
 11
434.5247423326649
 21
423.585859547091
 31
0.0
  0
LINE
  5
21D
330
1F
100
AcDbEntity
  8
D-A
  6
Continuous
 62
     2
370
     9
100
AcDbLine
 10
446.2997848923143
 20
415.3432678953808
 30
0.0
 11
433.3114211623734
 21
420.6566669267364
 31
0.0
  0
LINE
  5
21E
330
1F
100
AcDbEntity
  8
D-A
  6
Continuous
 62
     2
370
     9
100
AcDbLine
 10
446.2997848923143
 20
411.3372171669179
 30
0.0
 11
432.7997156091638
 21
416.8599502882228
 31
0.0
  0
LINE
  5
21F
330
1F
100
AcDbEntity
  8
D-A
  6
Continuous
 62
     2
370
     9
100
AcDbLine
 10
443.2085191881336
 20
426.88447982264
 30
0.0
 11
436.9512609533362
 21
429.4442447878006
 31
0.0
  0
LINE
  5
220
330
1F
100
AcDbEntity
  8
D-A
  6
Continuous
 62
     2
370
     9
100
AcDbLine
 10
440.8747905009503
 20
384.6836180722178
 30
0.0
 11
440.8747905009503
 21
388.1446825913267
 31
0.0
  0
LINE
  5
221
330
1F
100
AcDbEntity
  8
D-0
  6
Continuous
 62
     4
370
     9
100
AcDbLine
 10
507.0498492266682
 20
395.3945456746248
 30
0.0
 11
509.5498574746622
 21
394.1447271304949
 31
0.0
  0
LINE
  5
222
330
1F
100
AcDbEntity
  8
D-0
  6
Continuous
 62
     4
370
     9
100
AcDbLine
 10
509.5498574746622
 20
394.1447271304949
 30
0.0
 11
509.5498574746622
 21
384.1445704186071
 31
0.0
  0
LINE
  5
223
330
1F
100
AcDbEntity
  8
D-0
  6
Continuous
 62
     4
370
     9
100
AcDbLine
 10
497.0499399546031
 20
390.394652898548
 30
0.0
 11
497.0499399546031
 21
384.1445704186071
 31
0.0
  0
LINE
  5
224
330
1F
100
AcDbEntity
  8
D-0
  6
Continuous
 62
     4
370
     9
100
AcDbLine
 10
502.0497090107688
 20
390.394652898548
 30
0.0
 11
497.0499399546031
 21
390.394652898548
 31
0.0
  0
LINE
  5
225
330
1F
100
AcDbEntity
  8
D-0
  6
Continuous
 62
     4
370
     9
100
AcDbLine
 10
502.0497090107688
 20
397.3944780410733
 30
0.0
 11
502.0497090107688
 21
390.394652898548
 31
0.0
  0
LINE
  5
226
330
1F
100
AcDbEntity
  8
D-0
  6
Continuous
 62
     4
370
     9
100
AcDbLine
 10
502.0497090107688
 20
397.3944780410733
 30
0.0
 11
462.0498244826859
 21
397.3944780410733
 31
0.0
  0
LINE
  5
227
330
1F
100
AcDbEntity
  8
D-0
  6
Continuous
 62
     4
370
     9
100
AcDbLine
 10
467.0499646985854
 20
390.394652898548
 30
0.0
 11
467.0499646985854
 21
384.1445704186071
 31
0.0
  0
LINE
  5
228
330
1F
100
AcDbEntity
  8
D-0
  6
Continuous
 62
     4
370
     9
100
AcDbLine
 10
467.0499646985854
 20
390.394652898548
 30
0.0
 11
462.0498244826859
 21
390.394652898548
 31
0.0
  0
LINE
  5
229
330
1F
100
AcDbEntity
  8
D-0
  6
Continuous
 62
     4
370
     9
100
AcDbLine
 10
462.0498244826859
 20
397.3944780410733
 30
0.0
 11
462.0498244826859
 21
390.394652898548
 31
0.0
  0
LINE
  5
22A
330
1F
100
AcDbEntity
  8
D-0
  6
Continuous
 62
     4
370
     9
100
AcDbLine
 10
502.0497090107688
 20
402.3947419768842
 30
0.0
 11
457.0496842667865
 21
402.3947419768842
 31
0.0
  0
LINE
  5
22B
330
1F
100
AcDbEntity
  8
D-0
  6
Continuous
 62
     4
370
     9
100
AcDbLine
 10
457.0496842667865
 20
402.3947419768842
 30
0.0
 11
457.0496842667865
 21
396.1446594969433
 31
0.0
  0
LINE
  5
22C
330
1F
100
AcDbEntity
  8
D-0
  6
Continuous
 62
     4
370
     9
100
AcDbLine
 10
457.0496842667865
 20
391.1445192810438
 30
0.0
 11
457.0496842667865
 21
384.1445704186071
 31
0.0
  0
LINE
  5
22D
330
1F
100
AcDbEntity
  8
D-0
  6
Continuous
 62
     4
370
     9
100
AcDbLine
 10
509.5498574746622
 20
384.1445704186071
 30
0.0
 11
497.0499399546031
 21
384.1445704186071
 31
0.0
  0
LINE
  5
22E
330
1F
100
AcDbEntity
  8
D-0
  6
Continuous
 62
     4
370
     9
100
AcDbLine
 10
467.0499646985854
 20
384.1445704186071
 30
0.0
 11
457.0496842667865
 21
384.1445704186071
 31
0.0
  0
LINE
  5
22F
330
1F
100
AcDbEntity
  8
D-0
  6
JWW_CENTER1
 62
     4
370
     9
100
AcDbLine
 10
439.5497502507391
 20
434.0233661454864
 30
0.0
 11
439.5497502507391
 21
384.1445704186071
 31
0.0
  0
LINE
  5
230
330
1F
100
AcDbEntity
  8
D-0
  6
Continuous
 62
     4
370
     9
100
AcDbLine
 10
444.7996809675888
 20
396.1446594969433
 30
0.0
 11
444.7996809675888
 21
391.1445192810438
 31
0.0
  0
LINE
  5
231
330
1F
100
AcDbEntity
  8
D-0
  6
Continuous
 62
     4
370
     9
100
AcDbLine
 10
434.2998195338893
 20
396.1446594969433
 30
0.0
 11
434.2998195338893
 21
391.1445192810438
 31
0.0
  0
LINE
  5
232
330
1F
100
AcDbEntity
  8
D-0
  6
Continuous
 62
     4
370
     9
100
AcDbLine
 10
457.0496842667865
 20
391.1445192810438
 30
0.0
 11
427.0495852908573
 21
391.1445192810438
 31
0.0
  0
LINE
  5
233
330
1F
100
AcDbEntity
  8
D-0
  6
Continuous
 62
     4
370
     9
100
AcDbLine
 10
427.0495852908573
 20
396.1446594969433
 30
0.0
 11
427.0495852908573
 21
391.1445192810438
 31
0.0
  0
LINE
  5
234
330
1F
100
AcDbEntity
  8
D-0
  6
Continuous
 62
     4
370
     9
100
AcDbLine
 10
457.0496842667865
 20
396.1446594969433
 30
0.0
 11
444.5497667467274
 21
396.1446594969433
 31
0.0
  0
LINE
  5
235
330
1F
100
AcDbEntity
  8
D-0
  6
Continuous
 62
     4
370
     9
100
AcDbLine
 10
434.5497337547511
 20
396.1446594969433
 30
0.0
 11
427.0495852908573
 21
396.1446594969433
 31
0.0
  0
LINE
  5
236
330
1F
100
AcDbEntity
  8
D-0
  6
Continuous
 62
     4
370
     9
100
AcDbLine
 10
485.7997172587628
 20
451.6445456746248
 30
0.0
 11
479.5500059385557
 21
447.8947188825007
 31
0.0
  0
LINE
  5
237
330
1F
100
AcDbEntity
  8
D-0
  6
Continuous
 62
     4
370
     9
100
AcDbLine
 10
479.5500059385557
 20
447.8947188825007
 30
0.0
 11
479.5500059385557
 21
446.644652898548
 31
0.0
  0
LINE
  5
238
330
1F
100
AcDbEntity
  8
D-0
  6
Continuous
 62
     4
370
     9
100
AcDbLine
 10
485.7997172587628
 20
451.6445456746248
 30
0.0
 11
503.2997749947214
 21
451.6445456746248
 31
0.0
  0
LINE
  5
239
330
1F
100
AcDbEntity
  8
D-0
  6
Continuous
 62
     4
370
     9
100
AcDbLine
 10
503.2997749947214
 20
451.6445456746248
 30
0.0
 11
509.5498574746622
 21
446.644652898548
 31
0.0
  0
LINE
  5
23A
330
1F
100
AcDbEntity
  8
D-0
  6
Continuous
 62
     4
370
     9
100
AcDbLine
 10
507.0498492266682
 20
441.0196034105835
 30
0.0
 11
502.04983273068
 21
436.019463194684
 31
0.0
  0
LINE
  5
23B
330
1F
100
AcDbEntity
  8
D-0
  6
Continuous
 62
     4
370
     9
100
AcDbLine
 10
507.0498492266682
 20
419.769471442678
 30
0.0
 11
502.04983273068
 21
424.7696116585775
 31
0.0
  0
LINE
  5
23C
330
1F
100
AcDbEntity
  8
D-0
  6
JWW_CENTER1
 62
     4
370
     9
100
AcDbLine
 10
442.353243441195
 20
430.3945374266308
 30
0.0
 11
508.3753843565245
 21
430.3945374266308
 31
0.0
  0
LINE
  5
23D
330
1F
100
AcDbEntity
  8
D-0
  6
Continuous
 62
     4
370
     9
100
AcDbLine
 10
507.0498492266682
 20
441.6446364025598
 30
0.0
 11
507.0498492266682
 21
395.3945456746248
 31
0.0
  0
LINE
  5
23E
330
1F
100
AcDbEntity
  8
D-0
  6
Continuous
 62
     4
370
     9
100
AcDbLine
 10
509.5498574746622
 20
446.644652898548
 30
0.0
 11
509.5498574746622
 21
442.8947023865126
 31
0.0
  0
LINE
  5
23F
330
1F
100
AcDbEntity
  8
D-0
  6
Continuous
 62
     4
370
     9
100
AcDbLine
 10
509.5498574746622
 20
442.8947023865126
 30
0.0
 11
507.0498492266682
 21
441.6446364025598
 31
0.0
  0
LINE
  5
240
330
1F
100
AcDbEntity
  8
D-0
  6
Continuous
 62
     4
370
     9
100
AcDbLine
 10
502.04983273068
 20
424.394616607374
 30
0.0
 11
502.0497090107688
 21
402.3947419768842
 31
0.0
  0
LINE
  5
241
330
1F
100
AcDbEntity
  8
D-0
  6
Continuous
 62
     4
370
     9
100
AcDbLine
 10
479.5500059385557
 20
446.644652898548
 30
0.0
 11
502.04983273068
 21
446.644652898548
 31
0.0
  0
LINE
  5
242
330
1F
100
AcDbEntity
  8
D-0
  6
Continuous
 62
     4
370
     9
100
AcDbLine
 10
502.04983273068
 20
446.644652898548
 30
0.0
 11
502.04983273068
 21
436.3944582458876
 31
0.0
  0
LINE
  5
243
330
1F
100
AcDbEntity
  8
D-3
  6
Continuous
 62
     3
370
     9
100
AcDbLine
 10
429.5497172587628
 20
404.1445126826485
 30
0.0
 11
429.5497172587628
 21
396.1446594969433
 31
0.0
  0
LINE
  5
244
330
1F
100
AcDbEntity
  8
D-3
  6
Continuous
 62
     3
370
     9
100
AcDbLine
 10
449.5497832427154
 20
404.1445126826485
 30
0.0
 11
449.5497832427154
 21
396.1446594969433
 31
0.0
  0
LINE
  5
245
330
1F
100
AcDbEntity
  8
D-3
  6
Continuous
 62
     3
370
     9
100
AcDbLine
 10
427.0495852908573
 20
396.1446594969433
 30
0.0
 11
279.5500884184966
 21
396.1446594969433
 31
0.0
  0
LINE
  5
246
330
1F
100
AcDbEntity
  8
D-3
  6
Continuous
 62
     3
370
     9
100
AcDbLine
 10
434.5497337547511
 20
404.1445126826485
 30
0.0
 11
279.5500884184966
 21
404.1445126826485
 31
0.0
  0
LINE
  5
247
330
1F
100
AcDbEntity
  8
D-B
  6
Continuous
 62
     7
370
     9
100
AcDbLine
 10
397.6907266152872
 20
404.1445126826485
 30
0.0
 11
392.6905863993878
 21
409.144652898548
 31
0.0
  0
LINE
  5
248
330
1F
100
AcDbEntity
  8
D-B
  6
Continuous
 62
     7
370
     9
100
AcDbLine
 10
402.9939806139149
 20
404.1445126826485
 30
0.0
 11
397.9938403980154
 21
409.144652898548
 31
0.0
  0
LINE
  5
249
330
1F
100
AcDbEntity
  8
D-4
  6
Continuous
 62
     7
370
     9
100
AcDbLine
 10
347.4745466902451
 20
409.144652898548
 30
0.0
 11
387.0158015070734
 21
473.9766082670024
 31
0.0
  0
LINE
  5
24A
330
1F
100
AcDbEntity
  8
D-4
  6
Continuous
 62
     7
370
     9
100
AcDbLine
 10
381.9583789722341
 20
404.1445126826485
 30
0.0
 11
517.6853076831717
 21
626.6826720272959
 31
0.0
  0
LINE
  5
24B
330
1F
100
AcDbEntity
  8
D-B
  6
Continuous
 62
     7
370
     9
100
AcDbLine
 10
344.7279646589951
 20
416.6445539226189
 30
0.0
 11
320.7999152106208
 21
416.6445539226189
 31
0.0
  0
LINE
  5
24C
330
1F
100
AcDbEntity
  8
D-B
  6
Continuous
 62
     7
370
     9
100
AcDbLine
 10
349.3023846600508
 20
424.1447023865126
 30
0.0
 11
320.7999152106208
 21
424.1447023865126
 31
0.0
  0
LINE
  5
24D
330
1F
100
AcDbEntity
  8
D-B
  6
Continuous
 62
     7
370
     9
100
AcDbLine
 10
353.8765572212839
 20
431.6446034105835
 30
0.0
 11
320.7999152106208
 21
431.6446034105835
 31
0.0
  0
LINE
  5
24E
330
1F
100
AcDbEntity
  8
D-B
  6
Continuous
 62
     7
370
     9
100
AcDbLine
 10
358.4508535024284
 20
439.1446281545657
 30
0.0
 11
320.7999152106208
 21
439.1446281545657
 31
0.0
  0
LINE
  5
24F
330
1F
100
AcDbEntity
  8
D-B
  6
Continuous
 62
     7
370
     9
100
AcDbLine
 10
363.0251497835727
 20
446.644652898548
 30
0.0
 11
339.5496677707982
 21
446.644652898548
 31
0.0
  0
LINE
  5
250
330
1F
100
AcDbEntity
  8
D-B
  6
Continuous
 62
     7
370
     9
100
AcDbLine
 10
392.3287056587839
 20
409.144652898548
 30
0.0
 11
434.5497337547511
 21
409.144652898548
 31
0.0
  0
LINE
  5
251
330
1F
100
AcDbEntity
  8
D-B
  6
Continuous
 62
     7
370
     9
100
AcDbLine
 10
434.5497337547511
 20
416.6445539226189
 30
0.0
 11
396.9030019399284
 21
416.6445539226189
 31
0.0
  0
LINE
  5
252
330
1F
100
AcDbEntity
  8
D-B
  6
Continuous
 62
     7
370
     9
100
AcDbLine
 10
382.2613690350508
 20
416.6445539226189
 30
0.0
 11
359.3695975638727
 21
416.6445539226189
 31
0.0
  0
LINE
  5
253
330
1F
100
AcDbEntity
  8
D-B
  6
Continuous
 62
     7
370
     9
100
AcDbLine
 10
436.650374129012
 20
424.1447023865126
 30
0.0
 11
401.4772982210727
 21
424.1447023865126
 31
0.0
  0
LINE
  5
254
330
1F
100
AcDbEntity
  8
D-B
  6
Continuous
 62
     7
370
     9
100
AcDbLine
 10
386.8357890361065
 20
424.1447023865126
 30
0.0
 11
363.9438938450169
 21
424.1447023865126
 31
0.0
  0
LINE
  5
255
330
1F
100
AcDbEntity
  8
D-B
  6
Continuous
 62
     7
370
     9
100
AcDbLine
 10
454.7119965424409
 20
431.6446034105835
 30
0.0
 11
406.0515945022172
 21
431.6446034105835
 31
0.0
  0
LINE
  5
256
330
1F
100
AcDbEntity
  8
D-B
  6
Continuous
 62
     7
370
     9
100
AcDbLine
 10
391.4099615973396
 20
431.6446034105835
 30
0.0
 11
368.5181901261615
 21
431.6446034105835
 31
0.0
  0
LINE
  5
257
330
1F
100
AcDbEntity
  8
D-B
  6
Continuous
 62
     7
370
     9
100
AcDbLine
 10
498.2997584987331
 20
439.1446281545657
 30
0.0
 11
410.6258907833615
 21
439.1446281545657
 31
0.0
  0
LINE
  5
258
330
1F
100
AcDbEntity
  8
D-B
  6
Continuous
 62
     7
370
     9
100
AcDbLine
 10
395.9843815983953
 20
439.1446281545657
 30
0.0
 11
373.0923626873945
 21
439.1446281545657
 31
0.0
  0
LINE
  5
259
330
1F
100
AcDbEntity
  8
D-B
  6
Continuous
 62
     7
370
     9
100
AcDbLine
 10
479.5500059385557
 20
446.644652898548
 30
0.0
 11
415.200187064506
 21
446.644652898548
 31
0.0
  0
LINE
  5
25A
330
1F
100
AcDbEntity
  8
D-B
  6
Continuous
 62
     7
370
     9
100
AcDbLine
 10
400.5585541596284
 20
446.644652898548
 30
0.0
 11
377.6666589685388
 21
446.644652898548
 31
0.0
  0
LINE
  5
25B
330
1F
100
AcDbEntity
  8
D-B
  6
Continuous
 62
     7
370
     9
100
AcDbLine
 10
375.3346623601141
 20
405.2874372234002
 30
0.0
 11
371.4774466849664
 21
409.144652898548
 31
0.0
  0
LINE
  5
25C
330
1F
100
AcDbEntity
  8
D-B
  6
Continuous
 62
     7
370
     9
100
AcDbLine
 10
377.3438737199115
 20
408.5816035821417
 30
0.0
 11
376.7808244035052
 21
409.144652898548
 31
0.0
  0
LINE
  5
25D
330
1F
100
AcDbEntity
  8
D-B
  6
Continuous
 62
     7
370
     9
100
AcDbLine
 10
392.3874726166596
 20
404.1445126826485
 30
0.0
 11
390.4566996806378
 21
406.0752856186705
 31
0.0
  0
LINE
  5
25E
330
1F
100
AcDbEntity
  8
D-4
  6
Continuous
 62
     7
370
     9
100
AcDbLine
 10
652.0479769320102
 20
337.8946034105835
 30
0.0
 11
652.0479769320102
 21
446.6445291786366
 31
0.0
  0
LINE
  5
25F
330
1F
100
AcDbEntity
  8
D-4
  6
Continuous
 62
     7
370
     9
100
AcDbLine
 10
543.2997832427154
 20
451.6446693945361
 30
0.0
 11
653.5479571368245
 21
451.6446693945361
 31
0.0
  0
LINE
  5
260
330
1F
100
AcDbEntity
  8
D-4
  6
Continuous
 62
     7
370
     9
100
AcDbLine
 10
652.0479769320102
 20
446.6445291786366
 30
0.0
 11
652.0479769320102
 21
468.5423967422452
 31
0.0
  0
ARC
  5
261
330
1F
100
AcDbEntity
  8
D-5
  6
Continuous
 62
     7
370
     9
100
AcDbCircle
 10
479.5500059385557
 20
407.8947106345066
 30
0.0
 40
37.50000386624723
100
AcDbArc
 50
248.4898071289062
 51
291.5101928710938
  0
ARC
  5
262
330
1F
100
AcDbEntity
  8
D-5
  6
Continuous
 62
     7
370
     9
100
AcDbCircle
 10
479.5500059385557
 20
407.8947106345066
 30
0.0
 40
35.50000190734863
100
AcDbArc
 50
257.8034057617188
 51
282.1965942382812
  0
ARC
  5
263
330
1F
100
AcDbEntity
  8
D-1
  6
Continuous
 62
     2
370
     9
100
AcDbCircle
 10
493.2999894425677
 20
379.1448013624416
 30
0.0
 40
2.500003415185052
100
AcDbArc
 50
90.0
 51
270.0
  0
ARC
  5
264
330
1F
100
AcDbEntity
  8
D-1
  6
Continuous
 62
     2
370
     9
100
AcDbCircle
 10
465.7997749947214
 20
379.1448013624416
 30
0.0
 40
2.500003415185052
100
AcDbArc
 50
270.0
 51
90.0
  0
ARC
  5
265
330
1F
100
AcDbEntity
  8
D-1
  6
Continuous
 62
     2
370
     9
100
AcDbCircle
 10
501.4247997387037
 20
374.1446611465421
 30
0.0
 40
2.500000032218727
100
AcDbArc
 50
90.0
 51
180.0
  0
ARC
  5
266
330
1F
100
AcDbEntity
  8
D-1
  6
Continuous
 62
     2
370
     9
100
AcDbCircle
 10
457.6745935388513
 20
374.1446611465421
 30
0.0
 40
2.500000032218727
100
AcDbArc
 50
0.0
 51
90.0
  0
ARC
  5
267
330
1F
100
AcDbEntity
  8
D-1
  6
Continuous
 62
     2
370
     9
100
AcDbCircle
 10
453.2996100348396
 20
374.1446611465421
 30
0.0
 40
2.500000032218727
100
AcDbArc
 50
90.0
 51
180.0
  0
ARC
  5
268
330
1F
100
AcDbEntity
  8
D-1
  6
Continuous
 62
     2
370
     9
100
AcDbCircle
 10
453.2996100348396
 20
352.894652898548
 30
0.0
 40
2.500000032218727
100
AcDbArc
 50
180.0
 51
270.0
  0
ARC
  5
269
330
1F
100
AcDbEntity
  8
D-1
  6
Continuous
 62
     2
370
     9
100
AcDbCircle
 10
463.9251708984375
 20
352.894652898548
 30
0.0
 40
2.500000032218727
100
AcDbArc
 50
270.0
 51
0.0
  0
ARC
  5
26A
330
1F
100
AcDbEntity
  8
D-1
  6
Continuous
 62
     2
370
     9
100
AcDbCircle
 10
463.9251708984375
 20
355.3946611465421
 30
0.0
 40
2.500000032218727
100
AcDbArc
 50
0.0
 51
90.0
  0
ARC
  5
26B
330
1F
100
AcDbEntity
  8
D-1
  6
Continuous
 62
     2
370
     9
100
AcDbCircle
 10
462.6747337547511
 20
360.3946776425303
 30
0.0
 40
2.500000032218727
100
AcDbArc
 50
180.0
 51
270.0
  0
ARC
  5
26C
330
1F
100
AcDbEntity
  8
D-1
  6
Continuous
 62
     2
370
     9
100
AcDbCircle
 10
509.5499811945734
 20
374.1446611465421
 30
0.0
 40
2.500000032218727
100
AcDbArc
 50
0.0
 51
90.0
  0
ARC
  5
26D
330
1F
100
AcDbEntity
  8
D-1
  6
Continuous
 62
     2
370
     9
100
AcDbCircle
 10
495.1749646985854
 20
361.6448673463943
 30
0.0
 40
3.75000004832809
100
AcDbArc
 50
270.0
 51
0.0
  0
ARC
  5
26E
330
1F
100
AcDbEntity
  8
D-1
  6
Continuous
 62
     2
370
     9
100
AcDbCircle
 10
527.049544050887
 20
354.1447188825007
 30
0.0
 40
2.500003415185052
100
AcDbArc
 50
0.0
 51
180.0
  0
ARC
  5
26F
330
1F
100
AcDbEntity
  8
D-1
  6
Continuous
 62
     2
370
     9
100
AcDbCircle
 10
509.5499811945734
 20
352.894652898548
 30
0.0
 40
2.500000032218727
100
AcDbArc
 50
270.0
 51
0.0
  0
ARC
  5
270
330
1F
100
AcDbEntity
  8
D-1
  6
Continuous
 62
     2
370
     9
100
AcDbCircle
 10
495.1749646985854
 20
352.894652898548
 30
0.0
 40
2.500000032218727
100
AcDbArc
 50
180.0
 51
270.0
  0
ARC
  5
271
330
1F
100
AcDbEntity
  8
D-1
  6
Continuous
 62
     2
370
     9
100
AcDbCircle
 10
527.049544050887
 20
394.1443559707608
 30
0.0
 40
2.500003415185052
100
AcDbArc
 50
180.0
 51
0.0
  0
ARC
  5
272
330
1F
100
AcDbEntity
  8
D-1
  6
Continuous
 62
     2
370
     9
100
AcDbCircle
 10
522.0497749947214
 20
441.6446364025598
 30
0.0
 40
5.000000064437454
100
AcDbArc
 50
90.0
 51
180.0
  0
ARC
  5
273
330
1F
100
AcDbEntity
  8
D-1
  6
Continuous
 62
     2
370
     9
100
AcDbCircle
 10
492.6749564505914
 20
365.3945704186071
 30
0.0
 40
2.500000032218727
100
AcDbArc
 50
270.0
 51
0.0
  0
ARC
  5
274
330
1F
100
AcDbEntity
  8
D-1
  6
Continuous
 62
     2
370
     9
100
AcDbCircle
 10
466.4248079866977
 20
365.3945704186071
 30
0.0
 40
2.500000032218727
100
AcDbArc
 50
180.0
 51
270.0
  0
ARC
  5
275
330
1F
100
AcDbEntity
  8
D-1
  6
Continuous
 62
     2
370
     9
100
AcDbCircle
 10
594.5498904666385
 20
357.2697601224712
 30
0.0
 40
5.000000064437454
100
AcDbArc
 50
0.0
 51
90.0
  0
ARC
  5
276
330
1F
100
AcDbEntity
  8
D-1
  6
Continuous
 62
     2
370
     9
100
AcDbCircle
 10
532.0498079866977
 20
347.6986640630327
 30
0.0
 40
5.000000064437454
100
AcDbArc
 50
0.0
 51
44.99964904785156
  0
ARC
  5
277
330
1F
100
AcDbEntity
  8
D-A
  6
Continuous
 62
     2
370
     9
100
AcDbCircle
 10
533.5500356313346
 20
373.519751874477
 30
0.0
 40
16.24999755137675
100
AcDbArc
 50
4.411743164062504
 51
37.97987365722657
  0
ARC
  5
278
330
1F
100
AcDbEntity
  8
D-A
  6
Continuous
 62
     2
370
     9
100
AcDbCircle
 10
541.550012536951
 20
379.394715583303
 30
0.0
 40
0.5000000064437454
100
AcDbArc
 50
300.8598175048829
 51
0.0000000000000509
  0
ARC
  5
279
330
1F
100
AcDbEntity
  8
D-A
  6
Continuous
 62
     2
370
     9
100
AcDbCircle
 10
541.550012536951
 20
367.6447881656511
 30
0.0
 40
0.5000000064437454
100
AcDbArc
 50
0.0
 51
59.14018249511719
  0
ARC
  5
27A
330
1F
100
AcDbEntity
  8
D-1
  6
Continuous
 62
     2
370
     9
100
AcDbCircle
 10
554.7275440112967
 20
374.7696941385184
 30
0.0
 40
12.50000064437454
100
AcDbArc
 50
225.0
 51
270.0
  0
ARC
  5
27B
330
1F
100
AcDbEntity
  8
D-A
  6
Continuous
 62
     2
370
     9
100
AcDbCircle
 10
533.5500356313346
 20
373.519751874477
 30
0.0
 40
16.24999755137675
100
AcDbArc
 50
327.3879852294923
 51
355.5882568359376
  0
ARC
  5
27C
330
1F
100
AcDbEntity
  8
D-1
  6
JWW_DASHED3
 62
     2
370
     9
100
AcDbCircle
 10
533.5500356313346
 20
373.519751874477
 30
0.0
 40
16.24999755137675
100
AcDbArc
 50
322.0201263427734
 51
327.3879852294922
  0
ARC
  5
27D
330
1F
100
AcDbEntity
  8
D-A
  6
Continuous
 62
     2
370
     9
100
AcDbCircle
 10
434.5497337547511
 20
389.0736954054103
 30
0.0
 40
3.75000004832809
100
AcDbArc
 50
180.0
 51
254.5338897705078
  0
ARC
  5
27E
330
1F
100
AcDbEntity
  8
D-A
  6
Continuous
 62
     2
370
     9
100
AcDbCircle
 10
444.5497667467274
 20
389.0736954054103
 30
0.0
 40
3.75000004832809
100
AcDbArc
 50
285.4661102294922
 51
0.0
  0
ARC
  5
27F
330
1F
100
AcDbEntity
  8
D-A
  6
Continuous
 62
     2
370
     9
100
AcDbCircle
 10
439.5497502507391
 20
407.1445968121882
 30
0.0
 40
22.50000077324945
100
AcDbArc
 50
254.5339660644532
 51
266.6239776611328
  0
ARC
  5
280
330
1F
100
AcDbEntity
  8
D-A
  6
Continuous
 62
     2
370
     9
100
AcDbCircle
 10
439.5497502507391
 20
407.1445968121882
 30
0.0
 40
22.50000077324945
100
AcDbArc
 50
273.3760223388672
 51
285.4660186767578
  0
TEXT
  5
281
330
1F
100
AcDbEntity
  8
D-4
  6
Continuous
 62
     2
370
     9
100
AcDbText
 10
317.272569811022
 20
19.25031227618735
 30
0.0
 40
15.24
  1
断面詳細図　Ｓ＝１：２
 41
1.113636363636364
  7
ＭＳ ゴシック
100
AcDbText
  0
TEXT
  5
282
330
1F
100
AcDbEntity
  8
D-4
  6
Continuous
 62
     7
370
     9
100
AcDbText
 10
238.1809750118772
 20
-15.07532618453902
 30
0.0
 40
11.43
  1
処理：陽極酸化塗装複合皮膜処理（アルミ材のみ）
 41
1.159420289855073
  7
ＭＳ ゴシック
100
AcDbText
  0
TEXT
  5
283
330
1F
100
AcDbEntity
  8
D-4
  6
Continuous
 62
     2
370
     9
100
AcDbText
 10
646.7279686840161
 20
337.832685718966
 30
0.0
 40
15.24
  1
10
 50
90.0
 41
1.0625
  7
ＭＳ ゴシック
100
AcDbText
  0
TEXT
  5
284
330
1F
100
AcDbEntity
  8
D-4
  6
Continuous
 62
     2
370
     9
100
AcDbText
 10
646.7279686840161
 20
382.894514744647
 30
0.0
 40
15.24
  1
33.5
 50
90.0
 41
1.09375
  7
ＭＳ ゴシック
100
AcDbText
  0
TEXT
  5
285
330
1F
100
AcDbEntity
  8
D-4
  6
Continuous
 62
     2
370
     9
100
AcDbText
 10
754.4393895164698
 20
344.7696116585775
 30
0.0
 40
15.24
  1
55～65
 50
90.0
 41
1.104166666666667
  7
ＭＳ ゴシック
100
AcDbText
  0
TEXT
  5
286
330
1F
100
AcDbEntity
  8
D-4
  6
Continuous
 62
     2
370
     9
100
AcDbText
 10
477.6747873667125
 20
128.7210302475767
 30
0.0
 40
15.24
  1
33
 41
1.0625
  7
ＭＳ ゴシック
100
AcDbText
  0
TEXT
  5
287
330
1F
100
AcDbEntity
  8
D-4
  6
Continuous
 62
     2
370
     9
100
AcDbText
 10
553.924729630754
 20
128.7210302475767
 30
0.0
 40
15.24
  1
28
 41
1.0625
  7
ＭＳ ゴシック
100
AcDbText
  0
TEXT
  5
288
330
1F
100
AcDbEntity
  8
D-4
  6
Continuous
 62
     2
370
     9
100
AcDbText
 10
501.4249399546031
 20
80.22876356683344
 30
0.0
 40
15.24
  1
70～80
 41
1.104166666666667
  7
ＭＳ ゴシック
100
AcDbText
  0
TEXT
  5
289
330
1F
100
AcDbEntity
  8
D-4
  6
Continuous
 62
     2
370
     9
100
AcDbText
 10
494.7992438239021
 20
529.599400377961
 30
0.0
 40
15.24
  1
1
 41
0.9999999999999998
  7
ＭＳ ゴシック
100
AcDbText
  0
TEXT
  5
28A
330
1F
100
AcDbEntity
  8
D-4
  6
Continuous
 62
     2
370
     9
100
AcDbText
 10
516.4249770705765
 20
529.599400377961
 30
0.0
 40
15.24
  1
12
 41
1.0625
  7
ＭＳ ゴシック
100
AcDbText
  0
TEXT
  5
28B
330
1F
100
AcDbEntity
  8
D-4
  6
Continuous
 62
     7
370
     9
100
AcDbText
 10
316.0566051586255
 20
479.6026556302837
 30
0.0
 40
11.43
  1
接着シロ
 41
1.125
  7
ＭＳ ゴシック
100
AcDbText
  0
TEXT
  5
28C
330
1F
100
AcDbEntity
  8
D-4
  6
Continuous
 62
     2
370
     9
100
AcDbText
 10
646.2280165223817
 20
456.3191025099025
 30
0.0
 40
15.24
  1
2
 50
90.0
 41
0.9999999999999998
  7
ＭＳ ゴシック
100
AcDbText
  0
LWPOLYLINE
  5
28D
330
1F
100
AcDbEntity
  8
D-4
  6
Continuous
 62
     7
370
     9
100
AcDbPolyline
 90
        4
 70
     1
 43
0.5
 10
652.2979769320102
 20
337.8946034105835
 42
0.4142135623731
 10
652.0479769320102
 20
338.1446034105835
 42
0.4142135623731
 10
651.7979769320101
 20
337.8946034105835
 42
0.4142135623731
 10
652.0479769320102
 20
337.6446034105835
 42
0.4142135623731
  0
LWPOLYLINE
  5
28E
330
1F
100
AcDbEntity
  8
D-4
  6
Continuous
 62
     7
370
     9
100
AcDbPolyline
 90
        4
 70
     1
 43
0.5
 10
652.2979769320102
 20
362.8945621706131
 42
0.4142135623731
 10
652.0479769320102
 20
363.1445621706131
 42
0.4142135623731
 10
651.7979769320101
 20
362.8945621706131
 42
0.4142135623731
 10
652.0479769320102
 20
362.6445621706131
 42
0.4142135623731
  0
LWPOLYLINE
  5
28F
330
1F
100
AcDbEntity
  8
D-4
  6
Continuous
 62
     7
370
     9
100
AcDbPolyline
 90
        4
 70
     1
 43
0.5
 10
652.2979769320102
 20
446.6445291786366
 42
0.4142135623731
 10
652.0479769320102
 20
446.8945291786366
 42
0.4142135623731
 10
651.7979769320101
 20
446.6445291786366
 42
0.4142135623731
 10
652.0479769320102
 20
446.3945291786366
 42
0.4142135623731
  0
LWPOLYLINE
  5
290
330
1F
100
AcDbEntity
  8
D-4
  6
Continuous
 62
     7
370
     9
100
AcDbPolyline
 90
        4
 70
     1
 43
0.5
 10
760.0093977644639
 20
309.1445704186071
 42
0.4142135623731
 10
759.7593977644638
 20
309.394570418607
 42
0.4142135623731
 10
759.5093977644638
 20
309.1445704186071
 42
0.4142135623731
 10
759.7593977644638
 20
308.8945704186071
 42
0.4142135623731
  0
LWPOLYLINE
  5
291
330
1F
100
AcDbEntity
  8
D-4
  6
Continuous
 62
     7
370
     9
100
AcDbPolyline
 90
        4
 70
     1
 43
0.5
 10
760.0093977644639
 20
446.6445291786366
 42
0.4142135623731
 10
759.7593977644638
 20
446.8945291786366
 42
0.4142135623731
 10
759.5093977644638
 20
446.6445291786366
 42
0.4142135623731
 10
759.7593977644638
 20
446.3945291786366
 42
0.4142135623731
  0
LWPOLYLINE
  5
292
330
1F
100
AcDbEntity
  8
D-4
  6
Continuous
 62
     7
370
     9
100
AcDbPolyline
 90
        4
 70
     1
 43
0.5
 10
447.2997749947214
 20
123.4008982796713
 42
0.4142135623731
 10
447.0497749947214
 20
123.6508982796713
 42
0.4142135623731
 10
446.7997749947214
 20
123.4008982796713
 42
0.4142135623731
 10
447.0497749947214
 20
123.1508982796713
 42
0.4142135623731
  0
LWPOLYLINE
  5
293
330
1F
100
AcDbEntity
  8
D-4
  6
Continuous
 62
     7
370
     9
100
AcDbPolyline
 90
        4
 70
     1
 43
0.5
 10
529.7996760187922
 20
123.4008982796713
 42
0.4142135623731
 10
529.5496760187922
 20
123.6508982796713
 42
0.4142135623731
 10
529.2996760187922
 20
123.4008982796713
 42
0.4142135623731
 10
529.5496760187922
 20
123.1508982796713
 42
0.4142135623731
  0
LWPOLYLINE
  5
294
330
1F
100
AcDbEntity
  8
D-4
  6
Continuous
 62
     7
370
     9
100
AcDbPolyline
 90
        4
 70
     1
 43
0.5
 10
599.7997832427153
 20
123.4008982796713
 42
0.4142135623731
 10
599.5497832427154
 20
123.6508982796713
 42
0.4142135623731
 10
599.2997832427154
 20
123.4008982796713
 42
0.4142135623731
 10
599.5497832427154
 20
123.1508982796713
 42
0.4142135623731
  0
LWPOLYLINE
  5
295
330
1F
100
AcDbEntity
  8
D-4
  6
Continuous
 62
     7
370
     9
100
AcDbPolyline
 90
        4
 70
     1
 43
0.5
 10
447.2997749947214
 20
74.90875531883937
 42
0.4142135623731
 10
447.0497749947214
 20
75.15875531883937
 42
0.4142135623731
 10
446.7997749947214
 20
74.90875531883937
 42
0.4142135623731
 10
447.0497749947214
 20
74.65875531883937
 42
0.4142135623731
  0
LWPOLYLINE
  5
296
330
1F
100
AcDbEntity
  8
D-4
  6
Continuous
 62
     7
370
     9
100
AcDbPolyline
 90
        4
 70
     1
 43
0.5
 10
622.2998574746622
 20
74.90875531883937
 42
0.4142135623731
 10
622.0498574746623
 20
75.15875531883937
 42
0.4142135623731
 10
621.7998574746623
 20
74.90875531883937
 42
0.4142135623731
 10
622.0498574746623
 20
74.65875531883937
 42
0.4142135623731
  0
LWPOLYLINE
  5
297
330
1F
100
AcDbEntity
  8
D-4
  6
Continuous
 62
     7
370
     9
100
AcDbPolyline
 90
        4
 70
     1
 43
0.5
 10
509.7999811945734
 20
524.2793921299669
 42
0.4142135623731
 10
509.5499811945734
 20
524.5293921299669
 42
0.4142135623731
 10
509.2999811945734
 20
524.2793921299669
 42
0.4142135623731
 10
509.5499811945734
 20
524.0293921299669
 42
0.4142135623731
  0
LWPOLYLINE
  5
298
330
1F
100
AcDbEntity
  8
D-4
  6
Continuous
 62
     7
370
     9
100
AcDbPolyline
 90
        4
 70
     1
 43
0.5
 10
512.2999894425677
 20
524.2793921299669
 42
0.4142135623731
 10
512.0499894425677
 20
524.5293921299669
 42
0.4142135623731
 10
511.7999894425677
 20
524.2793921299669
 42
0.4142135623731
 10
512.0499894425677
 20
524.0293921299669
 42
0.4142135623731
  0
LWPOLYLINE
  5
299
330
1F
100
AcDbEntity
  8
D-4
  6
Continuous
 62
     7
370
     9
100
AcDbPolyline
 90
        4
 70
     1
 43
0.5
 10
542.299840978674
 20
524.2793921299669
 42
0.4142135623731
 10
542.049840978674
 20
524.5293921299669
 42
0.4142135623731
 10
541.799840978674
 20
524.2793921299669
 42
0.4142135623731
 10
542.049840978674
 20
524.0293921299669
 42
0.4142135623731
  0
LWPOLYLINE
  5
29A
330
1F
100
AcDbEntity
  8
D-4
  6
Continuous
 62
     7
370
     9
100
AcDbPolyline
 90
        4
 70
     1
 43
0.5
 10
542.299840978674
 20
565.2777582023381
 42
0.4142135623731
 10
542.049840978674
 20
565.5277582023381
 42
0.4142135623731
 10
541.799840978674
 20
565.2777582023381
 42
0.4142135623731
 10
542.049840978674
 20
565.0277582023381
 42
0.4142135623731
  0
LWPOLYLINE
  5
29B
330
1F
100
AcDbEntity
  8
D-4
  6
Continuous
 62
     7
370
     9
100
AcDbPolyline
 90
        4
 70
     1
 43
0.5
 10
652.2979769320102
 20
451.6446693945361
 42
0.4142135623731
 10
652.0479769320102
 20
451.8946693945361
 42
0.4142135623731
 10
651.7979769320101
 20
451.6446693945361
 42
0.4142135623731
 10
652.0479769320102
 20
451.3946693945361
 42
0.4142135623731
  0
TEXT
  5
29C
330
1F
100
AcDbEntity
  8
D-4
  6
Continuous
 62
     2
370
     9
100
AcDbText
 10
136.8594525311445
 20
128.7209065276653
 30
0.0
 40
15.24
  1
□250
 41
1.1
  7
ＭＳ ゴシック
100
AcDbText
  0
TEXT
  5
29D
330
1F
100
AcDbEntity
  8
D-4
  6
Continuous
 62
     2
370
     9
100
AcDbText
 10
136.8594525311445
 20
529.599400377961
 30
0.0
 40
15.24
  1
□300
 41
1.1
  7
ＭＳ ゴシック
100
AcDbText
  0
TEXT
  5
29E
330
1F
100
AcDbEntity
  8
D-4
  6
Continuous
 62
     2
370
     9
100
AcDbText
 10
136.0187757337416
 20
571.2070870135714
 30
0.0
 40
15.24
  1
□326
 41
1.1
  7
ＭＳ ゴシック
100
AcDbText
  0
LINE
  5
29F
330
1F
100
AcDbEntity
  8
D-0
  6
Continuous
 62
     7
370
     9
100
AcDbLine
 10
597.00274936673
 20
391.9651157164009
 30
0.0
 11
597.00274936673
 21
392.7152568601997
 31
0.0
  0
LINE
  5
2A0
330
1F
100
AcDbEntity
  8
D-0
  6
Continuous
 62
     7
370
     9
100
AcDbLine
 10
597.00274936673
 20
392.7152568601997
 30
0.0
 11
597.7528905105288
 21
392.7152568601997
 31
0.0
  0
LINE
  5
2A1
330
1F
100
AcDbEntity
  8
D-0
  6
Continuous
 62
     7
370
     9
100
AcDbLine
 10
597.7528905105288
 20
392.7152568601997
 30
0.0
 11
597.7528905105288
 21
391.9651157164009
 31
0.0
  0
LINE
  5
2A2
330
1F
100
AcDbEntity
  8
D-0
  6
Continuous
 62
     7
370
     9
100
AcDbLine
 10
597.7528905105288
 20
391.9651157164009
 30
0.0
 11
597.00274936673
 21
391.9651157164009
 31
0.0
  0
LINE
  5
2A3
330
1F
100
AcDbEntity
  8
D-0
  6
Continuous
 62
     7
370
     9
100
AcDbLine
 10
581.6997098159487
 20
386.535027673188
 30
0.0
 11
581.6997098159487
 21
387.2851497435005
 31
0.0
  0
LINE
  5
2A4
330
1F
100
AcDbEntity
  8
D-0
  6
Continuous
 62
     7
370
     9
100
AcDbLine
 10
581.6997098159487
 20
387.2851497435005
 30
0.0
 11
582.4498509597476
 21
387.2851497435005
 31
0.0
  0
LINE
  5
2A5
330
1F
100
AcDbEntity
  8
D-0
  6
Continuous
 62
     7
370
     9
100
AcDbLine
 10
582.4498509597476
 20
387.2851497435005
 30
0.0
 11
582.4498509597476
 21
386.535027673188
 31
0.0
  0
LINE
  5
2A6
330
1F
100
AcDbEntity
  8
D-0
  6
Continuous
 62
     7
370
     9
100
AcDbLine
 10
582.4498509597476
 20
386.535027673188
 30
0.0
 11
581.6997098159487
 21
386.535027673188
 31
0.0
  0
LINE
  5
2A7
330
1F
100
AcDbEntity
  8
D-0
  6
Continuous
 62
     7
370
     9
100
AcDbLine
 10
614.7742222976382
 20
404.2229968809517
 30
0.0
 11
614.7742222976382
 21
404.9731380247505
 31
0.0
  0
LINE
  5
2A8
330
1F
100
AcDbEntity
  8
D-0
  6
Continuous
 62
     7
370
     9
100
AcDbLine
 10
614.7742222976382
 20
404.9731380247505
 30
0.0
 11
615.524363441437
 21
404.9731380247505
 31
0.0
  0
LINE
  5
2A9
330
1F
100
AcDbEntity
  8
D-0
  6
Continuous
 62
     7
370
     9
100
AcDbLine
 10
615.524363441437
 20
404.9731380247505
 30
0.0
 11
615.524363441437
 21
404.2229968809517
 31
0.0
  0
LINE
  5
2AA
330
1F
100
AcDbEntity
  8
D-0
  6
Continuous
 62
     7
370
     9
100
AcDbLine
 10
615.524363441437
 20
404.2229968809517
 30
0.0
 11
614.7742222976382
 21
404.2229968809517
 31
0.0
  0
LINE
  5
2AB
330
1F
100
AcDbEntity
  8
D-0
  6
Continuous
 62
     7
370
     9
100
AcDbLine
 10
621.6852711867983
 20
387.4389964842231
 30
0.0
 11
621.6852711867983
 21
388.189137628022
 31
0.0
  0
LINE
  5
2AC
330
1F
100
AcDbEntity
  8
D-0
  6
Continuous
 62
     7
370
     9
100
AcDbLine
 10
621.6852711867983
 20
388.189137628022
 30
0.0
 11
622.4351643752749
 21
388.189137628022
 31
0.0
  0
LINE
  5
2AD
330
1F
100
AcDbEntity
  8
D-0
  6
Continuous
 62
     7
370
     9
100
AcDbLine
 10
622.4351643752749
 20
388.189137628022
 30
0.0
 11
622.4351643752749
 21
387.4389964842231
 31
0.0
  0
LINE
  5
2AE
330
1F
100
AcDbEntity
  8
D-0
  6
Continuous
 62
     7
370
     9
100
AcDbLine
 10
622.4351643752749
 20
387.4389964842231
 30
0.0
 11
621.6852711867983
 21
387.4389964842231
 31
0.0
  0
LINE
  5
2AF
330
1F
100
AcDbEntity
  8
D-0
  6
Continuous
 62
     7
370
     9
100
AcDbLine
 10
600.9521435928042
 20
373.2064182066352
 30
0.0
 11
600.9521435928042
 21
373.9565593504341
 31
0.0
  0
LINE
  5
2B0
330
1F
100
AcDbEntity
  8
D-0
  6
Continuous
 62
     7
370
     9
100
AcDbLine
 10
600.9521435928042
 20
373.9565593504341
 30
0.0
 11
601.7020367812808
 21
373.9565593504341
 31
0.0
  0
LINE
  5
2B1
330
1F
100
AcDbEntity
  8
D-0
  6
Continuous
 62
     7
370
     9
100
AcDbLine
 10
601.7020367812808
 20
373.9565593504341
 30
0.0
 11
601.7020367812808
 21
373.2064182066352
 31
0.0
  0
LINE
  5
2B2
330
1F
100
AcDbEntity
  8
D-0
  6
Continuous
 62
     7
370
     9
100
AcDbLine
 10
601.7020367812808
 20
373.2064182066352
 30
0.0
 11
600.9521435928042
 21
373.2064182066352
 31
0.0
  0
LINE
  5
2B3
330
1F
100
AcDbEntity
  8
D-0
  6
Continuous
 62
     7
370
     9
100
AcDbLine
 10
568.1055211257632
 20
396.2897998594673
 30
0.0
 11
568.1055211257632
 21
397.0399410032661
 31
0.0
  0
LINE
  5
2B4
330
1F
100
AcDbEntity
  8
D-0
  6
Continuous
 62
     7
370
     9
100
AcDbLine
 10
568.1055211257632
 20
397.0399410032661
 30
0.0
 11
568.8554143142397
 21
397.0399410032661
 31
0.0
  0
LINE
  5
2B5
330
1F
100
AcDbEntity
  8
D-0
  6
Continuous
 62
     7
370
     9
100
AcDbLine
 10
568.8554143142397
 20
397.0399410032661
 30
0.0
 11
568.8554143142397
 21
396.2897998594673
 31
0.0
  0
LINE
  5
2B6
330
1F
100
AcDbEntity
  8
D-0
  6
Continuous
 62
     7
370
     9
100
AcDbLine
 10
568.8554143142397
 20
396.2897998594673
 30
0.0
 11
568.1055211257632
 21
396.2897998594673
 31
0.0
  0
LINE
  5
2B7
330
1F
100
AcDbEntity
  8
D-0
  6
Continuous
 62
     7
370
     9
100
AcDbLine
 10
626.5663861465151
 20
374.4227916502388
 30
0.0
 11
626.5663861465151
 21
375.1729327940376
 31
0.0
  0
LINE
  5
2B8
330
1F
100
AcDbEntity
  8
D-0
  6
Continuous
 62
     7
370
     9
100
AcDbLine
 10
626.5663861465151
 20
375.1729327940376
 30
0.0
 11
627.3162793349917
 21
375.1729327940376
 31
0.0
  0
LINE
  5
2B9
330
1F
100
AcDbEntity
  8
D-0
  6
Continuous
 62
     7
370
     9
100
AcDbLine
 10
627.3162793349917
 20
375.1729327940376
 30
0.0
 11
627.3162793349917
 21
374.4227916502388
 31
0.0
  0
LINE
  5
2BA
330
1F
100
AcDbEntity
  8
D-0
  6
Continuous
 62
     7
370
     9
100
AcDbLine
 10
627.3162793349917
 20
374.4227916502388
 30
0.0
 11
626.5663861465151
 21
374.4227916502388
 31
0.0
  0
LINE
  5
2BB
330
1F
100
AcDbEntity
  8
D-0
  6
Continuous
 62
     7
370
     9
100
AcDbLine
 10
696.6093205642397
 20
384.4523174070747
 30
0.0
 11
696.6093205642397
 21
385.2024585508735
 31
0.0
  0
LINE
  5
2BC
330
1F
100
AcDbEntity
  8
D-0
  6
Continuous
 62
     7
370
     9
100
AcDbLine
 10
696.6093205642397
 20
385.2024585508735
 30
0.0
 11
697.3594617080386
 21
385.2024585508735
 31
0.0
  0
LINE
  5
2BD
330
1F
100
AcDbEntity
  8
D-0
  6
Continuous
 62
     7
370
     9
100
AcDbLine
 10
697.3594617080386
 20
385.2024585508735
 30
0.0
 11
697.3594617080386
 21
384.4523174070747
 31
0.0
  0
LINE
  5
2BE
330
1F
100
AcDbEntity
  8
D-0
  6
Continuous
 62
     7
370
     9
100
AcDbLine
 10
697.3594617080386
 20
384.4523174070747
 30
0.0
 11
696.6093205642397
 21
384.4523174070747
 31
0.0
  0
LINE
  5
2BF
330
1F
100
AcDbEntity
  8
D-0
  6
Continuous
 62
     7
370
     9
100
AcDbLine
 10
675.1072072219546
 20
380.4206783079536
 30
0.0
 11
675.1072072219546
 21
381.1708194517524
 31
0.0
  0
LINE
  5
2C0
330
1F
100
AcDbEntity
  8
D-0
  6
Continuous
 62
     7
370
     9
100
AcDbLine
 10
675.1072072219546
 20
381.1708194517524
 30
0.0
 11
675.8573483657534
 21
381.1708194517524
 31
0.0
  0
LINE
  5
2C1
330
1F
100
AcDbEntity
  8
D-0
  6
Continuous
 62
     7
370
     9
100
AcDbLine
 10
675.8573483657534
 20
381.1708194517524
 30
0.0
 11
675.8573483657534
 21
380.4206783079536
 31
0.0
  0
LINE
  5
2C2
330
1F
100
AcDbEntity
  8
D-0
  6
Continuous
 62
     7
370
     9
100
AcDbLine
 10
675.8573483657534
 20
380.4206783079536
 30
0.0
 11
675.1072072219546
 21
380.4206783079536
 31
0.0
  0
LINE
  5
2C3
330
1F
100
AcDbEntity
  8
D-0
  6
Continuous
 62
     7
370
     9
100
AcDbLine
 10
638.8223027419741
 20
400.5788356565864
 30
0.0
 11
638.8223027419741
 21
401.3289768003852
 31
0.0
  0
LINE
  5
2C4
330
1F
100
AcDbEntity
  8
D-0
  6
Continuous
 62
     7
370
     9
100
AcDbLine
 10
638.8223027419741
 20
401.3289768003852
 30
0.0
 11
639.5724438857729
 21
401.3289768003852
 31
0.0
  0
LINE
  5
2C5
330
1F
100
AcDbEntity
  8
D-0
  6
Continuous
 62
     7
370
     9
100
AcDbLine
 10
639.5724438857729
 20
401.3289768003852
 30
0.0
 11
639.5724438857729
 21
400.5788356565864
 31
0.0
  0
LINE
  5
2C6
330
1F
100
AcDbEntity
  8
D-0
  6
Continuous
 62
     7
370
     9
100
AcDbLine
 10
639.5724438857729
 20
400.5788356565864
 30
0.0
 11
638.8223027419741
 21
400.5788356565864
 31
0.0
  0
LINE
  5
2C7
330
1F
100
AcDbEntity
  8
D-0
  6
Continuous
 62
     7
370
     9
100
AcDbLine
 10
698.6251401138003
 20
401.2506801390083
 30
0.0
 11
698.6251401138003
 21
402.0008212828071
 31
0.0
  0
LINE
  5
2C8
330
1F
100
AcDbEntity
  8
D-0
  6
Continuous
 62
     7
370
     9
100
AcDbLine
 10
698.6251401138003
 20
402.0008212828071
 30
0.0
 11
699.3752812575991
 21
402.0008212828071
 31
0.0
  0
LINE
  5
2C9
330
1F
100
AcDbEntity
  8
D-0
  6
Continuous
 62
     7
370
     9
100
AcDbLine
 10
699.3752812575991
 20
402.0008212828071
 30
0.0
 11
699.3752812575991
 21
401.2506801390083
 31
0.0
  0
LINE
  5
2CA
330
1F
100
AcDbEntity
  8
D-0
  6
Continuous
 62
     7
370
     9
100
AcDbLine
 10
699.3752812575991
 20
401.2506801390083
 30
0.0
 11
698.6251401138003
 21
401.2506801390083
 31
0.0
  0
LINE
  5
2CB
330
1F
100
AcDbEntity
  8
D-0
  6
Continuous
 62
     7
370
     9
100
AcDbLine
 10
584.169169717814
 20
400.5801318459846
 30
0.0
 11
584.169169717814
 21
401.3302729897834
 31
0.0
  0
LINE
  5
2CC
330
1F
100
AcDbEntity
  8
D-0
  6
Continuous
 62
     7
370
     9
100
AcDbLine
 10
584.169169717814
 20
401.3302729897834
 30
0.0
 11
584.9190629062906
 21
401.3302729897834
 31
0.0
  0
LINE
  5
2CD
330
1F
100
AcDbEntity
  8
D-0
  6
Continuous
 62
     7
370
     9
100
AcDbLine
 10
584.9190629062906
 20
401.3302729897834
 30
0.0
 11
584.9190629062906
 21
400.5801318459846
 31
0.0
  0
LINE
  5
2CE
330
1F
100
AcDbEntity
  8
D-0
  6
Continuous
 62
     7
370
     9
100
AcDbLine
 10
584.9190629062906
 20
400.5801318459846
 30
0.0
 11
584.169169717814
 21
400.5801318459846
 31
0.0
  0
LINE
  5
2CF
330
1F
100
AcDbEntity
  8
D-0
  6
Continuous
 62
     7
370
     9
100
AcDbLine
 10
665.9831960830277
 20
365.4272488342122
 30
0.0
 11
665.9831960830277
 21
366.177389978011
 31
0.0
  0
LINE
  5
2D0
330
1F
100
AcDbEntity
  8
D-0
  6
Continuous
 62
     7
370
     9
100
AcDbLine
 10
665.9831960830277
 20
366.177389978011
 30
0.0
 11
666.7333372268265
 21
366.177389978011
 31
0.0
  0
LINE
  5
2D1
330
1F
100
AcDbEntity
  8
D-0
  6
Continuous
 62
     7
370
     9
100
AcDbLine
 10
666.7333372268265
 20
366.177389978011
 30
0.0
 11
666.7333372268265
 21
365.4272488342122
 31
0.0
  0
LINE
  5
2D2
330
1F
100
AcDbEntity
  8
D-0
  6
Continuous
 62
     7
370
     9
100
AcDbLine
 10
666.7333372268265
 20
365.4272488342122
 30
0.0
 11
665.9831960830277
 21
365.4272488342122
 31
0.0
  0
LINE
  5
2D3
330
1F
100
AcDbEntity
  8
D-0
  6
Continuous
 62
     7
370
     9
100
AcDbLine
 10
719.9679807082498
 20
404.555755519935
 30
0.0
 11
719.9679807082498
 21
405.3058966637338
 31
0.0
  0
LINE
  5
2D4
330
1F
100
AcDbEntity
  8
D-0
  6
Continuous
 62
     7
370
     9
100
AcDbLine
 10
719.9679807082498
 20
405.3058966637338
 30
0.0
 11
720.7181218520486
 21
405.3058966637338
 31
0.0
  0
LINE
  5
2D5
330
1F
100
AcDbEntity
  8
D-0
  6
Continuous
 62
     7
370
     9
100
AcDbLine
 10
720.7181218520486
 20
405.3058966637338
 30
0.0
 11
720.7181218520486
 21
404.555755519935
 31
0.0
  0
LINE
  5
2D6
330
1F
100
AcDbEntity
  8
D-0
  6
Continuous
 62
     7
370
     9
100
AcDbLine
 10
720.7181218520486
 20
404.555755519935
 30
0.0
 11
719.9679807082498
 21
404.555755519935
 31
0.0
  0
LINE
  5
2D7
330
1F
100
AcDbEntity
  8
D-0
  6
Continuous
 62
     7
370
     9
100
AcDbLine
 10
718.2940338981655
 20
383.4221770426195
 30
0.0
 11
718.2940338981655
 21
384.1723181864183
 31
0.0
  0
LINE
  5
2D8
330
1F
100
AcDbEntity
  8
D-0
  6
Continuous
 62
     7
370
     9
100
AcDbLine
 10
718.2940338981655
 20
384.1723181864183
 30
0.0
 11
719.0441750419643
 21
384.1723181864183
 31
0.0
  0
LINE
  5
2D9
330
1F
100
AcDbEntity
  8
D-0
  6
Continuous
 62
     7
370
     9
100
AcDbLine
 10
719.0441750419643
 20
384.1723181864183
 30
0.0
 11
719.0441750419643
 21
383.4221770426195
 31
0.0
  0
LINE
  5
2DA
330
1F
100
AcDbEntity
  8
D-0
  6
Continuous
 62
     7
370
     9
100
AcDbLine
 10
719.0441750419643
 20
383.4221770426195
 30
0.0
 11
718.2940338981655
 21
383.4221770426195
 31
0.0
  0
LINE
  5
2DB
330
1F
100
AcDbEntity
  8
D-0
  6
Continuous
 62
     7
370
     9
100
AcDbLine
 10
721.8511708695949
 20
363.9625453753883
 30
0.0
 11
721.8511708695949
 21
364.7126865191872
 31
0.0
  0
LINE
  5
2DC
330
1F
100
AcDbEntity
  8
D-0
  6
Continuous
 62
     7
370
     9
100
AcDbLine
 10
721.8511708695949
 20
364.7126865191872
 30
0.0
 11
722.6013120133937
 21
364.7126865191872
 31
0.0
  0
LINE
  5
2DD
330
1F
100
AcDbEntity
  8
D-0
  6
Continuous
 62
     7
370
     9
100
AcDbLine
 10
722.6013120133937
 20
364.7126865191872
 30
0.0
 11
722.6013120133937
 21
363.9625453753883
 31
0.0
  0
LINE
  5
2DE
330
1F
100
AcDbEntity
  8
D-0
  6
Continuous
 62
     7
370
     9
100
AcDbLine
 10
722.6013120133937
 20
363.9625453753883
 30
0.0
 11
721.8511708695949
 21
363.9625453753883
 31
0.0
  0
LINE
  5
2DF
330
1F
100
AcDbEntity
  8
D-0
  6
Continuous
 62
     7
370
     9
100
AcDbLine
 10
681.0487173737874
 20
396.3952648207736
 30
0.0
 11
681.0487173737874
 21
397.1454059645724
 31
0.0
  0
LINE
  5
2E0
330
1F
100
AcDbEntity
  8
D-0
  6
Continuous
 62
     7
370
     9
100
AcDbLine
 10
681.0487173737874
 20
397.1454059645724
 30
0.0
 11
681.7988585175863
 21
397.1454059645724
 31
0.0
  0
LINE
  5
2E1
330
1F
100
AcDbEntity
  8
D-0
  6
Continuous
 62
     7
370
     9
100
AcDbLine
 10
681.7988585175863
 20
397.1454059645724
 30
0.0
 11
681.7988585175863
 21
396.3952648207736
 31
0.0
  0
LINE
  5
2E2
330
1F
100
AcDbEntity
  8
D-0
  6
Continuous
 62
     7
370
     9
100
AcDbLine
 10
681.7988585175863
 20
396.3952648207736
 30
0.0
 11
681.0487173737874
 21
396.3952648207736
 31
0.0
  0
LINE
  5
2E3
330
1F
100
AcDbEntity
  8
D-0
  6
Continuous
 62
     7
370
     9
100
AcDbLine
 10
538.7632385166135
 20
391.5826677417809
 30
0.0
 11
538.7632385166135
 21
392.3328088855798
 31
0.0
  0
LINE
  5
2E4
330
1F
100
AcDbEntity
  8
D-0
  6
Continuous
 62
     7
370
     9
100
AcDbLine
 10
538.7632385166135
 20
392.3328088855798
 30
0.0
 11
539.5133796604123
 21
392.3328088855798
 31
0.0
  0
LINE
  5
2E5
330
1F
100
AcDbEntity
  8
D-0
  6
Continuous
 62
     7
370
     9
100
AcDbLine
 10
539.5133796604123
 20
392.3328088855798
 30
0.0
 11
539.5133796604123
 21
391.5826677417809
 31
0.0
  0
LINE
  5
2E6
330
1F
100
AcDbEntity
  8
D-0
  6
Continuous
 62
     7
370
     9
100
AcDbLine
 10
539.5133796604123
 20
391.5826677417809
 30
0.0
 11
538.7632385166135
 21
391.5826677417809
 31
0.0
  0
LINE
  5
2E7
330
1F
100
AcDbEntity
  8
D-0
  6
Continuous
 62
     7
370
     9
100
AcDbLine
 10
557.3858967788024
 20
384.6776371501828
 30
0.0
 11
557.3858967788024
 21
385.4277782939816
 31
0.0
  0
LINE
  5
2E8
330
1F
100
AcDbEntity
  8
D-0
  6
Continuous
 62
     7
370
     9
100
AcDbLine
 10
557.3858967788024
 20
385.4277782939816
 30
0.0
 11
558.1360379226012
 21
385.4277782939816
 31
0.0
  0
LINE
  5
2E9
330
1F
100
AcDbEntity
  8
D-0
  6
Continuous
 62
     7
370
     9
100
AcDbLine
 10
558.1360379226012
 20
385.4277782939816
 30
0.0
 11
558.1360379226012
 21
384.6776371501828
 31
0.0
  0
LINE
  5
2EA
330
1F
100
AcDbEntity
  8
D-0
  6
Continuous
 62
     7
370
     9
100
AcDbLine
 10
558.1360379226012
 20
384.6776371501828
 30
0.0
 11
557.3858967788024
 21
384.6776371501828
 31
0.0
  0
LINE
  5
2EB
330
1F
100
AcDbEntity
  8
D-0
  6
Continuous
 62
     7
370
     9
100
AcDbLine
 10
604.8841375149473
 20
356.6390280812691
 30
0.0
 11
604.8841375149473
 21
357.3891692250679
 31
0.0
  0
LINE
  5
2EC
330
1F
100
AcDbEntity
  8
D-0
  6
Continuous
 62
     7
370
     9
100
AcDbLine
 10
604.8841375149473
 20
357.3891692250679
 30
0.0
 11
605.6342786587461
 21
357.3891692250679
 31
0.0
  0
LINE
  5
2ED
330
1F
100
AcDbEntity
  8
D-0
  6
Continuous
 62
     7
370
     9
100
AcDbLine
 10
605.6342786587461
 20
357.3891692250679
 30
0.0
 11
605.6342786587461
 21
356.6390280812691
 31
0.0
  0
LINE
  5
2EE
330
1F
100
AcDbEntity
  8
D-0
  6
Continuous
 62
     7
370
     9
100
AcDbLine
 10
605.6342786587461
 20
356.6390280812691
 30
0.0
 11
604.8841375149473
 21
356.6390280812691
 31
0.0
  0
LINE
  5
2EF
330
1F
100
AcDbEntity
  8
D-0
  6
Continuous
 62
     7
370
     9
100
AcDbLine
 10
617.2294952393196
 20
343.665940303115
 30
0.0
 11
617.2294952393196
 21
344.4160814469138
 31
0.0
  0
LINE
  5
2F0
330
1F
100
AcDbEntity
  8
D-0
  6
Continuous
 62
     7
370
     9
100
AcDbLine
 10
617.2294952393196
 20
344.4160814469138
 30
0.0
 11
617.9796363831184
 21
344.4160814469138
 31
0.0
  0
LINE
  5
2F1
330
1F
100
AcDbEntity
  8
D-0
  6
Continuous
 62
     7
370
     9
100
AcDbLine
 10
617.9796363831184
 20
344.4160814469138
 30
0.0
 11
617.9796363831184
 21
343.665940303115
 31
0.0
  0
LINE
  5
2F2
330
1F
100
AcDbEntity
  8
D-0
  6
Continuous
 62
     7
370
     9
100
AcDbLine
 10
617.9796363831184
 20
343.665940303115
 30
0.0
 11
617.2294952393196
 21
343.665940303115
 31
0.0
  0
LINE
  5
2F3
330
1F
100
AcDbEntity
  8
D-0
  6
Continuous
 62
     7
370
     9
100
AcDbLine
 10
607.1858143788131
 20
330.2743658224398
 30
0.0
 11
607.1858143788131
 21
331.0245069662386
 31
0.0
  0
LINE
  5
2F4
330
1F
100
AcDbEntity
  8
D-0
  6
Continuous
 62
     7
370
     9
100
AcDbLine
 10
607.1858143788131
 20
331.0245069662386
 30
0.0
 11
607.935955522612
 21
331.0245069662386
 31
0.0
  0
LINE
  5
2F5
330
1F
100
AcDbEntity
  8
D-0
  6
Continuous
 62
     7
370
     9
100
AcDbLine
 10
607.935955522612
 20
331.0245069662386
 30
0.0
 11
607.935955522612
 21
330.2743658224398
 31
0.0
  0
LINE
  5
2F6
330
1F
100
AcDbEntity
  8
D-0
  6
Continuous
 62
     7
370
     9
100
AcDbLine
 10
607.935955522612
 20
330.2743658224398
 30
0.0
 11
607.1858143788131
 21
330.2743658224398
 31
0.0
  0
LINE
  5
2F7
330
1F
100
AcDbEntity
  8
D-0
  6
Continuous
 62
     7
370
     9
100
AcDbLine
 10
615.9740351317564
 20
313.5348977215958
 30
0.0
 11
615.9740351317564
 21
314.2850388653946
 31
0.0
  0
LINE
  5
2F8
330
1F
100
AcDbEntity
  8
D-0
  6
Continuous
 62
     7
370
     9
100
AcDbLine
 10
615.9740351317564
 20
314.2850388653946
 30
0.0
 11
616.7241762755552
 21
314.2850388653946
 31
0.0
  0
LINE
  5
2F9
330
1F
100
AcDbEntity
  8
D-0
  6
Continuous
 62
     7
370
     9
100
AcDbLine
 10
616.7241762755552
 20
314.2850388653946
 30
0.0
 11
616.7241762755552
 21
313.5348977215958
 31
0.0
  0
LINE
  5
2FA
330
1F
100
AcDbEntity
  8
D-0
  6
Continuous
 62
     7
370
     9
100
AcDbLine
 10
616.7241762755552
 20
313.5348977215958
 30
0.0
 11
615.9740351317564
 21
313.5348977215958
 31
0.0
  0
LINE
  5
2FB
330
1F
100
AcDbEntity
  8
D-0
  6
Continuous
 62
     7
370
     9
100
AcDbLine
 10
592.9572664930959
 20
317.5105213955462
 30
0.0
 11
592.9572664930959
 21
318.260662539345
 31
0.0
  0
LINE
  5
2FC
330
1F
100
AcDbEntity
  8
D-0
  6
Continuous
 62
     7
370
     9
100
AcDbLine
 10
592.9572664930959
 20
318.260662539345
 30
0.0
 11
593.7074076368947
 21
318.260662539345
 31
0.0
  0
LINE
  5
2FD
330
1F
100
AcDbEntity
  8
D-0
  6
Continuous
 62
     7
370
     9
100
AcDbLine
 10
593.7074076368947
 20
318.260662539345
 30
0.0
 11
593.7074076368947
 21
317.5105213955462
 31
0.0
  0
LINE
  5
2FE
330
1F
100
AcDbEntity
  8
D-0
  6
Continuous
 62
     7
370
     9
100
AcDbLine
 10
593.7074076368947
 20
317.5105213955462
 30
0.0
 11
592.9572664930959
 21
317.5105213955462
 31
0.0
  0
LINE
  5
2FF
330
1F
100
AcDbEntity
  8
D-0
  6
Continuous
 62
     7
370
     9
100
AcDbLine
 10
641.0832372830223
 20
370.0306025619443
 30
0.0
 11
641.0832372830223
 21
370.7807437057431
 31
0.0
  0
LINE
  5
300
330
1F
100
AcDbEntity
  8
D-0
  6
Continuous
 62
     7
370
     9
100
AcDbLine
 10
641.0832372830223
 20
370.7807437057431
 30
0.0
 11
641.8333784268211
 21
370.7807437057431
 31
0.0
  0
LINE
  5
301
330
1F
100
AcDbEntity
  8
D-0
  6
Continuous
 62
     7
370
     9
100
AcDbLine
 10
641.8333784268211
 20
370.7807437057431
 30
0.0
 11
641.8333784268211
 21
370.0306025619443
 31
0.0
  0
LINE
  5
302
330
1F
100
AcDbEntity
  8
D-0
  6
Continuous
 62
     7
370
     9
100
AcDbLine
 10
641.8333784268211
 20
370.0306025619443
 30
0.0
 11
641.0832372830223
 21
370.0306025619443
 31
0.0
  0
LINE
  5
303
330
1F
100
AcDbEntity
  8
D-0
  6
Continuous
 62
     7
370
     9
100
AcDbLine
 10
685.4428277502589
 20
364.3810320779095
 30
0.0
 11
685.4428277502589
 21
365.1311732217083
 31
0.0
  0
LINE
  5
304
330
1F
100
AcDbEntity
  8
D-0
  6
Continuous
 62
     7
370
     9
100
AcDbLine
 10
685.4428277502589
 20
365.1311732217083
 30
0.0
 11
686.1929688940577
 21
365.1311732217083
 31
0.0
  0
LINE
  5
305
330
1F
100
AcDbEntity
  8
D-0
  6
Continuous
 62
     7
370
     9
100
AcDbLine
 10
686.1929688940577
 20
365.1311732217083
 30
0.0
 11
686.1929688940577
 21
364.3810320779095
 31
0.0
  0
LINE
  5
306
330
1F
100
AcDbEntity
  8
D-0
  6
Continuous
 62
     7
370
     9
100
AcDbLine
 10
686.1929688940577
 20
364.3810320779095
 30
0.0
 11
685.4428277502589
 21
364.3810320779095
 31
0.0
  0
LINE
  5
307
330
1F
100
AcDbEntity
  8
D-0
  6
Continuous
 62
     7
370
     9
100
AcDbLine
 10
660.9613556527745
 20
384.4683937989222
 30
0.0
 11
660.9613556527745
 21
385.2185349427211
 31
0.0
  0
LINE
  5
308
330
1F
100
AcDbEntity
  8
D-0
  6
Continuous
 62
     7
370
     9
100
AcDbLine
 10
660.9613556527745
 20
385.2185349427211
 30
0.0
 11
661.7114967965733
 21
385.2185349427211
 31
0.0
  0
LINE
  5
309
330
1F
100
AcDbEntity
  8
D-0
  6
Continuous
 62
     7
370
     9
100
AcDbLine
 10
661.7114967965733
 20
385.2185349427211
 30
0.0
 11
661.7114967965733
 21
384.4683937989222
 31
0.0
  0
LINE
  5
30A
330
1F
100
AcDbEntity
  8
D-0
  6
Continuous
 62
     7
370
     9
100
AcDbLine
 10
661.7114967965733
 20
384.4683937989222
 30
0.0
 11
660.9613556527745
 21
384.4683937989222
 31
0.0
  0
LINE
  5
30B
330
1F
100
AcDbEntity
  8
D-0
  6
Continuous
 62
     7
370
     9
100
AcDbLine
 10
465.0572680350845
 20
330.9544067140366
 30
0.0
 11
465.0572680350845
 21
331.7045478578354
 31
0.0
  0
LINE
  5
30C
330
1F
100
AcDbEntity
  8
D-0
  6
Continuous
 62
     7
370
     9
100
AcDbLine
 10
465.0572680350845
 20
331.7045478578354
 30
0.0
 11
465.8074091788833
 21
331.7045478578354
 31
0.0
  0
LINE
  5
30D
330
1F
100
AcDbEntity
  8
D-0
  6
Continuous
 62
     7
370
     9
100
AcDbLine
 10
465.8074091788833
 20
331.7045478578354
 30
0.0
 11
465.8074091788833
 21
330.9544067140366
 31
0.0
  0
LINE
  5
30E
330
1F
100
AcDbEntity
  8
D-0
  6
Continuous
 62
     7
370
     9
100
AcDbLine
 10
465.8074091788833
 20
330.9544067140366
 30
0.0
 11
465.0572680350845
 21
330.9544067140366
 31
0.0
  0
LINE
  5
30F
330
1F
100
AcDbEntity
  8
D-0
  6
Continuous
 62
     7
370
     9
100
AcDbLine
 10
508.8414392863547
 20
334.2499894963902
 30
0.0
 11
508.8414392863547
 21
335.0001306401891
 31
0.0
  0
LINE
  5
310
330
1F
100
AcDbEntity
  8
D-0
  6
Continuous
 62
     7
370
     9
100
AcDbLine
 10
508.8414392863547
 20
335.0001306401891
 30
0.0
 11
509.5915804301535
 21
335.0001306401891
 31
0.0
  0
LINE
  5
311
330
1F
100
AcDbEntity
  8
D-0
  6
Continuous
 62
     7
370
     9
100
AcDbLine
 10
509.5915804301535
 20
335.0001306401891
 30
0.0
 11
509.5915804301535
 21
334.2499894963902
 31
0.0
  0
LINE
  5
312
330
1F
100
AcDbEntity
  8
D-0
  6
Continuous
 62
     7
370
     9
100
AcDbLine
 10
509.5915804301535
 20
334.2499894963902
 30
0.0
 11
508.8414392863547
 21
334.2499894963902
 31
0.0
  0
LINE
  5
313
330
1F
100
AcDbEntity
  8
D-0
  6
Continuous
 62
     7
370
     9
100
AcDbLine
 10
502.7210712619836
 20
316.8304805039494
 30
0.0
 11
502.7210712619836
 21
317.5806216477483
 31
0.0
  0
LINE
  5
314
330
1F
100
AcDbEntity
  8
D-0
  6
Continuous
 62
     7
370
     9
100
AcDbLine
 10
502.7210712619836
 20
317.5806216477483
 30
0.0
 11
503.4712124057825
 21
317.5806216477483
 31
0.0
  0
LINE
  5
315
330
1F
100
AcDbEntity
  8
D-0
  6
Continuous
 62
     7
370
     9
100
AcDbLine
 10
503.4712124057825
 20
317.5806216477483
 30
0.0
 11
503.4712124057825
 21
316.8304805039494
 31
0.0
  0
LINE
  5
316
330
1F
100
AcDbEntity
  8
D-0
  6
Continuous
 62
     7
370
     9
100
AcDbLine
 10
503.4712124057825
 20
316.8304805039494
 30
0.0
 11
502.7210712619836
 21
316.8304805039494
 31
0.0
  0
LINE
  5
317
330
1F
100
AcDbEntity
  8
D-0
  6
Continuous
 62
     7
370
     9
100
AcDbLine
 10
481.0643844065166
 20
293.7614010274738
 30
0.0
 11
481.0643844065166
 21
294.5115421712726
 31
0.0
  0
LINE
  5
318
330
1F
100
AcDbEntity
  8
D-0
  6
Continuous
 62
     7
370
     9
100
AcDbLine
 10
481.0643844065166
 20
294.5115421712726
 30
0.0
 11
481.8145255503154
 21
294.5115421712726
 31
0.0
  0
LINE
  5
319
330
1F
100
AcDbEntity
  8
D-0
  6
Continuous
 62
     7
370
     9
100
AcDbLine
 10
481.8145255503154
 20
294.5115421712726
 30
0.0
 11
481.8145255503154
 21
293.7614010274738
 31
0.0
  0
LINE
  5
31A
330
1F
100
AcDbEntity
  8
D-0
  6
Continuous
 62
     7
370
     9
100
AcDbLine
 10
481.8145255503154
 20
293.7614010274738
 30
0.0
 11
481.0643844065166
 21
293.7614010274738
 31
0.0
  0
LINE
  5
31B
330
1F
100
AcDbEntity
  8
D-0
  6
Continuous
 62
     7
370
     9
100
AcDbLine
 10
457.5245073897048
 20
275.8710944946968
 30
0.0
 11
457.5245073897048
 21
276.6212356384956
 31
0.0
  0
LINE
  5
31C
330
1F
100
AcDbEntity
  8
D-0
  6
Continuous
 62
     7
370
     9
100
AcDbLine
 10
457.5245073897048
 20
276.6212356384956
 30
0.0
 11
458.2746485335036
 21
276.6212356384956
 31
0.0
  0
LINE
  5
31D
330
1F
100
AcDbEntity
  8
D-0
  6
Continuous
 62
     7
370
     9
100
AcDbLine
 10
458.2746485335036
 20
276.6212356384956
 30
0.0
 11
458.2746485335036
 21
275.8710944946968
 31
0.0
  0
LINE
  5
31E
330
1F
100
AcDbEntity
  8
D-0
  6
Continuous
 62
     7
370
     9
100
AcDbLine
 10
458.2746485335036
 20
275.8710944946968
 30
0.0
 11
457.5245073897048
 21
275.8710944946968
 31
0.0
  0
LINE
  5
31F
330
1F
100
AcDbEntity
  8
D-0
  6
Continuous
 62
     7
370
     9
100
AcDbLine
 10
488.1263475115603
 20
256.568395340911
 30
0.0
 11
488.1263475115603
 21
257.3185364847099
 31
0.0
  0
LINE
  5
320
330
1F
100
AcDbEntity
  8
D-0
  6
Continuous
 62
     7
370
     9
100
AcDbLine
 10
488.1263475115603
 20
257.3185364847099
 30
0.0
 11
488.8764886553591
 21
257.3185364847099
 31
0.0
  0
LINE
  5
321
330
1F
100
AcDbEntity
  8
D-0
  6
Continuous
 62
     7
370
     9
100
AcDbLine
 10
488.8764886553591
 20
257.3185364847099
 30
0.0
 11
488.8764886553591
 21
256.568395340911
 31
0.0
  0
LINE
  5
322
330
1F
100
AcDbEntity
  8
D-0
  6
Continuous
 62
     7
370
     9
100
AcDbLine
 10
488.8764886553591
 20
256.568395340911
 30
0.0
 11
488.1263475115603
 21
256.568395340911
 31
0.0
  0
LINE
  5
323
330
1F
100
AcDbEntity
  8
D-0
  6
Continuous
 62
     7
370
     9
100
AcDbLine
 10
466.9404581964295
 20
228.3205429207368
 30
0.0
 11
466.9404581964295
 21
229.0706840645356
 31
0.0
  0
LINE
  5
324
330
1F
100
AcDbEntity
  8
D-0
  6
Continuous
 62
     7
370
     9
100
AcDbLine
 10
466.9404581964295
 20
229.0706840645356
 30
0.0
 11
467.6905993402283
 21
229.0706840645356
 31
0.0
  0
LINE
  5
325
330
1F
100
AcDbEntity
  8
D-0
  6
Continuous
 62
     7
370
     9
100
AcDbLine
 10
467.6905993402283
 20
229.0706840645356
 30
0.0
 11
467.6905993402283
 21
228.3205429207368
 31
0.0
  0
LINE
  5
326
330
1F
100
AcDbEntity
  8
D-0
  6
Continuous
 62
     7
370
     9
100
AcDbLine
 10
467.6905993402283
 20
228.3205429207368
 30
0.0
 11
466.9404581964295
 21
228.3205429207368
 31
0.0
  0
LINE
  5
327
330
1F
100
AcDbEntity
  8
D-0
  6
Continuous
 62
     7
370
     9
100
AcDbLine
 10
491.4219302939139
 20
209.017843766951
 30
0.0
 11
491.4219302939139
 21
209.7679849107498
 31
0.0
  0
LINE
  5
328
330
1F
100
AcDbEntity
  8
D-0
  6
Continuous
 62
     7
370
     9
100
AcDbLine
 10
491.4219302939139
 20
209.7679849107498
 30
0.0
 11
492.1720714377128
 21
209.7679849107498
 31
0.0
  0
LINE
  5
329
330
1F
100
AcDbEntity
  8
D-0
  6
Continuous
 62
     7
370
     9
100
AcDbLine
 10
492.1720714377128
 20
209.7679849107498
 30
0.0
 11
492.1720714377128
 21
209.017843766951
 31
0.0
  0
LINE
  5
32A
330
1F
100
AcDbEntity
  8
D-0
  6
Continuous
 62
     7
370
     9
100
AcDbLine
 10
492.1720714377128
 20
209.017843766951
 30
0.0
 11
491.4219302939139
 21
209.017843766951
 31
0.0
  0
LINE
  5
32B
330
1F
100
AcDbEntity
  8
D-0
  6
Continuous
 62
     7
370
     9
100
AcDbLine
 10
459.1151842144097
 20
188.1011881803541
 30
0.0
 11
459.1151842144097
 21
188.851329324153
 31
0.0
  0
LINE
  5
32C
330
1F
100
AcDbEntity
  8
D-0
  6
Continuous
 62
     7
370
     9
100
AcDbLine
 10
459.1151842144097
 20
188.851329324153
 30
0.0
 11
459.8653253582086
 21
188.851329324153
 31
0.0
  0
LINE
  5
32D
330
1F
100
AcDbEntity
  8
D-0
  6
Continuous
 62
     7
370
     9
100
AcDbLine
 10
459.8653253582086
 20
188.851329324153
 30
0.0
 11
459.8653253582086
 21
188.1011881803541
 31
0.0
  0
LINE
  5
32E
330
1F
100
AcDbEntity
  8
D-0
  6
Continuous
 62
     7
370
     9
100
AcDbLine
 10
459.8653253582086
 20
188.1011881803541
 30
0.0
 11
459.1151842144097
 21
188.1011881803541
 31
0.0
  0
LINE
  5
32F
330
1F
100
AcDbEntity
  8
D-0
  6
Continuous
 62
     7
370
     9
100
AcDbLine
 10
497.4137543952634
 20
171.9306807706604
 30
0.0
 11
497.4137543952634
 21
172.6808219144592
 31
0.0
  0
LINE
  5
330
330
1F
100
AcDbEntity
  8
D-0
  6
Continuous
 62
     7
370
     9
100
AcDbLine
 10
497.4137543952634
 20
172.6808219144592
 30
0.0
 11
498.1638955390622
 21
172.6808219144592
 31
0.0
  0
LINE
  5
331
330
1F
100
AcDbEntity
  8
D-0
  6
Continuous
 62
     7
370
     9
100
AcDbLine
 10
498.1638955390622
 20
172.6808219144592
 30
0.0
 11
498.1638955390622
 21
171.9306807706604
 31
0.0
  0
LINE
  5
332
330
1F
100
AcDbEntity
  8
D-0
  6
Continuous
 62
     7
370
     9
100
AcDbLine
 10
498.1638955390622
 20
171.9306807706604
 30
0.0
 11
497.4137543952634
 21
171.9306807706604
 31
0.0
  0
LINE
  5
333
330
1F
100
AcDbEntity
  8
D-0
  6
Continuous
 62
     7
370
     9
100
AcDbLine
 10
475.7112312927796
 20
173.2072997766888
 30
0.0
 11
475.7112312927796
 21
173.9574409204877
 31
0.0
  0
LINE
  5
334
330
1F
100
AcDbEntity
  8
D-0
  6
Continuous
 62
     7
370
     9
100
AcDbLine
 10
475.7112312927796
 20
173.9574409204877
 30
0.0
 11
476.4613724365785
 21
173.9574409204877
 31
0.0
  0
LINE
  5
335
330
1F
100
AcDbEntity
  8
D-0
  6
Continuous
 62
     7
370
     9
100
AcDbLine
 10
476.4613724365785
 20
173.9574409204877
 30
0.0
 11
476.4613724365785
 21
173.2072997766888
 31
0.0
  0
LINE
  5
336
330
1F
100
AcDbEntity
  8
D-0
  6
Continuous
 62
     7
370
     9
100
AcDbLine
 10
476.4613724365785
 20
173.2072997766888
 30
0.0
 11
475.7112312927796
 21
173.2072997766888
 31
0.0
  0
LINE
  5
337
330
1F
100
AcDbEntity
  8
D-0
  6
Continuous
 62
     7
370
     9
100
AcDbLine
 10
486.7752626783596
 20
231.9317740539977
 30
0.0
 11
486.7752626783596
 21
232.6819151977965
 31
0.0
  0
LINE
  5
338
330
1F
100
AcDbEntity
  8
D-0
  6
Continuous
 62
     7
370
     9
100
AcDbLine
 10
486.7752626783596
 20
232.6819151977965
 30
0.0
 11
487.5254038221584
 21
232.6819151977965
 31
0.0
  0
LINE
  5
339
330
1F
100
AcDbEntity
  8
D-0
  6
Continuous
 62
     7
370
     9
100
AcDbLine
 10
487.5254038221584
 20
232.6819151977965
 30
0.0
 11
487.5254038221584
 21
231.9317740539977
 31
0.0
  0
LINE
  5
33A
330
1F
100
AcDbEntity
  8
D-0
  6
Continuous
 62
     7
370
     9
100
AcDbLine
 10
487.5254038221584
 20
231.9317740539977
 30
0.0
 11
486.7752626783596
 21
231.9317740539977
 31
0.0
  0
LINE
  5
33B
330
1F
100
AcDbEntity
  8
D-0
  6
Continuous
 62
     7
370
     9
100
AcDbLine
 10
458.2641048770574
 20
254.9109161625098
 30
0.0
 11
458.2641048770574
 21
255.6610573063087
 31
0.0
  0
LINE
  5
33C
330
1F
100
AcDbEntity
  8
D-0
  6
Continuous
 62
     7
370
     9
100
AcDbLine
 10
458.2641048770574
 20
255.6610573063087
 30
0.0
 11
459.0142460208563
 21
255.6610573063087
 31
0.0
  0
LINE
  5
33D
330
1F
100
AcDbEntity
  8
D-0
  6
Continuous
 62
     7
370
     9
100
AcDbLine
 10
459.0142460208563
 20
255.6610573063087
 30
0.0
 11
459.0142460208563
 21
254.9109161625098
 31
0.0
  0
LINE
  5
33E
330
1F
100
AcDbEntity
  8
D-0
  6
Continuous
 62
     7
370
     9
100
AcDbLine
 10
459.0142460208563
 20
254.9109161625098
 30
0.0
 11
458.2641048770574
 21
254.9109161625098
 31
0.0
  0
LINE
  5
33F
330
1F
100
AcDbEntity
  8
D-0
  6
Continuous
 62
     7
370
     9
100
AcDbLine
 10
459.966263551762
 20
310.2310730904094
 30
0.0
 11
459.966263551762
 21
310.9812142342083
 31
0.0
  0
LINE
  5
340
330
1F
100
AcDbEntity
  8
D-0
  6
Continuous
 62
     7
370
     9
100
AcDbLine
 10
459.966263551762
 20
310.9812142342083
 30
0.0
 11
460.7164046955609
 21
310.9812142342083
 31
0.0
  0
LINE
  5
341
330
1F
100
AcDbEntity
  8
D-0
  6
Continuous
 62
     7
370
     9
100
AcDbLine
 10
460.7164046955609
 20
310.9812142342083
 30
0.0
 11
460.7164046955609
 21
310.2310730904094
 31
0.0
  0
LINE
  5
342
330
1F
100
AcDbEntity
  8
D-0
  6
Continuous
 62
     7
370
     9
100
AcDbLine
 10
460.7164046955609
 20
310.2310730904094
 30
0.0
 11
459.966263551762
 21
310.2310730904094
 31
0.0
  0
LINE
  5
343
330
1F
100
AcDbEntity
  8
D-0
  6
Continuous
 62
     7
370
     9
100
AcDbLine
 10
486.7752626783596
 20
334.4868342049501
 30
0.0
 11
486.7752626783596
 21
335.2369753487489
 31
0.0
  0
LINE
  5
344
330
1F
100
AcDbEntity
  8
D-0
  6
Continuous
 62
     7
370
     9
100
AcDbLine
 10
486.7752626783596
 20
335.2369753487489
 30
0.0
 11
487.5254038221584
 21
335.2369753487489
 31
0.0
  0
LINE
  5
345
330
1F
100
AcDbEntity
  8
D-0
  6
Continuous
 62
     7
370
     9
100
AcDbLine
 10
487.5254038221584
 20
335.2369753487489
 30
0.0
 11
487.5254038221584
 21
334.4868342049501
 31
0.0
  0
LINE
  5
346
330
1F
100
AcDbEntity
  8
D-0
  6
Continuous
 62
     7
370
     9
100
AcDbLine
 10
487.5254038221584
 20
334.4868342049501
 30
0.0
 11
486.7752626783596
 21
334.4868342049501
 31
0.0
  0
LINE
  5
347
330
1F
100
AcDbEntity
  8
D-0
  6
Continuous
 62
     7
370
     9
100
AcDbLine
 10
498.6903734012918
 20
277.0389789336697
 30
0.0
 11
498.6903734012918
 21
277.7891200774685
 31
0.0
  0
LINE
  5
348
330
1F
100
AcDbEntity
  8
D-0
  6
Continuous
 62
     7
370
     9
100
AcDbLine
 10
498.6903734012918
 20
277.7891200774685
 30
0.0
 11
499.4405145450907
 21
277.7891200774685
 31
0.0
  0
LINE
  5
349
330
1F
100
AcDbEntity
  8
D-0
  6
Continuous
 62
     7
370
     9
100
AcDbLine
 10
499.4405145450907
 20
277.7891200774685
 30
0.0
 11
499.4405145450907
 21
277.0389789336697
 31
0.0
  0
LINE
  5
34A
330
1F
100
AcDbEntity
  8
D-0
  6
Continuous
 62
     7
370
     9
100
AcDbLine
 10
499.4405145450907
 20
277.0389789336697
 30
0.0
 11
498.6903734012918
 21
277.0389789336697
 31
0.0
  0
LINE
  5
34B
330
1F
100
AcDbEntity
  8
D-0
  6
Continuous
 62
     7
370
     9
100
AcDbLine
 10
542.5209592749352
 20
324.2738821567224
 30
0.0
 11
542.5209592749352
 21
325.0240233005213
 31
0.0
  0
LINE
  5
34C
330
1F
100
AcDbEntity
  8
D-0
  6
Continuous
 62
     7
370
     9
100
AcDbLine
 10
542.5209592749352
 20
325.0240233005213
 30
0.0
 11
543.271100418734
 21
325.0240233005213
 31
0.0
  0
LINE
  5
34D
330
1F
100
AcDbEntity
  8
D-0
  6
Continuous
 62
     7
370
     9
100
AcDbLine
 10
543.271100418734
 20
325.0240233005213
 30
0.0
 11
543.271100418734
 21
324.2738821567224
 31
0.0
  0
LINE
  5
34E
330
1F
100
AcDbEntity
  8
D-0
  6
Continuous
 62
     7
370
     9
100
AcDbLine
 10
543.271100418734
 20
324.2738821567224
 30
0.0
 11
542.5209592749352
 21
324.2738821567224
 31
0.0
  0
LINE
  5
34F
330
1F
100
AcDbEntity
  8
D-0
  6
Continuous
 62
     7
370
     9
100
AcDbLine
 10
555.7126890038958
 20
316.1886284518756
 30
0.0
 11
555.7126890038958
 21
316.9387695956744
 31
0.0
  0
LINE
  5
350
330
1F
100
AcDbEntity
  8
D-0
  6
Continuous
 62
     7
370
     9
100
AcDbLine
 10
555.7126890038958
 20
316.9387695956744
 30
0.0
 11
556.4628301476946
 21
316.9387695956744
 31
0.0
  0
LINE
  5
351
330
1F
100
AcDbEntity
  8
D-0
  6
Continuous
 62
     7
370
     9
100
AcDbLine
 10
556.4628301476946
 20
316.9387695956744
 30
0.0
 11
556.4628301476946
 21
316.1886284518756
 31
0.0
  0
LINE
  5
352
330
1F
100
AcDbEntity
  8
D-0
  6
Continuous
 62
     7
370
     9
100
AcDbLine
 10
556.4628301476946
 20
316.1886284518756
 30
0.0
 11
555.7126890038958
 21
316.1886284518756
 31
0.0
  0
LINE
  5
353
330
1F
100
AcDbEntity
  8
D-0
  6
Continuous
 62
     7
370
     9
100
AcDbLine
 10
558.2659270159527
 20
330.2314375181886
 30
0.0
 11
558.2659270159527
 21
330.9815786619874
 31
0.0
  0
LINE
  5
354
330
1F
100
AcDbEntity
  8
D-0
  6
Continuous
 62
     7
370
     9
100
AcDbLine
 10
558.2659270159527
 20
330.9815786619874
 30
0.0
 11
559.0160681597515
 21
330.9815786619874
 31
0.0
  0
LINE
  5
355
330
1F
100
AcDbEntity
  8
D-0
  6
Continuous
 62
     7
370
     9
100
AcDbLine
 10
559.0160681597515
 20
330.9815786619874
 30
0.0
 11
559.0160681597515
 21
330.2314375181886
 31
0.0
  0
LINE
  5
356
330
1F
100
AcDbEntity
  8
D-0
  6
Continuous
 62
     7
370
     9
100
AcDbLine
 10
559.0160681597515
 20
330.2314375181886
 30
0.0
 11
558.2659270159527
 21
330.2314375181886
 31
0.0
  0
LINE
  5
357
330
1F
100
AcDbEntity
  8
D-0
  6
Continuous
 62
     7
370
     9
100
AcDbLine
 10
477.8389296361604
 20
316.6141681205517
 30
0.0
 11
477.8389296361604
 21
317.3643092643505
 31
0.0
  0
LINE
  5
358
330
1F
100
AcDbEntity
  8
D-0
  6
Continuous
 62
     7
370
     9
100
AcDbLine
 10
477.8389296361604
 20
317.3643092643505
 30
0.0
 11
478.5890707799592
 21
317.3643092643505
 31
0.0
  0
LINE
  5
359
330
1F
100
AcDbEntity
  8
D-0
  6
Continuous
 62
     7
370
     9
100
AcDbLine
 10
478.5890707799592
 20
317.3643092643505
 30
0.0
 11
478.5890707799592
 21
316.6141681205517
 31
0.0
  0
LINE
  5
35A
330
1F
100
AcDbEntity
  8
D-0
  6
Continuous
 62
     7
370
     9
100
AcDbLine
 10
478.5890707799592
 20
316.6141681205517
 30
0.0
 11
477.8389296361604
 21
316.6141681205517
 31
0.0
  0
LINE
  5
35B
330
1F
100
AcDbEntity
  8
D-0
  6
Continuous
 62
     7
370
     9
100
AcDbLine
 10
476.5623106301319
 20
273.2091219155843
 30
0.0
 11
476.5623106301319
 21
273.9592630593831
 31
0.0
  0
LINE
  5
35C
330
1F
100
AcDbEntity
  8
D-0
  6
Continuous
 62
     7
370
     9
100
AcDbLine
 10
476.5623106301319
 20
273.9592630593831
 30
0.0
 11
477.3124517739308
 21
273.9592630593831
 31
0.0
  0
LINE
  5
35D
330
1F
100
AcDbEntity
  8
D-0
  6
Continuous
 62
     7
370
     9
100
AcDbLine
 10
477.3124517739308
 20
273.9592630593831
 30
0.0
 11
477.3124517739308
 21
273.2091219155843
 31
0.0
  0
LINE
  5
35E
330
1F
100
AcDbEntity
  8
D-0
  6
Continuous
 62
     7
370
     9
100
AcDbLine
 10
477.3124517739308
 20
273.2091219155843
 30
0.0
 11
476.5623106301319
 21
273.2091219155843
 31
0.0
  0
LINE
  5
35F
330
1F
100
AcDbEntity
  8
D-0
  6
Continuous
 62
     7
370
     9
100
AcDbLine
 10
454.4342478589721
 20
208.1015526081333
 30
0.0
 11
454.4342478589721
 21
208.8516937519321
 31
0.0
  0
LINE
  5
360
330
1F
100
AcDbEntity
  8
D-0
  6
Continuous
 62
     7
370
     9
100
AcDbLine
 10
454.4342478589721
 20
208.8516937519321
 30
0.0
 11
455.1843890027709
 21
208.8516937519321
 31
0.0
  0
LINE
  5
361
330
1F
100
AcDbEntity
  8
D-0
  6
Continuous
 62
     7
370
     9
100
AcDbLine
 10
455.1843890027709
 20
208.8516937519321
 30
0.0
 11
455.1843890027709
 21
208.1015526081333
 31
0.0
  0
LINE
  5
362
330
1F
100
AcDbEntity
  8
D-0
  6
Continuous
 62
     7
370
     9
100
AcDbLine
 10
455.1843890027709
 20
208.1015526081333
 30
0.0
 11
454.4342478589721
 21
208.1015526081333
 31
0.0
  0
LINE
  5
363
330
1F
100
AcDbEntity
  8
D-0
  6
Continuous
 62
     7
370
     9
100
AcDbLine
 10
480.3921676482173
 20
198.3141402285818
 30
0.0
 11
480.3921676482173
 21
199.0642813723806
 31
0.0
  0
LINE
  5
364
330
1F
100
AcDbEntity
  8
D-0
  6
Continuous
 62
     7
370
     9
100
AcDbLine
 10
480.3921676482173
 20
199.0642813723806
 30
0.0
 11
481.1423087920161
 21
199.0642813723806
 31
0.0
  0
LINE
  5
365
330
1F
100
AcDbEntity
  8
D-0
  6
Continuous
 62
     7
370
     9
100
AcDbLine
 10
481.1423087920161
 20
199.0642813723806
 30
0.0
 11
481.1423087920161
 21
198.3141402285818
 31
0.0
  0
LINE
  5
366
330
1F
100
AcDbEntity
  8
D-0
  6
Continuous
 62
     7
370
     9
100
AcDbLine
 10
481.1423087920161
 20
198.3141402285818
 30
0.0
 11
480.3921676482173
 21
198.3141402285818
 31
0.0
  0
LINE
  5
367
330
1F
100
AcDbEntity
  8
D-0
  6
Continuous
 62
     7
370
     9
100
AcDbLine
 10
499.9669924073203
 20
244.272424445606
 30
0.0
 11
499.9669924073203
 21
245.0225655894049
 31
0.0
  0
LINE
  5
368
330
1F
100
AcDbEntity
  8
D-0
  6
Continuous
 62
     7
370
     9
100
AcDbLine
 10
499.9669924073203
 20
245.0225655894049
 30
0.0
 11
500.7171335511191
 21
245.0225655894049
 31
0.0
  0
LINE
  5
369
330
1F
100
AcDbEntity
  8
D-0
  6
Continuous
 62
     7
370
     9
100
AcDbLine
 10
500.7171335511191
 20
245.0225655894049
 30
0.0
 11
500.7171335511191
 21
244.272424445606
 31
0.0
  0
LINE
  5
36A
330
1F
100
AcDbEntity
  8
D-0
  6
Continuous
 62
     7
370
     9
100
AcDbLine
 10
500.7171335511191
 20
244.272424445606
 30
0.0
 11
499.9669924073203
 21
244.272424445606
 31
0.0
  0
LINE
  5
36B
330
1F
100
AcDbEntity
  8
D-0
  6
Continuous
 62
     7
370
     9
100
AcDbLine
 10
527.6270708712701
 20
337.8911515543592
 30
0.0
 11
527.6270708712701
 21
338.6412926981581
 31
0.0
  0
LINE
  5
36C
330
1F
100
AcDbEntity
  8
D-0
  6
Continuous
 62
     7
370
     9
100
AcDbLine
 10
527.6270708712701
 20
338.6412926981581
 30
0.0
 11
528.377212015069
 21
338.6412926981581
 31
0.0
  0
LINE
  5
36D
330
1F
100
AcDbEntity
  8
D-0
  6
Continuous
 62
     7
370
     9
100
AcDbLine
 10
528.377212015069
 20
338.6412926981581
 30
0.0
 11
528.377212015069
 21
337.8911515543592
 31
0.0
  0
LINE
  5
36E
330
1F
100
AcDbEntity
  8
D-0
  6
Continuous
 62
     7
370
     9
100
AcDbLine
 10
528.377212015069
 20
337.8911515543592
 30
0.0
 11
527.6270708712701
 21
337.8911515543592
 31
0.0
  0
LINE
  5
36F
330
1F
100
AcDbEntity
  8
D-0
  6
Continuous
 62
     7
370
     9
100
AcDbLine
 10
521.669515509804
 20
314.9120094458471
 30
0.0
 11
521.669515509804
 21
315.6621505896459
 31
0.0
  0
LINE
  5
370
330
1F
100
AcDbEntity
  8
D-0
  6
Continuous
 62
     7
370
     9
100
AcDbLine
 10
521.669515509804
 20
315.6621505896459
 30
0.0
 11
522.4196566536028
 21
315.6621505896459
 31
0.0
  0
LINE
  5
371
330
1F
100
AcDbEntity
  8
D-0
  6
Continuous
 62
     7
370
     9
100
AcDbLine
 10
522.4196566536028
 20
315.6621505896459
 30
0.0
 11
522.4196566536028
 21
314.9120094458471
 31
0.0
  0
LINE
  5
372
330
1F
100
AcDbEntity
  8
D-0
  6
Continuous
 62
     7
370
     9
100
AcDbLine
 10
522.4196566536028
 20
314.9120094458471
 30
0.0
 11
521.669515509804
 21
314.9120094458471
 31
0.0
  0
LINE
  5
373
330
1F
100
AcDbEntity
  8
D-0
  6
Continuous
 62
     7
370
     9
100
AcDbLine
 10
458.2641048770574
 20
294.4861053493918
 30
0.0
 11
458.2641048770574
 21
295.2362464931907
 31
0.0
  0
LINE
  5
374
330
1F
100
AcDbEntity
  8
D-0
  6
Continuous
 62
     7
370
     9
100
AcDbLine
 10
458.2641048770574
 20
295.2362464931907
 30
0.0
 11
459.0142460208563
 21
295.2362464931907
 31
0.0
  0
LINE
  5
375
330
1F
100
AcDbEntity
  8
D-0
  6
Continuous
 62
     7
370
     9
100
AcDbLine
 10
459.0142460208563
 20
295.2362464931907
 30
0.0
 11
459.0142460208563
 21
294.4861053493918
 31
0.0
  0
LINE
  5
376
330
1F
100
AcDbEntity
  8
D-0
  6
Continuous
 62
     7
370
     9
100
AcDbLine
 10
459.0142460208563
 20
294.4861053493918
 30
0.0
 11
458.2641048770574
 21
294.4861053493918
 31
0.0
  0
LINE
  5
377
330
1F
100
AcDbEntity
  8
D-0
  6
Continuous
 62
     7
370
     9
100
AcDbLine
 10
450.6043908408867
 20
339.5933102290638
 30
0.0
 11
450.6043908408867
 21
340.3434513728627
 31
0.0
  0
LINE
  5
378
330
1F
100
AcDbEntity
  8
D-0
  6
Continuous
 62
     7
370
     9
100
AcDbLine
 10
450.6043908408867
 20
340.3434513728627
 30
0.0
 11
451.3545319846855
 21
340.3434513728627
 31
0.0
  0
LINE
  5
379
330
1F
100
AcDbEntity
  8
D-0
  6
Continuous
 62
     7
370
     9
100
AcDbLine
 10
451.3545319846855
 20
340.3434513728627
 30
0.0
 11
451.3545319846855
 21
339.5933102290638
 31
0.0
  0
LINE
  5
37A
330
1F
100
AcDbEntity
  8
D-0
  6
Continuous
 62
     7
370
     9
100
AcDbLine
 10
451.3545319846855
 20
339.5933102290638
 30
0.0
 11
450.6043908408867
 21
339.5933102290638
 31
0.0
  0
LINE
  5
37B
330
1F
100
AcDbEntity
  8
D-0
  6
Continuous
 62
     7
370
     9
100
AcDbLine
 10
455.5191387648935
 20
163.4124378390555
 30
0.0
 11
455.5191387648935
 21
164.1625789828543
 31
0.0
  0
LINE
  5
37C
330
1F
100
AcDbEntity
  8
D-0
  6
Continuous
 62
     7
370
     9
100
AcDbLine
 10
455.5191387648935
 20
164.1625789828543
 30
0.0
 11
456.2692799086923
 21
164.1625789828543
 31
0.0
  0
LINE
  5
37D
330
1F
100
AcDbEntity
  8
D-0
  6
Continuous
 62
     7
370
     9
100
AcDbLine
 10
456.2692799086923
 20
164.1625789828543
 30
0.0
 11
456.2692799086923
 21
163.4124378390555
 31
0.0
  0
LINE
  5
37E
330
1F
100
AcDbEntity
  8
D-0
  6
Continuous
 62
     7
370
     9
100
AcDbLine
 10
456.2692799086923
 20
163.4124378390555
 30
0.0
 11
455.5191387648935
 21
163.4124378390555
 31
0.0
  0
LINE
  5
37F
330
1F
100
AcDbEntity
  8
D-0
  6
Continuous
 62
     7
370
     9
100
AcDbLine
 10
500.8869474834293
 20
188.2453436639382
 30
0.0
 11
500.8869474834293
 21
188.995484807737
 31
0.0
  0
LINE
  5
380
330
1F
100
AcDbEntity
  8
D-0
  6
Continuous
 62
     7
370
     9
100
AcDbLine
 10
500.8869474834293
 20
188.995484807737
 30
0.0
 11
501.6370886272281
 21
188.995484807737
 31
0.0
  0
LINE
  5
381
330
1F
100
AcDbEntity
  8
D-0
  6
Continuous
 62
     7
370
     9
100
AcDbLine
 10
501.6370886272281
 20
188.995484807737
 30
0.0
 11
501.6370886272281
 21
188.2453436639382
 31
0.0
  0
LINE
  5
382
330
1F
100
AcDbEntity
  8
D-0
  6
Continuous
 62
     7
370
     9
100
AcDbLine
 10
501.6370886272281
 20
188.2453436639382
 30
0.0
 11
500.8869474834293
 21
188.2453436639382
 31
0.0
  0
LINE
  5
383
330
1F
100
AcDbEntity
  8
D-0
  6
Continuous
 62
     7
370
     9
100
AcDbLine
 10
579.4550150253497
 20
375.7640158600531
 30
0.0
 11
579.4550150253497
 21
376.5141570038519
 31
0.0
  0
LINE
  5
384
330
1F
100
AcDbEntity
  8
D-0
  6
Continuous
 62
     7
370
     9
100
AcDbLine
 10
579.4550150253497
 20
376.5141570038519
 30
0.0
 11
580.2051561691485
 21
376.5141570038519
 31
0.0
  0
LINE
  5
385
330
1F
100
AcDbEntity
  8
D-0
  6
Continuous
 62
     7
370
     9
100
AcDbLine
 10
580.2051561691485
 20
376.5141570038519
 30
0.0
 11
580.2051561691485
 21
375.7640158600531
 31
0.0
  0
LINE
  5
386
330
1F
100
AcDbEntity
  8
D-0
  6
Continuous
 62
     7
370
     9
100
AcDbLine
 10
580.2051561691485
 20
375.7640158600531
 30
0.0
 11
579.4550150253497
 21
375.7640158600531
 31
0.0
  0
LINE
  5
387
330
1F
100
AcDbEntity
  8
D-0
  6
Continuous
 62
     7
370
     9
100
AcDbLine
 10
648.0807749602218
 20
376.2761222047077
 30
0.0
 11
648.0807749602218
 21
377.0262633485065
 31
0.0
  0
LINE
  5
388
330
1F
100
AcDbEntity
  8
D-0
  6
Continuous
 62
     7
370
     9
100
AcDbLine
 10
648.0807749602218
 20
377.0262633485065
 30
0.0
 11
648.8309161040206
 21
377.0262633485065
 31
0.0
  0
LINE
  5
389
330
1F
100
AcDbEntity
  8
D-0
  6
Continuous
 62
     7
370
     9
100
AcDbLine
 10
648.8309161040206
 20
377.0262633485065
 30
0.0
 11
648.8309161040206
 21
376.2761222047077
 31
0.0
  0
LINE
  5
38A
330
1F
100
AcDbEntity
  8
D-0
  6
Continuous
 62
     7
370
     9
100
AcDbLine
 10
648.8309161040206
 20
376.2761222047077
 30
0.0
 11
648.0807749602218
 21
376.2761222047077
 31
0.0
  0
LINE
  5
38B
330
1F
100
AcDbEntity
  8
D-0
  6
Continuous
 62
     7
370
     9
100
AcDbLine
 10
704.450215046956
 20
369.3028263431998
 30
0.0
 11
704.450215046956
 21
370.0529674869986
 31
0.0
  0
LINE
  5
38C
330
1F
100
AcDbEntity
  8
D-0
  6
Continuous
 62
     7
370
     9
100
AcDbLine
 10
704.450215046956
 20
370.0529674869986
 30
0.0
 11
705.2003561907549
 21
370.0529674869986
 31
0.0
  0
LINE
  5
38D
330
1F
100
AcDbEntity
  8
D-0
  6
Continuous
 62
     7
370
     9
100
AcDbLine
 10
705.2003561907549
 20
370.0529674869986
 30
0.0
 11
705.2003561907549
 21
369.3028263431998
 31
0.0
  0
LINE
  5
38E
330
1F
100
AcDbEntity
  8
D-0
  6
Continuous
 62
     7
370
     9
100
AcDbLine
 10
705.2003561907549
 20
369.3028263431998
 30
0.0
 11
704.450215046956
 21
369.3028263431998
 31
0.0
  0
LINE
  5
38F
330
1F
100
AcDbEntity
  8
D-0
  6
Continuous
 62
     7
370
     9
100
AcDbLine
 10
661.3279309543586
 20
406.2494003395317
 30
0.0
 11
661.3279309543586
 21
406.9995224098442
 31
0.0
  0
LINE
  5
390
330
1F
100
AcDbEntity
  8
D-0
  6
Continuous
 62
     7
370
     9
100
AcDbLine
 10
661.3279309543586
 20
406.9995224098442
 30
0.0
 11
662.0780720981575
 21
406.9995224098442
 31
0.0
  0
LINE
  5
391
330
1F
100
AcDbEntity
  8
D-0
  6
Continuous
 62
     7
370
     9
100
AcDbLine
 10
662.0780720981575
 20
406.9995224098442
 30
0.0
 11
662.0780720981575
 21
406.2494003395317
 31
0.0
  0
LINE
  5
392
330
1F
100
AcDbEntity
  8
D-0
  6
Continuous
 62
     7
370
     9
100
AcDbLine
 10
662.0780720981575
 20
406.2494003395317
 30
0.0
 11
661.3279309543586
 21
406.2494003395317
 31
0.0
  0
LINE
  5
393
330
1F
100
AcDbEntity
  8
D-6
  6
Continuous
 62
     6
370
     5
100
AcDbLine
 10
523.4996486354519
 20
409.1445291786366
 30
0.0
 11
523.4996486354519
 21
446.6445291786366
 31
0.0
  0
LINE
  5
394
330
1F
100
AcDbEntity
  8
D-6
  6
Continuous
 62
     6
370
     5
100
AcDbLine
 10
523.4996486354519
 20
415.3944879386662
 30
0.0
 11
622.484114363387
 21
415.3944879386662
 31
0.0
  0
LINE
  5
395
330
1F
100
AcDbEntity
  8
D-6
  6
Continuous
 62
     6
370
     5
100
AcDbLine
 10
517.0501296584672
 20
409.1445291786366
 30
0.0
 11
622.484114363387
 21
409.1445291786366
 31
0.0
  0
LINE
  5
396
330
1F
100
AcDbEntity
  8
D-6
  6
Continuous
 62
     6
370
     5
100
AcDbLine
 10
656.4239501953125
 20
409.1445291786366
 30
0.0
 11
727.5954375395904
 21
409.1445291786366
 31
0.0
  0
LINE
  5
397
330
1F
100
AcDbEntity
  8
D-0
  6
Continuous
 62
     7
370
     9
100
AcDbLine
 10
559.903271930228
 20
403.9644320432723
 30
0.0
 11
559.903271930228
 21
404.7145731870712
 31
0.0
  0
LINE
  5
398
330
1F
100
AcDbEntity
  8
D-0
  6
Continuous
 62
     7
370
     9
100
AcDbLine
 10
559.903271930228
 20
404.7145731870712
 30
0.0
 11
560.6534130740268
 21
404.7145731870712
 31
0.0
  0
LINE
  5
399
330
1F
100
AcDbEntity
  8
D-0
  6
Continuous
 62
     7
370
     9
100
AcDbLine
 10
560.6534130740268
 20
404.7145731870712
 30
0.0
 11
560.6534130740268
 21
403.9644320432723
 31
0.0
  0
LINE
  5
39A
330
1F
100
AcDbEntity
  8
D-0
  6
Continuous
 62
     7
370
     9
100
AcDbLine
 10
560.6534130740268
 20
403.9644320432723
 30
0.0
 11
559.903271930228
 21
403.9644320432723
 31
0.0
  0
LINE
  5
39B
330
1F
100
AcDbEntity
  8
D-0
  6
Continuous
 62
     7
370
     9
100
AcDbLine
 10
541.280613668039
 20
402.0812418819274
 30
0.0
 11
541.280613668039
 21
402.8313830257263
 31
0.0
  0
LINE
  5
39C
330
1F
100
AcDbEntity
  8
D-0
  6
Continuous
 62
     7
370
     9
100
AcDbLine
 10
541.280613668039
 20
402.8313830257263
 30
0.0
 11
542.0307548118378
 21
402.8313830257263
 31
0.0
  0
LINE
  5
39D
330
1F
100
AcDbEntity
  8
D-0
  6
Continuous
 62
     7
370
     9
100
AcDbLine
 10
542.0307548118378
 20
402.8313830257263
 30
0.0
 11
542.0307548118378
 21
402.0812418819274
 31
0.0
  0
LINE
  5
39E
330
1F
100
AcDbEntity
  8
D-0
  6
Continuous
 62
     7
370
     9
100
AcDbLine
 10
542.0307548118378
 20
402.0812418819274
 30
0.0
 11
541.280613668039
 21
402.0812418819274
 31
0.0
  0
TEXT
  5
39F
330
1F
100
AcDbEntity
  8
D-4
  6
Continuous
 62
     7
370
     9
100
AcDbText
 10
584.9815291422169
 20
574.5571897829244
 30
0.0
 40
11.43
  1
蓋フレーム（Ａ６０６３Ｓ－Ｔ５）
 50
0.0000255446035848
 41
1.15625
  7
ＭＳ ゴシック
100
AcDbText
  0
TEXT
  5
3A0
330
1F
100
AcDbEntity
  8
D-4
  6
Continuous
 62
     7
370
     9
100
AcDbText
 10
610.9674128184685
 20
535.6501850914544
 30
0.0
 40
11.43
  1
アルミ受枠（Ａ６０６３Ｓ－Ｔ５）
 41
1.15625
  7
ＭＳ ゴシック
100
AcDbText
  0
TEXT
  5
3A1
330
1F
100
AcDbEntity
  8
D-4
  6
Continuous
 62
     7
370
     9
100
AcDbText
 10
638.9440522941889
 20
499.9866011928432
 30
0.0
 40
11.43
  1
アンカー（ＳＰＨＣ）
 41
1.15
  7
ＭＳ ゴシック
100
AcDbText
  0
LINE
  5
3A2
330
1F
100
AcDbEntity
  8
D-4
  6
Continuous
 62
     7
370
     9
100
AcDbLine
 10
506.4248162346919
 20
449.1445992865864
 30
0.0
 11
580.5252823325746
 21
570.6400855546618
 31
0.0
  0
LINE
  5
3A3
330
1F
100
AcDbEntity
  8
D-4
  6
Continuous
 62
     7
370
     9
100
AcDbLine
 10
863.4215787153223
 20
570.6400855546618
 30
0.0
 11
580.5252823325746
 21
570.6400855546618
 31
0.0
  0
LINE
  5
3A4
330
1F
100
AcDbEntity
  8
D-4
  6
Continuous
 62
     7
370
     9
100
AcDbLine
 10
523.516845703125
 20
401.6445044346543
 30
0.0
 11
602.3804205413799
 21
530.9495008048729
 31
0.0
  0
LINE
  5
3A5
330
1F
100
AcDbEntity
  8
D-4
  6
Continuous
 62
     7
370
     9
100
AcDbLine
 10
875.7908480090302
 20
530.9495008048729
 30
0.0
 11
602.3804205413799
 21
530.9495008048729
 31
0.0
  0
LINE
  5
3A6
330
1F
100
AcDbEntity
  8
D-4
  6
Continuous
 62
     7
370
     9
100
AcDbLine
 10
554.7275440112967
 20
362.269652898548
 30
0.0
 11
636.1980005706021
 21
495.8489043627122
 31
0.0
  0
LINE
  5
3A7
330
1F
100
AcDbEntity
  8
D-4
  6
Continuous
 62
     7
370
     9
100
AcDbLine
 10
636.1980005706021
 20
495.8489043627122
 30
0.0
 11
814.2238902376007
 21
495.8489043627122
 31
0.0
  0
LINE
  5
3A8
330
1F
100
AcDbEntity
  8
0-0
  6
Continuous
 62
     4
370
     9
100
AcDbLine
 10
-478.3476649103937
 20
3.098992012642583
 30
0.0
 11
-478.3476649103937
 21
111.098952422271
 31
0.0
  0
LINE
  5
3A9
330
1F
100
AcDbEntity
  8
0-0
  6
Continuous
 62
     4
370
     9
100
AcDbLine
 10
-425.3475642848659
 20
1.098985414247409
 30
0.0
 11
-476.347608824034
 21
1.098985414247409
 31
0.0
  0
LINE
  5
3AA
330
1F
100
AcDbEntity
  8
0-0
  6
Continuous
 62
     4
370
     9
100
AcDbLine
 10
-423.347508198506
 20
111.098952422271
 30
0.0
 11
-423.3475081985061
 21
3.098992012642583
 31
0.0
  0
LINE
  5
3AB
330
1F
100
AcDbEntity
  8
0-0
  6
Continuous
 62
     4
370
     9
100
AcDbLine
 10
-425.3475642848659
 20
113.0990085086308
 30
0.0
 11
-476.347608824034
 21
113.0990085086308
 31
0.0
  0
LINE
  5
3AC
330
1F
100
AcDbEntity
  8
0-0
  6
Continuous
 62
     4
370
     9
100
AcDbLine
 10
-477.7618758742874
 20
1.685368305928137
 30
0.0
 11
-467.7617933943465
 21
11.68540129790443
 31
0.0
  0
LINE
  5
3AD
330
1F
100
AcDbEntity
  8
0-0
  6
Continuous
 62
     4
370
     9
100
AcDbLine
 10
-423.9330003068253
 20
112.5131699845599
 30
0.0
 11
-433.9330580427839
 21
102.5131369925835
 31
0.0
  0
LINE
  5
3AE
330
1F
100
AcDbEntity
  8
0-0
  6
Continuous
 62
     4
370
     9
100
AcDbLine
 10
-423.9330003068254
 20
1.685368305928137
 30
0.0
 11
-433.933058042784
 21
11.68540129790443
 31
0.0
  0
LINE
  5
3AF
330
1F
100
AcDbEntity
  8
0-0
  6
Continuous
 62
     4
370
     9
100
AcDbLine
 10
-435.3472261171083
 20
103.0989755166545
 30
0.0
 11
-466.3472789042704
 21
103.0989755166545
 31
0.0
  0
LINE
  5
3B0
330
1F
100
AcDbEntity
  8
0-0
  6
Continuous
 62
     4
370
     9
100
AcDbLine
 10
-433.3472442626953
 20
13.09901263262788
 30
0.0
 11
-433.3472442626953
 21
101.0988204543656
 31
0.0
  0
LINE
  5
3B1
330
1F
100
AcDbEntity
  8
0-0
  6
Continuous
 62
     4
370
     9
100
AcDbLine
 10
-468.3474339665593
 20
13.09901263262788
 30
0.0
 11
-468.3474339665593
 21
101.0988204543656
 31
0.0
  0
LINE
  5
3B2
330
1F
100
AcDbEntity
  8
0-0
  6
Continuous
 62
     4
370
     9
100
AcDbLine
 10
-466.3472789042704
 20
11.09893180228582
 30
0.0
 11
-435.3472261171083
 21
11.09893180228582
 31
0.0
  0
LINE
  5
3B3
330
1F
100
AcDbEntity
  8
0-2
  6
Continuous
 62
     3
370
     9
100
AcDbLine
 10
-446.5475649447054
 20
24.44896594898125
 30
0.0
 11
-455.1474102123364
 21
24.44896594898125
 31
0.0
  0
LINE
  5
3B4
330
1F
100
AcDbEntity
  8
0-2
  6
Continuous
 62
     3
370
     9
100
AcDbLine
 10
-444.8475791312553
 20
26.14896413442267
 30
0.0
 11
-444.8475791312552
 21
88.04898030049105
 31
0.0
  0
LINE
  5
3B5
330
1F
100
AcDbEntity
  8
0-0
  6
Continuous
 62
     4
370
     9
100
AcDbLine
 10
-446.3475840800517
 20
23.94896429938242
 30
0.0
 11
-455.3475642848659
 21
23.94896429938242
 31
0.0
  0
LINE
  5
3B6
330
1F
100
AcDbEntity
  8
0-0
  6
Continuous
 62
     4
370
     9
100
AcDbLine
 10
-457.3475708832611
 20
88.24898590912699
 30
0.0
 11
-457.3475708832612
 21
25.94895852578659
 31
0.0
  0
LINE
  5
3B7
330
1F
100
AcDbEntity
  8
0-0
  6
Continuous
 62
     4
370
     9
100
AcDbLine
 10
-446.3475840800517
 20
90.24898013553116
 30
0.0
 11
-455.3475642848659
 21
90.24898013553116
 31
0.0
  0
LINE
  5
3B8
330
1F
100
AcDbEntity
  8
0-0
  6
Continuous
 62
     4
370
     9
100
AcDbLine
 10
-444.3475774816563
 20
88.24898590912699
 30
0.0
 11
-444.3475774816565
 21
25.94895852578659
 31
0.0
  0
LINE
  5
3B9
330
1F
100
AcDbEntity
  8
0-2
  6
Continuous
 62
     3
370
     9
100
AcDbLine
 10
-456.8475692336623
 20
88.04884420858858
 30
0.0
 11
-456.8475692336624
 21
26.14932292216537
 31
0.0
  0
LINE
  5
3BA
330
1F
100
AcDbEntity
  8
0-2
  6
Continuous
 62
     3
370
     9
100
AcDbLine
 10
-455.1475586762299
 20
89.74884239402994
 30
0.0
 11
-446.5241571374841
 21
89.74884239402994
 31
0.0
  0
LINE
  5
3BB
330
1F
100
AcDbEntity
  8
0-0
  6
Continuous
 62
     4
370
     9
100
AcDbLine
 10
-477.7618758742873
 20
112.5131699845599
 30
0.0
 11
-467.7617933943465
 21
102.5131369925835
 31
0.0
  0
ARC
  5
3BC
330
1F
100
AcDbEntity
  8
0-0
  6
Continuous
 62
     4
370
     9
100
AcDbCircle
 10
-466.3472789042704
 20
101.0988204543656
 30
0.0
 40
1.99999983246262
100
AcDbArc
 50
90.0
 51
180.0
  0
ARC
  5
3BD
330
1F
100
AcDbEntity
  8
0-0
  6
Continuous
 62
     4
370
     9
100
AcDbCircle
 10
-435.3472261171083
 20
101.0988204543656
 30
0.0
 40
1.99999983246262
100
AcDbArc
 50
0.0
 51
90.0
  0
ARC
  5
3BE
330
1F
100
AcDbEntity
  8
0-0
  6
Continuous
 62
     4
370
     9
100
AcDbCircle
 10
-435.3472261171083
 20
13.09901263262788
 30
0.0
 40
1.99999983246262
100
AcDbArc
 50
270.0
 51
0.0
  0
ARC
  5
3BF
330
1F
100
AcDbEntity
  8
0-0
  6
Continuous
 62
     4
370
     9
100
AcDbCircle
 10
-466.3472789042704
 20
13.09901263262788
 30
0.0
 40
1.99999983246262
100
AcDbArc
 50
180.0
 51
270.0
  0
ARC
  5
3C0
330
1F
100
AcDbEntity
  8
0-0
  6
Continuous
 62
     4
370
     9
100
AcDbCircle
 10
-476.347608824034
 20
111.098952422271
 30
0.0
 40
2.000000025774982
100
AcDbArc
 50
90.0
 51
180.0
  0
ARC
  5
3C1
330
1F
100
AcDbEntity
  8
0-0
  6
Continuous
 62
     4
370
     9
100
AcDbCircle
 10
-476.347608824034
 20
3.098942524678137
 30
0.0
 40
2.000000025774982
100
AcDbArc
 50
180.0
 51
270.0
  0
ARC
  5
3C2
330
1F
100
AcDbEntity
  8
0-0
  6
Continuous
 62
     4
370
     9
100
AcDbCircle
 10
-425.3475890288482
 20
3.098942524678137
 30
0.0
 40
2.000000025774982
100
AcDbArc
 50
270.0
 51
0.0
  0
ARC
  5
3C3
330
1F
100
AcDbEntity
  8
0-0
  6
Continuous
 62
     4
370
     9
100
AcDbCircle
 10
-425.3475890288481
 20
111.098952422271
 30
0.0
 40
2.000000025774982
100
AcDbArc
 50
0.0
 51
90.0
  0
ARC
  5
3C4
330
1F
100
AcDbEntity
  8
0-2
  6
Continuous
 62
     3
370
     9
100
AcDbCircle
 10
-455.1474102123364
 20
26.14932292216537
 30
0.0
 40
1.700000891814361
100
AcDbArc
 50
180.0
 51
270.0
  0
ARC
  5
3C5
330
1F
100
AcDbEntity
  8
0-2
  6
Continuous
 62
     3
370
     9
100
AcDbCircle
 10
-446.5477381525812
 20
88.04898030049105
 30
0.0
 40
1.700000891814361
100
AcDbArc
 50
0.0
 51
89.20521545410156
  0
ARC
  5
3C6
330
1F
100
AcDbEntity
  8
0-2
  6
Continuous
 62
     3
370
     9
100
AcDbCircle
 10
-446.5475649447054
 20
26.14896413442267
 30
0.0
 40
1.700000118564915
100
AcDbArc
 50
270.0
 51
0.0
  0
ARC
  5
3C7
330
1F
100
AcDbEntity
  8
0-0
  6
Continuous
 62
     4
370
     9
100
AcDbCircle
 10
-450.8475741824588
 20
57.09897221745678
 30
0.0
 40
12.50000025774982
100
AcDbArc
 50
301.3322448730469
 51
58.66775512695313
  0
ARC
  5
3C8
330
1F
100
AcDbEntity
  8
0-0
  6
Continuous
 62
     4
370
     9
100
AcDbCircle
 10
-450.8475741824588
 20
57.09897221745678
 30
0.0
 40
12.50000025774982
100
AcDbArc
 50
121.3322448730469
 51
238.6677551269532
  0
ARC
  5
3C9
330
1F
100
AcDbEntity
  8
0-0
  6
Continuous
 62
     4
370
     9
100
AcDbCircle
 10
-455.3475642848659
 20
25.94895852578659
 30
0.0
 40
2.000000025774982
100
AcDbArc
 50
180.0
 51
270.0
  0
ARC
  5
3CA
330
1F
100
AcDbEntity
  8
0-0
  6
Continuous
 62
     4
370
     9
100
AcDbCircle
 10
-446.3475840800517
 20
25.94895852578659
 30
0.0
 40
2.000000025774982
100
AcDbArc
 50
270.0
 51
0.0
  0
ARC
  5
3CB
330
1F
100
AcDbEntity
  8
0-0
  6
Continuous
 62
     4
370
     9
100
AcDbCircle
 10
-455.3475642848659
 20
88.24898590912699
 30
0.0
 40
2.000000025774982
100
AcDbArc
 50
90.0
 51
180.0
  0
ARC
  5
3CC
330
1F
100
AcDbEntity
  8
0-0
  6
Continuous
 62
     4
370
     9
100
AcDbCircle
 10
-446.3475840800517
 20
88.24898590912699
 30
0.0
 40
2.000000025774982
100
AcDbArc
 50
0.0
 51
90.0
  0
ARC
  5
3CD
330
1F
100
AcDbEntity
  8
0-2
  6
Continuous
 62
     3
370
     9
100
AcDbCircle
 10
-455.1475586762299
 20
88.04884420858858
 30
0.0
 40
1.700000118564915
100
AcDbArc
 50
90.0
 51
180.0
  0
LINE
  5
3CE
330
1F
100
AcDbEntity
  8
D-B
  6
Continuous
 62
     7
370
     9
100
AcDbLine
 10
320.7999770705765
 20
404.1446364025597
 30
0.0
 11
320.7999770705765
 21
446.6446528985477
 31
0.0
  0
LINE
  5
3CF
330
1F
100
AcDbEntity
  8
D-4
  6
Continuous
 62
     7
370
     9
100
AcDbLine
 10
128.3813064162796
 20
446.644652898548
 30
0.0
 11
88.41655834301108
 21
446.644652898548
 31
0.0
  0
LINE
  5
3D0
330
1F
100
AcDbEntity
  8
D-2
  6
JWW_CENTER1
 62
     3
370
     9
100
AcDbLine
 10
272.0500636745143
 20
320.2095844072051
 30
0.0
 11
272.0500636745143
 21
455.9154807332185
 31
0.0
  0
LINE
  5
3D1
330
1F
100
AcDbEntity
  8
D-4
  6
Continuous
 62
     7
370
     9
100
AcDbLine
 10
128.3813064162796
 20
396.207632931804
 30
0.0
 11
88.41655834301108
 21
396.207632931804
 31
0.0
  0
LINE
  5
3D2
330
1F
100
AcDbEntity
  8
D-4
  6
Continuous
 62
     7
370
     9
100
AcDbLine
 10
128.3813064162796
 20
404.2076098374205
 30
0.0
 11
88.41655834301108
 21
404.2076098374205
 31
0.0
  0
LINE
  5
3D3
330
1F
100
AcDbEntity
  8
D-4
  6
Continuous
 62
     7
370
     9
100
AcDbLine
 10
89.91653854782527
 20
404.2076098374205
 30
0.0
 11
89.91653854782527
 21
409.144652898548
 31
0.0
  0
LINE
  5
3D4
330
1F
100
AcDbEntity
  8
D-4
  6
Continuous
 62
     7
370
     9
100
AcDbLine
 10
128.3813064162796
 20
409.144652898548
 30
0.0
 11
88.41655834301108
 21
409.144652898548
 31
0.0
  0
LINE
  5
3D5
330
1F
100
AcDbEntity
  8
D-4
  6
Continuous
 62
     7
370
     9
100
AcDbLine
 10
89.91653854782527
 20
409.144652898548
 30
0.0
 11
89.91653854782527
 21
446.644652898548
 31
0.0
  0
LINE
  5
3D6
330
1F
100
AcDbEntity
  8
D-4
  6
Continuous
 62
     7
370
     9
100
AcDbLine
 10
89.91653854782527
 20
355.301128893586
 30
0.0
 11
89.91653854782527
 21
404.2076098374205
 31
0.0
  0
LINE
  5
3D7
330
1F
100
AcDbEntity
  8
D-4
  6
Continuous
 62
     7
370
     9
100
AcDbLine
 10
50.15295905035899
 20
391.8992107400809
 30
0.0
 11
50.15295905035899
 21
375.2029612679525
 31
0.0
  0
LINE
  5
3D8
330
1F
100
AcDbEntity
  8
D-4
  6
Continuous
 62
     7
370
     9
100
AcDbLine
 10
88.13150766733543
 20
406.777519835309
 30
0.0
 11
50.15295905035899
 21
391.8992107400809
 31
0.0
  0
TEXT
  5
3D9
330
1F
100
AcDbEntity
  8
D-4
  6
Continuous
 62
     2
370
     9
100
AcDbText
 10
84.5964065799198
 20
358.7618140049669
 30
0.0
 40
15.24
  1
3.2
 50
90.0
 41
1.083333333333333
  7
ＭＳ ゴシック
100
AcDbText
  0
TEXT
  5
3DA
330
1F
100
AcDbEntity
  8
D-4
  6
Continuous
 62
     2
370
     9
100
AcDbText
 10
46.34418951910899
 20
378.6636401933379
 30
0.0
 40
15.24
  1
2
 50
90.0
 41
0.9999999999999998
  7
ＭＳ ゴシック
100
AcDbText
  0
TEXT
  5
3DB
330
1F
100
AcDbEntity
  8
D-4
  6
Continuous
 62
     2
370
     9
100
AcDbText
 10
84.5964065799198
 20
418.8842286712201
 30
0.0
 40
15.24
  1
15
 50
90.0
 41
1.0625
  7
ＭＳ ゴシック
100
AcDbText
  0
LWPOLYLINE
  5
3DC
330
1F
100
AcDbEntity
  8
D-4
  6
Continuous
 62
     7
370
     9
100
AcDbPolyline
 90
        4
 70
     1
 43
0.5
 10
90.16653854782527
 20
446.644652898548
 42
0.4142135623731
 10
89.91653854782527
 20
446.894652898548
 42
0.4142135623731
 10
89.66653854782527
 20
446.644652898548
 42
0.4142135623731
 10
89.91653854782527
 20
446.394652898548
 42
0.4142135623731
  0
LWPOLYLINE
  5
3DD
330
1F
100
AcDbEntity
  8
D-4
  6
Continuous
 62
     7
370
     9
100
AcDbPolyline
 90
        4
 70
     1
 43
0.5
 10
90.16653854782527
 20
396.207632931804
 42
0.4142135623731
 10
89.91653854782527
 20
396.4576329318039
 42
0.4142135623731
 10
89.66653854782527
 20
396.207632931804
 42
0.4142135623731
 10
89.91653854782527
 20
395.957632931804
 42
0.4142135623731
  0
LWPOLYLINE
  5
3DE
330
1F
100
AcDbEntity
  8
D-4
  6
Continuous
 62
     7
370
     9
100
AcDbPolyline
 90
        4
 70
     1
 43
0.5
 10
90.16653854782527
 20
404.2076098374205
 42
0.4142135623731
 10
89.91653854782527
 20
404.4576098374205
 42
0.4142135623731
 10
89.66653854782527
 20
404.2076098374205
 42
0.4142135623731
 10
89.91653854782527
 20
403.9576098374205
 42
0.4142135623731
  0
LWPOLYLINE
  5
3DF
330
1F
100
AcDbEntity
  8
D-4
  6
Continuous
 62
     7
370
     9
100
AcDbPolyline
 90
        4
 70
     1
 43
0.5
 10
90.16653854782527
 20
409.144652898548
 42
0.4142135623731
 10
89.91653854782527
 20
409.394652898548
 42
0.4142135623731
 10
89.66653854782527
 20
409.144652898548
 42
0.4142135623731
 10
89.91653854782527
 20
408.894652898548
 42
0.4142135623731
  0
LINE
  5
3E0
330
1F
100
AcDbEntity
  8
D-2
  6
Continuous
 62
     3
370
     9
100
AcDbLine
 10
295.8001420304583
 20
352.8951477781933
 30
0.0
 11
248.3002327583932
 21
352.8951477781933
 31
0.0
  0
LINE
  5
3E1
330
1F
100
AcDbEntity
  8
D-2
  6
Continuous
 62
     3
370
     9
100
AcDbLine
 10
295.8001420304583
 20
352.8951477781933
 30
0.0
 11
295.8001420304583
 21
341.6448013624415
 31
0.0
  0
LINE
  5
3E2
330
1F
100
AcDbEntity
  8
D-2
  6
Continuous
 62
     3
370
     9
100
AcDbLine
 10
295.8001420304583
 20
341.6448013624415
 30
0.0
 11
272.0499399546031
 21
341.6448013624415
 31
0.0
  0
LINE
  5
3E3
330
1F
100
AcDbEntity
  8
D-2
  6
Continuous
 62
     3
370
     9
100
AcDbLine
 10
248.3002327583932
 20
352.8951477781933
 30
0.0
 11
248.3002327583932
 21
346.6450652982521
 31
0.0
  0
LINE
  5
3E4
330
1F
100
AcDbEntity
  8
D-2
  6
Continuous
 62
     3
370
     9
100
AcDbLine
 10
295.8001420304583
 20
346.6450652982521
 30
0.0
 11
248.3002327583932
 21
346.6450652982521
 31
0.0
  0
LINE
  5
3E5
330
1F
100
AcDbEntity
  8
D-2
  6
Continuous
 62
     3
370
     9
100
AcDbLine
 10
272.0499399546031
 20
341.6448013624415
 30
0.0
 11
272.0499399546031
 21
346.6450652982521
 31
0.0
  0
LINE
  5
3E6
330
1F
100
AcDbEntity
  8
D-2
  6
Continuous
 62
     3
370
     9
100
AcDbLine
 10
277.0503894702809
 20
326.6447518744769
 30
0.0
 11
267.0502327583932
 21
326.6447518744769
 31
0.0
  0
LINE
  5
3E7
330
1F
100
AcDbEntity
  8
D-2
  6
Continuous
 62
     3
370
     9
100
AcDbLine
 10
264.5497914907096
 20
329.1451312822047
 30
0.0
 11
264.5497914907096
 21
346.6450652982521
 31
0.0
  0
LINE
  5
3E8
330
1F
100
AcDbEntity
  8
D-2
  6
Continuous
 62
     3
370
     9
100
AcDbLine
 10
279.5500884184967
 20
329.1451312822047
 30
0.0
 11
279.5500884184967
 21
341.6448013624415
 31
0.0
  0
LINE
  5
3E9
330
1F
100
AcDbEntity
  8
D-0
  6
Continuous
 62
     4
370
     9
100
AcDbLine
 10
228.3001667744406
 20
452.8946116585774
 30
0.0
 11
204.4195639120566
 21
450.3879225353722
 31
0.0
  0
LINE
  5
3EA
330
1F
100
AcDbEntity
  8
D-0
  6
Continuous
 62
     4
370
     9
100
AcDbLine
 10
315.7997131347657
 20
452.8946116585774
 30
0.0
 11
339.6801304172826
 21
450.3879225353722
 31
0.0
  0
LINE
  5
3EB
330
1F
100
AcDbEntity
  8
D-0
  6
Continuous
 62
     4
370
     9
100
AcDbLine
 10
315.7997131347657
 20
452.8946116585774
 30
0.0
 11
228.3001667744406
 21
452.8946116585774
 31
0.0
  0
LINE
  5
3EC
330
1F
100
AcDbEntity
  8
D-0
  6
Continuous
 62
     4
370
     9
100
AcDbLine
 10
340.7996718947953
 20
449.1446611465417
 30
0.0
 11
340.7996718947953
 21
446.6446528985477
 31
0.0
  0
LINE
  5
3ED
330
1F
100
AcDbEntity
  8
D-0
  6
Continuous
 62
     4
370
     9
100
AcDbLine
 10
203.300208014411
 20
449.1446611465417
 30
0.0
 11
203.300208014411
 21
446.6446528985477
 31
0.0
  0
LINE
  5
3EE
330
1F
100
AcDbEntity
  8
D-0
  6
Continuous
 62
     4
370
     9
100
AcDbLine
 10
249.549927582612
 20
426.6447106345063
 30
0.0
 11
294.5499523265943
 21
426.6447106345063
 31
0.0
  0
LINE
  5
3EF
330
1F
100
AcDbEntity
  8
D-0
  6
Continuous
 62
     4
370
     9
100
AcDbLine
 10
310.8000677985115
 20
426.6447106345063
 30
0.0
 11
295.7995234309017
 21
426.6447106345063
 31
0.0
  0
LINE
  5
3F0
330
1F
100
AcDbEntity
  8
D-0
  6
Continuous
 62
     4
370
     9
100
AcDbLine
 10
233.2998121106948
 20
426.6447106345063
 30
0.0
 11
248.3003564783046
 21
426.6447106345063
 31
0.0
  0
LINE
  5
3F1
330
1F
100
AcDbEntity
  8
D-A
  6
Continuous
 62
     2
370
     9
100
AcDbLine
 10
312.0497626227303
 20
426.6447106345063
 30
0.0
 11
312.0497626227303
 21
420.3947518744769
 31
0.0
  0
LINE
  5
3F2
330
1F
100
AcDbEntity
  8
D-A
  6
Continuous
 62
     2
370
     9
100
AcDbLine
 10
294.5498286066829
 20
426.6447106345063
 30
0.0
 11
294.5498286066829
 21
420.3947518744769
 31
0.0
  0
LINE
  5
3F3
330
1F
100
AcDbEntity
  8
D-A
  6
Continuous
 62
     2
370
     9
100
AcDbLine
 10
307.6747791187184
 20
419.144685890524
 30
0.0
 11
298.9248121106948
 21
419.144685890524
 31
0.0
  0
LINE
  5
3F4
330
1F
100
AcDbEntity
  8
D-A
  6
JWW_CENTER1
 62
     2
370
     9
100
AcDbLine
 10
303.2997956147066
 20
448.367081503911
 30
0.0
 11
303.2997956147066
 21
427.6370680431847
 31
0.0
  0
LINE
  5
3F5
330
1F
100
AcDbEntity
  8
D-A
  6
Continuous
 62
     2
370
     9
100
AcDbLine
 10
312.0497626227303
 20
426.6447106345063
 30
0.0
 11
310.8000677985115
 21
426.6447106345063
 31
0.0
  0
LINE
  5
3F6
330
1F
100
AcDbEntity
  8
D-A
  6
Continuous
 62
     2
370
     9
100
AcDbLine
 10
303.2997956147066
 20
420.3947518744769
 30
0.0
 11
303.2997956147066
 21
426.6447106345063
 31
0.0
  0
LINE
  5
3F7
330
1F
100
AcDbEntity
  8
D-A
  6
Continuous
 62
     2
370
     9
100
AcDbLine
 10
232.0500554265204
 20
426.6447106345063
 30
0.0
 11
232.0500554265204
 21
420.3947518744769
 31
0.0
  0
LINE
  5
3F8
330
1F
100
AcDbEntity
  8
D-A
  6
Continuous
 62
     2
370
     9
100
AcDbLine
 10
249.5500513025233
 20
426.6447106345063
 30
0.0
 11
249.5500513025233
 21
420.3947518744769
 31
0.0
  0
LINE
  5
3F9
330
1F
100
AcDbEntity
  8
D-A
  6
Continuous
 62
     2
370
     9
100
AcDbLine
 10
236.4250389305322
 20
419.144685890524
 30
0.0
 11
245.1751296584671
 21
419.144685890524
 31
0.0
  0
LINE
  5
3FA
330
1F
100
AcDbEntity
  8
D-A
  6
Continuous
 62
     2
370
     9
100
AcDbLine
 10
232.0500554265204
 20
426.6447106345063
 30
0.0
 11
233.2998121106948
 21
426.6447106345063
 31
0.0
  0
LINE
  5
3FB
330
1F
100
AcDbEntity
  8
D-A
  6
Continuous
 62
     2
370
     9
100
AcDbLine
 10
240.8000842944997
 20
420.3947518744769
 30
0.0
 11
240.8000842944997
 21
426.6447106345063
 31
0.0
  0
LINE
  5
3FC
330
1F
100
AcDbEntity
  8
D-2
  6
Continuous
 62
     3
370
     9
100
AcDbLine
 10
279.5500884184967
 20
352.8951477781933
 30
0.0
 11
279.5500884184967
 21
426.6447106345063
 31
0.0
  0
LINE
  5
3FD
330
1F
100
AcDbEntity
  8
D-2
  6
Continuous
 62
     3
370
     9
100
AcDbLine
 10
264.5497914907096
 20
352.8951477781933
 30
0.0
 11
264.5497914907096
 21
426.6447106345063
 31
0.0
  0
LINE
  5
3FE
330
1F
100
AcDbEntity
  8
D-A
  6
Continuous
 62
     2
370
     9
100
AcDbLine
 10
305.7991234031884
 20
396.1446594969433
 30
0.0
 11
305.7991234031884
 21
393.6449605487271
 31
0.0
  0
LINE
  5
3FF
330
1F
100
AcDbEntity
  8
D-A
  6
Continuous
 62
     2
370
     9
100
AcDbLine
 10
307.0491893871412
 20
396.1446594969433
 30
0.0
 11
307.0491893871412
 21
393.6449605487271
 31
0.0
  0
LINE
  5
400
330
1F
100
AcDbEntity
  8
D-A
  6
Continuous
 62
     2
370
     9
100
AcDbLine
 10
312.7989485457138
 20
396.1442883372092
 30
0.0
 11
312.7989485457138
 21
393.644651248949
 31
0.0
  0
LINE
  5
401
330
1F
100
AcDbEntity
  8
D-A
  6
Continuous
 62
     2
370
     9
100
AcDbLine
 10
312.7989485457138
 20
393.644651248949
 30
0.0
 11
293.7994054845863
 21
393.644651248949
 31
0.0
  0
LINE
  5
402
330
1F
100
AcDbEntity
  8
D-A
  6
Continuous
 62
     2
370
     9
100
AcDbLine
 10
293.7994054845863
 20
396.1442883372092
 30
0.0
 11
293.7994054845863
 21
393.644651248949
 31
0.0
  0
LINE
  5
403
330
1F
100
AcDbEntity
  8
D-A
  6
Continuous
 62
     2
370
     9
100
AcDbLine
 10
312.0497626227303
 20
393.644651248949
 30
0.0
 11
312.0497626227303
 21
387.3946924889193
 31
0.0
  0
LINE
  5
404
330
1F
100
AcDbEntity
  8
D-A
  6
Continuous
 62
     2
370
     9
100
AcDbLine
 10
294.5498286066829
 20
393.644651248949
 30
0.0
 11
294.5498286066829
 21
387.3946924889193
 31
0.0
  0
LINE
  5
405
330
1F
100
AcDbEntity
  8
D-A
  6
Continuous
 62
     2
370
     9
100
AcDbLine
 10
311.648971970017
 20
386.1446265049667
 30
0.0
 11
294.9506192593963
 21
386.1446265049667
 31
0.0
  0
LINE
  5
406
330
1F
100
AcDbEntity
  8
D-A
  6
Continuous
 62
     2
370
     9
100
AcDbLine
 10
303.2997956147066
 20
387.3946924889193
 30
0.0
 11
303.2997956147066
 21
393.644651248949
 31
0.0
  0
LINE
  5
407
330
1F
100
AcDbEntity
  8
D-A
  6
Continuous
 62
     2
370
     9
100
AcDbLine
 10
243.2994120829815
 20
396.1446594969433
 30
0.0
 11
243.2994120829815
 21
393.6449605487271
 31
0.0
  0
LINE
  5
408
330
1F
100
AcDbEntity
  8
D-A
  6
Continuous
 62
     2
370
     9
100
AcDbLine
 10
244.5494780669342
 20
396.1446594969433
 30
0.0
 11
244.5494780669342
 21
393.6449605487271
 31
0.0
  0
LINE
  5
409
330
1F
100
AcDbEntity
  8
D-A
  6
Continuous
 62
     2
370
     9
100
AcDbLine
 10
250.2992372255068
 20
396.1442883372092
 30
0.0
 11
250.2992372255068
 21
393.644651248949
 31
0.0
  0
LINE
  5
40A
330
1F
100
AcDbEntity
  8
D-A
  6
Continuous
 62
     2
370
     9
100
AcDbLine
 10
250.2992372255068
 20
393.644651248949
 30
0.0
 11
231.2996941643793
 21
393.644651248949
 31
0.0
  0
LINE
  5
40B
330
1F
100
AcDbEntity
  8
D-A
  6
Continuous
 62
     2
370
     9
100
AcDbLine
 10
231.2996941643793
 20
396.1442883372092
 30
0.0
 11
231.2996941643793
 21
393.644651248949
 31
0.0
  0
LINE
  5
40C
330
1F
100
AcDbEntity
  8
D-A
  6
Continuous
 62
     2
370
     9
100
AcDbLine
 10
249.5500513025233
 20
393.644651248949
 30
0.0
 11
249.5500513025233
 21
387.3946924889193
 31
0.0
  0
LINE
  5
40D
330
1F
100
AcDbEntity
  8
D-A
  6
Continuous
 62
     2
370
     9
100
AcDbLine
 10
232.0501172864761
 20
393.644651248949
 30
0.0
 11
232.0501172864761
 21
387.3946924889193
 31
0.0
  0
LINE
  5
40E
330
1F
100
AcDbEntity
  8
D-A
  6
Continuous
 62
     2
370
     9
100
AcDbLine
 10
240.8000842944997
 20
387.3946924889193
 30
0.0
 11
240.8000842944997
 21
393.644651248949
 31
0.0
  0
LINE
  5
40F
330
1F
100
AcDbEntity
  8
D-A
  6
Continuous
 62
     2
370
     9
100
AcDbLine
 10
308.2995646708721
 20
419.144685890524
 30
0.0
 11
308.2995646708721
 21
409.1446528985477
 31
0.0
  0
LINE
  5
410
330
1F
100
AcDbEntity
  8
D-A
  6
Continuous
 62
     2
370
     9
100
AcDbLine
 10
306.7993370262353
 20
419.144685890524
 30
0.0
 11
306.7993370262353
 21
409.1446528985477
 31
0.0
  0
LINE
  5
411
330
1F
100
AcDbEntity
  8
D-A
  6
Continuous
 62
     2
370
     9
100
AcDbLine
 10
299.7996356036213
 20
419.144685890524
 30
0.0
 11
299.7996356036213
 21
409.1446528985477
 31
0.0
  0
LINE
  5
412
330
1F
100
AcDbEntity
  8
D-A
  6
Continuous
 62
     2
370
     9
100
AcDbLine
 10
298.2994079589844
 20
419.144685890524
 30
0.0
 11
298.2994079589844
 21
409.1446528985477
 31
0.0
  0
LINE
  5
413
330
1F
100
AcDbEntity
  8
D-A
  6
Continuous
 62
     2
370
     9
100
AcDbLine
 10
245.8004719502218
 20
419.144685890524
 30
0.0
 11
245.8004719502218
 21
409.1446528985477
 31
0.0
  0
LINE
  5
414
330
1F
100
AcDbEntity
  8
D-A
  6
Continuous
 62
     2
370
     9
100
AcDbLine
 10
244.300244305585
 20
419.144685890524
 30
0.0
 11
244.300244305585
 21
409.1446528985477
 31
0.0
  0
LINE
  5
415
330
1F
100
AcDbEntity
  8
D-A
  6
Continuous
 62
     2
370
     9
100
AcDbLine
 10
237.300542882971
 20
419.144685890524
 30
0.0
 11
237.300542882971
 21
409.1446528985477
 31
0.0
  0
LINE
  5
416
330
1F
100
AcDbEntity
  8
D-A
  6
Continuous
 62
     2
370
     9
100
AcDbLine
 10
235.8003152383341
 20
419.144685890524
 30
0.0
 11
235.8003152383341
 21
409.1446528985477
 31
0.0
  0
LINE
  5
417
330
1F
100
AcDbEntity
  8
D-3
  6
Continuous
 62
     3
370
     9
100
AcDbLine
 10
308.299935830606
 20
396.1446594969433
 30
0.0
 11
308.299935830606
 21
404.1446364025597
 31
0.0
  0
LINE
  5
418
330
1F
100
AcDbEntity
  8
D-3
  6
Continuous
 62
     3
370
     9
100
AcDbLine
 10
235.7999440786002
 20
396.1446594969433
 30
0.0
 11
235.7999440786002
 21
404.1446364025597
 31
0.0
  0
LINE
  5
419
330
1F
100
AcDbEntity
  8
D-0
  6
Continuous
 62
     4
370
     9
100
AcDbLine
 10
313.4460036819046
 20
428.9887699342847
 30
0.0
 11
314.4034720755913
 21
444.3007173186808
 31
0.0
  0
LINE
  5
41A
330
1F
100
AcDbEntity
  8
D-0
  6
Continuous
 62
     4
370
     9
100
AcDbLine
 10
230.6538762273016
 20
428.9887699342847
 30
0.0
 11
229.696407833615
 21
444.3007173186808
 31
0.0
  0
LINE
  5
41B
330
1F
100
AcDbEntity
  8
D-A
  6
Continuous
 62
     2
370
     9
100
AcDbLine
 10
293.1961471970018
 20
379.1574826533516
 30
0.0
 11
293.1961471970018
 21
385.1316697310542
 31
0.0
  0
LINE
  5
41C
330
1F
100
AcDbEntity
  8
D-A
  6
Continuous
 62
     2
370
     9
100
AcDbLine
 10
294.9506192593963
 20
386.1446265049667
 30
0.0
 11
293.1961471970018
 21
385.1316697310542
 31
0.0
  0
LINE
  5
41D
330
1F
100
AcDbEntity
  8
D-A
  6
Continuous
 62
     2
370
     9
100
AcDbLine
 10
296.2997848923143
 20
376.6439889350237
 30
0.0
 11
296.2997848923143
 21
375.4520713093901
 31
0.0
  0
LINE
  5
41E
330
1F
100
AcDbEntity
  8
D-A
  6
Continuous
 62
     2
370
     9
100
AcDbLine
 10
295.674751900338
 20
377.7265381590527
 30
0.0
 11
293.1961471970018
 21
379.1574826533516
 31
0.0
  0
LINE
  5
41F
330
1F
100
AcDbEntity
  8
D-A
  6
Continuous
 62
     2
370
     9
100
AcDbLine
 10
310.9247774691196
 20
377.7265381590527
 30
0.0
 11
313.4033821724557
 21
379.1574826533516
 31
0.0
  0
LINE
  5
420
330
1F
100
AcDbEntity
  8
D-A
  6
Continuous
 62
     2
370
     9
100
AcDbLine
 10
310.2998063370989
 20
375.4520713093901
 30
0.0
 11
310.2998063370989
 21
376.6439889350237
 31
0.0
  0
LINE
  5
421
330
1F
100
AcDbEntity
  8
D-A
  6
Continuous
 62
     2
370
     9
100
AcDbLine
 10
313.4033821724557
 20
379.1574826533516
 30
0.0
 11
313.4033821724557
 21
385.1316697310542
 31
0.0
  0
LINE
  5
422
330
1F
100
AcDbEntity
  8
D-A
  6
Continuous
 62
     2
370
     9
100
AcDbLine
 10
298.248002335832
 20
379.1574826533516
 30
0.0
 11
298.248002335832
 21
385.1316697310542
 31
0.0
  0
LINE
  5
423
330
1F
100
AcDbEntity
  8
D-A
  6
Continuous
 62
     2
370
     9
100
AcDbLine
 10
308.3515888935812
 20
379.1574826533516
 30
0.0
 11
308.3515888935812
 21
385.1316697310542
 31
0.0
  0
LINE
  5
424
330
1F
100
AcDbEntity
  8
D-A
  6
Continuous
 62
     2
370
     9
100
AcDbLine
 10
311.648971970017
 20
386.1446265049667
 30
0.0
 11
313.4033821724557
 21
385.1316697310542
 31
0.0
  0
LINE
  5
425
330
1F
100
AcDbEntity
  8
D-A
  6
Continuous
 62
     2
370
     9
100
AcDbLine
 10
294.9506192593963
 20
378.1445877393946
 30
0.0
 11
311.648971970017
 21
378.1445877393946
 31
0.0
  0
LINE
  5
426
330
1F
100
AcDbEntity
  8
D-A
  6
JWW_CENTER1
 62
     2
370
     9
100
AcDbLine
 10
303.2997956147066
 20
391.3526780318355
 30
0.0
 11
303.2997956147066
 21
367.4710235502052
 31
0.0
  0
LINE
  5
427
330
1F
100
AcDbEntity
  8
D-A
  6
Continuous
 62
     2
370
     9
100
AcDbLine
 10
250.9037327122045
 20
379.1574826533516
 30
0.0
 11
250.9037327122045
 21
385.1316697310542
 31
0.0
  0
LINE
  5
428
330
1F
100
AcDbEntity
  8
D-A
  6
Continuous
 62
     2
370
     9
100
AcDbLine
 10
249.14926064981
 20
386.1446265049667
 30
0.0
 11
250.9037327122045
 21
385.1316697310542
 31
0.0
  0
LINE
  5
429
330
1F
100
AcDbEntity
  8
D-A
  6
Continuous
 62
     2
370
     9
100
AcDbLine
 10
247.800095016892
 20
376.6439889350237
 30
0.0
 11
247.800095016892
 21
375.4520713093901
 31
0.0
  0
LINE
  5
42A
330
1F
100
AcDbEntity
  8
D-A
  6
Continuous
 62
     2
370
     9
100
AcDbLine
 10
248.4251280088684
 20
377.7265381590527
 30
0.0
 11
250.9037327122045
 21
379.1574826533516
 31
0.0
  0
LINE
  5
42B
330
1F
100
AcDbEntity
  8
D-A
  6
Continuous
 62
     2
370
     9
100
AcDbLine
 10
233.1751024400867
 20
377.7265381590527
 30
0.0
 11
230.6964977367505
 21
379.1574826533516
 31
0.0
  0
LINE
  5
42C
330
1F
100
AcDbEntity
  8
D-A
  6
Continuous
 62
     2
370
     9
100
AcDbLine
 10
233.8000735721074
 20
375.4520713093901
 30
0.0
 11
233.8000735721074
 21
376.6439889350237
 31
0.0
  0
LINE
  5
42D
330
1F
100
AcDbEntity
  8
D-A
  6
Continuous
 62
     2
370
     9
100
AcDbLine
 10
230.6964977367505
 20
379.1574826533516
 30
0.0
 11
230.6964977367505
 21
385.1316697310542
 31
0.0
  0
LINE
  5
42E
330
1F
100
AcDbEntity
  8
D-A
  6
Continuous
 62
     2
370
     9
100
AcDbLine
 10
245.8518775733742
 20
379.1574826533516
 30
0.0
 11
245.8518775733742
 21
385.1316697310542
 31
0.0
  0
LINE
  5
42F
330
1F
100
AcDbEntity
  8
D-A
  6
Continuous
 62
     2
370
     9
100
AcDbLine
 10
235.7482910156251
 20
379.1574826533516
 30
0.0
 11
235.7482910156251
 21
385.1316697310542
 31
0.0
  0
LINE
  5
430
330
1F
100
AcDbEntity
  8
D-A
  6
Continuous
 62
     2
370
     9
100
AcDbLine
 10
249.14926064981
 20
378.1445877393946
 30
0.0
 11
232.4509079391893
 21
378.1445877393946
 31
0.0
  0
LINE
  5
431
330
1F
100
AcDbEntity
  8
D-A
  6
JWW_CENTER1
 62
     2
370
     9
100
AcDbLine
 10
240.8000842944997
 20
391.5464234129589
 30
0.0
 11
240.8000842944997
 21
367.4710235502052
 31
0.0
  0
LINE
  5
432
330
1F
100
AcDbEntity
  8
D-A
  6
JWW_CENTER1
 62
     2
370
     9
100
AcDbLine
 10
303.2997956147066
 20
418.1411936898274
 30
0.0
 11
303.2997956147066
 21
396.1446594969433
 31
0.0
  0
LINE
  5
433
330
1F
100
AcDbEntity
  8
D-A
  6
Continuous
 62
     2
370
     9
100
AcDbLine
 10
249.14926064981
 20
386.1446265049667
 30
0.0
 11
232.4509079391893
 21
386.1446265049667
 31
0.0
  0
LINE
  5
434
330
1F
100
AcDbEntity
  8
D-A
  6
Continuous
 62
     2
370
     9
100
AcDbLine
 10
232.4509079391893
 20
386.1446265049667
 30
0.0
 11
230.6964977367505
 21
385.1316697310542
 31
0.0
  0
LINE
  5
435
330
1F
100
AcDbEntity
  8
D-0
  6
Continuous
 62
     4
370
     9
100
AcDbLine
 10
203.300208014411
 20
446.6446528985477
 30
0.0
 11
340.7996718947953
 21
446.6446528985477
 31
0.0
  0
LINE
  5
436
330
1F
100
AcDbEntity
  8
D-0
  6
Continuous
 62
     4
370
     9
100
AcDbLine
 10
249.5108320906356
 20
426.9573508504058
 30
0.0
 11
249.549927582612
 21
426.6447106345063
 31
0.0
  0
LINE
  5
437
330
1F
100
AcDbEntity
  8
D-A
  6
JWW_CENTER1
 62
     2
370
     9
100
AcDbLine
 10
240.8000842944997
 20
448.367081503911
 30
0.0
 11
240.8000842944997
 21
427.6370680431847
 31
0.0
  0
LINE
  5
438
330
1F
100
AcDbEntity
  8
D-A
  6
JWW_CENTER1
 62
     2
370
     9
100
AcDbLine
 10
240.8000842944997
 20
418.1411936898274
 30
0.0
 11
240.8000842944997
 21
396.1446594969433
 31
0.0
  0
LINE
  5
439
330
1F
100
AcDbEntity
  8
D-0
  6
Continuous
 62
     4
370
     9
100
AcDbLine
 10
292.8707638302366
 20
432.5749152837357
 30
0.0
 11
293.2995151829076
 21
429.1447188825006
 31
0.0
  0
LINE
  5
43A
330
1F
100
AcDbEntity
  8
D-0
  6
Continuous
 62
     4
370
     9
100
AcDbLine
 10
258.6712399044553
 20
439.1446281545654
 30
0.0
 11
285.4286400047509
 21
439.1446281545654
 31
0.0
  0
LINE
  5
43B
330
1F
100
AcDbEntity
  8
D-0
  6
Continuous
 62
     4
370
     9
100
AcDbLine
 10
251.2291160789697
 20
432.5749152837357
 30
0.0
 11
250.8003647262987
 21
429.1447188825006
 31
0.0
  0
ARC
  5
43C
330
1F
100
AcDbEntity
  8
D-2
  6
Continuous
 62
     3
370
     9
100
AcDbCircle
 10
267.0502327583932
 20
329.1451312822047
 30
0.0
 40
2.500000273859179
100
AcDbArc
 50
180.0
 51
270.0
  0
ARC
  5
43D
330
1F
100
AcDbEntity
  8
D-2
  6
Continuous
 62
     3
370
     9
100
AcDbCircle
 10
277.0503894702809
 20
329.1451312822047
 30
0.0
 40
2.500000273859179
100
AcDbArc
 50
270.0
 51
0.0
  0
ARC
  5
43E
330
1F
100
AcDbEntity
  8
D-0
  6
Continuous
 62
     4
370
     9
100
AcDbCircle
 10
339.5497296307539
 20
449.1446611465417
 30
0.0
 40
1.250000016109364
100
AcDbArc
 50
0.0
 51
84.00610351562501
  0
ARC
  5
43F
330
1F
100
AcDbEntity
  8
D-0
  6
Continuous
 62
     4
370
     9
100
AcDbCircle
 10
204.550212138408
 20
449.1446611465417
 30
0.0
 40
1.250000016109364
100
AcDbArc
 50
95.993896484375
 51
180.0
  0
ARC
  5
440
330
1F
100
AcDbEntity
  8
D-A
  6
Continuous
 62
     2
370
     9
100
AcDbCircle
 10
307.6747791187184
 20
427.4260018744769
 30
0.0
 40
8.281277321480417
100
AcDbArc
 50
238.1089477539062
 51
301.8907012939453
  0
ARC
  5
441
330
1F
100
AcDbEntity
  8
D-A
  6
Continuous
 62
     2
370
     9
100
AcDbCircle
 10
298.9248121106948
 20
427.4260018744769
 30
0.0
 40
8.281277321480417
100
AcDbArc
 50
238.1092987060547
 51
301.8910522460938
  0
ARC
  5
442
330
1F
100
AcDbEntity
  8
D-A
  6
Continuous
 62
     2
370
     9
100
AcDbCircle
 10
236.4250389305322
 20
427.4260018744769
 30
0.0
 40
8.281277321480417
100
AcDbArc
 50
238.1092987060547
 51
301.8910522460938
  0
ARC
  5
443
330
1F
100
AcDbEntity
  8
D-A
  6
Continuous
 62
     2
370
     9
100
AcDbCircle
 10
245.1751296584671
 20
427.4260018744769
 30
0.0
 40
8.281277321480417
100
AcDbArc
 50
238.1089477539062
 51
301.8907012939453
  0
ARC
  5
444
330
1F
100
AcDbEntity
  8
D-A
  6
Continuous
 62
     2
370
     9
100
AcDbCircle
 10
307.6747791187184
 20
394.4259424889193
 30
0.0
 40
8.281277321480417
100
AcDbArc
 50
238.1089477539062
 51
301.8907012939453
  0
ARC
  5
445
330
1F
100
AcDbEntity
  8
D-A
  6
Continuous
 62
     2
370
     9
100
AcDbCircle
 10
298.9248121106948
 20
394.4259424889193
 30
0.0
 40
8.281277321480417
100
AcDbArc
 50
238.1092987060547
 51
301.8910522460938
  0
ARC
  5
446
330
1F
100
AcDbEntity
  8
D-A
  6
Continuous
 62
     2
370
     9
100
AcDbCircle
 10
245.1750677985115
 20
394.4259424889193
 30
0.0
 40
8.281277321480417
100
AcDbArc
 50
238.1089477539062
 51
301.8907012939453
  0
ARC
  5
447
330
1F
100
AcDbEntity
  8
D-A
  6
Continuous
 62
     2
370
     9
100
AcDbCircle
 10
236.4251007904878
 20
394.4259424889193
 30
0.0
 40
8.281277321480417
100
AcDbArc
 50
238.1092987060547
 51
301.8910522460938
  0
ARC
  5
448
330
1F
100
AcDbEntity
  8
D-0
  6
Continuous
 62
     4
370
     9
100
AcDbCircle
 10
316.8985933870883
 20
444.1447065105094
 30
0.0
 40
2.500000032218727
100
AcDbArc
 50
90.0
 51
176.4221649169922
  0
ARC
  5
449
330
1F
100
AcDbEntity
  8
D-0
  6
Continuous
 62
     4
370
     9
100
AcDbCircle
 10
310.9508823704076
 20
429.144780742456
 30
0.0
 40
2.500000032218727
100
AcDbArc
 50
270.0
 51
356.4221649169922
  0
ARC
  5
44A
330
1F
100
AcDbEntity
  8
D-0
  6
Continuous
 62
     4
370
     9
100
AcDbCircle
 10
227.2012865221179
 20
444.1447065105094
 30
0.0
 40
2.500000032218727
100
AcDbArc
 50
3.577835083007803
 51
89.99999999999999
  0
ARC
  5
44B
330
1F
100
AcDbEntity
  8
D-0
  6
Continuous
 62
     4
370
     9
100
AcDbCircle
 10
233.1489975387987
 20
429.144780742456
 30
0.0
 40
2.500000032218727
100
AcDbArc
 50
183.5778350830078
 51
270.0
  0
ARC
  5
44C
330
1F
100
AcDbEntity
  8
D-A
  6
Continuous
 62
     2
370
     9
100
AcDbCircle
 10
303.2997956147066
 20
391.248691446373
 30
0.0
 40
13.10409210823678
100
AcDbArc
 50
247.3243103027343
 51
292.6756896972656
  0
ARC
  5
44D
330
1F
100
AcDbEntity
  8
D-A
  6
Continuous
 62
     2
370
     9
100
AcDbCircle
 10
294.9506192593963
 20
384.017819369462
 30
0.0
 40
5.873256277393651
100
AcDbArc
 50
270.0
 51
304.1535186767578
  0
ARC
  5
44E
330
1F
100
AcDbEntity
  8
D-A
  6
Continuous
 62
     2
370
     9
100
AcDbCircle
 10
303.2997956147066
 20
373.0405227979883
 30
0.0
 40
13.10409210823678
100
AcDbArc
 50
67.32431030273439
 51
112.6756896972656
  0
ARC
  5
44F
330
1F
100
AcDbEntity
  8
D-A
  6
Continuous
 62
     2
370
     9
100
AcDbCircle
 10
294.9506192593963
 20
380.271394874899
 30
0.0
 40
5.873256277393651
100
AcDbArc
 50
55.84648132324221
 51
90.00000000000003
  0
ARC
  5
450
330
1F
100
AcDbEntity
  8
D-A
  6
Continuous
 62
     2
370
     9
100
AcDbCircle
 10
303.2997956147066
 20
378.1445877393946
 30
0.0
 40
7.500000096656181
100
AcDbArc
 50
201.0391845703125
 51
338.9608154296874
  0
ARC
  5
451
330
1F
100
AcDbEntity
  8
D-A
  6
Continuous
 62
     2
370
     9
100
AcDbCircle
 10
295.0497807683172
 20
376.6439889350237
 30
0.0
 40
1.250000016109364
100
AcDbArc
 50
0.0
 51
59.99960327148438
  0
ARC
  5
452
330
1F
100
AcDbEntity
  8
D-A
  6
Continuous
 62
     2
370
     9
100
AcDbCircle
 10
311.648971970017
 20
384.017819369462
 30
0.0
 40
5.873256277393651
100
AcDbArc
 50
235.8464813232422
 51
270.0
  0
ARC
  5
453
330
1F
100
AcDbEntity
  8
D-A
  6
Continuous
 62
     2
370
     9
100
AcDbCircle
 10
311.648971970017
 20
380.271394874899
 30
0.0
 40
5.873256277393651
100
AcDbArc
 50
90.0
 51
124.1535186767578
  0
ARC
  5
454
330
1F
100
AcDbEntity
  8
D-A
  6
Continuous
 62
     2
370
     9
100
AcDbCircle
 10
311.5497486011403
 20
376.6439889350237
 30
0.0
 40
1.250000016109364
100
AcDbArc
 50
120.0003967285157
 51
180.0000000000001
  0
ARC
  5
455
330
1F
100
AcDbEntity
  8
D-A
  6
Continuous
 62
     2
370
     9
100
AcDbCircle
 10
240.8000842944997
 20
391.248691446373
 30
0.0
 40
13.10409210823678
100
AcDbArc
 50
247.3243103027343
 51
292.6756896972656
  0
ARC
  5
456
330
1F
100
AcDbEntity
  8
D-A
  6
Continuous
 62
     2
370
     9
100
AcDbCircle
 10
249.14926064981
 20
384.017819369462
 30
0.0
 40
5.873256277393651
100
AcDbArc
 50
235.8464813232422
 51
270.0
  0
ARC
  5
457
330
1F
100
AcDbEntity
  8
D-A
  6
Continuous
 62
     2
370
     9
100
AcDbCircle
 10
240.8000842944997
 20
373.0405227979883
 30
0.0
 40
13.10409210823678
100
AcDbArc
 50
67.32431030273439
 51
112.6756896972656
  0
ARC
  5
458
330
1F
100
AcDbEntity
  8
D-A
  6
Continuous
 62
     2
370
     9
100
AcDbCircle
 10
240.8000842944997
 20
378.1445877393946
 30
0.0
 40
7.500000096656181
100
AcDbArc
 50
201.0391845703125
 51
338.9608154296874
  0
ARC
  5
459
330
1F
100
AcDbEntity
  8
D-A
  6
Continuous
 62
     2
370
     9
100
AcDbCircle
 10
249.050099140889
 20
376.6439889350237
 30
0.0
 40
1.250000016109364
100
AcDbArc
 50
120.0003967285157
 51
180.0000000000001
  0
ARC
  5
45A
330
1F
100
AcDbEntity
  8
D-A
  6
Continuous
 62
     2
370
     9
100
AcDbCircle
 10
232.4509079391893
 20
384.017819369462
 30
0.0
 40
5.873256277393651
100
AcDbArc
 50
270.0
 51
304.1535186767578
  0
ARC
  5
45B
330
1F
100
AcDbEntity
  8
D-A
  6
Continuous
 62
     2
370
     9
100
AcDbCircle
 10
232.4509079391893
 20
380.271394874899
 30
0.0
 40
5.873256277393651
100
AcDbArc
 50
55.84648132324221
 51
90.00000000000003
  0
ARC
  5
45C
330
1F
100
AcDbEntity
  8
D-A
  6
Continuous
 62
     2
370
     9
100
AcDbCircle
 10
232.5501313080659
 20
376.6439889350237
 30
0.0
 40
1.250000016109364
100
AcDbArc
 50
0.0
 51
59.99960327148438
  0
ARC
  5
45D
330
1F
100
AcDbEntity
  8
D-A
  6
Continuous
 62
     2
370
     9
100
AcDbCircle
 10
249.14926064981
 20
380.271394874899
 30
0.0
 40
5.873256277393651
100
AcDbArc
 50
90.0
 51
124.1535186767578
  0
ARC
  5
45E
330
1F
100
AcDbEntity
  8
D-0
  6
Continuous
 62
     4
370
     9
100
AcDbCircle
 10
295.7995234309017
 20
429.1447188825006
 30
0.0
 40
2.500000032218727
100
AcDbArc
 50
180.0
 51
270.0
  0
ARC
  5
45F
330
1F
100
AcDbEntity
  8
D-0
  6
Continuous
 62
     4
370
     9
100
AcDbCircle
 10
248.3003564783046
 20
429.1447188825006
 30
0.0
 40
2.500000032218727
100
AcDbArc
 50
270.0
 51
0.0
  0
ARC
  5
460
330
1F
100
AcDbEntity
  8
D-0
  6
Continuous
 62
     4
370
     9
100
AcDbCircle
 10
285.4286400047509
 20
431.6446034105831
 30
0.0
 40
7.500000096656181
100
AcDbArc
 50
7.125366210937503
 51
90.00000000000001
  0
ARC
  5
461
330
1F
100
AcDbEntity
  8
D-0
  6
Continuous
 62
     4
370
     9
100
AcDbCircle
 10
258.6712399044553
 20
431.6446034105831
 30
0.0
 40
7.500000096656181
100
AcDbArc
 50
90.0
 51
172.8746337890625
  0
LINE
  5
462
330
1F
100
AcDbEntity
  8
D-3
  6
Continuous
 62
     3
370
     9
100
AcDbLine
 10
264.5497914907096
 20
396.1446594969433
 30
0.0
 11
141.2176256808684
 21
396.1446594969433
 31
0.0
  0
LINE
  5
463
330
1F
100
AcDbEntity
  8
D-3
  6
Continuous
 62
     3
370
     9
100
AcDbLine
 10
264.5497914907096
 20
404.1446364025597
 30
0.0
 11
141.2176256808684
 21
404.1446364025597
 31
0.0
  0
LINE
  5
464
330
1F
100
AcDbEntity
  8
D-B
  6
Continuous
 62
     7
370
     9
100
AcDbLine
 10
223.2999028386297
 20
404.1446364025597
 30
0.0
 11
223.2999028386297
 21
446.6446528985477
 31
0.0
  0
LINE
  5
465
330
1F
100
AcDbEntity
  8
D-B
  6
Continuous
 62
     7
370
     9
100
AcDbLine
 10
203.300208014411
 20
446.6446528985477
 30
0.0
 11
141.2176256808684
 21
446.6446528985477
 31
0.0
  0
LINE
  5
466
330
1F
100
AcDbEntity
  8
D-B
  6
Continuous
 62
     7
370
     9
100
AcDbLine
 10
223.2999028386297
 20
416.64467764253
 30
0.0
 11
141.2176256808684
 21
416.64467764253
 31
0.0
  0
LINE
  5
467
330
1F
100
AcDbEntity
  8
D-B
  6
Continuous
 62
     7
370
     9
100
AcDbLine
 10
223.2999028386297
 20
424.1447023865123
 30
0.0
 11
141.2176256808684
 21
424.1447023865123
 31
0.0
  0
LINE
  5
468
330
1F
100
AcDbEntity
  8
D-B
  6
Continuous
 62
     7
370
     9
100
AcDbLine
 10
223.2999028386297
 20
431.6446652705388
 30
0.0
 11
141.2176256808684
 21
431.6446652705388
 31
0.0
  0
LINE
  5
469
330
1F
100
AcDbEntity
  8
D-B
  6
Continuous
 62
     7
370
     9
100
AcDbLine
 10
223.2999028386297
 20
439.1446900145211
 30
0.0
 11
141.2176256808684
 21
439.1446900145211
 31
0.0
  0
LINE
  5
46A
330
1F
100
AcDbEntity
  8
D-B
  6
Continuous
 62
     7
370
     9
100
AcDbLine
 10
141.2176256808684
 20
409.1446528985477
 30
0.0
 11
264.5497914907096
 21
409.1446528985477
 31
0.0
  0
TEXT
  5
46B
330
1F
100
AcDbEntity
  8
D-0
  6
Continuous
 62
     7
370
     9
100
AcDbText
 10
253.441792228263
 20
631.6018456772358
 30
0.0
 40
11.43
  1
把手カバー
 50
0.0000429614057315
 41
1.133333333333333
  7
ＭＳ ゴシック
100
AcDbText
  0
TEXT
  5
46C
330
1F
100
AcDbEntity
  8
D-0
  6
Continuous
 62
     7
370
     9
100
AcDbText
 10
229.9456639801834
 20
609.7563734960986
 30
0.0
 40
11.43
  1
（ＳＣＳ１３）
 41
1.142857142857143
  7
ＭＳ ゴシック
100
AcDbText
  0
LINE
  5
46D
330
1F
100
AcDbEntity
  8
D-0
  6
Continuous
 62
     7
370
     9
100
AcDbLine
 10
234.2738984232785
 20
624.6033733377371
 30
0.0
 11
365.4848253404774
 21
624.6033733377371
 31
0.0
  0
LINE
  5
46E
330
1F
100
AcDbEntity
  8
D-4
  6
Continuous
 62
     7
370
     9
100
AcDbLine
 10
365.4848253404774
 20
624.6033733377371
 30
0.0
 11
260.7588730486836
 21
452.8946116585774
 31
0.0
  0
LINE
  5
46F
330
1F
100
AcDbEntity
  8
D-4
  6
Continuous
 62
     7
370
     9
100
AcDbLine
 10
260.5498830959069
 20
452.8946116585774
 30
0.0
 11
265.6100047314817
 21
464.3246234273022
 31
0.0
  0
LINE
  5
470
330
1F
100
AcDbEntity
  8
D-4
  6
Continuous
 62
     7
370
     9
100
AcDbLine
 10
260.5498830959069
 20
452.8946116585774
 30
0.0
 11
268.3958899993647
 21
462.6254993709546
 31
0.0
  0
LINE
  5
471
330
1F
100
AcDbEntity
  8
D-B
  6
Continuous
 62
     7
370
     9
100
AcDbLine
 10
212.4608662029183
 20
404.1445126826485
 30
0.0
 11
207.4610971467526
 21
409.144652898548
 31
0.0
  0
LINE
  5
472
330
1F
100
AcDbEntity
  8
D-B
  6
Continuous
 62
     7
370
     9
100
AcDbLine
 10
217.7644913612797
 20
404.1445126826485
 30
0.0
 11
212.7642274254688
 21
409.144652898548
 31
0.0
  0
LINE
  5
473
330
1F
100
AcDbEntity
  8
D-B
  6
Continuous
 62
     7
370
     9
100
AcDbLine
 10
223.0676216399959
 20
404.1445126826485
 30
0.0
 11
218.0676051440079
 21
409.144652898548
 31
0.0
  0
LINE
  5
474
330
1F
100
AcDbEntity
  8
D-B
  6
Continuous
 62
     7
370
     9
100
AcDbLine
 10
201.8543582056631
 20
404.1445126826485
 30
0.0
 11
196.8545891494974
 21
409.144652898548
 31
0.0
  0
LINE
  5
475
330
1F
100
AcDbEntity
  8
D-B
  6
Continuous
 62
     7
370
     9
100
AcDbLine
 10
207.1579833640245
 20
404.1445126826485
 30
0.0
 11
202.1577194282136
 21
409.144652898548
 31
0.0
  0
LINE
  5
476
330
1F
100
AcDbEntity
  8
D-B
  6
Continuous
 62
     7
370
     9
100
AcDbLine
 10
191.2478502084081
 20
404.1445126826485
 30
0.0
 11
186.2480811522425
 21
409.144652898548
 31
0.0
  0
LINE
  5
477
330
1F
100
AcDbEntity
  8
D-B
  6
Continuous
 62
     7
370
     9
100
AcDbLine
 10
196.5514753667696
 20
404.1445126826485
 30
0.0
 11
191.5512114309586
 21
409.144652898548
 31
0.0
  0
LINE
  5
478
330
1F
100
AcDbEntity
  8
D-B
  6
Continuous
 62
     7
370
     9
100
AcDbLine
 10
180.6413422111529
 20
404.1445126826485
 30
0.0
 11
175.6415731549873
 21
409.144652898548
 31
0.0
  0
LINE
  5
479
330
1F
100
AcDbEntity
  8
D-B
  6
Continuous
 62
     7
370
     9
100
AcDbLine
 10
185.9449673695144
 20
404.1445126826485
 30
0.0
 11
180.9447034337034
 21
409.144652898548
 31
0.0
  0
LINE
  5
47A
330
1F
100
AcDbEntity
  8
D-B
  6
Continuous
 62
     7
370
     9
100
AcDbLine
 10
170.034834213898
 20
404.1445126826485
 30
0.0
 11
165.0350651577323
 21
409.144652898548
 31
0.0
  0
LINE
  5
47B
330
1F
100
AcDbEntity
  8
D-B
  6
Continuous
 62
     7
370
     9
100
AcDbLine
 10
175.3384593722594
 20
404.1445126826485
 30
0.0
 11
170.3381954364485
 21
409.144652898548
 31
0.0
  0
LINE
  5
47C
330
1F
100
AcDbEntity
  8
D-B
  6
Continuous
 62
     7
370
     9
100
AcDbLine
 10
159.4283262166427
 20
404.1445126826485
 30
0.0
 11
154.4285571604771
 21
409.144652898548
 31
0.0
  0
LINE
  5
47D
330
1F
100
AcDbEntity
  8
D-B
  6
Continuous
 62
     7
370
     9
100
AcDbLine
 10
164.7319513750042
 20
404.1445126826485
 30
0.0
 11
159.7316874391933
 21
409.144652898548
 31
0.0
  0
LINE
  5
47E
330
1F
100
AcDbEntity
  8
D-B
  6
Continuous
 62
     7
370
     9
100
AcDbLine
 10
148.8218182193878
 20
404.1445126826485
 30
0.0
 11
143.8220491632222
 21
409.144652898548
 31
0.0
  0
LINE
  5
47F
330
1F
100
AcDbEntity
  8
D-B
  6
Continuous
 62
     7
370
     9
100
AcDbLine
 10
154.1254433777493
 20
404.1445126826485
 30
0.0
 11
149.1251794419383
 21
409.144652898548
 31
0.0
  0
LINE
  5
480
330
1F
100
AcDbEntity
  8
D-B
  6
Continuous
 62
     7
370
     9
100
AcDbLine
 10
143.518935380494
 20
404.1445126826485
 30
0.0
 11
141.2176256808684
 21
406.4457654417134
 31
0.0
  0
LINE
  5
481
330
1F
100
AcDbEntity
  8
D-B
  6
Continuous
 62
     7
370
     9
100
AcDbLine
 10
279.5500884184967
 20
409.144652898548
 30
0.0
 11
377.6871964738177
 21
409.144652898548
 31
0.0
  0
LINE
  5
482
330
1F
100
AcDbEntity
  8
D-B
  6
Continuous
 62
     7
370
     9
100
AcDbLine
 10
328.7479297534838
 20
404.1445126826485
 30
0.0
 11
323.7479132574956
 21
409.144652898548
 31
0.0
  0
LINE
  5
483
330
1F
100
AcDbEntity
  8
D-4
  6
Continuous
 62
     4
370
     9
100
AcDbLine
 10
293.9380303920663
 20
-376.827944675298
 30
0.0
 11
523.9381396779877
 21
-376.827944675298
 31
0.0
  0
LINE
  5
484
330
1F
100
AcDbEntity
  8
D-4
  6
Continuous
 62
     4
370
     9
100
AcDbLine
 10
273.9381809179583
 20
-115.8431537587188
 30
0.0
 11
543.9380819420294
 21
-115.8431537587188
 31
0.0
  0
LINE
  5
485
330
1F
100
AcDbEntity
  8
D-4
  6
Continuous
 62
     4
370
     9
100
AcDbLine
 10
268.9381644219701
 20
-248.3434053225386
 30
0.0
 11
268.9381644219701
 21
-120.8432939746183
 31
0.0
  0
LINE
  5
486
330
1F
100
AcDbEntity
  8
D-4
  6
Continuous
 62
     4
370
     9
100
AcDbLine
 10
543.9380819420294
 20
-253.3435455384381
 30
0.0
 11
273.9381809179583
 21
-253.3435455384381
 31
0.0
  0
LINE
  5
487
330
1F
100
AcDbEntity
  8
D-4
  6
Continuous
 62
     4
370
     9
100
AcDbLine
 10
548.9382221579287
 20
-248.3434053225386
 30
0.0
 11
548.9382221579287
 21
-120.8432939746183
 31
0.0
  0
LINE
  5
488
330
1F
100
AcDbEntity
  8
D-4
  6
Continuous
 62
     4
370
     9
100
AcDbLine
 10
270.4041216511719
 20
-117.3076263489849
 30
0.0
 11
295.4042041311126
 21
-142.3078325488371
 31
0.0
  0
LINE
  5
489
330
1F
100
AcDbEntity
  8
D-4
  6
Continuous
 62
     4
370
     9
100
AcDbLine
 10
547.4736258477512
 20
-251.8798152676399
 30
0.0
 11
522.4735433678106
 21
-226.8796709277434
 31
0.0
  0
LINE
  5
48A
330
1F
100
AcDbEntity
  8
D-4
  6
Continuous
 62
     4
370
     9
100
AcDbLine
 10
270.4041216511719
 20
-251.8798152676399
 30
0.0
 11
295.4042041311126
 21
-226.8796709277434
 31
0.0
  0
LINE
  5
48B
330
1F
100
AcDbEntity
  8
D-4
  6
Continuous
 62
     4
370
     9
100
AcDbLine
 10
523.9381396779877
 20
-223.3442507419325
 30
0.0
 11
523.9381396779877
 21
-145.8441187740271
 31
0.0
  0
LINE
  5
48C
330
1F
100
AcDbEntity
  8
D-4
  6
Continuous
 62
     4
370
     9
100
AcDbLine
 10
298.9382324679215
 20
-228.3442053779651
 30
0.0
 11
518.9377520222658
 21
-228.3442053779651
 31
0.0
  0
LINE
  5
48D
330
1F
100
AcDbEntity
  8
D-4
  6
Continuous
 62
     4
370
     9
100
AcDbLine
 10
298.9382324679215
 20
-140.843731118305
 30
0.0
 11
518.9377520222658
 21
-140.843731118305
 31
0.0
  0
LINE
  5
48E
330
1F
100
AcDbEntity
  8
D-4
  6
Continuous
 62
     4
370
     9
100
AcDbLine
 10
293.9380303920663
 20
-145.8441187740271
 30
0.0
 11
293.9380303920663
 21
-223.3442507419325
 31
0.0
  0
LINE
  5
48F
330
1F
100
AcDbEntity
  8
D-4
  6
Continuous
 62
     3
370
     9
100
AcDbLine
 10
327.3131157588048
 20
-195.3434036729398
 30
0.0
 11
327.3131157588048
 21
-173.8437905038625
 31
0.0
  0
LINE
  5
490
330
1F
100
AcDbEntity
  8
D-4
  6
Continuous
 62
     3
370
     9
100
AcDbLine
 10
331.5631112224085
 20
-199.5933682065651
 30
0.0
 11
486.3131516375793
 21
-199.5933682065651
 31
0.0
  0
LINE
  5
491
330
1F
100
AcDbEntity
  8
D-4
  6
Continuous
 62
     4
370
     9
100
AcDbLine
 10
326.063111634808
 20
-195.843355834574
 30
0.0
 11
326.063111634808
 21
-173.3434053225386
 31
0.0
  0
LINE
  5
492
330
1F
100
AcDbEntity
  8
D-4
  6
Continuous
 62
     4
370
     9
100
AcDbLine
 10
486.8131656591694
 20
-168.3433888265504
 30
0.0
 11
331.0630972008184
 21
-168.3433888265504
 31
0.0
  0
LINE
  5
493
330
1F
100
AcDbEntity
  8
D-4
  6
Continuous
 62
     4
370
     9
100
AcDbLine
 10
491.8131512251793
 20
-195.843355834574
 30
0.0
 11
491.8131512251793
 21
-173.3434053225386
 31
0.0
  0
LINE
  5
494
330
1F
100
AcDbEntity
  8
D-4
  6
Continuous
 62
     4
370
     9
100
AcDbLine
 10
486.8131656591694
 20
-200.8433723305622
 30
0.0
 11
331.0630972008184
 21
-200.8433723305622
 31
0.0
  0
LINE
  5
495
330
1F
100
AcDbEntity
  8
D-4
  6
JWW_CENTER1
 62
     4
370
     9
100
AcDbLine
 10
264.0764667868349
 20
-184.5933805785563
 30
0.0
 11
557.3646615978569
 21
-184.5933805785563
 31
0.0
  0
LINE
  5
496
330
1F
100
AcDbEntity
  8
D-4
  6
Continuous
 62
     3
370
     9
100
AcDbLine
 10
486.3128114078231
 20
-169.5933929505474
 30
0.0
 11
331.5640081917653
 21
-169.5933929505474
 31
0.0
  0
LINE
  5
497
330
1F
100
AcDbEntity
  8
D-4
  6
Continuous
 62
     3
370
     9
100
AcDbLine
 10
490.5628068714262
 20
-173.8434193441285
 30
0.0
 11
490.5628068714262
 21
-195.4019231909929
 31
0.0
  0
LINE
  5
498
330
1F
100
AcDbEntity
  8
D-4
  6
Continuous
 62
     4
370
     9
100
AcDbLine
 10
547.4736258477512
 20
-117.3076263489849
 30
0.0
 11
522.4735433678106
 21
-142.3078325488371
 31
0.0
  0
LINE
  5
499
330
1F
100
AcDbEntity
  8
D-4
  6
JWW_CENTER1
 62
     4
370
     9
100
AcDbLine
 10
408.9381314299939
 20
-108.6902870858937
 30
0.0
 11
408.9381314299939
 21
-262.8528744321511
 31
0.0
  0
ARC
  5
49A
330
1F
100
AcDbEntity
  8
D-4
  6
Continuous
 62
     4
370
     9
100
AcDbCircle
 10
518.9377520222658
 20
-145.8441187740271
 30
0.0
 40
4.99999958115655
100
AcDbArc
 50
0.0
 51
90.0
  0
ARC
  5
49B
330
1F
100
AcDbEntity
  8
D-4
  6
Continuous
 62
     4
370
     9
100
AcDbCircle
 10
518.9377520222658
 20
-223.3442507419325
 30
0.0
 40
4.99999958115655
100
AcDbArc
 50
270.0
 51
0.0
  0
ARC
  5
49C
330
1F
100
AcDbEntity
  8
D-4
  6
Continuous
 62
     4
370
     9
100
AcDbCircle
 10
298.9382324679215
 20
-223.3442507419325
 30
0.0
 40
4.99999958115655
100
AcDbArc
 50
180.0
 51
270.0
  0
ARC
  5
49D
330
1F
100
AcDbEntity
  8
D-4
  6
Continuous
 62
     4
370
     9
100
AcDbCircle
 10
298.9382324679215
 20
-145.8441187740271
 30
0.0
 40
4.99999958115655
100
AcDbArc
 50
90.0
 51
180.0
  0
ARC
  5
49E
330
1F
100
AcDbEntity
  8
D-4
  6
Continuous
 62
     4
370
     9
100
AcDbCircle
 10
543.9380819420294
 20
-120.8432939746183
 30
0.0
 40
5.000000064437454
100
AcDbArc
 50
0.0
 51
90.0
  0
ARC
  5
49F
330
1F
100
AcDbEntity
  8
D-4
  6
Continuous
 62
     4
370
     9
100
AcDbCircle
 10
273.9380571980469
 20
-120.8432939746183
 30
0.0
 40
5.000000064437454
100
AcDbArc
 50
90.0
 51
180.0
  0
ARC
  5
4A0
330
1F
100
AcDbEntity
  8
D-4
  6
Continuous
 62
     4
370
     9
100
AcDbCircle
 10
273.9380571980469
 20
-248.3433434625829
 30
0.0
 40
5.000000064437454
100
AcDbArc
 50
180.0
 51
270.0
  0
ARC
  5
4A1
330
1F
100
AcDbEntity
  8
D-4
  6
Continuous
 62
     4
370
     9
100
AcDbCircle
 10
543.9380819420294
 20
-248.3433434625829
 30
0.0
 40
5.000000064437454
100
AcDbArc
 50
270.0
 51
0.0
  0
ARC
  5
4A2
330
1F
100
AcDbEntity
  8
D-4
  6
Continuous
 62
     3
370
     9
100
AcDbCircle
 10
331.5640081917653
 20
-173.8437905038625
 30
0.0
 40
4.250002229535902
100
AcDbArc
 50
90.0
 51
180.0
  0
ARC
  5
4A3
330
1F
100
AcDbEntity
  8
D-4
  6
Continuous
 62
     3
370
     9
100
AcDbCircle
 10
486.3131516375793
 20
-195.3429706532501
 30
0.0
 40
4.250002229535902
100
AcDbArc
 50
270.0
 51
359.2052154541016
  0
ARC
  5
4A4
330
1F
100
AcDbEntity
  8
D-4
  6
Continuous
 62
     3
370
     9
100
AcDbCircle
 10
331.5631112224085
 20
-195.3434036729398
 30
0.0
 40
4.250000296412288
100
AcDbArc
 50
180.0
 51
270.0
  0
ARC
  5
4A5
330
1F
100
AcDbEntity
  8
D-4
  6
Continuous
 62
     4
370
     9
100
AcDbCircle
 10
408.9381314299939
 20
-184.5933805785563
 30
0.0
 40
31.25000064437454
100
AcDbArc
 50
211.3322448730469
 51
328.6677551269532
  0
ARC
  5
4A6
330
1F
100
AcDbEntity
  8
D-4
  6
Continuous
 62
     4
370
     9
100
AcDbCircle
 10
408.9381314299939
 20
-184.5933805785563
 30
0.0
 40
31.25000064437454
100
AcDbArc
 50
31.33224487304688
 51
148.6677551269531
  0
ARC
  5
4A7
330
1F
100
AcDbEntity
  8
D-4
  6
Continuous
 62
     4
370
     9
100
AcDbCircle
 10
331.0630972008184
 20
-173.3434053225386
 30
0.0
 40
5.000000064437454
100
AcDbArc
 50
90.0
 51
180.0
  0
ARC
  5
4A8
330
1F
100
AcDbEntity
  8
D-4
  6
Continuous
 62
     4
370
     9
100
AcDbCircle
 10
331.0630972008184
 20
-195.843355834574
 30
0.0
 40
5.000000064437454
100
AcDbArc
 50
180.0
 51
270.0
  0
ARC
  5
4A9
330
1F
100
AcDbEntity
  8
D-4
  6
Continuous
 62
     4
370
     9
100
AcDbCircle
 10
486.8131656591694
 20
-173.3434053225386
 30
0.0
 40
5.000000064437454
100
AcDbArc
 50
0.0
 51
90.0
  0
ARC
  5
4AA
330
1F
100
AcDbEntity
  8
D-4
  6
Continuous
 62
     4
370
     9
100
AcDbCircle
 10
486.8131656591694
 20
-195.843355834574
 30
0.0
 40
5.000000064437454
100
AcDbArc
 50
270.0
 51
0.0
  0
ARC
  5
4AB
330
1F
100
AcDbEntity
  8
D-4
  6
Continuous
 62
     3
370
     9
100
AcDbCircle
 10
486.3128114078231
 20
-173.8434193441285
 30
0.0
 40
4.250000296412288
100
AcDbArc
 50
0.0
 51
90.0
  0
LINE
  5
4AC
330
1F
100
AcDbEntity
  8
D-4
  6
Continuous
 62
     4
370
     9
100
AcDbLine
 10
271.0672603758342
 20
-380.2584503763115
 30
0.0
 11
293.9380303920663
 21
-376.827944675298
 31
0.0
  0
LINE
  5
4AD
330
1F
100
AcDbEntity
  8
D-4
  6
Continuous
 62
     4
370
     9
100
AcDbLine
 10
268.9381644219701
 20
-382.7308072241261
 30
0.0
 11
268.9381644219701
 21
-383.0778415753718
 31
0.0
  0
LINE
  5
4AE
330
1F
100
AcDbEntity
  8
D-4
  6
Continuous
 62
     3
370
     9
100
AcDbLine
 10
328.937867494183
 20
-476.8278415753718
 30
0.0
 11
488.9379004861595
 21
-476.8278415753718
 31
0.0
  0
LINE
  5
4AF
330
1F
100
AcDbEntity
  8
D-4
  6
Continuous
 62
     3
370
     9
100
AcDbLine
 10
328.937867494183
 20
-483.0779240553127
 30
0.0
 11
488.9379004861595
 21
-483.0779240553127
 31
0.0
  0
LINE
  5
4B0
330
1F
100
AcDbEntity
  8
D-4
  6
Continuous
 62
     3
370
     9
100
AcDbLine
 10
371.4381314299939
 20
-473.3278052841979
 30
0.0
 11
378.9380324540647
 21
-476.0778514729648
 31
0.0
  0
LINE
  5
4B1
330
1F
100
AcDbEntity
  8
D-4
  6
Continuous
 62
     3
370
     9
100
AcDbLine
 10
446.4381314299939
 20
-473.3278052841979
 30
0.0
 11
438.9382304059225
 21
-476.0778514729648
 31
0.0
  0
LINE
  5
4B2
330
1F
100
AcDbEntity
  8
D-4
  6
Continuous
 62
     3
370
     9
100
AcDbLine
 10
378.9380324540647
 20
-476.0778514729648
 30
0.0
 11
378.9380324540647
 21
-476.8278415753718
 31
0.0
  0
LINE
  5
4B3
330
1F
100
AcDbEntity
  8
D-4
  6
Continuous
 62
     3
370
     9
100
AcDbLine
 10
438.9382304059225
 20
-476.0778514729648
 30
0.0
 11
438.9382304059225
 21
-476.8278415753718
 31
0.0
  0
LINE
  5
4B4
330
1F
100
AcDbEntity
  8
D-4
  6
Continuous
 62
     3
370
     9
100
AcDbLine
 10
368.9379685321106
 20
-500.57785807136
 30
0.0
 11
368.9379685321106
 21
-483.0779240553127
 31
0.0
  0
LINE
  5
4B5
330
1F
100
AcDbEntity
  8
D-4
  6
Continuous
 62
     3
370
     9
100
AcDbLine
 10
446.4381314299939
 20
-503.0777425994428
 30
0.0
 11
371.4381314299939
 21
-503.0777425994428
 31
0.0
  0
LINE
  5
4B6
330
1F
100
AcDbEntity
  8
D-4
  6
Continuous
 62
     3
370
     9
100
AcDbLine
 10
448.9380159580767
 20
-500.57785807136
 30
0.0
 11
448.9380159580767
 21
-483.0779240553127
 31
0.0
  0
LINE
  5
4B7
330
1F
100
AcDbEntity
  8
D-4
  6
Continuous
 62
     3
370
     9
100
AcDbLine
 10
328.937867494183
 20
-476.8278415753718
 30
0.0
 11
328.937867494183
 21
-488.0779405513009
 31
0.0
  0
LINE
  5
4B8
330
1F
100
AcDbEntity
  8
D-4
  6
Continuous
 62
     3
370
     9
100
AcDbLine
 10
488.9379004861595
 20
-476.8278415753718
 30
0.0
 11
488.9379004861595
 21
-488.0779405513009
 31
0.0
  0
LINE
  5
4B9
330
1F
100
AcDbEntity
  8
D-4
  6
Continuous
 62
     3
370
     9
100
AcDbLine
 10
328.937867494183
 20
-488.0779405513009
 30
0.0
 11
368.3129664701121
 21
-488.0779405513009
 31
0.0
  0
LINE
  5
4BA
330
1F
100
AcDbEntity
  8
D-4
  6
Continuous
 62
     3
370
     9
100
AcDbLine
 10
449.5630489500527
 20
-488.0779405513009
 30
0.0
 11
488.9379004861595
 21
-488.0779405513009
 31
0.0
  0
LINE
  5
4BB
330
1F
100
AcDbEntity
  8
D-4
  6
Continuous
 62
     3
370
     9
100
AcDbLine
 10
449.5630489500527
 20
-483.0779240553127
 30
0.0
 11
449.5630489500527
 21
-488.0779405513009
 31
0.0
  0
LINE
  5
4BC
330
1F
100
AcDbEntity
  8
D-4
  6
Continuous
 62
     3
370
     9
100
AcDbLine
 10
368.3129664701121
 20
-483.0779240553127
 30
0.0
 11
368.3129664701121
 21
-488.0779405513009
 31
0.0
  0
LINE
  5
4BD
330
1F
100
AcDbEntity
  8
D-4
  6
Continuous
 62
     3
370
     9
100
AcDbLine
 10
371.4381314299939
 20
-440.3277458986405
 30
0.0
 11
371.4381314299939
 21
-473.3278052841979
 31
0.0
  0
LINE
  5
4BE
330
1F
100
AcDbEntity
  8
D-4
  6
Continuous
 62
     3
370
     9
100
AcDbLine
 10
446.4381314299939
 20
-440.3683260295526
 30
0.0
 11
446.4381314299939
 21
-473.3278052841979
 31
0.0
  0
LINE
  5
4BF
330
1F
100
AcDbEntity
  8
D-4
  6
Continuous
 62
     4
370
     9
100
AcDbLine
 10
546.8090024841533
 20
-380.2584503763115
 30
0.0
 11
523.9382633978992
 21
-376.827944675298
 31
0.0
  0
LINE
  5
4C0
330
1F
100
AcDbEntity
  8
D-4
  6
Continuous
 62
     4
370
     9
100
AcDbLine
 10
548.9380984380173
 20
-382.7308072241261
 30
0.0
 11
548.9380984380173
 21
-383.0778415753718
 31
0.0
  0
LINE
  5
4C1
330
1F
100
AcDbEntity
  8
D-4
  6
Continuous
 62
     7
370
     9
100
AcDbLine
 10
268.9381644219701
 20
-383.0778415753718
 30
0.0
 11
217.6677671325909
 21
-383.0778415753718
 31
0.0
  0
LINE
  5
4C2
330
1F
100
AcDbEntity
  8
D-4
  6
Continuous
 62
     3
370
     9
100
AcDbLine
 10
313.9383128858637
 20
-433.5778040469988
 30
0.0
 11
313.9383128858637
 21
-425.5778271413823
 31
0.0
  0
LINE
  5
4C3
330
1F
100
AcDbEntity
  8
D-4
  6
Continuous
 62
     3
370
     9
100
AcDbLine
 10
503.9384448537689
 20
-425.5778271413823
 30
0.0
 11
503.9384448537689
 21
-433.5778040469988
 31
0.0
  0
LINE
  5
4C4
330
1F
100
AcDbEntity
  8
D-4
  6
Continuous
 62
     3
370
     9
100
AcDbLine
 10
383.9378015102304
 20
-404.3277261034547
 30
0.0
 11
383.9378015102304
 21
-421.8999744076671
 31
0.0
  0
LINE
  5
4C5
330
1F
100
AcDbEntity
  8
D-4
  6
Continuous
 62
     3
370
     9
100
AcDbLine
 10
433.9379664701121
 20
-404.3277261034547
 30
0.0
 11
433.9379664701121
 21
-421.8278456993688
 31
0.0
  0
LINE
  5
4C6
330
1F
100
AcDbEntity
  8
D-4
  6
Continuous
 62
     7
370
     9
100
AcDbLine
 10
548.9380984380173
 20
-383.0778415753718
 30
0.0
 11
600.2084957273964
 21
-383.0778415753718
 31
0.0
  0
LINE
  5
4C7
330
1F
100
AcDbEntity
  8
D-4
  6
Continuous
 62
     4
370
     9
100
AcDbLine
 10
519.0894944934964
 20
-403.0777838394133
 30
0.0
 11
503.7862075028929
 21
-403.0777838394133
 31
0.0
  0
LINE
  5
4C8
330
1F
100
AcDbEntity
  8
D-4
  6
Continuous
 62
     2
370
     9
100
AcDbLine
 10
296.3347943740658
 20
-409.3277425994428
 30
0.0
 11
296.3347943740658
 21
-403.0777838394133
 31
0.0
  0
LINE
  5
4C9
330
1F
100
AcDbEntity
  8
D-4
  6
Continuous
 62
     2
370
     9
100
AcDbLine
 10
316.54202934952
 20
-409.3277425994428
 30
0.0
 11
316.54202934952
 21
-403.0777838394133
 31
0.0
  0
LINE
  5
4CA
330
1F
100
AcDbEntity
  8
D-4
  6
Continuous
 62
     2
370
     9
100
AcDbLine
 10
311.4902360706449
 20
-409.3277425994428
 30
0.0
 11
311.4902360706449
 21
-403.0777838394133
 31
0.0
  0
LINE
  5
4CB
330
1F
100
AcDbEntity
  8
D-4
  6
Continuous
 62
     2
370
     9
100
AcDbLine
 10
301.3865876529402
 20
-409.3277425994428
 30
0.0
 11
301.3865876529402
 21
-403.0777838394133
 31
0.0
  0
LINE
  5
4CC
330
1F
100
AcDbEntity
  8
D-4
  6
Continuous
 62
     2
370
     9
100
AcDbLine
 10
298.8606910135033
 20
-410.5777467234398
 30
0.0
 11
314.0161327100824
 21
-410.5777467234398
 31
0.0
  0
LINE
  5
4CD
330
1F
100
AcDbEntity
  8
D-4
  6
Continuous
 62
     2
370
     9
100
AcDbLine
 10
316.54202934952
 20
-403.0777838394133
 30
0.0
 11
313.93865311562
 21
-403.0777838394133
 31
0.0
  0
LINE
  5
4CE
330
1F
100
AcDbEntity
  8
D-4
  6
Continuous
 62
     2
370
     9
100
AcDbLine
 10
298.9381396779876
 20
-403.0777838394133
 30
0.0
 11
296.3347943740658
 21
-403.0777838394133
 31
0.0
  0
LINE
  5
4CF
330
1F
100
AcDbEntity
  8
D-4
  6
Continuous
 62
     4
370
     9
100
AcDbLine
 10
314.0900553570944
 20
-403.0777838394133
 30
0.0
 11
298.7867683664908
 21
-403.0777838394133
 31
0.0
  0
LINE
  5
4D0
330
1F
100
AcDbEntity
  8
D-4
  6
Continuous
 62
     4
370
     9
100
AcDbLine
 10
295.3346116809965
 20
-385.4219008751502
 30
0.0
 11
296.2916470549939
 21
-400.7336626796792
 31
0.0
  0
LINE
  5
4D1
330
1F
100
AcDbEntity
  8
D-4
  6
Continuous
 62
     4
370
     9
100
AcDbLine
 10
522.5416511789908
 20
-385.4219008751502
 30
0.0
 11
521.584615804994
 21
-400.7336626796792
 31
0.0
  0
LINE
  5
4D2
330
1F
100
AcDbEntity
  8
D-4
  6
Continuous
 62
     2
370
     9
100
AcDbLine
 10
296.3350727438663
 20
-442.3277710550224
 30
0.0
 11
296.3350727438663
 21
-436.0778122949928
 31
0.0
  0
LINE
  5
4D3
330
1F
100
AcDbEntity
  8
D-4
  6
Continuous
 62
     2
370
     9
100
AcDbLine
 10
316.5422458593648
 20
-442.3277710550224
 30
0.0
 11
316.5422458593648
 21
-436.0778122949928
 31
0.0
  0
LINE
  5
4D4
330
1F
100
AcDbEntity
  8
D-4
  6
Continuous
 62
     2
370
     9
100
AcDbLine
 10
311.4905144404455
 20
-442.3277710550224
 30
0.0
 11
311.4905144404455
 21
-436.0778122949928
 31
0.0
  0
LINE
  5
4D5
330
1F
100
AcDbEntity
  8
D-4
  6
Continuous
 62
     2
370
     9
100
AcDbLine
 10
301.386804162785
 20
-442.3277710550224
 30
0.0
 11
301.386804162785
 21
-436.0778122949928
 31
0.0
  0
LINE
  5
4D6
330
1F
100
AcDbEntity
  8
D-4
  6
Continuous
 62
     2
370
     9
100
AcDbLine
 10
298.0892045765043
 20
-443.5777751790195
 30
0.0
 11
314.7876191470809
 21
-443.5777751790195
 31
0.0
  0
LINE
  5
4D7
330
1F
100
AcDbEntity
  8
D-4
  6
Continuous
 62
     2
370
     9
100
AcDbLine
 10
296.9389496310075
 20
-433.5781752067328
 30
0.0
 11
296.9389496310075
 21
-436.0778741549485
 31
0.0
  0
LINE
  5
4D8
330
1F
100
AcDbEntity
  8
D-4
  6
Continuous
 62
     2
370
     9
100
AcDbLine
 10
315.9384926921351
 20
-433.5781752067328
 30
0.0
 11
315.9384926921351
 21
-436.0778741549485
 31
0.0
  0
LINE
  5
4D9
330
1F
100
AcDbEntity
  8
D-4
  6
Continuous
 62
     2
370
     9
100
AcDbLine
 10
303.9387747735324
 20
-433.5778040469988
 30
0.0
 11
303.9387747735324
 21
-436.0775029952146
 31
0.0
  0
LINE
  5
4DA
330
1F
100
AcDbEntity
  8
D-4
  6
Continuous
 62
     2
370
     9
100
AcDbLine
 10
302.6887087895798
 20
-433.5778040469988
 30
0.0
 11
302.6887087895798
 21
-436.0775029952146
 31
0.0
  0
LINE
  5
4DB
330
1F
100
AcDbEntity
  8
D-4
  6
Continuous
 62
     2
370
     9
100
AcDbLine
 10
296.3350727438663
 20
-436.0778122949928
 30
0.0
 11
316.5422458593648
 21
-436.0778122949928
 31
0.0
  0
LINE
  5
4DC
330
1F
100
AcDbEntity
  8
D-4
  6
Continuous
 62
     2
370
     9
100
AcDbLine
 10
521.541437555944
 20
-409.3277425994428
 30
0.0
 11
521.541437555944
 21
-403.0777838394133
 31
0.0
  0
LINE
  5
4DD
330
1F
100
AcDbEntity
  8
D-4
  6
Continuous
 62
     2
370
     9
100
AcDbLine
 10
501.3342644404455
 20
-409.3277425994428
 30
0.0
 11
501.3342644404455
 21
-403.0777838394133
 31
0.0
  0
LINE
  5
4DE
330
1F
100
AcDbEntity
  8
D-4
  6
Continuous
 62
     2
370
     9
100
AcDbLine
 10
506.3859958593648
 20
-409.3277425994428
 30
0.0
 11
506.3859958593648
 21
-403.0777838394133
 31
0.0
  0
LINE
  5
4DF
330
1F
100
AcDbEntity
  8
D-4
  6
Continuous
 62
     2
370
     9
100
AcDbLine
 10
516.4897061370252
 20
-409.3277425994428
 30
0.0
 11
516.4897061370252
 21
-403.0777838394133
 31
0.0
  0
LINE
  5
4E0
330
1F
100
AcDbEntity
  8
D-4
  6
Continuous
 62
     2
370
     9
100
AcDbLine
 10
519.0155718464846
 20
-410.5777467234398
 30
0.0
 11
503.8601301499048
 21
-410.5777467234398
 31
0.0
  0
LINE
  5
4E1
330
1F
100
AcDbEntity
  8
D-4
  6
Continuous
 62
     2
370
     9
100
AcDbLine
 10
501.3342644404455
 20
-403.0777838394133
 30
0.0
 11
503.9375788143897
 21
-403.0777838394133
 31
0.0
  0
LINE
  5
4E2
330
1F
100
AcDbEntity
  8
D-4
  6
Continuous
 62
     2
370
     9
100
AcDbLine
 10
518.9381231819996
 20
-403.0777838394133
 30
0.0
 11
521.541437555944
 21
-403.0777838394133
 31
0.0
  0
LINE
  5
4E3
330
1F
100
AcDbEntity
  8
D-4
  6
Continuous
 62
     2
370
     9
100
AcDbLine
 10
520.9373132289804
 20
-433.5781752067328
 30
0.0
 11
520.9373132289804
 21
-436.0778741549485
 31
0.0
  0
LINE
  5
4E4
330
1F
100
AcDbEntity
  8
D-4
  6
Continuous
 62
     2
370
     9
100
AcDbLine
 10
501.9377701678528
 20
-433.5781752067328
 30
0.0
 11
501.9377701678528
 21
-436.0778741549485
 31
0.0
  0
LINE
  5
4E5
330
1F
100
AcDbEntity
  8
D-4
  6
Continuous
 62
     2
370
     9
100
AcDbLine
 10
508.9382139099345
 20
-433.5778040469988
 30
0.0
 11
508.9382139099345
 21
-436.0775029952146
 31
0.0
  0
LINE
  5
4E6
330
1F
100
AcDbEntity
  8
D-4
  6
Continuous
 62
     2
370
     9
100
AcDbLine
 10
507.6881479259819
 20
-433.5778040469988
 30
0.0
 11
507.6881479259819
 21
-436.0775029952146
 31
0.0
  0
LINE
  5
4E7
330
1F
100
AcDbEntity
  8
D-4
  6
Continuous
 62
     7
370
     9
100
AcDbLine
 10
217.6677671325909
 20
-413.0778477613674
 30
0.0
 11
288.9381066860116
 21
-413.0778477613674
 31
0.0
  0
LINE
  5
4E8
330
1F
100
AcDbEntity
  8
D-4
  6
Continuous
 62
     7
370
     9
100
AcDbLine
 10
217.6677671325909
 20
-405.577853947363
 30
0.0
 11
288.9381066860116
 21
-405.577853947363
 31
0.0
  0
LINE
  5
4E9
330
1F
100
AcDbEntity
  8
D-4
  6
Continuous
 62
     7
370
     9
100
AcDbLine
 10
217.6677671325909
 20
-398.0778601333586
 30
0.0
 11
288.9381066860116
 21
-398.0778601333586
 31
0.0
  0
LINE
  5
4EA
330
1F
100
AcDbEntity
  8
D-4
  6
Continuous
 62
     7
370
     9
100
AcDbLine
 10
600.2084957273964
 20
-413.0778477613674
 30
0.0
 11
528.9381561739763
 21
-413.0778477613674
 31
0.0
  0
LINE
  5
4EB
330
1F
100
AcDbEntity
  8
D-4
  6
Continuous
 62
     7
370
     9
100
AcDbLine
 10
600.2084957273964
 20
-405.577853947363
 30
0.0
 11
528.9381561739763
 21
-405.577853947363
 31
0.0
  0
LINE
  5
4EC
330
1F
100
AcDbEntity
  8
D-4
  6
Continuous
 62
     7
370
     9
100
AcDbLine
 10
600.2084957273964
 20
-398.0778601333586
 30
0.0
 11
528.9381561739763
 21
-398.0778601333586
 31
0.0
  0
LINE
  5
4ED
330
1F
100
AcDbEntity
  8
D-4
  6
Continuous
 62
     7
370
     9
100
AcDbLine
 10
600.2084957273964
 20
-390.5778353893763
 30
0.0
 11
528.9381561739763
 21
-390.5778353893763
 31
0.0
  0
LINE
  5
4EE
330
1F
100
AcDbEntity
  8
D-4
  6
JWW_CENTER1
 62
     3
370
     9
100
AcDbLine
 10
408.9381314299939
 20
-371.9898775432245
 30
0.0
 11
408.9381314299939
 21
-506.402777076058
 31
0.0
  0
LINE
  5
4EF
330
1F
100
AcDbEntity
  8
D-4
  6
JWW_PHANTOM2
 62
     7
370
     9
100
AcDbLine
 10
488.0631388531887
 20
-304.3276436235137
 30
0.0
 11
329.813093076821
 21
-304.3276436235137
 31
0.0
  0
LINE
  5
4F0
330
1F
100
AcDbEntity
  8
D-4
  6
JWW_PHANTOM2
 62
     7
370
     9
100
AcDbLine
 10
383.9378015102304
 20
-330.5776683674961
 30
0.0
 11
383.9378015102304
 21
-348.1499166717084
 31
0.0
  0
LINE
  5
4F1
330
1F
100
AcDbEntity
  8
D-4
  6
JWW_PHANTOM2
 62
     7
370
     9
100
AcDbLine
 10
433.9379664701121
 20
-330.5776683674961
 30
0.0
 11
433.9379664701121
 21
-348.0777879634103
 31
0.0
  0
LINE
  5
4F2
330
1F
100
AcDbEntity
  8
D-4
  6
JWW_PHANTOM2
 62
     7
370
     9
100
AcDbLine
 10
327.3131157588048
 20
-315.5776807394872
 30
0.0
 11
327.3131157588048
 21
-306.8277137314636
 31
0.0
  0
LINE
  5
4F3
330
1F
100
AcDbEntity
  8
D-4
  6
JWW_PHANTOM2
 62
     7
370
     9
100
AcDbLine
 10
376.4377767662481
 20
-323.0776436235138
 30
0.0
 11
332.0631252439981
 21
-323.0776436235138
 31
0.0
  0
LINE
  5
4F4
330
1F
100
AcDbEntity
  8
D-4
  6
JWW_PHANTOM2
 62
     7
370
     9
100
AcDbLine
 10
332.0631252439981
 20
-318.0776889874812
 30
0.0
 11
332.0631252439981
 21
-323.0776436235138
 31
0.0
  0
LINE
  5
4F5
330
1F
100
AcDbEntity
  8
D-4
  6
JWW_PHANTOM2
 62
     7
370
     9
100
AcDbLine
 10
490.5631471011824
 20
-315.5776807394872
 30
0.0
 11
490.5631471011824
 21
-306.8277137314636
 31
0.0
  0
LINE
  5
4F6
330
1F
100
AcDbEntity
  8
D-4
  6
JWW_PHANTOM2
 62
     7
370
     9
100
AcDbLine
 10
441.4379602841163
 20
-323.0776436235138
 30
0.0
 11
485.8131376159892
 21
-323.0776436235138
 31
0.0
  0
LINE
  5
4F7
330
1F
100
AcDbEntity
  8
D-4
  6
JWW_PHANTOM2
 62
     7
370
     9
100
AcDbLine
 10
485.8131376159892
 20
-318.0776889874812
 30
0.0
 11
485.8131376159892
 21
-323.0776436235138
 31
0.0
  0
LINE
  5
4F8
330
1F
100
AcDbEntity
  8
D-4
  6
Continuous
 62
     2
370
     9
100
AcDbLine
 10
296.3347943740658
 20
-450.5648881006568
 30
0.0
 11
296.3347943740658
 21
-444.5907010229542
 31
0.0
  0
LINE
  5
4F9
330
1F
100
AcDbEntity
  8
D-4
  6
Continuous
 62
     2
370
     9
100
AcDbLine
 10
298.0892045765043
 20
-443.5777751790195
 30
0.0
 11
296.3347943740658
 21
-444.5907010229542
 31
0.0
  0
LINE
  5
4FA
330
1F
100
AcDbEntity
  8
D-4
  6
Continuous
 62
     2
370
     9
100
AcDbLine
 10
299.4383702094225
 20
-453.0783818189846
 30
0.0
 11
299.4383702094225
 21
-454.2703613045737
 31
0.0
  0
LINE
  5
4FB
330
1F
100
AcDbEntity
  8
D-4
  6
Continuous
 62
     2
370
     9
100
AcDbLine
 10
298.8133990774017
 20
-451.9958944549115
 30
0.0
 11
296.3347943740658
 21
-450.5648881006568
 31
0.0
  0
LINE
  5
4FC
330
1F
100
AcDbEntity
  8
D-4
  6
Continuous
 62
     2
370
     9
100
AcDbLine
 10
314.0633937162059
 20
-451.9958944549115
 30
0.0
 11
316.5419984195418
 21
-450.5648881006568
 31
0.0
  0
LINE
  5
4FD
330
1F
100
AcDbEntity
  8
D-4
  6
Continuous
 62
     2
370
     9
100
AcDbLine
 10
313.4383916542075
 20
-454.2703613045737
 30
0.0
 11
313.4383916542075
 21
-453.0783818189846
 31
0.0
  0
LINE
  5
4FE
330
1F
100
AcDbEntity
  8
D-4
  6
Continuous
 62
     2
370
     9
100
AcDbLine
 10
316.5419984195418
 20
-450.5648881006568
 30
0.0
 11
316.5419984195418
 21
-444.5907010229542
 31
0.0
  0
LINE
  5
4FF
330
1F
100
AcDbEntity
  8
D-4
  6
Continuous
 62
     2
370
     9
100
AcDbLine
 10
301.3865876529402
 20
-450.5648881006568
 30
0.0
 11
301.3865876529402
 21
-444.5907010229542
 31
0.0
  0
LINE
  5
500
330
1F
100
AcDbEntity
  8
D-4
  6
Continuous
 62
     2
370
     9
100
AcDbLine
 10
311.4902051406673
 20
-450.5648881006568
 30
0.0
 11
311.4902051406673
 21
-444.5907010229542
 31
0.0
  0
LINE
  5
501
330
1F
100
AcDbEntity
  8
D-4
  6
Continuous
 62
     2
370
     9
100
AcDbLine
 10
314.7876191470809
 20
-443.5777751790195
 30
0.0
 11
316.5419984195418
 21
-444.5907010229542
 31
0.0
  0
LINE
  5
502
330
1F
100
AcDbEntity
  8
D-4
  6
Continuous
 62
     2
370
     9
100
AcDbLine
 10
298.08926643646
 20
-451.5777830146139
 30
0.0
 11
314.7875572871251
 21
-451.5777830146139
 31
0.0
  0
LINE
  5
503
330
1F
100
AcDbEntity
  8
D-4
  6
JWW_CENTER1
 62
     2
370
     9
100
AcDbLine
 10
306.4384118617929
 20
-384.5300658944176
 30
0.0
 11
306.4384118617929
 21
-462.6976049239255
 31
0.0
  0
LINE
  5
504
330
1F
100
AcDbEntity
  8
D-4
  6
JWW_CENTER1
 62
     2
370
     9
100
AcDbLine
 10
511.437850998195
 20
-384.5300658944176
 30
0.0
 11
511.437850998195
 21
-462.6976049239255
 31
0.0
  0
LINE
  5
505
330
1F
100
AcDbEntity
  8
D-4
  6
Continuous
 62
     2
370
     9
100
AcDbLine
 10
301.4386118756491
 20
-410.5777467234398
 30
0.0
 11
301.4386118756491
 21
-425.5777962114044
 31
0.0
  0
LINE
  5
506
330
1F
100
AcDbEntity
  8
D-4
  6
Continuous
 62
     2
370
     9
100
AcDbLine
 10
309.9385718728783
 20
-410.5777467234398
 30
0.0
 11
309.9385718728783
 21
-425.5777962114044
 31
0.0
  0
LINE
  5
507
330
1F
100
AcDbEntity
  8
D-4
  6
Continuous
 62
     2
370
     9
100
AcDbLine
 10
311.4387685875371
 20
-410.5777467234398
 30
0.0
 11
311.4387685875371
 21
-425.5777962114044
 31
0.0
  0
LINE
  5
508
330
1F
100
AcDbEntity
  8
D-4
  6
Continuous
 62
     2
370
     9
100
AcDbLine
 10
302.9388704502642
 20
-410.5777467234398
 30
0.0
 11
302.9388704502642
 21
-425.5777962114044
 31
0.0
  0
LINE
  5
509
330
1F
100
AcDbEntity
  8
D-4
  6
Continuous
 62
     7
370
     9
100
AcDbLine
 10
217.6677671325909
 20
-420.5778415753718
 30
0.0
 11
301.4386118756491
 21
-420.5778415753718
 31
0.0
  0
LINE
  5
50A
330
1F
100
AcDbEntity
  8
D-4
  6
Continuous
 62
     7
370
     9
100
AcDbLine
 10
311.4387685875371
 20
-420.5778415753718
 30
0.0
 11
383.9378015102304
 21
-420.5778415753718
 31
0.0
  0
LINE
  5
50B
330
1F
100
AcDbEntity
  8
D-4
  6
Continuous
 62
     2
370
     9
100
AcDbLine
 10
507.9376909871095
 20
-410.5777467234398
 30
0.0
 11
507.9376909871095
 21
-425.5777962114044
 31
0.0
  0
LINE
  5
50C
330
1F
100
AcDbEntity
  8
D-4
  6
Continuous
 62
     2
370
     9
100
AcDbLine
 10
506.4374633424725
 20
-410.5777467234398
 30
0.0
 11
506.4374633424725
 21
-425.5777962114044
 31
0.0
  0
LINE
  5
50D
330
1F
100
AcDbEntity
  8
D-4
  6
Continuous
 62
     2
370
     9
100
AcDbLine
 10
514.9373924097235
 20
-410.5777467234398
 30
0.0
 11
514.9373924097235
 21
-425.5777962114044
 31
0.0
  0
LINE
  5
50E
330
1F
100
AcDbEntity
  8
D-4
  6
Continuous
 62
     2
370
     9
100
AcDbLine
 10
516.4376200543607
 20
-410.5777467234398
 30
0.0
 11
516.4376200543607
 21
-425.5777962114044
 31
0.0
  0
LINE
  5
50F
330
1F
100
AcDbEntity
  8
D-4
  6
Continuous
 62
     7
370
     9
100
AcDbLine
 10
433.9379664701121
 20
-420.5778415753718
 30
0.0
 11
506.4374633424725
 21
-420.5778415753718
 31
0.0
  0
LINE
  5
510
330
1F
100
AcDbEntity
  8
D-4
  6
Continuous
 62
     7
370
     9
100
AcDbLine
 10
516.4376200543607
 20
-420.5778415753718
 30
0.0
 11
600.2084957273964
 21
-420.5778415753718
 31
0.0
  0
LINE
  5
511
330
1F
100
AcDbEntity
  8
D-4
  6
Continuous
 62
     7
370
     9
100
AcDbLine
 10
288.9381066860116
 20
-383.0778415753718
 30
0.0
 11
288.9381066860116
 21
-425.5777962114044
 31
0.0
  0
LINE
  5
512
330
1F
100
AcDbEntity
  8
D-4
  6
Continuous
 62
     7
370
     9
100
AcDbLine
 10
528.9381561739763
 20
-383.0778415753718
 30
0.0
 11
528.9381561739763
 21
-425.5777962114044
 31
0.0
  0
LINE
  5
513
330
1F
100
AcDbEntity
  8
D-4
  6
Continuous
 62
     2
370
     9
100
AcDbLine
 10
521.5411901161215
 20
-442.3277710550224
 30
0.0
 11
521.5411901161215
 21
-436.0778122949928
 31
0.0
  0
LINE
  5
514
330
1F
100
AcDbEntity
  8
D-4
  6
Continuous
 62
     2
370
     9
100
AcDbLine
 10
501.3340170006231
 20
-442.3277710550224
 30
0.0
 11
501.3340170006231
 21
-436.0778122949928
 31
0.0
  0
LINE
  5
515
330
1F
100
AcDbEntity
  8
D-4
  6
Continuous
 62
     2
370
     9
100
AcDbLine
 10
506.3857484195418
 20
-442.3277710550224
 30
0.0
 11
506.3857484195418
 21
-436.0778122949928
 31
0.0
  0
LINE
  5
516
330
1F
100
AcDbEntity
  8
D-4
  6
Continuous
 62
     2
370
     9
100
AcDbLine
 10
516.4894586972023
 20
-442.3277710550224
 30
0.0
 11
516.4894586972023
 21
-436.0778122949928
 31
0.0
  0
LINE
  5
517
330
1F
100
AcDbEntity
  8
D-4
  6
Continuous
 62
     2
370
     9
100
AcDbLine
 10
519.7870892134606
 20
-443.5777751790195
 30
0.0
 11
503.0886127829288
 21
-443.5777751790195
 31
0.0
  0
LINE
  5
518
330
1F
100
AcDbEntity
  8
D-4
  6
Continuous
 62
     2
370
     9
100
AcDbLine
 10
521.5411901161215
 20
-436.0778122949928
 30
0.0
 11
501.3340170006231
 21
-436.0778122949928
 31
0.0
  0
LINE
  5
519
330
1F
100
AcDbEntity
  8
D-4
  6
Continuous
 62
     2
370
     9
100
AcDbLine
 10
521.541437555944
 20
-450.5648881006568
 30
0.0
 11
521.541437555944
 21
-444.5907010229542
 31
0.0
  0
LINE
  5
51A
330
1F
100
AcDbEntity
  8
D-4
  6
Continuous
 62
     2
370
     9
100
AcDbLine
 10
519.7870892134606
 20
-443.5777751790195
 30
0.0
 11
521.541437555944
 21
-444.5907010229542
 31
0.0
  0
LINE
  5
51B
330
1F
100
AcDbEntity
  8
D-4
  6
Continuous
 62
     2
370
     9
100
AcDbLine
 10
518.4379235805429
 20
-453.0783818189846
 30
0.0
 11
518.4379235805429
 21
-454.2703613045737
 31
0.0
  0
LINE
  5
51C
330
1F
100
AcDbEntity
  8
D-4
  6
Continuous
 62
     2
370
     9
100
AcDbLine
 10
519.0628328526079
 20
-451.9958944549115
 30
0.0
 11
521.541437555944
 21
-450.5648881006568
 31
0.0
  0
LINE
  5
51D
330
1F
100
AcDbEntity
  8
D-4
  6
Continuous
 62
     2
370
     9
100
AcDbLine
 10
503.8128691437819
 20
-451.9958944549115
 30
0.0
 11
501.3342644404455
 21
-450.5648881006568
 31
0.0
  0
LINE
  5
51E
330
1F
100
AcDbEntity
  8
D-4
  6
Continuous
 62
     2
370
     9
100
AcDbLine
 10
504.437902135758
 20
-454.2703613045737
 30
0.0
 11
504.437902135758
 21
-453.0783818189846
 31
0.0
  0
LINE
  5
51F
330
1F
100
AcDbEntity
  8
D-4
  6
Continuous
 62
     2
370
     9
100
AcDbLine
 10
501.3342644404455
 20
-450.5648881006568
 30
0.0
 11
501.3342644404455
 21
-444.5907010229542
 31
0.0
  0
LINE
  5
520
330
1F
100
AcDbEntity
  8
D-4
  6
Continuous
 62
     2
370
     9
100
AcDbLine
 10
516.4897061370252
 20
-450.5648881006568
 30
0.0
 11
516.4897061370252
 21
-444.5907010229542
 31
0.0
  0
LINE
  5
521
330
1F
100
AcDbEntity
  8
D-4
  6
Continuous
 62
     2
370
     9
100
AcDbLine
 10
506.3860577193199
 20
-450.5648881006568
 30
0.0
 11
506.3860577193199
 21
-444.5907010229542
 31
0.0
  0
LINE
  5
522
330
1F
100
AcDbEntity
  8
D-4
  6
Continuous
 62
     2
370
     9
100
AcDbLine
 10
503.0886127829288
 20
-443.5777751790195
 30
0.0
 11
501.3342644404455
 21
-444.5907010229542
 31
0.0
  0
LINE
  5
523
330
1F
100
AcDbEntity
  8
D-4
  6
Continuous
 62
     2
370
     9
100
AcDbLine
 10
519.7869654935496
 20
-451.5777830146139
 30
0.0
 11
503.0887365028403
 21
-451.5777830146139
 31
0.0
  0
LINE
  5
524
330
1F
100
AcDbEntity
  8
D-4
  6
JWW_PHANTOM2
 62
     7
370
     9
100
AcDbLine
 10
488.0631388531887
 20
-318.0776889874812
 30
0.0
 11
329.813093076821
 21
-318.0776889874812
 31
0.0
  0
LINE
  5
525
330
1F
100
AcDbEntity
  8
D-4
  6
Continuous
 62
     4
370
     9
100
AcDbLine
 10
325.8520454661002
 20
-403.0777838394133
 30
0.0
 11
492.0242173938871
 21
-403.0777838394133
 31
0.0
  0
LINE
  5
526
330
1F
100
AcDbEntity
  8
D-4
  6
Continuous
 62
     4
370
     9
100
AcDbLine
 10
548.9380984380173
 20
-383.0778415753718
 30
0.0
 11
268.9381644219701
 21
-383.0778415753718
 31
0.0
  0
LINE
  5
527
330
1F
100
AcDbEntity
  8
D-4
  6
Continuous
 62
     7
370
     9
100
AcDbLine
 10
217.6677671325909
 20
-390.5778353893763
 30
0.0
 11
288.9381066860116
 21
-390.5778353893763
 31
0.0
  0
LINE
  5
528
330
1F
100
AcDbEntity
  8
D-4
  6
JWW_PHANTOM2
 62
     7
370
     9
100
AcDbLine
 10
371.4381314299939
 20
-375.1262391550804
 30
0.0
 11
371.4381314299939
 21
-366.618268293594
 31
0.0
  0
LINE
  5
529
330
1F
100
AcDbEntity
  8
D-4
  6
JWW_PHANTOM2
 62
     7
370
     9
100
AcDbLine
 10
446.4381314299939
 20
-375.1262391550804
 30
0.0
 11
446.4381314299939
 21
-366.618268293594
 31
0.0
  0
LINE
  5
52A
330
1F
100
AcDbEntity
  8
D-4
  6
Continuous
 62
     4
370
     9
100
AcDbLine
 10
316.7804066886507
 20
-397.6099823587334
 30
0.0
 11
316.5851766685918
 21
-400.7336626796792
 31
0.0
  0
LINE
  5
52B
330
1F
100
AcDbEntity
  8
D-4
  6
Continuous
 62
     4
370
     9
100
AcDbLine
 10
493.6104303768897
 20
-390.5778353893763
 30
0.0
 11
324.26580155312
 21
-390.5778353893763
 31
0.0
  0
LINE
  5
52C
330
1F
100
AcDbEntity
  8
D-4
  6
Continuous
 62
     4
370
     9
100
AcDbLine
 10
501.0958561713366
 20
-397.6099823587334
 30
0.0
 11
501.291086191396
 21
-400.7336626796792
 31
0.0
  0
LINE
  5
52D
330
1F
100
AcDbEntity
  8
D-4
  6
Continuous
 62
     4
370
     9
100
AcDbLine
 10
497.8375685868772
 20
-391.8825237141758
 30
0.0
 11
496.9856332775444
 21
-398.6979133989044
 31
0.0
  0
LINE
  5
52E
330
1F
100
AcDbEntity
  8
D-4
  6
Continuous
 62
     4
370
     9
100
AcDbLine
 10
320.0387252030882
 20
-391.8825237141758
 30
0.0
 11
320.890660512421
 21
-398.6979133989044
 31
0.0
  0
ARC
  5
52F
330
1F
100
AcDbEntity
  8
D-4
  6
Continuous
 62
     4
370
     9
100
AcDbCircle
 10
271.4380489500529
 20
-382.7308072241261
 30
0.0
 40
2.500000032218727
100
AcDbArc
 50
98.53070068359375
 51
180.0
  0
ARC
  5
530
330
1F
100
AcDbEntity
  8
D-4
  6
Continuous
 62
     3
370
     9
100
AcDbCircle
 10
371.4381314299939
 20
-500.57785807136
 30
0.0
 40
2.500000032218727
100
AcDbArc
 50
180.0
 51
270.0
  0
ARC
  5
531
330
1F
100
AcDbEntity
  8
D-4
  6
Continuous
 62
     3
370
     9
100
AcDbCircle
 10
446.4381314299939
 20
-500.57785807136
 30
0.0
 40
2.500000032218727
100
AcDbArc
 50
270.0
 51
0.0
  0
ARC
  5
532
330
1F
100
AcDbEntity
  8
D-4
  6
Continuous
 62
     3
370
     9
100
AcDbCircle
 10
383.9380489500527
 20
-440.3683260295526
 30
0.0
 40
12.50000064437454
100
AcDbArc
 50
112.0243377685547
 51
180.0
  0
ARC
  5
533
330
1F
100
AcDbEntity
  8
D-4
  6
Continuous
 62
     3
370
     9
100
AcDbCircle
 10
433.9379664701121
 20
-440.3683260295526
 30
0.0
 40
12.50000064437454
100
AcDbArc
 50
0.0
 51
67.9756622314453
  0
ARC
  5
534
330
1F
100
AcDbEntity
  8
D-4
  6
Continuous
 62
     3
370
     9
100
AcDbCircle
 10
376.4381169960043
 20
-421.8278456993688
 30
0.0
 40
7.500000096656181
100
AcDbArc
 50
292.0240478515625
 51
359.4492034912109
  0
ARC
  5
535
330
1F
100
AcDbEntity
  8
D-4
  6
Continuous
 62
     3
370
     9
100
AcDbCircle
 10
441.437867494183
 20
-421.8278456993688
 30
0.0
 40
7.500000096656181
100
AcDbArc
 50
180.0
 51
247.9759521484375
  0
ARC
  5
536
330
1F
100
AcDbEntity
  8
D-4
  6
Continuous
 62
     4
370
     9
100
AcDbCircle
 10
546.4382139099346
 20
-382.7308072241261
 30
0.0
 40
2.500000032218727
100
AcDbArc
 50
0.0
 51
81.46929931640625
  0
ARC
  5
537
330
1F
100
AcDbEntity
  8
D-4
  6
Continuous
 62
     2
370
     9
100
AcDbCircle
 10
306.4384118617929
 20
-399.7443982687841
 30
0.0
 40
10.83333975559956
100
AcDbArc
 50
242.2042083740235
 51
297.7957916259766
  0
ARC
  5
538
330
1F
100
AcDbEntity
  8
D-4
  6
Continuous
 62
     2
370
     9
100
AcDbCircle
 10
314.0161327100824
 20
-407.4006812607604
 30
0.0
 40
3.177055072140049
100
AcDbArc
 50
217.3407897949219
 51
322.6592102050781
  0
ARC
  5
539
330
1F
100
AcDbEntity
  8
D-4
  6
Continuous
 62
     2
370
     9
100
AcDbCircle
 10
298.8606910135033
 20
-407.4006812607604
 30
0.0
 40
3.177055072140049
100
AcDbArc
 50
217.3407897949219
 51
322.6592102050781
  0
ARC
  5
53A
330
1F
100
AcDbEntity
  8
D-4
  6
Continuous
 62
     4
370
     9
100
AcDbCircle
 10
298.7867683664908
 20
-400.5777755914193
 30
0.0
 40
2.500000032218727
100
AcDbArc
 50
183.576416015625
 51
270.0
  0
ARC
  5
53B
330
1F
100
AcDbEntity
  8
D-4
  6
Continuous
 62
     4
370
     9
100
AcDbCircle
 10
314.0900553570944
 20
-400.5777755914193
 30
0.0
 40
2.500000032218727
100
AcDbArc
 50
270.0
 51
356.423583984375
  0
ARC
  5
53C
330
1F
100
AcDbEntity
  8
D-4
  6
Continuous
 62
     4
370
     9
100
AcDbCircle
 10
292.8394903694996
 20
-385.577849823366
 30
0.0
 40
2.500000032218727
100
AcDbArc
 50
3.576416015625
 51
90.00000000000001
  0
ARC
  5
53D
330
1F
100
AcDbEntity
  8
D-4
  6
Continuous
 62
     4
370
     9
100
AcDbCircle
 10
519.0894944934964
 20
-400.5777755914193
 30
0.0
 40
2.500000032218727
100
AcDbArc
 50
270.0
 51
356.423583984375
  0
ARC
  5
53E
330
1F
100
AcDbEntity
  8
D-4
  6
Continuous
 62
     4
370
     9
100
AcDbCircle
 10
503.7862075028929
 20
-400.5777755914193
 30
0.0
 40
2.500000032218727
100
AcDbArc
 50
183.576416015625
 51
270.0
  0
ARC
  5
53F
330
1F
100
AcDbEntity
  8
D-4
  6
Continuous
 62
     4
370
     9
100
AcDbCircle
 10
525.0367724904877
 20
-385.577849823366
 30
0.0
 40
2.500000032218727
100
AcDbArc
 50
90.0
 51
176.423583984375
  0
ARC
  5
540
330
1F
100
AcDbEntity
  8
D-4
  6
Continuous
 62
     4
370
     9
100
AcDbCircle
 10
492.0242173938871
 20
-398.0777673434251
 30
0.0
 40
5.000000064437454
100
AcDbArc
 50
270.0
 51
352.8752899169922
  0
ARC
  5
541
330
1F
100
AcDbEntity
  8
D-4
  6
Continuous
 62
     4
370
     9
100
AcDbCircle
 10
325.8520454661002
 20
-398.0777673434251
 30
0.0
 40
5.000000064437454
100
AcDbArc
 50
187.1247100830078
 51
270.0
  0
ARC
  5
542
330
1F
100
AcDbEntity
  8
D-4
  6
Continuous
 62
     2
370
     9
100
AcDbCircle
 10
306.4386593016152
 20
-432.7444267243636
 30
0.0
 40
10.83333975559956
100
AcDbArc
 50
242.2042083740235
 51
297.7957916259766
  0
ARC
  5
543
330
1F
100
AcDbEntity
  8
D-4
  6
Continuous
 62
     2
370
     9
100
AcDbCircle
 10
314.0163801499048
 20
-440.40070971634
 30
0.0
 40
3.177055072140049
100
AcDbArc
 50
217.3407897949219
 51
322.6592102050781
  0
ARC
  5
544
330
1F
100
AcDbEntity
  8
D-4
  6
Continuous
 62
     2
370
     9
100
AcDbCircle
 10
298.8609384533257
 20
-440.40070971634
 30
0.0
 40
3.177055072140049
100
AcDbArc
 50
217.3407897949219
 51
322.6592102050781
  0
ARC
  5
545
330
1F
100
AcDbEntity
  8
D-4
  6
Continuous
 62
     2
370
     9
100
AcDbCircle
 10
511.437850998195
 20
-399.7443982687841
 30
0.0
 40
10.83333975559956
100
AcDbArc
 50
242.2042083740235
 51
297.7957916259766
  0
ARC
  5
546
330
1F
100
AcDbEntity
  8
D-4
  6
Continuous
 62
     2
370
     9
100
AcDbCircle
 10
503.8601301499048
 20
-407.4006812607604
 30
0.0
 40
3.177055072140049
100
AcDbArc
 50
217.3407897949219
 51
322.6592102050781
  0
ARC
  5
547
330
1F
100
AcDbEntity
  8
D-4
  6
Continuous
 62
     2
370
     9
100
AcDbCircle
 10
519.0155718464846
 20
-407.4006812607604
 30
0.0
 40
3.177055072140049
100
AcDbArc
 50
217.3407897949219
 51
322.6592102050781
  0
ARC
  5
548
330
1F
100
AcDbEntity
  8
D-4
  6
JWW_PHANTOM2
 62
     7
370
     9
100
AcDbCircle
 10
329.813093076821
 20
-306.8277137314636
 30
0.0
 40
2.500000032218727
100
AcDbArc
 50
90.0
 51
180.0
  0
ARC
  5
549
330
1F
100
AcDbEntity
  8
D-4
  6
JWW_PHANTOM2
 62
     7
370
     9
100
AcDbCircle
 10
488.0631388531887
 20
-306.8277137314636
 30
0.0
 40
2.500000032218727
100
AcDbArc
 50
0.0
 51
90.0
  0
ARC
  5
54A
330
1F
100
AcDbEntity
  8
D-4
  6
JWW_PHANTOM2
 62
     7
370
     9
100
AcDbCircle
 10
376.4377767662481
 20
-330.5776683674961
 30
0.0
 40
7.500000096656181
100
AcDbArc
 50
0.0
 51
90.0
  0
ARC
  5
54B
330
1F
100
AcDbEntity
  8
D-4
  6
JWW_PHANTOM2
 62
     7
370
     9
100
AcDbCircle
 10
441.4379602841163
 20
-330.5776683674961
 30
0.0
 40
7.500000096656181
100
AcDbArc
 50
90.0
 51
180.0
  0
ARC
  5
54C
330
1F
100
AcDbEntity
  8
D-4
  6
JWW_PHANTOM2
 62
     7
370
     9
100
AcDbCircle
 10
329.813093076821
 20
-315.5776807394872
 30
0.0
 40
2.500000032218727
100
AcDbArc
 50
180.0
 51
270.0
  0
ARC
  5
54D
330
1F
100
AcDbEntity
  8
D-4
  6
JWW_PHANTOM2
 62
     7
370
     9
100
AcDbCircle
 10
488.0631388531887
 20
-315.5776807394872
 30
0.0
 40
2.500000032218727
100
AcDbArc
 50
270.0
 51
0.0
  0
ARC
  5
54E
330
1F
100
AcDbEntity
  8
D-4
  6
JWW_PHANTOM2
 62
     7
370
     9
100
AcDbCircle
 10
383.9380489500527
 20
-366.618268293594
 30
0.0
 40
12.50000064437454
100
AcDbArc
 50
112.0243377685547
 51
180.0
  0
ARC
  5
54F
330
1F
100
AcDbEntity
  8
D-4
  6
JWW_PHANTOM2
 62
     7
370
     9
100
AcDbCircle
 10
376.4381169960043
 20
-348.0777879634103
 30
0.0
 40
7.500000096656181
100
AcDbArc
 50
292.0240478515625
 51
359.4492034912109
  0
ARC
  5
550
330
1F
100
AcDbEntity
  8
D-4
  6
JWW_PHANTOM2
 62
     7
370
     9
100
AcDbCircle
 10
433.9382139099345
 20
-366.618268293594
 30
0.0
 40
12.50000064437454
100
AcDbArc
 50
0.0
 51
67.9756622314453
  0
ARC
  5
551
330
1F
100
AcDbEntity
  8
D-4
  6
JWW_PHANTOM2
 62
     7
370
     9
100
AcDbCircle
 10
441.4381458639835
 20
-348.0777879634103
 30
0.0
 40
7.500000096656181
100
AcDbArc
 50
180.5507965087891
 51
247.9759521484375
  0
ARC
  5
552
330
1F
100
AcDbEntity
  8
D-4
  6
Continuous
 62
     2
370
     9
100
AcDbCircle
 10
306.4384118617929
 20
-438.4737102376133
 30
0.0
 40
13.10409210823678
100
AcDbArc
 50
247.3243103027344
 51
292.6756896972656
  0
ARC
  5
553
330
1F
100
AcDbEntity
  8
D-4
  6
Continuous
 62
     2
370
     9
100
AcDbCircle
 10
298.08926643646
 20
-445.7045513845463
 30
0.0
 40
5.873256277393651
100
AcDbArc
 50
270.0
 51
304.1535186767578
  0
ARC
  5
554
330
1F
100
AcDbEntity
  8
D-4
  6
Continuous
 62
     2
370
     9
100
AcDbCircle
 10
306.4384118617929
 20
-456.6818788859979
 30
0.0
 40
13.10409210823678
100
AcDbArc
 50
67.32431030273438
 51
112.6756896972656
  0
ARC
  5
555
330
1F
100
AcDbEntity
  8
D-4
  6
Continuous
 62
     2
370
     9
100
AcDbCircle
 10
298.08926643646
 20
-449.4510068090871
 30
0.0
 40
5.873256277393651
100
AcDbArc
 50
55.84648132324219
 51
90.0
  0
ARC
  5
556
330
1F
100
AcDbEntity
  8
D-4
  6
Continuous
 62
     2
370
     9
100
AcDbCircle
 10
306.4384118617929
 20
-451.5777830146139
 30
0.0
 40
7.500000096656181
100
AcDbArc
 50
201.0391845703125
 51
338.9608154296875
  0
ARC
  5
557
330
1F
100
AcDbEntity
  8
D-4
  6
Continuous
 62
     2
370
     9
100
AcDbCircle
 10
298.1883970154033
 20
-453.0783818189846
 30
0.0
 40
1.250000016109364
100
AcDbArc
 50
0.0
 51
59.99960327148438
  0
ARC
  5
558
330
1F
100
AcDbEntity
  8
D-4
  6
Continuous
 62
     2
370
     9
100
AcDbCircle
 10
314.7875572871251
 20
-445.7045513845463
 30
0.0
 40
5.873256277393651
100
AcDbArc
 50
235.8464813232422
 51
270.0
  0
ARC
  5
559
330
1F
100
AcDbEntity
  8
D-4
  6
Continuous
 62
     2
370
     9
100
AcDbCircle
 10
314.7875572871251
 20
-449.4510068090871
 30
0.0
 40
5.873256277393651
100
AcDbArc
 50
90.0
 51
124.1535186767578
  0
ARC
  5
55A
330
1F
100
AcDbEntity
  8
D-4
  6
Continuous
 62
     2
370
     9
100
AcDbCircle
 10
314.6883957782043
 20
-453.0783818189846
 30
0.0
 40
1.250000016109364
100
AcDbArc
 50
120.0003967285156
 51
180.0
  0
ARC
  5
55B
330
1F
100
AcDbEntity
  8
D-4
  6
Continuous
 62
     2
370
     9
100
AcDbCircle
 10
511.437603558372
 20
-432.7444267243636
 30
0.0
 40
10.83333975559956
100
AcDbArc
 50
242.2042083740235
 51
297.7957916259766
  0
ARC
  5
55C
330
1F
100
AcDbEntity
  8
D-4
  6
Continuous
 62
     2
370
     9
100
AcDbCircle
 10
503.8598827100824
 20
-440.40070971634
 30
0.0
 40
3.177055072140049
100
AcDbArc
 50
217.3407897949219
 51
322.6592102050781
  0
ARC
  5
55D
330
1F
100
AcDbEntity
  8
D-4
  6
Continuous
 62
     2
370
     9
100
AcDbCircle
 10
519.0153244066616
 20
-440.40070971634
 30
0.0
 40
3.177055072140049
100
AcDbArc
 50
217.3407897949219
 51
322.6592102050781
  0
ARC
  5
55E
330
1F
100
AcDbEntity
  8
D-4
  6
Continuous
 62
     2
370
     9
100
AcDbCircle
 10
511.437850998195
 20
-438.4737102376133
 30
0.0
 40
13.10409210823678
100
AcDbArc
 50
247.3243103027344
 51
292.6756896972656
  0
ARC
  5
55F
330
1F
100
AcDbEntity
  8
D-4
  6
Continuous
 62
     2
370
     9
100
AcDbCircle
 10
519.7869654935496
 20
-445.7045513845463
 30
0.0
 40
5.873256277393651
100
AcDbArc
 50
235.8464813232422
 51
270.0
  0
ARC
  5
560
330
1F
100
AcDbEntity
  8
D-4
  6
Continuous
 62
     2
370
     9
100
AcDbCircle
 10
511.437850998195
 20
-456.6818788859979
 30
0.0
 40
13.10409210823678
100
AcDbArc
 50
67.32431030273438
 51
112.6756896972656
  0
ARC
  5
561
330
1F
100
AcDbEntity
  8
D-4
  6
Continuous
 62
     2
370
     9
100
AcDbCircle
 10
519.7869654935496
 20
-449.4510068090871
 30
0.0
 40
5.873256277393651
100
AcDbArc
 50
90.0
 51
124.1535186767578
  0
ARC
  5
562
330
1F
100
AcDbEntity
  8
D-4
  6
Continuous
 62
     2
370
     9
100
AcDbCircle
 10
511.437850998195
 20
-451.5777830146139
 30
0.0
 40
7.500000096656181
100
AcDbArc
 50
201.0391845703125
 51
338.9608154296875
  0
ARC
  5
563
330
1F
100
AcDbEntity
  8
D-4
  6
Continuous
 62
     2
370
     9
100
AcDbCircle
 10
519.6878658445839
 20
-453.0783818189846
 30
0.0
 40
1.250000016109364
100
AcDbArc
 50
120.0003967285156
 51
180.0
  0
ARC
  5
564
330
1F
100
AcDbEntity
  8
D-4
  6
Continuous
 62
     2
370
     9
100
AcDbCircle
 10
503.0887365028403
 20
-445.7045513845463
 30
0.0
 40
5.873256277393651
100
AcDbArc
 50
270.0
 51
304.1535186767578
  0
ARC
  5
565
330
1F
100
AcDbEntity
  8
D-4
  6
Continuous
 62
     2
370
     9
100
AcDbCircle
 10
503.0887365028403
 20
-449.4510068090871
 30
0.0
 40
5.873256277393651
100
AcDbArc
 50
55.84648132324219
 51
90.0
  0
ARC
  5
566
330
1F
100
AcDbEntity
  8
D-4
  6
Continuous
 62
     2
370
     9
100
AcDbCircle
 10
503.1878361518054
 20
-453.0783818189846
 30
0.0
 40
1.250000016109364
100
AcDbArc
 50
0.0
 51
59.99960327148438
  0
ARC
  5
567
330
1F
100
AcDbEntity
  8
D-4
  6
Continuous
 62
     3
370
     9
100
AcDbCircle
 10
376.4377767662481
 20
-404.3277261034547
 30
0.0
 40
7.500000096656181
100
AcDbArc
 50
0.0
 51
9.593612670898438
  0
ARC
  5
568
330
1F
100
AcDbEntity
  8
D-4
  6
Continuous
 62
     3
370
     9
100
AcDbCircle
 10
441.4379602841163
 20
-404.3277261034547
 30
0.0
 40
7.500000096656181
100
AcDbArc
 50
170.4063873291016
 51
180.0
  0
ARC
  5
569
330
1F
100
AcDbEntity
  8
D-4
  6
Continuous
 62
     4
370
     9
100
AcDbCircle
 10
324.26580155312
 20
-398.0778292033807
 30
0.0
 40
7.500000096656181
100
AcDbArc
 50
90.0
 51
176.423583984375
  0
ARC
  5
56A
330
1F
100
AcDbEntity
  8
D-4
  6
Continuous
 62
     4
370
     9
100
AcDbCircle
 10
493.6104303768897
 20
-398.0778292033807
 30
0.0
 40
7.500000096656181
100
AcDbArc
 50
3.576400756835938
 51
89.99999999999999
  0
TEXT
  5
56B
330
1F
100
AcDbEntity
  8
D-4
  6
Continuous
 62
     7
370
     9
100
AcDbText
 10
170.995466219906
 20
-347.9754253669387
 30
0.0
 40
11.43
  1
ＳＣＳ１３
 41
1.133333333333333
  7
ＭＳ ゴシック
100
AcDbText
  0
TEXT
  5
56C
330
1F
100
AcDbEntity
  8
D-4
  6
Continuous
 62
     7
370
     9
100
AcDbText
 10
171.4953093529883
 20
-324.9097655604037
 30
0.0
 40
11.43
  1
把手カバ－
 41
1.133333333333333
  7
ＭＳ ゴシック
100
AcDbText
  0
LINE
  5
56D
330
1F
100
AcDbEntity
  8
D-4
  6
Continuous
 62
     7
370
     9
100
AcDbLine
 10
167.4965642883299
 20
-332.0098119471224
 30
0.0
 11
259.3871564436603
 21
-332.0098119471224
 31
0.0
  0
LINE
  5
56E
330
1F
100
AcDbEntity
  8
D-4
  6
Continuous
 62
     7
370
     9
100
AcDbLine
 10
259.3871564436603
 20
-332.0098119471224
 30
0.0
 11
304.2438575702832
 21
-376.827944675298
 31
0.0
  0
LINE
  5
56F
330
1F
100
AcDbEntity
  8
D-4
  6
Continuous
 62
     7
370
     9
100
AcDbLine
 10
304.2438575702832
 20
-376.827944675298
 30
0.0
 11
294.323668943961
 21
-369.2226926993155
 31
0.0
  0
LINE
  5
570
330
1F
100
AcDbEntity
  8
D-4
  6
Continuous
 62
     7
370
     9
100
AcDbLine
 10
304.2438575702832
 20
-376.827944675298
 30
0.0
 11
296.6300752286472
 21
-366.9143016287589
 31
0.0
  0
LINE
  5
571
330
1F
100
AcDbEntity
  8
D-4
  6
Continuous
 62
     7
370
     9
100
AcDbLine
 10
299.5946064489212
 20
-482.6750296463027
 30
0.0
 11
371.4381314299939
 21
-455.1826353896645
 31
0.0
  0
LINE
  5
572
330
1F
100
AcDbEntity
  8
D-4
  6
Continuous
 62
     7
370
     9
100
AcDbLine
 10
371.4381314299939
 20
-455.1826353896645
 30
0.0
 11
360.4467161832045
 21
-461.1356842616834
 31
0.0
  0
LINE
  5
573
330
1F
100
AcDbEntity
  8
D-4
  6
Continuous
 62
     7
370
     9
100
AcDbLine
 10
371.4381314299939
 20
-455.1826353896645
 30
0.0
 11
359.2804771511479
 21
-458.0880514418091
 31
0.0
  0
LINE
  5
574
330
1F
100
AcDbEntity
  8
D-4
  6
Continuous
 62
     7
370
     9
100
AcDbLine
 10
268.9380571336095
 20
-83.27592848290593
 30
0.0
 11
548.9382221579287
 21
-83.27592848290593
 31
0.0
  0
LINE
  5
575
330
1F
100
AcDbEntity
  8
D-4
  6
Continuous
 62
     7
370
     9
100
AcDbLine
 10
268.9380571336095
 20
-83.27592848290593
 30
0.0
 11
281.3311179007821
 21
-81.64435108015527
 31
0.0
  0
LINE
  5
576
330
1F
100
AcDbEntity
  8
D-4
  6
Continuous
 62
     7
370
     9
100
AcDbLine
 10
268.9380571336095
 20
-83.27592848290593
 30
0.0
 11
281.3311179007821
 21
-84.90750588565658
 31
0.0
  0
LINE
  5
577
330
1F
100
AcDbEntity
  8
D-4
  6
Continuous
 62
     7
370
     9
100
AcDbLine
 10
548.9382221579287
 20
-83.27592848290593
 30
0.0
 11
536.5451613907558
 21
-81.64435108015527
 31
0.0
  0
LINE
  5
578
330
1F
100
AcDbEntity
  8
D-4
  6
Continuous
 62
     7
370
     9
100
AcDbLine
 10
548.9382221579287
 20
-83.27592848290593
 30
0.0
 11
536.5451613907558
 21
-84.90750588565658
 31
0.0
  0
LINE
  5
579
330
1F
100
AcDbEntity
  8
D-4
  6
Continuous
 62
     7
370
     9
100
AcDbLine
 10
268.9380571336095
 20
-81.7759284829059
 30
0.0
 11
268.9380571336095
 21
-110.8432939746183
 31
0.0
  0
LINE
  5
57A
330
1F
100
AcDbEntity
  8
D-4
  6
Continuous
 62
     7
370
     9
100
AcDbLine
 10
548.9382221579287
 20
-81.7759284829059
 30
0.0
 11
548.9382221579287
 21
-110.8432939746183
 31
0.0
  0
TEXT
  5
57B
330
1F
100
AcDbEntity
  8
D-4
  6
Continuous
 62
     2
370
   211
100
AcDbText
 10
392.6881396457694
 20
-77.45592848290593
 30
0.0
 40
15.24
  1
112
 41
1.083333333333333
  7
ＭＳ ゴシック
100
AcDbText
  0
LINE
  5
57C
330
1F
100
AcDbEntity
  8
D-4
  6
Continuous
 62
     7
370
     9
100
AcDbLine
 10
591.7602474135558
 20
-253.3433435270204
 30
0.0
 11
591.7602474135558
 21
-115.8431537587188
 31
0.0
  0
LINE
  5
57D
330
1F
100
AcDbEntity
  8
D-4
  6
Continuous
 62
     7
370
     9
100
AcDbLine
 10
591.7602474135558
 20
-253.3433435270204
 30
0.0
 11
590.1286700108049
 21
-240.9502827598477
 31
0.0
  0
LINE
  5
57E
330
1F
100
AcDbEntity
  8
D-4
  6
Continuous
 62
     7
370
     9
100
AcDbLine
 10
591.7602474135558
 20
-253.3433435270204
 30
0.0
 11
593.3918248163061
 21
-240.9502827598477
 31
0.0
  0
LINE
  5
57F
330
1F
100
AcDbEntity
  8
D-4
  6
Continuous
 62
     7
370
     9
100
AcDbLine
 10
591.7602474135558
 20
-115.8431537587188
 30
0.0
 11
590.1286700108049
 21
-128.2362145258915
 31
0.0
  0
LINE
  5
580
330
1F
100
AcDbEntity
  8
D-4
  6
Continuous
 62
     7
370
     9
100
AcDbLine
 10
591.7602474135558
 20
-115.8431537587188
 30
0.0
 11
593.3918248163061
 21
-128.2362145258915
 31
0.0
  0
LINE
  5
581
330
1F
100
AcDbEntity
  8
D-4
  6
Continuous
 62
     7
370
     9
100
AcDbLine
 10
593.2602474135556
 20
-253.3433435270204
 30
0.0
 11
553.9380819420294
 21
-253.3433435270204
 31
0.0
  0
LINE
  5
582
330
1F
100
AcDbEntity
  8
D-4
  6
Continuous
 62
     7
370
     9
100
AcDbLine
 10
593.2602474135556
 20
-115.8431537587188
 30
0.0
 11
553.9380819420294
 21
-115.8431537587188
 31
0.0
  0
TEXT
  5
583
330
1F
100
AcDbEntity
  8
D-4
  6
Continuous
 62
     2
370
   211
100
AcDbText
 10
585.9402474135555
 20
-195.2182486428696
 30
0.0
 40
15.24
  1
55
 50
90.0
 41
1.0625
  7
ＭＳ ゴシック
100
AcDbText
  0
TEXT
  5
584
330
1F
100
AcDbEntity
  8
D-4
  6
Continuous
 62
     2
370
     9
100
AcDbText
 10
302.6045355668288
 20
-562.8119818744323
 30
0.0
 40
15.24
  1
把手詳細図　Ｓ＝１：２
 41
1.113636363636364
  7
ＭＳ ゴシック
100
AcDbText
  0
LINE
  5
585
330
1F
100
AcDbEntity
  8
D-4
  6
Continuous
 62
     7
370
     9
100
AcDbLine
 10
297.9436236161467
 20
-572.8303465446446
 30
0.0
 11
551.9971354128694
 21
-572.8303465446446
 31
0.0
  0
LINE
  5
586
330
1F
100
AcDbEntity
  8
D-F
  6
Continuous
 62
     7
370
     9
100
AcDbLine
 10
190.0313445167681
 20
-482.6750296463027
 30
0.0
 11
299.5946064489212
 21
-482.6750296463027
 31
0.0
  0
TEXT
  5
587
330
1F
100
AcDbEntity
  8
D-F
  6
Continuous
 62
     7
370
     9
100
AcDbText
 10
211.0629754828446
 20
-476.7087525268981
 30
0.0
 40
11.43
  1
把手本体
 41
1.125
  7
ＭＳ ゴシック
100
AcDbText
  0
TEXT
  5
588
330
1F
100
AcDbEntity
  8
D-F
  6
Continuous
 62
     7
370
     9
100
AcDbText
 10
193.5629754828446
 20
-501.1336999940055
 30
0.0
 40
11.43
  1
強化ナイロン
 41
1.138888888888889
  7
ＭＳ ゴシック
100
AcDbText
  0
LINE
  5
589
330
1F
100
AcDbEntity
  8
D-D
  6
Continuous
 62
     7
370
     9
100
AcDbLine
 10
218.9613125293951
 20
-420.5778415753704
 30
0.0
 11
223.9612671654277
 21
-425.5777962114029
 31
0.0
  0
LINE
  5
58A
330
1F
100
AcDbEntity
  8
D-D
  6
Continuous
 62
     7
370
     9
100
AcDbLine
 10
224.264613388297
 20
-420.5778415753676
 30
0.0
 11
229.2645680243294
 21
-425.5777962114001
 31
0.0
  0
LINE
  5
58B
330
1F
100
AcDbEntity
  8
D-D
  6
Continuous
 62
     7
370
     9
100
AcDbLine
 10
229.5679142471947
 20
-420.5778415753699
 30
0.0
 11
234.5678688832274
 21
-425.5777962114026
 31
0.0
  0
LINE
  5
58C
330
1F
100
AcDbEntity
  8
D-D
  6
Continuous
 62
     7
370
     9
100
AcDbLine
 10
234.8712151060916
 20
-420.5778415753713
 30
0.0
 11
239.8711697421241
 21
-425.5777962114039
 31
0.0
  0
LINE
  5
58D
330
1F
100
AcDbEntity
  8
D-D
  6
Continuous
 62
     7
370
     9
100
AcDbLine
 10
240.1745159649934
 20
-420.5778415753687
 30
0.0
 11
245.174470601026
 21
-425.5777962114012
 31
0.0
  0
LINE
  5
58E
330
1F
100
AcDbEntity
  8
D-D
  6
Continuous
 62
     7
370
     9
100
AcDbLine
 10
245.4778168238918
 20
-420.5778415753716
 30
0.0
 11
250.4777714599245
 21
-425.5777962114042
 31
0.0
  0
LINE
  5
58F
330
1F
100
AcDbEntity
  8
D-D
  6
Continuous
 62
     7
370
     9
100
AcDbLine
 10
250.7811176827938
 20
-420.577841575369
 30
0.0
 11
255.7810723188265
 21
-425.5777962114017
 31
0.0
  0
LINE
  5
590
330
1F
100
AcDbEntity
  8
D-D
  6
Continuous
 62
     7
370
     9
100
AcDbLine
 10
256.0844185416898
 20
-420.5778415753696
 30
0.0
 11
261.0843731777223
 21
-425.5777962114021
 31
0.0
  0
LINE
  5
591
330
1F
100
AcDbEntity
  8
D-D
  6
Continuous
 62
     7
370
     9
100
AcDbLine
 10
261.3877194005887
 20
-420.577841575373
 30
0.0
 11
266.3876740366215
 21
-425.5777962114058
 31
0.0
  0
LINE
  5
592
330
1F
100
AcDbEntity
  8
D-D
  6
Continuous
 62
     7
370
     9
100
AcDbLine
 10
266.6910202594909
 20
-420.5778415753707
 30
0.0
 11
271.6909748955235
 21
-425.5777962114033
 31
0.0
  0
LINE
  5
593
330
1F
100
AcDbEntity
  8
D-D
  6
Continuous
 62
     7
370
     9
100
AcDbLine
 10
271.9943211183863
 20
-420.5778415753707
 30
0.0
 11
276.9942757544188
 21
-425.5777962114031
 31
0.0
  0
LINE
  5
594
330
1F
100
AcDbEntity
  8
D-D
  6
Continuous
 62
     7
370
     9
100
AcDbLine
 10
277.2976219772881
 20
-420.5778415753679
 30
0.0
 11
282.2975766133206
 21
-425.5777962114004
 31
0.0
  0
LINE
  5
595
330
1F
100
AcDbEntity
  8
D-D
  6
Continuous
 62
     7
370
     9
100
AcDbLine
 10
282.6009228361879
 20
-420.5778415753722
 30
0.0
 11
287.6008774722206
 21
-425.5777962114049
 31
0.0
  0
LINE
  5
596
330
1F
100
AcDbEntity
  8
D-D
  6
Continuous
 62
     7
370
     9
100
AcDbLine
 10
287.9042236950828
 20
-420.5778415753716
 30
0.0
 11
288.9381066860117
 21
-421.6117245663006
 31
0.0
  0
LINE
  5
597
330
1F
100
AcDbEntity
  8
D-D
  6
Continuous
 62
     7
370
     9
100
AcDbLine
 10
528.9381561739772
 20
-422.9632354038068
 30
0.0
 11
531.5527169815736
 21
-425.5777962114033
 31
0.0
  0
LINE
  5
598
330
1F
100
AcDbEntity
  8
D-D
  6
Continuous
 62
     7
370
     9
100
AcDbLine
 10
531.8560632044456
 20
-420.5778415753707
 30
0.0
 11
536.856017840478
 21
-425.5777962114032
 31
0.0
  0
LINE
  5
599
330
1F
100
AcDbEntity
  8
D-D
  6
Continuous
 62
     7
370
     9
100
AcDbLine
 10
537.1593640633428
 20
-420.5778415753724
 30
0.0
 11
542.1593186993753
 21
-425.577796211405
 31
0.0
  0
LINE
  5
59A
330
1F
100
AcDbEntity
  8
D-D
  6
Continuous
 62
     7
370
     9
100
AcDbLine
 10
542.4626649222448
 20
-420.5778415753699
 30
0.0
 11
547.4626195582771
 21
-425.5777962114023
 31
0.0
  0
LINE
  5
59B
330
1F
100
AcDbEntity
  8
D-D
  6
Continuous
 62
     7
370
     9
100
AcDbLine
 10
547.765965781142
 20
-420.5778415753716
 30
0.0
 11
552.7659204171745
 21
-425.5777962114041
 31
0.0
  0
LINE
  5
59C
330
1F
100
AcDbEntity
  8
D-D
  6
Continuous
 62
     7
370
     9
100
AcDbLine
 10
553.0692666400366
 20
-420.5778415753708
 30
0.0
 11
558.0692212760691
 21
-425.5777962114033
 31
0.0
  0
LINE
  5
59D
330
1F
100
AcDbEntity
  8
D-D
  6
Continuous
 62
     7
370
     9
100
AcDbLine
 10
558.3725674989411
 20
-420.5778415753707
 30
0.0
 11
563.3725221349735
 21
-425.5777962114032
 31
0.0
  0
LINE
  5
59E
330
1F
100
AcDbEntity
  8
D-D
  6
Continuous
 62
     7
370
     9
100
AcDbLine
 10
563.6758683578383
 20
-420.5778415753725
 30
0.0
 11
568.6758229938708
 21
-425.577796211405
 31
0.0
  0
LINE
  5
59F
330
1F
100
AcDbEntity
  8
D-D
  6
Continuous
 62
     7
370
     9
100
AcDbLine
 10
568.9791692167402
 20
-420.5778415753699
 30
0.0
 11
573.9791238527727
 21
-425.5777962114024
 31
0.0
  0
LINE
  5
5A0
330
1F
100
AcDbEntity
  8
D-D
  6
Continuous
 62
     7
370
     9
100
AcDbLine
 10
574.2824700756375
 20
-420.5778415753718
 30
0.0
 11
579.2824247116699
 21
-425.5777962114041
 31
0.0
  0
LINE
  5
5A1
330
1F
100
AcDbEntity
  8
D-D
  6
Continuous
 62
     7
370
     9
100
AcDbLine
 10
579.5857709345321
 20
-420.5778415753708
 30
0.0
 11
584.5857255705646
 21
-425.5777962114033
 31
0.0
  0
LINE
  5
5A2
330
1F
100
AcDbEntity
  8
D-D
  6
Continuous
 62
     7
370
     9
100
AcDbLine
 10
584.8890717934366
 20
-420.5778415753708
 30
0.0
 11
589.889026429469
 21
-425.5777962114033
 31
0.0
  0
LINE
  5
5A3
330
1F
100
AcDbEntity
  8
D-D
  6
Continuous
 62
     7
370
     9
100
AcDbLine
 10
590.1923726523339
 20
-420.5778415753727
 30
0.0
 11
595.1923272883663
 21
-425.577796211405
 31
0.0
  0
LINE
  5
5A4
330
1F
100
AcDbEntity
  8
D-D
  6
Continuous
 62
     7
370
     9
100
AcDbLine
 10
595.4956735112357
 20
-420.57784157537
 30
0.0
 11
600.2084957273984
 21
-425.2906637915326
 31
0.0
  0
LINE
  5
5A5
330
1F
100
AcDbEntity
  8
D-4
  6
Continuous
 62
     7
370
     9
100
AcDbLine
 10
249.1647014506454
 20
289.12182768096
 30
0.0
 11
272.0500636745143
 21
326.6447518744769
 31
0.0
  0
LINE
  5
5A6
330
1F
100
AcDbEntity
  8
D-0
  6
Continuous
 62
     7
370
     9
100
AcDbLine
 10
121.241362473842
 20
289.12182768096
 30
0.0
 11
249.1647014506454
 21
289.12182768096
 31
0.0
  0
TEXT
  5
5A7
330
1F
100
AcDbEntity
  8
D-0
  6
Continuous
 62
     7
370
     9
100
AcDbText
 10
151.4530319622437
 20
294.5099616547776
 30
0.0
 40
11.43
  1
把手本体
 41
1.125
  7
ＭＳ ゴシック
100
AcDbText
  0
TEXT
  5
5A8
330
1F
100
AcDbEntity
  8
D-0
  6
Continuous
 62
     7
370
     9
100
AcDbText
 10
116.4530319622437
 20
271.8996529818468
 30
0.0
 40
11.43
  1
（強化ナイロン）
 41
1.145833333333333
  7
ＭＳ ゴシック
100
AcDbText
  0
LINE
  5
5A9
330
1F
100
AcDbEntity
  8
D-4
  6
Continuous
 62
     7
370
     9
100
AcDbLine
 10
272.0500636745143
 20
326.6447518744769
 30
0.0
 11
266.9899193016258
 21
315.2147641474921
 31
0.0
  0
LINE
  5
5AA
330
1F
100
AcDbEntity
  8
D-4
  6
Continuous
 62
     7
370
     9
100
AcDbLine
 10
272.0500636745143
 20
326.6447518744769
 30
0.0
 11
264.2039943385768
 21
316.9139334095275
 31
0.0
  0
LINE
  5
5AB
330
1F
100
AcDbEntity
  8
D-4
  6
Continuous
 62
     7
370
     9
100
AcDbLine
 10
396.3902952116337
 20
234.0456092826613
 30
0.0
 11
479.5500059385557
 21
370.3947106345066
 31
0.0
  0
LINE
  5
5AC
330
1F
100
AcDbEntity
  8
D-4
  6
Continuous
 62
     3
370
     9
100
AcDbLine
 10
217.6677671325909
 20
-425.5777962114044
 30
0.0
 11
382.9333362076343
 21
-425.5777962114044
 31
0.0
  0
LINE
  5
5AD
330
1F
100
AcDbEntity
  8
D-4
  6
Continuous
 62
     3
370
     9
100
AcDbLine
 10
217.6677671325909
 20
-433.5778040469988
 30
0.0
 11
373.443344222724
 21
-433.5778040469988
 31
0.0
  0
LINE
  5
5AE
330
1F
100
AcDbEntity
  8
D-4
  6
Continuous
 62
     3
370
     9
100
AcDbLine
 10
434.942648282553
 20
-425.5777962114044
 30
0.0
 11
600.2084957273964
 21
-425.5777962114044
 31
0.0
  0
LINE
  5
5AF
330
1F
100
AcDbEntity
  8
D-4
  6
Continuous
 62
     3
370
     9
100
AcDbLine
 10
444.432671197441
 20
-433.5778040469988
 30
0.0
 11
600.2084957273964
 21
-433.5778040469988
 31
0.0
  0
LINE
  5
5B0
330
1F
100
AcDbEntity
  8
D-4
  6
Continuous
 62
     7
370
     9
100
AcDbLine
 10
206.7203109773003
 20
234.0456092826613
 30
0.0
 11
396.3902952116337
 21
234.0456092826613
 31
0.0
  0
TEXT
  5
5B1
330
1F
100
AcDbEntity
  8
D-4
  6
Continuous
 62
     7
370
     9
100
AcDbText
 10
259.7499467308101
 20
240.0931120126569
 30
0.0
 40
11.43
  1
クッション
 41
1.133333333333333
  7
ＭＳ ゴシック
100
AcDbText
  0
TEXT
  5
5B2
330
1F
100
AcDbEntity
  8
D-4
  6
Continuous
 62
     7
370
     9
100
AcDbText
 10
207.3425261493549
 20
216.3833645991184
 30
0.0
 40
11.43
  1
（軟質ポリ塩化ビニル）
 41
1.151515151515151
  7
ＭＳ ゴシック
100
AcDbText
  0
TEXT
  5
5B3
330
1F
100
AcDbEntity
  8
D-4
  6
Continuous
 62
     7
370
     9
100
AcDbText
 10
526.4466857910157
 20
631.7798167696945
 30
0.0
 40
11.43
  1
底板　ｔ＝３．２
 41
1.145833333333333
  7
ＭＳ ゴシック
100
AcDbText
  0
TEXT
  5
5B4
330
1F
100
AcDbEntity
  8
D-4
  6
Continuous
 62
     7
370
     9
100
AcDbText
 10
526.4466857910157
 20
610.456664353708
 30
0.0
 40
11.43
  1
溶融亜鉛めっき鋼板
 41
1.148148148148148
  7
ＭＳ ゴシック
100
AcDbText
  0
LINE
  5
5B5
330
1F
100
AcDbEntity
  8
D-4
  6
Continuous
 62
     7
370
     9
100
AcDbLine
 10
688.7876605989695
 20
626.6826720272959
 30
0.0
 11
517.6853076831717
 21
626.6826720272959
 31
0.0
  0
TEXT
  5
5B6
330
1F
100
AcDbEntity
  8
F-0
  6
Continuous
 62
     7
370
     9
100
AcDbText
 10
-404.4255319148936
 20
-683.512659574468
 30
0.0
 40
11.43
  1
アルミニウム＋スチール製　アルミニウム目地　ＭＯＦＥ－３００－１５－Ｃ
  7
ＭＳ ゴシック
100
AcDbText
  0
TEXT
  5
5B7
330
1F
100
AcDbEntity
  8
F-0
  6
Continuous
 62
     7
370
     9
100
AcDbText
 10
-406.0053191489362
 20
-662.9754255319149
 30
0.0
 40
11.43
  1
フロアーハッチ　フローリング床材用（フローリング厚15mm）　屋内用　一般形
  7
ＭＳ ゴシック
100
AcDbText
  0
ENDSEC
  0
SECTION
  2
OBJECTS
  0
DICTIONARY
  5
C
330
0
100
AcDbDictionary
281
     1
  3
ACAD_GROUP
350
D
  3
ACAD_LAYOUT
350
1A
  3
ACAD_MLEADERSTYLE
350
5B9
  3
ACAD_MLINESTYLE
350
17
  3
ACAD_PLOTSETTINGS
350
19
  3
ACAD_PLOTSTYLENAME
350
E
  3
ACAD_TABLESTYLE
350
5B8
  3
ACAD_VISUALSTYLE
350
2A
  0
DICTIONARY
  5
D
102
{ACAD_REACTORS
330
C
102
}
330
C
100
AcDbDictionary
281
     1
  0
DICTIONARY
  5
1A
102
{ACAD_REACTORS
330
C
102
}
330
C
100
AcDbDictionary
281
     1
  3
Layout1
350
1E
  3
Layout2
350
26
  3
Model
350
22
  0
DICTIONARY
  5
5B9
102
{ACAD_REACTORS
330
C
102
}
330
C
100
AcDbDictionary
281
     1
  0
DICTIONARY
  5
17
102
{ACAD_REACTORS
330
C
102
}
330
C
100
AcDbDictionary
281
     1
  3
Standard
350
18
  0
DICTIONARY
  5
19
102
{ACAD_REACTORS
330
C
102
}
330
C
100
AcDbDictionary
281
     1
  0
ACDBDICTIONARYWDFLT
  5
E
102
{ACAD_REACTORS
330
C
102
}
330
C
100
AcDbDictionary
281
     1
  3
Normal
350
F
100
AcDbDictionaryWithDefault
340
F
  0
DICTIONARY
  5
5B8
102
{ACAD_REACTORS
330
C
102
}
330
C
100
AcDbDictionary
281
     1
  0
DICTIONARY
  5
2A
102
{ACAD_REACTORS
330
C
102
}
330
C
100
AcDbDictionary
281
     1
  3
2dWireframe
350
2F
  3
3D Hidden
350
31
  3
3dWireframe
350
30
  3
Basic
350
32
  3
Brighten
350
36
  3
ColorChange
350
3A
  3
Conceptual
350
34
  3
Dim
350
35
  3
Facepattern
350
39
  3
Flat
350
2B
  3
FlatWithEdges
350
2C
  3
Gouraud
350
2D
  3
GouraudWithEdges
350
2E
  3
Linepattern
350
38
  3
Realistic
350
33
  3
Thicken
350
37
  0
LAYOUT
  5
1E
102
{ACAD_REACTORS
330
1A
102
}
330
1A
100
AcDbPlotSettings
  1

  2
none_device
  4

  6

 40
0.0
 41
0.0
 42
0.0
 43
0.0
 44
0.0
 45
0.0
 46
0.0
 47
0.0
 48
0.0
 49
0.0
140
0.0
141
0.0
142
1.0
143
1.0
 70
   688
 72
     0
 73
     0
 74
     5
  7

 75
    16
 76
     0
 77
     5
 78
   300
147
1.0
148
0.0
149
0.0
100
AcDbLayout
  1
Layout1
 70
     1
 71
     1
 10
0.0
 20
0.0
 11
420.0
 21
297.0
 12
0.0
 22
0.0
 32
0.0
 14
1.000000000000000E+20
 24
1.000000000000000E+20
 34
1.000000000000000E+20
 15
-1.000000000000000E+20
 25
-1.000000000000000E+20
 35
-1.000000000000000E+20
146
0.0
 13
0.0
 23
0.0
 33
0.0
 16
1.0
 26
0.0
 36
0.0
 17
0.0
 27
1.0
 37
0.0
 76
     0
330
1B
  0
LAYOUT
  5
26
102
{ACAD_REACTORS
330
1A
102
}
330
1A
100
AcDbPlotSettings
  1

  2
none_device
  4

  6

 40
0.0
 41
0.0
 42
0.0
 43
0.0
 44
0.0
 45
0.0
 46
0.0
 47
0.0
 48
0.0
 49
0.0
140
0.0
141
0.0
142
1.0
143
1.0
 70
   688
 72
     0
 73
     0
 74
     5
  7

 75
    16
 76
     0
 77
     5
 78
   300
147
1.0
148
0.0
149
0.0
100
AcDbLayout
  1
Layout2
 70
     1
 71
     2
 10
0.0
 20
0.0
 11
0.0
 21
0.0
 12
0.0
 22
0.0
 32
0.0
 14
0.0
 24
0.0
 34
0.0
 15
0.0
 25
0.0
 35
0.0
146
0.0
 13
0.0
 23
0.0
 33
0.0
 16
1.0
 26
0.0
 36
0.0
 17
0.0
 27
1.0
 37
0.0
 76
     0
330
23
  0
LAYOUT
  5
22
102
{ACAD_REACTORS
330
1A
102
}
330
1A
100
AcDbPlotSettings
  1

  2
none_device
  4

  6

 40
0.0
 41
0.0
 42
0.0
 43
0.0
 44
0.0
 45
0.0
 46
0.0
 47
0.0
 48
0.0
 49
0.0
140
0.0
141
0.0
142
1.0
143
1.0
 70
  1712
 72
     0
 73
     0
 74
     0
  7

 75
     0
 76
     0
 77
     5
 78
   300
147
1.0
148
0.0
149
0.0
100
AcDbLayout
  1
Model
 70
     1
 71
     0
 10
-1050.0
 20
-742.5
 11
1050.0
 21
742.5
 12
0.0
 22
0.0
 32
0.0
 14
-1050.0
 24
-742.5
 34
0.0
 15
1050.0
 25
742.5
 35
0.0
146
0.0
 13
0.0
 23
0.0
 33
0.0
 16
1.0
 26
0.0
 36
0.0
 17
0.0
 27
1.0
 37
0.0
 76
     0
330
1F
331
29
  0
MLINESTYLE
  5
18
102
{ACAD_REACTORS
330
17
102
}
330
17
100
AcDbMlineStyle
  2
Standard
 70
     0
  3

 62
   256
 51
90.0
 52
90.0
 71
     2
 49
0.5
 62
   256
  6
BYLAYER
 49
-0.5
 62
   256
  6
BYLAYER
  0
ACDBPLACEHOLDER
  5
F
102
{ACAD_REACTORS
330
E
102
}
330
E
  0
VISUALSTYLE
  5
2F
102
{ACAD_REACTORS
330
2A
102
}
330
2A
100
AcDbVisualStyle
  2
2dWireframe
 70
     4
 71
     0
 72
     2
 73
     0
 90
        0
 40
-0.6
 41
-30.0
 62
     5
 63
     7
421
 16777215
 74
     1
 91
        4
 64
     7
 65
   257
 75
     1
175
     1
 42
1.0
 92
        0
 66
   257
 43
1.0
 76
     1
 77
     6
 78
     2
 67
     7
 79
     5
170
     0
171
     0
290
     0
174
     0
 93
        1
 44
0.0
173
     0
291
     0
 45
0.0
1001
ACAD
1000
AcDbSavedByObjectVersion
1070
     0
  0
VISUALSTYLE
  5
31
102
{ACAD_REACTORS
330
2A
102
}
330
2A
100
AcDbVisualStyle
  2
3D Hidden
 70
     6
 71
     1
 72
     2
 73
     2
 90
        0
 40
-0.6
 41
-30.0
 62
     5
 63
     7
421
 16777215
 74
     2
 91
        2
 64
     7
 65
   257
 75
     2
175
     1
 42
40.0
 92
        0
 66
   257
 43
1.0
 76
     1
 77
     6
 78
     2
 67
     7
 79
     3
170
     0
171
     0
290
     0
174
     0
 93
        1
 44
0.0
173
     0
291
     0
 45
0.0
1001
ACAD
1000
AcDbSavedByObjectVersion
1070
     0
  0
VISUALSTYLE
  5
30
102
{ACAD_REACTORS
330
2A
102
}
330
2A
100
AcDbVisualStyle
  2
3dWireframe
 70
     5
 71
     0
 72
     2
 73
     0
 90
        0
 40
-0.6
 41
-30.0
 62
     5
 63
     7
421
 16777215
 74
     1
 91
        4
 64
     7
 65
   257
 75
     1
175
     1
 42
1.0
 92
        0
 66
   257
 43
1.0
 76
     1
 77
     6
 78
     2
 67
     7
 79
     5
170
     0
171
     0
290
     0
174
     0
 93
        1
 44
0.0
173
     0
291
     0
 45
0.0
1001
ACAD
1000
AcDbSavedByObjectVersion
1070
     0
  0
VISUALSTYLE
  5
32
102
{ACAD_REACTORS
330
2A
102
}
330
2A
100
AcDbVisualStyle
  2
Basic
 70
     7
 71
     1
 72
     0
 73
     1
 90
        0
 40
-0.6
 41
-30.0
 62
     5
 63
     7
421
 16777215
 74
     0
 91
        4
 64
     7
 65
   257
 75
     1
175
     1
 42
1.0
 92
        8
 66
     7
 43
1.0
 76
     1
 77
     6
 78
     2
 67
     7
 79
     5
170
     0
171
     0
290
     0
174
     0
 93
        1
 44
0.0
173
     0
291
     1
 45
0.0
1001
ACAD
1000
AcDbSavedByObjectVersion
1070
     0
  0
VISUALSTYLE
  5
36
102
{ACAD_REACTORS
330
2A
102
}
330
2A
100
AcDbVisualStyle
  2
Brighten
 70
    12
 71
     2
 72
     2
 73
     0
 90
        0
 40
-0.6
 41
-30.0
 62
     5
 63
     7
421
 16777215
 74
     1
 91
        4
 64
     7
 65
   257
 75
     1
175
     1
 42
1.0
 92
        8
 66
     7
 43
1.0
 76
     1
 77
     6
 78
     2
 67
     7
 79
     5
170
     0
171
     0
290
     0
174
     0
 93
        1
 44
50.0
173
     0
291
     1
 45
0.0
1001
ACAD
1000
AcDbSavedByObjectVersion
1070
     0
  0
VISUALSTYLE
  5
3A
102
{ACAD_REACTORS
330
2A
102
}
330
2A
100
AcDbVisualStyle
  2
ColorChange
 70
    16
 71
     2
 72
     2
 73
     3
 90
        0
 40
-0.6
 41
-30.0
 62
     5
 63
     8
421
  8421504
 74
     1
 91
        4
 64
     7
 65
   257
 75
     1
175
     1
 42
1.0
 92
        8
 66
     8
424
  8421504
 43
1.0
 76
     1
 77
     6
 78
     2
 67
     7
 79
     5
170
     0
171
     0
290
     0
174
     0
 93
        1
 44
0.0
173
     0
291
     1
 45
0.0
1001
ACAD
1000
AcDbSavedByObjectVersion
1070
     0
  0
VISUALSTYLE
  5
34
102
{ACAD_REACTORS
330
2A
102
}
330
2A
100
AcDbVisualStyle
  2
Conceptual
 70
     9
 71
     3
 72
     2
 73
     0
 90
        0
 40
-0.6
 41
-30.0
 62
     5
 63
     7
421
 16777215
 74
     2
 91
        2
 64
     7
 65
   257
 75
     1
175
     1
 42
40.0
 92
        8
 66
     7
 43
1.0
 76
     1
 77
     6
 78
     2
 67
     7
 79
     3
170
     0
171
     0
290
     0
174
     0
 93
        1
 44
0.0
173
     0
291
     0
 45
0.0
1001
ACAD
1000
AcDbSavedByObjectVersion
1070
     0
  0
VISUALSTYLE
  5
35
102
{ACAD_REACTORS
330
2A
102
}
330
2A
100
AcDbVisualStyle
  2
Dim
 70
    11
 71
     2
 72
     2
 73
     0
 90
        0
 40
-0.6
 41
-30.0
 62
     5
 63
     7
421
 16777215
 74
     1
 91
        4
 64
     7
 65
   257
 75
     1
175
     1
 42
1.0
 92
        8
 66
     7
 43
1.0
 76
     1
 77
     6
 78
     2
 67
     7
 79
     5
170
     0
171
     0
290
     0
174
     0
 93
        1
 44
-50.0
173
     0
291
     1
 45
0.0
1001
ACAD
1000
AcDbSavedByObjectVersion
1070
     0
  0
VISUALSTYLE
  5
39
102
{ACAD_REACTORS
330
2A
102
}
330
2A
100
AcDbVisualStyle
  2
Facepattern
 70
    15
 71
     2
 72
     2
 73
     0
 90
        0
 40
-0.6
 41
-30.0
 62
     5
 63
     7
421
 16777215
 74
     1
 91
        4
 64
     7
 65
   257
 75
     1
175
     1
 42
1.0
 92
        8
 66
     7
 43
1.0
 76
     1
 77
     6
 78
     2
 67
     7
 79
     5
170
     0
171
     0
290
     0
174
     0
 93
        1
 44
0.0
173
     0
291
     1
 45
0.0
1001
ACAD
1000
AcDbSavedByObjectVersion
1070
     0
  0
VISUALSTYLE
  5
2B
102
{ACAD_REACTORS
330
2A
102
}
330
2A
100
AcDbVisualStyle
  2
Flat
 70
     0
 71
     2
 72
     1
 73
     1
 90
        2
 40
-0.6
 41
30.0
 62
     5
 63
     7
421
 16777215
 74
     0
 91
        4
 64
     7
 65
   257
 75
     1
175
     1
 42
1.0
 92
        8
 66
     7
 43
1.0
 76
     1
 77
     6
 78
     2
 67
     7
 79
     5
170
     0
171
     0
290
     0
174
     0
 93
       13
 44
0.0
173
     0
291
     1
 45
0.0
1001
ACAD
1000
AcDbSavedByObjectVersion
1070
     0
  0
VISUALSTYLE
  5
2C
102
{ACAD_REACTORS
330
2A
102
}
330
2A
100
AcDbVisualStyle
  2
FlatWithEdges
 70
     1
 71
     2
 72
     1
 73
     1
 90
        2
 40
-0.6
 41
30.0
 62
     5
 63
     7
421
 16777215
 74
     1
 91
        4
 64
     7
 65
   257
 75
     1
175
     1
 42
1.0
 92
        0
 66
   257
 43
1.0
 76
     1
 77
     6
 78
     2
 67
     7
 79
     5
170
     0
171
     0
290
     0
174
     0
 93
       13
 44
0.0
173
     0
291
     1
 45
0.0
1001
ACAD
1000
AcDbSavedByObjectVersion
1070
     0
  0
VISUALSTYLE
  5
2D
102
{ACAD_REACTORS
330
2A
102
}
330
2A
100
AcDbVisualStyle
  2
Gouraud
 70
     2
 71
     2
 72
     2
 73
     1
 90
        2
 40
-0.6
 41
30.0
 62
     5
 63
     7
421
 16777215
 74
     0
 91
        4
 64
     7
 65
   257
 75
     1
175
     1
 42
1.0
 92
        0
 66
     7
 43
1.0
 76
     1
 77
     6
 78
     2
 67
     7
 79
     5
170
     0
171
     0
290
     0
174
     0
 93
       13
 44
0.0
173
     0
291
     1
 45
0.0
1001
ACAD
1000
AcDbSavedByObjectVersion
1070
     0
  0
VISUALSTYLE
  5
2E
102
{ACAD_REACTORS
330
2A
102
}
330
2A
100
AcDbVisualStyle
  2
GouraudWithEdges
 70
     3
 71
     2
 72
     2
 73
     1
 90
        2
 40
-0.6
 41
30.0
 62
     5
 63
     7
421
 16777215
 74
     1
 91
        4
 64
     7
 65
   257
 75
     1
175
     1
 42
1.0
 92
        0
 66
   257
 43
1.0
 76
     1
 77
     6
 78
     2
 67
     7
 79
     5
170
     0
171
     0
290
     0
174
     0
 93
       13
 44
0.0
173
     0
291
     1
 45
0.0
1001
ACAD
1000
AcDbSavedByObjectVersion
1070
     0
  0
VISUALSTYLE
  5
38
102
{ACAD_REACTORS
330
2A
102
}
330
2A
100
AcDbVisualStyle
  2
Linepattern
 70
    14
 71
     2
 72
     2
 73
     0
 90
        0
 40
-0.6
 41
-30.0
 62
     5
 63
     7
421
 16777215
 74
     1
 91
        4
 64
     7
 65
   257
 75
     7
175
     7
 42
1.0
 92
        8
 66
     7
 43
1.0
 76
     1
 77
     6
 78
     2
 67
     7
 79
     5
170
     0
171
     0
290
     0
174
     0
 93
        1
 44
0.0
173
     0
291
     1
 45
0.0
1001
ACAD
1000
AcDbSavedByObjectVersion
1070
     0
  0
VISUALSTYLE
  5
33
102
{ACAD_REACTORS
330
2A
102
}
330
2A
100
AcDbVisualStyle
  2
Realistic
 70
     8
 71
     2
 72
     2
 73
     0
 90
        0
 40
-0.6
 41
-30.0
 62
     5
 63
     7
421
 16777215
 74
     1
 91
        0
 64
     7
 65
   257
 75
     1
175
     1
 42
1.0
 92
        8
 66
     8
424
  7895160
 43
1.0
 76
     1
 77
     6
 78
     2
 67
     7
 79
     5
170
     0
171
     0
290
     0
174
     0
 93
       13
 44
0.0
173
     0
291
     0
 45
0.0
1001
ACAD
1000
AcDbSavedByObjectVersion
1070
     0
  0
VISUALSTYLE
  5
37
102
{ACAD_REACTORS
330
2A
102
}
330
2A
100
AcDbVisualStyle
  2
Thicken
 70
    13
 71
     2
 72
     2
 73
     0
 90
        0
 40
-0.6
 41
-30.0
 62
     5
 63
     7
421
 16777215
 74
     1
 91
        4
 64
     7
 65
   257
 75
     1
175
     1
 42
1.0
 92
       12
 66
     7
 43
1.0
 76
     1
 77
     6
 78
     2
 67
     7
 79
     5
170
     0
171
     0
290
     0
174
     0
 93
        1
 44
0.0
173
     0
291
     1
 45
0.0
1001
ACAD
1000
AcDbSavedByObjectVersion
1070
     0
  0
ENDSEC
  0
EOF
