  0
SECTION
  2
HEADER
  9
$ACADVER
  1
AC1018
  9
$ACADMAINTVER
 70
     0
  9
$DWGCODEPAGE
  3
ANSI_932
  9
$INSBASE
 10
0.0
 20
0.0
 30
0.0
  9
$EXTMIN
 10
-1050.0
 20
-742.5
 30
0.0
  9
$EXTMAX
 10
1050.0
 20
742.5
 30
0.0
  9
$LIMMIN
 10
-1050.0
 20
-742.5
  9
$LIMMAX
 10
1050.0
 20
742.5
  9
$ORTHOMODE
 70
     0
  9
$REGENMODE
 70
     1
  9
$FILLMODE
 70
     1
  9
$QTEXTMODE
 70
     0
  9
$MIRRTEXT
 70
     1
  9
$LTSCALE
 40
5.0
  9
$ATTMODE
 70
     1
  9
$TEXTSIZE
 40
2.5
  9
$TRACEWID
 40
1.0
  9
$TEXTSTYLE
  7
Standard
  9
$CLAYER
  8
0
  9
$CELTYPE
  6
ByLayer
  9
$CECOLOR
 62
   256
  9
$CELTSCALE
 40
1.0
  9
$DISPSILH
 70
     0
  9
$DIMSCALE
 40
1.0
  9
$DIMASZ
 40
2.5
  9
$DIMEXO
 40
0.625
  9
$DIMDLI
 40
3.75
  9
$DIMRND
 40
0.0
  9
$DIMDLE
 40
0.0
  9
$DIMEXE
 40
1.25
  9
$DIMTP
 40
0.0
  9
$DIMTM
 40
0.0
  9
$DIMTXT
 40
2.5
  9
$DIMCEN
 40
2.5
  9
$DIMTSZ
 40
0.0
  9
$DIMTOL
 70
     0
  9
$DIMLIM
 70
     0
  9
$DIMTIH
 70
     0
  9
$DIMTOH
 70
     0
  9
$DIMSE1
 70
     0
  9
$DIMSE2
 70
     0
  9
$DIMTAD
 70
     1
  9
$DIMZIN
 70
     8
  9
$DIMBLK
  1

  9
$DIMASO
 70
     1
  9
$DIMSHO
 70
     1
  9
$DIMPOST
  1

  9
$DIMAPOST
  1

  9
$DIMALT
 70
     0
  9
$DIMALTD
 70
     3
  9
$DIMALTF
 40
0.03937007874016
  9
$DIMLFAC
 40
1.0
  9
$DIMTOFL
 70
     1
  9
$DIMTVP
 40
0.0
  9
$DIMTIX
 70
     0
  9
$DIMSOXD
 70
     0
  9
$DIMSAH
 70
     0
  9
$DIMBLK1
  1

  9
$DIMBLK2
  1

  9
$DIMSTYLE
  2
ISO-25
  9
$DIMCLRD
 70
     0
  9
$DIMCLRE
 70
     0
  9
$DIMCLRT
 70
     0
  9
$DIMTFAC
 40
1.0
  9
$DIMGAP
 40
0.625
  9
$DIMJUST
 70
     0
  9
$DIMSD1
 70
     0
  9
$DIMSD2
 70
     0
  9
$DIMTOLJ
 70
     0
  9
$DIMTZIN
 70
     8
  9
$DIMALTZ
 70
     0
  9
$DIMALTTZ
 70
     0
  9
$DIMUPT
 70
     0
  9
$DIMDEC
 70
     2
  9
$DIMTDEC
 70
     2
  9
$DIMALTU
 70
     2
  9
$DIMALTTD
 70
     3
  9
$DIMTXSTY
  7
Standard
  9
$DIMAUNIT
 70
     0
  9
$DIMADEC
 70
     0
  9
$DIMALTRND
 40
0.0
  9
$DIMAZIN
 70
     0
  9
$DIMDSEP
 70
    44
  9
$DIMATFIT
 70
     3
  9
$DIMFRAC
 70
     0
  9
$DIMLDRBLK
  1

  9
$DIMLUNIT
 70
     2
  9
$DIMLWD
 70
    -2
  9
$DIMLWE
 70
    -2
  9
$DIMTMOVE
 70
     0
  9
$LUNITS
 70
     2
  9
$LUPREC
 70
     4
  9
$SKETCHINC
 40
1.0
  9
$FILLETRAD
 40
10.0
  9
$AUNITS
 70
     0
  9
$AUPREC
 70
     0
  9
$MENU
  1
.
  9
$ELEVATION
 40
0.0
  9
$PELEVATION
 40
0.0
  9
$THICKNESS
 40
0.0
  9
$LIMCHECK
 70
     0
  9
$CHAMFERA
 40
10.0
  9
$CHAMFERB
 40
10.0
  9
$CHAMFERC
 40
20.0
  9
$CHAMFERD
 40
0.0
  9
$SKPOLY
 70
     0
  9
$TDCREATE
 40
2457904.644841678
  9
$TDUCREATE
 40
2457904.269841678
  9
$TDUPDATE
 40
2457904.64484169
  9
$TDUUPDATE
 40
2457904.26984169
  9
$TDINDWG
 40
0.0000000116
  9
$TDUSRTIMER
 40
0.0000000116
  9
$USRTIMER
 70
     1
  9
$ANGBASE
 50
0.0
  9
$ANGDIR
 70
     0
  9
$PDMODE
 70
     0
  9
$PDSIZE
 40
0.0
  9
$PLINEWID
 40
0.0
  9
$SPLFRAME
 70
     0
  9
$SPLINETYPE
 70
     6
  9
$SPLINESEGS
 70
     8
  9
$HANDSEED
  5
486
  9
$SURFTAB1
 70
     6
  9
$SURFTAB2
 70
     6
  9
$SURFTYPE
 70
     6
  9
$SURFU
 70
     6
  9
$SURFV
 70
     6
  9
$UCSBASE
  2

  9
$UCSNAME
  2

  9
$UCSORG
 10
0.0
 20
0.0
 30
0.0
  9
$UCSXDIR
 10
1.0
 20
0.0
 30
0.0
  9
$UCSYDIR
 10
0.0
 20
1.0
 30
0.0
  9
$UCSORTHOREF
  2

  9
$UCSORTHOVIEW
 70
     0
  9
$UCSORGTOP
 10
0.0
 20
0.0
 30
0.0
  9
$UCSORGBOTTOM
 10
0.0
 20
0.0
 30
0.0
  9
$UCSORGLEFT
 10
0.0
 20
0.0
 30
0.0
  9
$UCSORGRIGHT
 10
0.0
 20
0.0
 30
0.0
  9
$UCSORGFRONT
 10
0.0
 20
0.0
 30
0.0
  9
$UCSORGBACK
 10
0.0
 20
0.0
 30
0.0
  9
$PUCSBASE
  2

  9
$PUCSNAME
  2

  9
$PUCSORG
 10
0.0
 20
0.0
 30
0.0
  9
$PUCSXDIR
 10
1.0
 20
0.0
 30
0.0
  9
$PUCSYDIR
 10
0.0
 20
1.0
 30
0.0
  9
$PUCSORTHOREF
  2

  9
$PUCSORTHOVIEW
 70
     0
  9
$PUCSORGTOP
 10
0.0
 20
0.0
 30
0.0
  9
$PUCSORGBOTTOM
 10
0.0
 20
0.0
 30
0.0
  9
$PUCSORGLEFT
 10
0.0
 20
0.0
 30
0.0
  9
$PUCSORGRIGHT
 10
0.0
 20
0.0
 30
0.0
  9
$PUCSORGFRONT
 10
0.0
 20
0.0
 30
0.0
  9
$PUCSORGBACK
 10
0.0
 20
0.0
 30
0.0
  9
$USERI1
 70
     0
  9
$USERI2
 70
     0
  9
$USERI3
 70
     0
  9
$USERI4
 70
     0
  9
$USERI5
 70
     0
  9
$USERR1
 40
0.0
  9
$USERR2
 40
0.0
  9
$USERR3
 40
0.0
  9
$USERR4
 40
0.0
  9
$USERR5
 40
0.0
  9
$WORLDVIEW
 70
     1
  9
$SHADEDGE
 70
     3
  9
$SHADEDIF
 70
    70
  9
$TILEMODE
 70
     1
  9
$MAXACTVP
 70
    64
  9
$PINSBASE
 10
0.0
 20
0.0
 30
0.0
  9
$PLIMCHECK
 70
     0
  9
$PEXTMIN
 10
1.000000000000000E+20
 20
1.000000000000000E+20
 30
1.000000000000000E+20
  9
$PEXTMAX
 10
-1.000000000000000E+20
 20
-1.000000000000000E+20
 30
-1.000000000000000E+20
  9
$PLIMMIN
 10
0.0
 20
0.0
  9
$PLIMMAX
 10
420.0
 20
297.0
  9
$UNITMODE
 70
     0
  9
$VISRETAIN
 70
     1
  9
$PLINEGEN
 70
     0
  9
$PSLTSCALE
 70
     1
  9
$TREEDEPTH
 70
  3020
  9
$CMLSTYLE
  2
Standard
  9
$CMLJUST
 70
     0
  9
$CMLSCALE
 40
20.0
  9
$PROXYGRAPHICS
 70
     1
  9
$MEASUREMENT
 70
     1
  9
$CELWEIGHT
370
    -1
  9
$ENDCAPS
280
     0
  9
$JOINSTYLE
280
     0
  9
$LWDISPLAY
290
     0
  9
$INSUNITS
 70
     4
  9
$HYPERLINKBASE
  1

  9
$STYLESHEET
  1

  9
$XEDIT
290
     1
  9
$CEPSNTYPE
380
     0
  9
$PSTYLEMODE
290
     1
  9
$FINGERPRINTGUID
  2
{8FD47FE5-8ACB-49A1-8670-FB752CB356FC}
  9
$VERSIONGUID
  2
{FAEB1C32-E019-11D5-929B-00C0DF256EC4}
  9
$EXTNAMES
290
     1
  9
$PSVPSCALE
 40
0.0
  9
$OLESTARTUP
290
     0
  9
$SORTENTS
280
   127
  9
$INDEXCTL
280
     0
  9
$HIDETEXT
280
     1
  9
$XCLIPFRAME
290
     0
  9
$HALOGAP
280
     0
  9
$OBSCOLOR
 70
   257
  9
$OBSLTYPE
280
     0
  9
$INTERSECTIONDISPLAY
280
     0
  9
$INTERSECTIONCOLOR
 70
   257
  9
$DIMASSOC
280
     2
  9
$PROJECTNAME
  1

  0
ENDSEC
  0
SECTION
  2
CLASSES
  0
CLASS
  1
ACDBDICTIONARYWDFLT
  2
AcDbDictionaryWithDefault
  3
ObjectDBX Classes
 90
        0
 91
        4
280
     0
281
     0
  0
CLASS
  1
VISUALSTYLE
  2
AcDbVisualStyle
  3
ObjectDBX Classes
 90
     4095
 91
        4
280
     0
281
     0
  0
ENDSEC
  0
SECTION
  2
TABLES
  0
TABLE
  2
VPORT
  5
8
330
0
100
AcDbSymbolTable
 70
     1
  0
VPORT
  5
29
330
8
100
AcDbSymbolTableRecord
100
AcDbViewportTableRecord
  2
*Active
 70
     0
 10
0.0
 20
0.0
 11
1.0
 21
1.0
 12
0.0
 22
0.0
 13
0.0
 23
0.0
 14
10.0
 24
10.0
 15
10.0
 25
10.0
 16
0.0
 26
0.0
 36
1.0
 17
0.0
 27
0.0
 37
0.0
 40
1633.5
 41
1.414141414141414
 42
50.0
 43
0.0
 44
0.0
 50
0.0
 51
0.0
 71
     0
 72
 10000
 73
     1
 74
     3
 75
     0
 76
     0
 77
     0
 78
     0
281
     0
 65
     1
110
0.0
120
0.0
130
0.0
111
1.0
121
0.0
131
0.0
112
0.0
122
1.0
132
0.0
 79
     0
146
0.0
  0
ENDTAB
  0
TABLE
  2
LTYPE
  5
5
330
0
100
AcDbSymbolTable
 70
     5
  0
LTYPE
  5
14
330
5
100
AcDbSymbolTableRecord
100
AcDbLinetypeTableRecord
  2
ByBlock
 70
     0
  3

 72
    65
 73
     0
 40
0.0
  0
LTYPE
  5
15
330
5
100
AcDbSymbolTableRecord
100
AcDbLinetypeTableRecord
  2
ByLayer
 70
     0
  3

 72
    65
 73
     0
 40
0.0
  0
LTYPE
  5
16
330
5
100
AcDbSymbolTableRecord
100
AcDbLinetypeTableRecord
  2
Continuous
 70
     0
  3
Solid line
 72
    65
 73
     0
 40
0.0
  0
LTYPE
  5
3C
330
5
100
AcDbSymbolTableRecord
100
AcDbLinetypeTableRecord
  2
JWW_CENTER1
 70
     0
  3
-----  --  ----------  --  -----
 72
    65
 73
     4
 40
6.773333333333333
 49
4.233333333333333
 74
     0
 49
-0.8466666666666667
 74
     0
 49
0.8466666666666667
 74
     0
 49
-0.8466666666666667
 74
     0
  0
LTYPE
  5
3D
330
5
100
AcDbSymbolTableRecord
100
AcDbLinetypeTableRecord
  2
JWW_DASHED1
 70
     0
  3
-  --  --  --  --  --  --  --  -
 72
    65
 73
     2
 40
1.693333333333333
 49
0.8466666666666667
 74
     0
 49
-0.8466666666666667
 74
     0
  0
LTYPE
  5
3E
330
5
100
AcDbSymbolTableRecord
100
AcDbLinetypeTableRecord
  2
JWW_DASHED3
 70
     0
  3
---  ------  ------  ------  ---
 72
    65
 73
     2
 40
3.386666666666667
 49
2.54
 74
     0
 49
-0.8466666666666667
 74
     0
  0
LTYPE
  5
3F
330
5
100
AcDbSymbolTableRecord
100
AcDbLinetypeTableRecord
  2
JWW_PHANTOM2
 70
     0
  3
------------  -  -  ------------
 72
    65
 73
     6
 40
13.54666666666667
 49
10.16
 74
     0
 49
-0.8466666666666667
 74
     0
 49
0.4233333333333333
 74
     0
 49
-0.8466666666666667
 74
     0
 49
0.4233333333333333
 74
     0
 49
-0.8466666666666667
 74
     0
  0
ENDTAB
  0
TABLE
  2
LAYER
  5
2
330
0
100
AcDbSymbolTable
 70
    21
  0
LAYER
  5
10
330
2
100
AcDbSymbolTableRecord
100
AcDbLayerTableRecord
  2
0
 70
     0
 62
     7
  6
Continuous
370
    -3
390
F
  0
LAYER
  5
40
330
2
100
AcDbSymbolTableRecord
100
AcDbLayerTableRecord
  2
D-2
 70
     0
 62
     7
  6
Continuous
370
    -3
390
F
  0
LAYER
  5
41
330
2
100
AcDbSymbolTableRecord
100
AcDbLayerTableRecord
  2
D-B
 70
     0
 62
     7
  6
Continuous
370
    -3
390
F
  0
LAYER
  5
42
330
2
100
AcDbSymbolTableRecord
100
AcDbLayerTableRecord
  2
1-4
 70
     0
 62
     7
  6
Continuous
370
    -3
390
F
  0
LAYER
  5
43
330
2
100
AcDbSymbolTableRecord
100
AcDbLayerTableRecord
  2
0-4
 70
     0
 62
     7
  6
Continuous
370
    -3
390
F
  0
LAYER
  5
44
330
2
100
AcDbSymbolTableRecord
100
AcDbLayerTableRecord
  2
0-0
 70
     0
 62
     7
  6
Continuous
370
    -3
390
F
  0
LAYER
  5
45
330
2
100
AcDbSymbolTableRecord
100
AcDbLayerTableRecord
  2
0-1
 70
     0
 62
     7
  6
Continuous
370
    -3
390
F
  0
LAYER
  5
46
330
2
100
AcDbSymbolTableRecord
100
AcDbLayerTableRecord
  2
0-A
 70
     0
 62
     7
  6
Continuous
370
    -3
390
F
  0
LAYER
  5
47
330
2
100
AcDbSymbolTableRecord
100
AcDbLayerTableRecord
  2
0-3
 70
     0
 62
     7
  6
Continuous
370
    -3
390
F
  0
LAYER
  5
48
330
2
100
AcDbSymbolTableRecord
100
AcDbLayerTableRecord
  2
0-9
 70
     0
 62
     7
  6
Continuous
370
    -3
390
F
  0
LAYER
  5
49
330
2
100
AcDbSymbolTableRecord
100
AcDbLayerTableRecord
  2
D-4
 70
     0
 62
     7
  6
Continuous
370
    -3
390
F
  0
LAYER
  5
4A
330
2
100
AcDbSymbolTableRecord
100
AcDbLayerTableRecord
  2
D-0
 70
     0
 62
     7
  6
Continuous
370
    -3
390
F
  0
LAYER
  5
4B
330
2
100
AcDbSymbolTableRecord
100
AcDbLayerTableRecord
  2
D-1
 70
     0
 62
     7
  6
Continuous
370
    -3
390
F
  0
LAYER
  5
4C
330
2
100
AcDbSymbolTableRecord
100
AcDbLayerTableRecord
  2
D-5
 70
     0
 62
     7
  6
Continuous
370
    -3
390
F
  0
LAYER
  5
4D
330
2
100
AcDbSymbolTableRecord
100
AcDbLayerTableRecord
  2
D-3
 70
     0
 62
     7
  6
Continuous
370
    -3
390
F
  0
LAYER
  5
4E
330
2
100
AcDbSymbolTableRecord
100
AcDbLayerTableRecord
  2
D-A
 70
     0
 62
     7
  6
Continuous
370
    -3
390
F
  0
LAYER
  5
4F
330
2
100
AcDbSymbolTableRecord
100
AcDbLayerTableRecord
  2
D-6
 70
     0
 62
     7
  6
Continuous
370
    -3
390
F
  0
LAYER
  5
50
330
2
100
AcDbSymbolTableRecord
100
AcDbLayerTableRecord
  2
D-D
 70
     0
 62
     7
  6
Continuous
370
    -3
390
F
  0
LAYER
  5
51
330
2
100
AcDbSymbolTableRecord
100
AcDbLayerTableRecord
  2
D-F
 70
     0
 62
     7
  6
Continuous
370
    -3
390
F
  0
LAYER
  5
52
330
2
100
AcDbSymbolTableRecord
100
AcDbLayerTableRecord
  2
0-2
 70
     0
 62
     7
  6
Continuous
370
    -3
390
F
  0
LAYER
  5
53
330
2
100
AcDbSymbolTableRecord
100
AcDbLayerTableRecord
  2
F-0
 70
     0
 62
     7
  6
Continuous
370
    -3
390
F
  0
ENDTAB
  0
TABLE
  2
STYLE
  5
3
330
0
100
AcDbSymbolTable
 70
     2
  0
STYLE
  5
11
330
3
100
AcDbSymbolTableRecord
100
AcDbTextStyleTableRecord
  2
Standard
 70
     0
 40
0.0
 41
1.0
 50
0.0
 71
     0
 42
2.5
  3
txt
  4

1001
ACAD
1000

1071
        0
  0
STYLE
  5
3B
330
3
100
AcDbSymbolTableRecord
100
AcDbTextStyleTableRecord
  2
ＭＳ ゴシック
 70
     0
 40
1.0
 41
1.0
 50
0.0
 71
     0
 42
10.0
  3

  4

1001
ACAD
1000
MS Gothic
1071
    32817
  0
ENDTAB
  0
TABLE
  2
VIEW
  5
6
330
0
100
AcDbSymbolTable
 70
     0
  0
ENDTAB
  0
TABLE
  2
UCS
  5
7
330
0
100
AcDbSymbolTable
 70
     0
  0
ENDTAB
  0
TABLE
  2
APPID
  5
9
330
0
100
AcDbSymbolTable
 70
     1
  0
APPID
  5
12
330
9
100
AcDbSymbolTableRecord
100
AcDbRegAppTableRecord
  2
ACAD
 70
     0
  0
ENDTAB
  0
TABLE
  2
DIMSTYLE
  5
A
330
0
100
AcDbSymbolTable
 70
     1
100
AcDbDimStyleTable
  0
DIMSTYLE
105
27
330
A
100
AcDbSymbolTableRecord
100
AcDbDimStyleTableRecord
  2
ISO-25
 70
     0
 41
2.5
 42
0.625
 43
3.75
 44
1.25
 73
     0
 74
     0
 77
     1
 78
     8
140
2.5
141
2.5
143
0.03937007874016
147
0.625
171
     3
172
     1
271
     2
272
     2
274
     3
278
    44
283
     0
284
     8
340
11
  0
ENDTAB
  0
TABLE
  2
BLOCK_RECORD
  5
1
330
0
100
AcDbSymbolTable
 70
     1
  0
BLOCK_RECORD
  5
1F
330
1
100
AcDbSymbolTableRecord
100
AcDbBlockTableRecord
  2
*Model_Space
340
22
  0
BLOCK_RECORD
  5
1B
330
1
100
AcDbSymbolTableRecord
100
AcDbBlockTableRecord
  2
*Paper_Space
340
1E
  0
BLOCK_RECORD
  5
23
330
1
100
AcDbSymbolTableRecord
100
AcDbBlockTableRecord
  2
*Paper_Space0
340
26
  0
ENDTAB
  0
ENDSEC
  0
SECTION
  2
BLOCKS
  0
BLOCK
  5
20
330
1F
100
AcDbEntity
  8
0
100
AcDbBlockBegin
  2
*Model_Space
 70
     0
 10
0.0
 20
0.0
 30
0.0
  3
*Model_Space
  1

  0
ENDBLK
  5
21
330
1F
100
AcDbEntity
  8
0
100
AcDbBlockEnd
  0
BLOCK
  5
1C
330
1B
100
AcDbEntity
 67
     1
  8
0
100
AcDbBlockBegin
  2
*Paper_Space
 70
     0
 10
0.0
 20
0.0
 30
0.0
  3
*Paper_Space
  1

  0
ENDBLK
  5
1D
330
1B
100
AcDbEntity
 67
     1
  8
0
100
AcDbBlockEnd
  0
BLOCK
  5
24
330
23
100
AcDbEntity
  8
0
100
AcDbBlockBegin
  2
*Paper_Space0
 70
     0
 10
0.0
 20
0.0
 30
0.0
  3
*Paper_Space0
  1

  0
ENDBLK
  5
25
330
23
100
AcDbEntity
  8
0
100
AcDbBlockEnd
  0
ENDSEC
  0
SECTION
  2
ENTITIES
  0
LINE
  5
54
330
1F
100
AcDbEntity
  8
D-2
  6
JWW_CENTER1
 62
     3
370
     9
100
AcDbLine
 10
272.0498162346919
 20
323.2026428852532
 30
0.0
 11
272.0498162346919
 21
462.3978118701561
 31
0.0
  0
LINE
  5
55
330
1F
100
AcDbEntity
  8
D-B
  6
Continuous
 62
     7
370
     9
100
AcDbLine
 10
328.74755859375
 20
407.1369525611402
 30
0.0
 11
323.747542097762
 21
412.1370927770397
 31
0.0
  0
LINE
  5
56
330
1F
100
AcDbEntity
  8
D-B
  6
Continuous
 62
     7
370
     9
100
AcDbLine
 10
334.0509363122888
 20
407.1369525611402
 30
0.0
 11
329.0509198163008
 21
412.1370927770397
 31
0.0
  0
LINE
  5
57
330
1F
100
AcDbEntity
  8
D-B
  6
Continuous
 62
     7
370
     9
100
AcDbLine
 10
339.3540665910052
 20
407.1369525611402
 30
0.0
 11
334.3540500950169
 21
412.1370927770397
 31
0.0
  0
LINE
  5
58
330
1F
100
AcDbEntity
  8
1-4
  6
Continuous
 62
     7
370
     9
100
AcDbLine
 10
-589.8415436615815
 20
-211.4576432511612
 30
0.0
 11
-324.5773934029244
 21
-211.4576432511612
 31
0.0
  0
LINE
  5
59
330
1F
100
AcDbEntity
  8
0-4
  6
Continuous
 62
     7
370
     9
100
AcDbLine
 10
-600.8476051124367
 20
306.9996766786318
 30
0.0
 11
-300.8476051124366
 21
306.9996766786318
 31
0.0
  0
LINE
  5
5A
330
1F
100
AcDbEntity
  8
0-4
  6
Continuous
 62
     7
370
     9
100
AcDbLine
 10
-613.8475366540856
 20
346.4915672508447
 30
0.0
 11
-287.8476117108319
 21
346.4915672508447
 31
0.0
  0
LINE
  5
5B
330
1F
100
AcDbEntity
  8
0-4
  6
Continuous
 62
     7
370
     9
100
AcDbLine
 10
-613.8475366540856
 20
227.6002584921348
 30
0.0
 11
-613.8475366540856
 21
347.9915474556589
 31
0.0
  0
LINE
  5
5C
330
1F
100
AcDbEntity
  8
0-4
  6
Continuous
 62
     7
370
     9
100
AcDbLine
 10
-287.8476117108319
 20
227.6002584921348
 30
0.0
 11
-287.8476117108319
 21
347.9915474556589
 31
0.0
  0
LINE
  5
5D
330
1F
100
AcDbEntity
  8
0-4
  6
Continuous
 62
     7
370
     9
100
AcDbLine
 10
-700.746794004698
 20
207.0994361671242
 30
0.0
 11
-700.7437010069151
 21
-92.90056383287578
 31
0.0
  0
LINE
  5
5E
330
1F
100
AcDbEntity
  8
0-4
  6
Continuous
 62
     7
370
     9
100
AcDbLine
 10
-740.2388082968221
 20
220.0989346890837
 30
0.0
 11
-740.2354678592167
 21
-105.9009902541702
 31
0.0
  0
LINE
  5
5F
330
1F
100
AcDbEntity
  8
0-4
  6
Continuous
 62
     7
370
     9
100
AcDbLine
 10
-621.3475613980679
 20
220.1001718881969
 30
0.0
 11
-741.7387885016365
 21
220.0989346890837
 31
0.0
  0
LINE
  5
60
330
1F
100
AcDbEntity
  8
0-4
  6
Continuous
 62
     7
370
     9
100
AcDbLine
 10
-621.3442209604624
 20
-105.899753055057
 30
0.0
 11
-741.7354480640308
 21
-105.9009902541702
 31
0.0
  0
LINE
  5
61
330
1F
100
AcDbEntity
  8
0-4
  6
Continuous
 62
     7
370
     9
100
AcDbLine
 10
-600.8476051124367
 20
227.6002584921348
 30
0.0
 11
-600.8476051124367
 21
308.4996568834459
 31
0.0
  0
LINE
  5
62
330
1F
100
AcDbEntity
  8
0-4
  6
Continuous
 62
     7
370
     9
100
AcDbLine
 10
-300.8476051124366
 20
227.6002584921348
 30
0.0
 11
-300.8476051124366
 21
308.4996568834459
 31
0.0
  0
LINE
  5
63
330
1F
100
AcDbEntity
  8
0-4
  6
Continuous
 62
     7
370
     9
100
AcDbLine
 10
-621.3474376781567
 20
207.1002403465478
 30
0.0
 11
-702.2467742095123
 21
207.0993743071685
 31
0.0
  0
LINE
  5
64
330
1F
100
AcDbEntity
  8
0-4
  6
Continuous
 62
     7
370
     9
100
AcDbLine
 10
-621.3443446803738
 20
-92.89975965345221
 30
0.0
 11
-702.2436812117293
 21
-92.90062569283151
 31
0.0
  0
TEXT
  5
65
330
1F
100
AcDbEntity
  8
1-4
  6
Continuous
 62
     2
370
     9
100
AcDbText
 10
-578.1178428031303
 20
-205.2776578995988
 30
0.0
 40
15.24
  1
平面詳細図　Ｓ＝１：５
 41
1.113636363636364
  7
ＭＳ ゴシック
100
AcDbText
  0
TEXT
  5
66
330
1F
100
AcDbEntity
  8
0-4
  6
Continuous
 62
     2
370
     9
100
AcDbText
 10
-467.0976051124366
 20
312.8196370882602
 30
0.0
 40
15.24
  1
300
 41
1.083333333333333
  7
ＭＳ ゴシック
100
AcDbText
  0
TEXT
  5
67
330
1F
100
AcDbEntity
  8
0-4
  6
Continuous
 62
     2
370
     9
100
AcDbText
 10
-467.0976051124366
 20
352.311527660473
 30
0.0
 40
15.24
  1
326
 41
1.083333333333333
  7
ＭＳ ゴシック
100
AcDbText
  0
TEXT
  5
68
330
1F
100
AcDbEntity
  8
0-4
  6
Continuous
 62
     2
370
     9
100
AcDbText
 10
-706.5650223353617
 20
40.84934747018699
 30
0.0
 40
15.24
  1
300
 50
90.00054527941217
 41
1.083333333333333
  7
ＭＳ ゴシック
100
AcDbText
  0
TEXT
  5
69
330
1F
100
AcDbEntity
  8
0-4
  6
Continuous
 62
     2
370
     9
100
AcDbText
 10
-746.0569129075029
 20
40.84890908327772
 30
0.0
 40
15.24
  1
326
 50
90.00065433529458
 41
1.083333333333333
  7
ＭＳ ゴシック
100
AcDbText
  0
LWPOLYLINE
  5
6A
330
1F
100
AcDbEntity
  8
0-4
  6
Continuous
 62
     7
370
     9
100
AcDbPolyline
 90
        4
 70
     1
 43
0.5
 10
-600.5976051124367
 20
306.9996766786318
 42
0.4142135623731
 10
-600.8476051124367
 20
307.2496766786318
 42
0.4142135623731
 10
-601.0976051124367
 20
306.9996766786318
 42
0.4142135623731
 10
-600.8476051124367
 20
306.7496766786318
 42
0.4142135623731
  0
LWPOLYLINE
  5
6B
330
1F
100
AcDbEntity
  8
0-4
  6
Continuous
 62
     7
370
     9
100
AcDbPolyline
 90
        4
 70
     1
 43
0.5
 10
-300.5976051124366
 20
306.9996766786318
 42
0.4142135623731
 10
-300.8476051124366
 20
307.2496766786318
 42
0.4142135623731
 10
-301.0976051124366
 20
306.9996766786318
 42
0.4142135623731
 10
-300.8476051124366
 20
306.7496766786318
 42
0.4142135623731
  0
LWPOLYLINE
  5
6C
330
1F
100
AcDbEntity
  8
0-4
  6
Continuous
 62
     7
370
     9
100
AcDbPolyline
 90
        4
 70
     1
 43
0.5
 10
-613.5975366540857
 20
346.4915672508447
 42
0.4142135623731
 10
-613.8475366540856
 20
346.7415672508446
 42
0.4142135623731
 10
-614.0975366540856
 20
346.4915672508447
 42
0.4142135623731
 10
-613.8475366540856
 20
346.2415672508447
 42
0.4142135623731
  0
LWPOLYLINE
  5
6D
330
1F
100
AcDbEntity
  8
0-4
  6
Continuous
 62
     7
370
     9
100
AcDbPolyline
 90
        4
 70
     1
 43
0.5
 10
-287.5976117108319
 20
346.4915672508447
 42
0.4142135623731
 10
-287.8476117108319
 20
346.7415672508446
 42
0.4142135623731
 10
-288.0976117108319
 20
346.4915672508447
 42
0.4142135623731
 10
-287.8476117108319
 20
346.2415672508447
 42
0.4142135623731
  0
LWPOLYLINE
  5
6E
330
1F
100
AcDbEntity
  8
0-4
  6
Continuous
 62
     7
370
     9
100
AcDbPolyline
 90
        4
 70
     1
 43
0.5
 10
-700.496794004698
 20
207.0994361671242
 42
0.4142135623731
 10
-700.746794004698
 20
207.3494361671242
 42
0.4142135623731
 10
-700.9967940046981
 20
207.0994361671242
 42
0.4142135623731
 10
-700.746794004698
 20
206.8494361671242
 42
0.4142135623731
  0
LWPOLYLINE
  5
6F
330
1F
100
AcDbEntity
  8
0-4
  6
Continuous
 62
     7
370
     9
100
AcDbPolyline
 90
        4
 70
     1
 43
0.5
 10
-700.493701006915
 20
-92.90056383287578
 42
0.4142135623731
 10
-700.7437010069151
 20
-92.65056383287578
 42
0.4142135623731
 10
-700.9937010069152
 20
-92.90056383287578
 42
0.4142135623731
 10
-700.7437010069151
 20
-93.15056383287578
 42
0.4142135623731
  0
LWPOLYLINE
  5
70
330
1F
100
AcDbEntity
  8
0-4
  6
Continuous
 62
     7
370
     9
100
AcDbPolyline
 90
        4
 70
     1
 43
0.5
 10
-739.9888082968221
 20
220.0989346890837
 42
0.4142135623731
 10
-740.2388082968221
 20
220.3489346890837
 42
0.4142135623731
 10
-740.4888082968222
 20
220.0989346890837
 42
0.4142135623731
 10
-740.2388082968221
 20
219.8489346890838
 42
0.4142135623731
  0
LWPOLYLINE
  5
71
330
1F
100
AcDbEntity
  8
0-4
  6
Continuous
 62
     7
370
     9
100
AcDbPolyline
 90
        4
 70
     1
 43
0.5
 10
-739.9854678592167
 20
-105.9009902541702
 42
0.4142135623731
 10
-740.2354678592167
 20
-105.6509902541702
 42
0.4142135623731
 10
-740.4854678592167
 20
-105.9009902541702
 42
0.4142135623731
 10
-740.2354678592167
 20
-106.1509902541702
 42
0.4142135623731
  0
LINE
  5
72
330
1F
100
AcDbEntity
  8
0-0
  6
Continuous
 62
     4
370
     9
100
AcDbLine
 10
-312.8475446664228
 20
-80.9010572985791
 30
0.0
 11
-588.8476036984947
 21
-80.9010572985791
 31
0.0
  0
LINE
  5
73
330
1F
100
AcDbEntity
  8
0-0
  6
Continuous
 62
     4
370
     9
100
AcDbLine
 10
-312.8475446664228
 20
195.0990017334928
 30
0.0
 11
-312.8475446664228
 21
-80.9010572985791
 31
0.0
  0
LINE
  5
74
330
1F
100
AcDbEntity
  8
0-0
  6
Continuous
 62
     4
370
     9
100
AcDbLine
 10
-588.8476036984947
 20
195.0990017334928
 30
0.0
 11
-312.8475446664228
 21
195.0990017334928
 31
0.0
  0
LINE
  5
75
330
1F
100
AcDbEntity
  8
0-0
  6
Continuous
 62
     4
370
     9
100
AcDbLine
 10
-588.8476036984947
 20
-80.9010572985791
 30
0.0
 11
-588.8476036984947
 21
195.0990017334928
 31
0.0
  0
LINE
  5
76
330
1F
100
AcDbEntity
  8
0-0
  6
Continuous
 62
     4
370
     9
100
AcDbLine
 10
-600.847619958826
 20
-92.90102106631934
 30
0.0
 11
-600.8476199588259
 21
207.0990179938241
 31
0.0
  0
LINE
  5
77
330
1F
100
AcDbEntity
  8
0-0
  6
Continuous
 62
     4
370
     9
100
AcDbLine
 10
-300.8475808986825
 20
-92.90102106631934
 30
0.0
 11
-600.847619958826
 21
-92.90102106631934
 31
0.0
  0
LINE
  5
78
330
1F
100
AcDbEntity
  8
0-0
  6
Continuous
 62
     4
370
     9
100
AcDbLine
 10
-300.8475808986825
 20
207.0990179938239
 30
0.0
 11
-300.8475808986825
 21
-92.90102106631934
 31
0.0
  0
LINE
  5
79
330
1F
100
AcDbEntity
  8
0-0
  6
Continuous
 62
     4
370
     9
100
AcDbLine
 10
-600.8476199588259
 20
207.0990179938241
 30
0.0
 11
-300.8475808986825
 21
207.0990179938239
 31
0.0
  0
LINE
  5
7A
330
1F
100
AcDbEntity
  8
0-0
  6
Continuous
 62
     4
370
     9
100
AcDbLine
 10
-598.3475028373098
 20
204.5990058574898
 30
0.0
 11
-303.3475930350166
 21
204.5990058574898
 31
0.0
  0
LINE
  5
7B
330
1F
100
AcDbEntity
  8
0-0
  6
Continuous
 62
     4
370
     9
100
AcDbLine
 10
-598.3475028373099
 20
-90.40100892998531
 30
0.0
 11
-598.3475028373098
 21
204.5990058574898
 31
0.0
  0
LINE
  5
7C
330
1F
100
AcDbEntity
  8
0-0
  6
Continuous
 62
     4
370
     9
100
AcDbLine
 10
-303.3475930350167
 20
-90.40100892998531
 30
0.0
 11
-598.3475028373099
 21
-90.40100892998531
 31
0.0
  0
LINE
  5
7D
330
1F
100
AcDbEntity
  8
0-0
  6
Continuous
 62
     4
370
     9
100
AcDbLine
 10
-303.3475930350166
 20
204.5990058574898
 30
0.0
 11
-303.3475930350167
 21
-90.40100892998531
 31
0.0
  0
LINE
  5
7E
330
1F
100
AcDbEntity
  8
0-0
  6
Continuous
 62
     4
370
     9
100
AcDbLine
 10
-591.347510849647
 20
197.599013869827
 30
0.0
 11
-310.3475325300886
 21
197.5990138698269
 31
0.0
  0
LINE
  5
7F
330
1F
100
AcDbEntity
  8
0-0
  6
Continuous
 62
     4
370
     9
100
AcDbLine
 10
-591.3475108496472
 20
-83.40106943491335
 30
0.0
 11
-591.347510849647
 21
197.599013869827
 31
0.0
  0
LINE
  5
80
330
1F
100
AcDbEntity
  8
0-0
  6
Continuous
 62
     4
370
     9
100
AcDbLine
 10
-310.3475325300886
 20
-83.40106943491335
 30
0.0
 11
-591.3475108496472
 21
-83.40106943491335
 31
0.0
  0
LINE
  5
81
330
1F
100
AcDbEntity
  8
0-0
  6
Continuous
 62
     4
370
     9
100
AcDbLine
 10
-310.3475325300886
 20
197.5990138698269
 30
0.0
 11
-310.3475325300886
 21
-83.40106943491335
 31
0.0
  0
LINE
  5
82
330
1F
100
AcDbEntity
  8
0-1
  6
Continuous
 62
     2
370
     9
100
AcDbLine
 10
-601.8474988311414
 20
208.0990018513214
 30
0.0
 11
-299.8475445485943
 21
208.0990018513214
 31
0.0
  0
LINE
  5
83
330
1F
100
AcDbEntity
  8
0-1
  6
Continuous
 62
     2
370
     9
100
AcDbLine
 10
-613.8475150914725
 20
220.0989131264707
 30
0.0
 11
-287.847580780854
 21
220.0989131264706
 31
0.0
  0
LINE
  5
84
330
1F
100
AcDbEntity
  8
0-1
  6
Continuous
 62
     2
370
     9
100
AcDbLine
 10
-601.8474988311414
 20
-93.90105741640767
 30
0.0
 11
-601.8474988311414
 21
208.0990018513214
 31
0.0
  0
LINE
  5
85
330
1F
100
AcDbEntity
  8
0-1
  6
Continuous
 62
     2
370
     9
100
AcDbLine
 10
-613.8475150914725
 20
-105.9010211841479
 30
0.0
 11
-613.8475150914725
 21
220.0989131264707
 31
0.0
  0
LINE
  5
86
330
1F
100
AcDbEntity
  8
0-1
  6
Continuous
 62
     2
370
     9
100
AcDbLine
 10
-299.8475445485943
 20
-93.90105741640767
 30
0.0
 11
-601.8474988311414
 21
-93.90105741640767
 31
0.0
  0
LINE
  5
87
330
1F
100
AcDbEntity
  8
0-1
  6
Continuous
 62
     2
370
     9
100
AcDbLine
 10
-299.8475445485943
 20
208.0990018513214
 30
0.0
 11
-299.8475445485943
 21
-93.90105741640767
 31
0.0
  0
LINE
  5
88
330
1F
100
AcDbEntity
  8
0-1
  6
Continuous
 62
     2
370
     9
100
AcDbLine
 10
-287.847580780854
 20
220.0989131264706
 30
0.0
 11
-287.847580780854
 21
-105.9010211841479
 31
0.0
  0
LINE
  5
89
330
1F
100
AcDbEntity
  8
0-1
  6
Continuous
 62
     2
370
     9
100
AcDbLine
 10
-287.847580780854
 20
-105.9010211841479
 30
0.0
 11
-613.8475150914725
 21
-105.9010211841479
 31
0.0
  0
LINE
  5
8A
330
1F
100
AcDbEntity
  8
0-1
  6
Continuous
 62
     2
370
     9
100
AcDbLine
 10
-611.3473979699565
 20
217.5989009901365
 30
0.0
 11
-290.3475929171882
 21
217.5989009901365
 31
0.0
  0
LINE
  5
8B
330
1F
100
AcDbEntity
  8
0-1
  6
Continuous
 62
     2
370
     9
100
AcDbLine
 10
-290.3475929171882
 20
217.5989009901365
 30
0.0
 11
-290.3475929171882
 21
-103.4010090478137
 31
0.0
  0
LINE
  5
8C
330
1F
100
AcDbEntity
  8
0-1
  6
Continuous
 62
     2
370
     9
100
AcDbLine
 10
-290.3475929171882
 20
-103.4010090478137
 30
0.0
 11
-611.3473979699565
 21
-103.4010090478137
 31
0.0
  0
LINE
  5
8D
330
1F
100
AcDbEntity
  8
0-1
  6
Continuous
 62
     2
370
     9
100
AcDbLine
 10
-611.3473979699565
 20
-103.4010090478137
 30
0.0
 11
-611.3473979699565
 21
217.5989009901365
 31
0.0
  0
LINE
  5
8E
330
1F
100
AcDbEntity
  8
0-1
  6
Continuous
 62
     2
370
     9
100
AcDbLine
 10
-604.3474059822936
 20
-96.40106955274177
 30
0.0
 11
-604.3474059822936
 21
210.5990139876555
 31
0.0
  0
LINE
  5
8F
330
1F
100
AcDbEntity
  8
0-1
  6
Continuous
 62
     2
370
     9
100
AcDbLine
 10
-604.3474059822936
 20
210.5990139876555
 30
0.0
 11
-297.3475324122601
 21
210.5990139876555
 31
0.0
  0
LINE
  5
90
330
1F
100
AcDbEntity
  8
0-1
  6
Continuous
 62
     2
370
     9
100
AcDbLine
 10
-297.3475324122601
 20
-96.40106955274177
 30
0.0
 11
-604.3474059822936
 21
-96.40106955274177
 31
0.0
  0
LINE
  5
91
330
1F
100
AcDbEntity
  8
0-1
  6
Continuous
 62
     2
370
     9
100
AcDbLine
 10
-297.3475324122601
 20
210.5990139876555
 30
0.0
 11
-297.3475324122601
 21
-96.40106955274177
 31
0.0
  0
LINE
  5
92
330
1F
100
AcDbEntity
  8
0-1
  6
Continuous
 62
     2
370
     9
100
AcDbLine
 10
-299.8475445485943
 20
-93.90105741640767
 30
0.0
 11
-287.847580780854
 21
-105.9010211841479
 31
0.0
  0
LINE
  5
93
330
1F
100
AcDbEntity
  8
0-1
  6
Continuous
 62
     2
370
     9
100
AcDbLine
 10
-601.8474988311414
 20
-93.90105741640767
 30
0.0
 11
-613.8475150914725
 21
-105.9010211841479
 31
0.0
  0
LINE
  5
94
330
1F
100
AcDbEntity
  8
0-1
  6
Continuous
 62
     2
370
     9
100
AcDbLine
 10
-601.8474988311414
 20
208.0990018513214
 30
0.0
 11
-613.8475150914725
 21
220.0989131264707
 31
0.0
  0
LINE
  5
95
330
1F
100
AcDbEntity
  8
0-1
  6
Continuous
 62
     2
370
     9
100
AcDbLine
 10
-299.8475445485943
 20
208.0990018513214
 30
0.0
 11
-287.847580780854
 21
220.0989131264706
 31
0.0
  0
LINE
  5
96
330
1F
100
AcDbEntity
  8
0-1
  6
JWW_CENTER1
 62
     2
370
     9
100
AcDbLine
 10
-390.8475453733937
 20
178.2308225889466
 30
0.0
 11
-390.8475453733937
 21
207.5233156064303
 31
0.0
  0
LINE
  5
97
330
1F
100
AcDbEntity
  8
0-A
  6
JWW_DASHED1
 62
     2
370
     9
100
AcDbLine
 10
-506.7475116980121
 20
207.0990179938241
 30
0.0
 11
-506.7475116980121
 21
206.7989703439839
 31
0.0
  0
LINE
  5
98
330
1F
100
AcDbEntity
  8
0-A
  6
JWW_DASHED1
 62
     2
370
     9
100
AcDbLine
 10
-508.7976623299498
 20
204.74902968241
 30
0.0
 11
-506.7475116980121
 21
206.7989703439839
 31
0.0
  0
LINE
  5
99
330
1F
100
AcDbEntity
  8
0-A
  6
JWW_DASHED1
 62
     2
370
     9
100
AcDbLine
 10
-512.8975436530978
 20
204.74902968241
 30
0.0
 11
-508.7976623299498
 21
204.74902968241
 31
0.0
  0
LINE
  5
9A
330
1F
100
AcDbEntity
  8
0-A
  6
JWW_DASHED1
 62
     2
370
     9
100
AcDbLine
 10
-512.8975436530978
 20
204.74902968241
 30
0.0
 11
-514.9474843146718
 21
206.7989703439839
 31
0.0
  0
LINE
  5
9B
330
1F
100
AcDbEntity
  8
0-A
  6
JWW_DASHED1
 62
     2
370
     9
100
AcDbLine
 10
-506.7475116980121
 20
206.7989703439839
 30
0.0
 11
-514.9474843146718
 21
206.7989703439839
 31
0.0
  0
LINE
  5
9C
330
1F
100
AcDbEntity
  8
0-A
  6
JWW_DASHED1
 62
     2
370
     9
100
AcDbLine
 10
-514.9474843146718
 20
207.0990179938241
 30
0.0
 11
-514.9474843146718
 21
206.7989703439839
 31
0.0
  0
LINE
  5
9D
330
1F
100
AcDbEntity
  8
0-A
  6
JWW_DASHED1
 62
     2
370
     9
100
AcDbLine
 10
-508.7976623299498
 20
204.74902968241
 30
0.0
 11
-508.7976623299498
 21
198.7656092109829
 31
0.0
  0
LINE
  5
9E
330
1F
100
AcDbEntity
  8
0-A
  6
JWW_DASHED1
 62
     2
370
     9
100
AcDbLine
 10
-512.8975436530978
 20
204.74902968241
 30
0.0
 11
-512.8975436530978
 21
198.7656092109829
 31
0.0
  0
LINE
  5
9F
330
1F
100
AcDbEntity
  8
0-A
  6
JWW_DASHED1
 62
     2
370
     9
100
AcDbLine
 10
-512.8975436530978
 20
198.7656092109829
 30
0.0
 11
-510.8476029915238
 21
182.0990016156642
 31
0.0
  0
LINE
  5
A0
330
1F
100
AcDbEntity
  8
0-A
  6
JWW_DASHED1
 62
     2
370
     9
100
AcDbLine
 10
-510.8476029915238
 20
182.0990016156642
 30
0.0
 11
-508.7976623299498
 21
198.7656092109829
 31
0.0
  0
LINE
  5
A1
330
1F
100
AcDbEntity
  8
0-A
  6
JWW_DASHED1
 62
     2
370
     9
100
AcDbLine
 10
-511.5253873258024
 20
183.5130470305337
 30
0.0
 11
-510.139792895225
 21
183.7572425636085
 31
0.0
  0
LINE
  5
A2
330
1F
100
AcDbEntity
  8
0-A
  6
JWW_DASHED1
 62
     2
370
     9
100
AcDbLine
 10
-511.7420767412222
 20
185.2748033678211
 30
0.0
 11
-509.9134448430712
 21
185.5972128614036
 31
0.0
  0
LINE
  5
A3
330
1F
100
AcDbEntity
  8
0-A
  6
JWW_DASHED1
 62
     2
370
     9
100
AcDbLine
 10
-513.2589026491612
 20
197.6073076991962
 30
0.0
 11
-508.3294284187228
 21
198.4765850052412
 31
0.0
  0
LINE
  5
A4
330
1F
100
AcDbEntity
  8
0-A
  6
JWW_DASHED1
 62
     2
370
     9
100
AcDbLine
 10
-513.0422132337414
 20
195.8455513619089
 30
0.0
 11
-508.5555665005127
 21
196.6366147074461
 31
0.0
  0
LINE
  5
A5
330
1F
100
AcDbEntity
  8
0-A
  6
JWW_DASHED1
 62
     2
370
     9
100
AcDbLine
 10
-512.8255238183216
 20
194.0837950246215
 30
0.0
 11
-508.7819145526664
 21
194.796749394833
 31
0.0
  0
LINE
  5
A6
330
1F
100
AcDbEntity
  8
0-A
  6
JWW_DASHED1
 62
     2
370
     9
100
AcDbLine
 10
-512.6088344029017
 20
192.3219337021523
 30
0.0
 11
-509.0082626048202
 21
192.9568840822199
 31
0.0
  0
LINE
  5
A7
330
1F
100
AcDbEntity
  8
0-A
  6
JWW_DASHED1
 62
     2
370
     9
100
AcDbLine
 10
-512.3921449874819
 20
190.560177364865
 30
0.0
 11
-509.2346106569738
 21
191.1169137844249
 31
0.0
  0
LINE
  5
A8
330
1F
100
AcDbEntity
  8
0-A
  6
JWW_DASHED1
 62
     2
370
     9
100
AcDbLine
 10
-512.175455572062
 20
188.7984210275776
 30
0.0
 11
-509.4609587091276
 21
189.2769434866298
 31
0.0
  0
LINE
  5
A9
330
1F
100
AcDbEntity
  8
0-A
  6
JWW_DASHED1
 62
     2
370
     9
100
AcDbLine
 10
-511.9587661566421
 20
187.0365597051084
 30
0.0
 11
-509.6873067612813
 21
187.4371831591986
 31
0.0
  0
LINE
  5
AA
330
1F
100
AcDbEntity
  8
0-A
  6
JWW_DASHED1
 62
     2
370
     9
100
AcDbLine
 10
-394.9475316817235
 20
207.0990179938241
 30
0.0
 11
-394.9475316817235
 21
206.7989703439839
 31
0.0
  0
LINE
  5
AB
330
1F
100
AcDbEntity
  8
0-A
  6
JWW_DASHED1
 62
     2
370
     9
100
AcDbLine
 10
-392.8974860349676
 20
204.74902968241
 30
0.0
 11
-394.9475316817235
 21
206.7989703439839
 31
0.0
  0
LINE
  5
AC
330
1F
100
AcDbEntity
  8
0-A
  6
JWW_DASHED1
 62
     2
370
     9
100
AcDbLine
 10
-388.7976047118198
 20
204.74902968241
 30
0.0
 11
-392.8974860349676
 21
204.74902968241
 31
0.0
  0
LINE
  5
AD
330
1F
100
AcDbEntity
  8
0-A
  6
JWW_DASHED1
 62
     2
370
     9
100
AcDbLine
 10
-388.7976047118198
 20
204.74902968241
 30
0.0
 11
-386.7475590650639
 21
206.7989703439839
 31
0.0
  0
LINE
  5
AE
330
1F
100
AcDbEntity
  8
0-A
  6
JWW_DASHED1
 62
     2
370
     9
100
AcDbLine
 10
-394.9475316817235
 20
206.7989703439839
 30
0.0
 11
-386.7475590650639
 21
206.7989703439839
 31
0.0
  0
LINE
  5
AF
330
1F
100
AcDbEntity
  8
0-A
  6
JWW_DASHED1
 62
     2
370
     9
100
AcDbLine
 10
-386.7475590650639
 20
207.0990179938241
 30
0.0
 11
-386.7475590650639
 21
206.7989703439839
 31
0.0
  0
LINE
  5
B0
330
1F
100
AcDbEntity
  8
0-A
  6
JWW_DASHED1
 62
     2
370
     9
100
AcDbLine
 10
-392.8974860349676
 20
204.74902968241
 30
0.0
 11
-392.8974860349676
 21
198.7656092109829
 31
0.0
  0
LINE
  5
B1
330
1F
100
AcDbEntity
  8
0-A
  6
JWW_DASHED1
 62
     2
370
     9
100
AcDbLine
 10
-388.7976047118198
 20
204.74902968241
 30
0.0
 11
-388.7976047118198
 21
198.7656092109829
 31
0.0
  0
LINE
  5
B2
330
1F
100
AcDbEntity
  8
0-A
  6
JWW_DASHED1
 62
     2
370
     9
100
AcDbLine
 10
-388.7976047118198
 20
198.7656092109829
 30
0.0
 11
-390.8475453733937
 21
182.0990016156642
 31
0.0
  0
LINE
  5
B3
330
1F
100
AcDbEntity
  8
0-A
  6
JWW_DASHED1
 62
     2
370
     9
100
AcDbLine
 10
-390.8475453733937
 20
182.0990016156642
 30
0.0
 11
-392.8974860349676
 21
198.7656092109829
 31
0.0
  0
LINE
  5
B4
330
1F
100
AcDbEntity
  8
0-A
  6
JWW_DASHED1
 62
     2
370
     9
100
AcDbLine
 10
-390.1697610391153
 20
183.5130470305337
 30
0.0
 11
-391.5553554696925
 21
183.7572425636085
 31
0.0
  0
LINE
  5
B5
330
1F
100
AcDbEntity
  8
0-A
  6
JWW_DASHED1
 62
     2
370
     9
100
AcDbLine
 10
-389.9530716236953
 20
185.2748033678211
 30
0.0
 11
-391.7815985366644
 21
185.5972128614036
 31
0.0
  0
LINE
  5
B6
330
1F
100
AcDbEntity
  8
0-A
  6
JWW_DASHED1
 62
     2
370
     9
100
AcDbLine
 10
-388.4362457157562
 20
197.6073076991962
 30
0.0
 11
-393.3657199461947
 21
198.4765850052412
 31
0.0
  0
LINE
  5
B7
330
1F
100
AcDbEntity
  8
0-A
  6
JWW_DASHED1
 62
     2
370
     9
100
AcDbLine
 10
-388.652935131176
 20
195.8455513619089
 30
0.0
 11
-393.1394768792229
 21
196.6366147074461
 31
0.0
  0
LINE
  5
B8
330
1F
100
AcDbEntity
  8
0-A
  6
JWW_DASHED1
 62
     2
370
     9
100
AcDbLine
 10
-388.8696245465959
 20
194.0837950246215
 30
0.0
 11
-392.9132338122511
 21
194.796749394833
 31
0.0
  0
LINE
  5
B9
330
1F
100
AcDbEntity
  8
0-A
  6
JWW_DASHED1
 62
     2
370
     9
100
AcDbLine
 10
-389.0863139620158
 20
192.3219337021523
 30
0.0
 11
-392.6868857600973
 21
192.9568840822199
 31
0.0
  0
LINE
  5
BA
330
1F
100
AcDbEntity
  8
0-A
  6
JWW_DASHED1
 62
     2
370
     9
100
AcDbLine
 10
-389.3030033774357
 20
190.560177364865
 30
0.0
 11
-392.4605377079437
 21
191.1169137844249
 31
0.0
  0
LINE
  5
BB
330
1F
100
AcDbEntity
  8
0-A
  6
JWW_DASHED1
 62
     2
370
     9
100
AcDbLine
 10
-389.5196927928556
 20
188.7984210275776
 30
0.0
 11
-392.2341896557899
 21
189.2769434866298
 31
0.0
  0
LINE
  5
BC
330
1F
100
AcDbEntity
  8
0-A
  6
JWW_DASHED1
 62
     2
370
     9
100
AcDbLine
 10
-389.7363822082755
 20
187.0365597051084
 30
0.0
 11
-392.0078416036363
 21
187.4371831591986
 31
0.0
  0
LINE
  5
BD
330
1F
100
AcDbEntity
  8
0-1
  6
JWW_CENTER1
 62
     2
370
     9
100
AcDbLine
 10
-572.8474945304016
 20
-36.54985723900509
 30
0.0
 11
-572.8474945304016
 21
-48.84257218644414
 31
0.0
  0
LINE
  5
BE
330
1F
100
AcDbEntity
  8
0-1
  6
JWW_CENTER1
 62
     2
370
     9
100
AcDbLine
 10
-566.8448617706886
 20
-42.90104080259098
 30
0.0
 11
-579.1375767181279
 21
-42.90104080259098
 31
0.0
  0
LINE
  5
BF
330
1F
100
AcDbEntity
  8
0-1
  6
JWW_CENTER1
 62
     2
370
     9
100
AcDbLine
 10
-572.8474945304016
 20
150.7478016739188
 30
0.0
 11
-572.8474945304016
 21
163.0405166213578
 31
0.0
  0
LINE
  5
C0
330
1F
100
AcDbEntity
  8
0-1
  6
JWW_CENTER1
 62
     2
370
     9
100
AcDbLine
 10
-566.8448617706886
 20
157.0989852375047
 30
0.0
 11
-579.1375767181279
 21
157.0989852375047
 31
0.0
  0
LINE
  5
C1
330
1F
100
AcDbEntity
  8
0-3
  6
Continuous
 62
     3
370
     9
100
AcDbLine
 10
-579.3475470819068
 20
-71.40094818940021
 30
0.0
 11
-579.3475470819068
 21
185.598892624314
 31
0.0
  0
LINE
  5
C2
330
1F
100
AcDbEntity
  8
0-3
  6
Continuous
 62
     3
370
     9
100
AcDbLine
 10
-322.3476012830108
 20
-71.40094818940021
 30
0.0
 11
-579.3475470819068
 21
-71.40094818940021
 31
0.0
  0
LINE
  5
C3
330
1F
100
AcDbEntity
  8
0-3
  6
Continuous
 62
     3
370
     9
100
AcDbLine
 10
-322.3476012830108
 20
185.598892624314
 30
0.0
 11
-322.3476012830108
 21
-71.40094818940021
 31
0.0
  0
LINE
  5
C4
330
1F
100
AcDbEntity
  8
0-3
  6
Continuous
 62
     3
370
     9
100
AcDbLine
 10
-579.3475470819068
 20
185.598892624314
 30
0.0
 11
-322.3476012830108
 21
185.598892624314
 31
0.0
  0
LINE
  5
C5
330
1F
100
AcDbEntity
  8
0-0
  6
Continuous
 62
     4
370
     9
100
AcDbLine
 10
-579.8474865180644
 20
-71.90094011814885
 30
0.0
 11
-579.8474865180644
 21
186.0988845530625
 31
0.0
  0
LINE
  5
C6
330
1F
100
AcDbEntity
  8
0-0
  6
Continuous
 62
     4
370
     9
100
AcDbLine
 10
-579.8474865180644
 20
186.0988845530625
 30
0.0
 11
-321.8476093542621
 21
186.0988845530625
 31
0.0
  0
LINE
  5
C7
330
1F
100
AcDbEntity
  8
0-0
  6
Continuous
 62
     4
370
     9
100
AcDbLine
 10
-600.8476199588259
 20
207.0990179938241
 30
0.0
 11
-579.8474865180644
 21
186.0988845530625
 31
0.0
  0
LINE
  5
C8
330
1F
100
AcDbEntity
  8
0-0
  6
Continuous
 62
     4
370
     9
100
AcDbLine
 10
-600.847619958826
 20
-92.90102106631934
 30
0.0
 11
-579.8474865180644
 21
-71.90094011814885
 31
0.0
  0
LINE
  5
C9
330
1F
100
AcDbEntity
  8
0-0
  6
Continuous
 62
     4
370
     9
100
AcDbLine
 10
-321.8476093542621
 20
-71.90094011814885
 30
0.0
 11
-579.8474865180644
 21
-71.90094011814885
 31
0.0
  0
LINE
  5
CA
330
1F
100
AcDbEntity
  8
0-0
  6
Continuous
 62
     4
370
     9
100
AcDbLine
 10
-321.8476093542621
 20
-71.90099261073982
 30
0.0
 11
-300.8475808986825
 21
-92.90102106631934
 31
0.0
  0
LINE
  5
CB
330
1F
100
AcDbEntity
  8
0-0
  6
Continuous
 62
     4
370
     9
100
AcDbLine
 10
-321.8476093542621
 20
186.0988845530625
 30
0.0
 11
-300.8475808986825
 21
207.0990179938239
 31
0.0
  0
LINE
  5
CC
330
1F
100
AcDbEntity
  8
0-0
  6
Continuous
 62
     4
370
     9
100
AcDbLine
 10
-321.8476093542621
 20
186.0988845530625
 30
0.0
 11
-321.8476093542621
 21
-71.90099261073982
 31
0.0
  0
LINE
  5
CD
330
1F
100
AcDbEntity
  8
0-1
  6
JWW_CENTER1
 62
     2
370
     9
100
AcDbLine
 10
-572.8474945304016
 20
63.45015578104281
 30
0.0
 11
-572.8474945304016
 21
51.15744083360369
 31
0.0
  0
LINE
  5
CE
330
1F
100
AcDbEntity
  8
0-1
  6
JWW_CENTER1
 62
     2
370
     9
100
AcDbLine
 10
-510.8476029915238
 20
178.2308225889466
 30
0.0
 11
-510.8476029915238
 21
207.5233156064303
 31
0.0
  0
LINE
  5
CF
330
1F
100
AcDbEntity
  8
0-1
  6
JWW_CENTER1
 62
     2
370
     9
100
AcDbLine
 10
-357.1987447259968
 20
-64.900948130486
 30
0.0
 11
-344.9060297785577
 21
-64.900948130486
 31
0.0
  0
LINE
  5
D0
330
1F
100
AcDbEntity
  8
0-1
  6
JWW_CENTER1
 62
     2
370
     9
100
AcDbLine
 10
-350.847561162411
 20
-58.89831537077306
 30
0.0
 11
-350.847561162411
 21
-71.19103031821219
 31
0.0
  0
LINE
  5
D1
330
1F
100
AcDbEntity
  8
0-1
  6
JWW_CENTER1
 62
     2
370
     9
100
AcDbLine
 10
-544.4964036389207
 20
-64.900948130486
 30
0.0
 11
-556.7891185863597
 21
-64.900948130486
 31
0.0
  0
LINE
  5
D2
330
1F
100
AcDbEntity
  8
0-1
  6
JWW_CENTER1
 62
     2
370
     9
100
AcDbLine
 10
-550.8475872025066
 20
-58.89831537077306
 30
0.0
 11
-550.8475872025066
 21
-71.19103031821219
 31
0.0
  0
LINE
  5
D3
330
1F
100
AcDbEntity
  8
0-1
  6
JWW_CENTER1
 62
     2
370
     9
100
AcDbLine
 10
-457.1987577460447
 20
-64.900948130486
 30
0.0
 11
-444.9060427986057
 21
-64.900948130486
 31
0.0
  0
LINE
  5
D4
330
1F
100
AcDbEntity
  8
0-1
  6
JWW_CENTER1
 62
     2
370
     9
100
AcDbLine
 10
-328.8476538345159
 20
150.7478016739186
 30
0.0
 11
-328.8476538345159
 21
163.0405166213578
 31
0.0
  0
LINE
  5
D5
330
1F
100
AcDbEntity
  8
0-1
  6
JWW_CENTER1
 62
     2
370
     9
100
AcDbLine
 10
-334.8502865942288
 20
157.0989852375047
 30
0.0
 11
-322.5575716467897
 21
157.0989852375047
 31
0.0
  0
LINE
  5
D6
330
1F
100
AcDbEntity
  8
0-1
  6
JWW_CENTER1
 62
     2
370
     9
100
AcDbLine
 10
-328.8476538345159
 20
-36.54985723900509
 30
0.0
 11
-328.8476538345159
 21
-48.84257218644414
 31
0.0
  0
LINE
  5
D7
330
1F
100
AcDbEntity
  8
0-1
  6
JWW_CENTER1
 62
     2
370
     9
100
AcDbLine
 10
-334.8502865942288
 20
-42.90104080259098
 30
0.0
 11
-322.5575716467897
 21
-42.90104080259098
 31
0.0
  0
LINE
  5
D8
330
1F
100
AcDbEntity
  8
0-1
  6
JWW_CENTER1
 62
     2
370
     9
100
AcDbLine
 10
-328.8476538345159
 20
50.74778865387088
 30
0.0
 11
-328.8476538345159
 21
63.04050360130994
 31
0.0
  0
LINE
  5
D9
330
1F
100
AcDbEntity
  8
0-1
  6
JWW_CENTER1
 62
     2
370
     9
100
AcDbLine
 10
-544.4964036389207
 20
179.0988925653997
 30
0.0
 11
-556.7891185863597
 21
179.0988925653997
 31
0.0
  0
LINE
  5
DA
330
1F
100
AcDbEntity
  8
0-1
  6
JWW_CENTER1
 62
     2
370
     9
100
AcDbLine
 10
-550.8475872025066
 20
173.0962598056868
 30
0.0
 11
-550.8475872025066
 21
185.388974753126
 31
0.0
  0
LINE
  5
DB
330
1F
100
AcDbEntity
  8
0-1
  6
JWW_CENTER1
 62
     2
370
     9
100
AcDbLine
 10
-357.1987447259968
 20
179.0988925653997
 30
0.0
 11
-344.9060297785577
 21
179.0988925653997
 31
0.0
  0
LINE
  5
DC
330
1F
100
AcDbEntity
  8
0-1
  6
JWW_CENTER1
 62
     2
370
     9
100
AcDbLine
 10
-350.847561162411
 20
173.0962598056868
 30
0.0
 11
-350.847561162411
 21
185.388974753126
 31
0.0
  0
LINE
  5
DD
330
1F
100
AcDbEntity
  8
0-1
  6
JWW_CENTER1
 62
     2
370
     9
100
AcDbLine
 10
-444.4963906188729
 20
179.0988925653997
 30
0.0
 11
-456.7891055663119
 21
179.0988925653997
 31
0.0
  0
CIRCLE
  5
DE
330
1F
100
AcDbEntity
  8
0-1
  6
JWW_DASHED1
 62
     2
370
     9
100
AcDbCircle
 10
-572.8474945304016
 20
-42.90104080259098
 30
0.0
 40
1.999999907716361
  0
CIRCLE
  5
DF
330
1F
100
AcDbEntity
  8
0-1
  6
JWW_DASHED1
 62
     2
370
     9
100
AcDbCircle
 10
-572.8474945304016
 20
157.0989852375047
 30
0.0
 40
1.999999907716361
  0
CIRCLE
  5
E0
330
1F
100
AcDbEntity
  8
0-1
  6
JWW_DASHED1
 62
     2
370
     9
100
AcDbCircle
 10
-572.8474945304016
 20
57.09897221745678
 30
0.0
 40
1.999999907716361
  0
CIRCLE
  5
E1
330
1F
100
AcDbEntity
  8
0-1
  6
JWW_DASHED1
 62
     2
370
     9
100
AcDbCircle
 10
-350.847561162411
 20
-64.900948130486
 30
0.0
 40
1.999999907716361
  0
CIRCLE
  5
E2
330
1F
100
AcDbEntity
  8
0-1
  6
JWW_DASHED1
 62
     2
370
     9
100
AcDbCircle
 10
-550.8475872025066
 20
-64.900948130486
 30
0.0
 40
1.999999907716361
  0
CIRCLE
  5
E3
330
1F
100
AcDbEntity
  8
0-1
  6
JWW_DASHED1
 62
     2
370
     9
100
AcDbCircle
 10
-450.8475741824588
 20
-64.900948130486
 30
0.0
 40
1.999999907716361
  0
CIRCLE
  5
E4
330
1F
100
AcDbEntity
  8
0-1
  6
JWW_DASHED1
 62
     2
370
     9
100
AcDbCircle
 10
-328.8476538345159
 20
157.0989852375047
 30
0.0
 40
1.999999907716361
  0
CIRCLE
  5
E5
330
1F
100
AcDbEntity
  8
0-1
  6
JWW_DASHED1
 62
     2
370
     9
100
AcDbCircle
 10
-328.8476538345159
 20
-42.90104080259098
 30
0.0
 40
1.999999907716361
  0
CIRCLE
  5
E6
330
1F
100
AcDbEntity
  8
0-1
  6
JWW_DASHED1
 62
     2
370
     9
100
AcDbCircle
 10
-328.8476538345159
 20
57.09897221745678
 30
0.0
 40
1.999999907716361
  0
CIRCLE
  5
E7
330
1F
100
AcDbEntity
  8
0-1
  6
JWW_DASHED1
 62
     2
370
     9
100
AcDbCircle
 10
-550.8475872025066
 20
179.0988925653997
 30
0.0
 40
1.999999907716361
  0
CIRCLE
  5
E8
330
1F
100
AcDbEntity
  8
0-1
  6
JWW_DASHED1
 62
     2
370
     9
100
AcDbCircle
 10
-350.847561162411
 20
179.0988925653997
 30
0.0
 40
1.999999907716361
  0
CIRCLE
  5
E9
330
1F
100
AcDbEntity
  8
0-1
  6
JWW_DASHED1
 62
     2
370
     9
100
AcDbCircle
 10
-450.8475741824588
 20
179.0988925653997
 30
0.0
 40
1.999999907716361
  0
LINE
  5
EA
330
1F
100
AcDbEntity
  8
0-0
  6
JWW_CENTER1
 62
     4
370
     9
100
AcDbLine
 10
-450.8475741824588
 20
-125.9010211841479
 30
0.0
 11
-450.8475741824588
 21
240.0989131264706
 31
0.0
  0
LINE
  5
EB
330
1F
100
AcDbEntity
  8
0-0
  6
JWW_CENTER1
 62
     4
370
     9
100
AcDbLine
 10
-267.847580780854
 20
57.09897221745678
 30
0.0
 11
-633.8475150914725
 21
57.09897221745678
 31
0.0
  0
LINE
  5
EC
330
1F
100
AcDbEntity
  8
0-9
  6
JWW_DASHED3
 62
     2
370
     9
100
AcDbLine
 10
-575.8475741824587
 20
-67.90102778254322
 30
0.0
 11
-325.8475741824588
 21
-67.90102778254322
 31
0.0
  0
LINE
  5
ED
330
1F
100
AcDbEntity
  8
0-9
  6
JWW_DASHED3
 62
     2
370
     9
100
AcDbLine
 10
-325.8475741824588
 20
-67.90102778254322
 30
0.0
 11
-325.8475741824588
 21
182.0989722174568
 31
0.0
  0
LINE
  5
EE
330
1F
100
AcDbEntity
  8
0-9
  6
JWW_DASHED3
 62
     2
370
     9
100
AcDbLine
 10
-325.8475741824588
 20
182.0989722174568
 30
0.0
 11
-575.8475741824587
 21
182.0989722174568
 31
0.0
  0
LINE
  5
EF
330
1F
100
AcDbEntity
  8
0-9
  6
JWW_DASHED3
 62
     2
370
     9
100
AcDbLine
 10
-575.8475741824587
 20
182.0989722174568
 30
0.0
 11
-575.8475741824587
 21
-67.90102778254322
 31
0.0
  0
LINE
  5
F0
330
1F
100
AcDbEntity
  8
0-4
  6
Continuous
 62
     7
370
     9
100
AcDbLine
 10
-575.8475741824587
 20
267.5077242464633
 30
0.0
 11
-325.8475741824588
 21
267.5077242464633
 31
0.0
  0
LWPOLYLINE
  5
F1
330
1F
100
AcDbEntity
  8
0-4
  6
Continuous
 62
     7
370
     9
100
AcDbPolyline
 90
        4
 70
     1
 43
0.5
 10
-575.5975741824589
 20
267.5077242464633
 42
0.4142135623731
 10
-575.8475741824587
 20
267.7577242464633
 42
0.4142135623731
 10
-576.0975741824587
 20
267.5077242464633
 42
0.4142135623731
 10
-575.8475741824587
 20
267.2577242464633
 42
0.4142135623731
  0
LWPOLYLINE
  5
F2
330
1F
100
AcDbEntity
  8
0-4
  6
Continuous
 62
     7
370
     9
100
AcDbPolyline
 90
        4
 70
     1
 43
0.5
 10
-325.5975741824588
 20
267.5077242464633
 42
0.4142135623731
 10
-325.8475741824588
 20
267.7577242464633
 42
0.4142135623731
 10
-326.0975741824587
 20
267.5077242464633
 42
0.4142135623731
 10
-325.8475741824588
 20
267.2577242464633
 42
0.4142135623731
  0
TEXT
  5
F3
330
1F
100
AcDbEntity
  8
0-4
  6
Continuous
 62
     2
370
   211
100
AcDbText
 10
-467.0975741824588
 20
273.3277243656726
 30
0.0
 40
15.24
  1
250
 41
1.083333333333333
  7
ＭＳ ゴシック
100
AcDbText
  0
LINE
  5
F4
330
1F
100
AcDbEntity
  8
0-4
  6
Continuous
 62
     7
370
     9
100
AcDbLine
 10
-575.8475741824587
 20
269.0077243060679
 30
0.0
 11
-575.8475741824587
 21
227.6002584921348
 31
0.0
  0
LINE
  5
F5
330
1F
100
AcDbEntity
  8
0-4
  6
Continuous
 62
     7
370
     9
100
AcDbLine
 10
-325.8475741824588
 20
269.0077243060679
 30
0.0
 11
-325.8475741824588
 21
227.6002584921348
 31
0.0
  0
LINE
  5
F6
330
1F
100
AcDbEntity
  8
0-4
  6
Continuous
 62
     7
370
     9
100
AcDbLine
 10
-661.2559937560884
 20
182.0985574491048
 30
0.0
 11
-661.2538065581986
 21
-67.90144254132755
 31
0.0
  0
LWPOLYLINE
  5
F7
330
1F
100
AcDbEntity
  8
0-4
  6
Continuous
 62
     7
370
     9
100
AcDbPolyline
 90
        4
 70
     1
 43
0.5
 10
-661.0059937560884
 20
182.0985574491048
 42
0.4142135623731
 10
-661.2559937560884
 20
182.3485574491048
 42
0.4142135623731
 10
-661.5059937560885
 20
182.0985574491048
 42
0.4142135623731
 10
-661.2559937560884
 20
181.8485574491048
 42
0.4142135623731
  0
LINE
  5
F8
330
1F
100
AcDbEntity
  8
0-4
  6
Continuous
 62
     7
370
     9
100
AcDbLine
 10
-662.7559938156356
 20
182.0985443259169
 30
0.0
 11
-621.3485280032872
 21
182.0989065912043
 31
0.0
  0
LWPOLYLINE
  5
F9
330
1F
100
AcDbEntity
  8
0-4
  6
Continuous
 62
     7
370
     9
100
AcDbPolyline
 90
        4
 70
     1
 43
0.5
 10
-661.0038065581984
 20
-67.90144254132755
 42
0.4142135623731
 10
-661.2538065581986
 20
-67.65144254132755
 42
0.4142135623731
 10
-661.5038065581986
 20
-67.90144254132755
 42
0.4142135623731
 10
-661.2538065581986
 20
-68.15144254132755
 42
0.4142135623731
  0
LINE
  5
FA
330
1F
100
AcDbEntity
  8
0-4
  6
Continuous
 62
     7
370
     9
100
AcDbLine
 10
-662.7538066177458
 20
-67.90145566451542
 30
0.0
 11
-621.3463408053973
 21
-67.901093399228
 31
0.0
  0
TEXT
  5
FB
330
1F
100
AcDbEntity
  8
0-4
  6
Continuous
 62
     2
370
   211
100
AcDbText
 10
-667.0747581082671
 20
40.84850653654259
 30
0.0
 40
15.24
  1
250
 50
90.00050126883222
 41
1.083333333333333
  7
ＭＳ ゴシック
100
AcDbText
  0
LINE
  5
FC
330
1F
100
AcDbEntity
  8
0-0
  6
JWW_DASHED1
 62
   211
370
     5
100
AcDbLine
 10
-567.8474702577332
 20
-59.90081887263571
 30
0.0
 11
-567.8474702577332
 21
174.0987633075494
 31
0.0
  0
LINE
  5
FD
330
1F
100
AcDbEntity
  8
0-0
  6
JWW_DASHED1
 62
   211
370
     5
100
AcDbLine
 10
-567.8474702577332
 20
174.0987633075494
 30
0.0
 11
-333.8477305997753
 21
174.0987633075494
 31
0.0
  0
LINE
  5
FE
330
1F
100
AcDbEntity
  8
0-0
  6
JWW_DASHED1
 62
   211
370
     5
100
AcDbLine
 10
-333.8477305997753
 20
174.0987633075494
 30
0.0
 11
-333.847888077548
 21
-59.90081887263571
 31
0.0
  0
LINE
  5
FF
330
1F
100
AcDbEntity
  8
0-0
  6
JWW_DASHED1
 62
   211
370
     5
100
AcDbLine
 10
-333.847888077548
 20
-59.90081887263571
 30
0.0
 11
-567.8474702577332
 21
-59.90081887263571
 31
0.0
  0
LINE
  5
100
330
1F
100
AcDbEntity
  8
D-4
  6
Continuous
 62
     7
370
     9
100
AcDbLine
 10
523.5165982633023
 20
404.636944313146
 30
0.0
 11
528.5767426361908
 21
416.066932040131
 31
0.0
  0
LINE
  5
101
330
1F
100
AcDbEntity
  8
D-4
  6
Continuous
 62
     7
370
     9
100
AcDbLine
 10
523.5165982633023
 20
404.636944313146
 30
0.0
 11
531.3629150390625
 21
414.3678864980068
 31
0.0
  0
LINE
  5
102
330
1F
100
AcDbEntity
  8
D-0
  6
Continuous
 62
     4
370
     9
100
AcDbLine
 10
507.0497255067568
 20
398.3869855531165
 30
0.0
 11
509.5496100348396
 21
397.1371670089866
 31
0.0
  0
LINE
  5
103
330
1F
100
AcDbEntity
  8
D-0
  6
Continuous
 62
     4
370
     9
100
AcDbLine
 10
509.5496100348396
 20
397.1371670089866
 30
0.0
 11
509.5496100348396
 21
387.1368865771875
 31
0.0
  0
LINE
  5
104
330
1F
100
AcDbEntity
  8
D-0
  6
Continuous
 62
     4
370
     9
100
AcDbLine
 10
497.0499399546031
 20
393.3870927770397
 30
0.0
 11
497.0499399546031
 21
387.1368865771875
 31
0.0
  0
LINE
  5
105
330
1F
100
AcDbEntity
  8
D-0
  6
Continuous
 62
     4
370
     9
100
AcDbLine
 10
502.0497090107688
 20
393.3870927770397
 30
0.0
 11
497.0499399546031
 21
393.3870927770397
 31
0.0
  0
LINE
  5
106
330
1F
100
AcDbEntity
  8
D-0
  6
Continuous
 62
     4
370
     9
100
AcDbLine
 10
502.0497090107688
 20
400.3869179195651
 30
0.0
 11
502.0497090107688
 21
393.3870927770397
 31
0.0
  0
LINE
  5
107
330
1F
100
AcDbEntity
  8
D-0
  6
Continuous
 62
     4
370
     9
100
AcDbLine
 10
502.0497090107688
 20
400.3869179195651
 30
0.0
 11
462.0495770428633
 21
400.3869179195651
 31
0.0
  0
LINE
  5
108
330
1F
100
AcDbEntity
  8
D-0
  6
Continuous
 62
     4
370
     9
100
AcDbLine
 10
467.049840978674
 20
393.3870927770397
 30
0.0
 11
467.049840978674
 21
387.1368865771875
 31
0.0
  0
LINE
  5
109
330
1F
100
AcDbEntity
  8
D-0
  6
Continuous
 62
     4
370
     9
100
AcDbLine
 10
467.049840978674
 20
393.3870927770397
 30
0.0
 11
462.0495770428633
 21
393.3870927770397
 31
0.0
  0
LINE
  5
10A
330
1F
100
AcDbEntity
  8
D-0
  6
Continuous
 62
     4
370
     9
100
AcDbLine
 10
462.0495770428633
 20
400.3869179195651
 30
0.0
 11
462.0495770428633
 21
393.3870927770397
 31
0.0
  0
LINE
  5
10B
330
1F
100
AcDbEntity
  8
D-0
  6
Continuous
 62
     4
370
     9
100
AcDbLine
 10
502.0497090107688
 20
405.3871818553759
 30
0.0
 11
457.0498079866977
 21
405.3871818553759
 31
0.0
  0
LINE
  5
10C
330
1F
100
AcDbEntity
  8
D-0
  6
Continuous
 62
     4
370
     9
100
AcDbLine
 10
457.0498079866977
 20
405.3871818553759
 30
0.0
 11
457.0498079866977
 21
399.137099375435
 31
0.0
  0
LINE
  5
10D
330
1F
100
AcDbEntity
  8
D-0
  6
Continuous
 62
     4
370
     9
100
AcDbLine
 10
457.0498079866977
 20
394.1369591595355
 30
0.0
 11
457.0498079866977
 21
387.1368865771875
 31
0.0
  0
LINE
  5
10E
330
1F
100
AcDbEntity
  8
D-0
  6
Continuous
 62
     4
370
     9
100
AcDbLine
 10
509.5496100348396
 20
387.1368865771875
 30
0.0
 11
497.0499399546031
 21
387.1368865771875
 31
0.0
  0
LINE
  5
10F
330
1F
100
AcDbEntity
  8
D-0
  6
Continuous
 62
     4
370
     9
100
AcDbLine
 10
467.049840978674
 20
387.1368865771875
 30
0.0
 11
457.0498079866977
 21
387.1368865771875
 31
0.0
  0
LINE
  5
110
330
1F
100
AcDbEntity
  8
D-1
  6
Continuous
 62
     2
370
     9
100
AcDbLine
 10
535.7995110589106
 20
454.6369855531165
 30
0.0
 11
542.0495935388516
 21
450.8870350410811
 31
0.0
  0
LINE
  5
111
330
1F
100
AcDbEntity
  8
D-1
  6
Continuous
 62
     2
370
     9
100
AcDbLine
 10
542.0495935388516
 20
450.8870350410811
 30
0.0
 11
542.0495935388516
 21
449.6370927770397
 31
0.0
  0
LINE
  5
112
330
1F
100
AcDbEntity
  8
D-5
  6
Continuous
 62
     7
370
     9
100
AcDbLine
 10
449.5496595228042
 20
387.1368865771875
 30
0.0
 11
449.5496595228042
 21
384.6371257690162
 31
0.0
  0
LINE
  5
113
330
1F
100
AcDbEntity
  8
D-5
  6
Continuous
 62
     7
370
     9
100
AcDbLine
 10
509.5496100348396
 20
387.1368865771875
 30
0.0
 11
509.5496100348396
 21
384.6371257690162
 31
0.0
  0
LINE
  5
114
330
1F
100
AcDbEntity
  8
D-5
  6
Continuous
 62
     7
370
     9
100
AcDbLine
 10
493.2997420027451
 20
378.3871670089866
 30
0.0
 11
493.2997420027451
 21
375.9988778409122
 31
0.0
  0
LINE
  5
115
330
1F
100
AcDbEntity
  8
D-5
  6
Continuous
 62
     7
370
     9
100
AcDbLine
 10
465.7997749947214
 20
378.3871670089866
 30
0.0
 11
465.7997749947214
 21
375.9988778409122
 31
0.0
  0
LINE
  5
116
330
1F
100
AcDbEntity
  8
D-5
  6
Continuous
 62
     7
370
     9
100
AcDbLine
 10
490.1745770428633
 20
384.6371257690162
 30
0.0
 11
490.1745770428633
 21
378.3871670089866
 31
0.0
  0
LINE
  5
117
330
1F
100
AcDbEntity
  8
D-5
  6
Continuous
 62
     7
370
     9
100
AcDbLine
 10
493.2997420027451
 20
378.3871670089866
 30
0.0
 11
490.1745770428633
 21
378.3871670089866
 31
0.0
  0
LINE
  5
118
330
1F
100
AcDbEntity
  8
D-5
  6
Continuous
 62
     7
370
     9
100
AcDbLine
 10
468.9246925147805
 20
384.6371257690162
 30
0.0
 11
468.9246925147805
 21
378.3871670089866
 31
0.0
  0
LINE
  5
119
330
1F
100
AcDbEntity
  8
D-5
  6
Continuous
 62
     7
370
     9
100
AcDbLine
 10
468.9246925147805
 20
378.3871670089866
 30
0.0
 11
465.7997749947214
 21
378.3871670089866
 31
0.0
  0
LINE
  5
11A
330
1F
100
AcDbEntity
  8
D-5
  6
Continuous
 62
     7
370
     9
100
AcDbLine
 10
487.0496595228042
 20
384.6371257690162
 30
0.0
 11
487.0496595228042
 21
376.1884167450506
 31
0.0
  0
LINE
  5
11B
330
1F
100
AcDbEntity
  8
D-5
  6
Continuous
 62
     7
370
     9
100
AcDbLine
 10
487.0496595228042
 20
384.6371257690162
 30
0.0
 11
472.0496100348396
 21
384.6371257690162
 31
0.0
  0
LINE
  5
11C
330
1F
100
AcDbEntity
  8
D-5
  6
Continuous
 62
     7
370
     9
100
AcDbLine
 10
472.0496100348396
 20
384.6371257690162
 30
0.0
 11
472.0496100348396
 21
376.1884167450506
 31
0.0
  0
LINE
  5
11D
330
1F
100
AcDbEntity
  8
D-1
  6
Continuous
 62
     2
370
     9
100
AcDbLine
 10
512.0494945629224
 20
384.6371257690162
 30
0.0
 11
493.2997420027451
 21
384.6371257690162
 31
0.0
  0
LINE
  5
11E
330
1F
100
AcDbEntity
  8
D-5
  6
Continuous
 62
     7
370
     9
100
AcDbLine
 10
493.2997420027451
 20
384.6371257690162
 30
0.0
 11
490.1745770428633
 21
384.6371257690162
 31
0.0
  0
LINE
  5
11F
330
1F
100
AcDbEntity
  8
D-1
  6
Continuous
 62
     2
370
     9
100
AcDbLine
 10
465.7997749947214
 20
384.6371257690162
 30
0.0
 11
447.0497749947214
 21
384.6371257690162
 31
0.0
  0
LINE
  5
120
330
1F
100
AcDbEntity
  8
D-5
  6
Continuous
 62
     7
370
     9
100
AcDbLine
 10
465.7997749947214
 20
384.6371257690162
 30
0.0
 11
468.9246925147805
 21
384.6371257690162
 31
0.0
  0
LINE
  5
121
330
1F
100
AcDbEntity
  8
D-1
  6
Continuous
 62
     2
370
     9
100
AcDbLine
 10
495.174840978674
 20
379.6371092730278
 30
0.0
 11
493.2997420027451
 21
379.6371092730278
 31
0.0
  0
LINE
  5
122
330
1F
100
AcDbEntity
  8
D-1
  6
Continuous
 62
     2
370
     9
100
AcDbLine
 10
463.9246760187922
 20
379.6371092730278
 30
0.0
 11
465.7997749947214
 21
379.6371092730278
 31
0.0
  0
LINE
  5
123
330
1F
100
AcDbEntity
  8
D-1
  6
Continuous
 62
     2
370
     9
100
AcDbLine
 10
485.1748079866977
 20
352.1370185450929
 30
0.0
 11
485.1748079866977
 21
349.6368865771875
 31
0.0
  0
LINE
  5
124
330
1F
100
AcDbEntity
  8
D-1
  6
Continuous
 62
     2
370
     9
100
AcDbLine
 10
488.9247584987331
 20
352.1370185450929
 30
0.0
 11
485.1748079866977
 21
352.1370185450929
 31
0.0
  0
LINE
  5
125
330
1F
100
AcDbEntity
  8
D-1
  6
Continuous
 62
     2
370
     9
100
AcDbLine
 10
488.9247584987331
 20
360.8871092730278
 30
0.0
 11
488.9247584987331
 21
352.1370185450929
 31
0.0
  0
LINE
  5
126
330
1F
100
AcDbEntity
  8
D-1
  6
Continuous
 62
     2
370
     9
100
AcDbLine
 10
473.9247090107688
 20
352.1370185450929
 30
0.0
 11
473.9247090107688
 21
349.6368865771875
 31
0.0
  0
LINE
  5
127
330
1F
100
AcDbEntity
  8
D-1
  6
Continuous
 62
     2
370
     9
100
AcDbLine
 10
470.1745110589107
 20
352.1370185450929
 30
0.0
 11
473.9247090107688
 21
352.1370185450929
 31
0.0
  0
LINE
  5
128
330
1F
100
AcDbEntity
  8
D-1
  6
Continuous
 62
     2
370
     9
100
AcDbLine
 10
470.1745110589107
 20
360.8871092730278
 30
0.0
 11
470.1745110589107
 21
352.1370185450929
 31
0.0
  0
LINE
  5
129
330
1F
100
AcDbEntity
  8
D-1
  6
Continuous
 62
     2
370
     9
100
AcDbLine
 10
453.2993625950169
 20
379.6371092730278
 30
0.0
 11
457.6743460990289
 21
379.6371092730278
 31
0.0
  0
LINE
  5
12A
330
1F
100
AcDbEntity
  8
D-1
  6
Continuous
 62
     2
370
     9
100
AcDbLine
 10
447.0497749947214
 20
384.6371257690162
 30
0.0
 11
447.0497749947214
 21
349.6368865771875
 31
0.0
  0
LINE
  5
12B
330
1F
100
AcDbEntity
  8
D-1
  6
Continuous
 62
     2
370
     9
100
AcDbLine
 10
450.7997255067568
 20
355.8870927770397
 30
0.0
 11
450.7997255067568
 21
377.1371010250339
 31
0.0
  0
LINE
  5
12C
330
1F
100
AcDbEntity
  8
D-1
  6
Continuous
 62
     2
370
     9
100
AcDbLine
 10
463.9249234586148
 20
353.3869608091344
 30
0.0
 11
453.2993625950169
 21
353.3869608091344
 31
0.0
  0
LINE
  5
12D
330
1F
100
AcDbEntity
  8
D-1
  6
Continuous
 62
     2
370
     9
100
AcDbLine
 10
466.4248079866977
 20
358.3871010250339
 30
0.0
 11
466.4248079866977
 21
355.8870927770397
 31
0.0
  0
LINE
  5
12E
330
1F
100
AcDbEntity
  8
D-1
  6
Continuous
 62
     2
370
     9
100
AcDbLine
 10
462.6746100348396
 20
360.8871092730278
 30
0.0
 11
463.9249234586148
 21
360.8871092730278
 31
0.0
  0
LINE
  5
12F
330
1F
100
AcDbEntity
  8
D-1
  6
Continuous
 62
     2
370
     9
100
AcDbLine
 10
460.1749729465794
 20
363.3869938011106
 30
0.0
 11
460.1749729465794
 21
377.1371010250339
 31
0.0
  0
LINE
  5
130
330
1F
100
AcDbEntity
  8
D-1
  6
Continuous
 62
     2
370
     9
100
AcDbLine
 10
524.5496595228042
 20
354.637026793087
 30
0.0
 11
517.0500059385557
 21
354.637026793087
 31
0.0
  0
LINE
  5
131
330
1F
100
AcDbEntity
  8
D-1
  6
Continuous
 62
     2
370
     9
100
AcDbLine
 10
509.5496100348396
 20
379.6371092730278
 30
0.0
 11
501.4246760187922
 21
379.6371092730278
 31
0.0
  0
LINE
  5
132
330
1F
100
AcDbEntity
  8
D-1
  6
Continuous
 62
     2
370
     9
100
AcDbLine
 10
498.9250389305323
 20
364.6371835049747
 30
0.0
 11
498.9250389305323
 21
377.1371010250339
 31
0.0
  0
LINE
  5
133
330
1F
100
AcDbEntity
  8
D-1
  6
Continuous
 62
     2
370
     9
100
AcDbLine
 10
495.174840978674
 20
360.8871092730278
 30
0.0
 11
492.6744615709461
 21
360.8871092730278
 31
0.0
  0
LINE
  5
134
330
1F
100
AcDbEntity
  8
D-1
  6
Continuous
 62
     2
370
     9
100
AcDbLine
 10
529.5496760187922
 20
357.1370350410811
 30
0.0
 11
529.5496760187922
 21
349.6368865771875
 31
0.0
  0
LINE
  5
135
330
1F
100
AcDbEntity
  8
D-1
  6
Continuous
 62
     2
370
     9
100
AcDbLine
 10
524.5496595228042
 20
357.1370350410811
 30
0.0
 11
524.5496595228042
 21
354.637026793087
 31
0.0
  0
LINE
  5
136
330
1F
100
AcDbEntity
  8
D-1
  6
Continuous
 62
     2
370
     9
100
AcDbLine
 10
512.0494945629224
 20
355.8870927770397
 30
0.0
 11
512.0494945629224
 21
377.1371010250339
 31
0.0
  0
LINE
  5
137
330
1F
100
AcDbEntity
  8
D-1
  6
Continuous
 62
     2
370
     9
100
AcDbLine
 10
495.174840978674
 20
353.3869608091344
 30
0.0
 11
509.5496100348396
 21
353.3869608091344
 31
0.0
  0
LINE
  5
138
330
1F
100
AcDbEntity
  8
D-1
  6
Continuous
 62
     2
370
     9
100
AcDbLine
 10
492.6744615709461
 20
355.8870927770397
 30
0.0
 11
492.6744615709461
 21
360.8871092730278
 31
0.0
  0
LINE
  5
139
330
1F
100
AcDbEntity
  8
D-1
  6
Continuous
 62
     2
370
     9
100
AcDbLine
 10
529.5496760187922
 20
404.636944313146
 30
0.0
 11
517.0500059385557
 21
404.636944313146
 31
0.0
  0
LINE
  5
13A
330
1F
100
AcDbEntity
  8
D-1
  6
Continuous
 62
     2
370
     9
100
AcDbLine
 10
529.5496760187922
 20
397.1367958492526
 30
0.0
 11
529.5496760187922
 21
404.636944313146
 31
0.0
  0
LINE
  5
13B
330
1F
100
AcDbEntity
  8
D-1
  6
Continuous
 62
     2
370
     9
100
AcDbLine
 10
524.5496595228042
 20
397.1367958492526
 30
0.0
 11
524.5496595228042
 21
399.6371752569806
 31
0.0
  0
LINE
  5
13C
330
1F
100
AcDbEntity
  8
D-1
  6
Continuous
 62
     2
370
     9
100
AcDbLine
 10
524.5496595228042
 20
399.6371752569806
 30
0.0
 11
517.0500059385557
 21
399.6371752569806
 31
0.0
  0
LINE
  5
13D
330
1F
100
AcDbEntity
  8
D-1
  6
Continuous
 62
     2
370
     9
100
AcDbLine
 10
517.0500059385557
 20
399.6371752569806
 30
0.0
 11
517.0500059385557
 21
354.637026793087
 31
0.0
  0
LINE
  5
13E
330
1F
100
AcDbEntity
  8
D-1
  6
Continuous
 62
     2
370
     9
100
AcDbLine
 10
522.0497749947214
 20
449.6370927770397
 30
0.0
 11
542.0495935388516
 21
449.6370927770397
 31
0.0
  0
LINE
  5
13F
330
1F
100
AcDbEntity
  8
D-1
  6
Continuous
 62
     2
370
     9
100
AcDbLine
 10
517.0500059385557
 20
444.6369525611402
 30
0.0
 11
517.0500059385557
 21
404.636944313146
 31
0.0
  0
LINE
  5
140
330
1F
100
AcDbEntity
  8
D-1
  6
Continuous
 62
     2
370
     9
100
AcDbLine
 10
529.5496760187922
 20
349.6368865771875
 30
0.0
 11
485.1748079866977
 21
349.6368865771875
 31
0.0
  0
LINE
  5
141
330
1F
100
AcDbEntity
  8
D-1
  6
Continuous
 62
     2
370
     9
100
AcDbLine
 10
473.9247090107688
 20
349.6368865771875
 30
0.0
 11
447.0497749947214
 21
349.6368865771875
 31
0.0
  0
LINE
  5
142
330
1F
100
AcDbEntity
  8
D-1
  6
Continuous
 62
     2
370
     9
100
AcDbLine
 10
495.174840978674
 20
368.3868865771875
 30
0.0
 11
495.174840978674
 21
379.6371092730278
 31
0.0
  0
LINE
  5
143
330
1F
100
AcDbEntity
  8
D-1
  6
Continuous
 62
     2
370
     9
100
AcDbLine
 10
463.9246760187922
 20
368.3868865771875
 30
0.0
 11
463.9246760187922
 21
379.6371092730278
 31
0.0
  0
LINE
  5
144
330
1F
100
AcDbEntity
  8
D-5
  6
Continuous
 62
     7
370
     9
100
AcDbLine
 10
457.0498079866977
 20
387.1368865771875
 30
0.0
 11
449.5496595228042
 21
387.1368865771875
 31
0.0
  0
LINE
  5
145
330
1F
100
AcDbEntity
  8
D-5
  6
Continuous
 62
     7
370
     9
100
AcDbLine
 10
497.0499399546031
 20
387.1368865771875
 30
0.0
 11
467.049840978674
 21
387.1368865771875
 31
0.0
  0
LINE
  5
146
330
1F
100
AcDbEntity
  8
D-B
  6
Continuous
 62
     7
370
     9
100
AcDbLine
 10
455.7997420027451
 20
407.1369525611402
 30
0.0
 11
455.7997420027451
 21
412.1370927770397
 31
0.0
  0
LINE
  5
147
330
1F
100
AcDbEntity
  8
D-1
  6
Continuous
 62
     2
370
     9
100
AcDbLine
 10
535.7995110589106
 20
454.6369855531165
 30
0.0
 11
518.2995770428633
 21
454.6369855531165
 31
0.0
  0
LINE
  5
148
330
1F
100
AcDbEntity
  8
D-1
  6
Continuous
 62
     2
370
     9
100
AcDbLine
 10
512.0494945629224
 20
449.6370927770397
 30
0.0
 11
512.0494945629224
 21
384.6371257690162
 31
0.0
  0
LINE
  5
149
330
1F
100
AcDbEntity
  8
D-0
  6
JWW_CENTER1
 62
     4
370
     9
100
AcDbLine
 10
439.5496265308279
 20
437.0158060239781
 30
0.0
 11
439.5496265308279
 21
387.1368865771875
 31
0.0
  0
LINE
  5
14A
330
1F
100
AcDbEntity
  8
D-3
  6
Continuous
 62
     3
370
     9
100
AcDbLine
 10
455.7997420027451
 20
407.1369525611402
 30
0.0
 11
455.7997420027451
 21
399.137099375435
 31
0.0
  0
LINE
  5
14B
330
1F
100
AcDbEntity
  8
D-B
  6
Continuous
 62
     7
370
     9
100
AcDbLine
 10
498.2995110589107
 20
428.2621274186148
 30
0.0
 11
498.2995110589107
 21
412.1370927770397
 31
0.0
  0
LINE
  5
14C
330
1F
100
AcDbEntity
  8
D-0
  6
Continuous
 62
     4
370
     9
100
AcDbLine
 10
444.7995572476773
 20
399.137099375435
 30
0.0
 11
444.7995572476773
 21
394.1369591595355
 31
0.0
  0
LINE
  5
14D
330
1F
100
AcDbEntity
  8
D-0
  6
Continuous
 62
     4
370
     9
100
AcDbLine
 10
434.2996958139781
 20
399.137099375435
 30
0.0
 11
434.2996958139781
 21
394.1369591595355
 31
0.0
  0
LINE
  5
14E
330
1F
100
AcDbEntity
  8
D-A
  6
Continuous
 62
     2
370
     9
100
AcDbLine
 10
430.7996595228042
 20
392.0661352839021
 30
0.0
 11
430.7996595228042
 21
394.1369591595355
 31
0.0
  0
LINE
  5
14F
330
1F
100
AcDbEntity
  8
D-A
  6
Continuous
 62
     2
370
     9
100
AcDbLine
 10
448.2995935388513
 20
392.0661352839021
 30
0.0
 11
448.2995935388513
 21
394.1369591595355
 31
0.0
  0
LINE
  5
150
330
1F
100
AcDbEntity
  8
D-A
  6
Continuous
 62
     2
370
     9
100
AcDbLine
 10
438.2245862806167
 20
391.1369987499071
 30
0.0
 11
440.8746667810388
 21
391.1369987499071
 31
0.0
  0
LINE
  5
151
330
1F
100
AcDbEntity
  8
D-A
  6
Continuous
 62
     2
370
     9
100
AcDbLine
 10
438.2245862806167
 20
387.6761816706208
 30
0.0
 11
438.2245862806167
 21
391.1369987499071
 31
0.0
  0
LINE
  5
152
330
1F
100
AcDbEntity
  8
D-A
  6
Continuous
 62
     2
370
     9
100
AcDbLine
 10
446.3173531197214
 20
395.7712991880406
 30
0.0
 11
433.2819758234797
 21
401.1037510857391
 31
0.0
  0
LINE
  5
153
330
1F
100
AcDbEntity
  8
D-A
  6
Continuous
 62
     2
370
     9
100
AcDbLine
 10
446.3173531197214
 20
400.4090637836908
 30
0.0
 11
433.2819758234797
 21
405.7416394013006
 31
0.0
  0
LINE
  5
154
330
1F
100
AcDbEntity
  8
D-A
  6
Continuous
 62
     2
370
     9
100
AcDbLine
 10
446.3173531197214
 20
405.0468283793413
 30
0.0
 11
433.2819758234797
 21
410.3795277168624
 31
0.0
  0
LINE
  5
155
330
1F
100
AcDbEntity
  8
D-A
  6
Continuous
 62
     2
370
     9
100
AcDbLine
 10
446.3173531197214
 20
409.6844692550803
 30
0.0
 11
432.7994681693414
 21
415.2143781312415
 31
0.0
  0
LINE
  5
156
330
1F
100
AcDbEntity
  8
D-0
  6
Continuous
 62
     4
370
     9
100
AcDbLine
 10
457.0498079866977
 20
394.1369591595355
 30
0.0
 11
427.0494615709461
 21
394.1369591595355
 31
0.0
  0
LINE
  5
157
330
1F
100
AcDbEntity
  8
D-0
  6
Continuous
 62
     4
370
     9
100
AcDbLine
 10
427.0494615709461
 20
399.137099375435
 30
0.0
 11
427.0494615709461
 21
394.1369591595355
 31
0.0
  0
LINE
  5
158
330
1F
100
AcDbEntity
  8
D-3
  6
Continuous
 62
     3
370
     9
100
AcDbLine
 10
427.0494615709461
 20
399.137099375435
 30
0.0
 11
279.549840978674
 21
399.137099375435
 31
0.0
  0
LINE
  5
159
330
1F
100
AcDbEntity
  8
D-0
  6
Continuous
 62
     4
370
     9
100
AcDbLine
 10
457.0498079866977
 20
399.137099375435
 30
0.0
 11
444.5496430268159
 21
399.137099375435
 31
0.0
  0
LINE
  5
15A
330
1F
100
AcDbEntity
  8
D-0
  6
Continuous
 62
     4
370
     9
100
AcDbLine
 10
434.5496100348396
 20
399.137099375435
 30
0.0
 11
427.0494615709461
 21
399.137099375435
 31
0.0
  0
LINE
  5
15B
330
1F
100
AcDbEntity
  8
D-3
  6
Continuous
 62
     3
370
     9
100
AcDbLine
 10
455.7997420027451
 20
407.1369525611402
 30
0.0
 11
444.5496430268159
 21
407.1369525611402
 31
0.0
  0
LINE
  5
15C
330
1F
100
AcDbEntity
  8
D-3
  6
Continuous
 62
     3
370
     9
100
AcDbLine
 10
434.5496100348396
 20
407.1369525611402
 30
0.0
 11
279.549840978674
 21
407.1369525611402
 31
0.0
  0
LINE
  5
15D
330
1F
100
AcDbEntity
  8
D-1
  6
Continuous
 62
     2
370
     9
100
AcDbLine
 10
518.2995770428633
 20
454.6369855531165
 30
0.0
 11
512.0494945629224
 21
449.6370927770397
 31
0.0
  0
LINE
  5
15E
330
1F
100
AcDbEntity
  8
D-B
  6
Continuous
 62
     7
370
     9
100
AcDbLine
 10
498.2995110589107
 20
449.6370927770397
 30
0.0
 11
498.2995110589107
 21
438.5121983513641
 31
0.0
  0
LINE
  5
15F
330
1F
100
AcDbEntity
  8
D-B
  6
Continuous
 62
     7
370
     9
100
AcDbLine
 10
444.5496430268159
 20
412.1370927770397
 30
0.0
 11
498.2995110589107
 21
412.1370927770397
 31
0.0
  0
LINE
  5
160
330
1F
100
AcDbEntity
  8
D-B
  6
Continuous
 62
     7
370
     9
100
AcDbLine
 10
445.420383762669
 20
407.1369525611402
 30
0.0
 11
444.5496430268159
 21
408.0076932969932
 31
0.0
  0
LINE
  5
161
330
1F
100
AcDbEntity
  8
D-B
  6
Continuous
 62
     7
370
     9
100
AcDbLine
 10
450.7237614812078
 20
407.1369525611402
 30
0.0
 11
445.7237449852198
 21
412.1370927770397
 31
0.0
  0
LINE
  5
162
330
1F
100
AcDbEntity
  8
D-B
  6
Continuous
 62
     7
370
     9
100
AcDbLine
 10
455.7997420027451
 20
407.3644734780532
 30
0.0
 11
451.0271227037586
 21
412.1370927770397
 31
0.0
  0
LINE
  5
163
330
1F
100
AcDbEntity
  8
D-B
  6
Continuous
 62
     7
370
     9
100
AcDbLine
 10
344.657444309544
 20
407.1369525611402
 30
0.0
 11
339.6574278135557
 21
412.1370927770397
 31
0.0
  0
LINE
  5
164
330
1F
100
AcDbEntity
  8
D-B
  6
Continuous
 62
     7
370
     9
100
AcDbLine
 10
349.9608220280828
 20
407.1369525611402
 30
0.0
 11
344.9605580922722
 21
412.1370927770397
 31
0.0
  0
LINE
  5
165
330
1F
100
AcDbEntity
  8
D-B
  6
Continuous
 62
     7
370
     9
100
AcDbLine
 10
355.263952306799
 20
407.1369525611402
 30
0.0
 11
350.2641832506336
 21
412.1370927770397
 31
0.0
  0
LINE
  5
166
330
1F
100
AcDbEntity
  8
D-B
  6
Continuous
 62
     7
370
     9
100
AcDbLine
 10
360.5675774651604
 20
407.1369525611402
 30
0.0
 11
355.5673135293497
 21
412.1370927770397
 31
0.0
  0
LINE
  5
167
330
1F
100
AcDbEntity
  8
D-B
  6
Continuous
 62
     7
370
     9
100
AcDbLine
 10
365.8707077438768
 20
407.1369525611402
 30
0.0
 11
360.8706912478885
 21
412.1370927770397
 31
0.0
  0
LINE
  5
168
330
1F
100
AcDbEntity
  8
D-B
  6
Continuous
 62
     7
370
     9
100
AcDbLine
 10
371.1740854624156
 20
407.1369525611402
 30
0.0
 11
366.1740689664273
 21
412.1370927770397
 31
0.0
  0
LINE
  5
169
330
1F
100
AcDbEntity
  8
D-B
  6
Continuous
 62
     7
370
     9
100
AcDbLine
 10
397.6904791754646
 20
407.1369525611402
 30
0.0
 11
392.690710119299
 21
412.1370927770397
 31
0.0
  0
LINE
  5
16A
330
1F
100
AcDbEntity
  8
D-B
  6
Continuous
 62
     7
370
     9
100
AcDbLine
 10
402.994104333826
 20
407.1369525611402
 30
0.0
 11
397.9938403980154
 21
412.1370927770397
 31
0.0
  0
LINE
  5
16B
330
1F
100
AcDbEntity
  8
D-B
  6
Continuous
 62
     7
370
     9
100
AcDbLine
 10
408.2972346125422
 20
407.1369525611402
 30
0.0
 11
403.2969706767315
 21
412.1370927770397
 31
0.0
  0
LINE
  5
16C
330
1F
100
AcDbEntity
  8
D-B
  6
Continuous
 62
     7
370
     9
100
AcDbLine
 10
413.6003648912586
 20
407.1369525611402
 30
0.0
 11
408.600595835093
 21
412.1370927770397
 31
0.0
  0
LINE
  5
16D
330
1F
100
AcDbEntity
  8
D-B
  6
Continuous
 62
     7
370
     9
100
AcDbLine
 10
418.9039900496201
 20
407.1369525611402
 30
0.0
 11
413.9037261138091
 21
412.1370927770397
 31
0.0
  0
LINE
  5
16E
330
1F
100
AcDbEntity
  8
D-B
  6
Continuous
 62
     7
370
     9
100
AcDbLine
 10
424.2071203283362
 20
407.1369525611402
 30
0.0
 11
419.2071038323482
 21
412.1370927770397
 31
0.0
  0
LINE
  5
16F
330
1F
100
AcDbEntity
  8
D-B
  6
Continuous
 62
     7
370
     9
100
AcDbLine
 10
429.510498046875
 20
407.1369525611402
 30
0.0
 11
424.510481550887
 21
412.1370927770397
 31
0.0
  0
LINE
  5
170
330
1F
100
AcDbEntity
  8
D-B
  6
Continuous
 62
     7
370
     9
100
AcDbLine
 10
434.5496100348396
 20
407.4010945718032
 30
0.0
 11
429.8136118296031
 21
412.1370927770397
 31
0.0
  0
LINE
  5
171
330
1F
100
AcDbEntity
  8
D-A
  6
Continuous
 62
     2
370
     9
100
AcDbLine
 10
439.5496265308279
 20
434.1369674075295
 30
0.0
 11
444.5496430268159
 21
422.0658631000971
 31
0.0
  0
LINE
  5
172
330
1F
100
AcDbEntity
  8
D-A
  6
Continuous
 62
     2
370
     9
100
AcDbLine
 10
444.5496430268159
 20
394.1369591595355
 30
0.0
 11
444.5496430268159
 21
422.0658631000971
 31
0.0
  0
LINE
  5
173
330
1F
100
AcDbEntity
  8
D-A
  6
Continuous
 62
     2
370
     9
100
AcDbLine
 10
434.5496100348396
 20
394.1369591595355
 30
0.0
 11
434.5496100348396
 21
422.0658631000971
 31
0.0
  0
LINE
  5
174
330
1F
100
AcDbEntity
  8
D-A
  6
Continuous
 62
     2
370
     9
100
AcDbLine
 10
439.5496265308279
 20
434.1369674075295
 30
0.0
 11
434.5496100348396
 21
422.0658631000971
 31
0.0
  0
LINE
  5
175
330
1F
100
AcDbEntity
  8
D-A
  6
Continuous
 62
     2
370
     9
100
AcDbLine
 10
444.9168437236065
 20
425.7525927374493
 30
0.0
 11
435.7378160631336
 21
429.5073683260262
 31
0.0
  0
LINE
  5
176
330
1F
100
AcDbEntity
  8
D-A
  6
Continuous
 62
     2
370
     9
100
AcDbLine
 10
446.2995374524917
 20
421.7613883983446
 30
0.0
 11
434.5246186127534
 21
426.5782994255828
 31
0.0
  0
LINE
  5
177
330
1F
100
AcDbEntity
  8
D-A
  6
Continuous
 62
     2
370
     9
100
AcDbLine
 10
446.2995374524917
 20
418.3358314937839
 30
0.0
 11
433.3114211623734
 21
423.6489830853168
 31
0.0
  0
LINE
  5
178
330
1F
100
AcDbEntity
  8
D-A
  6
Continuous
 62
     2
370
     9
100
AcDbLine
 10
446.2995374524917
 20
414.3296570454096
 30
0.0
 11
432.7994681693414
 21
419.8522664468032
 31
0.0
  0
LINE
  5
179
330
1F
100
AcDbEntity
  8
D-A
  6
Continuous
 62
     2
370
     9
100
AcDbLine
 10
443.2085191881336
 20
429.8769197011318
 30
0.0
 11
436.9512609533362
 21
432.436560946381
 31
0.0
  0
LINE
  5
17A
330
1F
100
AcDbEntity
  8
D-B
  6
Continuous
 62
     7
370
     9
100
AcDbLine
 10
498.2995110589107
 20
419.6369938011106
 30
0.0
 11
444.5496430268159
 21
419.6369938011106
 31
0.0
  0
LINE
  5
17B
330
1F
100
AcDbEntity
  8
D-B
  6
Continuous
 62
     7
370
     9
100
AcDbLine
 10
498.2995110589107
 20
427.1371422650043
 30
0.0
 11
442.4491263724664
 21
427.1371422650043
 31
0.0
  0
LINE
  5
17C
330
1F
100
AcDbEntity
  8
D-A
  6
Continuous
 62
     2
370
     9
100
AcDbLine
 10
440.8746667810388
 20
387.6760579507095
 30
0.0
 11
440.8746667810388
 21
391.1369987499071
 31
0.0
  0
LINE
  5
17D
330
1F
100
AcDbEntity
  8
D-1
  6
Continuous
 62
     2
370
     9
100
AcDbLine
 10
492.6747090107688
 20
365.8868783291935
 30
0.0
 11
466.4248079866977
 21
365.8868783291935
 31
0.0
  0
LINE
  5
17E
330
1F
100
AcDbEntity
  8
D-1
  6
Continuous
 62
     2
370
     9
100
AcDbLine
 10
473.2996760187922
 20
365.8868783291935
 30
0.0
 11
473.2996760187922
 21
360.8871092730278
 31
0.0
  0
LINE
  5
17F
330
1F
100
AcDbEntity
  8
D-1
  6
Continuous
 62
     2
370
     9
100
AcDbLine
 10
485.799840978674
 20
365.8868783291935
 30
0.0
 11
485.799840978674
 21
360.8871092730278
 31
0.0
  0
LINE
  5
180
330
1F
100
AcDbEntity
  8
D-6
  6
Continuous
 62
     6
370
     5
100
AcDbLine
 10
641.4246430268158
 20
302.7621340170101
 30
0.0
 11
532.0498079866977
 21
412.1370927770397
 31
0.0
  0
LINE
  5
181
330
1F
100
AcDbEntity
  8
D-6
  6
Continuous
 62
     6
370
     5
100
AcDbLine
 10
641.4246430268158
 20
412.1370927770397
 30
0.0
 11
532.0498079866977
 21
302.7621340170101
 31
0.0
  0
LINE
  5
182
330
1F
100
AcDbEntity
  8
D-6
  6
Continuous
 62
     6
370
     5
100
AcDbLine
 10
641.4246430268158
 20
412.1370927770397
 30
0.0
 11
641.4246430268158
 21
302.7621340170101
 31
0.0
  0
LINE
  5
183
330
1F
100
AcDbEntity
  8
D-6
  6
Continuous
 62
     6
370
     5
100
AcDbLine
 10
594.1680908203125
 20
375.687969703771
 30
0.0
 11
602.7497987489443
 21
362.8152840909122
 31
0.0
  0
LINE
  5
184
330
1F
100
AcDbEntity
  8
D-6
  6
Continuous
 62
     6
370
     5
100
AcDbLine
 10
602.7497987489443
 20
362.8152840909122
 30
0.0
 11
597.288801863387
 21
353.0634332410389
 31
0.0
  0
LINE
  5
185
330
1F
100
AcDbEntity
  8
D-6
  6
Continuous
 62
     6
370
     5
100
AcDbLine
 10
597.288801863387
 20
353.0634332410389
 30
0.0
 11
584.4159925306167
 21
345.2617793532644
 31
0.0
  0
LINE
  5
186
330
1F
100
AcDbEntity
  8
D-6
  6
Continuous
 62
     6
370
     5
100
AcDbLine
 10
584.4159925306167
 20
345.2617793532644
 30
0.0
 11
568.4229670344172
 21
355.7939316838176
 31
0.0
  0
LINE
  5
187
330
1F
100
AcDbEntity
  8
D-6
  6
Continuous
 62
     6
370
     5
100
AcDbLine
 10
568.4229670344172
 20
355.7939316838176
 30
0.0
 11
578.5647830447635
 21
376.0780585841554
 31
0.0
  0
LINE
  5
188
330
1F
100
AcDbEntity
  8
D-6
  6
Continuous
 62
     6
370
     5
100
AcDbLine
 10
578.5647830447635
 20
376.0780585841554
 30
0.0
 11
594.1680908203125
 21
375.687969703771
 31
0.0
  0
LINE
  5
189
330
1F
100
AcDbEntity
  8
D-6
  6
Continuous
 62
     6
370
     5
100
AcDbLine
 10
597.6787670238599
 20
390.9010648790245
 30
0.0
 11
623.4238908097552
 21
380.7590014288556
 31
0.0
  0
LINE
  5
18A
330
1F
100
AcDbEntity
  8
D-6
  6
Continuous
 62
     6
370
     5
100
AcDbLine
 10
623.4238908097552
 20
380.7590014288556
 30
0.0
 11
621.0836049672721
 21
347.9922777960431
 31
0.0
  0
LINE
  5
18B
330
1F
100
AcDbEntity
  8
D-6
  6
Continuous
 62
     6
370
     5
100
AcDbLine
 10
621.0836049672721
 20
347.9922777960431
 30
0.0
 11
583.6358147698481
 21
324.9776524529266
 31
0.0
  0
LINE
  5
18C
330
1F
100
AcDbEntity
  8
D-6
  6
Continuous
 62
     6
370
     5
100
AcDbLine
 10
583.6358147698481
 20
324.9776524529266
 30
0.0
 11
553.2096244193415
 21
345.6518682336487
 31
0.0
  0
LINE
  5
18D
330
1F
100
AcDbEntity
  8
D-6
  6
Continuous
 62
     6
370
     5
100
AcDbLine
 10
553.2096244193415
 20
345.6518682336487
 30
0.0
 11
550.4791259765625
 21
374.127614182234
 31
0.0
  0
LINE
  5
18E
330
1F
100
AcDbEntity
  8
D-6
  6
Continuous
 62
     6
370
     5
100
AcDbLine
 10
550.4791259765625
 20
374.127614182234
 30
0.0
 11
569.5928625158363
 21
395.972096604109
 31
0.0
  0
LINE
  5
18F
330
1F
100
AcDbEntity
  8
D-6
  6
Continuous
 62
     6
370
     5
100
AcDbLine
 10
569.5928625158363
 20
395.972096604109
 30
0.0
 11
580.1251385663008
 21
397.532452125646
 31
0.0
  0
LINE
  5
190
330
1F
100
AcDbEntity
  8
D-6
  6
Continuous
 62
     6
370
     5
100
AcDbLine
 10
580.1251385663008
 20
397.532452125646
 30
0.0
 11
597.6787670238599
 21
390.9010648790245
 31
0.0
  0
LINE
  5
191
330
1F
100
AcDbEntity
  8
D-6
  6
Continuous
 62
     6
370
     5
100
AcDbLine
 10
610.5513289168075
 20
405.7240711738936
 30
0.0
 11
633.565954259924
 21
381.9292680700084
 31
0.0
  0
LINE
  5
192
330
1F
100
AcDbEntity
  8
D-6
  6
Continuous
 62
     6
370
     5
100
AcDbLine
 10
633.565954259924
 20
381.9292680700084
 30
0.0
 11
637.0766304634714
 21
346.8221348748016
 31
0.0
  0
LINE
  5
193
330
1F
100
AcDbEntity
  8
D-6
  6
Continuous
 62
     6
370
     5
100
AcDbLine
 10
637.0766304634714
 20
346.8221348748016
 30
0.0
 11
609.7711511560391
 21
322.2470302902365
 31
0.0
  0
LINE
  5
194
330
1F
100
AcDbEntity
  8
D-6
  6
Continuous
 62
     6
370
     5
100
AcDbLine
 10
609.7711511560391
 20
322.2470302902365
 30
0.0
 11
569.2028973553633
 21
313.6653223616048
 31
0.0
  0
LINE
  5
195
330
1F
100
AcDbEntity
  8
D-6
  6
Continuous
 62
     6
370
     5
100
AcDbLine
 10
569.2028973553633
 20
313.6653223616048
 30
0.0
 11
543.067808408995
 21
329.6585952976267
 31
0.0
  0
LINE
  5
196
330
1F
100
AcDbEntity
  8
D-6
  6
Continuous
 62
     6
370
     5
100
AcDbLine
 10
543.067808408995
 20
329.6585952976267
 30
0.0
 11
539.1666721653294
 21
356.1840205642019
 31
0.0
  0
LINE
  5
197
330
1F
100
AcDbEntity
  8
D-6
  6
Continuous
 62
     6
370
     5
100
AcDbLine
 10
539.1666721653294
 20
356.1840205642019
 30
0.0
 11
536.4364211623734
 21
387.7803538359502
 31
0.0
  0
LINE
  5
198
330
1F
100
AcDbEntity
  8
D-6
  6
Continuous
 62
     6
370
     5
100
AcDbLine
 10
536.4364211623734
 20
387.7803538359502
 30
0.0
 11
557.8904435441302
 21
402.2133949703464
 31
0.0
  0
LINE
  5
199
330
1F
100
AcDbEntity
  8
D-6
  6
Continuous
 62
     6
370
     5
100
AcDbLine
 10
557.8904435441302
 20
402.2133949703464
 30
0.0
 11
586.7562783730998
 21
406.5041252147509
 31
0.0
  0
LINE
  5
19A
330
1F
100
AcDbEntity
  8
D-6
  6
Continuous
 62
     6
370
     5
100
AcDbLine
 10
586.7562783730998
 20
406.5041252147509
 30
0.0
 11
610.5513289168075
 21
405.7240711738936
 31
0.0
  0
LINE
  5
19B
330
1F
100
AcDbEntity
  8
D-6
  6
Continuous
 62
     6
370
     5
100
AcDbLine
 10
640.5873066670188
 20
328.8784175368582
 30
0.0
 11
607.4306178737331
 21
307.8141128757516
 31
0.0
  0
LINE
  5
19C
330
1F
100
AcDbEntity
  8
D-6
  6
Continuous
 62
     6
370
     5
100
AcDbLine
 10
620.0042724609375
 20
412.1370927770397
 30
0.0
 11
635.1263097814613
 21
402.2133949703464
 31
0.0
  0
LINE
  5
19D
330
1F
100
AcDbEntity
  8
D-6
  6
Continuous
 62
     6
370
     5
100
AcDbLine
 10
532.0498079866977
 20
399.7972688222255
 30
0.0
 11
547.6800867029141
 21
412.1370927770397
 31
0.0
  0
LINE
  5
19E
330
1F
100
AcDbEntity
  8
D-6
  6
Continuous
 62
     6
370
     5
100
AcDbLine
 10
635.1263097814613
 20
402.2133949703464
 30
0.0
 11
641.4246430268158
 21
388.7420287066216
 31
0.0
  0
LINE
  5
19F
330
1F
100
AcDbEntity
  8
D-6
  6
Continuous
 62
     6
370
     5
100
AcDbLine
 10
641.4246430268158
 20
333.1023390291512
 30
0.0
 11
640.5873066670188
 21
328.8784175368582
 31
0.0
  0
LINE
  5
1A0
330
1F
100
AcDbEntity
  8
D-6
  6
Continuous
 62
     6
370
     5
100
AcDbLine
 10
607.4306178737331
 20
307.8141128757516
 30
0.0
 11
598.3666497307856
 21
302.7621340170101
 31
0.0
  0
LINE
  5
1A1
330
1F
100
AcDbEntity
  8
D-6
  6
Continuous
 62
     6
370
     5
100
AcDbLine
 10
562.4250257337417
 20
302.7621340170101
 30
0.0
 11
547.3584149334883
 21
308.5942906365203
 31
0.0
  0
LINE
  5
1A2
330
1F
100
AcDbEntity
  8
D-6
  6
Continuous
 62
     6
370
     5
100
AcDbLine
 10
547.3584149334883
 20
308.5942906365203
 30
0.0
 11
532.0498079866977
 21
323.4012133429181
 31
0.0
  0
LINE
  5
1A3
330
1F
100
AcDbEntity
  8
D-A
  6
Continuous
 62
     2
370
     9
100
AcDbLine
 10
484.6749795449747
 20
365.8868783291935
 30
0.0
 11
484.6749795449747
 21
345.0535587425169
 31
0.0
  0
LINE
  5
1A4
330
1F
100
AcDbEntity
  8
D-A
  6
Continuous
 62
     2
370
     9
100
AcDbLine
 10
474.425032332137
 20
365.8868783291935
 30
0.0
 11
474.425032332137
 21
345.0535587425169
 31
0.0
  0
LINE
  5
1A5
330
1F
100
AcDbEntity
  8
D-A
  6
Continuous
 62
     2
370
     9
100
AcDbLine
 10
484.6749795449747
 20
345.0535587425169
 30
0.0
 11
479.5500059385557
 21
303.3869195691639
 31
0.0
  0
LINE
  5
1A6
330
1F
100
AcDbEntity
  8
D-A
  6
Continuous
 62
     2
370
     9
100
AcDbLine
 10
474.425032332137
 20
345.0535587425169
 30
0.0
 11
479.5500059385557
 21
303.3869195691639
 31
0.0
  0
LINE
  5
1A7
330
1F
100
AcDbEntity
  8
D-A
  6
Continuous
 62
     2
370
     9
100
AcDbLine
 10
481.2439789643159
 20
306.9219685952407
 30
0.0
 11
477.7805637668919
 21
307.5326500775042
 31
0.0
  0
LINE
  5
1A8
330
1F
100
AcDbEntity
  8
D-A
  6
Continuous
 62
     2
370
     9
100
AcDbLine
 10
481.785872175887
 20
311.326397438146
 30
0.0
 11
477.2146688925255
 21
312.1324326603801
 31
0.0
  0
LINE
  5
1A9
330
1F
100
AcDbEntity
  8
D-A
  6
Continuous
 62
     2
370
     9
100
AcDbLine
 10
485.578134897593
 20
342.1577704982179
 30
0.0
 11
473.2541470914273
 21
344.3307870205997
 31
0.0
  0
LINE
  5
1AA
330
1F
100
AcDbEntity
  8
D-A
  6
Continuous
 62
     2
370
     9
100
AcDbLine
 10
485.0362416860222
 20
337.7533416553125
 30
0.0
 11
473.8197945259714
 21
339.7310044377238
 31
0.0
  0
LINE
  5
1AB
330
1F
100
AcDbEntity
  8
D-A
  6
Continuous
 62
     2
370
     9
100
AcDbLine
 10
484.4948433540964
 20
333.3487890924958
 30
0.0
 11
474.3859368401607
 21
335.1313455747594
 31
0.0
  0
LINE
  5
1AC
330
1F
100
AcDbEntity
  8
D-A
  6
Continuous
 62
     2
370
     9
100
AcDbLine
 10
483.9529501425255
 20
328.9443602495903
 30
0.0
 11
474.9515842747044
 21
330.5315629918834
 31
0.0
  0
LINE
  5
1AD
330
1F
100
AcDbEntity
  8
D-A
  6
Continuous
 62
     2
370
     9
100
AcDbLine
 10
483.4110569309544
 20
324.539931406685
 30
0.0
 11
475.5172317092484
 21
325.9317804090077
 31
0.0
  0
LINE
  5
1AE
330
1F
100
AcDbEntity
  8
D-A
  6
Continuous
 62
     2
370
     9
100
AcDbLine
 10
482.8691637193836
 20
320.1353788438682
 30
0.0
 11
476.0831265836148
 21
321.3318741062204
 31
0.0
  0
LINE
  5
1AF
330
1F
100
AcDbEntity
  8
D-A
  6
Continuous
 62
     2
370
     9
100
AcDbLine
 10
482.3275179476352
 20
315.7309500009629
 30
0.0
 11
476.6490214579815
 21
316.7323389631673
 31
0.0
  0
LINE
  5
1B0
330
1F
100
AcDbEntity
  8
D-1
  6
JWW_CENTER1
 62
     2
370
     9
100
AcDbLine
 10
479.5500059385557
 20
388.8468194715077
 30
0.0
 11
479.5500059385557
 21
301.8378225595566
 31
0.0
  0
LINE
  5
1B1
330
1F
100
AcDbEntity
  8
D-6
  6
Continuous
 62
     6
370
     5
100
AcDbLine
 10
479.4072331608953
 20
304.5464225780321
 30
0.0
 11
447.0497749947214
 21
336.9040044641174
 31
0.0
  0
LINE
  5
1B2
330
1F
100
AcDbEntity
  8
D-6
  6
Continuous
 62
     6
370
     5
100
AcDbLine
 10
474.4487865551099
 20
344.8603082410389
 30
0.0
 11
469.6719607791385
 21
349.6368865771875
 31
0.0
  0
LINE
  5
1B3
330
1F
100
AcDbEntity
  8
D-1
  6
Continuous
 62
     2
370
     9
100
AcDbLine
 10
474.425032332137
 20
360.8871092730278
 30
0.0
 11
470.1745110589107
 21
360.8871092730278
 31
0.0
  0
LINE
  5
1B4
330
1F
100
AcDbEntity
  8
D-1
  6
Continuous
 62
     2
370
     9
100
AcDbLine
 10
488.9247584987331
 20
360.8871092730278
 30
0.0
 11
484.6749795449747
 21
360.8871092730278
 31
0.0
  0
LINE
  5
1B5
330
1F
100
AcDbEntity
  8
D-3
  6
Continuous
 62
     3
370
     9
100
AcDbLine
 10
429.5495935388513
 20
407.1369525611402
 30
0.0
 11
429.5495935388513
 21
399.137099375435
 31
0.0
  0
LINE
  5
1B6
330
1F
100
AcDbEntity
  8
D-3
  6
Continuous
 62
     3
370
     9
100
AcDbLine
 10
449.5496595228042
 20
407.1369525611402
 30
0.0
 11
449.5496595228042
 21
399.137099375435
 31
0.0
  0
LINE
  5
1B7
330
1F
100
AcDbEntity
  8
D-0
  6
Continuous
 62
     4
370
     9
100
AcDbLine
 10
485.7995935388513
 20
454.6369855531165
 30
0.0
 11
479.5500059385557
 21
450.8870350410811
 31
0.0
  0
LINE
  5
1B8
330
1F
100
AcDbEntity
  8
D-0
  6
Continuous
 62
     4
370
     9
100
AcDbLine
 10
479.5500059385557
 20
450.8870350410811
 30
0.0
 11
479.5500059385557
 21
449.6370927770397
 31
0.0
  0
LINE
  5
1B9
330
1F
100
AcDbEntity
  8
D-0
  6
Continuous
 62
     4
370
     9
100
AcDbLine
 10
485.7995935388513
 20
454.6369855531165
 30
0.0
 11
503.2997749947214
 21
454.6369855531165
 31
0.0
  0
LINE
  5
1BA
330
1F
100
AcDbEntity
  8
D-0
  6
Continuous
 62
     4
370
     9
100
AcDbLine
 10
503.2997749947214
 20
454.6369855531165
 30
0.0
 11
509.5496100348396
 21
449.6370927770397
 31
0.0
  0
LINE
  5
1BB
330
1F
100
AcDbEntity
  8
D-0
  6
Continuous
 62
     4
370
     9
100
AcDbLine
 10
507.0497255067568
 20
444.0119195691639
 30
0.0
 11
502.0497090107688
 21
439.0119030731757
 31
0.0
  0
LINE
  5
1BC
330
1F
100
AcDbEntity
  8
D-0
  6
Continuous
 62
     4
370
     9
100
AcDbLine
 10
507.0497255067568
 20
422.7619113211698
 30
0.0
 11
502.0497090107688
 21
427.7620515370693
 31
0.0
  0
LINE
  5
1BD
330
1F
100
AcDbEntity
  8
D-A
  6
Continuous
 62
     2
370
     9
100
AcDbLine
 10
507.0497255067568
 20
443.6370482378716
 30
0.0
 11
506.2997354043497
 21
443.6370482378716
 31
0.0
  0
LINE
  5
1BE
330
1F
100
AcDbEntity
  8
D-A
  6
Continuous
 62
     2
370
     9
100
AcDbLine
 10
501.1747617979307
 20
438.5119509115414
 30
0.0
 11
506.2997354043497
 21
443.6370482378716
 31
0.0
  0
LINE
  5
1BF
330
1F
100
AcDbEntity
  8
D-A
  6
Continuous
 62
     2
370
     9
100
AcDbLine
 10
501.1747617979307
 20
428.2618799787923
 30
0.0
 11
501.1747617979307
 21
438.5119509115414
 31
0.0
  0
LINE
  5
1C0
330
1F
100
AcDbEntity
  8
D-A
  6
Continuous
 62
     2
370
     9
100
AcDbLine
 10
501.1747617979307
 20
428.2618799787923
 30
0.0
 11
506.2997354043497
 21
423.1370300922846
 31
0.0
  0
LINE
  5
1C1
330
1F
100
AcDbEntity
  8
D-A
  6
Continuous
 62
     2
370
     9
100
AcDbLine
 10
506.2997354043497
 20
443.6370482378716
 30
0.0
 11
506.2997354043497
 21
423.1370300922846
 31
0.0
  0
LINE
  5
1C2
330
1F
100
AcDbEntity
  8
D-A
  6
Continuous
 62
     2
370
     9
100
AcDbLine
 10
507.0497255067568
 20
423.1370300922846
 30
0.0
 11
506.2997354043497
 21
423.1370300922846
 31
0.0
  0
LINE
  5
1C3
330
1F
100
AcDbEntity
  8
D-A
  6
Continuous
 62
     2
370
     9
100
AcDbLine
 10
501.1747617979307
 20
438.5119509115414
 30
0.0
 11
486.2165296399917
 21
438.5119509115414
 31
0.0
  0
LINE
  5
1C4
330
1F
100
AcDbEntity
  8
D-A
  6
Continuous
 62
     2
370
     9
100
AcDbLine
 10
501.1747617979307
 20
428.2618799787923
 30
0.0
 11
486.2165296399917
 21
428.2618799787923
 31
0.0
  0
LINE
  5
1C5
330
1F
100
AcDbEntity
  8
D-A
  6
Continuous
 62
     2
370
     9
100
AcDbLine
 10
486.2165296399917
 20
428.2618799787923
 30
0.0
 11
444.5496430268159
 21
433.3869773051225
 31
0.0
  0
LINE
  5
1C6
330
1F
100
AcDbEntity
  8
D-A
  6
Continuous
 62
     2
370
     9
100
AcDbLine
 10
444.5496430268159
 20
433.3869773051225
 30
0.0
 11
486.2165296399917
 21
438.5119509115414
 31
0.0
  0
LINE
  5
1C7
330
1F
100
AcDbEntity
  8
D-A
  6
Continuous
 62
     2
370
     9
100
AcDbLine
 10
448.0848157728042
 20
431.6926331196283
 30
0.0
 11
448.6957446948904
 21
435.156295756875
 31
0.0
  0
LINE
  5
1C8
330
1F
100
AcDbEntity
  8
D-A
  6
Continuous
 62
     2
370
     9
100
AcDbLine
 10
452.4894920555323
 20
431.1509873478801
 30
0.0
 11
453.2954035578547
 21
435.7221906312415
 31
0.0
  0
LINE
  5
1C9
330
1F
100
AcDbEntity
  8
D-A
  6
Continuous
 62
     2
370
     9
100
AcDbLine
 10
483.3207413956927
 20
427.3587246261741
 30
0.0
 11
485.4937579180745
 21
439.6825887124282
 31
0.0
  0
LINE
  5
1CA
330
1F
100
AcDbEntity
  8
D-A
  6
Continuous
 62
     2
370
     9
100
AcDbLine
 10
478.9160651129646
 20
427.9003703979224
 30
0.0
 11
480.8940990551099
 21
439.116817557973
 31
0.0
  0
LINE
  5
1CB
330
1F
100
AcDbEntity
  8
D-A
  6
Continuous
 62
     2
370
     9
100
AcDbLine
 10
474.5116362700591
 20
428.442139889582
 30
0.0
 11
476.2941927523227
 21
438.5510464035178
 31
0.0
  0
LINE
  5
1CC
330
1F
100
AcDbEntity
  8
D-A
  6
Continuous
 62
     2
370
     9
100
AcDbLine
 10
470.1072074271539
 20
428.9840331011528
 30
0.0
 11
471.6942864495357
 21
437.9852752490625
 31
0.0
  0
LINE
  5
1CD
330
1F
100
AcDbEntity
  8
D-A
  6
Continuous
 62
     2
370
     9
100
AcDbLine
 10
465.7027785842484
 20
429.5258025928125
 30
0.0
 11
467.0948750263938
 21
437.4193803746959
 31
0.0
  0
LINE
  5
1CE
330
1F
100
AcDbEntity
  8
D-A
  6
Continuous
 62
     2
370
     9
100
AcDbLine
 10
461.298349741343
 20
430.0674483645608
 30
0.0
 11
462.4949687236065
 21
436.8537329401521
 31
0.0
  0
LINE
  5
1CF
330
1F
100
AcDbEntity
  8
D-A
  6
Continuous
 62
     2
370
     9
100
AcDbLine
 10
456.8939208984375
 20
430.6092178562204
 30
0.0
 11
457.8950624208193
 21
436.2878380657855
 31
0.0
  0
LINE
  5
1D0
330
1F
100
AcDbEntity
  8
D-0
  6
JWW_CENTER1
 62
     4
370
     9
100
AcDbLine
 10
442.3533671611065
 20
433.3869773051225
 30
0.0
 11
508.3752606366133
 21
433.3869773051225
 31
0.0
  0
LINE
  5
1D1
330
1F
100
AcDbEntity
  8
D-0
  6
Continuous
 62
     4
370
     9
100
AcDbLine
 10
507.0497255067568
 20
444.6370762810516
 30
0.0
 11
507.0497255067568
 21
398.3869855531165
 31
0.0
  0
LINE
  5
1D2
330
1F
100
AcDbEntity
  8
D-0
  6
Continuous
 62
     4
370
     9
100
AcDbLine
 10
509.5496100348396
 20
449.6370927770397
 30
0.0
 11
509.5496100348396
 21
445.8871422650043
 31
0.0
  0
LINE
  5
1D3
330
1F
100
AcDbEntity
  8
D-0
  6
Continuous
 62
     4
370
     9
100
AcDbLine
 10
509.5496100348396
 20
445.8871422650043
 30
0.0
 11
507.0497255067568
 21
444.6370762810516
 31
0.0
  0
LINE
  5
1D4
330
1F
100
AcDbEntity
  8
D-0
  6
Continuous
 62
     4
370
     9
100
AcDbLine
 10
479.5500059385557
 20
449.6370927770397
 30
0.0
 11
502.0497090107688
 21
449.6370927770397
 31
0.0
  0
LINE
  5
1D5
330
1F
100
AcDbEntity
  8
D-0
  6
Continuous
 62
     4
370
     9
100
AcDbLine
 10
502.0497090107688
 20
449.6370927770397
 30
0.0
 11
502.0497090107688
 21
439.3868981243793
 31
0.0
  0
LINE
  5
1D6
330
1F
100
AcDbEntity
  8
D-0
  6
Continuous
 62
     4
370
     9
100
AcDbLine
 10
502.0497090107688
 20
427.3870564858657
 30
0.0
 11
502.0497090107688
 21
405.3871818553759
 31
0.0
  0
LINE
  5
1D7
330
1F
100
AcDbEntity
  8
D-6
  6
Continuous
 62
     6
370
     5
100
AcDbLine
 10
529.5496760187922
 20
349.6368865771875
 30
0.0
 11
532.0498079866977
 21
349.6368865771875
 31
0.0
  0
LINE
  5
1D8
330
1F
100
AcDbEntity
  8
D-6
  6
Continuous
 62
     6
370
     5
100
AcDbLine
 10
532.0498079866977
 20
322.6147258666724
 30
0.0
 11
505.0273998363599
 21
349.6368865771875
 31
0.0
  0
LINE
  5
1D9
330
1F
100
AcDbEntity
  8
D-6
  6
Continuous
 62
     6
370
     5
100
AcDbLine
 10
532.0498079866977
 20
302.7621340170101
 30
0.0
 11
666.3598962732266
 21
302.7621340170101
 31
0.0
  0
LINE
  5
1DA
330
1F
100
AcDbEntity
  8
D-6
  6
Continuous
 62
     6
370
     5
100
AcDbLine
 10
532.0498079866977
 20
287.2594105293623
 30
0.0
 11
483.5337870829815
 21
335.7753077131673
 31
0.0
  0
LINE
  5
1DB
330
1F
100
AcDbEntity
  8
D-6
  6
Continuous
 62
     6
370
     5
100
AcDbLine
 10
532.0498079866977
 20
277.7620515370692
 30
0.0
 11
641.3598137932856
 21
277.7620515370692
 31
0.0
  0
LINE
  5
1DC
330
1F
100
AcDbEntity
  8
D-6
  6
Continuous
 62
     6
370
     5
100
AcDbLine
 10
532.0498079866977
 20
251.903971472141
 30
0.0
 11
479.6613538587417
 21
304.2924256000971
 31
0.0
  0
LINE
  5
1DD
330
1F
100
AcDbEntity
  8
D-6
  6
Continuous
 62
     6
370
     5
100
AcDbLine
 10
532.0498079866977
 20
252.7620927770397
 30
0.0
 11
616.3599787531672
 21
252.7620927770397
 31
0.0
  0
LINE
  5
1DE
330
1F
100
AcDbEntity
  8
D-4
  6
Continuous
 62
     7
370
     9
100
AcDbLine
 10
135.8813311602619
 20
527.2717082885474
 30
0.0
 11
542.049840978674
 21
527.2717082885474
 31
0.0
  0
LINE
  5
1DF
330
1F
100
AcDbEntity
  8
D-4
  6
Continuous
 62
     7
370
     9
100
AcDbLine
 10
509.5501049144849
 20
464.2226805620903
 30
0.0
 11
509.5501049144849
 21
528.7716884933616
 31
0.0
  0
LINE
  5
1E0
330
1F
100
AcDbEntity
  8
D-4
  6
Continuous
 62
     7
370
     9
100
AcDbLine
 10
512.0499894425677
 20
464.2226805620903
 30
0.0
 11
512.0499894425677
 21
528.7716884933616
 31
0.0
  0
LINE
  5
1E1
330
1F
100
AcDbEntity
  8
D-4
  6
Continuous
 62
     7
370
     9
100
AcDbLine
 10
542.049840978674
 20
464.2226805620903
 30
0.0
 11
542.049840978674
 21
569.7699927057771
 31
0.0
  0
LINE
  5
1E2
330
1F
100
AcDbEntity
  8
D-4
  6
Continuous
 62
     7
370
     9
100
AcDbLine
 10
135.8813311602619
 20
568.2701362208742
 30
0.0
 11
542.049840978674
 21
568.2701362208742
 31
0.0
  0
LINE
  5
1E3
330
1F
100
AcDbEntity
  8
D-4
  6
Continuous
 62
     7
370
     9
100
AcDbLine
 10
387.0159252269849
 20
476.9689244255828
 30
0.0
 11
315.0129163587417
 21
476.9689244255828
 31
0.0
  0
LINE
  5
1E4
330
1F
100
AcDbEntity
  8
D-4
  6
Continuous
 62
     7
370
     9
100
AcDbLine
 10
347.4745466902451
 20
412.1369690571283
 30
0.0
 11
352.5346910631336
 21
423.5669567841132
 31
0.0
  0
LINE
  5
1E5
330
1F
100
AcDbEntity
  8
D-4
  6
Continuous
 62
     7
370
     9
100
AcDbLine
 10
347.4745466902451
 20
412.1369690571283
 30
0.0
 11
355.3203685863599
 21
421.8679112419891
 31
0.0
  0
LINE
  5
1E6
330
1F
100
AcDbEntity
  8
D-4
  6
Continuous
 62
     7
370
     9
100
AcDbLine
 10
381.9582552523227
 20
407.1369525611402
 30
0.0
 11
387.0183996252112
 21
418.566940288125
 31
0.0
  0
LINE
  5
1E7
330
1F
100
AcDbEntity
  8
D-4
  6
Continuous
 62
     7
370
     9
100
AcDbLine
 10
381.9582552523227
 20
407.1369525611402
 30
0.0
 11
389.8043245882602
 21
416.8678947460009
 31
0.0
  0
LINE
  5
1E8
330
1F
100
AcDbEntity
  8
D-4
  6
Continuous
 62
     7
370
     9
100
AcDbLine
 10
135.8813311602619
 20
125.7773367197128
 30
0.0
 11
447.0497749947214
 21
125.7773367197128
 31
0.0
  0
LINE
  5
1E9
330
1F
100
AcDbEntity
  8
D-4
  6
Continuous
 62
     7
370
     9
100
AcDbLine
 10
447.0497749947214
 20
125.7773367197128
 30
0.0
 11
529.5496760187922
 21
125.7773367197128
 31
0.0
  0
LINE
  5
1EA
330
1F
100
AcDbEntity
  8
D-4
  6
Continuous
 62
     7
370
     9
100
AcDbLine
 10
529.5496760187922
 20
342.1368618332052
 30
0.0
 11
529.5496760187922
 21
124.2773565148987
 31
0.0
  0
LINE
  5
1EB
330
1F
100
AcDbEntity
  8
D-6
  6
Continuous
 62
     6
370
     5
100
AcDbLine
 10
447.0497749947214
 20
349.6368865771875
 30
0.0
 11
447.0497749947214
 21
99.74283206124579
 31
0.0
  0
LINE
  5
1EC
330
1F
100
AcDbEntity
  8
D-4
  6
Continuous
 62
     7
370
     9
100
AcDbLine
 10
680.8173102301521
 20
349.6368865771875
 30
0.0
 11
680.8173102301521
 21
449.6370927770397
 31
0.0
  0
LINE
  5
1ED
330
1F
100
AcDbEntity
  8
D-4
  6
Continuous
 62
     7
370
     9
100
AcDbLine
 10
539.5497090107688
 20
349.6368865771875
 30
0.0
 11
724.3060962573904
 21
349.6368865771875
 31
0.0
  0
LINE
  5
1EE
330
1F
100
AcDbEntity
  8
D-4
  6
Continuous
 62
     7
370
     9
100
AcDbLine
 10
688.3174586940456
 20
449.6370927770397
 30
0.0
 11
682.3172904349665
 21
449.6370927770397
 31
0.0
  0
LINE
  5
1EF
330
1F
100
AcDbEntity
  8
D-6
  6
Continuous
 62
     6
370
     5
100
AcDbLine
 10
532.0498079866977
 20
449.6370927770397
 30
0.0
 11
532.0498079866977
 21
99.74283206124579
 31
0.0
  0
LINE
  5
1F0
330
1F
100
AcDbEntity
  8
D-6
  6
Continuous
 62
     6
370
     5
100
AcDbLine
 10
532.0498079866977
 20
216.5486561348311
 30
0.0
 11
447.0497749947214
 21
301.5486891268073
 31
0.0
  0
LINE
  5
1F1
330
1F
100
AcDbEntity
  8
D-6
  6
Continuous
 62
     6
370
     5
100
AcDbLine
 10
532.0498079866977
 20
181.1930933576984
 30
0.0
 11
447.0497749947214
 21
266.1934975094088
 31
0.0
  0
LINE
  5
1F2
330
1F
100
AcDbEntity
  8
D-6
  6
Continuous
 62
     6
370
     5
100
AcDbLine
 10
532.0498079866977
 20
145.8381491801224
 30
0.0
 11
447.0497749947214
 21
230.8381821720988
 31
0.0
  0
LINE
  5
1F3
330
1F
100
AcDbEntity
  8
D-6
  6
Continuous
 62
     6
370
     5
100
AcDbLine
 10
472.0793028135557
 20
99.74283206124579
 30
0.0
 11
447.0497749947214
 21
124.7724835999915
 31
0.0
  0
LINE
  5
1F4
330
1F
100
AcDbEntity
  8
D-6
  6
Continuous
 62
     6
370
     5
100
AcDbLine
 10
532.0498079866977
 20
110.4825864029899
 30
0.0
 11
523.6190383498734
 21
118.9132323199028
 31
0.0
  0
LINE
  5
1F5
330
1F
100
AcDbEntity
  8
D-6
  6
Continuous
 62
     6
370
     5
100
AcDbLine
 10
489.842512800887
 20
152.6898815888007
 30
0.0
 11
447.0497749947214
 21
195.4829905547002
 31
0.0
  0
LINE
  5
1F6
330
1F
100
AcDbEntity
  8
D-6
  6
Continuous
 62
     6
370
     5
100
AcDbLine
 10
507.4344944309544
 20
99.74283206124579
 30
0.0
 11
488.2640941722974
 21
118.9132323199028
 31
0.0
  0
LINE
  5
1F7
330
1F
100
AcDbEntity
  8
D-6
  6
Continuous
 62
     6
370
     5
100
AcDbLine
 10
454.4873211834883
 20
152.6898815888007
 30
0.0
 11
447.0497749947214
 21
160.1276752173902
 31
0.0
  0
LINE
  5
1F8
330
1F
100
AcDbEntity
  8
D-4
  6
Continuous
 62
     7
370
     9
100
AcDbLine
 10
305.548838022593
 20
54.56069160780405
 30
0.0
 11
570.8127408414273
 21
54.56069160780405
 31
0.0
  0
LINE
  5
1F9
330
1F
100
AcDbEntity
  8
D-4
  6
Continuous
 62
     7
370
     9
100
AcDbLine
 10
381.9582552523227
 20
407.1369525611402
 30
0.0
 11
517.6854314030828
 21
629.6748644659649
 31
0.0
  0
LINE
  5
1FA
330
1F
100
AcDbEntity
  8
D-4
  6
Continuous
 62
     7
370
     9
100
AcDbLine
 10
347.4745466902451
 20
412.1370927770397
 30
0.0
 11
387.0159252269849
 21
476.9689244255828
 31
0.0
  0
LINE
  5
1FB
330
1F
100
AcDbEntity
  8
D-B
  6
Continuous
 62
     7
370
     9
100
AcDbLine
 10
363.0253972233953
 20
449.6370927770397
 30
0.0
 11
339.549544050887
 21
449.6370927770397
 31
0.0
  0
LINE
  5
1FC
330
1F
100
AcDbEntity
  8
D-B
  6
Continuous
 62
     7
370
     9
100
AcDbLine
 10
358.4509772223396
 20
442.1370680330574
 30
0.0
 11
320.8000389305323
 21
442.1370680330574
 31
0.0
  0
LINE
  5
1FD
330
1F
100
AcDbEntity
  8
D-B
  6
Continuous
 62
     7
370
     9
100
AcDbLine
 10
344.7282120988177
 20
419.6369938011106
 30
0.0
 11
320.8000389305323
 21
419.6369938011106
 31
0.0
  0
LINE
  5
1FE
330
1F
100
AcDbEntity
  8
D-B
  6
Continuous
 62
     7
370
     9
100
AcDbLine
 10
349.3026320998734
 20
427.1371422650043
 30
0.0
 11
320.8000389305323
 21
427.1371422650043
 31
0.0
  0
LINE
  5
1FF
330
1F
100
AcDbEntity
  8
D-B
  6
Continuous
 62
     7
370
     9
100
AcDbLine
 10
353.8768046611065
 20
434.6370432890752
 30
0.0
 11
320.8000389305323
 21
434.6370432890752
 31
0.0
  0
LINE
  5
200
330
1F
100
AcDbEntity
  8
D-B
  6
Continuous
 62
     7
370
     9
100
AcDbLine
 10
392.3284582189612
 20
412.1370927770397
 30
0.0
 11
434.5496100348396
 21
412.1370927770397
 31
0.0
  0
LINE
  5
201
330
1F
100
AcDbEntity
  8
D-B
  6
Continuous
 62
     7
370
     9
100
AcDbLine
 10
479.5500059385557
 20
449.6370927770397
 30
0.0
 11
415.2000633445948
 21
449.6370927770397
 31
0.0
  0
LINE
  5
202
330
1F
100
AcDbEntity
  8
D-B
  6
Continuous
 62
     7
370
     9
100
AcDbLine
 10
400.5585541596284
 20
449.6370927770397
 30
0.0
 11
377.6669064083615
 21
449.6370927770397
 31
0.0
  0
LINE
  5
203
330
1F
100
AcDbEntity
  8
D-B
  6
Continuous
 62
     7
370
     9
100
AcDbLine
 10
498.2995110589107
 20
442.1370680330574
 30
0.0
 11
410.6256433435388
 21
442.1370680330574
 31
0.0
  0
LINE
  5
204
330
1F
100
AcDbEntity
  8
D-B
  6
Continuous
 62
     7
370
     9
100
AcDbLine
 10
395.9841341585727
 20
442.1370680330574
 30
0.0
 11
373.0924864073057
 21
442.1370680330574
 31
0.0
  0
LINE
  5
205
330
1F
100
AcDbEntity
  8
D-B
  6
Continuous
 62
     7
370
     9
100
AcDbLine
 10
434.5496100348396
 20
419.6369938011106
 30
0.0
 11
396.9028782200169
 21
419.6369938011106
 31
0.0
  0
LINE
  5
206
330
1F
100
AcDbEntity
  8
D-B
  6
Continuous
 62
     7
370
     9
100
AcDbLine
 10
382.2613690350508
 20
419.6369938011106
 30
0.0
 11
359.3694738439612
 21
419.6369938011106
 31
0.0
  0
LINE
  5
207
330
1F
100
AcDbEntity
  8
D-B
  6
Continuous
 62
     7
370
     9
100
AcDbLine
 10
436.650374129012
 20
427.1371422650043
 30
0.0
 11
401.4772982210727
 21
427.1371422650043
 31
0.0
  0
LINE
  5
208
330
1F
100
AcDbEntity
  8
D-B
  6
Continuous
 62
     7
370
     9
100
AcDbLine
 10
386.8357890361065
 20
427.1371422650043
 30
0.0
 11
363.9441412848396
 21
427.1371422650043
 31
0.0
  0
LINE
  5
209
330
1F
100
AcDbEntity
  8
D-B
  6
Continuous
 62
     7
370
     9
100
AcDbLine
 10
454.7132337415542
 20
434.6370432890752
 30
0.0
 11
406.0514707823057
 21
434.6370432890752
 31
0.0
  0
LINE
  5
20A
330
1F
100
AcDbEntity
  8
D-B
  6
Continuous
 62
     7
370
     9
100
AcDbLine
 10
391.4099615973396
 20
434.6370432890752
 30
0.0
 11
368.5183138460727
 21
434.6370432890752
 31
0.0
  0
LINE
  5
20B
330
1F
100
AcDbEntity
  8
D-B
  6
Continuous
 62
     7
370
     9
100
AcDbLine
 10
375.3345386402029
 20
408.2798771018919
 30
0.0
 11
371.4771992451438
 21
412.1370927770397
 31
0.0
  0
LINE
  5
20C
330
1F
100
AcDbEntity
  8
D-B
  6
Continuous
 62
     7
370
     9
100
AcDbLine
 10
377.34375
 20
411.5740434606334
 30
0.0
 11
376.7808244035052
 21
412.1370927770397
 31
0.0
  0
LINE
  5
20D
330
1F
100
AcDbEntity
  8
D-B
  6
Continuous
 62
     7
370
     9
100
AcDbLine
 10
392.3873488967484
 20
407.1369525611402
 30
0.0
 11
390.4565759607263
 21
409.0677254971622
 31
0.0
  0
LINE
  5
20E
330
1F
100
AcDbEntity
  8
D-4
  6
Continuous
 62
     7
370
     9
100
AcDbLine
 10
470.1267551731419
 20
374.5902029306504
 30
0.0
 11
465.0666108002534
 21
363.1602152036656
 31
0.0
  0
LINE
  5
20F
330
1F
100
AcDbEntity
  8
D-4
  6
Continuous
 62
     7
370
     9
100
AcDbLine
 10
470.1267551731419
 20
374.5902029306504
 30
0.0
 11
462.2809332770271
 21
364.8592607457897
 31
0.0
  0
LINE
  5
210
330
1F
100
AcDbEntity
  8
D-4
  6
Continuous
 62
     7
370
     9
100
AcDbLine
 10
633.5204253325592
 20
188.0529912805237
 30
0.0
 11
826.02068926837
 21
188.0529912805237
 31
0.0
  0
LINE
  5
211
330
1F
100
AcDbEntity
  8
D-4
  6
Continuous
 62
     7
370
     9
100
AcDbLine
 10
483.9806634026607
 20
342.4612554406799
 30
0.0
 11
493.7743315825591
 21
334.6939956882517
 31
0.0
  0
LINE
  5
212
330
1F
100
AcDbEntity
  8
D-4
  6
Continuous
 62
     7
370
     9
100
AcDbLine
 10
483.9806634026607
 20
342.4612554406799
 30
0.0
 11
491.4300867029138
 21
332.4237353155743
 31
0.0
  0
LINE
  5
213
330
1F
100
AcDbEntity
  8
D-4
  6
Continuous
 62
     7
370
     9
100
AcDbLine
 10
633.5204253325592
 20
188.0529912805237
 30
0.0
 11
483.9806634026607
 21
342.4612554406799
 31
0.0
  0
LINE
  5
214
330
1F
100
AcDbEntity
  8
D-6
  6
Continuous
 62
     6
370
     5
100
AcDbLine
 10
532.0498079866977
 20
442.1370680330574
 30
0.0
 11
674.5672277502113
 21
442.1370680330574
 31
0.0
  0
LINE
  5
215
330
1F
100
AcDbEntity
  8
D-6
  6
Continuous
 62
     6
370
     5
100
AcDbLine
 10
532.0498079866977
 20
434.6370432890752
 30
0.0
 11
674.5672277502113
 21
434.6370432890752
 31
0.0
  0
LINE
  5
216
330
1F
100
AcDbEntity
  8
D-6
  6
Continuous
 62
     6
370
     5
100
AcDbLine
 10
532.0498079866977
 20
427.1371422650043
 30
0.0
 11
674.5672277502113
 21
427.1371422650043
 31
0.0
  0
LINE
  5
217
330
1F
100
AcDbEntity
  8
D-6
  6
Continuous
 62
     6
370
     5
100
AcDbLine
 10
532.0498079866977
 20
419.6369938011106
 30
0.0
 11
674.5672277502113
 21
419.6369938011106
 31
0.0
  0
LINE
  5
218
330
1F
100
AcDbEntity
  8
D-6
  6
Continuous
 62
     6
370
     5
100
AcDbLine
 10
532.0498079866977
 20
412.1370927770397
 30
0.0
 11
674.5672277502113
 21
412.1370927770397
 31
0.0
  0
LINE
  5
219
330
1F
100
AcDbEntity
  8
D-4
  6
Continuous
 62
     7
370
     9
100
AcDbLine
 10
543.2994120829815
 20
454.6369855531165
 30
0.0
 11
724.3060962573904
 21
454.6369855531165
 31
0.0
  0
LINE
  5
21A
330
1F
100
AcDbEntity
  8
D-4
  6
Continuous
 62
     7
370
     9
100
AcDbLine
 10
680.8173102301521
 20
449.6370927770397
 30
0.0
 11
680.8173102301521
 21
473.1806207410389
 31
0.0
  0
LINE
  5
21B
330
1F
100
AcDbEntity
  8
D-4
  6
Continuous
 62
     7
370
     9
100
AcDbLine
 10
722.806116052576
 20
349.6368865771875
 30
0.0
 11
722.806116052576
 21
454.6369855531165
 31
0.0
  0
LINE
  5
21C
330
1F
100
AcDbEntity
  8
D-6
  6
Continuous
 62
     6
370
     5
100
AcDbLine
 10
687.0673927100929
 20
442.1370680330574
 30
0.0
 11
716.5560335726352
 21
442.1370680330574
 31
0.0
  0
LINE
  5
21D
330
1F
100
AcDbEntity
  8
D-6
  6
Continuous
 62
     6
370
     5
100
AcDbLine
 10
729.0559510926943
 20
442.1370680330574
 30
0.0
 11
768.6079695418075
 21
442.1370680330574
 31
0.0
  0
LINE
  5
21E
330
1F
100
AcDbEntity
  8
D-6
  6
Continuous
 62
     6
370
     5
100
AcDbLine
 10
687.0673927100929
 20
434.6370432890752
 30
0.0
 11
716.5560335726352
 21
434.6370432890752
 31
0.0
  0
LINE
  5
21F
330
1F
100
AcDbEntity
  8
D-6
  6
Continuous
 62
     6
370
     5
100
AcDbLine
 10
729.0559510926943
 20
434.6370432890752
 30
0.0
 11
768.6079695418075
 21
434.6370432890752
 31
0.0
  0
LINE
  5
220
330
1F
100
AcDbEntity
  8
D-6
  6
Continuous
 62
     6
370
     5
100
AcDbLine
 10
687.0673927100929
 20
427.1371422650043
 30
0.0
 11
716.5560335726352
 21
427.1371422650043
 31
0.0
  0
LINE
  5
221
330
1F
100
AcDbEntity
  8
D-6
  6
Continuous
 62
     6
370
     5
100
AcDbLine
 10
729.0559510926943
 20
427.1371422650043
 30
0.0
 11
768.6079695418075
 21
427.1371422650043
 31
0.0
  0
LINE
  5
222
330
1F
100
AcDbEntity
  8
D-6
  6
Continuous
 62
     6
370
     5
100
AcDbLine
 10
687.0673927100929
 20
419.6369938011106
 30
0.0
 11
716.5560335726352
 21
419.6369938011106
 31
0.0
  0
LINE
  5
223
330
1F
100
AcDbEntity
  8
D-6
  6
Continuous
 62
     6
370
     5
100
AcDbLine
 10
729.0559510926943
 20
419.6369938011106
 30
0.0
 11
768.6079695418075
 21
419.6369938011106
 31
0.0
  0
LINE
  5
224
330
1F
100
AcDbEntity
  8
D-6
  6
Continuous
 62
     6
370
     5
100
AcDbLine
 10
687.0673927100929
 20
412.1370927770397
 30
0.0
 11
716.5560335726352
 21
412.1370927770397
 31
0.0
  0
LINE
  5
225
330
1F
100
AcDbEntity
  8
D-6
  6
Continuous
 62
     6
370
     5
100
AcDbLine
 10
729.0559510926943
 20
412.1370927770397
 30
0.0
 11
768.6079695418075
 21
412.1370927770397
 31
0.0
  0
LINE
  5
226
330
1F
100
AcDbEntity
  8
D-6
  6
Continuous
 62
     6
370
     5
100
AcDbLine
 10
542.0495935388516
 20
449.6370927770397
 30
0.0
 11
716.5560335726352
 21
449.6370927770397
 31
0.0
  0
LINE
  5
227
330
1F
100
AcDbEntity
  8
D-6
  6
Continuous
 62
     6
370
     5
100
AcDbLine
 10
729.0559510926943
 20
449.6370927770397
 30
0.0
 11
768.6079695418075
 21
449.6370927770397
 31
0.0
  0
LINE
  5
228
330
1F
100
AcDbEntity
  8
D-4
  6
Continuous
 62
     7
370
     9
100
AcDbLine
 10
506.4246925147805
 20
452.1369154451668
 30
0.0
 11
511.484836887669
 21
463.5669031721517
 31
0.0
  0
LINE
  5
229
330
1F
100
AcDbEntity
  8
D-4
  6
Continuous
 62
     7
370
     9
100
AcDbLine
 10
506.4246925147805
 20
452.1369154451668
 30
0.0
 11
514.2707618507179
 21
461.8677957700719
 31
0.0
  0
LINE
  5
22A
330
1F
100
AcDbEntity
  8
D-5
  6
Continuous
 62
     7
370
     9
100
AcDbLine
 10
506.3262114653716
 20
384.6371257690162
 30
0.0
 11
508.8260959934544
 21
387.1370102970988
 31
0.0
  0
LINE
  5
22B
330
1F
100
AcDbEntity
  8
D-5
  6
Continuous
 62
     7
370
     9
100
AcDbLine
 10
492.3951020111909
 20
375.6558025268287
 30
0.0
 11
493.2997420027451
 21
376.5604425183827
 31
0.0
  0
LINE
  5
22C
330
1F
100
AcDbEntity
  8
D-5
  6
Continuous
 62
     7
370
     9
100
AcDbLine
 10
501.3764252533784
 20
384.6371257690162
 30
0.0
 11
503.8763097814612
 21
387.1370102970988
 31
0.0
  0
LINE
  5
22D
330
1F
100
AcDbEntity
  8
D-5
  6
Continuous
 62
     7
370
     9
100
AcDbLine
 10
485.6813173036318
 20
373.8918040312627
 30
0.0
 11
490.1765565614443
 21
378.3871670089866
 31
0.0
  0
LINE
  5
22E
330
1F
100
AcDbEntity
  8
D-5
  6
Continuous
 62
     7
370
     9
100
AcDbLine
 10
496.4266390413852
 20
384.6371257690162
 30
0.0
 11
498.926523569468
 21
387.1370102970988
 31
0.0
  0
LINE
  5
22F
330
1F
100
AcDbEntity
  8
D-5
  6
Continuous
 62
     7
370
     9
100
AcDbLine
 10
480.2331872888513
 20
373.3933365085642
 30
0.0
 11
482.33642578125
 21
375.4966987208742
 31
0.0
  0
LINE
  5
230
330
1F
100
AcDbEntity
  8
D-5
  6
Continuous
 62
     7
370
     9
100
AcDbLine
 10
487.0496595228042
 20
380.2099324624282
 30
0.0
 11
490.1745770428633
 21
383.3349737023987
 31
0.0
  0
LINE
  5
231
330
1F
100
AcDbEntity
  8
D-5
  6
Continuous
 62
     7
370
     9
100
AcDbLine
 10
491.4768528293919
 20
384.6371257690162
 30
0.0
 11
493.9767373574747
 21
387.1370102970988
 31
0.0
  0
LINE
  5
232
330
1F
100
AcDbEntity
  8
D-5
  6
Continuous
 62
     7
370
     9
100
AcDbLine
 10
475.4969416437922
 20
373.606753355587
 30
0.0
 11
477.3458119985222
 21
375.4556237103168
 31
0.0
  0
LINE
  5
233
330
1F
100
AcDbEntity
  8
D-5
  6
Continuous
 62
     7
370
     9
100
AcDbLine
 10
486.5273140572214
 20
384.6371257690162
 30
0.0
 11
489.0269511454815
 21
387.1370102970988
 31
0.0
  0
LINE
  5
234
330
1F
100
AcDbEntity
  8
D-5
  6
Continuous
 62
     7
370
     9
100
AcDbLine
 10
471.2563179634714
 20
374.315792167348
 30
0.0
 11
472.9468268317146
 21
376.0065484754139
 31
0.0
  0
LINE
  5
235
330
1F
100
AcDbEntity
  8
D-5
  6
Continuous
 62
     7
370
     9
100
AcDbLine
 10
481.5775278452281
 20
384.6371257690162
 30
0.0
 11
484.0774123733109
 21
387.1370102970988
 31
0.0
  0
LINE
  5
236
330
1F
100
AcDbEntity
  8
D-5
  6
Continuous
 62
     7
370
     9
100
AcDbLine
 10
467.4004632073482
 20
375.4098473431293
 30
0.0
 11
472.0496100348396
 21
380.0591178905321
 31
0.0
  0
LINE
  5
237
330
1F
100
AcDbEntity
  8
D-5
  6
Continuous
 62
     7
370
     9
100
AcDbLine
 10
476.6277416332349
 20
384.6371257690162
 30
0.0
 11
479.1276261613177
 21
387.1370102970988
 31
0.0
  0
LINE
  5
238
330
1F
100
AcDbEntity
  8
D-5
  6
Continuous
 62
     7
370
     9
100
AcDbLine
 10
468.9244450749578
 20
381.8837391426436
 30
0.0
 11
474.1778399493245
 21
387.1370102970988
 31
0.0
  0
LINE
  5
239
330
1F
100
AcDbEntity
  8
D-5
  6
Continuous
 62
     7
370
     9
100
AcDbLine
 10
466.7281692092484
 20
384.6371257690162
 30
0.0
 11
469.2280537373313
 21
387.1370102970988
 31
0.0
  0
LINE
  5
23A
330
1F
100
AcDbEntity
  8
D-5
  6
Continuous
 62
     7
370
     9
100
AcDbLine
 10
461.7783829972552
 20
384.6371257690162
 30
0.0
 11
464.278267525338
 21
387.1370102970988
 31
0.0
  0
LINE
  5
23B
330
1F
100
AcDbEntity
  8
D-5
  6
Continuous
 62
     7
370
     9
100
AcDbLine
 10
456.828596785262
 20
384.6371257690162
 30
0.0
 11
459.3284813133448
 21
387.1370102970988
 31
0.0
  0
LINE
  5
23C
330
1F
100
AcDbEntity
  8
D-5
  6
Continuous
 62
     7
370
     9
100
AcDbLine
 10
451.8788105732688
 20
384.6371257690162
 30
0.0
 11
454.3786951013513
 21
387.1370102970988
 31
0.0
  0
ARC
  5
23D
330
1F
100
AcDbEntity
  8
D-5
  6
Continuous
 62
     7
370
     9
100
AcDbCircle
 10
479.5500059385557
 20
410.887026793087
 30
0.0
 40
37.50000386624723
100
AcDbArc
 50
248.4898071289062
 51
291.5101928710938
  0
ARC
  5
23E
330
1F
100
AcDbEntity
  8
D-5
  6
Continuous
 62
     7
370
     9
100
AcDbCircle
 10
479.5500059385557
 20
410.887026793087
 30
0.0
 40
35.50000190734863
100
AcDbArc
 50
257.8034057617188
 51
282.1965942382812
  0
ARC
  5
23F
330
1F
100
AcDbEntity
  8
D-1
  6
Continuous
 62
     2
370
     9
100
AcDbCircle
 10
493.2997420027451
 20
382.1372412409333
 30
0.0
 40
2.500003415185052
100
AcDbArc
 50
90.0
 51
270.0
  0
ARC
  5
240
330
1F
100
AcDbEntity
  8
D-1
  6
Continuous
 62
     2
370
     9
100
AcDbCircle
 10
465.7997749947214
 20
382.1372412409333
 30
0.0
 40
2.500003415185052
100
AcDbArc
 50
270.0
 51
90.0
  0
ARC
  5
241
330
1F
100
AcDbEntity
  8
D-1
  6
Continuous
 62
     2
370
     9
100
AcDbCircle
 10
501.4246760187922
 20
377.1371010250339
 30
0.0
 40
2.500000032218727
100
AcDbArc
 50
90.0
 51
180.0
  0
ARC
  5
242
330
1F
100
AcDbEntity
  8
D-1
  6
Continuous
 62
     2
370
     9
100
AcDbCircle
 10
457.6743460990289
 20
377.1371010250339
 30
0.0
 40
2.500000032218727
100
AcDbArc
 50
0.0
 51
90.0
  0
ARC
  5
243
330
1F
100
AcDbEntity
  8
D-1
  6
Continuous
 62
     2
370
     9
100
AcDbCircle
 10
453.2993625950169
 20
377.1371010250339
 30
0.0
 40
2.500000032218727
100
AcDbArc
 50
90.0
 51
180.0
  0
ARC
  5
244
330
1F
100
AcDbEntity
  8
D-1
  6
Continuous
 62
     2
370
     9
100
AcDbCircle
 10
453.2993625950169
 20
355.8870927770397
 30
0.0
 40
2.500000032218727
100
AcDbArc
 50
180.0
 51
270.0
  0
ARC
  5
245
330
1F
100
AcDbEntity
  8
D-1
  6
Continuous
 62
     2
370
     9
100
AcDbCircle
 10
463.9249234586148
 20
355.8870927770397
 30
0.0
 40
2.500000032218727
100
AcDbArc
 50
270.0
 51
0.0
  0
ARC
  5
246
330
1F
100
AcDbEntity
  8
D-1
  6
Continuous
 62
     2
370
     9
100
AcDbCircle
 10
463.9249234586148
 20
358.3871010250339
 30
0.0
 40
2.500000032218727
100
AcDbArc
 50
0.0
 51
90.0
  0
ARC
  5
247
330
1F
100
AcDbEntity
  8
D-1
  6
Continuous
 62
     2
370
     9
100
AcDbCircle
 10
462.6746100348396
 20
363.3869938011106
 30
0.0
 40
2.500000032218727
100
AcDbArc
 50
180.0
 51
270.0
  0
ARC
  5
248
330
1F
100
AcDbEntity
  8
D-1
  6
Continuous
 62
     2
370
     9
100
AcDbCircle
 10
509.5496100348396
 20
377.1371010250339
 30
0.0
 40
2.500000032218727
100
AcDbArc
 50
0.0
 51
90.0
  0
ARC
  5
249
330
1F
100
AcDbEntity
  8
D-1
  6
Continuous
 62
     2
370
     9
100
AcDbCircle
 10
495.174840978674
 20
364.6371835049747
 30
0.0
 40
3.75000004832809
100
AcDbArc
 50
270.0
 51
0.0
  0
ARC
  5
24A
330
1F
100
AcDbEntity
  8
D-1
  6
Continuous
 62
     2
370
     9
100
AcDbCircle
 10
527.049544050887
 20
357.1370350410811
 30
0.0
 40
2.500003415185052
100
AcDbArc
 50
0.0
 51
180.0
  0
ARC
  5
24B
330
1F
100
AcDbEntity
  8
D-1
  6
Continuous
 62
     2
370
     9
100
AcDbCircle
 10
509.5496100348396
 20
355.8870927770397
 30
0.0
 40
2.500000032218727
100
AcDbArc
 50
270.0
 51
0.0
  0
ARC
  5
24C
330
1F
100
AcDbEntity
  8
D-1
  6
Continuous
 62
     2
370
     9
100
AcDbCircle
 10
495.174840978674
 20
355.8870927770397
 30
0.0
 40
2.500000032218727
100
AcDbArc
 50
180.0
 51
270.0
  0
ARC
  5
24D
330
1F
100
AcDbEntity
  8
D-1
  6
Continuous
 62
     2
370
     9
100
AcDbCircle
 10
527.049544050887
 20
397.1367958492526
 30
0.0
 40
2.500003415185052
100
AcDbArc
 50
180.0
 51
0.0
  0
ARC
  5
24E
330
1F
100
AcDbEntity
  8
D-1
  6
Continuous
 62
     2
370
     9
100
AcDbCircle
 10
522.0497749947214
 20
444.6369525611402
 30
0.0
 40
5.000000064437454
100
AcDbArc
 50
90.0
 51
180.0
  0
ARC
  5
24F
330
1F
100
AcDbEntity
  8
D-1
  6
Continuous
 62
     2
370
     9
100
AcDbCircle
 10
492.6747090107688
 20
368.3868865771875
 30
0.0
 40
2.500000032218727
100
AcDbArc
 50
270.0
 51
0.0
  0
ARC
  5
250
330
1F
100
AcDbEntity
  8
D-1
  6
Continuous
 62
     2
370
     9
100
AcDbCircle
 10
466.4248079866977
 20
368.3868865771875
 30
0.0
 40
2.500000032218727
100
AcDbArc
 50
180.0
 51
270.0
  0
ARC
  5
251
330
1F
100
AcDbEntity
  8
D-A
  6
Continuous
 62
     2
370
     9
100
AcDbCircle
 10
434.5496100348396
 20
392.0661352839021
 30
0.0
 40
3.75000004832809
100
AcDbArc
 50
180.0
 51
254.5338897705078
  0
ARC
  5
252
330
1F
100
AcDbEntity
  8
D-A
  6
Continuous
 62
     2
370
     9
100
AcDbCircle
 10
444.5496430268159
 20
392.0661352839021
 30
0.0
 40
3.75000004832809
100
AcDbArc
 50
285.4661102294922
 51
0.0
  0
ARC
  5
253
330
1F
100
AcDbEntity
  8
D-A
  6
Continuous
 62
     2
370
     9
100
AcDbCircle
 10
439.5496265308279
 20
410.1370366906799
 30
0.0
 40
22.50000077324945
100
AcDbArc
 50
254.5339660644532
 51
266.6239776611328
  0
ARC
  5
254
330
1F
100
AcDbEntity
  8
D-A
  6
Continuous
 62
     2
370
     9
100
AcDbCircle
 10
439.5496265308279
 20
410.1370366906799
 30
0.0
 40
22.50000077324945
100
AcDbArc
 50
273.3760375976562
 51
285.4660339355468
  0
ARC
  5
255
330
1F
100
AcDbEntity
  8
D-A
  6
Continuous
 62
     2
370
     9
100
AcDbCircle
 10
479.5500059385557
 20
363.287770432234
 30
0.0
 40
9.849169125428071
100
AcDbArc
 50
15.30145263671878
 51
164.6985473632813
  0
TEXT
  5
256
330
1F
100
AcDbEntity
  8
D-4
  6
Continuous
 62
     2
370
     9
100
AcDbText
 10
494.7992438239021
 20
532.5917165365414
 30
0.0
 40
15.24
  1
1
 41
0.9999999999999998
  7
ＭＳ ゴシック
100
AcDbText
  0
TEXT
  5
257
330
1F
100
AcDbEntity
  8
D-4
  6
Continuous
 62
     2
370
     9
100
AcDbText
 10
516.4249770705765
 20
532.5917165365414
 30
0.0
 40
15.24
  1
12
 41
1.0625
  7
ＭＳ ゴシック
100
AcDbText
  0
TEXT
  5
258
330
1F
100
AcDbEntity
  8
D-4
  6
Continuous
 62
     7
370
     9
100
AcDbText
 10
316.0566051586255
 20
482.5949717888641
 30
0.0
 40
11.43
  1
接着シロ
 41
1.125
  7
ＭＳ ゴシック
100
AcDbText
  0
TEXT
  5
259
330
1F
100
AcDbEntity
  8
D-4
  6
Continuous
 62
     2
370
     9
100
AcDbText
 10
477.6749110866239
 20
131.5972971293411
 30
0.0
 40
15.24
  1
33
 41
1.0625
  7
ＭＳ ゴシック
100
AcDbText
  0
TEXT
  5
25A
330
1F
100
AcDbEntity
  8
D-4
  6
Continuous
 62
     2
370
     9
100
AcDbText
 10
674.9973498205237
 20
380.4252092321178
 30
0.0
 40
15.24
  1
40
 50
90.0
 41
1.0625
  7
ＭＳ ゴシック
100
AcDbText
  0
TEXT
  5
25B
330
1F
100
AcDbEntity
  8
D-4
  6
Continuous
 62
     2
370
     9
100
AcDbText
 10
317.272569811022
 20
60.74067695936655
 30
0.0
 40
15.24
  1
断面詳細図　Ｓ＝１：２
 41
1.113636363636364
  7
ＭＳ ゴシック
100
AcDbText
  0
TEXT
  5
25C
330
1F
100
AcDbEntity
  8
D-4
  6
Continuous
 62
     7
370
     9
100
AcDbText
 10
238.1808512919659
 20
26.41503849864019
 30
0.0
 40
11.43
  1
処理：陽極酸化塗装複合皮膜処理（アルミ材のみ）
 41
1.159420289855073
  7
ＭＳ ゴシック
100
AcDbText
  0
TEXT
  5
25D
330
1F
100
AcDbEntity
  8
D-4
  6
Continuous
 62
     7
370
     9
100
AcDbText
 10
636.1645714012353
 20
194.4496899714021
 30
0.0
 40
11.43
  1
木ネジ　φ４．１×２５
 41
1.151515151515152
  7
ＭＳ ゴシック
100
AcDbText
  0
TEXT
  5
25E
330
1F
100
AcDbEntity
  8
D-4
  6
Continuous
 62
     2
370
     9
100
AcDbText
 10
674.9973498205237
 20
460.0857197334639
 30
0.0
 40
15.24
  1
2
 50
90.0
 41
0.9999999999999998
  7
ＭＳ ゴシック
100
AcDbText
  0
TEXT
  5
25F
330
1F
100
AcDbEntity
  8
D-4
  6
Continuous
 62
     2
370
     9
100
AcDbText
 10
716.9861556429477
 20
380.4252092321178
 30
0.0
 40
15.24
  1
42
 50
90.0
 41
1.0625
  7
ＭＳ ゴシック
100
AcDbText
  0
LWPOLYLINE
  5
260
330
1F
100
AcDbEntity
  8
D-4
  6
Continuous
 62
     7
370
     9
100
AcDbPolyline
 90
        4
 70
     1
 43
0.5
 10
509.8001049144849
 20
527.2717082885474
 42
0.4142135623731
 10
509.5501049144849
 20
527.5217082885474
 42
0.4142135623731
 10
509.3001049144849
 20
527.2717082885474
 42
0.4142135623731
 10
509.5501049144849
 20
527.0217082885474
 42
0.4142135623731
  0
LWPOLYLINE
  5
261
330
1F
100
AcDbEntity
  8
D-4
  6
Continuous
 62
     7
370
     9
100
AcDbPolyline
 90
        4
 70
     1
 43
0.5
 10
512.2999894425677
 20
527.2717082885474
 42
0.4142135623731
 10
512.0499894425677
 20
527.5217082885474
 42
0.4142135623731
 10
511.7999894425677
 20
527.2717082885474
 42
0.4142135623731
 10
512.0499894425677
 20
527.0217082885474
 42
0.4142135623731
  0
LWPOLYLINE
  5
262
330
1F
100
AcDbEntity
  8
D-4
  6
Continuous
 62
     7
370
     9
100
AcDbPolyline
 90
        4
 70
     1
 43
0.5
 10
542.299840978674
 20
527.2717082885474
 42
0.4142135623731
 10
542.049840978674
 20
527.5217082885474
 42
0.4142135623731
 10
541.799840978674
 20
527.2717082885474
 42
0.4142135623731
 10
542.049840978674
 20
527.0217082885474
 42
0.4142135623731
  0
LWPOLYLINE
  5
263
330
1F
100
AcDbEntity
  8
D-4
  6
Continuous
 62
     7
370
     9
100
AcDbPolyline
 90
        4
 70
     1
 43
0.5
 10
542.299840978674
 20
568.2701362208742
 42
0.4142135623731
 10
542.049840978674
 20
568.5201362208742
 42
0.4142135623731
 10
541.799840978674
 20
568.2701362208742
 42
0.4142135623731
 10
542.049840978674
 20
568.0201362208742
 42
0.4142135623731
  0
LWPOLYLINE
  5
264
330
1F
100
AcDbEntity
  8
D-4
  6
Continuous
 62
     7
370
     9
100
AcDbPolyline
 90
        4
 70
     1
 43
0.5
 10
447.2997749947214
 20
125.7773367197128
 42
0.4142135623731
 10
447.0497749947214
 20
126.0273367197128
 42
0.4142135623731
 10
446.7997749947214
 20
125.7773367197128
 42
0.4142135623731
 10
447.0497749947214
 20
125.5273367197128
 42
0.4142135623731
  0
LWPOLYLINE
  5
265
330
1F
100
AcDbEntity
  8
D-4
  6
Continuous
 62
     7
370
     9
100
AcDbPolyline
 90
        4
 70
     1
 43
0.5
 10
529.7996760187922
 20
125.7773367197128
 42
0.4142135623731
 10
529.5496760187922
 20
126.0273367197128
 42
0.4142135623731
 10
529.2996760187922
 20
125.7773367197128
 42
0.4142135623731
 10
529.5496760187922
 20
125.5273367197128
 42
0.4142135623731
  0
LWPOLYLINE
  5
266
330
1F
100
AcDbEntity
  8
D-4
  6
Continuous
 62
     7
370
     9
100
AcDbPolyline
 90
        4
 70
     1
 43
0.5
 10
681.0673102301521
 20
349.6368865771875
 42
0.4142135623731
 10
680.8173102301521
 20
349.8868865771875
 42
0.4142135623731
 10
680.5673102301521
 20
349.6368865771875
 42
0.4142135623731
 10
680.8173102301521
 20
349.3868865771875
 42
0.4142135623731
  0
LWPOLYLINE
  5
267
330
1F
100
AcDbEntity
  8
D-4
  6
Continuous
 62
     7
370
     9
100
AcDbPolyline
 90
        4
 70
     1
 43
0.5
 10
681.0673102301521
 20
449.6370927770397
 42
0.4142135623731
 10
680.8173102301521
 20
449.8870927770397
 42
0.4142135623731
 10
680.5673102301521
 20
449.6370927770397
 42
0.4142135623731
 10
680.8173102301521
 20
449.3870927770397
 42
0.4142135623731
  0
LWPOLYLINE
  5
268
330
1F
100
AcDbEntity
  8
D-4
  6
Continuous
 62
     7
370
     9
100
AcDbPolyline
 90
        4
 70
     1
 43
0.5
 10
681.0673102301521
 20
454.6369855531165
 42
0.4142135623731
 10
680.8173102301521
 20
454.8869855531165
 42
0.4142135623731
 10
680.5673102301521
 20
454.6369855531165
 42
0.4142135623731
 10
680.8173102301521
 20
454.3869855531165
 42
0.4142135623731
  0
LWPOLYLINE
  5
269
330
1F
100
AcDbEntity
  8
D-4
  6
Continuous
 62
     7
370
     9
100
AcDbPolyline
 90
        4
 70
     1
 43
0.5
 10
723.056116052576
 20
349.6368865771875
 42
0.4142135623731
 10
722.806116052576
 20
349.8868865771875
 42
0.4142135623731
 10
722.556116052576
 20
349.6368865771875
 42
0.4142135623731
 10
722.806116052576
 20
349.3868865771875
 42
0.4142135623731
  0
LWPOLYLINE
  5
26A
330
1F
100
AcDbEntity
  8
D-4
  6
Continuous
 62
     7
370
     9
100
AcDbPolyline
 90
        4
 70
     1
 43
0.5
 10
723.056116052576
 20
454.6369855531165
 42
0.4142135623731
 10
722.806116052576
 20
454.8869855531165
 42
0.4142135623731
 10
722.556116052576
 20
454.6369855531165
 42
0.4142135623731
 10
722.806116052576
 20
454.3869855531165
 42
0.4142135623731
  0
TEXT
  5
26B
330
1F
100
AcDbEntity
  8
D-4
  6
Continuous
 62
     2
370
     9
100
AcDbText
 10
136.8594525311445
 20
131.5972971293411
 30
0.0
 40
15.24
  1
□250
 41
1.1
  7
ＭＳ ゴシック
100
AcDbText
  0
TEXT
  5
26C
330
1F
100
AcDbEntity
  8
D-4
  6
Continuous
 62
     2
370
     9
100
AcDbText
 10
136.8594525311445
 20
532.5917165365414
 30
0.0
 40
15.24
  1
□300
 41
1.1
  7
ＭＳ ゴシック
100
AcDbText
  0
TEXT
  5
26D
330
1F
100
AcDbEntity
  8
D-4
  6
Continuous
 62
     2
370
     9
100
AcDbText
 10
136.018641278861
 20
574.1993413121442
 30
0.0
 40
15.24
  1
□326
 50
0.0002181117649
 41
1.1
  7
ＭＳ ゴシック
100
AcDbText
  0
TEXT
  5
26E
330
1F
100
AcDbEntity
  8
D-4
  6
Continuous
 62
     7
370
     9
100
AcDbText
 10
584.981652862128
 20
577.5493822215934
 30
0.0
 40
11.43
  1
蓋フレーム（Ａ６０６３Ｓ－Ｔ５）
 50
0.0000255446035848
 41
1.15625
  7
ＭＳ ゴシック
100
AcDbText
  0
TEXT
  5
26F
330
1F
100
AcDbEntity
  8
D-4
  6
Continuous
 62
     7
370
     9
100
AcDbText
 10
610.9675365383796
 20
538.6423775301234
 30
0.0
 40
11.43
  1
アルミ受枠（Ａ６０６３Ｓ－Ｔ５）
 41
1.15625
  7
ＭＳ ゴシック
100
AcDbText
  0
LINE
  5
270
330
1F
100
AcDbEntity
  8
D-4
  6
Continuous
 62
     7
370
     9
100
AcDbLine
 10
506.4246925147805
 20
452.1369154451668
 30
0.0
 11
580.5251467844298
 21
573.632277993331
 31
0.0
  0
LINE
  5
271
330
1F
100
AcDbEntity
  8
D-4
  6
Continuous
 62
     7
370
     9
100
AcDbLine
 10
863.4217024352336
 20
573.632277993331
 30
0.0
 11
580.5251467844298
 21
573.632277993331
 31
0.0
  0
LINE
  5
272
330
1F
100
AcDbEntity
  8
D-4
  6
Continuous
 62
     7
370
     9
100
AcDbLine
 10
523.5165982633023
 20
404.636944313146
 30
0.0
 11
602.380264952591
 21
533.941693243542
 31
0.0
  0
LINE
  5
273
330
1F
100
AcDbEntity
  8
D-4
  6
Continuous
 62
     7
370
     9
100
AcDbLine
 10
875.7909717289414
 20
533.941693243542
 30
0.0
 11
602.380264952591
 21
533.941693243542
 31
0.0
  0
LINE
  5
274
330
1F
100
AcDbEntity
  8
D-0
  6
Continuous
 62
     4
370
     9
100
AcDbLine
 10
293.9380303920666
 20
-335.3375799921189
 30
0.0
 11
523.9381396779879
 21
-335.3375799921189
 31
0.0
  0
LINE
  5
275
330
1F
100
AcDbEntity
  8
D-0
  6
Continuous
 62
     4
370
     9
100
AcDbLine
 10
273.9381809179587
 20
-74.35278907553965
 30
0.0
 11
543.9380819420296
 21
-74.35278907553965
 31
0.0
  0
LINE
  5
276
330
1F
100
AcDbEntity
  8
D-0
  6
Continuous
 62
     4
370
     9
100
AcDbLine
 10
268.9381644219703
 20
-206.8530406393594
 30
0.0
 11
268.9381644219703
 21
-79.35292929143912
 31
0.0
  0
LINE
  5
277
330
1F
100
AcDbEntity
  8
D-0
  6
Continuous
 62
     4
370
     9
100
AcDbLine
 10
543.9380819420296
 20
-211.8531808552589
 30
0.0
 11
273.9381809179587
 21
-211.8531808552589
 31
0.0
  0
LINE
  5
278
330
1F
100
AcDbEntity
  8
D-0
  6
Continuous
 62
     4
370
     9
100
AcDbLine
 10
548.9382221579291
 20
-206.8530406393594
 30
0.0
 11
548.9382221579291
 21
-79.35292929143912
 31
0.0
  0
LINE
  5
279
330
1F
100
AcDbEntity
  8
D-0
  6
Continuous
 62
     4
370
     9
100
AcDbLine
 10
270.4041216511722
 20
-75.81726166580573
 30
0.0
 11
295.4042041311129
 21
-100.8174678656579
 31
0.0
  0
LINE
  5
27A
330
1F
100
AcDbEntity
  8
D-0
  6
Continuous
 62
     4
370
     9
100
AcDbLine
 10
547.4736258477515
 20
-210.3894505844607
 30
0.0
 11
522.4735433678109
 21
-185.3893062445642
 31
0.0
  0
LINE
  5
27B
330
1F
100
AcDbEntity
  8
D-0
  6
Continuous
 62
     4
370
     9
100
AcDbLine
 10
270.4041216511722
 20
-210.3894505844607
 30
0.0
 11
295.4042041311129
 21
-185.3893062445642
 31
0.0
  0
LINE
  5
27C
330
1F
100
AcDbEntity
  8
D-0
  6
Continuous
 62
     4
370
     9
100
AcDbLine
 10
523.9381396779879
 20
-181.8538860587533
 30
0.0
 11
523.9381396779879
 21
-104.3537540908479
 31
0.0
  0
LINE
  5
27D
330
1F
100
AcDbEntity
  8
D-0
  6
Continuous
 62
     4
370
     9
100
AcDbLine
 10
298.9382324679218
 20
-186.8538406947859
 30
0.0
 11
518.9377520222661
 21
-186.8538406947859
 31
0.0
  0
LINE
  5
27E
330
1F
100
AcDbEntity
  8
D-0
  6
Continuous
 62
     4
370
     9
100
AcDbLine
 10
298.9382324679218
 20
-99.35336643512578
 30
0.0
 11
518.9377520222661
 21
-99.35336643512578
 31
0.0
  0
LINE
  5
27F
330
1F
100
AcDbEntity
  8
D-0
  6
Continuous
 62
     4
370
     9
100
AcDbLine
 10
293.9380303920666
 20
-104.3537540908479
 30
0.0
 11
293.9380303920666
 21
-181.8538860587533
 31
0.0
  0
LINE
  5
280
330
1F
100
AcDbEntity
  8
D-2
  6
Continuous
 62
     3
370
     9
100
AcDbLine
 10
327.3131157588051
 20
-153.8530389897605
 30
0.0
 11
327.3131157588051
 21
-132.3534258206833
 31
0.0
  0
LINE
  5
281
330
1F
100
AcDbEntity
  8
D-2
  6
Continuous
 62
     3
370
     9
100
AcDbLine
 10
331.5631112224088
 20
-158.103003523386
 30
0.0
 11
486.3131516375796
 21
-158.103003523386
 31
0.0
  0
LINE
  5
282
330
1F
100
AcDbEntity
  8
D-0
  6
Continuous
 62
     4
370
     9
100
AcDbLine
 10
326.0631116348083
 20
-154.3529911513948
 30
0.0
 11
326.0631116348083
 21
-131.8530406393594
 31
0.0
  0
LINE
  5
283
330
1F
100
AcDbEntity
  8
D-0
  6
Continuous
 62
     4
370
     9
100
AcDbLine
 10
486.8131656591697
 20
-126.8530241433712
 30
0.0
 11
331.0630972008187
 21
-126.8530241433712
 31
0.0
  0
LINE
  5
284
330
1F
100
AcDbEntity
  8
D-0
  6
Continuous
 62
     4
370
     9
100
AcDbLine
 10
491.8131512251796
 20
-154.3529911513948
 30
0.0
 11
491.8131512251796
 21
-131.8530406393594
 31
0.0
  0
LINE
  5
285
330
1F
100
AcDbEntity
  8
D-0
  6
Continuous
 62
     4
370
     9
100
AcDbLine
 10
486.8131656591697
 20
-159.353007647383
 30
0.0
 11
331.0630972008187
 21
-159.353007647383
 31
0.0
  0
LINE
  5
286
330
1F
100
AcDbEntity
  8
D-0
  6
JWW_CENTER1
 62
     4
370
     9
100
AcDbLine
 10
264.0764667868352
 20
-143.1030158953771
 30
0.0
 11
557.3646615978572
 21
-143.1030158953771
 31
0.0
  0
LINE
  5
287
330
1F
100
AcDbEntity
  8
D-2
  6
Continuous
 62
     3
370
     9
100
AcDbLine
 10
486.3128114078233
 20
-128.1030282673682
 30
0.0
 11
331.5640081917655
 21
-128.1030282673682
 31
0.0
  0
LINE
  5
288
330
1F
100
AcDbEntity
  8
D-2
  6
Continuous
 62
     3
370
     9
100
AcDbLine
 10
490.5628068714265
 20
-132.3530546609493
 30
0.0
 11
490.5628068714265
 21
-153.9115585078137
 31
0.0
  0
LINE
  5
289
330
1F
100
AcDbEntity
  8
D-0
  6
Continuous
 62
     4
370
     9
100
AcDbLine
 10
547.4736258477515
 20
-75.81726166580573
 30
0.0
 11
522.4735433678109
 21
-100.8174678656579
 31
0.0
  0
LINE
  5
28A
330
1F
100
AcDbEntity
  8
D-0
  6
JWW_CENTER1
 62
     4
370
     9
100
AcDbLine
 10
408.9381314299942
 20
-67.19992240271452
 30
0.0
 11
408.9381314299942
 21
-221.3625097489719
 31
0.0
  0
ARC
  5
28B
330
1F
100
AcDbEntity
  8
D-0
  6
Continuous
 62
     4
370
     9
100
AcDbCircle
 10
518.9377520222661
 20
-104.3537540908479
 30
0.0
 40
4.99999958115655
100
AcDbArc
 50
0.0
 51
90.0
  0
ARC
  5
28C
330
1F
100
AcDbEntity
  8
D-0
  6
Continuous
 62
     4
370
     9
100
AcDbCircle
 10
518.9377520222661
 20
-181.8538860587533
 30
0.0
 40
4.99999958115655
100
AcDbArc
 50
270.0
 51
0.0
  0
ARC
  5
28D
330
1F
100
AcDbEntity
  8
D-0
  6
Continuous
 62
     4
370
     9
100
AcDbCircle
 10
298.9382324679218
 20
-181.8538860587533
 30
0.0
 40
4.99999958115655
100
AcDbArc
 50
180.0
 51
270.0
  0
ARC
  5
28E
330
1F
100
AcDbEntity
  8
D-0
  6
Continuous
 62
     4
370
     9
100
AcDbCircle
 10
298.9382324679218
 20
-104.3537540908479
 30
0.0
 40
4.99999958115655
100
AcDbArc
 50
90.0
 51
180.0
  0
ARC
  5
28F
330
1F
100
AcDbEntity
  8
D-0
  6
Continuous
 62
     4
370
     9
100
AcDbCircle
 10
543.9380819420296
 20
-79.35292929143912
 30
0.0
 40
5.000000064437454
100
AcDbArc
 50
0.0
 51
90.0
  0
ARC
  5
290
330
1F
100
AcDbEntity
  8
D-0
  6
Continuous
 62
     4
370
     9
100
AcDbCircle
 10
273.9380571980472
 20
-79.35292929143912
 30
0.0
 40
5.000000064437454
100
AcDbArc
 50
90.0
 51
180.0
  0
ARC
  5
291
330
1F
100
AcDbEntity
  8
D-0
  6
Continuous
 62
     4
370
     9
100
AcDbCircle
 10
273.9380571980472
 20
-206.8529787794037
 30
0.0
 40
5.000000064437454
100
AcDbArc
 50
180.0
 51
270.0
  0
ARC
  5
292
330
1F
100
AcDbEntity
  8
D-0
  6
Continuous
 62
     4
370
     9
100
AcDbCircle
 10
543.9380819420296
 20
-206.8529787794037
 30
0.0
 40
5.000000064437454
100
AcDbArc
 50
270.0
 51
0.0
  0
ARC
  5
293
330
1F
100
AcDbEntity
  8
D-2
  6
Continuous
 62
     3
370
     9
100
AcDbCircle
 10
331.5640081917655
 20
-132.3534258206833
 30
0.0
 40
4.250002229535902
100
AcDbArc
 50
90.0
 51
180.0
  0
ARC
  5
294
330
1F
100
AcDbEntity
  8
D-2
  6
Continuous
 62
     3
370
     9
100
AcDbCircle
 10
486.3131516375796
 20
-153.8526059700709
 30
0.0
 40
4.250002229535902
100
AcDbArc
 50
270.0
 51
359.2052154541016
  0
ARC
  5
295
330
1F
100
AcDbEntity
  8
D-2
  6
Continuous
 62
     3
370
     9
100
AcDbCircle
 10
331.5631112224088
 20
-153.8530389897605
 30
0.0
 40
4.250000296412288
100
AcDbArc
 50
180.0
 51
270.0
  0
ARC
  5
296
330
1F
100
AcDbEntity
  8
D-0
  6
Continuous
 62
     4
370
     9
100
AcDbCircle
 10
408.9381314299942
 20
-143.1030158953771
 30
0.0
 40
31.25000064437454
100
AcDbArc
 50
211.3322448730469
 51
328.6677551269532
  0
ARC
  5
297
330
1F
100
AcDbEntity
  8
D-0
  6
Continuous
 62
     4
370
     9
100
AcDbCircle
 10
408.9381314299942
 20
-143.1030158953771
 30
0.0
 40
31.25000064437454
100
AcDbArc
 50
31.33224487304688
 51
148.6677551269531
  0
ARC
  5
298
330
1F
100
AcDbEntity
  8
D-0
  6
Continuous
 62
     4
370
     9
100
AcDbCircle
 10
331.0630972008187
 20
-131.8530406393594
 30
0.0
 40
5.000000064437454
100
AcDbArc
 50
90.0
 51
180.0
  0
ARC
  5
299
330
1F
100
AcDbEntity
  8
D-0
  6
Continuous
 62
     4
370
     9
100
AcDbCircle
 10
331.0630972008187
 20
-154.3529911513948
 30
0.0
 40
5.000000064437454
100
AcDbArc
 50
180.0
 51
270.0
  0
ARC
  5
29A
330
1F
100
AcDbEntity
  8
D-0
  6
Continuous
 62
     4
370
     9
100
AcDbCircle
 10
486.8131656591697
 20
-131.8530406393594
 30
0.0
 40
5.000000064437454
100
AcDbArc
 50
0.0
 51
90.0
  0
ARC
  5
29B
330
1F
100
AcDbEntity
  8
D-0
  6
Continuous
 62
     4
370
     9
100
AcDbCircle
 10
486.8131656591697
 20
-154.3529911513948
 30
0.0
 40
5.000000064437454
100
AcDbArc
 50
270.0
 51
0.0
  0
ARC
  5
29C
330
1F
100
AcDbEntity
  8
D-2
  6
Continuous
 62
     3
370
     9
100
AcDbCircle
 10
486.3128114078233
 20
-132.3530546609493
 30
0.0
 40
4.250000296412288
100
AcDbArc
 50
0.0
 51
90.0
  0
LINE
  5
29D
330
1F
100
AcDbEntity
  8
D-0
  6
Continuous
 62
     4
370
     9
100
AcDbLine
 10
271.0672603758344
 20
-338.7680856931324
 30
0.0
 11
293.9380303920666
 21
-335.3375799921189
 31
0.0
  0
LINE
  5
29E
330
1F
100
AcDbEntity
  8
D-0
  6
Continuous
 62
     4
370
     9
100
AcDbLine
 10
268.9381644219703
 20
-341.240442540947
 30
0.0
 11
268.9381644219703
 21
-341.5874768921927
 31
0.0
  0
LINE
  5
29F
330
1F
100
AcDbEntity
  8
D-2
  6
Continuous
 62
     3
370
     9
100
AcDbLine
 10
328.9378674941833
 20
-435.3374768921927
 30
0.0
 11
488.9379004861598
 21
-435.3374768921927
 31
0.0
  0
LINE
  5
2A0
330
1F
100
AcDbEntity
  8
D-2
  6
Continuous
 62
     3
370
     9
100
AcDbLine
 10
328.9378674941833
 20
-441.5875593721336
 30
0.0
 11
488.9379004861598
 21
-441.5875593721336
 31
0.0
  0
LINE
  5
2A1
330
1F
100
AcDbEntity
  8
D-2
  6
Continuous
 62
     3
370
     9
100
AcDbLine
 10
371.4381314299942
 20
-431.8374406010187
 30
0.0
 11
378.938032454065
 21
-434.5874867897857
 31
0.0
  0
LINE
  5
2A2
330
1F
100
AcDbEntity
  8
D-2
  6
Continuous
 62
     3
370
     9
100
AcDbLine
 10
446.4381314299942
 20
-431.8374406010187
 30
0.0
 11
438.9382304059228
 21
-434.5874867897857
 31
0.0
  0
LINE
  5
2A3
330
1F
100
AcDbEntity
  8
D-2
  6
Continuous
 62
     3
370
     9
100
AcDbLine
 10
378.938032454065
 20
-434.5874867897857
 30
0.0
 11
378.938032454065
 21
-435.3374768921927
 31
0.0
  0
LINE
  5
2A4
330
1F
100
AcDbEntity
  8
D-2
  6
Continuous
 62
     3
370
     9
100
AcDbLine
 10
438.9382304059228
 20
-434.5874867897857
 30
0.0
 11
438.9382304059228
 21
-435.3374768921927
 31
0.0
  0
LINE
  5
2A5
330
1F
100
AcDbEntity
  8
D-2
  6
Continuous
 62
     3
370
     9
100
AcDbLine
 10
368.9379685321109
 20
-459.0874933881809
 30
0.0
 11
368.9379685321109
 21
-441.5875593721336
 31
0.0
  0
LINE
  5
2A6
330
1F
100
AcDbEntity
  8
D-2
  6
Continuous
 62
     3
370
     9
100
AcDbLine
 10
446.4381314299942
 20
-461.5873779162637
 30
0.0
 11
371.4381314299942
 21
-461.5873779162637
 31
0.0
  0
LINE
  5
2A7
330
1F
100
AcDbEntity
  8
D-2
  6
Continuous
 62
     3
370
     9
100
AcDbLine
 10
448.938015958077
 20
-459.0874933881809
 30
0.0
 11
448.938015958077
 21
-441.5875593721336
 31
0.0
  0
LINE
  5
2A8
330
1F
100
AcDbEntity
  8
D-2
  6
Continuous
 62
     3
370
     9
100
AcDbLine
 10
328.9378674941833
 20
-435.3374768921927
 30
0.0
 11
328.9378674941833
 21
-446.5875758681217
 31
0.0
  0
LINE
  5
2A9
330
1F
100
AcDbEntity
  8
D-2
  6
Continuous
 62
     3
370
     9
100
AcDbLine
 10
488.9379004861598
 20
-435.3374768921927
 30
0.0
 11
488.9379004861598
 21
-446.5875758681217
 31
0.0
  0
LINE
  5
2AA
330
1F
100
AcDbEntity
  8
D-2
  6
Continuous
 62
     3
370
     9
100
AcDbLine
 10
328.9378674941833
 20
-446.5875758681217
 30
0.0
 11
368.3129664701124
 21
-446.5875758681217
 31
0.0
  0
LINE
  5
2AB
330
1F
100
AcDbEntity
  8
D-2
  6
Continuous
 62
     3
370
     9
100
AcDbLine
 10
449.563048950053
 20
-446.5875758681217
 30
0.0
 11
488.9379004861598
 21
-446.5875758681217
 31
0.0
  0
LINE
  5
2AC
330
1F
100
AcDbEntity
  8
D-2
  6
Continuous
 62
     3
370
     9
100
AcDbLine
 10
449.563048950053
 20
-441.5875593721336
 30
0.0
 11
449.563048950053
 21
-446.5875758681217
 31
0.0
  0
LINE
  5
2AD
330
1F
100
AcDbEntity
  8
D-2
  6
Continuous
 62
     3
370
     9
100
AcDbLine
 10
368.3129664701124
 20
-441.5875593721336
 30
0.0
 11
368.3129664701124
 21
-446.5875758681217
 31
0.0
  0
LINE
  5
2AE
330
1F
100
AcDbEntity
  8
D-2
  6
Continuous
 62
     3
370
     9
100
AcDbLine
 10
371.4381314299942
 20
-398.8373812154613
 30
0.0
 11
371.4381314299942
 21
-431.8374406010187
 31
0.0
  0
LINE
  5
2AF
330
1F
100
AcDbEntity
  8
D-2
  6
Continuous
 62
     3
370
     9
100
AcDbLine
 10
446.4381314299942
 20
-398.8779613463734
 30
0.0
 11
446.4381314299942
 21
-431.8374406010187
 31
0.0
  0
LINE
  5
2B0
330
1F
100
AcDbEntity
  8
D-0
  6
Continuous
 62
     4
370
     9
100
AcDbLine
 10
546.8090024841536
 20
-338.7680856931324
 30
0.0
 11
523.9382633978994
 21
-335.3375799921189
 31
0.0
  0
LINE
  5
2B1
330
1F
100
AcDbEntity
  8
D-0
  6
Continuous
 62
     4
370
     9
100
AcDbLine
 10
548.9380984380176
 20
-341.240442540947
 30
0.0
 11
548.9380984380176
 21
-341.5874768921927
 31
0.0
  0
LINE
  5
2B2
330
1F
100
AcDbEntity
  8
D-D
  6
Continuous
 62
     7
370
     9
100
AcDbLine
 10
268.9381644219703
 20
-341.5874768921927
 30
0.0
 11
217.6677671325912
 21
-341.5874768921927
 31
0.0
  0
LINE
  5
2B3
330
1F
100
AcDbEntity
  8
D-3
  6
Continuous
 62
     3
370
     9
100
AcDbLine
 10
313.938312885864
 20
-392.0874393638196
 30
0.0
 11
313.938312885864
 21
-384.0874624582031
 31
0.0
  0
LINE
  5
2B4
330
1F
100
AcDbEntity
  8
D-3
  6
Continuous
 62
     3
370
     9
100
AcDbLine
 10
503.9384448537692
 20
-384.0874624582031
 30
0.0
 11
503.9384448537692
 21
-392.0874393638196
 31
0.0
  0
LINE
  5
2B5
330
1F
100
AcDbEntity
  8
D-2
  6
Continuous
 62
     3
370
     9
100
AcDbLine
 10
383.9378015102307
 20
-362.8373614202755
 30
0.0
 11
383.9378015102307
 21
-380.4096097244878
 31
0.0
  0
LINE
  5
2B6
330
1F
100
AcDbEntity
  8
D-2
  6
Continuous
 62
     3
370
     9
100
AcDbLine
 10
433.9379664701124
 20
-362.8373614202755
 30
0.0
 11
433.9379664701124
 21
-380.3374810161897
 31
0.0
  0
LINE
  5
2B7
330
1F
100
AcDbEntity
  8
D-D
  6
Continuous
 62
     7
370
     9
100
AcDbLine
 10
548.9380984380176
 20
-341.5874768921927
 30
0.0
 11
600.2084957273968
 21
-341.5874768921927
 31
0.0
  0
LINE
  5
2B8
330
1F
100
AcDbEntity
  8
D-0
  6
Continuous
 62
     4
370
     9
100
AcDbLine
 10
519.0894944934968
 20
-361.5874191562341
 30
0.0
 11
503.7862075028931
 21
-361.5874191562341
 31
0.0
  0
LINE
  5
2B9
330
1F
100
AcDbEntity
  8
D-A
  6
Continuous
 62
     2
370
     9
100
AcDbLine
 10
296.3347943740661
 20
-367.8373779162637
 30
0.0
 11
296.3347943740661
 21
-361.5874191562341
 31
0.0
  0
LINE
  5
2BA
330
1F
100
AcDbEntity
  8
D-A
  6
Continuous
 62
     2
370
     9
100
AcDbLine
 10
316.5420293495202
 20
-367.8373779162637
 30
0.0
 11
316.5420293495202
 21
-361.5874191562341
 31
0.0
  0
LINE
  5
2BB
330
1F
100
AcDbEntity
  8
D-A
  6
Continuous
 62
     2
370
     9
100
AcDbLine
 10
311.4902360706452
 20
-367.8373779162637
 30
0.0
 11
311.4902360706452
 21
-361.5874191562341
 31
0.0
  0
LINE
  5
2BC
330
1F
100
AcDbEntity
  8
D-A
  6
Continuous
 62
     2
370
     9
100
AcDbLine
 10
301.3865876529405
 20
-367.8373779162637
 30
0.0
 11
301.3865876529405
 21
-361.5874191562341
 31
0.0
  0
LINE
  5
2BD
330
1F
100
AcDbEntity
  8
D-A
  6
Continuous
 62
     2
370
     9
100
AcDbLine
 10
298.8606910135036
 20
-369.0873820402606
 30
0.0
 11
314.0161327100827
 21
-369.0873820402606
 31
0.0
  0
LINE
  5
2BE
330
1F
100
AcDbEntity
  8
D-A
  6
Continuous
 62
     2
370
     9
100
AcDbLine
 10
316.5420293495202
 20
-361.5874191562341
 30
0.0
 11
313.9386531156202
 21
-361.5874191562341
 31
0.0
  0
LINE
  5
2BF
330
1F
100
AcDbEntity
  8
D-A
  6
Continuous
 62
     2
370
     9
100
AcDbLine
 10
298.9381396779879
 20
-361.5874191562341
 30
0.0
 11
296.3347943740661
 21
-361.5874191562341
 31
0.0
  0
LINE
  5
2C0
330
1F
100
AcDbEntity
  8
D-0
  6
Continuous
 62
     4
370
     9
100
AcDbLine
 10
314.0900553570947
 20
-361.5874191562341
 30
0.0
 11
298.7867683664911
 21
-361.5874191562341
 31
0.0
  0
LINE
  5
2C1
330
1F
100
AcDbEntity
  8
D-0
  6
Continuous
 62
     4
370
     9
100
AcDbLine
 10
295.3346116809968
 20
-343.9315361919711
 30
0.0
 11
296.2916470549942
 21
-359.2432979965001
 31
0.0
  0
LINE
  5
2C2
330
1F
100
AcDbEntity
  8
D-0
  6
Continuous
 62
     4
370
     9
100
AcDbLine
 10
522.5416511789911
 20
-343.9315361919711
 30
0.0
 11
521.5846158049942
 21
-359.2432979965001
 31
0.0
  0
LINE
  5
2C3
330
1F
100
AcDbEntity
  8
D-A
  6
Continuous
 62
     2
370
     9
100
AcDbLine
 10
296.3350727438666
 20
-400.8374063718432
 30
0.0
 11
296.3350727438666
 21
-394.5874476118137
 31
0.0
  0
LINE
  5
2C4
330
1F
100
AcDbEntity
  8
D-A
  6
Continuous
 62
     2
370
     9
100
AcDbLine
 10
316.542245859365
 20
-400.8374063718432
 30
0.0
 11
316.542245859365
 21
-394.5874476118137
 31
0.0
  0
LINE
  5
2C5
330
1F
100
AcDbEntity
  8
D-A
  6
Continuous
 62
     2
370
     9
100
AcDbLine
 10
311.4905144404457
 20
-400.8374063718432
 30
0.0
 11
311.4905144404457
 21
-394.5874476118137
 31
0.0
  0
LINE
  5
2C6
330
1F
100
AcDbEntity
  8
D-A
  6
Continuous
 62
     2
370
     9
100
AcDbLine
 10
301.3868041627853
 20
-400.8374063718432
 30
0.0
 11
301.3868041627853
 21
-394.5874476118137
 31
0.0
  0
LINE
  5
2C7
330
1F
100
AcDbEntity
  8
D-A
  6
Continuous
 62
     2
370
     9
100
AcDbLine
 10
298.0892045765046
 20
-402.0874104958403
 30
0.0
 11
314.7876191470812
 21
-402.0874104958403
 31
0.0
  0
LINE
  5
2C8
330
1F
100
AcDbEntity
  8
D-A
  6
Continuous
 62
     2
370
     9
100
AcDbLine
 10
296.9389496310077
 20
-392.0878105235536
 30
0.0
 11
296.9389496310077
 21
-394.5875094717694
 31
0.0
  0
LINE
  5
2C9
330
1F
100
AcDbEntity
  8
D-A
  6
Continuous
 62
     2
370
     9
100
AcDbLine
 10
315.9384926921354
 20
-392.0878105235536
 30
0.0
 11
315.9384926921354
 21
-394.5875094717694
 31
0.0
  0
LINE
  5
2CA
330
1F
100
AcDbEntity
  8
D-A
  6
Continuous
 62
     2
370
     9
100
AcDbLine
 10
303.9387747735327
 20
-392.0874393638196
 30
0.0
 11
303.9387747735327
 21
-394.5871383120354
 31
0.0
  0
LINE
  5
2CB
330
1F
100
AcDbEntity
  8
D-A
  6
Continuous
 62
     2
370
     9
100
AcDbLine
 10
302.6887087895801
 20
-392.0874393638196
 30
0.0
 11
302.6887087895801
 21
-394.5871383120354
 31
0.0
  0
LINE
  5
2CC
330
1F
100
AcDbEntity
  8
D-A
  6
Continuous
 62
     2
370
     9
100
AcDbLine
 10
296.3350727438666
 20
-394.5874476118137
 30
0.0
 11
316.542245859365
 21
-394.5874476118137
 31
0.0
  0
LINE
  5
2CD
330
1F
100
AcDbEntity
  8
D-A
  6
Continuous
 62
     2
370
     9
100
AcDbLine
 10
521.5414375559442
 20
-367.8373779162637
 30
0.0
 11
521.5414375559442
 21
-361.5874191562341
 31
0.0
  0
LINE
  5
2CE
330
1F
100
AcDbEntity
  8
D-A
  6
Continuous
 62
     2
370
     9
100
AcDbLine
 10
501.3342644404457
 20
-367.8373779162637
 30
0.0
 11
501.3342644404457
 21
-361.5874191562341
 31
0.0
  0
LINE
  5
2CF
330
1F
100
AcDbEntity
  8
D-A
  6
Continuous
 62
     2
370
     9
100
AcDbLine
 10
506.385995859365
 20
-367.8373779162637
 30
0.0
 11
506.385995859365
 21
-361.5874191562341
 31
0.0
  0
LINE
  5
2D0
330
1F
100
AcDbEntity
  8
D-A
  6
Continuous
 62
     2
370
     9
100
AcDbLine
 10
516.4897061370255
 20
-367.8373779162637
 30
0.0
 11
516.4897061370255
 21
-361.5874191562341
 31
0.0
  0
LINE
  5
2D1
330
1F
100
AcDbEntity
  8
D-A
  6
Continuous
 62
     2
370
     9
100
AcDbLine
 10
519.0155718464848
 20
-369.0873820402606
 30
0.0
 11
503.8601301499051
 21
-369.0873820402606
 31
0.0
  0
LINE
  5
2D2
330
1F
100
AcDbEntity
  8
D-A
  6
Continuous
 62
     2
370
     9
100
AcDbLine
 10
501.3342644404457
 20
-361.5874191562341
 30
0.0
 11
503.93757881439
 21
-361.5874191562341
 31
0.0
  0
LINE
  5
2D3
330
1F
100
AcDbEntity
  8
D-A
  6
Continuous
 62
     2
370
     9
100
AcDbLine
 10
518.9381231819999
 20
-361.5874191562341
 30
0.0
 11
521.5414375559442
 21
-361.5874191562341
 31
0.0
  0
LINE
  5
2D4
330
1F
100
AcDbEntity
  8
D-A
  6
Continuous
 62
     2
370
     9
100
AcDbLine
 10
520.9373132289807
 20
-392.0878105235536
 30
0.0
 11
520.9373132289807
 21
-394.5875094717694
 31
0.0
  0
LINE
  5
2D5
330
1F
100
AcDbEntity
  8
D-A
  6
Continuous
 62
     2
370
     9
100
AcDbLine
 10
501.937770167853
 20
-392.0878105235536
 30
0.0
 11
501.937770167853
 21
-394.5875094717694
 31
0.0
  0
LINE
  5
2D6
330
1F
100
AcDbEntity
  8
D-A
  6
Continuous
 62
     2
370
     9
100
AcDbLine
 10
508.9382139099348
 20
-392.0874393638196
 30
0.0
 11
508.9382139099348
 21
-394.5871383120354
 31
0.0
  0
LINE
  5
2D7
330
1F
100
AcDbEntity
  8
D-A
  6
Continuous
 62
     2
370
     9
100
AcDbLine
 10
507.6881479259822
 20
-392.0874393638196
 30
0.0
 11
507.6881479259822
 21
-394.5871383120354
 31
0.0
  0
LINE
  5
2D8
330
1F
100
AcDbEntity
  8
D-D
  6
Continuous
 62
     7
370
     9
100
AcDbLine
 10
217.6677671325912
 20
-371.5874830781883
 30
0.0
 11
288.9381066860119
 21
-371.5874830781883
 31
0.0
  0
LINE
  5
2D9
330
1F
100
AcDbEntity
  8
D-D
  6
Continuous
 62
     7
370
     9
100
AcDbLine
 10
217.6677671325912
 20
-364.0874892641838
 30
0.0
 11
288.9381066860119
 21
-364.0874892641838
 31
0.0
  0
LINE
  5
2DA
330
1F
100
AcDbEntity
  8
D-D
  6
Continuous
 62
     7
370
     9
100
AcDbLine
 10
217.6677671325912
 20
-356.5874954501794
 30
0.0
 11
288.9381066860119
 21
-356.5874954501794
 31
0.0
  0
LINE
  5
2DB
330
1F
100
AcDbEntity
  8
D-D
  6
Continuous
 62
     7
370
     9
100
AcDbLine
 10
600.2084957273968
 20
-371.5874830781883
 30
0.0
 11
528.9381561739765
 21
-371.5874830781883
 31
0.0
  0
LINE
  5
2DC
330
1F
100
AcDbEntity
  8
D-D
  6
Continuous
 62
     7
370
     9
100
AcDbLine
 10
600.2084957273968
 20
-364.0874892641838
 30
0.0
 11
528.9381561739765
 21
-364.0874892641838
 31
0.0
  0
LINE
  5
2DD
330
1F
100
AcDbEntity
  8
D-D
  6
Continuous
 62
     7
370
     9
100
AcDbLine
 10
600.2084957273968
 20
-356.5874954501794
 30
0.0
 11
528.9381561739765
 21
-356.5874954501794
 31
0.0
  0
LINE
  5
2DE
330
1F
100
AcDbEntity
  8
D-D
  6
Continuous
 62
     7
370
     9
100
AcDbLine
 10
600.2084957273968
 20
-349.0874707061971
 30
0.0
 11
528.9381561739765
 21
-349.0874707061971
 31
0.0
  0
LINE
  5
2DF
330
1F
100
AcDbEntity
  8
D-2
  6
JWW_CENTER1
 62
     3
370
     9
100
AcDbLine
 10
408.9381314299942
 20
-330.4995128600453
 30
0.0
 11
408.9381314299942
 21
-464.9124123928789
 31
0.0
  0
LINE
  5
2E0
330
1F
100
AcDbEntity
  8
D-5
  6
JWW_PHANTOM2
 62
     7
370
     9
100
AcDbLine
 10
488.063138853189
 20
-262.8372789403346
 30
0.0
 11
329.8130930768212
 21
-262.8372789403346
 31
0.0
  0
LINE
  5
2E1
330
1F
100
AcDbEntity
  8
D-5
  6
JWW_PHANTOM2
 62
     7
370
     9
100
AcDbLine
 10
383.9378015102307
 20
-289.0873036843169
 30
0.0
 11
383.9378015102307
 21
-306.6595519885292
 31
0.0
  0
LINE
  5
2E2
330
1F
100
AcDbEntity
  8
D-5
  6
JWW_PHANTOM2
 62
     7
370
     9
100
AcDbLine
 10
433.9379664701124
 20
-289.0873036843169
 30
0.0
 11
433.9379664701124
 21
-306.5874232802311
 31
0.0
  0
LINE
  5
2E3
330
1F
100
AcDbEntity
  8
D-5
  6
JWW_PHANTOM2
 62
     7
370
     9
100
AcDbLine
 10
327.3131157588051
 20
-274.087316056308
 30
0.0
 11
327.3131157588051
 21
-265.3373490482844
 31
0.0
  0
LINE
  5
2E4
330
1F
100
AcDbEntity
  8
D-5
  6
JWW_PHANTOM2
 62
     7
370
     9
100
AcDbLine
 10
376.4377767662484
 20
-281.5872789403346
 30
0.0
 11
332.0631252439983
 21
-281.5872789403346
 31
0.0
  0
LINE
  5
2E5
330
1F
100
AcDbEntity
  8
D-5
  6
JWW_PHANTOM2
 62
     7
370
     9
100
AcDbLine
 10
332.0631252439983
 20
-276.587324304302
 30
0.0
 11
332.0631252439983
 21
-281.5872789403346
 31
0.0
  0
LINE
  5
2E6
330
1F
100
AcDbEntity
  8
D-5
  6
JWW_PHANTOM2
 62
     7
370
     9
100
AcDbLine
 10
490.5631471011827
 20
-274.087316056308
 30
0.0
 11
490.5631471011827
 21
-265.3373490482844
 31
0.0
  0
LINE
  5
2E7
330
1F
100
AcDbEntity
  8
D-5
  6
JWW_PHANTOM2
 62
     7
370
     9
100
AcDbLine
 10
441.4379602841166
 20
-281.5872789403346
 30
0.0
 11
485.8131376159895
 21
-281.5872789403346
 31
0.0
  0
LINE
  5
2E8
330
1F
100
AcDbEntity
  8
D-5
  6
JWW_PHANTOM2
 62
     7
370
     9
100
AcDbLine
 10
485.8131376159895
 20
-276.587324304302
 30
0.0
 11
485.8131376159895
 21
-281.5872789403346
 31
0.0
  0
LINE
  5
2E9
330
1F
100
AcDbEntity
  8
D-A
  6
Continuous
 62
     2
370
     9
100
AcDbLine
 10
296.3347943740661
 20
-409.0745234174777
 30
0.0
 11
296.3347943740661
 21
-403.1003363397751
 31
0.0
  0
LINE
  5
2EA
330
1F
100
AcDbEntity
  8
D-A
  6
Continuous
 62
     2
370
     9
100
AcDbLine
 10
298.0892045765046
 20
-402.0874104958403
 30
0.0
 11
296.3347943740661
 21
-403.1003363397751
 31
0.0
  0
LINE
  5
2EB
330
1F
100
AcDbEntity
  8
D-A
  6
Continuous
 62
     2
370
     9
100
AcDbLine
 10
299.4383702094228
 20
-411.5880171358054
 30
0.0
 11
299.4383702094228
 21
-412.7799966213945
 31
0.0
  0
LINE
  5
2EC
330
1F
100
AcDbEntity
  8
D-A
  6
Continuous
 62
     2
370
     9
100
AcDbLine
 10
298.813399077402
 20
-410.5055297717324
 30
0.0
 11
296.3347943740661
 21
-409.0745234174777
 31
0.0
  0
LINE
  5
2ED
330
1F
100
AcDbEntity
  8
D-A
  6
Continuous
 62
     2
370
     9
100
AcDbLine
 10
314.0633937162062
 20
-410.5055297717324
 30
0.0
 11
316.5419984195421
 21
-409.0745234174777
 31
0.0
  0
LINE
  5
2EE
330
1F
100
AcDbEntity
  8
D-A
  6
Continuous
 62
     2
370
     9
100
AcDbLine
 10
313.4383916542077
 20
-412.7799966213945
 30
0.0
 11
313.4383916542077
 21
-411.5880171358054
 31
0.0
  0
LINE
  5
2EF
330
1F
100
AcDbEntity
  8
D-A
  6
Continuous
 62
     2
370
     9
100
AcDbLine
 10
316.5419984195421
 20
-409.0745234174777
 30
0.0
 11
316.5419984195421
 21
-403.1003363397751
 31
0.0
  0
LINE
  5
2F0
330
1F
100
AcDbEntity
  8
D-A
  6
Continuous
 62
     2
370
     9
100
AcDbLine
 10
301.3865876529405
 20
-409.0745234174777
 30
0.0
 11
301.3865876529405
 21
-403.1003363397751
 31
0.0
  0
LINE
  5
2F1
330
1F
100
AcDbEntity
  8
D-A
  6
Continuous
 62
     2
370
     9
100
AcDbLine
 10
311.4902051406676
 20
-409.0745234174777
 30
0.0
 11
311.4902051406676
 21
-403.1003363397751
 31
0.0
  0
LINE
  5
2F2
330
1F
100
AcDbEntity
  8
D-A
  6
Continuous
 62
     2
370
     9
100
AcDbLine
 10
314.7876191470812
 20
-402.0874104958403
 30
0.0
 11
316.5419984195421
 21
-403.1003363397751
 31
0.0
  0
LINE
  5
2F3
330
1F
100
AcDbEntity
  8
D-A
  6
Continuous
 62
     2
370
     9
100
AcDbLine
 10
298.0892664364603
 20
-410.0874183314347
 30
0.0
 11
314.7875572871254
 21
-410.0874183314347
 31
0.0
  0
LINE
  5
2F4
330
1F
100
AcDbEntity
  8
D-A
  6
JWW_CENTER1
 62
     2
370
     9
100
AcDbLine
 10
306.4384118617932
 20
-343.0397012112384
 30
0.0
 11
306.4384118617932
 21
-421.2072402407463
 31
0.0
  0
LINE
  5
2F5
330
1F
100
AcDbEntity
  8
D-A
  6
JWW_CENTER1
 62
     2
370
     9
100
AcDbLine
 10
511.4378509981952
 20
-343.0397012112384
 30
0.0
 11
511.4378509981952
 21
-421.2072402407463
 31
0.0
  0
LINE
  5
2F6
330
1F
100
AcDbEntity
  8
D-A
  6
Continuous
 62
     2
370
     9
100
AcDbLine
 10
301.4386118756494
 20
-369.0873820402606
 30
0.0
 11
301.4386118756494
 21
-384.0874315282252
 31
0.0
  0
LINE
  5
2F7
330
1F
100
AcDbEntity
  8
D-A
  6
Continuous
 62
     2
370
     9
100
AcDbLine
 10
309.9385718728786
 20
-369.0873820402606
 30
0.0
 11
309.9385718728786
 21
-384.0874315282252
 31
0.0
  0
LINE
  5
2F8
330
1F
100
AcDbEntity
  8
D-A
  6
Continuous
 62
     2
370
     9
100
AcDbLine
 10
311.4387685875374
 20
-369.0873820402606
 30
0.0
 11
311.4387685875374
 21
-384.0874315282252
 31
0.0
  0
LINE
  5
2F9
330
1F
100
AcDbEntity
  8
D-A
  6
Continuous
 62
     2
370
     9
100
AcDbLine
 10
302.9388704502645
 20
-369.0873820402606
 30
0.0
 11
302.9388704502645
 21
-384.0874315282252
 31
0.0
  0
LINE
  5
2FA
330
1F
100
AcDbEntity
  8
D-D
  6
Continuous
 62
     7
370
     9
100
AcDbLine
 10
217.6677671325912
 20
-379.0874768921927
 30
0.0
 11
301.4386118756494
 21
-379.0874768921927
 31
0.0
  0
LINE
  5
2FB
330
1F
100
AcDbEntity
  8
D-D
  6
Continuous
 62
     7
370
     9
100
AcDbLine
 10
311.4387685875374
 20
-379.0874768921927
 30
0.0
 11
383.9378015102307
 21
-379.0874768921927
 31
0.0
  0
LINE
  5
2FC
330
1F
100
AcDbEntity
  8
D-A
  6
Continuous
 62
     2
370
     9
100
AcDbLine
 10
507.9376909871098
 20
-369.0873820402606
 30
0.0
 11
507.9376909871098
 21
-384.0874315282252
 31
0.0
  0
LINE
  5
2FD
330
1F
100
AcDbEntity
  8
D-A
  6
Continuous
 62
     2
370
     9
100
AcDbLine
 10
506.4374633424728
 20
-369.0873820402606
 30
0.0
 11
506.4374633424728
 21
-384.0874315282252
 31
0.0
  0
LINE
  5
2FE
330
1F
100
AcDbEntity
  8
D-A
  6
Continuous
 62
     2
370
     9
100
AcDbLine
 10
514.9373924097239
 20
-369.0873820402606
 30
0.0
 11
514.9373924097239
 21
-384.0874315282252
 31
0.0
  0
LINE
  5
2FF
330
1F
100
AcDbEntity
  8
D-A
  6
Continuous
 62
     2
370
     9
100
AcDbLine
 10
516.4376200543609
 20
-369.0873820402606
 30
0.0
 11
516.4376200543609
 21
-384.0874315282252
 31
0.0
  0
LINE
  5
300
330
1F
100
AcDbEntity
  8
D-D
  6
Continuous
 62
     7
370
     9
100
AcDbLine
 10
433.9379664701124
 20
-379.0874768921927
 30
0.0
 11
506.4374633424728
 21
-379.0874768921927
 31
0.0
  0
LINE
  5
301
330
1F
100
AcDbEntity
  8
D-D
  6
Continuous
 62
     7
370
     9
100
AcDbLine
 10
516.4376200543609
 20
-379.0874768921927
 30
0.0
 11
600.2084957273968
 21
-379.0874768921927
 31
0.0
  0
LINE
  5
302
330
1F
100
AcDbEntity
  8
D-D
  6
Continuous
 62
     7
370
     9
100
AcDbLine
 10
288.9381066860119
 20
-341.5874768921927
 30
0.0
 11
288.9381066860119
 21
-384.0874315282252
 31
0.0
  0
LINE
  5
303
330
1F
100
AcDbEntity
  8
D-D
  6
Continuous
 62
     7
370
     9
100
AcDbLine
 10
528.9381561739765
 20
-341.5874768921927
 30
0.0
 11
528.9381561739765
 21
-384.0874315282252
 31
0.0
  0
LINE
  5
304
330
1F
100
AcDbEntity
  8
D-D
  6
Continuous
 62
     7
370
     9
100
AcDbLine
 10
599.981160390351
 20
-384.0874315282252
 30
0.0
 11
600.2084957273968
 21
-383.860127121157
 31
0.0
  0
LINE
  5
305
330
1F
100
AcDbEntity
  8
D-A
  6
Continuous
 62
     2
370
     9
100
AcDbLine
 10
521.5411901161218
 20
-400.8374063718432
 30
0.0
 11
521.5411901161218
 21
-394.5874476118137
 31
0.0
  0
LINE
  5
306
330
1F
100
AcDbEntity
  8
D-A
  6
Continuous
 62
     2
370
     9
100
AcDbLine
 10
501.3340170006234
 20
-400.8374063718432
 30
0.0
 11
501.3340170006234
 21
-394.5874476118137
 31
0.0
  0
LINE
  5
307
330
1F
100
AcDbEntity
  8
D-A
  6
Continuous
 62
     2
370
     9
100
AcDbLine
 10
506.3857484195421
 20
-400.8374063718432
 30
0.0
 11
506.3857484195421
 21
-394.5874476118137
 31
0.0
  0
LINE
  5
308
330
1F
100
AcDbEntity
  8
D-A
  6
Continuous
 62
     2
370
     9
100
AcDbLine
 10
516.4894586972025
 20
-400.8374063718432
 30
0.0
 11
516.4894586972025
 21
-394.5874476118137
 31
0.0
  0
LINE
  5
309
330
1F
100
AcDbEntity
  8
D-A
  6
Continuous
 62
     2
370
     9
100
AcDbLine
 10
519.7870892134608
 20
-402.0874104958403
 30
0.0
 11
503.0886127829291
 21
-402.0874104958403
 31
0.0
  0
LINE
  5
30A
330
1F
100
AcDbEntity
  8
D-A
  6
Continuous
 62
     2
370
     9
100
AcDbLine
 10
521.5411901161218
 20
-394.5874476118137
 30
0.0
 11
501.3340170006234
 21
-394.5874476118137
 31
0.0
  0
LINE
  5
30B
330
1F
100
AcDbEntity
  8
D-A
  6
Continuous
 62
     2
370
     9
100
AcDbLine
 10
521.5414375559442
 20
-409.0745234174777
 30
0.0
 11
521.5414375559442
 21
-403.1003363397751
 31
0.0
  0
LINE
  5
30C
330
1F
100
AcDbEntity
  8
D-A
  6
Continuous
 62
     2
370
     9
100
AcDbLine
 10
519.7870892134608
 20
-402.0874104958403
 30
0.0
 11
521.5414375559442
 21
-403.1003363397751
 31
0.0
  0
LINE
  5
30D
330
1F
100
AcDbEntity
  8
D-A
  6
Continuous
 62
     2
370
     9
100
AcDbLine
 10
518.4379235805432
 20
-411.5880171358054
 30
0.0
 11
518.4379235805432
 21
-412.7799966213945
 31
0.0
  0
LINE
  5
30E
330
1F
100
AcDbEntity
  8
D-A
  6
Continuous
 62
     2
370
     9
100
AcDbLine
 10
519.0628328526083
 20
-410.5055297717324
 30
0.0
 11
521.5414375559442
 21
-409.0745234174777
 31
0.0
  0
LINE
  5
30F
330
1F
100
AcDbEntity
  8
D-A
  6
Continuous
 62
     2
370
     9
100
AcDbLine
 10
503.8128691437822
 20
-410.5055297717324
 30
0.0
 11
501.3342644404457
 21
-409.0745234174777
 31
0.0
  0
LINE
  5
310
330
1F
100
AcDbEntity
  8
D-A
  6
Continuous
 62
     2
370
     9
100
AcDbLine
 10
504.4379021357582
 20
-412.7799966213945
 30
0.0
 11
504.4379021357582
 21
-411.5880171358054
 31
0.0
  0
LINE
  5
311
330
1F
100
AcDbEntity
  8
D-A
  6
Continuous
 62
     2
370
     9
100
AcDbLine
 10
501.3342644404457
 20
-409.0745234174777
 30
0.0
 11
501.3342644404457
 21
-403.1003363397751
 31
0.0
  0
LINE
  5
312
330
1F
100
AcDbEntity
  8
D-A
  6
Continuous
 62
     2
370
     9
100
AcDbLine
 10
516.4897061370255
 20
-409.0745234174777
 30
0.0
 11
516.4897061370255
 21
-403.1003363397751
 31
0.0
  0
LINE
  5
313
330
1F
100
AcDbEntity
  8
D-A
  6
Continuous
 62
     2
370
     9
100
AcDbLine
 10
506.3860577193202
 20
-409.0745234174777
 30
0.0
 11
506.3860577193202
 21
-403.1003363397751
 31
0.0
  0
LINE
  5
314
330
1F
100
AcDbEntity
  8
D-A
  6
Continuous
 62
     2
370
     9
100
AcDbLine
 10
503.0886127829291
 20
-402.0874104958403
 30
0.0
 11
501.3342644404457
 21
-403.1003363397751
 31
0.0
  0
LINE
  5
315
330
1F
100
AcDbEntity
  8
D-A
  6
Continuous
 62
     2
370
     9
100
AcDbLine
 10
519.7869654935499
 20
-410.0874183314347
 30
0.0
 11
503.0887365028406
 21
-410.0874183314347
 31
0.0
  0
LINE
  5
316
330
1F
100
AcDbEntity
  8
D-5
  6
JWW_PHANTOM2
 62
     7
370
     9
100
AcDbLine
 10
488.063138853189
 20
-276.587324304302
 30
0.0
 11
329.8130930768212
 21
-276.587324304302
 31
0.0
  0
LINE
  5
317
330
1F
100
AcDbEntity
  8
D-0
  6
Continuous
 62
     4
370
     9
100
AcDbLine
 10
325.8520454661004
 20
-361.5874191562341
 30
0.0
 11
492.0242173938874
 21
-361.5874191562341
 31
0.0
  0
LINE
  5
318
330
1F
100
AcDbEntity
  8
D-0
  6
Continuous
 62
     4
370
     9
100
AcDbLine
 10
548.9380984380176
 20
-341.5874768921927
 30
0.0
 11
268.9381644219703
 21
-341.5874768921927
 31
0.0
  0
LINE
  5
319
330
1F
100
AcDbEntity
  8
D-D
  6
Continuous
 62
     7
370
     9
100
AcDbLine
 10
217.6677671325912
 20
-349.0874707061971
 30
0.0
 11
288.9381066860119
 21
-349.0874707061971
 31
0.0
  0
LINE
  5
31A
330
1F
100
AcDbEntity
  8
D-5
  6
JWW_PHANTOM2
 62
     7
370
     9
100
AcDbLine
 10
371.4381314299942
 20
-333.6358744719013
 30
0.0
 11
371.4381314299942
 21
-325.1279036104148
 31
0.0
  0
LINE
  5
31B
330
1F
100
AcDbEntity
  8
D-5
  6
JWW_PHANTOM2
 62
     7
370
     9
100
AcDbLine
 10
446.4381314299942
 20
-333.6358744719013
 30
0.0
 11
446.4381314299942
 21
-325.1279036104148
 31
0.0
  0
LINE
  5
31C
330
1F
100
AcDbEntity
  8
D-0
  6
Continuous
 62
     4
370
     9
100
AcDbLine
 10
316.7804066886509
 20
-356.1196176755543
 30
0.0
 11
316.5851766685921
 21
-359.2432979965001
 31
0.0
  0
LINE
  5
31D
330
1F
100
AcDbEntity
  8
D-0
  6
Continuous
 62
     4
370
     9
100
AcDbLine
 10
493.61043037689
 20
-349.0874707061971
 30
0.0
 11
324.2658015531202
 21
-349.0874707061971
 31
0.0
  0
LINE
  5
31E
330
1F
100
AcDbEntity
  8
D-0
  6
Continuous
 62
     4
370
     9
100
AcDbLine
 10
501.0958561713369
 20
-356.1196176755543
 30
0.0
 11
501.2910861913963
 21
-359.2432979965001
 31
0.0
  0
LINE
  5
31F
330
1F
100
AcDbEntity
  8
D-0
  6
Continuous
 62
     4
370
     9
100
AcDbLine
 10
497.8375685868775
 20
-350.3921590309966
 30
0.0
 11
496.9856332775447
 21
-357.2075487157252
 31
0.0
  0
LINE
  5
320
330
1F
100
AcDbEntity
  8
D-0
  6
Continuous
 62
     4
370
     9
100
AcDbLine
 10
320.0387252030885
 20
-350.3921590309966
 30
0.0
 11
320.8906605124213
 21
-357.2075487157252
 31
0.0
  0
ARC
  5
321
330
1F
100
AcDbEntity
  8
D-0
  6
Continuous
 62
     4
370
     9
100
AcDbCircle
 10
271.4380489500531
 20
-341.240442540947
 30
0.0
 40
2.500000032218727
100
AcDbArc
 50
98.53070068359375
 51
180.0
  0
ARC
  5
322
330
1F
100
AcDbEntity
  8
D-2
  6
Continuous
 62
     3
370
     9
100
AcDbCircle
 10
371.4381314299942
 20
-459.0874933881809
 30
0.0
 40
2.500000032218727
100
AcDbArc
 50
180.0
 51
270.0
  0
ARC
  5
323
330
1F
100
AcDbEntity
  8
D-2
  6
Continuous
 62
     3
370
     9
100
AcDbCircle
 10
446.4381314299942
 20
-459.0874933881809
 30
0.0
 40
2.500000032218727
100
AcDbArc
 50
270.0
 51
0.0
  0
ARC
  5
324
330
1F
100
AcDbEntity
  8
D-2
  6
Continuous
 62
     3
370
     9
100
AcDbCircle
 10
383.938048950053
 20
-398.8779613463734
 30
0.0
 40
12.50000064437454
100
AcDbArc
 50
112.0243377685547
 51
180.0
  0
ARC
  5
325
330
1F
100
AcDbEntity
  8
D-2
  6
Continuous
 62
     3
370
     9
100
AcDbCircle
 10
433.9379664701124
 20
-398.8779613463734
 30
0.0
 40
12.50000064437454
100
AcDbArc
 50
0.0
 51
67.9756622314453
  0
ARC
  5
326
330
1F
100
AcDbEntity
  8
D-2
  6
Continuous
 62
     3
370
     9
100
AcDbCircle
 10
376.4381169960046
 20
-380.3374810161897
 30
0.0
 40
7.500000096656181
100
AcDbArc
 50
292.0240478515625
 51
359.4492034912109
  0
ARC
  5
327
330
1F
100
AcDbEntity
  8
D-2
  6
Continuous
 62
     3
370
     9
100
AcDbCircle
 10
441.4378674941833
 20
-380.3374810161897
 30
0.0
 40
7.500000096656181
100
AcDbArc
 50
180.0
 51
247.9759521484375
  0
ARC
  5
328
330
1F
100
AcDbEntity
  8
D-0
  6
Continuous
 62
     4
370
     9
100
AcDbCircle
 10
546.4382139099348
 20
-341.240442540947
 30
0.0
 40
2.500000032218727
100
AcDbArc
 50
0.0
 51
81.46929931640625
  0
ARC
  5
329
330
1F
100
AcDbEntity
  8
D-A
  6
Continuous
 62
     2
370
     9
100
AcDbCircle
 10
306.4384118617932
 20
-358.2540335856049
 30
0.0
 40
10.83333975559956
100
AcDbArc
 50
242.2042083740235
 51
297.7957916259766
  0
ARC
  5
32A
330
1F
100
AcDbEntity
  8
D-A
  6
Continuous
 62
     2
370
     9
100
AcDbCircle
 10
314.0161327100827
 20
-365.9103165775812
 30
0.0
 40
3.177055072140049
100
AcDbArc
 50
217.3407897949219
 51
322.6592102050781
  0
ARC
  5
32B
330
1F
100
AcDbEntity
  8
D-A
  6
Continuous
 62
     2
370
     9
100
AcDbCircle
 10
298.8606910135036
 20
-365.9103165775812
 30
0.0
 40
3.177055072140049
100
AcDbArc
 50
217.3407897949219
 51
322.6592102050781
  0
ARC
  5
32C
330
1F
100
AcDbEntity
  8
D-0
  6
Continuous
 62
     4
370
     9
100
AcDbCircle
 10
298.7867683664911
 20
-359.0874109082401
 30
0.0
 40
2.500000032218727
100
AcDbArc
 50
183.576416015625
 51
270.0
  0
ARC
  5
32D
330
1F
100
AcDbEntity
  8
D-0
  6
Continuous
 62
     4
370
     9
100
AcDbCircle
 10
314.0900553570947
 20
-359.0874109082401
 30
0.0
 40
2.500000032218727
100
AcDbArc
 50
270.0
 51
356.423583984375
  0
ARC
  5
32E
330
1F
100
AcDbEntity
  8
D-0
  6
Continuous
 62
     4
370
     9
100
AcDbCircle
 10
292.8394903694999
 20
-344.0874851401868
 30
0.0
 40
2.500000032218727
100
AcDbArc
 50
3.576416015625
 51
90.00000000000001
  0
ARC
  5
32F
330
1F
100
AcDbEntity
  8
D-0
  6
Continuous
 62
     4
370
     9
100
AcDbCircle
 10
519.0894944934968
 20
-359.0874109082401
 30
0.0
 40
2.500000032218727
100
AcDbArc
 50
270.0
 51
356.423583984375
  0
ARC
  5
330
330
1F
100
AcDbEntity
  8
D-0
  6
Continuous
 62
     4
370
     9
100
AcDbCircle
 10
503.7862075028931
 20
-359.0874109082401
 30
0.0
 40
2.500000032218727
100
AcDbArc
 50
183.576416015625
 51
270.0
  0
ARC
  5
331
330
1F
100
AcDbEntity
  8
D-0
  6
Continuous
 62
     4
370
     9
100
AcDbCircle
 10
525.0367724904879
 20
-344.0874851401868
 30
0.0
 40
2.500000032218727
100
AcDbArc
 50
90.0
 51
176.423583984375
  0
ARC
  5
332
330
1F
100
AcDbEntity
  8
D-0
  6
Continuous
 62
     4
370
     9
100
AcDbCircle
 10
492.0242173938874
 20
-356.587402660246
 30
0.0
 40
5.000000064437454
100
AcDbArc
 50
270.0
 51
352.8752899169922
  0
ARC
  5
333
330
1F
100
AcDbEntity
  8
D-0
  6
Continuous
 62
     4
370
     9
100
AcDbCircle
 10
325.8520454661004
 20
-356.587402660246
 30
0.0
 40
5.000000064437454
100
AcDbArc
 50
187.1247100830078
 51
270.0
  0
ARC
  5
334
330
1F
100
AcDbEntity
  8
D-A
  6
Continuous
 62
     2
370
     9
100
AcDbCircle
 10
306.4386593016155
 20
-391.2540620411845
 30
0.0
 40
10.83333975559956
100
AcDbArc
 50
242.2042083740235
 51
297.7957916259766
  0
ARC
  5
335
330
1F
100
AcDbEntity
  8
D-A
  6
Continuous
 62
     2
370
     9
100
AcDbCircle
 10
314.0163801499051
 20
-398.9103450331608
 30
0.0
 40
3.177055072140049
100
AcDbArc
 50
217.3407897949219
 51
322.6592102050781
  0
ARC
  5
336
330
1F
100
AcDbEntity
  8
D-A
  6
Continuous
 62
     2
370
     9
100
AcDbCircle
 10
298.860938453326
 20
-398.9103450331608
 30
0.0
 40
3.177055072140049
100
AcDbArc
 50
217.3407897949219
 51
322.6592102050781
  0
ARC
  5
337
330
1F
100
AcDbEntity
  8
D-A
  6
Continuous
 62
     2
370
     9
100
AcDbCircle
 10
511.4378509981952
 20
-358.2540335856049
 30
0.0
 40
10.83333975559956
100
AcDbArc
 50
242.2042083740235
 51
297.7957916259766
  0
ARC
  5
338
330
1F
100
AcDbEntity
  8
D-A
  6
Continuous
 62
     2
370
     9
100
AcDbCircle
 10
503.8601301499051
 20
-365.9103165775812
 30
0.0
 40
3.177055072140049
100
AcDbArc
 50
217.3407897949219
 51
322.6592102050781
  0
ARC
  5
339
330
1F
100
AcDbEntity
  8
D-A
  6
Continuous
 62
     2
370
     9
100
AcDbCircle
 10
519.0155718464848
 20
-365.9103165775812
 30
0.0
 40
3.177055072140049
100
AcDbArc
 50
217.3407897949219
 51
322.6592102050781
  0
ARC
  5
33A
330
1F
100
AcDbEntity
  8
D-5
  6
JWW_PHANTOM2
 62
     7
370
     9
100
AcDbCircle
 10
329.8130930768212
 20
-265.3373490482844
 30
0.0
 40
2.500000032218727
100
AcDbArc
 50
90.0
 51
180.0
  0
ARC
  5
33B
330
1F
100
AcDbEntity
  8
D-5
  6
JWW_PHANTOM2
 62
     7
370
     9
100
AcDbCircle
 10
488.063138853189
 20
-265.3373490482844
 30
0.0
 40
2.500000032218727
100
AcDbArc
 50
0.0
 51
90.0
  0
ARC
  5
33C
330
1F
100
AcDbEntity
  8
D-5
  6
JWW_PHANTOM2
 62
     7
370
     9
100
AcDbCircle
 10
376.4377767662484
 20
-289.0873036843169
 30
0.0
 40
7.500000096656181
100
AcDbArc
 50
0.0
 51
90.0
  0
ARC
  5
33D
330
1F
100
AcDbEntity
  8
D-5
  6
JWW_PHANTOM2
 62
     7
370
     9
100
AcDbCircle
 10
441.4379602841166
 20
-289.0873036843169
 30
0.0
 40
7.500000096656181
100
AcDbArc
 50
90.0
 51
180.0
  0
ARC
  5
33E
330
1F
100
AcDbEntity
  8
D-5
  6
JWW_PHANTOM2
 62
     7
370
     9
100
AcDbCircle
 10
329.8130930768212
 20
-274.087316056308
 30
0.0
 40
2.500000032218727
100
AcDbArc
 50
180.0
 51
270.0
  0
ARC
  5
33F
330
1F
100
AcDbEntity
  8
D-5
  6
JWW_PHANTOM2
 62
     7
370
     9
100
AcDbCircle
 10
488.063138853189
 20
-274.087316056308
 30
0.0
 40
2.500000032218727
100
AcDbArc
 50
270.0
 51
0.0
  0
ARC
  5
340
330
1F
100
AcDbEntity
  8
D-5
  6
JWW_PHANTOM2
 62
     7
370
     9
100
AcDbCircle
 10
383.938048950053
 20
-325.1279036104148
 30
0.0
 40
12.50000064437454
100
AcDbArc
 50
112.0243377685547
 51
180.0
  0
ARC
  5
341
330
1F
100
AcDbEntity
  8
D-5
  6
JWW_PHANTOM2
 62
     7
370
     9
100
AcDbCircle
 10
376.4381169960046
 20
-306.5874232802311
 30
0.0
 40
7.500000096656181
100
AcDbArc
 50
292.0240478515625
 51
359.4492034912109
  0
ARC
  5
342
330
1F
100
AcDbEntity
  8
D-5
  6
JWW_PHANTOM2
 62
     7
370
     9
100
AcDbCircle
 10
433.9382139099348
 20
-325.1279036104148
 30
0.0
 40
12.50000064437454
100
AcDbArc
 50
0.0
 51
67.9756622314453
  0
ARC
  5
343
330
1F
100
AcDbEntity
  8
D-5
  6
JWW_PHANTOM2
 62
     7
370
     9
100
AcDbCircle
 10
441.4381458639838
 20
-306.5874232802311
 30
0.0
 40
7.500000096656181
100
AcDbArc
 50
180.5507965087891
 51
247.9759521484375
  0
ARC
  5
344
330
1F
100
AcDbEntity
  8
D-A
  6
Continuous
 62
     2
370
     9
100
AcDbCircle
 10
306.4384118617932
 20
-396.9833455544341
 30
0.0
 40
13.10409210823678
100
AcDbArc
 50
247.3243103027344
 51
292.6756896972656
  0
ARC
  5
345
330
1F
100
AcDbEntity
  8
D-A
  6
Continuous
 62
     2
370
     9
100
AcDbCircle
 10
298.0892664364603
 20
-404.2141867013672
 30
0.0
 40
5.873256277393651
100
AcDbArc
 50
270.0
 51
304.1535186767578
  0
ARC
  5
346
330
1F
100
AcDbEntity
  8
D-A
  6
Continuous
 62
     2
370
     9
100
AcDbCircle
 10
306.4384118617932
 20
-415.1915142028187
 30
0.0
 40
13.10409210823678
100
AcDbArc
 50
67.32431030273438
 51
112.6756896972656
  0
ARC
  5
347
330
1F
100
AcDbEntity
  8
D-A
  6
Continuous
 62
     2
370
     9
100
AcDbCircle
 10
298.0892664364603
 20
-407.960642125908
 30
0.0
 40
5.873256277393651
100
AcDbArc
 50
55.84648132324219
 51
90.0
  0
ARC
  5
348
330
1F
100
AcDbEntity
  8
D-A
  6
Continuous
 62
     2
370
     9
100
AcDbCircle
 10
306.4384118617932
 20
-410.0874183314347
 30
0.0
 40
7.500000096656181
100
AcDbArc
 50
201.0391845703125
 51
338.9608154296875
  0
ARC
  5
349
330
1F
100
AcDbEntity
  8
D-A
  6
Continuous
 62
     2
370
     9
100
AcDbCircle
 10
298.1883970154036
 20
-411.5880171358054
 30
0.0
 40
1.250000016109364
100
AcDbArc
 50
0.0
 51
59.99960327148438
  0
ARC
  5
34A
330
1F
100
AcDbEntity
  8
D-A
  6
Continuous
 62
     2
370
     9
100
AcDbCircle
 10
314.7875572871254
 20
-404.2141867013672
 30
0.0
 40
5.873256277393651
100
AcDbArc
 50
235.8464813232422
 51
270.0
  0
ARC
  5
34B
330
1F
100
AcDbEntity
  8
D-A
  6
Continuous
 62
     2
370
     9
100
AcDbCircle
 10
314.7875572871254
 20
-407.960642125908
 30
0.0
 40
5.873256277393651
100
AcDbArc
 50
90.0
 51
124.1535186767578
  0
ARC
  5
34C
330
1F
100
AcDbEntity
  8
D-A
  6
Continuous
 62
     2
370
     9
100
AcDbCircle
 10
314.6883957782046
 20
-411.5880171358054
 30
0.0
 40
1.250000016109364
100
AcDbArc
 50
120.0003967285156
 51
180.0
  0
ARC
  5
34D
330
1F
100
AcDbEntity
  8
D-A
  6
Continuous
 62
     2
370
     9
100
AcDbCircle
 10
511.4376035583723
 20
-391.2540620411845
 30
0.0
 40
10.83333975559956
100
AcDbArc
 50
242.2042083740235
 51
297.7957916259766
  0
ARC
  5
34E
330
1F
100
AcDbEntity
  8
D-A
  6
Continuous
 62
     2
370
     9
100
AcDbCircle
 10
503.8598827100827
 20
-398.9103450331608
 30
0.0
 40
3.177055072140049
100
AcDbArc
 50
217.3407897949219
 51
322.6592102050781
  0
ARC
  5
34F
330
1F
100
AcDbEntity
  8
D-A
  6
Continuous
 62
     2
370
     9
100
AcDbCircle
 10
519.0153244066619
 20
-398.9103450331608
 30
0.0
 40
3.177055072140049
100
AcDbArc
 50
217.3407897949219
 51
322.6592102050781
  0
ARC
  5
350
330
1F
100
AcDbEntity
  8
D-A
  6
Continuous
 62
     2
370
     9
100
AcDbCircle
 10
511.4378509981952
 20
-396.9833455544341
 30
0.0
 40
13.10409210823678
100
AcDbArc
 50
247.3243103027344
 51
292.6756896972656
  0
ARC
  5
351
330
1F
100
AcDbEntity
  8
D-A
  6
Continuous
 62
     2
370
     9
100
AcDbCircle
 10
519.7869654935499
 20
-404.2141867013672
 30
0.0
 40
5.873256277393651
100
AcDbArc
 50
235.8464813232422
 51
270.0
  0
ARC
  5
352
330
1F
100
AcDbEntity
  8
D-A
  6
Continuous
 62
     2
370
     9
100
AcDbCircle
 10
511.4378509981952
 20
-415.1915142028187
 30
0.0
 40
13.10409210823678
100
AcDbArc
 50
67.32431030273438
 51
112.6756896972656
  0
ARC
  5
353
330
1F
100
AcDbEntity
  8
D-A
  6
Continuous
 62
     2
370
     9
100
AcDbCircle
 10
519.7869654935499
 20
-407.960642125908
 30
0.0
 40
5.873256277393651
100
AcDbArc
 50
90.0
 51
124.1535186767578
  0
ARC
  5
354
330
1F
100
AcDbEntity
  8
D-A
  6
Continuous
 62
     2
370
     9
100
AcDbCircle
 10
511.4378509981952
 20
-410.0874183314347
 30
0.0
 40
7.500000096656181
100
AcDbArc
 50
201.0391845703125
 51
338.9608154296875
  0
ARC
  5
355
330
1F
100
AcDbEntity
  8
D-A
  6
Continuous
 62
     2
370
     9
100
AcDbCircle
 10
519.6878658445843
 20
-411.5880171358054
 30
0.0
 40
1.250000016109364
100
AcDbArc
 50
120.0003967285156
 51
180.0
  0
ARC
  5
356
330
1F
100
AcDbEntity
  8
D-A
  6
Continuous
 62
     2
370
     9
100
AcDbCircle
 10
503.0887365028406
 20
-404.2141867013672
 30
0.0
 40
5.873256277393651
100
AcDbArc
 50
270.0
 51
304.1535186767578
  0
ARC
  5
357
330
1F
100
AcDbEntity
  8
D-A
  6
Continuous
 62
     2
370
     9
100
AcDbCircle
 10
503.0887365028406
 20
-407.960642125908
 30
0.0
 40
5.873256277393651
100
AcDbArc
 50
55.84648132324219
 51
90.0
  0
ARC
  5
358
330
1F
100
AcDbEntity
  8
D-A
  6
Continuous
 62
     2
370
     9
100
AcDbCircle
 10
503.1878361518056
 20
-411.5880171358054
 30
0.0
 40
1.250000016109364
100
AcDbArc
 50
0.0
 51
59.99960327148438
  0
ARC
  5
359
330
1F
100
AcDbEntity
  8
D-2
  6
Continuous
 62
     3
370
     9
100
AcDbCircle
 10
376.4377767662484
 20
-362.8373614202755
 30
0.0
 40
7.500000096656181
100
AcDbArc
 50
0.0
 51
9.593612670898438
  0
ARC
  5
35A
330
1F
100
AcDbEntity
  8
D-2
  6
Continuous
 62
     3
370
     9
100
AcDbCircle
 10
441.4379602841166
 20
-362.8373614202755
 30
0.0
 40
7.500000096656181
100
AcDbArc
 50
170.4063873291016
 51
180.0
  0
ARC
  5
35B
330
1F
100
AcDbEntity
  8
D-0
  6
Continuous
 62
     4
370
     9
100
AcDbCircle
 10
324.2658015531202
 20
-356.5874645202015
 30
0.0
 40
7.500000096656181
100
AcDbArc
 50
90.0
 51
176.423583984375
  0
ARC
  5
35C
330
1F
100
AcDbEntity
  8
D-0
  6
Continuous
 62
     4
370
     9
100
AcDbCircle
 10
493.61043037689
 20
-356.5874645202015
 30
0.0
 40
7.500000096656181
100
AcDbArc
 50
3.576400756835938
 51
89.99999999999999
  0
TEXT
  5
35D
330
1F
100
AcDbEntity
  8
D-F
  6
Continuous
 62
     7
370
     9
100
AcDbText
 10
170.9954662199063
 20
-306.4850606837595
 30
0.0
 40
11.43
  1
ＳＣＳ１３
 41
1.133333333333333
  7
ＭＳ ゴシック
100
AcDbText
  0
TEXT
  5
35E
330
1F
100
AcDbEntity
  8
D-F
  6
Continuous
 62
     7
370
     9
100
AcDbText
 10
171.4953093529886
 20
-283.4194008772245
 30
0.0
 40
11.43
  1
把手カバ－
 41
1.133333333333333
  7
ＭＳ ゴシック
100
AcDbText
  0
LINE
  5
35F
330
1F
100
AcDbEntity
  8
D-F
  6
Continuous
 62
     7
370
     9
100
AcDbLine
 10
167.4965642883302
 20
-290.5194472639432
 30
0.0
 11
259.3871564436606
 21
-290.5194472639432
 31
0.0
  0
LINE
  5
360
330
1F
100
AcDbEntity
  8
D-F
  6
Continuous
 62
     7
370
     9
100
AcDbLine
 10
259.3871564436606
 20
-290.5194472639432
 30
0.0
 11
304.2438575702835
 21
-335.3375799921189
 31
0.0
  0
LINE
  5
361
330
1F
100
AcDbEntity
  8
D-F
  6
Continuous
 62
     7
370
     9
100
AcDbLine
 10
304.2438575702835
 20
-335.3375799921189
 30
0.0
 11
294.3236689439613
 21
-327.7323280161363
 31
0.0
  0
LINE
  5
362
330
1F
100
AcDbEntity
  8
D-F
  6
Continuous
 62
     7
370
     9
100
AcDbLine
 10
304.2438575702835
 20
-335.3375799921189
 30
0.0
 11
296.6300752286475
 21
-325.4239369455797
 31
0.0
  0
LINE
  5
363
330
1F
100
AcDbEntity
  8
D-F
  6
Continuous
 62
     7
370
     9
100
AcDbLine
 10
299.5946064489215
 20
-441.1846649631235
 30
0.0
 11
371.4381314299942
 21
-413.6922707064854
 31
0.0
  0
LINE
  5
364
330
1F
100
AcDbEntity
  8
D-F
  6
Continuous
 62
     7
370
     9
100
AcDbLine
 10
371.4381314299942
 20
-413.6922707064854
 30
0.0
 11
360.4467161832048
 21
-419.6453195785043
 31
0.0
  0
LINE
  5
365
330
1F
100
AcDbEntity
  8
D-F
  6
Continuous
 62
     7
370
     9
100
AcDbLine
 10
371.4381314299942
 20
-413.6922707064854
 30
0.0
 11
359.2804771511481
 21
-416.5976867586299
 31
0.0
  0
LINE
  5
366
330
1F
100
AcDbEntity
  8
D-4
  6
Continuous
 62
     7
370
     9
100
AcDbLine
 10
268.9380571336097
 20
-41.78556379972672
 30
0.0
 11
548.9382221579291
 21
-41.78556379972672
 31
0.0
  0
LINE
  5
367
330
1F
100
AcDbEntity
  8
D-4
  6
Continuous
 62
     7
370
     9
100
AcDbLine
 10
268.9380571336097
 20
-41.78556379972672
 30
0.0
 11
281.3311179007825
 21
-40.15398639697608
 31
0.0
  0
LINE
  5
368
330
1F
100
AcDbEntity
  8
D-4
  6
Continuous
 62
     7
370
     9
100
AcDbLine
 10
268.9380571336097
 20
-41.78556379972672
 30
0.0
 11
281.3311179007825
 21
-43.41714120247737
 31
0.0
  0
LINE
  5
369
330
1F
100
AcDbEntity
  8
D-4
  6
Continuous
 62
     7
370
     9
100
AcDbLine
 10
548.9382221579291
 20
-41.78556379972672
 30
0.0
 11
536.5451613907561
 21
-40.15398639697608
 31
0.0
  0
LINE
  5
36A
330
1F
100
AcDbEntity
  8
D-4
  6
Continuous
 62
     7
370
     9
100
AcDbLine
 10
548.9382221579291
 20
-41.78556379972672
 30
0.0
 11
536.5451613907561
 21
-43.41714120247737
 31
0.0
  0
LINE
  5
36B
330
1F
100
AcDbEntity
  8
D-4
  6
Continuous
 62
     7
370
     9
100
AcDbLine
 10
268.9380571336097
 20
-40.2855637997267
 30
0.0
 11
268.9380571336097
 21
-69.35292929143912
 31
0.0
  0
LINE
  5
36C
330
1F
100
AcDbEntity
  8
D-4
  6
Continuous
 62
     7
370
     9
100
AcDbLine
 10
548.9382221579291
 20
-40.2855637997267
 30
0.0
 11
548.9382221579291
 21
-69.35292929143912
 31
0.0
  0
TEXT
  5
36D
330
1F
100
AcDbEntity
  8
D-4
  6
Continuous
 62
     2
370
   211
100
AcDbText
 10
392.6881396457696
 20
-35.96556379972672
 30
0.0
 40
15.24
  1
112
 41
1.083333333333333
  7
ＭＳ ゴシック
100
AcDbText
  0
LINE
  5
36E
330
1F
100
AcDbEntity
  8
D-4
  6
Continuous
 62
     7
370
     9
100
AcDbLine
 10
591.760247413556
 20
-211.8529788438412
 30
0.0
 11
591.760247413556
 21
-74.35278907553965
 31
0.0
  0
LINE
  5
36F
330
1F
100
AcDbEntity
  8
D-4
  6
Continuous
 62
     7
370
     9
100
AcDbLine
 10
591.760247413556
 20
-211.8529788438412
 30
0.0
 11
590.1286700108051
 21
-199.4599180766685
 31
0.0
  0
LINE
  5
370
330
1F
100
AcDbEntity
  8
D-4
  6
Continuous
 62
     7
370
     9
100
AcDbLine
 10
591.760247413556
 20
-211.8529788438412
 30
0.0
 11
593.3918248163064
 21
-199.4599180766685
 31
0.0
  0
LINE
  5
371
330
1F
100
AcDbEntity
  8
D-4
  6
Continuous
 62
     7
370
     9
100
AcDbLine
 10
591.760247413556
 20
-74.35278907553965
 30
0.0
 11
590.1286700108051
 21
-86.74584984271227
 31
0.0
  0
LINE
  5
372
330
1F
100
AcDbEntity
  8
D-4
  6
Continuous
 62
     7
370
     9
100
AcDbLine
 10
591.760247413556
 20
-74.35278907553965
 30
0.0
 11
593.3918248163064
 21
-86.74584984271227
 31
0.0
  0
LINE
  5
373
330
1F
100
AcDbEntity
  8
D-4
  6
Continuous
 62
     7
370
     9
100
AcDbLine
 10
593.2602474135558
 20
-211.8529788438412
 30
0.0
 11
553.9380819420296
 21
-211.8529788438412
 31
0.0
  0
LINE
  5
374
330
1F
100
AcDbEntity
  8
D-4
  6
Continuous
 62
     7
370
     9
100
AcDbLine
 10
593.2602474135558
 20
-74.35278907553965
 30
0.0
 11
553.9380819420296
 21
-74.35278907553965
 31
0.0
  0
TEXT
  5
375
330
1F
100
AcDbEntity
  8
D-4
  6
Continuous
 62
     2
370
   211
100
AcDbText
 10
585.9402474135559
 20
-153.7278839596904
 30
0.0
 40
15.24
  1
55
 50
90.0
 41
1.0625
  7
ＭＳ ゴシック
100
AcDbText
  0
TEXT
  5
376
330
1F
100
AcDbEntity
  8
D-F
  6
Continuous
 62
     2
370
     9
100
AcDbText
 10
302.604535566829
 20
-521.3216171912532
 30
0.0
 40
15.24
  1
把手詳細図　Ｓ＝１：２
 41
1.113636363636364
  7
ＭＳ ゴシック
100
AcDbText
  0
LINE
  5
377
330
1F
100
AcDbEntity
  8
D-F
  6
Continuous
 62
     7
370
     9
100
AcDbLine
 10
297.943623616147
 20
-531.3399818614654
 30
0.0
 11
551.9971354128697
 21
-531.3399818614654
 31
0.0
  0
LINE
  5
378
330
1F
100
AcDbEntity
  8
D-B
  6
Continuous
 62
     7
370
     9
100
AcDbLine
 10
320.7998533506653
 20
407.1370762810514
 30
0.0
 11
320.7998533506653
 21
449.6370927770394
 31
0.0
  0
LINE
  5
379
330
1F
100
AcDbEntity
  8
D-4
  6
Continuous
 62
     7
370
     9
100
AcDbLine
 10
128.3811826963684
 20
449.6370927770397
 30
0.0
 11
88.41643462309989
 21
449.6370927770397
 31
0.0
  0
LINE
  5
37A
330
1F
100
AcDbEntity
  8
D-4
  6
Continuous
 62
     7
370
     9
100
AcDbLine
 10
128.3811826963684
 20
399.2000728102957
 30
0.0
 11
88.41643462309989
 21
399.2000728102957
 31
0.0
  0
LINE
  5
37B
330
1F
100
AcDbEntity
  8
D-4
  6
Continuous
 62
     7
370
     9
100
AcDbLine
 10
128.3811826963684
 20
407.2000497159122
 30
0.0
 11
88.41643462309989
 21
407.2000497159122
 31
0.0
  0
LINE
  5
37C
330
1F
100
AcDbEntity
  8
D-4
  6
Continuous
 62
     7
370
     9
100
AcDbLine
 10
89.91641482791408
 20
407.2000497159122
 30
0.0
 11
89.91641482791408
 21
412.1370927770397
 31
0.0
  0
LINE
  5
37D
330
1F
100
AcDbEntity
  8
D-4
  6
Continuous
 62
     7
370
     9
100
AcDbLine
 10
128.3811826963684
 20
412.1370927770397
 30
0.0
 11
88.41643462309989
 21
412.1370927770397
 31
0.0
  0
LINE
  5
37E
330
1F
100
AcDbEntity
  8
D-4
  6
Continuous
 62
     7
370
     9
100
AcDbLine
 10
89.91641482791408
 20
412.1370927770397
 30
0.0
 11
89.91641482791408
 21
449.6370927770397
 31
0.0
  0
LINE
  5
37F
330
1F
100
AcDbEntity
  8
D-4
  6
Continuous
 62
     7
370
     9
100
AcDbLine
 10
89.91641482791408
 20
358.2935687720777
 30
0.0
 11
89.91641482791408
 21
407.2000497159122
 31
0.0
  0
LINE
  5
380
330
1F
100
AcDbEntity
  8
D-4
  6
Continuous
 62
     7
370
     9
100
AcDbLine
 10
50.1528353304478
 20
394.8916506185726
 30
0.0
 11
50.1528353304478
 21
378.1954011464443
 31
0.0
  0
LINE
  5
381
330
1F
100
AcDbEntity
  8
D-4
  6
Continuous
 62
     7
370
     9
100
AcDbLine
 10
88.13138394742424
 20
409.7699597138007
 30
0.0
 11
50.1528353304478
 21
394.8916506185726
 31
0.0
  0
TEXT
  5
382
330
1F
100
AcDbEntity
  8
D-4
  6
Continuous
 62
     2
370
     9
100
AcDbText
 10
84.59628286000861
 20
361.7542538834587
 30
0.0
 40
15.24
  1
3.2
 50
90.0
 41
1.083333333333333
  7
ＭＳ ゴシック
100
AcDbText
  0
TEXT
  5
383
330
1F
100
AcDbEntity
  8
D-4
  6
Continuous
 62
     2
370
     9
100
AcDbText
 10
46.3440657991978
 20
381.6560800718296
 30
0.0
 40
15.24
  1
2
 50
90.0
 41
0.9999999999999998
  7
ＭＳ ゴシック
100
AcDbText
  0
TEXT
  5
384
330
1F
100
AcDbEntity
  8
D-4
  6
Continuous
 62
     2
370
     9
100
AcDbText
 10
84.59628286000861
 20
421.8766685497118
 30
0.0
 40
15.24
  1
15
 50
90.0
 41
1.0625
  7
ＭＳ ゴシック
100
AcDbText
  0
LWPOLYLINE
  5
385
330
1F
100
AcDbEntity
  8
D-4
  6
Continuous
 62
     7
370
     9
100
AcDbPolyline
 90
        4
 70
     1
 43
0.5
 10
90.16641482791408
 20
449.6370927770397
 42
0.4142135623731
 10
89.91641482791408
 20
449.8870927770397
 42
0.4142135623731
 10
89.66641482791408
 20
449.6370927770397
 42
0.4142135623731
 10
89.91641482791408
 20
449.3870927770397
 42
0.4142135623731
  0
LWPOLYLINE
  5
386
330
1F
100
AcDbEntity
  8
D-4
  6
Continuous
 62
     7
370
     9
100
AcDbPolyline
 90
        4
 70
     1
 43
0.5
 10
90.16641482791408
 20
399.2000728102957
 42
0.4142135623731
 10
89.91641482791408
 20
399.4500728102957
 42
0.4142135623731
 10
89.66641482791408
 20
399.2000728102957
 42
0.4142135623731
 10
89.91641482791408
 20
398.9500728102957
 42
0.4142135623731
  0
LWPOLYLINE
  5
387
330
1F
100
AcDbEntity
  8
D-4
  6
Continuous
 62
     7
370
     9
100
AcDbPolyline
 90
        4
 70
     1
 43
0.5
 10
90.16641482791408
 20
407.2000497159122
 42
0.4142135623731
 10
89.91641482791408
 20
407.4500497159122
 42
0.4142135623731
 10
89.66641482791408
 20
407.2000497159122
 42
0.4142135623731
 10
89.91641482791408
 20
406.9500497159123
 42
0.4142135623731
  0
LWPOLYLINE
  5
388
330
1F
100
AcDbEntity
  8
D-4
  6
Continuous
 62
     7
370
     9
100
AcDbPolyline
 90
        4
 70
     1
 43
0.5
 10
90.16641482791408
 20
412.1370927770397
 42
0.4142135623731
 10
89.91641482791408
 20
412.3870927770397
 42
0.4142135623731
 10
89.66641482791408
 20
412.1370927770397
 42
0.4142135623731
 10
89.91641482791408
 20
411.8870927770397
 42
0.4142135623731
  0
LINE
  5
389
330
1F
100
AcDbEntity
  8
D-2
  6
Continuous
 62
     3
370
     9
100
AcDbLine
 10
295.8000183105471
 20
355.887587656685
 30
0.0
 11
248.300109038482
 21
355.887587656685
 31
0.0
  0
LINE
  5
38A
330
1F
100
AcDbEntity
  8
D-2
  6
Continuous
 62
     3
370
     9
100
AcDbLine
 10
295.8000183105471
 20
355.887587656685
 30
0.0
 11
295.8000183105471
 21
344.6372412409332
 31
0.0
  0
LINE
  5
38B
330
1F
100
AcDbEntity
  8
D-2
  6
Continuous
 62
     3
370
     9
100
AcDbLine
 10
295.8000183105471
 20
344.6372412409332
 30
0.0
 11
272.0498162346919
 21
344.6372412409332
 31
0.0
  0
LINE
  5
38C
330
1F
100
AcDbEntity
  8
D-2
  6
Continuous
 62
     3
370
     9
100
AcDbLine
 10
248.300109038482
 20
355.887587656685
 30
0.0
 11
248.300109038482
 21
349.6375051767438
 31
0.0
  0
LINE
  5
38D
330
1F
100
AcDbEntity
  8
D-2
  6
Continuous
 62
     3
370
     9
100
AcDbLine
 10
295.8000183105471
 20
349.6375051767438
 30
0.0
 11
248.300109038482
 21
349.6375051767438
 31
0.0
  0
LINE
  5
38E
330
1F
100
AcDbEntity
  8
D-2
  6
Continuous
 62
     3
370
     9
100
AcDbLine
 10
272.0498162346919
 20
344.6372412409332
 30
0.0
 11
272.0498162346919
 21
349.6375051767438
 31
0.0
  0
LINE
  5
38F
330
1F
100
AcDbEntity
  8
D-2
  6
Continuous
 62
     3
370
     9
100
AcDbLine
 10
277.0502657503698
 20
329.6371917529686
 30
0.0
 11
267.050109038482
 21
329.6371917529686
 31
0.0
  0
LINE
  5
390
330
1F
100
AcDbEntity
  8
D-2
  6
Continuous
 62
     3
370
     9
100
AcDbLine
 10
264.5496677707984
 20
332.1375711606964
 30
0.0
 11
264.5496677707984
 21
349.6375051767438
 31
0.0
  0
LINE
  5
391
330
1F
100
AcDbEntity
  8
D-2
  6
Continuous
 62
     3
370
     9
100
AcDbLine
 10
279.5499646985855
 20
332.1375711606964
 30
0.0
 11
279.5499646985855
 21
344.6372412409332
 31
0.0
  0
LINE
  5
392
330
1F
100
AcDbEntity
  8
D-0
  6
Continuous
 62
     4
370
     9
100
AcDbLine
 10
228.3000430545294
 20
455.8870515370691
 30
0.0
 11
204.4194401921455
 21
453.3803624138639
 31
0.0
  0
LINE
  5
393
330
1F
100
AcDbEntity
  8
D-0
  6
Continuous
 62
     4
370
     9
100
AcDbLine
 10
315.7995894148545
 20
455.8870515370691
 30
0.0
 11
339.6800066973714
 21
453.3803624138639
 31
0.0
  0
LINE
  5
394
330
1F
100
AcDbEntity
  8
D-0
  6
Continuous
 62
     4
370
     9
100
AcDbLine
 10
315.7995894148545
 20
455.8870515370691
 30
0.0
 11
228.3000430545294
 21
455.8870515370691
 31
0.0
  0
LINE
  5
395
330
1F
100
AcDbEntity
  8
D-0
  6
Continuous
 62
     4
370
     9
100
AcDbLine
 10
340.7995481748841
 20
452.1371010250334
 30
0.0
 11
340.7995481748841
 21
449.6370927770394
 31
0.0
  0
LINE
  5
396
330
1F
100
AcDbEntity
  8
D-0
  6
Continuous
 62
     4
370
     9
100
AcDbLine
 10
203.3000842944998
 20
452.1371010250334
 30
0.0
 11
203.3000842944998
 21
449.6370927770394
 31
0.0
  0
LINE
  5
397
330
1F
100
AcDbEntity
  8
D-0
  6
Continuous
 62
     4
370
     9
100
AcDbLine
 10
249.5498038627008
 20
429.637150512998
 30
0.0
 11
294.5498286066831
 21
429.637150512998
 31
0.0
  0
LINE
  5
398
330
1F
100
AcDbEntity
  8
D-0
  6
Continuous
 62
     4
370
     9
100
AcDbLine
 10
310.7999440786003
 20
429.637150512998
 30
0.0
 11
295.7993997109905
 21
429.637150512998
 31
0.0
  0
LINE
  5
399
330
1F
100
AcDbEntity
  8
D-0
  6
Continuous
 62
     4
370
     9
100
AcDbLine
 10
233.2996883907836
 20
429.637150512998
 30
0.0
 11
248.3002327583934
 21
429.637150512998
 31
0.0
  0
LINE
  5
39A
330
1F
100
AcDbEntity
  8
D-A
  6
Continuous
 62
     2
370
     9
100
AcDbLine
 10
312.0496389028191
 20
429.637150512998
 30
0.0
 11
312.0496389028191
 21
423.3871917529686
 31
0.0
  0
LINE
  5
39B
330
1F
100
AcDbEntity
  8
D-A
  6
Continuous
 62
     2
370
     9
100
AcDbLine
 10
294.5497048867718
 20
429.637150512998
 30
0.0
 11
294.5497048867718
 21
423.3871917529686
 31
0.0
  0
LINE
  5
39C
330
1F
100
AcDbEntity
  8
D-A
  6
Continuous
 62
     2
370
     9
100
AcDbLine
 10
307.6746553988073
 20
422.1371257690157
 30
0.0
 11
298.9246883907836
 21
422.1371257690157
 31
0.0
  0
LINE
  5
39D
330
1F
100
AcDbEntity
  8
D-A
  6
JWW_CENTER1
 62
     2
370
     9
100
AcDbLine
 10
303.2996718947954
 20
451.3595213824027
 30
0.0
 11
303.2996718947954
 21
430.6295079216764
 31
0.0
  0
LINE
  5
39E
330
1F
100
AcDbEntity
  8
D-A
  6
Continuous
 62
     2
370
     9
100
AcDbLine
 10
312.0496389028191
 20
429.637150512998
 30
0.0
 11
310.7999440786003
 21
429.637150512998
 31
0.0
  0
LINE
  5
39F
330
1F
100
AcDbEntity
  8
D-A
  6
Continuous
 62
     2
370
     9
100
AcDbLine
 10
303.2996718947954
 20
423.3871917529686
 30
0.0
 11
303.2996718947954
 21
429.637150512998
 31
0.0
  0
LINE
  5
3A0
330
1F
100
AcDbEntity
  8
D-A
  6
Continuous
 62
     2
370
     9
100
AcDbLine
 10
232.0499317066092
 20
429.637150512998
 30
0.0
 11
232.0499317066092
 21
423.3871917529686
 31
0.0
  0
LINE
  5
3A1
330
1F
100
AcDbEntity
  8
D-A
  6
Continuous
 62
     2
370
     9
100
AcDbLine
 10
249.5499275826121
 20
429.637150512998
 30
0.0
 11
249.5499275826121
 21
423.3871917529686
 31
0.0
  0
LINE
  5
3A2
330
1F
100
AcDbEntity
  8
D-A
  6
Continuous
 62
     2
370
     9
100
AcDbLine
 10
236.424915210621
 20
422.1371257690157
 30
0.0
 11
245.175005938556
 21
422.1371257690157
 31
0.0
  0
LINE
  5
3A3
330
1F
100
AcDbEntity
  8
D-A
  6
Continuous
 62
     2
370
     9
100
AcDbLine
 10
232.0499317066092
 20
429.637150512998
 30
0.0
 11
233.2996883907836
 21
429.637150512998
 31
0.0
  0
LINE
  5
3A4
330
1F
100
AcDbEntity
  8
D-A
  6
Continuous
 62
     2
370
     9
100
AcDbLine
 10
240.7999605745885
 20
423.3871917529686
 30
0.0
 11
240.7999605745885
 21
429.637150512998
 31
0.0
  0
LINE
  5
3A5
330
1F
100
AcDbEntity
  8
D-2
  6
Continuous
 62
     3
370
     9
100
AcDbLine
 10
279.5499646985855
 20
355.887587656685
 30
0.0
 11
279.5499646985855
 21
429.637150512998
 31
0.0
  0
LINE
  5
3A6
330
1F
100
AcDbEntity
  8
D-2
  6
Continuous
 62
     3
370
     9
100
AcDbLine
 10
264.5496677707984
 20
355.887587656685
 30
0.0
 11
264.5496677707984
 21
429.637150512998
 31
0.0
  0
LINE
  5
3A7
330
1F
100
AcDbEntity
  8
D-A
  6
Continuous
 62
     2
370
     9
100
AcDbLine
 10
305.7989996832772
 20
399.137099375435
 30
0.0
 11
305.7989996832772
 21
396.6374004272188
 31
0.0
  0
LINE
  5
3A8
330
1F
100
AcDbEntity
  8
D-A
  6
Continuous
 62
     2
370
     9
100
AcDbLine
 10
307.04906566723
 20
399.137099375435
 30
0.0
 11
307.04906566723
 21
396.6374004272188
 31
0.0
  0
LINE
  5
3A9
330
1F
100
AcDbEntity
  8
D-A
  6
Continuous
 62
     2
370
     9
100
AcDbLine
 10
312.7988248258026
 20
399.1367282157009
 30
0.0
 11
312.7988248258026
 21
396.6370911274407
 31
0.0
  0
LINE
  5
3AA
330
1F
100
AcDbEntity
  8
D-A
  6
Continuous
 62
     2
370
     9
100
AcDbLine
 10
312.7988248258026
 20
396.6370911274407
 30
0.0
 11
293.7992817646751
 21
396.6370911274407
 31
0.0
  0
LINE
  5
3AB
330
1F
100
AcDbEntity
  8
D-A
  6
Continuous
 62
     2
370
     9
100
AcDbLine
 10
293.7992817646751
 20
399.1367282157009
 30
0.0
 11
293.7992817646751
 21
396.6370911274407
 31
0.0
  0
LINE
  5
3AC
330
1F
100
AcDbEntity
  8
D-A
  6
Continuous
 62
     2
370
     9
100
AcDbLine
 10
312.0496389028191
 20
396.6370911274407
 30
0.0
 11
312.0496389028191
 21
390.387132367411
 31
0.0
  0
LINE
  5
3AD
330
1F
100
AcDbEntity
  8
D-A
  6
Continuous
 62
     2
370
     9
100
AcDbLine
 10
294.5497048867718
 20
396.6370911274407
 30
0.0
 11
294.5497048867718
 21
390.387132367411
 31
0.0
  0
LINE
  5
3AE
330
1F
100
AcDbEntity
  8
D-A
  6
Continuous
 62
     2
370
     9
100
AcDbLine
 10
311.6488482501058
 20
389.1370663834584
 30
0.0
 11
294.950495539485
 21
389.1370663834584
 31
0.0
  0
LINE
  5
3AF
330
1F
100
AcDbEntity
  8
D-A
  6
Continuous
 62
     2
370
     9
100
AcDbLine
 10
303.2996718947954
 20
390.387132367411
 30
0.0
 11
303.2996718947954
 21
396.6370911274407
 31
0.0
  0
LINE
  5
3B0
330
1F
100
AcDbEntity
  8
D-A
  6
Continuous
 62
     2
370
     9
100
AcDbLine
 10
243.2992883630703
 20
399.137099375435
 30
0.0
 11
243.2992883630703
 21
396.6374004272188
 31
0.0
  0
LINE
  5
3B1
330
1F
100
AcDbEntity
  8
D-A
  6
Continuous
 62
     2
370
     9
100
AcDbLine
 10
244.549354347023
 20
399.137099375435
 30
0.0
 11
244.549354347023
 21
396.6374004272188
 31
0.0
  0
LINE
  5
3B2
330
1F
100
AcDbEntity
  8
D-A
  6
Continuous
 62
     2
370
     9
100
AcDbLine
 10
250.2991135055956
 20
399.1367282157009
 30
0.0
 11
250.2991135055956
 21
396.6370911274407
 31
0.0
  0
LINE
  5
3B3
330
1F
100
AcDbEntity
  8
D-A
  6
Continuous
 62
     2
370
     9
100
AcDbLine
 10
250.2991135055956
 20
396.6370911274407
 30
0.0
 11
231.2995704444681
 21
396.6370911274407
 31
0.0
  0
LINE
  5
3B4
330
1F
100
AcDbEntity
  8
D-A
  6
Continuous
 62
     2
370
     9
100
AcDbLine
 10
231.2995704444681
 20
399.1367282157009
 30
0.0
 11
231.2995704444681
 21
396.6370911274407
 31
0.0
  0
LINE
  5
3B5
330
1F
100
AcDbEntity
  8
D-A
  6
Continuous
 62
     2
370
     9
100
AcDbLine
 10
249.5499275826121
 20
396.6370911274407
 30
0.0
 11
249.5499275826121
 21
390.387132367411
 31
0.0
  0
LINE
  5
3B6
330
1F
100
AcDbEntity
  8
D-A
  6
Continuous
 62
     2
370
     9
100
AcDbLine
 10
232.0499935665649
 20
396.6370911274407
 30
0.0
 11
232.0499935665649
 21
390.387132367411
 31
0.0
  0
LINE
  5
3B7
330
1F
100
AcDbEntity
  8
D-A
  6
Continuous
 62
     2
370
     9
100
AcDbLine
 10
240.7999605745885
 20
390.387132367411
 30
0.0
 11
240.7999605745885
 21
396.6370911274407
 31
0.0
  0
LINE
  5
3B8
330
1F
100
AcDbEntity
  8
D-A
  6
Continuous
 62
     2
370
     9
100
AcDbLine
 10
308.299440950961
 20
422.1371257690157
 30
0.0
 11
308.299440950961
 21
412.1370927770394
 31
0.0
  0
LINE
  5
3B9
330
1F
100
AcDbEntity
  8
D-A
  6
Continuous
 62
     2
370
     9
100
AcDbLine
 10
306.7992133063241
 20
422.1371257690157
 30
0.0
 11
306.7992133063241
 21
412.1370927770394
 31
0.0
  0
LINE
  5
3BA
330
1F
100
AcDbEntity
  8
D-A
  6
Continuous
 62
     2
370
     9
100
AcDbLine
 10
299.7995118837101
 20
422.1371257690157
 30
0.0
 11
299.7995118837101
 21
412.1370927770394
 31
0.0
  0
LINE
  5
3BB
330
1F
100
AcDbEntity
  8
D-A
  6
Continuous
 62
     2
370
     9
100
AcDbLine
 10
298.2992842390732
 20
422.1371257690157
 30
0.0
 11
298.2992842390732
 21
412.1370927770394
 31
0.0
  0
LINE
  5
3BC
330
1F
100
AcDbEntity
  8
D-A
  6
Continuous
 62
     2
370
     9
100
AcDbLine
 10
245.8003482303106
 20
422.1371257690157
 30
0.0
 11
245.8003482303106
 21
412.1370927770394
 31
0.0
  0
LINE
  5
3BD
330
1F
100
AcDbEntity
  8
D-A
  6
Continuous
 62
     2
370
     9
100
AcDbLine
 10
244.3001205856738
 20
422.1371257690157
 30
0.0
 11
244.3001205856738
 21
412.1370927770394
 31
0.0
  0
LINE
  5
3BE
330
1F
100
AcDbEntity
  8
D-A
  6
Continuous
 62
     2
370
     9
100
AcDbLine
 10
237.3004191630598
 20
422.1371257690157
 30
0.0
 11
237.3004191630598
 21
412.1370927770394
 31
0.0
  0
LINE
  5
3BF
330
1F
100
AcDbEntity
  8
D-A
  6
Continuous
 62
     2
370
     9
100
AcDbLine
 10
235.8001915184229
 20
422.1371257690157
 30
0.0
 11
235.8001915184229
 21
412.1370927770394
 31
0.0
  0
LINE
  5
3C0
330
1F
100
AcDbEntity
  8
D-3
  6
Continuous
 62
     3
370
     9
100
AcDbLine
 10
308.2998121106949
 20
399.137099375435
 30
0.0
 11
308.2998121106949
 21
407.1370762810514
 31
0.0
  0
LINE
  5
3C1
330
1F
100
AcDbEntity
  8
D-3
  6
Continuous
 62
     3
370
     9
100
AcDbLine
 10
235.799820358689
 20
399.137099375435
 30
0.0
 11
235.799820358689
 21
407.1370762810514
 31
0.0
  0
LINE
  5
3C2
330
1F
100
AcDbEntity
  8
D-0
  6
Continuous
 62
     4
370
     9
100
AcDbLine
 10
313.4458799619935
 20
431.9812098127764
 30
0.0
 11
314.4033483556801
 21
447.2931571971725
 31
0.0
  0
LINE
  5
3C3
330
1F
100
AcDbEntity
  8
D-0
  6
Continuous
 62
     4
370
     9
100
AcDbLine
 10
230.6537525073904
 20
431.9812098127764
 30
0.0
 11
229.6962841137038
 21
447.2931571971725
 31
0.0
  0
LINE
  5
3C4
330
1F
100
AcDbEntity
  8
D-A
  6
Continuous
 62
     2
370
     9
100
AcDbLine
 10
293.1960234770906
 20
382.1499225318433
 30
0.0
 11
293.1960234770906
 21
388.1241096095459
 31
0.0
  0
LINE
  5
3C5
330
1F
100
AcDbEntity
  8
D-A
  6
Continuous
 62
     2
370
     9
100
AcDbLine
 10
294.950495539485
 20
389.1370663834584
 30
0.0
 11
293.1960234770906
 21
388.1241096095459
 31
0.0
  0
LINE
  5
3C6
330
1F
100
AcDbEntity
  8
D-A
  6
Continuous
 62
     2
370
     9
100
AcDbLine
 10
296.2996611724031
 20
379.6364288135155
 30
0.0
 11
296.2996611724031
 21
378.4445111878819
 31
0.0
  0
LINE
  5
3C7
330
1F
100
AcDbEntity
  8
D-A
  6
Continuous
 62
     2
370
     9
100
AcDbLine
 10
295.6746281804268
 20
380.7189780375444
 30
0.0
 11
293.1960234770906
 21
382.1499225318433
 31
0.0
  0
LINE
  5
3C8
330
1F
100
AcDbEntity
  8
D-A
  6
Continuous
 62
     2
370
     9
100
AcDbLine
 10
310.9246537492084
 20
380.7189780375444
 30
0.0
 11
313.4032584525445
 21
382.1499225318433
 31
0.0
  0
LINE
  5
3C9
330
1F
100
AcDbEntity
  8
D-A
  6
Continuous
 62
     2
370
     9
100
AcDbLine
 10
310.2996826171877
 20
378.4445111878819
 30
0.0
 11
310.2996826171877
 21
379.6364288135155
 31
0.0
  0
LINE
  5
3CA
330
1F
100
AcDbEntity
  8
D-A
  6
Continuous
 62
     2
370
     9
100
AcDbLine
 10
313.4032584525445
 20
382.1499225318433
 30
0.0
 11
313.4032584525445
 21
388.1241096095459
 31
0.0
  0
LINE
  5
3CB
330
1F
100
AcDbEntity
  8
D-A
  6
Continuous
 62
     2
370
     9
100
AcDbLine
 10
298.2478786159209
 20
382.1499225318433
 30
0.0
 11
298.2478786159209
 21
388.1241096095459
 31
0.0
  0
LINE
  5
3CC
330
1F
100
AcDbEntity
  8
D-A
  6
Continuous
 62
     2
370
     9
100
AcDbLine
 10
308.35146517367
 20
382.1499225318433
 30
0.0
 11
308.35146517367
 21
388.1241096095459
 31
0.0
  0
LINE
  5
3CD
330
1F
100
AcDbEntity
  8
D-A
  6
Continuous
 62
     2
370
     9
100
AcDbLine
 10
311.6488482501058
 20
389.1370663834584
 30
0.0
 11
313.4032584525445
 21
388.1241096095459
 31
0.0
  0
LINE
  5
3CE
330
1F
100
AcDbEntity
  8
D-A
  6
Continuous
 62
     2
370
     9
100
AcDbLine
 10
294.950495539485
 20
381.1370276178863
 30
0.0
 11
311.6488482501058
 21
381.1370276178863
 31
0.0
  0
LINE
  5
3CF
330
1F
100
AcDbEntity
  8
D-A
  6
JWW_CENTER1
 62
     2
370
     9
100
AcDbLine
 10
303.2996718947954
 20
394.3451179103272
 30
0.0
 11
303.2996718947954
 21
370.463463428697
 31
0.0
  0
LINE
  5
3D0
330
1F
100
AcDbEntity
  8
D-A
  6
Continuous
 62
     2
370
     9
100
AcDbLine
 10
250.9036089922933
 20
382.1499225318433
 30
0.0
 11
250.9036089922933
 21
388.1241096095459
 31
0.0
  0
LINE
  5
3D1
330
1F
100
AcDbEntity
  8
D-A
  6
Continuous
 62
     2
370
     9
100
AcDbLine
 10
249.1491369298988
 20
389.1370663834584
 30
0.0
 11
250.9036089922933
 21
388.1241096095459
 31
0.0
  0
LINE
  5
3D2
330
1F
100
AcDbEntity
  8
D-A
  6
Continuous
 62
     2
370
     9
100
AcDbLine
 10
247.7999712969808
 20
379.6364288135155
 30
0.0
 11
247.7999712969808
 21
378.4445111878819
 31
0.0
  0
LINE
  5
3D3
330
1F
100
AcDbEntity
  8
D-A
  6
Continuous
 62
     2
370
     9
100
AcDbLine
 10
248.4250042889572
 20
380.7189780375444
 30
0.0
 11
250.9036089922933
 21
382.1499225318433
 31
0.0
  0
LINE
  5
3D4
330
1F
100
AcDbEntity
  8
D-A
  6
Continuous
 62
     2
370
     9
100
AcDbLine
 10
233.1749787201755
 20
380.7189780375444
 30
0.0
 11
230.6963740168393
 21
382.1499225318433
 31
0.0
  0
LINE
  5
3D5
330
1F
100
AcDbEntity
  8
D-A
  6
Continuous
 62
     2
370
     9
100
AcDbLine
 10
233.7999498521962
 20
378.4445111878819
 30
0.0
 11
233.7999498521962
 21
379.6364288135155
 31
0.0
  0
LINE
  5
3D6
330
1F
100
AcDbEntity
  8
D-A
  6
Continuous
 62
     2
370
     9
100
AcDbLine
 10
230.6963740168393
 20
382.1499225318433
 30
0.0
 11
230.6963740168393
 21
388.1241096095459
 31
0.0
  0
LINE
  5
3D7
330
1F
100
AcDbEntity
  8
D-A
  6
Continuous
 62
     2
370
     9
100
AcDbLine
 10
245.851753853463
 20
382.1499225318433
 30
0.0
 11
245.851753853463
 21
388.1241096095459
 31
0.0
  0
LINE
  5
3D8
330
1F
100
AcDbEntity
  8
D-A
  6
Continuous
 62
     2
370
     9
100
AcDbLine
 10
235.7481672957139
 20
382.1499225318433
 30
0.0
 11
235.7481672957139
 21
388.1241096095459
 31
0.0
  0
LINE
  5
3D9
330
1F
100
AcDbEntity
  8
D-A
  6
Continuous
 62
     2
370
     9
100
AcDbLine
 10
249.1491369298988
 20
381.1370276178863
 30
0.0
 11
232.4507842192781
 21
381.1370276178863
 31
0.0
  0
LINE
  5
3DA
330
1F
100
AcDbEntity
  8
D-A
  6
JWW_CENTER1
 62
     2
370
     9
100
AcDbLine
 10
240.7999605745885
 20
394.5388632914506
 30
0.0
 11
240.7999605745885
 21
370.463463428697
 31
0.0
  0
LINE
  5
3DB
330
1F
100
AcDbEntity
  8
D-A
  6
JWW_CENTER1
 62
     2
370
     9
100
AcDbLine
 10
303.2996718947954
 20
421.1336335683191
 30
0.0
 11
303.2996718947954
 21
399.137099375435
 31
0.0
  0
LINE
  5
3DC
330
1F
100
AcDbEntity
  8
D-A
  6
Continuous
 62
     2
370
     9
100
AcDbLine
 10
249.1491369298988
 20
389.1370663834584
 30
0.0
 11
232.4507842192781
 21
389.1370663834584
 31
0.0
  0
LINE
  5
3DD
330
1F
100
AcDbEntity
  8
D-A
  6
Continuous
 62
     2
370
     9
100
AcDbLine
 10
232.4507842192781
 20
389.1370663834584
 30
0.0
 11
230.6963740168393
 21
388.1241096095459
 31
0.0
  0
LINE
  5
3DE
330
1F
100
AcDbEntity
  8
D-0
  6
Continuous
 62
     4
370
     9
100
AcDbLine
 10
203.3000842944998
 20
449.6370927770394
 30
0.0
 11
340.7995481748841
 21
449.6370927770394
 31
0.0
  0
LINE
  5
3DF
330
1F
100
AcDbEntity
  8
D-0
  6
Continuous
 62
     4
370
     9
100
AcDbLine
 10
249.5107083707244
 20
429.9497907288975
 30
0.0
 11
249.5498038627008
 21
429.637150512998
 31
0.0
  0
LINE
  5
3E0
330
1F
100
AcDbEntity
  8
D-A
  6
JWW_CENTER1
 62
     2
370
     9
100
AcDbLine
 10
240.7999605745885
 20
451.3595213824027
 30
0.0
 11
240.7999605745885
 21
430.6295079216764
 31
0.0
  0
LINE
  5
3E1
330
1F
100
AcDbEntity
  8
D-A
  6
JWW_CENTER1
 62
     2
370
     9
100
AcDbLine
 10
240.7999605745885
 20
421.1336335683191
 30
0.0
 11
240.7999605745885
 21
399.137099375435
 31
0.0
  0
LINE
  5
3E2
330
1F
100
AcDbEntity
  8
D-0
  6
Continuous
 62
     4
370
     9
100
AcDbLine
 10
292.8706401103254
 20
435.5673551622274
 30
0.0
 11
293.2993914629964
 21
432.1371587609923
 31
0.0
  0
LINE
  5
3E3
330
1F
100
AcDbEntity
  8
D-0
  6
Continuous
 62
     4
370
     9
100
AcDbLine
 10
258.6711161845442
 20
442.1370680330571
 30
0.0
 11
285.4285162848397
 21
442.1370680330571
 31
0.0
  0
LINE
  5
3E4
330
1F
100
AcDbEntity
  8
D-0
  6
Continuous
 62
     4
370
     9
100
AcDbLine
 10
251.2289923590585
 20
435.5673551622274
 30
0.0
 11
250.8002410063875
 21
432.1371587609923
 31
0.0
  0
ARC
  5
3E5
330
1F
100
AcDbEntity
  8
D-2
  6
Continuous
 62
     3
370
     9
100
AcDbCircle
 10
267.050109038482
 20
332.1375711606964
 30
0.0
 40
2.500000273859179
100
AcDbArc
 50
180.0
 51
270.0
  0
ARC
  5
3E6
330
1F
100
AcDbEntity
  8
D-2
  6
Continuous
 62
     3
370
     9
100
AcDbCircle
 10
277.0502657503698
 20
332.1375711606964
 30
0.0
 40
2.500000273859179
100
AcDbArc
 50
270.0
 51
0.0
  0
ARC
  5
3E7
330
1F
100
AcDbEntity
  8
D-0
  6
Continuous
 62
     4
370
     9
100
AcDbCircle
 10
339.5496059108427
 20
452.1371010250334
 30
0.0
 40
1.250000016109364
100
AcDbArc
 50
0.0
 51
84.00610351562501
  0
ARC
  5
3E8
330
1F
100
AcDbEntity
  8
D-0
  6
Continuous
 62
     4
370
     9
100
AcDbCircle
 10
204.5500884184968
 20
452.1371010250334
 30
0.0
 40
1.250000016109364
100
AcDbArc
 50
95.993896484375
 51
180.0
  0
ARC
  5
3E9
330
1F
100
AcDbEntity
  8
D-A
  6
Continuous
 62
     2
370
     9
100
AcDbCircle
 10
307.6746553988073
 20
430.4184417529686
 30
0.0
 40
8.281277321480417
100
AcDbArc
 50
238.1089477539062
 51
301.8907012939453
  0
ARC
  5
3EA
330
1F
100
AcDbEntity
  8
D-A
  6
Continuous
 62
     2
370
     9
100
AcDbCircle
 10
298.9246883907836
 20
430.4184417529686
 30
0.0
 40
8.281277321480417
100
AcDbArc
 50
238.1092987060547
 51
301.8910522460938
  0
ARC
  5
3EB
330
1F
100
AcDbEntity
  8
D-A
  6
Continuous
 62
     2
370
     9
100
AcDbCircle
 10
236.424915210621
 20
430.4184417529686
 30
0.0
 40
8.281277321480417
100
AcDbArc
 50
238.1092987060547
 51
301.8910522460938
  0
ARC
  5
3EC
330
1F
100
AcDbEntity
  8
D-A
  6
Continuous
 62
     2
370
     9
100
AcDbCircle
 10
245.175005938556
 20
430.4184417529686
 30
0.0
 40
8.281277321480417
100
AcDbArc
 50
238.1089477539062
 51
301.8907012939453
  0
ARC
  5
3ED
330
1F
100
AcDbEntity
  8
D-A
  6
Continuous
 62
     2
370
     9
100
AcDbCircle
 10
307.6746553988073
 20
397.418382367411
 30
0.0
 40
8.281277321480417
100
AcDbArc
 50
238.1089477539062
 51
301.8907012939453
  0
ARC
  5
3EE
330
1F
100
AcDbEntity
  8
D-A
  6
Continuous
 62
     2
370
     9
100
AcDbCircle
 10
298.9246883907836
 20
397.418382367411
 30
0.0
 40
8.281277321480417
100
AcDbArc
 50
238.1092987060547
 51
301.8910522460938
  0
ARC
  5
3EF
330
1F
100
AcDbEntity
  8
D-A
  6
Continuous
 62
     2
370
     9
100
AcDbCircle
 10
245.1749440786003
 20
397.418382367411
 30
0.0
 40
8.281277321480417
100
AcDbArc
 50
238.1089477539062
 51
301.8907012939453
  0
ARC
  5
3F0
330
1F
100
AcDbEntity
  8
D-A
  6
Continuous
 62
     2
370
     9
100
AcDbCircle
 10
236.4249770705766
 20
397.418382367411
 30
0.0
 40
8.281277321480417
100
AcDbArc
 50
238.1092987060547
 51
301.8910522460938
  0
ARC
  5
3F1
330
1F
100
AcDbEntity
  8
D-0
  6
Continuous
 62
     4
370
     9
100
AcDbCircle
 10
316.8984696671772
 20
447.1371463890011
 30
0.0
 40
2.500000032218727
100
AcDbArc
 50
90.0
 51
176.4221649169922
  0
ARC
  5
3F2
330
1F
100
AcDbEntity
  8
D-0
  6
Continuous
 62
     4
370
     9
100
AcDbCircle
 10
310.9507586504964
 20
432.1372206209477
 30
0.0
 40
2.500000032218727
100
AcDbArc
 50
270.0
 51
356.4221649169922
  0
ARC
  5
3F3
330
1F
100
AcDbEntity
  8
D-0
  6
Continuous
 62
     4
370
     9
100
AcDbCircle
 10
227.2011628022067
 20
447.1371463890011
 30
0.0
 40
2.500000032218727
100
AcDbArc
 50
3.577835083007803
 51
89.99999999999999
  0
ARC
  5
3F4
330
1F
100
AcDbEntity
  8
D-0
  6
Continuous
 62
     4
370
     9
100
AcDbCircle
 10
233.1488738188875
 20
432.1372206209477
 30
0.0
 40
2.500000032218727
100
AcDbArc
 50
183.5778350830078
 51
270.0
  0
ARC
  5
3F5
330
1F
100
AcDbEntity
  8
D-A
  6
Continuous
 62
     2
370
     9
100
AcDbCircle
 10
303.2996718947954
 20
394.2411313248647
 30
0.0
 40
13.10409210823678
100
AcDbArc
 50
247.3243103027343
 51
292.6756896972656
  0
ARC
  5
3F6
330
1F
100
AcDbEntity
  8
D-A
  6
Continuous
 62
     2
370
     9
100
AcDbCircle
 10
294.950495539485
 20
387.0102592479537
 30
0.0
 40
5.873256277393651
100
AcDbArc
 50
270.0
 51
304.1535186767578
  0
ARC
  5
3F7
330
1F
100
AcDbEntity
  8
D-A
  6
Continuous
 62
     2
370
     9
100
AcDbCircle
 10
303.2996718947954
 20
376.0329626764801
 30
0.0
 40
13.10409210823678
100
AcDbArc
 50
67.32431030273439
 51
112.6756896972656
  0
ARC
  5
3F8
330
1F
100
AcDbEntity
  8
D-A
  6
Continuous
 62
     2
370
     9
100
AcDbCircle
 10
294.950495539485
 20
383.2638347533907
 30
0.0
 40
5.873256277393651
100
AcDbArc
 50
55.84648132324221
 51
90.00000000000003
  0
ARC
  5
3F9
330
1F
100
AcDbEntity
  8
D-A
  6
Continuous
 62
     2
370
     9
100
AcDbCircle
 10
303.2996718947954
 20
381.1370276178863
 30
0.0
 40
7.500000096656181
100
AcDbArc
 50
201.0391845703125
 51
338.9608154296874
  0
ARC
  5
3FA
330
1F
100
AcDbEntity
  8
D-A
  6
Continuous
 62
     2
370
     9
100
AcDbCircle
 10
295.0496570484061
 20
379.6364288135155
 30
0.0
 40
1.250000016109364
100
AcDbArc
 50
0.0
 51
59.99960327148438
  0
ARC
  5
3FB
330
1F
100
AcDbEntity
  8
D-A
  6
Continuous
 62
     2
370
     9
100
AcDbCircle
 10
311.6488482501058
 20
387.0102592479537
 30
0.0
 40
5.873256277393651
100
AcDbArc
 50
235.8464813232422
 51
270.0
  0
ARC
  5
3FC
330
1F
100
AcDbEntity
  8
D-A
  6
Continuous
 62
     2
370
     9
100
AcDbCircle
 10
311.6488482501058
 20
383.2638347533907
 30
0.0
 40
5.873256277393651
100
AcDbArc
 50
90.0
 51
124.1535186767578
  0
ARC
  5
3FD
330
1F
100
AcDbEntity
  8
D-A
  6
Continuous
 62
     2
370
     9
100
AcDbCircle
 10
311.5496248812291
 20
379.6364288135155
 30
0.0
 40
1.250000016109364
100
AcDbArc
 50
120.0003967285157
 51
180.0000000000001
  0
ARC
  5
3FE
330
1F
100
AcDbEntity
  8
D-A
  6
Continuous
 62
     2
370
     9
100
AcDbCircle
 10
240.7999605745885
 20
394.2411313248647
 30
0.0
 40
13.10409210823678
100
AcDbArc
 50
247.3243103027343
 51
292.6756896972656
  0
ARC
  5
3FF
330
1F
100
AcDbEntity
  8
D-A
  6
Continuous
 62
     2
370
     9
100
AcDbCircle
 10
249.1491369298988
 20
387.0102592479537
 30
0.0
 40
5.873256277393651
100
AcDbArc
 50
235.8464813232422
 51
270.0
  0
ARC
  5
400
330
1F
100
AcDbEntity
  8
D-A
  6
Continuous
 62
     2
370
     9
100
AcDbCircle
 10
240.7999605745885
 20
376.0329626764801
 30
0.0
 40
13.10409210823678
100
AcDbArc
 50
67.32431030273439
 51
112.6756896972656
  0
ARC
  5
401
330
1F
100
AcDbEntity
  8
D-A
  6
Continuous
 62
     2
370
     9
100
AcDbCircle
 10
240.7999605745885
 20
381.1370276178863
 30
0.0
 40
7.500000096656181
100
AcDbArc
 50
201.0391845703125
 51
338.9608154296874
  0
ARC
  5
402
330
1F
100
AcDbEntity
  8
D-A
  6
Continuous
 62
     2
370
     9
100
AcDbCircle
 10
249.0499754209778
 20
379.6364288135155
 30
0.0
 40
1.250000016109364
100
AcDbArc
 50
120.0003967285157
 51
180.0000000000001
  0
ARC
  5
403
330
1F
100
AcDbEntity
  8
D-A
  6
Continuous
 62
     2
370
     9
100
AcDbCircle
 10
232.4507842192781
 20
387.0102592479537
 30
0.0
 40
5.873256277393651
100
AcDbArc
 50
270.0
 51
304.1535186767578
  0
ARC
  5
404
330
1F
100
AcDbEntity
  8
D-A
  6
Continuous
 62
     2
370
     9
100
AcDbCircle
 10
232.4507842192781
 20
383.2638347533907
 30
0.0
 40
5.873256277393651
100
AcDbArc
 50
55.84648132324221
 51
90.00000000000003
  0
ARC
  5
405
330
1F
100
AcDbEntity
  8
D-A
  6
Continuous
 62
     2
370
     9
100
AcDbCircle
 10
232.5500075881548
 20
379.6364288135155
 30
0.0
 40
1.250000016109364
100
AcDbArc
 50
0.0
 51
59.99960327148438
  0
ARC
  5
406
330
1F
100
AcDbEntity
  8
D-A
  6
Continuous
 62
     2
370
     9
100
AcDbCircle
 10
249.1491369298988
 20
383.2638347533907
 30
0.0
 40
5.873256277393651
100
AcDbArc
 50
90.0
 51
124.1535186767578
  0
ARC
  5
407
330
1F
100
AcDbEntity
  8
D-0
  6
Continuous
 62
     4
370
     9
100
AcDbCircle
 10
295.7993997109905
 20
432.1371587609923
 30
0.0
 40
2.500000032218727
100
AcDbArc
 50
180.0
 51
270.0
  0
ARC
  5
408
330
1F
100
AcDbEntity
  8
D-0
  6
Continuous
 62
     4
370
     9
100
AcDbCircle
 10
248.3002327583934
 20
432.1371587609923
 30
0.0
 40
2.500000032218727
100
AcDbArc
 50
270.0
 51
0.0
  0
ARC
  5
409
330
1F
100
AcDbEntity
  8
D-0
  6
Continuous
 62
     4
370
     9
100
AcDbCircle
 10
285.4285162848397
 20
434.6370432890748
 30
0.0
 40
7.500000096656181
100
AcDbArc
 50
7.125366210937503
 51
90.00000000000001
  0
ARC
  5
40A
330
1F
100
AcDbEntity
  8
D-0
  6
Continuous
 62
     4
370
     9
100
AcDbCircle
 10
258.6711161845442
 20
434.6370432890748
 30
0.0
 40
7.500000096656181
100
AcDbArc
 50
90.0
 51
172.8746337890625
  0
LINE
  5
40B
330
1F
100
AcDbEntity
  8
D-3
  6
Continuous
 62
     3
370
     9
100
AcDbLine
 10
264.5496677707984
 20
399.137099375435
 30
0.0
 11
141.2175019609572
 21
399.137099375435
 31
0.0
  0
LINE
  5
40C
330
1F
100
AcDbEntity
  8
D-3
  6
Continuous
 62
     3
370
     9
100
AcDbLine
 10
264.5496677707984
 20
407.1370762810514
 30
0.0
 11
141.2175019609572
 21
407.1370762810514
 31
0.0
  0
LINE
  5
40D
330
1F
100
AcDbEntity
  8
D-B
  6
Continuous
 62
     7
370
     9
100
AcDbLine
 10
223.2997791187186
 20
407.1370762810514
 30
0.0
 11
223.2997791187186
 21
449.6370927770394
 31
0.0
  0
LINE
  5
40E
330
1F
100
AcDbEntity
  8
D-B
  6
Continuous
 62
     7
370
     9
100
AcDbLine
 10
203.3000842944998
 20
449.6370927770394
 30
0.0
 11
141.2175019609572
 21
449.6370927770394
 31
0.0
  0
LINE
  5
40F
330
1F
100
AcDbEntity
  8
D-B
  6
Continuous
 62
     7
370
     9
100
AcDbLine
 10
223.2997791187186
 20
419.6371175210217
 30
0.0
 11
141.2175019609572
 21
419.6371175210217
 31
0.0
  0
LINE
  5
410
330
1F
100
AcDbEntity
  8
D-B
  6
Continuous
 62
     7
370
     9
100
AcDbLine
 10
223.2997791187186
 20
427.137142265004
 30
0.0
 11
141.2175019609572
 21
427.137142265004
 31
0.0
  0
LINE
  5
411
330
1F
100
AcDbEntity
  8
D-B
  6
Continuous
 62
     7
370
     9
100
AcDbLine
 10
223.2997791187186
 20
434.6371051490306
 30
0.0
 11
141.2175019609572
 21
434.6371051490306
 31
0.0
  0
LINE
  5
412
330
1F
100
AcDbEntity
  8
D-B
  6
Continuous
 62
     7
370
     9
100
AcDbLine
 10
223.2997791187186
 20
442.1371298930129
 30
0.0
 11
141.2175019609572
 21
442.1371298930129
 31
0.0
  0
LINE
  5
413
330
1F
100
AcDbEntity
  8
D-B
  6
Continuous
 62
     7
370
     9
100
AcDbLine
 10
141.2175019609572
 20
412.1370927770394
 30
0.0
 11
264.5496677707984
 21
412.1370927770394
 31
0.0
  0
TEXT
  5
414
330
1F
100
AcDbEntity
  8
D-0
  6
Continuous
 62
     7
370
     9
100
AcDbText
 10
253.4416685083518
 20
634.5942855557275
 30
0.0
 40
11.43
  1
把手カバー
 50
0.0000429614057315
 41
1.133333333333333
  7
ＭＳ ゴシック
100
AcDbText
  0
TEXT
  5
415
330
1F
100
AcDbEntity
  8
D-0
  6
Continuous
 62
     7
370
     9
100
AcDbText
 10
229.9455402602723
 20
612.7488133745903
 30
0.0
 40
11.43
  1
（ＳＣＳ１３）
 41
1.142857142857143
  7
ＭＳ ゴシック
100
AcDbText
  0
LINE
  5
416
330
1F
100
AcDbEntity
  8
D-0
  6
Continuous
 62
     7
370
     9
100
AcDbLine
 10
234.2737747033673
 20
627.5958132162289
 30
0.0
 11
365.4847016205662
 21
627.5958132162289
 31
0.0
  0
LINE
  5
417
330
1F
100
AcDbEntity
  8
D-4
  6
Continuous
 62
     7
370
     9
100
AcDbLine
 10
365.4847016205662
 20
627.5958132162289
 30
0.0
 11
260.7587493287724
 21
455.8870515370691
 31
0.0
  0
LINE
  5
418
330
1F
100
AcDbEntity
  8
D-4
  6
Continuous
 62
     7
370
     9
100
AcDbLine
 10
260.5497593759957
 20
455.8870515370691
 30
0.0
 11
265.6098810115705
 21
467.317063305794
 31
0.0
  0
LINE
  5
419
330
1F
100
AcDbEntity
  8
D-4
  6
Continuous
 62
     7
370
     9
100
AcDbLine
 10
260.5497593759957
 20
455.8870515370691
 30
0.0
 11
268.3957662794535
 21
465.6179392494464
 31
0.0
  0
LINE
  5
41A
330
1F
100
AcDbEntity
  8
D-B
  6
Continuous
 62
     7
370
     9
100
AcDbLine
 10
212.4607424830071
 20
407.1369525611402
 30
0.0
 11
207.4609734268415
 21
412.1370927770397
 31
0.0
  0
LINE
  5
41B
330
1F
100
AcDbEntity
  8
D-B
  6
Continuous
 62
     7
370
     9
100
AcDbLine
 10
217.7643676413686
 20
407.1369525611402
 30
0.0
 11
212.7641037055576
 21
412.1370927770397
 31
0.0
  0
LINE
  5
41C
330
1F
100
AcDbEntity
  8
D-B
  6
Continuous
 62
     7
370
     9
100
AcDbLine
 10
223.0674979200847
 20
407.1369525611402
 30
0.0
 11
218.0674814240967
 21
412.1370927770397
 31
0.0
  0
LINE
  5
41D
330
1F
100
AcDbEntity
  8
D-B
  6
Continuous
 62
     7
370
     9
100
AcDbLine
 10
201.8542344857519
 20
407.1369525611402
 30
0.0
 11
196.8544654295862
 21
412.1370927770397
 31
0.0
  0
LINE
  5
41E
330
1F
100
AcDbEntity
  8
D-B
  6
Continuous
 62
     7
370
     9
100
AcDbLine
 10
207.1578596441133
 20
407.1369525611402
 30
0.0
 11
202.1575957083024
 21
412.1370927770397
 31
0.0
  0
LINE
  5
41F
330
1F
100
AcDbEntity
  8
D-B
  6
Continuous
 62
     7
370
     9
100
AcDbLine
 10
191.2477264884969
 20
407.1369525611402
 30
0.0
 11
186.2479574323313
 21
412.1370927770397
 31
0.0
  0
LINE
  5
420
330
1F
100
AcDbEntity
  8
D-B
  6
Continuous
 62
     7
370
     9
100
AcDbLine
 10
196.5513516468584
 20
407.1369525611402
 30
0.0
 11
191.5510877110474
 21
412.1370927770397
 31
0.0
  0
LINE
  5
421
330
1F
100
AcDbEntity
  8
D-B
  6
Continuous
 62
     7
370
     9
100
AcDbLine
 10
180.6412184912417
 20
407.1369525611402
 30
0.0
 11
175.6414494350761
 21
412.1370927770397
 31
0.0
  0
LINE
  5
422
330
1F
100
AcDbEntity
  8
D-B
  6
Continuous
 62
     7
370
     9
100
AcDbLine
 10
185.9448436496032
 20
407.1369525611402
 30
0.0
 11
180.9445797137922
 21
412.1370927770397
 31
0.0
  0
LINE
  5
423
330
1F
100
AcDbEntity
  8
D-B
  6
Continuous
 62
     7
370
     9
100
AcDbLine
 10
170.0347104939868
 20
407.1369525611402
 30
0.0
 11
165.0349414378211
 21
412.1370927770397
 31
0.0
  0
LINE
  5
424
330
1F
100
AcDbEntity
  8
D-B
  6
Continuous
 62
     7
370
     9
100
AcDbLine
 10
175.3383356523482
 20
407.1369525611402
 30
0.0
 11
170.3380717165373
 21
412.1370927770397
 31
0.0
  0
LINE
  5
425
330
1F
100
AcDbEntity
  8
D-B
  6
Continuous
 62
     7
370
     9
100
AcDbLine
 10
159.4282024967316
 20
407.1369525611402
 30
0.0
 11
154.4284334405659
 21
412.1370927770397
 31
0.0
  0
LINE
  5
426
330
1F
100
AcDbEntity
  8
D-B
  6
Continuous
 62
     7
370
     9
100
AcDbLine
 10
164.731827655093
 20
407.1369525611402
 30
0.0
 11
159.7315637192821
 21
412.1370927770397
 31
0.0
  0
LINE
  5
427
330
1F
100
AcDbEntity
  8
D-B
  6
Continuous
 62
     7
370
     9
100
AcDbLine
 10
148.8216944994766
 20
407.1369525611402
 30
0.0
 11
143.821925443311
 21
412.1370927770397
 31
0.0
  0
LINE
  5
428
330
1F
100
AcDbEntity
  8
D-B
  6
Continuous
 62
     7
370
     9
100
AcDbLine
 10
154.1253196578381
 20
407.1369525611402
 30
0.0
 11
149.1250557220271
 21
412.1370927770397
 31
0.0
  0
LINE
  5
429
330
1F
100
AcDbEntity
  8
D-B
  6
Continuous
 62
     7
370
     9
100
AcDbLine
 10
143.5188116605829
 20
407.1369525611402
 30
0.0
 11
141.2175019609572
 21
409.4382053202052
 31
0.0
  0
LINE
  5
42A
330
1F
100
AcDbEntity
  8
D-B
  6
Continuous
 62
     7
370
     9
100
AcDbLine
 10
279.5499646985855
 20
412.1370927770397
 30
0.0
 11
377.6869490339951
 21
412.1370927770397
 31
0.0
  0
LINE
  5
42B
330
1F
100
AcDbEntity
  8
D-B
  6
Continuous
 62
     7
370
     9
100
AcDbLine
 10
323.4441808752112
 20
407.1369525611402
 30
0.0
 11
320.7998533506653
 21
409.7814763883331
 31
0.0
  0
LINE
  5
42C
330
1F
100
AcDbEntity
  8
0-0
  6
Continuous
 62
     4
370
     9
100
AcDbLine
 10
-478.3476649103937
 20
3.098992012642583
 30
0.0
 11
-478.3476649103937
 21
111.098952422271
 31
0.0
  0
LINE
  5
42D
330
1F
100
AcDbEntity
  8
0-0
  6
Continuous
 62
     4
370
     9
100
AcDbLine
 10
-425.3475642848659
 20
1.098985414247409
 30
0.0
 11
-476.347608824034
 21
1.098985414247409
 31
0.0
  0
LINE
  5
42E
330
1F
100
AcDbEntity
  8
0-0
  6
Continuous
 62
     4
370
     9
100
AcDbLine
 10
-423.347508198506
 20
111.098952422271
 30
0.0
 11
-423.3475081985061
 21
3.098992012642583
 31
0.0
  0
LINE
  5
42F
330
1F
100
AcDbEntity
  8
0-0
  6
Continuous
 62
     4
370
     9
100
AcDbLine
 10
-425.3475642848659
 20
113.0990085086308
 30
0.0
 11
-476.347608824034
 21
113.0990085086308
 31
0.0
  0
LINE
  5
430
330
1F
100
AcDbEntity
  8
0-0
  6
Continuous
 62
     4
370
     9
100
AcDbLine
 10
-477.7618758742874
 20
1.685368305928137
 30
0.0
 11
-467.7617933943465
 21
11.68540129790443
 31
0.0
  0
LINE
  5
431
330
1F
100
AcDbEntity
  8
0-0
  6
Continuous
 62
     4
370
     9
100
AcDbLine
 10
-423.9330003068253
 20
112.5131699845599
 30
0.0
 11
-433.9330580427839
 21
102.5131369925835
 31
0.0
  0
LINE
  5
432
330
1F
100
AcDbEntity
  8
0-0
  6
Continuous
 62
     4
370
     9
100
AcDbLine
 10
-423.9330003068254
 20
1.685368305928137
 30
0.0
 11
-433.933058042784
 21
11.68540129790443
 31
0.0
  0
LINE
  5
433
330
1F
100
AcDbEntity
  8
0-0
  6
Continuous
 62
     4
370
     9
100
AcDbLine
 10
-435.3472261171083
 20
103.0989755166545
 30
0.0
 11
-466.3472789042704
 21
103.0989755166545
 31
0.0
  0
LINE
  5
434
330
1F
100
AcDbEntity
  8
0-0
  6
Continuous
 62
     4
370
     9
100
AcDbLine
 10
-433.3472442626953
 20
13.09901263262788
 30
0.0
 11
-433.3472442626953
 21
101.0988204543656
 31
0.0
  0
LINE
  5
435
330
1F
100
AcDbEntity
  8
0-0
  6
Continuous
 62
     4
370
     9
100
AcDbLine
 10
-468.3474339665593
 20
13.09901263262788
 30
0.0
 11
-468.3474339665593
 21
101.0988204543656
 31
0.0
  0
LINE
  5
436
330
1F
100
AcDbEntity
  8
0-0
  6
Continuous
 62
     4
370
     9
100
AcDbLine
 10
-466.3472789042704
 20
11.09893180228582
 30
0.0
 11
-435.3472261171083
 21
11.09893180228582
 31
0.0
  0
LINE
  5
437
330
1F
100
AcDbEntity
  8
0-2
  6
Continuous
 62
     3
370
     9
100
AcDbLine
 10
-446.5475649447054
 20
24.44896594898125
 30
0.0
 11
-455.1474102123364
 21
24.44896594898125
 31
0.0
  0
LINE
  5
438
330
1F
100
AcDbEntity
  8
0-2
  6
Continuous
 62
     3
370
     9
100
AcDbLine
 10
-444.8475791312553
 20
26.14896413442267
 30
0.0
 11
-444.8475791312552
 21
88.04898030049105
 31
0.0
  0
LINE
  5
439
330
1F
100
AcDbEntity
  8
0-0
  6
Continuous
 62
     4
370
     9
100
AcDbLine
 10
-446.3475840800517
 20
23.94896429938242
 30
0.0
 11
-455.3475642848659
 21
23.94896429938242
 31
0.0
  0
LINE
  5
43A
330
1F
100
AcDbEntity
  8
0-0
  6
Continuous
 62
     4
370
     9
100
AcDbLine
 10
-457.3475708832611
 20
88.24898590912699
 30
0.0
 11
-457.3475708832612
 21
25.94895852578659
 31
0.0
  0
LINE
  5
43B
330
1F
100
AcDbEntity
  8
0-0
  6
Continuous
 62
     4
370
     9
100
AcDbLine
 10
-446.3475840800517
 20
90.24898013553116
 30
0.0
 11
-455.3475642848659
 21
90.24898013553116
 31
0.0
  0
LINE
  5
43C
330
1F
100
AcDbEntity
  8
0-0
  6
Continuous
 62
     4
370
     9
100
AcDbLine
 10
-444.3475774816563
 20
88.24898590912699
 30
0.0
 11
-444.3475774816565
 21
25.94895852578659
 31
0.0
  0
LINE
  5
43D
330
1F
100
AcDbEntity
  8
0-2
  6
Continuous
 62
     3
370
     9
100
AcDbLine
 10
-456.8475692336623
 20
88.04884420858858
 30
0.0
 11
-456.8475692336624
 21
26.14932292216537
 31
0.0
  0
LINE
  5
43E
330
1F
100
AcDbEntity
  8
0-2
  6
Continuous
 62
     3
370
     9
100
AcDbLine
 10
-455.1475586762299
 20
89.74884239402994
 30
0.0
 11
-446.5241571374841
 21
89.74884239402994
 31
0.0
  0
LINE
  5
43F
330
1F
100
AcDbEntity
  8
0-0
  6
Continuous
 62
     4
370
     9
100
AcDbLine
 10
-477.7618758742873
 20
112.5131699845599
 30
0.0
 11
-467.7617933943465
 21
102.5131369925835
 31
0.0
  0
ARC
  5
440
330
1F
100
AcDbEntity
  8
0-0
  6
Continuous
 62
     4
370
     9
100
AcDbCircle
 10
-466.3472789042704
 20
101.0988204543656
 30
0.0
 40
1.99999983246262
100
AcDbArc
 50
90.0
 51
180.0
  0
ARC
  5
441
330
1F
100
AcDbEntity
  8
0-0
  6
Continuous
 62
     4
370
     9
100
AcDbCircle
 10
-435.3472261171083
 20
101.0988204543656
 30
0.0
 40
1.99999983246262
100
AcDbArc
 50
0.0
 51
90.0
  0
ARC
  5
442
330
1F
100
AcDbEntity
  8
0-0
  6
Continuous
 62
     4
370
     9
100
AcDbCircle
 10
-435.3472261171083
 20
13.09901263262788
 30
0.0
 40
1.99999983246262
100
AcDbArc
 50
270.0
 51
0.0
  0
ARC
  5
443
330
1F
100
AcDbEntity
  8
0-0
  6
Continuous
 62
     4
370
     9
100
AcDbCircle
 10
-466.3472789042704
 20
13.09901263262788
 30
0.0
 40
1.99999983246262
100
AcDbArc
 50
180.0
 51
270.0
  0
ARC
  5
444
330
1F
100
AcDbEntity
  8
0-0
  6
Continuous
 62
     4
370
     9
100
AcDbCircle
 10
-476.347608824034
 20
111.098952422271
 30
0.0
 40
2.000000025774982
100
AcDbArc
 50
90.0
 51
180.0
  0
ARC
  5
445
330
1F
100
AcDbEntity
  8
0-0
  6
Continuous
 62
     4
370
     9
100
AcDbCircle
 10
-476.347608824034
 20
3.098942524678137
 30
0.0
 40
2.000000025774982
100
AcDbArc
 50
180.0
 51
270.0
  0
ARC
  5
446
330
1F
100
AcDbEntity
  8
0-0
  6
Continuous
 62
     4
370
     9
100
AcDbCircle
 10
-425.3475890288482
 20
3.098942524678137
 30
0.0
 40
2.000000025774982
100
AcDbArc
 50
270.0
 51
0.0
  0
ARC
  5
447
330
1F
100
AcDbEntity
  8
0-0
  6
Continuous
 62
     4
370
     9
100
AcDbCircle
 10
-425.3475890288481
 20
111.098952422271
 30
0.0
 40
2.000000025774982
100
AcDbArc
 50
0.0
 51
90.0
  0
ARC
  5
448
330
1F
100
AcDbEntity
  8
0-2
  6
Continuous
 62
     3
370
     9
100
AcDbCircle
 10
-455.1474102123364
 20
26.14932292216537
 30
0.0
 40
1.700000891814361
100
AcDbArc
 50
180.0
 51
270.0
  0
ARC
  5
449
330
1F
100
AcDbEntity
  8
0-2
  6
Continuous
 62
     3
370
     9
100
AcDbCircle
 10
-446.5477381525812
 20
88.04898030049105
 30
0.0
 40
1.700000891814361
100
AcDbArc
 50
0.0
 51
89.20521545410156
  0
ARC
  5
44A
330
1F
100
AcDbEntity
  8
0-2
  6
Continuous
 62
     3
370
     9
100
AcDbCircle
 10
-446.5475649447054
 20
26.14896413442267
 30
0.0
 40
1.700000118564915
100
AcDbArc
 50
270.0
 51
0.0
  0
ARC
  5
44B
330
1F
100
AcDbEntity
  8
0-0
  6
Continuous
 62
     4
370
     9
100
AcDbCircle
 10
-450.8475741824588
 20
57.09897221745678
 30
0.0
 40
12.50000025774982
100
AcDbArc
 50
301.3322448730469
 51
58.66775512695313
  0
ARC
  5
44C
330
1F
100
AcDbEntity
  8
0-0
  6
Continuous
 62
     4
370
     9
100
AcDbCircle
 10
-450.8475741824588
 20
57.09897221745678
 30
0.0
 40
12.50000025774982
100
AcDbArc
 50
121.3322448730469
 51
238.6677551269532
  0
ARC
  5
44D
330
1F
100
AcDbEntity
  8
0-0
  6
Continuous
 62
     4
370
     9
100
AcDbCircle
 10
-455.3475642848659
 20
25.94895852578659
 30
0.0
 40
2.000000025774982
100
AcDbArc
 50
180.0
 51
270.0
  0
ARC
  5
44E
330
1F
100
AcDbEntity
  8
0-0
  6
Continuous
 62
     4
370
     9
100
AcDbCircle
 10
-446.3475840800517
 20
25.94895852578659
 30
0.0
 40
2.000000025774982
100
AcDbArc
 50
270.0
 51
0.0
  0
ARC
  5
44F
330
1F
100
AcDbEntity
  8
0-0
  6
Continuous
 62
     4
370
     9
100
AcDbCircle
 10
-455.3475642848659
 20
88.24898590912699
 30
0.0
 40
2.000000025774982
100
AcDbArc
 50
90.0
 51
180.0
  0
ARC
  5
450
330
1F
100
AcDbEntity
  8
0-0
  6
Continuous
 62
     4
370
     9
100
AcDbCircle
 10
-446.3475840800517
 20
88.24898590912699
 30
0.0
 40
2.000000025774982
100
AcDbArc
 50
0.0
 51
90.0
  0
ARC
  5
451
330
1F
100
AcDbEntity
  8
0-2
  6
Continuous
 62
     3
370
     9
100
AcDbCircle
 10
-455.1475586762299
 20
88.04884420858858
 30
0.0
 40
1.700000118564915
100
AcDbArc
 50
90.0
 51
180.0
  0
LINE
  5
452
330
1F
100
AcDbEntity
  8
D-3
  6
Continuous
 62
     3
370
     9
100
AcDbLine
 10
217.6677671325912
 20
-392.0874393638196
 30
0.0
 11
373.4433442227242
 21
-392.0874393638196
 31
0.0
  0
LINE
  5
453
330
1F
100
AcDbEntity
  8
D-3
  6
Continuous
 62
     3
370
     9
100
AcDbLine
 10
217.6677671325912
 20
-384.0874315282252
 30
0.0
 11
382.9333362076346
 21
-384.0874315282252
 31
0.0
  0
LINE
  5
454
330
1F
100
AcDbEntity
  8
D-3
  6
Continuous
 62
     3
370
     9
100
AcDbLine
 10
434.9426482825533
 20
-384.0874315282252
 30
0.0
 11
600.2084957273968
 21
-384.0874315282252
 31
0.0
  0
LINE
  5
455
330
1F
100
AcDbEntity
  8
D-3
  6
Continuous
 62
     3
370
     9
100
AcDbLine
 10
444.4326711974413
 20
-392.0874393638196
 30
0.0
 11
600.2084957273968
 21
-392.0874393638196
 31
0.0
  0
LINE
  5
456
330
1F
100
AcDbEntity
  8
D-F
  6
Continuous
 62
     7
370
     9
100
AcDbLine
 10
190.0313445167684
 20
-441.1846649631235
 30
0.0
 11
299.5946064489215
 21
-441.1846649631235
 31
0.0
  0
TEXT
  5
457
330
1F
100
AcDbEntity
  8
D-F
  6
Continuous
 62
     7
370
     9
100
AcDbText
 10
211.0629754828449
 20
-435.2183878437189
 30
0.0
 40
11.43
  1
把手本体
 41
1.125
  7
ＭＳ ゴシック
100
AcDbText
  0
TEXT
  5
458
330
1F
100
AcDbEntity
  8
D-F
  6
Continuous
 62
     7
370
     9
100
AcDbText
 10
193.5629754828449
 20
-459.6433353108263
 30
0.0
 40
11.43
  1
強化ナイロン
 41
1.138888888888889
  7
ＭＳ ゴシック
100
AcDbText
  0
LINE
  5
459
330
1F
100
AcDbEntity
  8
D-D
  6
Continuous
 62
     7
370
     9
100
AcDbLine
 10
218.9613125293954
 20
-379.0874768921912
 30
0.0
 11
223.961267165428
 21
-384.0874315282238
 31
0.0
  0
LINE
  5
45A
330
1F
100
AcDbEntity
  8
D-D
  6
Continuous
 62
     7
370
     9
100
AcDbLine
 10
224.2646133882973
 20
-379.0874768921885
 30
0.0
 11
229.2645680243297
 21
-384.087431528221
 31
0.0
  0
LINE
  5
45B
330
1F
100
AcDbEntity
  8
D-D
  6
Continuous
 62
     7
370
     9
100
AcDbLine
 10
229.567914247195
 20
-379.0874768921908
 30
0.0
 11
234.5678688832277
 21
-384.0874315282235
 31
0.0
  0
LINE
  5
45C
330
1F
100
AcDbEntity
  8
D-D
  6
Continuous
 62
     7
370
     9
100
AcDbLine
 10
234.8712151060919
 20
-379.0874768921922
 30
0.0
 11
239.8711697421244
 21
-384.0874315282247
 31
0.0
  0
LINE
  5
45D
330
1F
100
AcDbEntity
  8
D-D
  6
Continuous
 62
     7
370
     9
100
AcDbLine
 10
240.1745159649937
 20
-379.0874768921895
 30
0.0
 11
245.1744706010263
 21
-384.0874315282221
 31
0.0
  0
LINE
  5
45E
330
1F
100
AcDbEntity
  8
D-D
  6
Continuous
 62
     7
370
     9
100
AcDbLine
 10
245.4778168238921
 20
-379.0874768921924
 30
0.0
 11
250.4777714599248
 21
-384.0874315282251
 31
0.0
  0
LINE
  5
45F
330
1F
100
AcDbEntity
  8
D-D
  6
Continuous
 62
     7
370
     9
100
AcDbLine
 10
250.781117682794
 20
-379.0874768921898
 30
0.0
 11
255.7810723188268
 21
-384.0874315282225
 31
0.0
  0
LINE
  5
460
330
1F
100
AcDbEntity
  8
D-D
  6
Continuous
 62
     7
370
     9
100
AcDbLine
 10
256.0844185416902
 20
-379.0874768921905
 30
0.0
 11
261.0843731777226
 21
-384.087431528223
 31
0.0
  0
LINE
  5
461
330
1F
100
AcDbEntity
  8
D-D
  6
Continuous
 62
     7
370
     9
100
AcDbLine
 10
261.387719400589
 20
-379.0874768921939
 30
0.0
 11
266.3876740366218
 21
-384.0874315282267
 31
0.0
  0
LINE
  5
462
330
1F
100
AcDbEntity
  8
D-D
  6
Continuous
 62
     7
370
     9
100
AcDbLine
 10
266.6910202594912
 20
-379.0874768921915
 30
0.0
 11
271.6909748955238
 21
-384.0874315282241
 31
0.0
  0
LINE
  5
463
330
1F
100
AcDbEntity
  8
D-D
  6
Continuous
 62
     7
370
     9
100
AcDbLine
 10
271.9943211183866
 20
-379.0874768921915
 30
0.0
 11
276.9942757544191
 21
-384.087431528224
 31
0.0
  0
LINE
  5
464
330
1F
100
AcDbEntity
  8
D-D
  6
Continuous
 62
     7
370
     9
100
AcDbLine
 10
277.2976219772884
 20
-379.0874768921887
 30
0.0
 11
282.2975766133209
 21
-384.0874315282213
 31
0.0
  0
LINE
  5
465
330
1F
100
AcDbEntity
  8
D-D
  6
Continuous
 62
     7
370
     9
100
AcDbLine
 10
282.6009228361881
 20
-379.087476892193
 30
0.0
 11
287.6008774722209
 21
-384.0874315282257
 31
0.0
  0
LINE
  5
466
330
1F
100
AcDbEntity
  8
D-D
  6
Continuous
 62
     7
370
     9
100
AcDbLine
 10
287.904223695083
 20
-379.0874768921925
 30
0.0
 11
288.938106686012
 21
-380.1213598831214
 31
0.0
  0
LINE
  5
467
330
1F
100
AcDbEntity
  8
D-D
  6
Continuous
 62
     7
370
     9
100
AcDbLine
 10
528.9381561739774
 20
-381.4728707206277
 30
0.0
 11
531.5527169815739
 21
-384.0874315282241
 31
0.0
  0
LINE
  5
468
330
1F
100
AcDbEntity
  8
D-D
  6
Continuous
 62
     7
370
     9
100
AcDbLine
 10
531.8560632044458
 20
-379.0874768921915
 30
0.0
 11
536.8560178404783
 21
-384.087431528224
 31
0.0
  0
LINE
  5
469
330
1F
100
AcDbEntity
  8
D-D
  6
Continuous
 62
     7
370
     9
100
AcDbLine
 10
537.159364063343
 20
-379.0874768921933
 30
0.0
 11
542.1593186993756
 21
-384.0874315282258
 31
0.0
  0
LINE
  5
46A
330
1F
100
AcDbEntity
  8
D-D
  6
Continuous
 62
     7
370
     9
100
AcDbLine
 10
542.462664922245
 20
-379.0874768921908
 30
0.0
 11
547.4626195582774
 21
-384.0874315282231
 31
0.0
  0
LINE
  5
46B
330
1F
100
AcDbEntity
  8
D-D
  6
Continuous
 62
     7
370
     9
100
AcDbLine
 10
547.7659657811422
 20
-379.0874768921925
 30
0.0
 11
552.7659204171747
 21
-384.087431528225
 31
0.0
  0
LINE
  5
46C
330
1F
100
AcDbEntity
  8
D-D
  6
Continuous
 62
     7
370
     9
100
AcDbLine
 10
553.0692666400369
 20
-379.0874768921917
 30
0.0
 11
558.0692212760694
 21
-384.0874315282242
 31
0.0
  0
LINE
  5
46D
330
1F
100
AcDbEntity
  8
D-D
  6
Continuous
 62
     7
370
     9
100
AcDbLine
 10
558.3725674989413
 20
-379.0874768921915
 30
0.0
 11
563.3725221349738
 21
-384.087431528224
 31
0.0
  0
LINE
  5
46E
330
1F
100
AcDbEntity
  8
D-D
  6
Continuous
 62
     7
370
     9
100
AcDbLine
 10
563.6758683578386
 20
-379.0874768921934
 30
0.0
 11
568.6758229938711
 21
-384.0874315282259
 31
0.0
  0
LINE
  5
46F
330
1F
100
AcDbEntity
  8
D-D
  6
Continuous
 62
     7
370
     9
100
AcDbLine
 10
568.9791692167405
 20
-379.0874768921907
 30
0.0
 11
573.979123852773
 21
-384.0874315282232
 31
0.0
  0
LINE
  5
470
330
1F
100
AcDbEntity
  8
D-D
  6
Continuous
 62
     7
370
     9
100
AcDbLine
 10
574.2824700756378
 20
-379.0874768921926
 30
0.0
 11
579.2824247116702
 21
-384.087431528225
 31
0.0
  0
LINE
  5
471
330
1F
100
AcDbEntity
  8
D-D
  6
Continuous
 62
     7
370
     9
100
AcDbLine
 10
579.5857709345323
 20
-379.0874768921917
 30
0.0
 11
584.5857255705648
 21
-384.0874315282242
 31
0.0
  0
LINE
  5
472
330
1F
100
AcDbEntity
  8
D-D
  6
Continuous
 62
     7
370
     9
100
AcDbLine
 10
584.8890717934369
 20
-379.0874768921917
 30
0.0
 11
589.8890264294694
 21
-384.0874315282241
 31
0.0
  0
LINE
  5
473
330
1F
100
AcDbEntity
  8
D-D
  6
Continuous
 62
     7
370
     9
100
AcDbLine
 10
590.1923726523343
 20
-379.0874768921935
 30
0.0
 11
595.1923272883665
 21
-384.0874315282259
 31
0.0
  0
LINE
  5
474
330
1F
100
AcDbEntity
  8
D-D
  6
Continuous
 62
     7
370
     9
100
AcDbLine
 10
595.4956735112361
 20
-379.0874768921908
 30
0.0
 11
600.2084957273986
 21
-383.8002991083534
 31
0.0
  0
LINE
  5
475
330
1F
100
AcDbEntity
  8
D-4
  6
Continuous
 62
     7
370
     9
100
AcDbLine
 10
249.164454010823
 20
292.1142675594517
 30
0.0
 11
272.0498162346919
 21
329.6371917529686
 31
0.0
  0
LINE
  5
476
330
1F
100
AcDbEntity
  8
D-0
  6
Continuous
 62
     7
370
     9
100
AcDbLine
 10
121.2411150340196
 20
292.1142675594517
 30
0.0
 11
249.164454010823
 21
292.1142675594517
 31
0.0
  0
TEXT
  5
477
330
1F
100
AcDbEntity
  8
D-0
  6
Continuous
 62
     7
370
     9
100
AcDbText
 10
151.4527845224213
 20
297.5024015332693
 30
0.0
 40
11.43
  1
把手本体
 41
1.125
  7
ＭＳ ゴシック
100
AcDbText
  0
TEXT
  5
478
330
1F
100
AcDbEntity
  8
D-0
  6
Continuous
 62
     7
370
     9
100
AcDbText
 10
116.4527845224213
 20
274.8920928603386
 30
0.0
 40
11.43
  1
（強化ナイロン）
 41
1.145833333333333
  7
ＭＳ ゴシック
100
AcDbText
  0
LINE
  5
479
330
1F
100
AcDbEntity
  8
D-4
  6
Continuous
 62
     7
370
     9
100
AcDbLine
 10
272.0498162346919
 20
329.6371917529686
 30
0.0
 11
266.9896718618034
 21
318.2072040259839
 31
0.0
  0
LINE
  5
47A
330
1F
100
AcDbEntity
  8
D-4
  6
Continuous
 62
     7
370
     9
100
AcDbLine
 10
272.0498162346919
 20
329.6371917529686
 30
0.0
 11
264.2037468987544
 21
319.9063732880193
 31
0.0
  0
LINE
  5
47B
330
1F
100
AcDbEntity
  8
D-4
  6
Continuous
 62
     7
370
     9
100
AcDbLine
 10
386.2332856883614
 20
237.0380491611531
 30
0.0
 11
470.1267551731419
 21
374.5902029306504
 31
0.0
  0
LINE
  5
47C
330
1F
100
AcDbEntity
  8
D-4
  6
Continuous
 62
     7
370
     9
100
AcDbLine
 10
196.8525601246185
 20
237.0380491611531
 30
0.0
 11
386.2332856883614
 21
237.0380491611531
 31
0.0
  0
TEXT
  5
47D
330
1F
100
AcDbEntity
  8
D-4
  6
Continuous
 62
     7
370
     9
100
AcDbText
 10
249.120155594178
 20
243.0855518911486
 30
0.0
 40
11.43
  1
クッション
 41
1.133333333333333
  7
ＭＳ ゴシック
100
AcDbText
  0
TEXT
  5
47E
330
1F
100
AcDbEntity
  8
D-4
  6
Continuous
 62
     7
370
     9
100
AcDbText
 10
196.7127350127228
 20
219.3758044776101
 30
0.0
 40
11.43
  1
（軟質ポリ塩化ビニル）
 41
1.151515151515152
  7
ＭＳ ゴシック
100
AcDbText
  0
TEXT
  5
47F
330
1F
100
AcDbEntity
  8
D-4
  6
Continuous
 62
     7
370
     9
100
AcDbText
 10
526.446809510927
 20
634.7720092083637
 30
0.0
 40
11.43
  1
底板　ｔ＝３．２
 41
1.145833333333333
  7
ＭＳ ゴシック
100
AcDbText
  0
TEXT
  5
480
330
1F
100
AcDbEntity
  8
D-4
  6
Continuous
 62
     7
370
     9
100
AcDbText
 10
526.446809510927
 20
613.4488567923771
 30
0.0
 40
11.43
  1
溶融亜鉛めっき鋼板
 41
1.148148148148148
  7
ＭＳ ゴシック
100
AcDbText
  0
LINE
  5
481
330
1F
100
AcDbEntity
  8
D-4
  6
Continuous
 62
     7
370
     9
100
AcDbLine
 10
685.2920854543157
 20
629.6748644659649
 30
0.0
 11
517.6854314030828
 21
629.6748644659649
 31
0.0
  0
TEXT
  5
482
330
1F
100
AcDbEntity
  8
F-0
  6
Continuous
 62
     7
370
     9
100
AcDbText
 10
-404.4873966662149
 20
-683.4988704431496
 30
0.0
 40
11.43
  1
アルミニウム＋スチール製　アルミニウム目地　ＭＯＦＥ－３００－１５－Ｍ
  7
ＭＳ ゴシック
100
AcDbText
  0
TEXT
  5
483
330
1F
100
AcDbEntity
  8
F-0
  6
Continuous
 62
     7
370
     9
100
AcDbText
 10
-405.1895243257894
 20
-663.8392959750645
 30
0.0
 40
11.43
  1
フロアーハッチ　フローリング床材用（フローリング厚15mm）　屋内用　一般形
  7
ＭＳ ゴシック
100
AcDbText
  0
ENDSEC
  0
SECTION
  2
OBJECTS
  0
DICTIONARY
  5
C
330
0
100
AcDbDictionary
281
     1
  3
ACAD_GROUP
350
D
  3
ACAD_LAYOUT
350
1A
  3
ACAD_MLEADERSTYLE
350
485
  3
ACAD_MLINESTYLE
350
17
  3
ACAD_PLOTSETTINGS
350
19
  3
ACAD_PLOTSTYLENAME
350
E
  3
ACAD_TABLESTYLE
350
484
  3
ACAD_VISUALSTYLE
350
2A
  0
DICTIONARY
  5
D
102
{ACAD_REACTORS
330
C
102
}
330
C
100
AcDbDictionary
281
     1
  0
DICTIONARY
  5
1A
102
{ACAD_REACTORS
330
C
102
}
330
C
100
AcDbDictionary
281
     1
  3
Layout1
350
1E
  3
Layout2
350
26
  3
Model
350
22
  0
DICTIONARY
  5
485
102
{ACAD_REACTORS
330
C
102
}
330
C
100
AcDbDictionary
281
     1
  0
DICTIONARY
  5
17
102
{ACAD_REACTORS
330
C
102
}
330
C
100
AcDbDictionary
281
     1
  3
Standard
350
18
  0
DICTIONARY
  5
19
102
{ACAD_REACTORS
330
C
102
}
330
C
100
AcDbDictionary
281
     1
  0
ACDBDICTIONARYWDFLT
  5
E
102
{ACAD_REACTORS
330
C
102
}
330
C
100
AcDbDictionary
281
     1
  3
Normal
350
F
100
AcDbDictionaryWithDefault
340
F
  0
DICTIONARY
  5
484
102
{ACAD_REACTORS
330
C
102
}
330
C
100
AcDbDictionary
281
     1
  0
DICTIONARY
  5
2A
102
{ACAD_REACTORS
330
C
102
}
330
C
100
AcDbDictionary
281
     1
  3
2dWireframe
350
2F
  3
3D Hidden
350
31
  3
3dWireframe
350
30
  3
Basic
350
32
  3
Brighten
350
36
  3
ColorChange
350
3A
  3
Conceptual
350
34
  3
Dim
350
35
  3
Facepattern
350
39
  3
Flat
350
2B
  3
FlatWithEdges
350
2C
  3
Gouraud
350
2D
  3
GouraudWithEdges
350
2E
  3
Linepattern
350
38
  3
Realistic
350
33
  3
Thicken
350
37
  0
LAYOUT
  5
1E
102
{ACAD_REACTORS
330
1A
102
}
330
1A
100
AcDbPlotSettings
  1

  2
none_device
  4

  6

 40
0.0
 41
0.0
 42
0.0
 43
0.0
 44
0.0
 45
0.0
 46
0.0
 47
0.0
 48
0.0
 49
0.0
140
0.0
141
0.0
142
1.0
143
1.0
 70
   688
 72
     0
 73
     0
 74
     5
  7

 75
    16
 76
     0
 77
     5
 78
   300
147
1.0
148
0.0
149
0.0
100
AcDbLayout
  1
Layout1
 70
     1
 71
     1
 10
0.0
 20
0.0
 11
420.0
 21
297.0
 12
0.0
 22
0.0
 32
0.0
 14
1.000000000000000E+20
 24
1.000000000000000E+20
 34
1.000000000000000E+20
 15
-1.000000000000000E+20
 25
-1.000000000000000E+20
 35
-1.000000000000000E+20
146
0.0
 13
0.0
 23
0.0
 33
0.0
 16
1.0
 26
0.0
 36
0.0
 17
0.0
 27
1.0
 37
0.0
 76
     0
330
1B
  0
LAYOUT
  5
26
102
{ACAD_REACTORS
330
1A
102
}
330
1A
100
AcDbPlotSettings
  1

  2
none_device
  4

  6

 40
0.0
 41
0.0
 42
0.0
 43
0.0
 44
0.0
 45
0.0
 46
0.0
 47
0.0
 48
0.0
 49
0.0
140
0.0
141
0.0
142
1.0
143
1.0
 70
   688
 72
     0
 73
     0
 74
     5
  7

 75
    16
 76
     0
 77
     5
 78
   300
147
1.0
148
0.0
149
0.0
100
AcDbLayout
  1
Layout2
 70
     1
 71
     2
 10
0.0
 20
0.0
 11
0.0
 21
0.0
 12
0.0
 22
0.0
 32
0.0
 14
0.0
 24
0.0
 34
0.0
 15
0.0
 25
0.0
 35
0.0
146
0.0
 13
0.0
 23
0.0
 33
0.0
 16
1.0
 26
0.0
 36
0.0
 17
0.0
 27
1.0
 37
0.0
 76
     0
330
23
  0
LAYOUT
  5
22
102
{ACAD_REACTORS
330
1A
102
}
330
1A
100
AcDbPlotSettings
  1

  2
none_device
  4

  6

 40
0.0
 41
0.0
 42
0.0
 43
0.0
 44
0.0
 45
0.0
 46
0.0
 47
0.0
 48
0.0
 49
0.0
140
0.0
141
0.0
142
1.0
143
1.0
 70
  1712
 72
     0
 73
     0
 74
     0
  7

 75
     0
 76
     0
 77
     5
 78
   300
147
1.0
148
0.0
149
0.0
100
AcDbLayout
  1
Model
 70
     1
 71
     0
 10
-1050.0
 20
-742.5
 11
1050.0
 21
742.5
 12
0.0
 22
0.0
 32
0.0
 14
-1050.0
 24
-742.5
 34
0.0
 15
1050.0
 25
742.5
 35
0.0
146
0.0
 13
0.0
 23
0.0
 33
0.0
 16
1.0
 26
0.0
 36
0.0
 17
0.0
 27
1.0
 37
0.0
 76
     0
330
1F
331
29
  0
MLINESTYLE
  5
18
102
{ACAD_REACTORS
330
17
102
}
330
17
100
AcDbMlineStyle
  2
Standard
 70
     0
  3

 62
   256
 51
90.0
 52
90.0
 71
     2
 49
0.5
 62
   256
  6
BYLAYER
 49
-0.5
 62
   256
  6
BYLAYER
  0
ACDBPLACEHOLDER
  5
F
102
{ACAD_REACTORS
330
E
102
}
330
E
  0
VISUALSTYLE
  5
2F
102
{ACAD_REACTORS
330
2A
102
}
330
2A
100
AcDbVisualStyle
  2
2dWireframe
 70
     4
 71
     0
 72
     2
 73
     0
 90
        0
 40
-0.6
 41
-30.0
 62
     5
 63
     7
421
 16777215
 74
     1
 91
        4
 64
     7
 65
   257
 75
     1
175
     1
 42
1.0
 92
        0
 66
   257
 43
1.0
 76
     1
 77
     6
 78
     2
 67
     7
 79
     5
170
     0
171
     0
290
     0
174
     0
 93
        1
 44
0.0
173
     0
291
     0
 45
0.0
1001
ACAD
1000
AcDbSavedByObjectVersion
1070
     0
  0
VISUALSTYLE
  5
31
102
{ACAD_REACTORS
330
2A
102
}
330
2A
100
AcDbVisualStyle
  2
3D Hidden
 70
     6
 71
     1
 72
     2
 73
     2
 90
        0
 40
-0.6
 41
-30.0
 62
     5
 63
     7
421
 16777215
 74
     2
 91
        2
 64
     7
 65
   257
 75
     2
175
     1
 42
40.0
 92
        0
 66
   257
 43
1.0
 76
     1
 77
     6
 78
     2
 67
     7
 79
     3
170
     0
171
     0
290
     0
174
     0
 93
        1
 44
0.0
173
     0
291
     0
 45
0.0
1001
ACAD
1000
AcDbSavedByObjectVersion
1070
     0
  0
VISUALSTYLE
  5
30
102
{ACAD_REACTORS
330
2A
102
}
330
2A
100
AcDbVisualStyle
  2
3dWireframe
 70
     5
 71
     0
 72
     2
 73
     0
 90
        0
 40
-0.6
 41
-30.0
 62
     5
 63
     7
421
 16777215
 74
     1
 91
        4
 64
     7
 65
   257
 75
     1
175
     1
 42
1.0
 92
        0
 66
   257
 43
1.0
 76
     1
 77
     6
 78
     2
 67
     7
 79
     5
170
     0
171
     0
290
     0
174
     0
 93
        1
 44
0.0
173
     0
291
     0
 45
0.0
1001
ACAD
1000
AcDbSavedByObjectVersion
1070
     0
  0
VISUALSTYLE
  5
32
102
{ACAD_REACTORS
330
2A
102
}
330
2A
100
AcDbVisualStyle
  2
Basic
 70
     7
 71
     1
 72
     0
 73
     1
 90
        0
 40
-0.6
 41
-30.0
 62
     5
 63
     7
421
 16777215
 74
     0
 91
        4
 64
     7
 65
   257
 75
     1
175
     1
 42
1.0
 92
        8
 66
     7
 43
1.0
 76
     1
 77
     6
 78
     2
 67
     7
 79
     5
170
     0
171
     0
290
     0
174
     0
 93
        1
 44
0.0
173
     0
291
     1
 45
0.0
1001
ACAD
1000
AcDbSavedByObjectVersion
1070
     0
  0
VISUALSTYLE
  5
36
102
{ACAD_REACTORS
330
2A
102
}
330
2A
100
AcDbVisualStyle
  2
Brighten
 70
    12
 71
     2
 72
     2
 73
     0
 90
        0
 40
-0.6
 41
-30.0
 62
     5
 63
     7
421
 16777215
 74
     1
 91
        4
 64
     7
 65
   257
 75
     1
175
     1
 42
1.0
 92
        8
 66
     7
 43
1.0
 76
     1
 77
     6
 78
     2
 67
     7
 79
     5
170
     0
171
     0
290
     0
174
     0
 93
        1
 44
50.0
173
     0
291
     1
 45
0.0
1001
ACAD
1000
AcDbSavedByObjectVersion
1070
     0
  0
VISUALSTYLE
  5
3A
102
{ACAD_REACTORS
330
2A
102
}
330
2A
100
AcDbVisualStyle
  2
ColorChange
 70
    16
 71
     2
 72
     2
 73
     3
 90
        0
 40
-0.6
 41
-30.0
 62
     5
 63
     8
421
  8421504
 74
     1
 91
        4
 64
     7
 65
   257
 75
     1
175
     1
 42
1.0
 92
        8
 66
     8
424
  8421504
 43
1.0
 76
     1
 77
     6
 78
     2
 67
     7
 79
     5
170
     0
171
     0
290
     0
174
     0
 93
        1
 44
0.0
173
     0
291
     1
 45
0.0
1001
ACAD
1000
AcDbSavedByObjectVersion
1070
     0
  0
VISUALSTYLE
  5
34
102
{ACAD_REACTORS
330
2A
102
}
330
2A
100
AcDbVisualStyle
  2
Conceptual
 70
     9
 71
     3
 72
     2
 73
     0
 90
        0
 40
-0.6
 41
-30.0
 62
     5
 63
     7
421
 16777215
 74
     2
 91
        2
 64
     7
 65
   257
 75
     1
175
     1
 42
40.0
 92
        8
 66
     7
 43
1.0
 76
     1
 77
     6
 78
     2
 67
     7
 79
     3
170
     0
171
     0
290
     0
174
     0
 93
        1
 44
0.0
173
     0
291
     0
 45
0.0
1001
ACAD
1000
AcDbSavedByObjectVersion
1070
     0
  0
VISUALSTYLE
  5
35
102
{ACAD_REACTORS
330
2A
102
}
330
2A
100
AcDbVisualStyle
  2
Dim
 70
    11
 71
     2
 72
     2
 73
     0
 90
        0
 40
-0.6
 41
-30.0
 62
     5
 63
     7
421
 16777215
 74
     1
 91
        4
 64
     7
 65
   257
 75
     1
175
     1
 42
1.0
 92
        8
 66
     7
 43
1.0
 76
     1
 77
     6
 78
     2
 67
     7
 79
     5
170
     0
171
     0
290
     0
174
     0
 93
        1
 44
-50.0
173
     0
291
     1
 45
0.0
1001
ACAD
1000
AcDbSavedByObjectVersion
1070
     0
  0
VISUALSTYLE
  5
39
102
{ACAD_REACTORS
330
2A
102
}
330
2A
100
AcDbVisualStyle
  2
Facepattern
 70
    15
 71
     2
 72
     2
 73
     0
 90
        0
 40
-0.6
 41
-30.0
 62
     5
 63
     7
421
 16777215
 74
     1
 91
        4
 64
     7
 65
   257
 75
     1
175
     1
 42
1.0
 92
        8
 66
     7
 43
1.0
 76
     1
 77
     6
 78
     2
 67
     7
 79
     5
170
     0
171
     0
290
     0
174
     0
 93
        1
 44
0.0
173
     0
291
     1
 45
0.0
1001
ACAD
1000
AcDbSavedByObjectVersion
1070
     0
  0
VISUALSTYLE
  5
2B
102
{ACAD_REACTORS
330
2A
102
}
330
2A
100
AcDbVisualStyle
  2
Flat
 70
     0
 71
     2
 72
     1
 73
     1
 90
        2
 40
-0.6
 41
30.0
 62
     5
 63
     7
421
 16777215
 74
     0
 91
        4
 64
     7
 65
   257
 75
     1
175
     1
 42
1.0
 92
        8
 66
     7
 43
1.0
 76
     1
 77
     6
 78
     2
 67
     7
 79
     5
170
     0
171
     0
290
     0
174
     0
 93
       13
 44
0.0
173
     0
291
     1
 45
0.0
1001
ACAD
1000
AcDbSavedByObjectVersion
1070
     0
  0
VISUALSTYLE
  5
2C
102
{ACAD_REACTORS
330
2A
102
}
330
2A
100
AcDbVisualStyle
  2
FlatWithEdges
 70
     1
 71
     2
 72
     1
 73
     1
 90
        2
 40
-0.6
 41
30.0
 62
     5
 63
     7
421
 16777215
 74
     1
 91
        4
 64
     7
 65
   257
 75
     1
175
     1
 42
1.0
 92
        0
 66
   257
 43
1.0
 76
     1
 77
     6
 78
     2
 67
     7
 79
     5
170
     0
171
     0
290
     0
174
     0
 93
       13
 44
0.0
173
     0
291
     1
 45
0.0
1001
ACAD
1000
AcDbSavedByObjectVersion
1070
     0
  0
VISUALSTYLE
  5
2D
102
{ACAD_REACTORS
330
2A
102
}
330
2A
100
AcDbVisualStyle
  2
Gouraud
 70
     2
 71
     2
 72
     2
 73
     1
 90
        2
 40
-0.6
 41
30.0
 62
     5
 63
     7
421
 16777215
 74
     0
 91
        4
 64
     7
 65
   257
 75
     1
175
     1
 42
1.0
 92
        0
 66
     7
 43
1.0
 76
     1
 77
     6
 78
     2
 67
     7
 79
     5
170
     0
171
     0
290
     0
174
     0
 93
       13
 44
0.0
173
     0
291
     1
 45
0.0
1001
ACAD
1000
AcDbSavedByObjectVersion
1070
     0
  0
VISUALSTYLE
  5
2E
102
{ACAD_REACTORS
330
2A
102
}
330
2A
100
AcDbVisualStyle
  2
GouraudWithEdges
 70
     3
 71
     2
 72
     2
 73
     1
 90
        2
 40
-0.6
 41
30.0
 62
     5
 63
     7
421
 16777215
 74
     1
 91
        4
 64
     7
 65
   257
 75
     1
175
     1
 42
1.0
 92
        0
 66
   257
 43
1.0
 76
     1
 77
     6
 78
     2
 67
     7
 79
     5
170
     0
171
     0
290
     0
174
     0
 93
       13
 44
0.0
173
     0
291
     1
 45
0.0
1001
ACAD
1000
AcDbSavedByObjectVersion
1070
     0
  0
VISUALSTYLE
  5
38
102
{ACAD_REACTORS
330
2A
102
}
330
2A
100
AcDbVisualStyle
  2
Linepattern
 70
    14
 71
     2
 72
     2
 73
     0
 90
        0
 40
-0.6
 41
-30.0
 62
     5
 63
     7
421
 16777215
 74
     1
 91
        4
 64
     7
 65
   257
 75
     7
175
     7
 42
1.0
 92
        8
 66
     7
 43
1.0
 76
     1
 77
     6
 78
     2
 67
     7
 79
     5
170
     0
171
     0
290
     0
174
     0
 93
        1
 44
0.0
173
     0
291
     1
 45
0.0
1001
ACAD
1000
AcDbSavedByObjectVersion
1070
     0
  0
VISUALSTYLE
  5
33
102
{ACAD_REACTORS
330
2A
102
}
330
2A
100
AcDbVisualStyle
  2
Realistic
 70
     8
 71
     2
 72
     2
 73
     0
 90
        0
 40
-0.6
 41
-30.0
 62
     5
 63
     7
421
 16777215
 74
     1
 91
        0
 64
     7
 65
   257
 75
     1
175
     1
 42
1.0
 92
        8
 66
     8
424
  7895160
 43
1.0
 76
     1
 77
     6
 78
     2
 67
     7
 79
     5
170
     0
171
     0
290
     0
174
     0
 93
       13
 44
0.0
173
     0
291
     0
 45
0.0
1001
ACAD
1000
AcDbSavedByObjectVersion
1070
     0
  0
VISUALSTYLE
  5
37
102
{ACAD_REACTORS
330
2A
102
}
330
2A
100
AcDbVisualStyle
  2
Thicken
 70
    13
 71
     2
 72
     2
 73
     0
 90
        0
 40
-0.6
 41
-30.0
 62
     5
 63
     7
421
 16777215
 74
     1
 91
        4
 64
     7
 65
   257
 75
     1
175
     1
 42
1.0
 92
       12
 66
     7
 43
1.0
 76
     1
 77
     6
 78
     2
 67
     7
 79
     5
170
     0
171
     0
290
     0
174
     0
 93
        1
 44
0.0
173
     0
291
     1
 45
0.0
1001
ACAD
1000
AcDbSavedByObjectVersion
1070
     0
  0
ENDSEC
  0
EOF
