  0
SECTION
  2
HEADER
  9
$ACADVER
  1
AC1018
  9
$ACADMAINTVER
 70
     0
  9
$DWGCODEPAGE
  3
ANSI_932
  9
$INSBASE
 10
0.0
 20
0.0
 30
0.0
  9
$EXTMIN
 10
-1050.0
 20
-742.5
 30
0.0
  9
$EXTMAX
 10
1050.0
 20
742.5
 30
0.0
  9
$LIMMIN
 10
-1050.0
 20
-742.5
  9
$LIMMAX
 10
1050.0
 20
742.5
  9
$ORTHOMODE
 70
     0
  9
$REGENMODE
 70
     1
  9
$FILLMODE
 70
     1
  9
$QTEXTMODE
 70
     0
  9
$MIRRTEXT
 70
     1
  9
$LTSCALE
 40
5.0
  9
$ATTMODE
 70
     1
  9
$TEXTSIZE
 40
2.5
  9
$TRACEWID
 40
1.0
  9
$TEXTSTYLE
  7
Standard
  9
$CLAYER
  8
0
  9
$CELTYPE
  6
ByLayer
  9
$CECOLOR
 62
   256
  9
$CELTSCALE
 40
1.0
  9
$DISPSILH
 70
     0
  9
$DIMSCALE
 40
1.0
  9
$DIMASZ
 40
2.5
  9
$DIMEXO
 40
0.625
  9
$DIMDLI
 40
3.75
  9
$DIMRND
 40
0.0
  9
$DIMDLE
 40
0.0
  9
$DIMEXE
 40
1.25
  9
$DIMTP
 40
0.0
  9
$DIMTM
 40
0.0
  9
$DIMTXT
 40
2.5
  9
$DIMCEN
 40
2.5
  9
$DIMTSZ
 40
0.0
  9
$DIMTOL
 70
     0
  9
$DIMLIM
 70
     0
  9
$DIMTIH
 70
     0
  9
$DIMTOH
 70
     0
  9
$DIMSE1
 70
     0
  9
$DIMSE2
 70
     0
  9
$DIMTAD
 70
     1
  9
$DIMZIN
 70
     8
  9
$DIMBLK
  1

  9
$DIMASO
 70
     1
  9
$DIMSHO
 70
     1
  9
$DIMPOST
  1

  9
$DIMAPOST
  1

  9
$DIMALT
 70
     0
  9
$DIMALTD
 70
     3
  9
$DIMALTF
 40
0.03937007874016
  9
$DIMLFAC
 40
1.0
  9
$DIMTOFL
 70
     1
  9
$DIMTVP
 40
0.0
  9
$DIMTIX
 70
     0
  9
$DIMSOXD
 70
     0
  9
$DIMSAH
 70
     0
  9
$DIMBLK1
  1

  9
$DIMBLK2
  1

  9
$DIMSTYLE
  2
ISO-25
  9
$DIMCLRD
 70
     0
  9
$DIMCLRE
 70
     0
  9
$DIMCLRT
 70
     0
  9
$DIMTFAC
 40
1.0
  9
$DIMGAP
 40
0.625
  9
$DIMJUST
 70
     0
  9
$DIMSD1
 70
     0
  9
$DIMSD2
 70
     0
  9
$DIMTOLJ
 70
     0
  9
$DIMTZIN
 70
     8
  9
$DIMALTZ
 70
     0
  9
$DIMALTTZ
 70
     0
  9
$DIMUPT
 70
     0
  9
$DIMDEC
 70
     2
  9
$DIMTDEC
 70
     2
  9
$DIMALTU
 70
     2
  9
$DIMALTTD
 70
     3
  9
$DIMTXSTY
  7
Standard
  9
$DIMAUNIT
 70
     0
  9
$DIMADEC
 70
     0
  9
$DIMALTRND
 40
0.0
  9
$DIMAZIN
 70
     0
  9
$DIMDSEP
 70
    44
  9
$DIMATFIT
 70
     3
  9
$DIMFRAC
 70
     0
  9
$DIMLDRBLK
  1

  9
$DIMLUNIT
 70
     2
  9
$DIMLWD
 70
    -2
  9
$DIMLWE
 70
    -2
  9
$DIMTMOVE
 70
     0
  9
$LUNITS
 70
     2
  9
$LUPREC
 70
     4
  9
$SKETCHINC
 40
1.0
  9
$FILLETRAD
 40
10.0
  9
$AUNITS
 70
     0
  9
$AUPREC
 70
     0
  9
$MENU
  1
.
  9
$ELEVATION
 40
0.0
  9
$PELEVATION
 40
0.0
  9
$THICKNESS
 40
0.0
  9
$LIMCHECK
 70
     0
  9
$CHAMFERA
 40
10.0
  9
$CHAMFERB
 40
10.0
  9
$CHAMFERC
 40
20.0
  9
$CHAMFERD
 40
0.0
  9
$SKPOLY
 70
     0
  9
$TDCREATE
 40
2457904.644872558
  9
$TDUCREATE
 40
2457904.269872558
  9
$TDUPDATE
 40
2457904.644872569
  9
$TDUUPDATE
 40
2457904.269872569
  9
$TDINDWG
 40
0.0000000116
  9
$TDUSRTIMER
 40
0.0000000116
  9
$USRTIMER
 70
     1
  9
$ANGBASE
 50
0.0
  9
$ANGDIR
 70
     0
  9
$PDMODE
 70
     0
  9
$PDSIZE
 40
0.0
  9
$PLINEWID
 40
0.0
  9
$SPLFRAME
 70
     0
  9
$SPLINETYPE
 70
     6
  9
$SPLINESEGS
 70
     8
  9
$HANDSEED
  5
4C7
  9
$SURFTAB1
 70
     6
  9
$SURFTAB2
 70
     6
  9
$SURFTYPE
 70
     6
  9
$SURFU
 70
     6
  9
$SURFV
 70
     6
  9
$UCSBASE
  2

  9
$UCSNAME
  2

  9
$UCSORG
 10
0.0
 20
0.0
 30
0.0
  9
$UCSXDIR
 10
1.0
 20
0.0
 30
0.0
  9
$UCSYDIR
 10
0.0
 20
1.0
 30
0.0
  9
$UCSORTHOREF
  2

  9
$UCSORTHOVIEW
 70
     0
  9
$UCSORGTOP
 10
0.0
 20
0.0
 30
0.0
  9
$UCSORGBOTTOM
 10
0.0
 20
0.0
 30
0.0
  9
$UCSORGLEFT
 10
0.0
 20
0.0
 30
0.0
  9
$UCSORGRIGHT
 10
0.0
 20
0.0
 30
0.0
  9
$UCSORGFRONT
 10
0.0
 20
0.0
 30
0.0
  9
$UCSORGBACK
 10
0.0
 20
0.0
 30
0.0
  9
$PUCSBASE
  2

  9
$PUCSNAME
  2

  9
$PUCSORG
 10
0.0
 20
0.0
 30
0.0
  9
$PUCSXDIR
 10
1.0
 20
0.0
 30
0.0
  9
$PUCSYDIR
 10
0.0
 20
1.0
 30
0.0
  9
$PUCSORTHOREF
  2

  9
$PUCSORTHOVIEW
 70
     0
  9
$PUCSORGTOP
 10
0.0
 20
0.0
 30
0.0
  9
$PUCSORGBOTTOM
 10
0.0
 20
0.0
 30
0.0
  9
$PUCSORGLEFT
 10
0.0
 20
0.0
 30
0.0
  9
$PUCSORGRIGHT
 10
0.0
 20
0.0
 30
0.0
  9
$PUCSORGFRONT
 10
0.0
 20
0.0
 30
0.0
  9
$PUCSORGBACK
 10
0.0
 20
0.0
 30
0.0
  9
$USERI1
 70
     0
  9
$USERI2
 70
     0
  9
$USERI3
 70
     0
  9
$USERI4
 70
     0
  9
$USERI5
 70
     0
  9
$USERR1
 40
0.0
  9
$USERR2
 40
0.0
  9
$USERR3
 40
0.0
  9
$USERR4
 40
0.0
  9
$USERR5
 40
0.0
  9
$WORLDVIEW
 70
     1
  9
$SHADEDGE
 70
     3
  9
$SHADEDIF
 70
    70
  9
$TILEMODE
 70
     1
  9
$MAXACTVP
 70
    64
  9
$PINSBASE
 10
0.0
 20
0.0
 30
0.0
  9
$PLIMCHECK
 70
     0
  9
$PEXTMIN
 10
1.000000000000000E+20
 20
1.000000000000000E+20
 30
1.000000000000000E+20
  9
$PEXTMAX
 10
-1.000000000000000E+20
 20
-1.000000000000000E+20
 30
-1.000000000000000E+20
  9
$PLIMMIN
 10
0.0
 20
0.0
  9
$PLIMMAX
 10
420.0
 20
297.0
  9
$UNITMODE
 70
     0
  9
$VISRETAIN
 70
     1
  9
$PLINEGEN
 70
     0
  9
$PSLTSCALE
 70
     1
  9
$TREEDEPTH
 70
  3020
  9
$CMLSTYLE
  2
Standard
  9
$CMLJUST
 70
     0
  9
$CMLSCALE
 40
20.0
  9
$PROXYGRAPHICS
 70
     1
  9
$MEASUREMENT
 70
     1
  9
$CELWEIGHT
370
    -1
  9
$ENDCAPS
280
     0
  9
$JOINSTYLE
280
     0
  9
$LWDISPLAY
290
     0
  9
$INSUNITS
 70
     4
  9
$HYPERLINKBASE
  1

  9
$STYLESHEET
  1

  9
$XEDIT
290
     1
  9
$CEPSNTYPE
380
     0
  9
$PSTYLEMODE
290
     1
  9
$FINGERPRINTGUID
  2
{9C8D4F6E-564D-49CE-8659-E5BB669AC61F}
  9
$VERSIONGUID
  2
{FAEB1C32-E019-11D5-929B-00C0DF256EC4}
  9
$EXTNAMES
290
     1
  9
$PSVPSCALE
 40
0.0
  9
$OLESTARTUP
290
     0
  9
$SORTENTS
280
   127
  9
$INDEXCTL
280
     0
  9
$HIDETEXT
280
     1
  9
$XCLIPFRAME
290
     0
  9
$HALOGAP
280
     0
  9
$OBSCOLOR
 70
   257
  9
$OBSLTYPE
280
     0
  9
$INTERSECTIONDISPLAY
280
     0
  9
$INTERSECTIONCOLOR
 70
   257
  9
$DIMASSOC
280
     2
  9
$PROJECTNAME
  1

  0
ENDSEC
  0
SECTION
  2
CLASSES
  0
CLASS
  1
ACDBDICTIONARYWDFLT
  2
AcDbDictionaryWithDefault
  3
ObjectDBX Classes
 90
        0
 91
        4
280
     0
281
     0
  0
CLASS
  1
VISUALSTYLE
  2
AcDbVisualStyle
  3
ObjectDBX Classes
 90
     4095
 91
        4
280
     0
281
     0
  0
ENDSEC
  0
SECTION
  2
TABLES
  0
TABLE
  2
VPORT
  5
8
330
0
100
AcDbSymbolTable
 70
     1
  0
VPORT
  5
29
330
8
100
AcDbSymbolTableRecord
100
AcDbViewportTableRecord
  2
*Active
 70
     0
 10
0.0
 20
0.0
 11
1.0
 21
1.0
 12
0.0
 22
0.0
 13
0.0
 23
0.0
 14
10.0
 24
10.0
 15
10.0
 25
10.0
 16
0.0
 26
0.0
 36
1.0
 17
0.0
 27
0.0
 37
0.0
 40
1633.5
 41
1.414141414141414
 42
50.0
 43
0.0
 44
0.0
 50
0.0
 51
0.0
 71
     0
 72
 10000
 73
     1
 74
     3
 75
     0
 76
     0
 77
     0
 78
     0
281
     0
 65
     1
110
0.0
120
0.0
130
0.0
111
1.0
121
0.0
131
0.0
112
0.0
122
1.0
132
0.0
 79
     0
146
0.0
  0
ENDTAB
  0
TABLE
  2
LTYPE
  5
5
330
0
100
AcDbSymbolTable
 70
     5
  0
LTYPE
  5
14
330
5
100
AcDbSymbolTableRecord
100
AcDbLinetypeTableRecord
  2
ByBlock
 70
     0
  3

 72
    65
 73
     0
 40
0.0
  0
LTYPE
  5
15
330
5
100
AcDbSymbolTableRecord
100
AcDbLinetypeTableRecord
  2
ByLayer
 70
     0
  3

 72
    65
 73
     0
 40
0.0
  0
LTYPE
  5
16
330
5
100
AcDbSymbolTableRecord
100
AcDbLinetypeTableRecord
  2
Continuous
 70
     0
  3
Solid line
 72
    65
 73
     0
 40
0.0
  0
LTYPE
  5
3C
330
5
100
AcDbSymbolTableRecord
100
AcDbLinetypeTableRecord
  2
JWW_CENTER1
 70
     0
  3
-----  --  ----------  --  -----
 72
    65
 73
     4
 40
6.773333333333333
 49
4.233333333333333
 74
     0
 49
-0.8466666666666667
 74
     0
 49
0.8466666666666667
 74
     0
 49
-0.8466666666666667
 74
     0
  0
LTYPE
  5
3D
330
5
100
AcDbSymbolTableRecord
100
AcDbLinetypeTableRecord
  2
JWW_PHANTOM2
 70
     0
  3
------------  -  -  ------------
 72
    65
 73
     6
 40
13.54666666666667
 49
10.16
 74
     0
 49
-0.8466666666666667
 74
     0
 49
0.4233333333333333
 74
     0
 49
-0.8466666666666667
 74
     0
 49
0.4233333333333333
 74
     0
 49
-0.8466666666666667
 74
     0
  0
LTYPE
  5
3E
330
5
100
AcDbSymbolTableRecord
100
AcDbLinetypeTableRecord
  2
JWW_DASHED1
 70
     0
  3
-  --  --  --  --  --  --  --  -
 72
    65
 73
     2
 40
1.693333333333333
 49
0.8466666666666667
 74
     0
 49
-0.8466666666666667
 74
     0
  0
LTYPE
  5
3F
330
5
100
AcDbSymbolTableRecord
100
AcDbLinetypeTableRecord
  2
JWW_DASHED3
 70
     0
  3
---  ------  ------  ------  ---
 72
    65
 73
     2
 40
3.386666666666667
 49
2.54
 74
     0
 49
-0.8466666666666667
 74
     0
  0
ENDTAB
  0
TABLE
  2
LAYER
  5
2
330
0
100
AcDbSymbolTable
 70
    21
  0
LAYER
  5
10
330
2
100
AcDbSymbolTableRecord
100
AcDbLayerTableRecord
  2
0
 70
     0
 62
     7
  6
Continuous
370
    -3
390
F
  0
LAYER
  5
40
330
2
100
AcDbSymbolTableRecord
100
AcDbLayerTableRecord
  2
D-3
 70
     0
 62
     7
  6
Continuous
370
    -3
390
F
  0
LAYER
  5
41
330
2
100
AcDbSymbolTableRecord
100
AcDbLayerTableRecord
  2
D-2
 70
     0
 62
     7
  6
Continuous
370
    -3
390
F
  0
LAYER
  5
42
330
2
100
AcDbSymbolTableRecord
100
AcDbLayerTableRecord
  2
D-0
 70
     0
 62
     7
  6
Continuous
370
    -3
390
F
  0
LAYER
  5
43
330
2
100
AcDbSymbolTableRecord
100
AcDbLayerTableRecord
  2
D-D
 70
     0
 62
     7
  6
Continuous
370
    -3
390
F
  0
LAYER
  5
44
330
2
100
AcDbSymbolTableRecord
100
AcDbLayerTableRecord
  2
D-A
 70
     0
 62
     7
  6
Continuous
370
    -3
390
F
  0
LAYER
  5
45
330
2
100
AcDbSymbolTableRecord
100
AcDbLayerTableRecord
  2
D-5
 70
     0
 62
     7
  6
Continuous
370
    -3
390
F
  0
LAYER
  5
46
330
2
100
AcDbSymbolTableRecord
100
AcDbLayerTableRecord
  2
D-F
 70
     0
 62
     7
  6
Continuous
370
    -3
390
F
  0
LAYER
  5
47
330
2
100
AcDbSymbolTableRecord
100
AcDbLayerTableRecord
  2
D-4
 70
     0
 62
     7
  6
Continuous
370
    -3
390
F
  0
LAYER
  5
48
330
2
100
AcDbSymbolTableRecord
100
AcDbLayerTableRecord
  2
0-4
 70
     0
 62
     7
  6
Continuous
370
    -3
390
F
  0
LAYER
  5
49
330
2
100
AcDbSymbolTableRecord
100
AcDbLayerTableRecord
  2
1-4
 70
     0
 62
     7
  6
Continuous
370
    -3
390
F
  0
LAYER
  5
4A
330
2
100
AcDbSymbolTableRecord
100
AcDbLayerTableRecord
  2
0-0
 70
     0
 62
     7
  6
Continuous
370
    -3
390
F
  0
LAYER
  5
4B
330
2
100
AcDbSymbolTableRecord
100
AcDbLayerTableRecord
  2
0-1
 70
     0
 62
     7
  6
Continuous
370
    -3
390
F
  0
LAYER
  5
4C
330
2
100
AcDbSymbolTableRecord
100
AcDbLayerTableRecord
  2
0-A
 70
     0
 62
     7
  6
Continuous
370
    -3
390
F
  0
LAYER
  5
4D
330
2
100
AcDbSymbolTableRecord
100
AcDbLayerTableRecord
  2
0-2
 70
     0
 62
     7
  6
Continuous
370
    -3
390
F
  0
LAYER
  5
4E
330
2
100
AcDbSymbolTableRecord
100
AcDbLayerTableRecord
  2
0-3
 70
     0
 62
     7
  6
Continuous
370
    -3
390
F
  0
LAYER
  5
4F
330
2
100
AcDbSymbolTableRecord
100
AcDbLayerTableRecord
  2
0-9
 70
     0
 62
     7
  6
Continuous
370
    -3
390
F
  0
LAYER
  5
50
330
2
100
AcDbSymbolTableRecord
100
AcDbLayerTableRecord
  2
D-1
 70
     0
 62
     7
  6
Continuous
370
    -3
390
F
  0
LAYER
  5
51
330
2
100
AcDbSymbolTableRecord
100
AcDbLayerTableRecord
  2
D-B
 70
     0
 62
     7
  6
Continuous
370
    -3
390
F
  0
LAYER
  5
52
330
2
100
AcDbSymbolTableRecord
100
AcDbLayerTableRecord
  2
D-6
 70
     0
 62
     7
  6
Continuous
370
    -3
390
F
  0
LAYER
  5
53
330
2
100
AcDbSymbolTableRecord
100
AcDbLayerTableRecord
  2
F-0
 70
     0
 62
     7
  6
Continuous
370
    -3
390
F
  0
ENDTAB
  0
TABLE
  2
STYLE
  5
3
330
0
100
AcDbSymbolTable
 70
     2
  0
STYLE
  5
11
330
3
100
AcDbSymbolTableRecord
100
AcDbTextStyleTableRecord
  2
Standard
 70
     0
 40
0.0
 41
1.0
 50
0.0
 71
     0
 42
2.5
  3
txt
  4

1001
ACAD
1000

1071
        0
  0
STYLE
  5
3B
330
3
100
AcDbSymbolTableRecord
100
AcDbTextStyleTableRecord
  2
ＭＳ ゴシック
 70
     0
 40
1.0
 41
1.0
 50
0.0
 71
     0
 42
10.0
  3

  4

1001
ACAD
1000
MS Gothic
1071
    32817
  0
ENDTAB
  0
TABLE
  2
VIEW
  5
6
330
0
100
AcDbSymbolTable
 70
     0
  0
ENDTAB
  0
TABLE
  2
UCS
  5
7
330
0
100
AcDbSymbolTable
 70
     0
  0
ENDTAB
  0
TABLE
  2
APPID
  5
9
330
0
100
AcDbSymbolTable
 70
     1
  0
APPID
  5
12
330
9
100
AcDbSymbolTableRecord
100
AcDbRegAppTableRecord
  2
ACAD
 70
     0
  0
ENDTAB
  0
TABLE
  2
DIMSTYLE
  5
A
330
0
100
AcDbSymbolTable
 70
     1
100
AcDbDimStyleTable
  0
DIMSTYLE
105
27
330
A
100
AcDbSymbolTableRecord
100
AcDbDimStyleTableRecord
  2
ISO-25
 70
     0
 41
2.5
 42
0.625
 43
3.75
 44
1.25
 73
     0
 74
     0
 77
     1
 78
     8
140
2.5
141
2.5
143
0.03937007874016
147
0.625
171
     3
172
     1
271
     2
272
     2
274
     3
278
    44
283
     0
284
     8
340
11
  0
ENDTAB
  0
TABLE
  2
BLOCK_RECORD
  5
1
330
0
100
AcDbSymbolTable
 70
     1
  0
BLOCK_RECORD
  5
1F
330
1
100
AcDbSymbolTableRecord
100
AcDbBlockTableRecord
  2
*Model_Space
340
22
  0
BLOCK_RECORD
  5
1B
330
1
100
AcDbSymbolTableRecord
100
AcDbBlockTableRecord
  2
*Paper_Space
340
1E
  0
BLOCK_RECORD
  5
23
330
1
100
AcDbSymbolTableRecord
100
AcDbBlockTableRecord
  2
*Paper_Space0
340
26
  0
ENDTAB
  0
ENDSEC
  0
SECTION
  2
BLOCKS
  0
BLOCK
  5
20
330
1F
100
AcDbEntity
  8
0
100
AcDbBlockBegin
  2
*Model_Space
 70
     0
 10
0.0
 20
0.0
 30
0.0
  3
*Model_Space
  1

  0
ENDBLK
  5
21
330
1F
100
AcDbEntity
  8
0
100
AcDbBlockEnd
  0
BLOCK
  5
1C
330
1B
100
AcDbEntity
 67
     1
  8
0
100
AcDbBlockBegin
  2
*Paper_Space
 70
     0
 10
0.0
 20
0.0
 30
0.0
  3
*Paper_Space
  1

  0
ENDBLK
  5
1D
330
1B
100
AcDbEntity
 67
     1
  8
0
100
AcDbBlockEnd
  0
BLOCK
  5
24
330
23
100
AcDbEntity
  8
0
100
AcDbBlockBegin
  2
*Paper_Space0
 70
     0
 10
0.0
 20
0.0
 30
0.0
  3
*Paper_Space0
  1

  0
ENDBLK
  5
25
330
23
100
AcDbEntity
  8
0
100
AcDbBlockEnd
  0
ENDSEC
  0
SECTION
  2
ENTITIES
  0
LINE
  5
54
330
1F
100
AcDbEntity
  8
D-3
  6
Continuous
 62
     3
370
     9
100
AcDbLine
 10
434.5496100348396
 20
396.928593766637
 30
0.0
 11
279.549840978674
 21
396.928593766637
 31
0.0
  0
LINE
  5
55
330
1F
100
AcDbEntity
  8
D-2
  6
JWW_CENTER1
 62
     3
370
     9
100
AcDbLine
 10
272.0499399546031
 20
312.9936654911935
 30
0.0
 11
272.0499399546031
 21
448.699561817207
 31
0.0
  0
LINE
  5
56
330
1F
100
AcDbEntity
  8
D-0
  6
Continuous
 62
     4
370
     9
100
AcDbLine
 10
258.0951417892346
 20
-355.6189981247768
 30
0.0
 11
488.0952510751562
 21
-355.6189981247768
 31
0.0
  0
LINE
  5
57
330
1F
100
AcDbEntity
  8
D-0
  6
Continuous
 62
     4
370
     9
100
AcDbLine
 10
238.0952923151268
 20
-94.63420720819762
 30
0.0
 11
508.0951933391976
 21
-94.63420720819762
 31
0.0
  0
LINE
  5
58
330
1F
100
AcDbEntity
  8
D-0
  6
Continuous
 62
     4
370
     9
100
AcDbLine
 10
233.0952758191385
 20
-227.1344587720174
 30
0.0
 11
233.0952758191385
 21
-99.6343474240971
 31
0.0
  0
LINE
  5
59
330
1F
100
AcDbEntity
  8
D-0
  6
Continuous
 62
     4
370
     9
100
AcDbLine
 10
508.0951933391976
 20
-232.1345989879168
 30
0.0
 11
238.0952923151268
 21
-232.1345989879168
 31
0.0
  0
LINE
  5
5A
330
1F
100
AcDbEntity
  8
D-0
  6
Continuous
 62
     4
370
     9
100
AcDbLine
 10
513.0953335550971
 20
-227.1344587720174
 30
0.0
 11
513.0953335550971
 21
-99.6343474240971
 31
0.0
  0
LINE
  5
5B
330
1F
100
AcDbEntity
  8
D-0
  6
Continuous
 62
     4
370
     9
100
AcDbLine
 10
234.5612330483403
 20
-96.0986797984637
 30
0.0
 11
259.5613155282812
 21
-121.0988859983159
 31
0.0
  0
LINE
  5
5C
330
1F
100
AcDbEntity
  8
D-0
  6
Continuous
 62
     4
370
     9
100
AcDbLine
 10
511.6307372449197
 20
-230.6708687171187
 30
0.0
 11
486.6306547649788
 21
-205.6707243772222
 31
0.0
  0
LINE
  5
5D
330
1F
100
AcDbEntity
  8
D-0
  6
Continuous
 62
     4
370
     9
100
AcDbLine
 10
234.5612330483403
 20
-230.6708687171187
 30
0.0
 11
259.5613155282812
 21
-205.6707243772222
 31
0.0
  0
LINE
  5
5E
330
1F
100
AcDbEntity
  8
D-0
  6
Continuous
 62
     4
370
     9
100
AcDbLine
 10
488.0952510751562
 20
-202.1353041914113
 30
0.0
 11
488.0952510751562
 21
-124.6351722235059
 31
0.0
  0
LINE
  5
5F
330
1F
100
AcDbEntity
  8
D-0
  6
Continuous
 62
     4
370
     9
100
AcDbLine
 10
263.0953438650898
 20
-207.1352588274439
 30
0.0
 11
483.094863419434
 21
-207.1352588274439
 31
0.0
  0
LINE
  5
60
330
1F
100
AcDbEntity
  8
D-0
  6
Continuous
 62
     4
370
     9
100
AcDbLine
 10
263.0953438650898
 20
-119.6347845677838
 30
0.0
 11
483.094863419434
 21
-119.6347845677838
 31
0.0
  0
LINE
  5
61
330
1F
100
AcDbEntity
  8
D-0
  6
Continuous
 62
     4
370
     9
100
AcDbLine
 10
258.0951417892346
 20
-124.6351722235059
 30
0.0
 11
258.0951417892346
 21
-202.1353041914113
 31
0.0
  0
LINE
  5
62
330
1F
100
AcDbEntity
  8
D-2
  6
Continuous
 62
     3
370
     9
100
AcDbLine
 10
291.4702271559734
 20
-174.1344571224185
 30
0.0
 11
291.4702271559734
 21
-152.6348439533413
 31
0.0
  0
LINE
  5
63
330
1F
100
AcDbEntity
  8
D-2
  6
Continuous
 62
     3
370
     9
100
AcDbLine
 10
295.7202226195768
 20
-178.3844216560439
 30
0.0
 11
450.4702630347476
 21
-178.3844216560439
 31
0.0
  0
LINE
  5
64
330
1F
100
AcDbEntity
  8
D-0
  6
Continuous
 62
     4
370
     9
100
AcDbLine
 10
290.2202230319762
 20
-174.6344092840528
 30
0.0
 11
290.2202230319762
 21
-152.1344587720174
 31
0.0
  0
LINE
  5
65
330
1F
100
AcDbEntity
  8
D-0
  6
Continuous
 62
     4
370
     9
100
AcDbLine
 10
450.9702770563377
 20
-147.1344422760291
 30
0.0
 11
295.2202085979866
 21
-147.1344422760291
 31
0.0
  0
LINE
  5
66
330
1F
100
AcDbEntity
  8
D-0
  6
Continuous
 62
     4
370
     9
100
AcDbLine
 10
455.9702626223478
 20
-174.6344092840528
 30
0.0
 11
455.9702626223478
 21
-152.1344587720174
 31
0.0
  0
LINE
  5
67
330
1F
100
AcDbEntity
  8
D-0
  6
Continuous
 62
     4
370
     9
100
AcDbLine
 10
450.9702770563377
 20
-179.634425780041
 30
0.0
 11
295.2202085979866
 21
-179.634425780041
 31
0.0
  0
LINE
  5
68
330
1F
100
AcDbEntity
  8
D-0
  6
JWW_CENTER1
 62
     4
370
     9
100
AcDbLine
 10
228.2335781840033
 20
-163.3844340280351
 30
0.0
 11
521.5217729950255
 21
-163.3844340280351
 31
0.0
  0
LINE
  5
69
330
1F
100
AcDbEntity
  8
D-2
  6
Continuous
 62
     3
370
     9
100
AcDbLine
 10
450.4699228049916
 20
-148.3844464000262
 30
0.0
 11
295.7211195889338
 21
-148.3844464000262
 31
0.0
  0
LINE
  5
6A
330
1F
100
AcDbEntity
  8
D-2
  6
Continuous
 62
     3
370
     9
100
AcDbLine
 10
454.7199182685947
 20
-152.6344727936072
 30
0.0
 11
454.7199182685947
 21
-174.1929766404717
 31
0.0
  0
LINE
  5
6B
330
1F
100
AcDbEntity
  8
D-0
  6
Continuous
 62
     4
370
     9
100
AcDbLine
 10
511.6307372449197
 20
-96.0986797984637
 30
0.0
 11
486.6306547649788
 21
-121.0988859983159
 31
0.0
  0
LINE
  5
6C
330
1F
100
AcDbEntity
  8
D-0
  6
JWW_CENTER1
 62
     4
370
     9
100
AcDbLine
 10
373.0952428271622
 20
-87.4813405353725
 30
0.0
 11
373.0952428271622
 21
-241.6439278816298
 31
0.0
  0
ARC
  5
6D
330
1F
100
AcDbEntity
  8
D-0
  6
Continuous
 62
     4
370
     9
100
AcDbCircle
 10
483.094863419434
 20
-124.6351722235059
 30
0.0
 40
4.99999958115655
100
AcDbArc
 50
0.0
 51
90.0
  0
ARC
  5
6E
330
1F
100
AcDbEntity
  8
D-0
  6
Continuous
 62
     4
370
     9
100
AcDbCircle
 10
483.094863419434
 20
-202.1353041914113
 30
0.0
 40
4.99999958115655
100
AcDbArc
 50
270.0
 51
0.0
  0
ARC
  5
6F
330
1F
100
AcDbEntity
  8
D-0
  6
Continuous
 62
     4
370
     9
100
AcDbCircle
 10
263.0953438650898
 20
-202.1353041914113
 30
0.0
 40
4.99999958115655
100
AcDbArc
 50
180.0
 51
270.0
  0
ARC
  5
70
330
1F
100
AcDbEntity
  8
D-0
  6
Continuous
 62
     4
370
     9
100
AcDbCircle
 10
263.0953438650898
 20
-124.6351722235059
 30
0.0
 40
4.99999958115655
100
AcDbArc
 50
90.0
 51
180.0
  0
ARC
  5
71
330
1F
100
AcDbEntity
  8
D-0
  6
Continuous
 62
     4
370
     9
100
AcDbCircle
 10
508.0951933391976
 20
-99.6343474240971
 30
0.0
 40
5.000000064437454
100
AcDbArc
 50
0.0
 51
90.0
  0
ARC
  5
72
330
1F
100
AcDbEntity
  8
D-0
  6
Continuous
 62
     4
370
     9
100
AcDbCircle
 10
238.0951685952153
 20
-99.6343474240971
 30
0.0
 40
5.000000064437454
100
AcDbArc
 50
90.0
 51
180.0
  0
ARC
  5
73
330
1F
100
AcDbEntity
  8
D-0
  6
Continuous
 62
     4
370
     9
100
AcDbCircle
 10
238.0951685952153
 20
-227.1343969120617
 30
0.0
 40
5.000000064437454
100
AcDbArc
 50
180.0
 51
270.0
  0
ARC
  5
74
330
1F
100
AcDbEntity
  8
D-0
  6
Continuous
 62
     4
370
     9
100
AcDbCircle
 10
508.0951933391976
 20
-227.1343969120617
 30
0.0
 40
5.000000064437454
100
AcDbArc
 50
270.0
 51
0.0
  0
ARC
  5
75
330
1F
100
AcDbEntity
  8
D-2
  6
Continuous
 62
     3
370
     9
100
AcDbCircle
 10
295.7211195889338
 20
-152.6348439533413
 30
0.0
 40
4.250002229535902
100
AcDbArc
 50
90.0
 51
180.0
  0
ARC
  5
76
330
1F
100
AcDbEntity
  8
D-2
  6
Continuous
 62
     3
370
     9
100
AcDbCircle
 10
450.4702630347476
 20
-174.1340241027289
 30
0.0
 40
4.250002229535902
100
AcDbArc
 50
270.0
 51
359.2052154541016
  0
ARC
  5
77
330
1F
100
AcDbEntity
  8
D-2
  6
Continuous
 62
     3
370
     9
100
AcDbCircle
 10
295.7202226195768
 20
-174.1344571224185
 30
0.0
 40
4.250000296412288
100
AcDbArc
 50
180.0
 51
270.0
  0
ARC
  5
78
330
1F
100
AcDbEntity
  8
D-0
  6
Continuous
 62
     4
370
     9
100
AcDbCircle
 10
373.0952428271622
 20
-163.3844340280351
 30
0.0
 40
31.25000064437454
100
AcDbArc
 50
211.3322448730469
 51
328.6677551269532
  0
ARC
  5
79
330
1F
100
AcDbEntity
  8
D-0
  6
Continuous
 62
     4
370
     9
100
AcDbCircle
 10
373.0952428271622
 20
-163.3844340280351
 30
0.0
 40
31.25000064437454
100
AcDbArc
 50
31.33224487304688
 51
148.6677551269531
  0
ARC
  5
7A
330
1F
100
AcDbEntity
  8
D-0
  6
Continuous
 62
     4
370
     9
100
AcDbCircle
 10
295.2202085979866
 20
-152.1344587720174
 30
0.0
 40
5.000000064437454
100
AcDbArc
 50
90.0
 51
180.0
  0
ARC
  5
7B
330
1F
100
AcDbEntity
  8
D-0
  6
Continuous
 62
     4
370
     9
100
AcDbCircle
 10
295.2202085979866
 20
-174.6344092840528
 30
0.0
 40
5.000000064437454
100
AcDbArc
 50
180.0
 51
270.0
  0
ARC
  5
7C
330
1F
100
AcDbEntity
  8
D-0
  6
Continuous
 62
     4
370
     9
100
AcDbCircle
 10
450.9702770563377
 20
-152.1344587720174
 30
0.0
 40
5.000000064437454
100
AcDbArc
 50
0.0
 51
90.0
  0
ARC
  5
7D
330
1F
100
AcDbEntity
  8
D-0
  6
Continuous
 62
     4
370
     9
100
AcDbCircle
 10
450.9702770563377
 20
-174.6344092840528
 30
0.0
 40
5.000000064437454
100
AcDbArc
 50
270.0
 51
0.0
  0
ARC
  5
7E
330
1F
100
AcDbEntity
  8
D-2
  6
Continuous
 62
     3
370
     9
100
AcDbCircle
 10
450.4699228049916
 20
-152.6344727936072
 30
0.0
 40
4.250000296412288
100
AcDbArc
 50
0.0
 51
90.0
  0
LINE
  5
7F
330
1F
100
AcDbEntity
  8
D-0
  6
Continuous
 62
     4
370
     9
100
AcDbLine
 10
235.2243717730025
 20
-359.0495038257903
 30
0.0
 11
258.0951417892346
 21
-355.6189981247768
 31
0.0
  0
LINE
  5
80
330
1F
100
AcDbEntity
  8
D-0
  6
Continuous
 62
     4
370
     9
100
AcDbLine
 10
233.0952758191385
 20
-361.521860673605
 30
0.0
 11
233.0952758191385
 21
-361.8688950248506
 31
0.0
  0
LINE
  5
81
330
1F
100
AcDbEntity
  8
D-2
  6
Continuous
 62
     3
370
     9
100
AcDbLine
 10
293.0949788913512
 20
-455.6188950248506
 30
0.0
 11
453.0950118833278
 21
-455.6188950248506
 31
0.0
  0
LINE
  5
82
330
1F
100
AcDbEntity
  8
D-2
  6
Continuous
 62
     3
370
     9
100
AcDbLine
 10
293.0949788913512
 20
-461.8689775047915
 30
0.0
 11
453.0950118833278
 21
-461.8689775047915
 31
0.0
  0
LINE
  5
83
330
1F
100
AcDbEntity
  8
D-2
  6
Continuous
 62
     3
370
     9
100
AcDbLine
 10
335.5952428271622
 20
-452.1188587336767
 30
0.0
 11
343.095143851233
 21
-454.8689049224436
 31
0.0
  0
LINE
  5
84
330
1F
100
AcDbEntity
  8
D-2
  6
Continuous
 62
     3
370
     9
100
AcDbLine
 10
410.5952428271622
 20
-452.1188587336767
 30
0.0
 11
403.0953418030911
 21
-454.8689049224436
 31
0.0
  0
LINE
  5
85
330
1F
100
AcDbEntity
  8
D-2
  6
Continuous
 62
     3
370
     9
100
AcDbLine
 10
343.095143851233
 20
-454.8689049224436
 30
0.0
 11
343.095143851233
 21
-455.6188950248506
 31
0.0
  0
LINE
  5
86
330
1F
100
AcDbEntity
  8
D-2
  6
Continuous
 62
     3
370
     9
100
AcDbLine
 10
403.0953418030911
 20
-454.8689049224436
 30
0.0
 11
403.0953418030911
 21
-455.6188950248506
 31
0.0
  0
LINE
  5
87
330
1F
100
AcDbEntity
  8
D-2
  6
Continuous
 62
     3
370
     9
100
AcDbLine
 10
333.0950799292788
 20
-479.3689115208388
 30
0.0
 11
333.0950799292788
 21
-461.8689775047915
 31
0.0
  0
LINE
  5
88
330
1F
100
AcDbEntity
  8
D-2
  6
Continuous
 62
     3
370
     9
100
AcDbLine
 10
410.5952428271622
 20
-481.8687960489216
 30
0.0
 11
335.5952428271622
 21
-481.8687960489216
 31
0.0
  0
LINE
  5
89
330
1F
100
AcDbEntity
  8
D-2
  6
Continuous
 62
     3
370
     9
100
AcDbLine
 10
413.095127355245
 20
-479.3689115208388
 30
0.0
 11
413.095127355245
 21
-461.8689775047915
 31
0.0
  0
LINE
  5
8A
330
1F
100
AcDbEntity
  8
D-2
  6
Continuous
 62
     3
370
     9
100
AcDbLine
 10
293.0949788913512
 20
-455.6188950248506
 30
0.0
 11
293.0949788913512
 21
-466.8689940007797
 31
0.0
  0
LINE
  5
8B
330
1F
100
AcDbEntity
  8
D-2
  6
Continuous
 62
     3
370
     9
100
AcDbLine
 10
453.0950118833278
 20
-455.6188950248506
 30
0.0
 11
453.0950118833278
 21
-466.8689940007797
 31
0.0
  0
LINE
  5
8C
330
1F
100
AcDbEntity
  8
D-2
  6
Continuous
 62
     3
370
     9
100
AcDbLine
 10
293.0949788913512
 20
-466.8689940007797
 30
0.0
 11
332.4700778672804
 21
-466.8689940007797
 31
0.0
  0
LINE
  5
8D
330
1F
100
AcDbEntity
  8
D-2
  6
Continuous
 62
     3
370
     9
100
AcDbLine
 10
413.7201603472213
 20
-466.8689940007797
 30
0.0
 11
453.0950118833278
 21
-466.8689940007797
 31
0.0
  0
LINE
  5
8E
330
1F
100
AcDbEntity
  8
D-2
  6
Continuous
 62
     3
370
     9
100
AcDbLine
 10
413.7201603472213
 20
-461.8689775047915
 30
0.0
 11
413.7201603472213
 21
-466.8689940007797
 31
0.0
  0
LINE
  5
8F
330
1F
100
AcDbEntity
  8
D-2
  6
Continuous
 62
     3
370
     9
100
AcDbLine
 10
332.4700778672804
 20
-461.8689775047915
 30
0.0
 11
332.4700778672804
 21
-466.8689940007797
 31
0.0
  0
LINE
  5
90
330
1F
100
AcDbEntity
  8
D-2
  6
Continuous
 62
     3
370
     9
100
AcDbLine
 10
335.5952428271622
 20
-419.1187993481193
 30
0.0
 11
335.5952428271622
 21
-452.1188587336767
 31
0.0
  0
LINE
  5
91
330
1F
100
AcDbEntity
  8
D-2
  6
Continuous
 62
     3
370
     9
100
AcDbLine
 10
410.5952428271622
 20
-419.1593794790314
 30
0.0
 11
410.5952428271622
 21
-452.1188587336767
 31
0.0
  0
LINE
  5
92
330
1F
100
AcDbEntity
  8
D-0
  6
Continuous
 62
     4
370
     9
100
AcDbLine
 10
510.9661138813218
 20
-359.0495038257903
 30
0.0
 11
488.0953747950676
 21
-355.6189981247768
 31
0.0
  0
LINE
  5
93
330
1F
100
AcDbEntity
  8
D-0
  6
Continuous
 62
     4
370
     9
100
AcDbLine
 10
513.0952098351859
 20
-361.521860673605
 30
0.0
 11
513.0952098351859
 21
-361.8688950248506
 31
0.0
  0
LINE
  5
94
330
1F
100
AcDbEntity
  8
D-D
  6
Continuous
 62
     7
370
     9
100
AcDbLine
 10
233.0952758191385
 20
-361.8688950248506
 30
0.0
 11
181.8248785297593
 21
-361.8688950248506
 31
0.0
  0
LINE
  5
95
330
1F
100
AcDbEntity
  8
D-3
  6
Continuous
 62
     3
370
     9
100
AcDbLine
 10
278.0954242830319
 20
-412.3688574964776
 30
0.0
 11
278.0954242830319
 21
-404.3688805908611
 31
0.0
  0
LINE
  5
96
330
1F
100
AcDbEntity
  8
D-3
  6
Continuous
 62
     3
370
     9
100
AcDbLine
 10
468.0955562509374
 20
-404.3688805908611
 30
0.0
 11
468.0955562509374
 21
-412.3688574964776
 31
0.0
  0
LINE
  5
97
330
1F
100
AcDbEntity
  8
D-2
  6
Continuous
 62
     3
370
     9
100
AcDbLine
 10
348.0949129073986
 20
-383.1187795529335
 30
0.0
 11
348.0949129073986
 21
-400.6910278571459
 31
0.0
  0
LINE
  5
98
330
1F
100
AcDbEntity
  8
D-2
  6
Continuous
 62
     3
370
     9
100
AcDbLine
 10
398.0950778672804
 20
-383.1187795529335
 30
0.0
 11
398.0950778672804
 21
-400.6188991488477
 31
0.0
  0
LINE
  5
99
330
1F
100
AcDbEntity
  8
D-D
  6
Continuous
 62
     7
370
     9
100
AcDbLine
 10
513.0952098351859
 20
-361.8688950248506
 30
0.0
 11
564.365607124565
 21
-361.8688950248506
 31
0.0
  0
LINE
  5
9A
330
1F
100
AcDbEntity
  8
D-0
  6
Continuous
 62
     4
370
     9
100
AcDbLine
 10
483.246605890665
 20
-381.8688372888921
 30
0.0
 11
467.9433189000611
 21
-381.8688372888921
 31
0.0
  0
LINE
  5
9B
330
1F
100
AcDbEntity
  8
D-A
  6
Continuous
 62
     2
370
     9
100
AcDbLine
 10
260.491905771234
 20
-388.1187960489216
 30
0.0
 11
260.491905771234
 21
-381.8688372888921
 31
0.0
  0
LINE
  5
9C
330
1F
100
AcDbEntity
  8
D-A
  6
Continuous
 62
     2
370
     9
100
AcDbLine
 10
280.6991407466882
 20
-388.1187960489216
 30
0.0
 11
280.6991407466882
 21
-381.8688372888921
 31
0.0
  0
LINE
  5
9D
330
1F
100
AcDbEntity
  8
D-A
  6
Continuous
 62
     2
370
     9
100
AcDbLine
 10
275.6473474678135
 20
-388.1187960489216
 30
0.0
 11
275.6473474678135
 21
-381.8688372888921
 31
0.0
  0
LINE
  5
9E
330
1F
100
AcDbEntity
  8
D-A
  6
Continuous
 62
     2
370
     9
100
AcDbLine
 10
265.5436990501088
 20
-388.1187960489216
 30
0.0
 11
265.5436990501088
 21
-381.8688372888921
 31
0.0
  0
LINE
  5
9F
330
1F
100
AcDbEntity
  8
D-A
  6
Continuous
 62
     2
370
     9
100
AcDbLine
 10
263.0178024106715
 20
-389.3688001729186
 30
0.0
 11
278.1732441072507
 21
-389.3688001729186
 31
0.0
  0
LINE
  5
A0
330
1F
100
AcDbEntity
  8
D-A
  6
Continuous
 62
     2
370
     9
100
AcDbLine
 10
280.6991407466882
 20
-381.8688372888921
 30
0.0
 11
278.0957645127882
 21
-381.8688372888921
 31
0.0
  0
LINE
  5
A1
330
1F
100
AcDbEntity
  8
D-A
  6
Continuous
 62
     2
370
     9
100
AcDbLine
 10
263.0952510751562
 20
-381.8688372888921
 30
0.0
 11
260.491905771234
 21
-381.8688372888921
 31
0.0
  0
LINE
  5
A2
330
1F
100
AcDbEntity
  8
D-0
  6
Continuous
 62
     4
370
     9
100
AcDbLine
 10
278.2471667542629
 20
-381.8688372888921
 30
0.0
 11
262.9438797636593
 21
-381.8688372888921
 31
0.0
  0
LINE
  5
A3
330
1F
100
AcDbEntity
  8
D-0
  6
Continuous
 62
     4
370
     9
100
AcDbLine
 10
259.491723078165
 20
-364.212954324629
 30
0.0
 11
260.4487584521622
 21
-379.5247161291581
 31
0.0
  0
LINE
  5
A4
330
1F
100
AcDbEntity
  8
D-0
  6
Continuous
 62
     4
370
     9
100
AcDbLine
 10
486.6987625761593
 20
-364.212954324629
 30
0.0
 11
485.7417272021622
 21
-379.5247161291581
 31
0.0
  0
LINE
  5
A5
330
1F
100
AcDbEntity
  8
D-A
  6
Continuous
 62
     2
370
     9
100
AcDbLine
 10
260.4921841410346
 20
-421.1188245045012
 30
0.0
 11
260.4921841410346
 21
-414.8688657444716
 31
0.0
  0
LINE
  5
A6
330
1F
100
AcDbEntity
  8
D-A
  6
Continuous
 62
     2
370
     9
100
AcDbLine
 10
280.699357256533
 20
-421.1188245045012
 30
0.0
 11
280.699357256533
 21
-414.8688657444716
 31
0.0
  0
LINE
  5
A7
330
1F
100
AcDbEntity
  8
D-A
  6
Continuous
 62
     2
370
     9
100
AcDbLine
 10
275.647625837614
 20
-421.1188245045012
 30
0.0
 11
275.647625837614
 21
-414.8688657444716
 31
0.0
  0
LINE
  5
A8
330
1F
100
AcDbEntity
  8
D-A
  6
Continuous
 62
     2
370
     9
100
AcDbLine
 10
265.5439155599536
 20
-421.1188245045012
 30
0.0
 11
265.5439155599536
 21
-414.8688657444716
 31
0.0
  0
LINE
  5
A9
330
1F
100
AcDbEntity
  8
D-A
  6
Continuous
 62
     2
370
     9
100
AcDbLine
 10
262.2463159736728
 20
-422.3688286284983
 30
0.0
 11
278.9447305442494
 21
-422.3688286284983
 31
0.0
  0
LINE
  5
AA
330
1F
100
AcDbEntity
  8
D-A
  6
Continuous
 62
     2
370
     9
100
AcDbLine
 10
261.0960610281757
 20
-412.3692286562116
 30
0.0
 11
261.0960610281757
 21
-414.8689276044274
 31
0.0
  0
LINE
  5
AB
330
1F
100
AcDbEntity
  8
D-A
  6
Continuous
 62
     2
370
     9
100
AcDbLine
 10
280.0956040893033
 20
-412.3692286562116
 30
0.0
 11
280.0956040893033
 21
-414.8689276044274
 31
0.0
  0
LINE
  5
AC
330
1F
100
AcDbEntity
  8
D-A
  6
Continuous
 62
     2
370
     9
100
AcDbLine
 10
268.095886170701
 20
-412.3688574964776
 30
0.0
 11
268.095886170701
 21
-414.8685564446934
 31
0.0
  0
LINE
  5
AD
330
1F
100
AcDbEntity
  8
D-A
  6
Continuous
 62
     2
370
     9
100
AcDbLine
 10
266.8458201867484
 20
-412.3688574964776
 30
0.0
 11
266.8458201867484
 21
-414.8685564446934
 31
0.0
  0
LINE
  5
AE
330
1F
100
AcDbEntity
  8
D-A
  6
Continuous
 62
     2
370
     9
100
AcDbLine
 10
260.4921841410346
 20
-414.8688657444716
 30
0.0
 11
280.699357256533
 21
-414.8688657444716
 31
0.0
  0
LINE
  5
AF
330
1F
100
AcDbEntity
  8
D-A
  6
Continuous
 62
     2
370
     9
100
AcDbLine
 10
485.6985489531124
 20
-388.1187960489216
 30
0.0
 11
485.6985489531124
 21
-381.8688372888921
 31
0.0
  0
LINE
  5
B0
330
1F
100
AcDbEntity
  8
D-A
  6
Continuous
 62
     2
370
     9
100
AcDbLine
 10
465.491375837614
 20
-388.1187960489216
 30
0.0
 11
465.491375837614
 21
-381.8688372888921
 31
0.0
  0
LINE
  5
B1
330
1F
100
AcDbEntity
  8
D-A
  6
Continuous
 62
     2
370
     9
100
AcDbLine
 10
470.543107256533
 20
-388.1187960489216
 30
0.0
 11
470.543107256533
 21
-381.8688372888921
 31
0.0
  0
LINE
  5
B2
330
1F
100
AcDbEntity
  8
D-A
  6
Continuous
 62
     2
370
     9
100
AcDbLine
 10
480.6468175341934
 20
-388.1187960489216
 30
0.0
 11
480.6468175341934
 21
-381.8688372888921
 31
0.0
  0
LINE
  5
B3
330
1F
100
AcDbEntity
  8
D-A
  6
Continuous
 62
     2
370
     9
100
AcDbLine
 10
483.1726832436528
 20
-389.3688001729186
 30
0.0
 11
468.0172415470734
 21
-389.3688001729186
 31
0.0
  0
LINE
  5
B4
330
1F
100
AcDbEntity
  8
D-A
  6
Continuous
 62
     2
370
     9
100
AcDbLine
 10
465.491375837614
 20
-381.8688372888921
 30
0.0
 11
468.0946902115583
 21
-381.8688372888921
 31
0.0
  0
LINE
  5
B5
330
1F
100
AcDbEntity
  8
D-A
  6
Continuous
 62
     2
370
     9
100
AcDbLine
 10
483.0952345791682
 20
-381.8688372888921
 30
0.0
 11
485.6985489531124
 21
-381.8688372888921
 31
0.0
  0
LINE
  5
B6
330
1F
100
AcDbEntity
  8
D-A
  6
Continuous
 62
     2
370
     9
100
AcDbLine
 10
485.0944246261486
 20
-412.3692286562116
 30
0.0
 11
485.0944246261486
 21
-414.8689276044274
 31
0.0
  0
LINE
  5
B7
330
1F
100
AcDbEntity
  8
D-A
  6
Continuous
 62
     2
370
     9
100
AcDbLine
 10
466.094881565021
 20
-412.3692286562116
 30
0.0
 11
466.094881565021
 21
-414.8689276044274
 31
0.0
  0
LINE
  5
B8
330
1F
100
AcDbEntity
  8
D-A
  6
Continuous
 62
     2
370
     9
100
AcDbLine
 10
473.0953253071031
 20
-412.3688574964776
 30
0.0
 11
473.0953253071031
 21
-414.8685564446934
 31
0.0
  0
LINE
  5
B9
330
1F
100
AcDbEntity
  8
D-A
  6
Continuous
 62
     2
370
     9
100
AcDbLine
 10
471.8452593231505
 20
-412.3688574964776
 30
0.0
 11
471.8452593231505
 21
-414.8685564446934
 31
0.0
  0
LINE
  5
BA
330
1F
100
AcDbEntity
  8
D-D
  6
Continuous
 62
     7
370
     9
100
AcDbLine
 10
181.8248785297593
 20
-391.8689012108462
 30
0.0
 11
253.0952180831799
 21
-391.8689012108462
 31
0.0
  0
LINE
  5
BB
330
1F
100
AcDbEntity
  8
D-D
  6
Continuous
 62
     7
370
     9
100
AcDbLine
 10
181.8248785297593
 20
-384.3689073968418
 30
0.0
 11
253.0952180831799
 21
-384.3689073968418
 31
0.0
  0
LINE
  5
BC
330
1F
100
AcDbEntity
  8
D-D
  6
Continuous
 62
     7
370
     9
100
AcDbLine
 10
181.8248785297593
 20
-376.8689135828374
 30
0.0
 11
253.0952180831799
 21
-376.8689135828374
 31
0.0
  0
LINE
  5
BD
330
1F
100
AcDbEntity
  8
D-D
  6
Continuous
 62
     7
370
     9
100
AcDbLine
 10
564.365607124565
 20
-391.8689012108462
 30
0.0
 11
493.0952675711445
 21
-391.8689012108462
 31
0.0
  0
LINE
  5
BE
330
1F
100
AcDbEntity
  8
D-D
  6
Continuous
 62
     7
370
     9
100
AcDbLine
 10
564.365607124565
 20
-384.3689073968418
 30
0.0
 11
493.0952675711445
 21
-384.3689073968418
 31
0.0
  0
LINE
  5
BF
330
1F
100
AcDbEntity
  8
D-D
  6
Continuous
 62
     7
370
     9
100
AcDbLine
 10
564.365607124565
 20
-376.8689135828374
 30
0.0
 11
493.0952675711445
 21
-376.8689135828374
 31
0.0
  0
LINE
  5
C0
330
1F
100
AcDbEntity
  8
D-D
  6
Continuous
 62
     7
370
     9
100
AcDbLine
 10
564.365607124565
 20
-369.3688888388551
 30
0.0
 11
493.0952675711445
 21
-369.3688888388551
 31
0.0
  0
LINE
  5
C1
330
1F
100
AcDbEntity
  8
D-2
  6
JWW_CENTER1
 62
     3
370
     9
100
AcDbLine
 10
373.0952428271622
 20
-350.7809309927032
 30
0.0
 11
373.0952428271622
 21
-485.1938305255368
 31
0.0
  0
LINE
  5
C2
330
1F
100
AcDbEntity
  8
D-5
  6
JWW_PHANTOM2
 62
     7
370
     9
100
AcDbLine
 10
452.220250250357
 20
-283.1186970729925
 30
0.0
 11
293.9702044739895
 21
-283.1186970729925
 31
0.0
  0
LINE
  5
C3
330
1F
100
AcDbEntity
  8
D-5
  6
JWW_PHANTOM2
 62
     7
370
     9
100
AcDbLine
 10
348.0949129073986
 20
-309.3687218169748
 30
0.0
 11
348.0949129073986
 21
-326.9409701211873
 31
0.0
  0
LINE
  5
C4
330
1F
100
AcDbEntity
  8
D-5
  6
JWW_PHANTOM2
 62
     7
370
     9
100
AcDbLine
 10
398.0950778672804
 20
-309.3687218169748
 30
0.0
 11
398.0950778672804
 21
-326.8688414128891
 31
0.0
  0
LINE
  5
C5
330
1F
100
AcDbEntity
  8
D-5
  6
JWW_PHANTOM2
 62
     7
370
     9
100
AcDbLine
 10
291.4702271559734
 20
-294.368734188966
 30
0.0
 11
291.4702271559734
 21
-285.6187671809423
 31
0.0
  0
LINE
  5
C6
330
1F
100
AcDbEntity
  8
D-5
  6
JWW_PHANTOM2
 62
     7
370
     9
100
AcDbLine
 10
340.5948881634163
 20
-301.8686970729926
 30
0.0
 11
296.2202366411666
 21
-301.8686970729926
 31
0.0
  0
LINE
  5
C7
330
1F
100
AcDbEntity
  8
D-5
  6
JWW_PHANTOM2
 62
     7
370
     9
100
AcDbLine
 10
296.2202366411666
 20
-296.86874243696
 30
0.0
 11
296.2202366411666
 21
-301.8686970729926
 31
0.0
  0
LINE
  5
C8
330
1F
100
AcDbEntity
  8
D-5
  6
JWW_PHANTOM2
 62
     7
370
     9
100
AcDbLine
 10
454.720258498351
 20
-294.368734188966
 30
0.0
 11
454.720258498351
 21
-285.6187671809423
 31
0.0
  0
LINE
  5
C9
330
1F
100
AcDbEntity
  8
D-5
  6
JWW_PHANTOM2
 62
     7
370
     9
100
AcDbLine
 10
405.5950716812848
 20
-301.8686970729926
 30
0.0
 11
449.9702490131577
 21
-301.8686970729926
 31
0.0
  0
LINE
  5
CA
330
1F
100
AcDbEntity
  8
D-5
  6
JWW_PHANTOM2
 62
     7
370
     9
100
AcDbLine
 10
449.9702490131577
 20
-296.86874243696
 30
0.0
 11
449.9702490131577
 21
-301.8686970729926
 31
0.0
  0
LINE
  5
CB
330
1F
100
AcDbEntity
  8
D-A
  6
Continuous
 62
     2
370
     9
100
AcDbLine
 10
260.491905771234
 20
-429.3559415501357
 30
0.0
 11
260.491905771234
 21
-423.3817544724331
 31
0.0
  0
LINE
  5
CC
330
1F
100
AcDbEntity
  8
D-A
  6
Continuous
 62
     2
370
     9
100
AcDbLine
 10
262.2463159736728
 20
-422.3688286284983
 30
0.0
 11
260.491905771234
 21
-423.3817544724331
 31
0.0
  0
LINE
  5
CD
330
1F
100
AcDbEntity
  8
D-A
  6
Continuous
 62
     2
370
     9
100
AcDbLine
 10
263.5954816065911
 20
-431.8694352684634
 30
0.0
 11
263.5954816065911
 21
-433.0614147540525
 31
0.0
  0
LINE
  5
CE
330
1F
100
AcDbEntity
  8
D-A
  6
Continuous
 62
     2
370
     9
100
AcDbLine
 10
262.9705104745702
 20
-430.7869479043904
 30
0.0
 11
260.491905771234
 21
-429.3559415501357
 31
0.0
  0
LINE
  5
CF
330
1F
100
AcDbEntity
  8
D-A
  6
Continuous
 62
     2
370
     9
100
AcDbLine
 10
278.2205051133741
 20
-430.7869479043904
 30
0.0
 11
280.6991098167103
 21
-429.3559415501357
 31
0.0
  0
LINE
  5
D0
330
1F
100
AcDbEntity
  8
D-A
  6
Continuous
 62
     2
370
     9
100
AcDbLine
 10
277.5955030513757
 20
-433.0614147540525
 30
0.0
 11
277.5955030513757
 21
-431.8694352684634
 31
0.0
  0
LINE
  5
D1
330
1F
100
AcDbEntity
  8
D-A
  6
Continuous
 62
     2
370
     9
100
AcDbLine
 10
280.6991098167103
 20
-429.3559415501357
 30
0.0
 11
280.6991098167103
 21
-423.3817544724331
 31
0.0
  0
LINE
  5
D2
330
1F
100
AcDbEntity
  8
D-A
  6
Continuous
 62
     2
370
     9
100
AcDbLine
 10
265.5436990501088
 20
-429.3559415501357
 30
0.0
 11
265.5436990501088
 21
-423.3817544724331
 31
0.0
  0
LINE
  5
D3
330
1F
100
AcDbEntity
  8
D-A
  6
Continuous
 62
     2
370
     9
100
AcDbLine
 10
275.6473165378356
 20
-429.3559415501357
 30
0.0
 11
275.6473165378356
 21
-423.3817544724331
 31
0.0
  0
LINE
  5
D4
330
1F
100
AcDbEntity
  8
D-A
  6
Continuous
 62
     2
370
     9
100
AcDbLine
 10
278.9447305442494
 20
-422.3688286284983
 30
0.0
 11
280.6991098167103
 21
-423.3817544724331
 31
0.0
  0
LINE
  5
D5
330
1F
100
AcDbEntity
  8
D-A
  6
Continuous
 62
     2
370
     9
100
AcDbLine
 10
262.2463778336286
 20
-430.3688364640927
 30
0.0
 11
278.9446686842937
 21
-430.3688364640927
 31
0.0
  0
LINE
  5
D6
330
1F
100
AcDbEntity
  8
D-A
  6
JWW_CENTER1
 62
     2
370
     9
100
AcDbLine
 10
270.5955232589611
 20
-363.3211193438964
 30
0.0
 11
270.5955232589611
 21
-441.4886583734043
 31
0.0
  0
LINE
  5
D7
330
1F
100
AcDbEntity
  8
D-A
  6
JWW_CENTER1
 62
     2
370
     9
100
AcDbLine
 10
475.5949623953632
 20
-363.3211193438964
 30
0.0
 11
475.5949623953632
 21
-441.4886583734043
 31
0.0
  0
LINE
  5
D8
330
1F
100
AcDbEntity
  8
D-A
  6
Continuous
 62
     2
370
     9
100
AcDbLine
 10
265.5957232728176
 20
-389.3688001729186
 30
0.0
 11
265.5957232728176
 21
-404.3688496608832
 31
0.0
  0
LINE
  5
D9
330
1F
100
AcDbEntity
  8
D-A
  6
Continuous
 62
     2
370
     9
100
AcDbLine
 10
274.0956832700465
 20
-389.3688001729186
 30
0.0
 11
274.0956832700465
 21
-404.3688496608832
 31
0.0
  0
LINE
  5
DA
330
1F
100
AcDbEntity
  8
D-A
  6
Continuous
 62
     2
370
     9
100
AcDbLine
 10
275.5958799847054
 20
-389.3688001729186
 30
0.0
 11
275.5958799847054
 21
-404.3688496608832
 31
0.0
  0
LINE
  5
DB
330
1F
100
AcDbEntity
  8
D-A
  6
Continuous
 62
     2
370
     9
100
AcDbLine
 10
267.0959818474325
 20
-389.3688001729186
 30
0.0
 11
267.0959818474325
 21
-404.3688496608832
 31
0.0
  0
LINE
  5
DC
330
1F
100
AcDbEntity
  8
D-D
  6
Continuous
 62
     7
370
     9
100
AcDbLine
 10
181.8248785297593
 20
-399.3688950248506
 30
0.0
 11
265.5957232728176
 21
-399.3688950248506
 31
0.0
  0
LINE
  5
DD
330
1F
100
AcDbEntity
  8
D-D
  6
Continuous
 62
     7
370
     9
100
AcDbLine
 10
275.5958799847054
 20
-399.3688950248506
 30
0.0
 11
348.0949129073986
 21
-399.3688950248506
 31
0.0
  0
LINE
  5
DE
330
1F
100
AcDbEntity
  8
D-A
  6
Continuous
 62
     2
370
     9
100
AcDbLine
 10
472.0948023842778
 20
-389.3688001729186
 30
0.0
 11
472.0948023842778
 21
-404.3688496608832
 31
0.0
  0
LINE
  5
DF
330
1F
100
AcDbEntity
  8
D-A
  6
Continuous
 62
     2
370
     9
100
AcDbLine
 10
470.5945747396411
 20
-389.3688001729186
 30
0.0
 11
470.5945747396411
 21
-404.3688496608832
 31
0.0
  0
LINE
  5
E0
330
1F
100
AcDbEntity
  8
D-A
  6
Continuous
 62
     2
370
     9
100
AcDbLine
 10
479.0945038068919
 20
-389.3688001729186
 30
0.0
 11
479.0945038068919
 21
-404.3688496608832
 31
0.0
  0
LINE
  5
E1
330
1F
100
AcDbEntity
  8
D-A
  6
Continuous
 62
     2
370
     9
100
AcDbLine
 10
480.5947314515288
 20
-389.3688001729186
 30
0.0
 11
480.5947314515288
 21
-404.3688496608832
 31
0.0
  0
LINE
  5
E2
330
1F
100
AcDbEntity
  8
D-D
  6
Continuous
 62
     7
370
     9
100
AcDbLine
 10
398.0950778672804
 20
-399.3688950248506
 30
0.0
 11
470.5945747396411
 21
-399.3688950248506
 31
0.0
  0
LINE
  5
E3
330
1F
100
AcDbEntity
  8
D-D
  6
Continuous
 62
     7
370
     9
100
AcDbLine
 10
480.5947314515288
 20
-399.3688950248506
 30
0.0
 11
564.365607124565
 21
-399.3688950248506
 31
0.0
  0
LINE
  5
E4
330
1F
100
AcDbEntity
  8
D-D
  6
Continuous
 62
     7
370
     9
100
AcDbLine
 10
253.0952180831799
 20
-361.8688950248506
 30
0.0
 11
253.0952180831799
 21
-404.3688496608832
 31
0.0
  0
LINE
  5
E5
330
1F
100
AcDbEntity
  8
D-D
  6
Continuous
 62
     7
370
     9
100
AcDbLine
 10
493.0952675711445
 20
-361.8688950248506
 30
0.0
 11
493.0952675711445
 21
-404.3688496608832
 31
0.0
  0
LINE
  5
E6
330
1F
100
AcDbEntity
  8
D-A
  6
Continuous
 62
     2
370
     9
100
AcDbLine
 10
485.6983015132898
 20
-421.1188245045012
 30
0.0
 11
485.6983015132898
 21
-414.8688657444716
 31
0.0
  0
LINE
  5
E7
330
1F
100
AcDbEntity
  8
D-A
  6
Continuous
 62
     2
370
     9
100
AcDbLine
 10
465.4911283977913
 20
-421.1188245045012
 30
0.0
 11
465.4911283977913
 21
-414.8688657444716
 31
0.0
  0
LINE
  5
E8
330
1F
100
AcDbEntity
  8
D-A
  6
Continuous
 62
     2
370
     9
100
AcDbLine
 10
470.5428598167103
 20
-421.1188245045012
 30
0.0
 11
470.5428598167103
 21
-414.8688657444716
 31
0.0
  0
LINE
  5
E9
330
1F
100
AcDbEntity
  8
D-A
  6
Continuous
 62
     2
370
     9
100
AcDbLine
 10
480.6465700943708
 20
-421.1188245045012
 30
0.0
 11
480.6465700943708
 21
-414.8688657444716
 31
0.0
  0
LINE
  5
EA
330
1F
100
AcDbEntity
  8
D-A
  6
Continuous
 62
     2
370
     9
100
AcDbLine
 10
483.9442006106291
 20
-422.3688286284983
 30
0.0
 11
467.2457241800971
 21
-422.3688286284983
 31
0.0
  0
LINE
  5
EB
330
1F
100
AcDbEntity
  8
D-A
  6
Continuous
 62
     2
370
     9
100
AcDbLine
 10
485.6983015132898
 20
-414.8688657444716
 30
0.0
 11
465.4911283977913
 21
-414.8688657444716
 31
0.0
  0
LINE
  5
EC
330
1F
100
AcDbEntity
  8
D-A
  6
Continuous
 62
     2
370
     9
100
AcDbLine
 10
485.6985489531124
 20
-429.3559415501357
 30
0.0
 11
485.6985489531124
 21
-423.3817544724331
 31
0.0
  0
LINE
  5
ED
330
1F
100
AcDbEntity
  8
D-A
  6
Continuous
 62
     2
370
     9
100
AcDbLine
 10
483.9442006106291
 20
-422.3688286284983
 30
0.0
 11
485.6985489531124
 21
-423.3817544724331
 31
0.0
  0
LINE
  5
EE
330
1F
100
AcDbEntity
  8
D-A
  6
Continuous
 62
     2
370
     9
100
AcDbLine
 10
482.5950349777111
 20
-431.8694352684634
 30
0.0
 11
482.5950349777111
 21
-433.0614147540525
 31
0.0
  0
LINE
  5
EF
330
1F
100
AcDbEntity
  8
D-A
  6
Continuous
 62
     2
370
     9
100
AcDbLine
 10
483.2199442497762
 20
-430.7869479043904
 30
0.0
 11
485.6985489531124
 21
-429.3559415501357
 31
0.0
  0
LINE
  5
F0
330
1F
100
AcDbEntity
  8
D-A
  6
Continuous
 62
     2
370
     9
100
AcDbLine
 10
467.9699805409502
 20
-430.7869479043904
 30
0.0
 11
465.491375837614
 21
-429.3559415501357
 31
0.0
  0
LINE
  5
F1
330
1F
100
AcDbEntity
  8
D-A
  6
Continuous
 62
     2
370
     9
100
AcDbLine
 10
468.5950135329265
 20
-433.0614147540525
 30
0.0
 11
468.5950135329265
 21
-431.8694352684634
 31
0.0
  0
LINE
  5
F2
330
1F
100
AcDbEntity
  8
D-A
  6
Continuous
 62
     2
370
     9
100
AcDbLine
 10
465.491375837614
 20
-429.3559415501357
 30
0.0
 11
465.491375837614
 21
-423.3817544724331
 31
0.0
  0
LINE
  5
F3
330
1F
100
AcDbEntity
  8
D-A
  6
Continuous
 62
     2
370
     9
100
AcDbLine
 10
480.6468175341934
 20
-429.3559415501357
 30
0.0
 11
480.6468175341934
 21
-423.3817544724331
 31
0.0
  0
LINE
  5
F4
330
1F
100
AcDbEntity
  8
D-A
  6
Continuous
 62
     2
370
     9
100
AcDbLine
 10
470.5431691164885
 20
-429.3559415501357
 30
0.0
 11
470.5431691164885
 21
-423.3817544724331
 31
0.0
  0
LINE
  5
F5
330
1F
100
AcDbEntity
  8
D-A
  6
Continuous
 62
     2
370
     9
100
AcDbLine
 10
467.2457241800971
 20
-422.3688286284983
 30
0.0
 11
465.491375837614
 21
-423.3817544724331
 31
0.0
  0
LINE
  5
F6
330
1F
100
AcDbEntity
  8
D-A
  6
Continuous
 62
     2
370
     9
100
AcDbLine
 10
483.9440768907179
 20
-430.3688364640927
 30
0.0
 11
467.2458479000085
 21
-430.3688364640927
 31
0.0
  0
LINE
  5
F7
330
1F
100
AcDbEntity
  8
D-5
  6
JWW_PHANTOM2
 62
     7
370
     9
100
AcDbLine
 10
452.220250250357
 20
-296.86874243696
 30
0.0
 11
293.9702044739895
 21
-296.86874243696
 31
0.0
  0
LINE
  5
F8
330
1F
100
AcDbEntity
  8
D-0
  6
Continuous
 62
     4
370
     9
100
AcDbLine
 10
290.0091568632687
 20
-381.8688372888921
 30
0.0
 11
456.1813287910556
 21
-381.8688372888921
 31
0.0
  0
LINE
  5
F9
330
1F
100
AcDbEntity
  8
D-0
  6
Continuous
 62
     4
370
     9
100
AcDbLine
 10
513.0952098351859
 20
-361.8688950248506
 30
0.0
 11
233.0952758191385
 21
-361.8688950248506
 31
0.0
  0
LINE
  5
FA
330
1F
100
AcDbEntity
  8
D-D
  6
Continuous
 62
     7
370
     9
100
AcDbLine
 10
181.8248785297593
 20
-369.3688888388551
 30
0.0
 11
253.0952180831799
 21
-369.3688888388551
 31
0.0
  0
LINE
  5
FB
330
1F
100
AcDbEntity
  8
D-5
  6
JWW_PHANTOM2
 62
     7
370
     9
100
AcDbLine
 10
335.5952428271622
 20
-353.9172926045592
 30
0.0
 11
335.5952428271622
 21
-345.4093217430728
 31
0.0
  0
LINE
  5
FC
330
1F
100
AcDbEntity
  8
D-5
  6
JWW_PHANTOM2
 62
     7
370
     9
100
AcDbLine
 10
410.5952428271622
 20
-353.9172926045592
 30
0.0
 11
410.5952428271622
 21
-345.4093217430728
 31
0.0
  0
LINE
  5
FD
330
1F
100
AcDbEntity
  8
D-0
  6
Continuous
 62
     4
370
     9
100
AcDbLine
 10
280.9375180858192
 20
-376.4010358082123
 30
0.0
 11
280.7422880657601
 21
-379.5247161291581
 31
0.0
  0
LINE
  5
FE
330
1F
100
AcDbEntity
  8
D-0
  6
Continuous
 62
     4
370
     9
100
AcDbLine
 10
457.7675417740583
 20
-369.3688888388551
 30
0.0
 11
288.4229129502882
 21
-369.3688888388551
 31
0.0
  0
LINE
  5
FF
330
1F
100
AcDbEntity
  8
D-0
  6
Continuous
 62
     4
370
     9
100
AcDbLine
 10
465.2529675685051
 20
-376.4010358082123
 30
0.0
 11
465.4481975885643
 21
-379.5247161291581
 31
0.0
  0
LINE
  5
100
330
1F
100
AcDbEntity
  8
D-0
  6
Continuous
 62
     4
370
     9
100
AcDbLine
 10
461.9946799840455
 20
-370.6735771636546
 30
0.0
 11
461.142744674713
 21
-377.4889668483832
 31
0.0
  0
LINE
  5
101
330
1F
100
AcDbEntity
  8
D-0
  6
Continuous
 62
     4
370
     9
100
AcDbLine
 10
284.1958366002564
 20
-370.6735771636546
 30
0.0
 11
285.0477719095892
 21
-377.4889668483832
 31
0.0
  0
ARC
  5
102
330
1F
100
AcDbEntity
  8
D-0
  6
Continuous
 62
     4
370
     9
100
AcDbCircle
 10
235.5951603472213
 20
-361.521860673605
 30
0.0
 40
2.500000032218727
100
AcDbArc
 50
98.53070068359375
 51
180.0
  0
ARC
  5
103
330
1F
100
AcDbEntity
  8
D-2
  6
Continuous
 62
     3
370
     9
100
AcDbCircle
 10
335.5952428271622
 20
-479.3689115208388
 30
0.0
 40
2.500000032218727
100
AcDbArc
 50
180.0
 51
270.0
  0
ARC
  5
104
330
1F
100
AcDbEntity
  8
D-2
  6
Continuous
 62
     3
370
     9
100
AcDbCircle
 10
410.5952428271622
 20
-479.3689115208388
 30
0.0
 40
2.500000032218727
100
AcDbArc
 50
270.0
 51
0.0
  0
ARC
  5
105
330
1F
100
AcDbEntity
  8
D-2
  6
Continuous
 62
     3
370
     9
100
AcDbCircle
 10
348.0951603472213
 20
-419.1593794790314
 30
0.0
 40
12.50000064437454
100
AcDbArc
 50
112.0243377685547
 51
180.0
  0
ARC
  5
106
330
1F
100
AcDbEntity
  8
D-2
  6
Continuous
 62
     3
370
     9
100
AcDbCircle
 10
398.0950778672804
 20
-419.1593794790314
 30
0.0
 40
12.50000064437454
100
AcDbArc
 50
0.0
 51
67.9756622314453
  0
ARC
  5
107
330
1F
100
AcDbEntity
  8
D-2
  6
Continuous
 62
     3
370
     9
100
AcDbCircle
 10
340.5952283931726
 20
-400.6188991488477
 30
0.0
 40
7.500000096656181
100
AcDbArc
 50
292.0240478515625
 51
359.4492034912109
  0
ARC
  5
108
330
1F
100
AcDbEntity
  8
D-2
  6
Continuous
 62
     3
370
     9
100
AcDbCircle
 10
405.5949788913512
 20
-400.6188991488477
 30
0.0
 40
7.500000096656181
100
AcDbArc
 50
180.0
 51
247.9759521484375
  0
ARC
  5
109
330
1F
100
AcDbEntity
  8
D-0
  6
Continuous
 62
     4
370
     9
100
AcDbCircle
 10
510.5953253071031
 20
-361.521860673605
 30
0.0
 40
2.500000032218727
100
AcDbArc
 50
0.0
 51
81.46929931640625
  0
ARC
  5
10A
330
1F
100
AcDbEntity
  8
D-A
  6
Continuous
 62
     2
370
     9
100
AcDbCircle
 10
270.5955232589611
 20
-378.5354517182629
 30
0.0
 40
10.83333975559956
100
AcDbArc
 50
242.2042083740235
 51
297.7957916259766
  0
ARC
  5
10B
330
1F
100
AcDbEntity
  8
D-A
  6
Continuous
 62
     2
370
     9
100
AcDbCircle
 10
278.1732441072507
 20
-386.1917347102392
 30
0.0
 40
3.177055072140049
100
AcDbArc
 50
217.3407897949219
 51
322.6592102050781
  0
ARC
  5
10C
330
1F
100
AcDbEntity
  8
D-A
  6
Continuous
 62
     2
370
     9
100
AcDbCircle
 10
263.0178024106715
 20
-386.1917347102392
 30
0.0
 40
3.177055072140049
100
AcDbArc
 50
217.3407897949219
 51
322.6592102050781
  0
ARC
  5
10D
330
1F
100
AcDbEntity
  8
D-0
  6
Continuous
 62
     4
370
     9
100
AcDbCircle
 10
262.9438797636593
 20
-379.368829040898
 30
0.0
 40
2.500000032218727
100
AcDbArc
 50
183.576416015625
 51
270.0
  0
ARC
  5
10E
330
1F
100
AcDbEntity
  8
D-0
  6
Continuous
 62
     4
370
     9
100
AcDbCircle
 10
278.2471667542629
 20
-379.368829040898
 30
0.0
 40
2.500000032218727
100
AcDbArc
 50
270.0
 51
356.423583984375
  0
ARC
  5
10F
330
1F
100
AcDbEntity
  8
D-0
  6
Continuous
 62
     4
370
     9
100
AcDbCircle
 10
256.9966017666682
 20
-364.3689032728448
 30
0.0
 40
2.500000032218727
100
AcDbArc
 50
3.576416015625
 51
90.00000000000001
  0
ARC
  5
110
330
1F
100
AcDbEntity
  8
D-0
  6
Continuous
 62
     4
370
     9
100
AcDbCircle
 10
483.246605890665
 20
-379.368829040898
 30
0.0
 40
2.500000032218727
100
AcDbArc
 50
270.0
 51
356.423583984375
  0
ARC
  5
111
330
1F
100
AcDbEntity
  8
D-0
  6
Continuous
 62
     4
370
     9
100
AcDbCircle
 10
467.9433189000611
 20
-379.368829040898
 30
0.0
 40
2.500000032218727
100
AcDbArc
 50
183.576416015625
 51
270.0
  0
ARC
  5
112
330
1F
100
AcDbEntity
  8
D-0
  6
Continuous
 62
     4
370
     9
100
AcDbCircle
 10
489.1938838876562
 20
-364.3689032728448
 30
0.0
 40
2.500000032218727
100
AcDbArc
 50
90.0
 51
176.423583984375
  0
ARC
  5
113
330
1F
100
AcDbEntity
  8
D-0
  6
Continuous
 62
     4
370
     9
100
AcDbCircle
 10
456.1813287910556
 20
-376.8688207929039
 30
0.0
 40
5.000000064437454
100
AcDbArc
 50
270.0
 51
352.8752899169922
  0
ARC
  5
114
330
1F
100
AcDbEntity
  8
D-0
  6
Continuous
 62
     4
370
     9
100
AcDbCircle
 10
290.0091568632687
 20
-376.8688207929039
 30
0.0
 40
5.000000064437454
100
AcDbArc
 50
187.1247100830078
 51
270.0
  0
ARC
  5
115
330
1F
100
AcDbEntity
  8
D-A
  6
Continuous
 62
     2
370
     9
100
AcDbCircle
 10
270.5957706987838
 20
-411.5354801738425
 30
0.0
 40
10.83333975559956
100
AcDbArc
 50
242.2042083740235
 51
297.7957916259766
  0
ARC
  5
116
330
1F
100
AcDbEntity
  8
D-A
  6
Continuous
 62
     2
370
     9
100
AcDbCircle
 10
278.1734915470734
 20
-419.1917631658188
 30
0.0
 40
3.177055072140049
100
AcDbArc
 50
217.3407897949219
 51
322.6592102050781
  0
ARC
  5
117
330
1F
100
AcDbEntity
  8
D-A
  6
Continuous
 62
     2
370
     9
100
AcDbCircle
 10
263.0180498504939
 20
-419.1917631658188
 30
0.0
 40
3.177055072140049
100
AcDbArc
 50
217.3407897949219
 51
322.6592102050781
  0
ARC
  5
118
330
1F
100
AcDbEntity
  8
D-A
  6
Continuous
 62
     2
370
     9
100
AcDbCircle
 10
475.5949623953632
 20
-378.5354517182629
 30
0.0
 40
10.83333975559956
100
AcDbArc
 50
242.2042083740235
 51
297.7957916259766
  0
ARC
  5
119
330
1F
100
AcDbEntity
  8
D-A
  6
Continuous
 62
     2
370
     9
100
AcDbCircle
 10
468.0172415470734
 20
-386.1917347102392
 30
0.0
 40
3.177055072140049
100
AcDbArc
 50
217.3407897949219
 51
322.6592102050781
  0
ARC
  5
11A
330
1F
100
AcDbEntity
  8
D-A
  6
Continuous
 62
     2
370
     9
100
AcDbCircle
 10
483.1726832436528
 20
-386.1917347102392
 30
0.0
 40
3.177055072140049
100
AcDbArc
 50
217.3407897949219
 51
322.6592102050781
  0
ARC
  5
11B
330
1F
100
AcDbEntity
  8
D-5
  6
JWW_PHANTOM2
 62
     7
370
     9
100
AcDbCircle
 10
293.9702044739895
 20
-285.6187671809423
 30
0.0
 40
2.500000032218727
100
AcDbArc
 50
90.0
 51
180.0
  0
ARC
  5
11C
330
1F
100
AcDbEntity
  8
D-5
  6
JWW_PHANTOM2
 62
     7
370
     9
100
AcDbCircle
 10
452.220250250357
 20
-285.6187671809423
 30
0.0
 40
2.500000032218727
100
AcDbArc
 50
0.0
 51
90.0
  0
ARC
  5
11D
330
1F
100
AcDbEntity
  8
D-5
  6
JWW_PHANTOM2
 62
     7
370
     9
100
AcDbCircle
 10
340.5948881634163
 20
-309.3687218169748
 30
0.0
 40
7.500000096656181
100
AcDbArc
 50
0.0
 51
90.0
  0
ARC
  5
11E
330
1F
100
AcDbEntity
  8
D-5
  6
JWW_PHANTOM2
 62
     7
370
     9
100
AcDbCircle
 10
405.5950716812848
 20
-309.3687218169748
 30
0.0
 40
7.500000096656181
100
AcDbArc
 50
90.0
 51
180.0
  0
ARC
  5
11F
330
1F
100
AcDbEntity
  8
D-5
  6
JWW_PHANTOM2
 62
     7
370
     9
100
AcDbCircle
 10
293.9702044739895
 20
-294.368734188966
 30
0.0
 40
2.500000032218727
100
AcDbArc
 50
180.0
 51
270.0
  0
ARC
  5
120
330
1F
100
AcDbEntity
  8
D-5
  6
JWW_PHANTOM2
 62
     7
370
     9
100
AcDbCircle
 10
452.220250250357
 20
-294.368734188966
 30
0.0
 40
2.500000032218727
100
AcDbArc
 50
270.0
 51
0.0
  0
ARC
  5
121
330
1F
100
AcDbEntity
  8
D-5
  6
JWW_PHANTOM2
 62
     7
370
     9
100
AcDbCircle
 10
348.0951603472213
 20
-345.4093217430728
 30
0.0
 40
12.50000064437454
100
AcDbArc
 50
112.0243377685547
 51
180.0
  0
ARC
  5
122
330
1F
100
AcDbEntity
  8
D-5
  6
JWW_PHANTOM2
 62
     7
370
     9
100
AcDbCircle
 10
340.5952283931726
 20
-326.8688414128891
 30
0.0
 40
7.500000096656181
100
AcDbArc
 50
292.0240478515625
 51
359.4492034912109
  0
ARC
  5
123
330
1F
100
AcDbEntity
  8
D-5
  6
JWW_PHANTOM2
 62
     7
370
     9
100
AcDbCircle
 10
398.0953253071031
 20
-345.4093217430728
 30
0.0
 40
12.50000064437454
100
AcDbArc
 50
0.0
 51
67.9756622314453
  0
ARC
  5
124
330
1F
100
AcDbEntity
  8
D-5
  6
JWW_PHANTOM2
 62
     7
370
     9
100
AcDbCircle
 10
405.5952572611517
 20
-326.8688414128891
 30
0.0
 40
7.500000096656181
100
AcDbArc
 50
180.5507965087891
 51
247.9759521484375
  0
ARC
  5
125
330
1F
100
AcDbEntity
  8
D-A
  6
Continuous
 62
     2
370
     9
100
AcDbCircle
 10
270.5955232589611
 20
-417.2647636870921
 30
0.0
 40
13.10409210823678
100
AcDbArc
 50
247.3243103027344
 51
292.6756896972656
  0
ARC
  5
126
330
1F
100
AcDbEntity
  8
D-A
  6
Continuous
 62
     2
370
     9
100
AcDbCircle
 10
262.2463778336286
 20
-424.4956048340251
 30
0.0
 40
5.873256277393651
100
AcDbArc
 50
270.0
 51
304.1535186767578
  0
ARC
  5
127
330
1F
100
AcDbEntity
  8
D-A
  6
Continuous
 62
     2
370
     9
100
AcDbCircle
 10
270.5955232589611
 20
-435.4729323354767
 30
0.0
 40
13.10409210823678
100
AcDbArc
 50
67.32431030273438
 51
112.6756896972656
  0
ARC
  5
128
330
1F
100
AcDbEntity
  8
D-A
  6
Continuous
 62
     2
370
     9
100
AcDbCircle
 10
262.2463778336286
 20
-428.2420602585659
 30
0.0
 40
5.873256277393651
100
AcDbArc
 50
55.84648132324219
 51
90.0
  0
ARC
  5
129
330
1F
100
AcDbEntity
  8
D-A
  6
Continuous
 62
     2
370
     9
100
AcDbCircle
 10
270.5955232589611
 20
-430.3688364640927
 30
0.0
 40
7.500000096656181
100
AcDbArc
 50
201.0391845703125
 51
338.9608154296875
  0
ARC
  5
12A
330
1F
100
AcDbEntity
  8
D-A
  6
Continuous
 62
     2
370
     9
100
AcDbCircle
 10
262.3455084125718
 20
-431.8694352684634
 30
0.0
 40
1.250000016109364
100
AcDbArc
 50
0.0
 51
59.99960327148438
  0
ARC
  5
12B
330
1F
100
AcDbEntity
  8
D-A
  6
Continuous
 62
     2
370
     9
100
AcDbCircle
 10
278.9446686842937
 20
-424.4956048340251
 30
0.0
 40
5.873256277393651
100
AcDbArc
 50
235.8464813232422
 51
270.0
  0
ARC
  5
12C
330
1F
100
AcDbEntity
  8
D-A
  6
Continuous
 62
     2
370
     9
100
AcDbCircle
 10
278.9446686842937
 20
-428.2420602585659
 30
0.0
 40
5.873256277393651
100
AcDbArc
 50
90.0
 51
124.1535186767578
  0
ARC
  5
12D
330
1F
100
AcDbEntity
  8
D-A
  6
Continuous
 62
     2
370
     9
100
AcDbCircle
 10
278.8455071753726
 20
-431.8694352684634
 30
0.0
 40
1.250000016109364
100
AcDbArc
 50
120.0003967285156
 51
180.0
  0
ARC
  5
12E
330
1F
100
AcDbEntity
  8
D-A
  6
Continuous
 62
     2
370
     9
100
AcDbCircle
 10
475.5947149555406
 20
-411.5354801738425
 30
0.0
 40
10.83333975559956
100
AcDbArc
 50
242.2042083740235
 51
297.7957916259766
  0
ARC
  5
12F
330
1F
100
AcDbEntity
  8
D-A
  6
Continuous
 62
     2
370
     9
100
AcDbCircle
 10
468.0169941072507
 20
-419.1917631658188
 30
0.0
 40
3.177055072140049
100
AcDbArc
 50
217.3407897949219
 51
322.6592102050781
  0
ARC
  5
130
330
1F
100
AcDbEntity
  8
D-A
  6
Continuous
 62
     2
370
     9
100
AcDbCircle
 10
483.1724358038301
 20
-419.1917631658188
 30
0.0
 40
3.177055072140049
100
AcDbArc
 50
217.3407897949219
 51
322.6592102050781
  0
ARC
  5
131
330
1F
100
AcDbEntity
  8
D-A
  6
Continuous
 62
     2
370
     9
100
AcDbCircle
 10
475.5949623953632
 20
-417.2647636870921
 30
0.0
 40
13.10409210823678
100
AcDbArc
 50
247.3243103027344
 51
292.6756896972656
  0
ARC
  5
132
330
1F
100
AcDbEntity
  8
D-A
  6
Continuous
 62
     2
370
     9
100
AcDbCircle
 10
483.9440768907179
 20
-424.4956048340251
 30
0.0
 40
5.873256277393651
100
AcDbArc
 50
235.8464813232422
 51
270.0
  0
ARC
  5
133
330
1F
100
AcDbEntity
  8
D-A
  6
Continuous
 62
     2
370
     9
100
AcDbCircle
 10
475.5949623953632
 20
-435.4729323354767
 30
0.0
 40
13.10409210823678
100
AcDbArc
 50
67.32431030273438
 51
112.6756896972656
  0
ARC
  5
134
330
1F
100
AcDbEntity
  8
D-A
  6
Continuous
 62
     2
370
     9
100
AcDbCircle
 10
483.9440768907179
 20
-428.2420602585659
 30
0.0
 40
5.873256277393651
100
AcDbArc
 50
90.0
 51
124.1535186767578
  0
ARC
  5
135
330
1F
100
AcDbEntity
  8
D-A
  6
Continuous
 62
     2
370
     9
100
AcDbCircle
 10
475.5949623953632
 20
-430.3688364640927
 30
0.0
 40
7.500000096656181
100
AcDbArc
 50
201.0391845703125
 51
338.9608154296875
  0
ARC
  5
136
330
1F
100
AcDbEntity
  8
D-A
  6
Continuous
 62
     2
370
     9
100
AcDbCircle
 10
483.8449772417525
 20
-431.8694352684634
 30
0.0
 40
1.250000016109364
100
AcDbArc
 50
120.0003967285156
 51
180.0
  0
ARC
  5
137
330
1F
100
AcDbEntity
  8
D-A
  6
Continuous
 62
     2
370
     9
100
AcDbCircle
 10
467.2458479000085
 20
-424.4956048340251
 30
0.0
 40
5.873256277393651
100
AcDbArc
 50
270.0
 51
304.1535186767578
  0
ARC
  5
138
330
1F
100
AcDbEntity
  8
D-A
  6
Continuous
 62
     2
370
     9
100
AcDbCircle
 10
467.2458479000085
 20
-428.2420602585659
 30
0.0
 40
5.873256277393651
100
AcDbArc
 50
55.84648132324219
 51
90.0
  0
ARC
  5
139
330
1F
100
AcDbEntity
  8
D-A
  6
Continuous
 62
     2
370
     9
100
AcDbCircle
 10
467.3449475489739
 20
-431.8694352684634
 30
0.0
 40
1.250000016109364
100
AcDbArc
 50
0.0
 51
59.99960327148438
  0
ARC
  5
13A
330
1F
100
AcDbEntity
  8
D-2
  6
Continuous
 62
     3
370
     9
100
AcDbCircle
 10
340.5948881634163
 20
-383.1187795529335
 30
0.0
 40
7.500000096656181
100
AcDbArc
 50
0.0
 51
9.593612670898438
  0
ARC
  5
13B
330
1F
100
AcDbEntity
  8
D-2
  6
Continuous
 62
     3
370
     9
100
AcDbCircle
 10
405.5950716812848
 20
-383.1187795529335
 30
0.0
 40
7.500000096656181
100
AcDbArc
 50
170.4063873291016
 51
180.0
  0
ARC
  5
13C
330
1F
100
AcDbEntity
  8
D-0
  6
Continuous
 62
     4
370
     9
100
AcDbCircle
 10
288.4229129502882
 20
-376.8688826528595
 30
0.0
 40
7.500000096656181
100
AcDbArc
 50
90.0
 51
176.423583984375
  0
ARC
  5
13D
330
1F
100
AcDbEntity
  8
D-0
  6
Continuous
 62
     4
370
     9
100
AcDbCircle
 10
457.7675417740583
 20
-376.8688826528595
 30
0.0
 40
7.500000096656181
100
AcDbArc
 50
3.576400756835938
 51
89.99999999999999
  0
TEXT
  5
13E
330
1F
100
AcDbEntity
  8
D-F
  6
Continuous
 62
     7
370
     9
100
AcDbText
 10
135.1525776170744
 20
-326.7664788164174
 30
0.0
 40
11.43
  1
ＳＣＳ１３
 41
1.133333333333333
  7
ＭＳ ゴシック
100
AcDbText
  0
TEXT
  5
13F
330
1F
100
AcDbEntity
  8
D-F
  6
Continuous
 62
     7
370
     9
100
AcDbText
 10
135.6524207501567
 20
-303.7008190098824
 30
0.0
 40
11.43
  1
把手カバ－
 41
1.133333333333333
  7
ＭＳ ゴシック
100
AcDbText
  0
LINE
  5
140
330
1F
100
AcDbEntity
  8
D-F
  6
Continuous
 62
     7
370
     9
100
AcDbLine
 10
131.6536756854983
 20
-310.8008653966012
 30
0.0
 11
223.5442678408287
 21
-310.8008653966012
 31
0.0
  0
LINE
  5
141
330
1F
100
AcDbEntity
  8
D-F
  6
Continuous
 62
     7
370
     9
100
AcDbLine
 10
223.5442678408287
 20
-310.8008653966012
 30
0.0
 11
268.4009689674517
 21
-355.6189981247768
 31
0.0
  0
LINE
  5
142
330
1F
100
AcDbEntity
  8
D-F
  6
Continuous
 62
     7
370
     9
100
AcDbLine
 10
268.4009689674517
 20
-355.6189981247768
 30
0.0
 11
258.4807803411292
 21
-348.0137461487943
 31
0.0
  0
LINE
  5
143
330
1F
100
AcDbEntity
  8
D-F
  6
Continuous
 62
     7
370
     9
100
AcDbLine
 10
268.4009689674517
 20
-355.6189981247768
 30
0.0
 11
260.7871866258157
 21
-345.7053550782376
 31
0.0
  0
LINE
  5
144
330
1F
100
AcDbEntity
  8
D-F
  6
Continuous
 62
     7
370
     9
100
AcDbLine
 10
263.7517178460897
 20
-461.4660830957815
 30
0.0
 11
335.5952428271622
 21
-433.9736888391433
 31
0.0
  0
LINE
  5
145
330
1F
100
AcDbEntity
  8
D-F
  6
Continuous
 62
     7
370
     9
100
AcDbLine
 10
335.5952428271622
 20
-433.9736888391433
 30
0.0
 11
324.6038275803728
 21
-439.9267377111622
 31
0.0
  0
LINE
  5
146
330
1F
100
AcDbEntity
  8
D-F
  6
Continuous
 62
     7
370
     9
100
AcDbLine
 10
335.5952428271622
 20
-433.9736888391433
 30
0.0
 11
323.4375885483161
 21
-436.8791048912879
 31
0.0
  0
LINE
  5
147
330
1F
100
AcDbEntity
  8
D-4
  6
Continuous
 62
     7
370
     9
100
AcDbLine
 10
233.0951685307779
 20
-62.0669819323847
 30
0.0
 11
513.0953335550971
 21
-62.0669819323847
 31
0.0
  0
LINE
  5
148
330
1F
100
AcDbEntity
  8
D-4
  6
Continuous
 62
     7
370
     9
100
AcDbLine
 10
233.0951685307779
 20
-62.0669819323847
 30
0.0
 11
245.4882292979506
 21
-60.43540452963406
 31
0.0
  0
LINE
  5
149
330
1F
100
AcDbEntity
  8
D-4
  6
Continuous
 62
     7
370
     9
100
AcDbLine
 10
233.0951685307779
 20
-62.0669819323847
 30
0.0
 11
245.4882292979506
 21
-63.69855933513534
 31
0.0
  0
LINE
  5
14A
330
1F
100
AcDbEntity
  8
D-4
  6
Continuous
 62
     7
370
     9
100
AcDbLine
 10
513.0953335550971
 20
-62.0669819323847
 30
0.0
 11
500.7022727879244
 21
-60.43540452963406
 31
0.0
  0
LINE
  5
14B
330
1F
100
AcDbEntity
  8
D-4
  6
Continuous
 62
     7
370
     9
100
AcDbLine
 10
513.0953335550971
 20
-62.0669819323847
 30
0.0
 11
500.7022727879244
 21
-63.69855933513534
 31
0.0
  0
LINE
  5
14C
330
1F
100
AcDbEntity
  8
D-4
  6
Continuous
 62
     7
370
     9
100
AcDbLine
 10
233.0951685307779
 20
-60.56698193238468
 30
0.0
 11
233.0951685307779
 21
-89.6343474240971
 31
0.0
  0
LINE
  5
14D
330
1F
100
AcDbEntity
  8
D-4
  6
Continuous
 62
     7
370
     9
100
AcDbLine
 10
513.0953335550971
 20
-60.56698193238468
 30
0.0
 11
513.0953335550971
 21
-89.6343474240971
 31
0.0
  0
TEXT
  5
14E
330
1F
100
AcDbEntity
  8
D-4
  6
Continuous
 62
     2
370
   211
100
AcDbText
 10
356.8452510429376
 20
-56.24698193238469
 30
0.0
 40
15.24
  1
112
 41
1.083333333333333
  7
ＭＳ ゴシック
100
AcDbText
  0
LINE
  5
14F
330
1F
100
AcDbEntity
  8
D-4
  6
Continuous
 62
     7
370
     9
100
AcDbLine
 10
555.9173588107241
 20
-232.1343969764991
 30
0.0
 11
555.9173588107241
 21
-94.63420720819762
 31
0.0
  0
LINE
  5
150
330
1F
100
AcDbEntity
  8
D-4
  6
Continuous
 62
     7
370
     9
100
AcDbLine
 10
555.9173588107241
 20
-232.1343969764991
 30
0.0
 11
554.2857814079733
 21
-219.7413362093265
 31
0.0
  0
LINE
  5
151
330
1F
100
AcDbEntity
  8
D-4
  6
Continuous
 62
     7
370
     9
100
AcDbLine
 10
555.9173588107241
 20
-232.1343969764991
 30
0.0
 11
557.5489362134747
 21
-219.7413362093265
 31
0.0
  0
LINE
  5
152
330
1F
100
AcDbEntity
  8
D-4
  6
Continuous
 62
     7
370
     9
100
AcDbLine
 10
555.9173588107241
 20
-94.63420720819762
 30
0.0
 11
554.2857814079733
 21
-107.0272679753703
 31
0.0
  0
LINE
  5
153
330
1F
100
AcDbEntity
  8
D-4
  6
Continuous
 62
     7
370
     9
100
AcDbLine
 10
555.9173588107241
 20
-94.63420720819762
 30
0.0
 11
557.5489362134747
 21
-107.0272679753703
 31
0.0
  0
LINE
  5
154
330
1F
100
AcDbEntity
  8
D-4
  6
Continuous
 62
     7
370
     9
100
AcDbLine
 10
557.4173588107241
 20
-232.1343969764991
 30
0.0
 11
518.0951933391976
 21
-232.1343969764991
 31
0.0
  0
LINE
  5
155
330
1F
100
AcDbEntity
  8
D-4
  6
Continuous
 62
     7
370
     9
100
AcDbLine
 10
557.4173588107241
 20
-94.63420720819762
 30
0.0
 11
518.0951933391976
 21
-94.63420720819762
 31
0.0
  0
TEXT
  5
156
330
1F
100
AcDbEntity
  8
D-4
  6
Continuous
 62
     2
370
   211
100
AcDbText
 10
550.0973588107239
 20
-174.0093020923484
 30
0.0
 40
15.24
  1
55
 50
90.0
 41
1.0625
  7
ＭＳ ゴシック
100
AcDbText
  0
TEXT
  5
157
330
1F
100
AcDbEntity
  8
D-F
  6
Continuous
 62
     2
370
     9
100
AcDbText
 10
266.7616469639972
 20
-541.6030353239111
 30
0.0
 40
15.24
  1
把手詳細図　Ｓ＝１：２
 41
1.113636363636364
  7
ＭＳ ゴシック
100
AcDbText
  0
LINE
  5
158
330
1F
100
AcDbEntity
  8
D-F
  6
Continuous
 62
     7
370
     9
100
AcDbLine
 10
262.1007350133152
 20
-551.6213999941233
 30
0.0
 11
516.1542468100378
 21
-551.6213999941233
 31
0.0
  0
LINE
  5
159
330
1F
100
AcDbEntity
  8
0-4
  6
Continuous
 62
     7
370
     9
100
AcDbLine
 10
-630.6521647685282
 20
348.2157279349663
 30
0.0
 11
-180.6520410486169
 21
348.2157279349663
 31
0.0
  0
LINE
  5
15A
330
1F
100
AcDbEntity
  8
0-4
  6
Continuous
 62
     7
370
     9
100
AcDbLine
 10
-643.6520344502217
 20
387.7076185071792
 30
0.0
 11
-167.6520476470122
 21
387.7076185071792
 31
0.0
  0
LINE
  5
15B
330
1F
100
AcDbEntity
  8
0-4
  6
Continuous
 62
     7
370
     9
100
AcDbLine
 10
-643.6520344502217
 20
268.8164953283362
 30
0.0
 11
-643.6520344502217
 21
389.2075987119933
 31
0.0
  0
LINE
  5
15C
330
1F
100
AcDbEntity
  8
0-4
  6
Continuous
 62
     7
370
     9
100
AcDbLine
 10
-167.6520476470122
 20
268.8164953283362
 30
0.0
 11
-167.6520476470122
 21
389.2075987119933
 31
0.0
  0
LINE
  5
15D
330
1F
100
AcDbEntity
  8
0-4
  6
Continuous
 62
     7
370
     9
100
AcDbLine
 10
-730.5512299408783
 20
248.3161060230152
 30
0.0
 11
-730.548941122519
 21
-201.6839558369404
 31
0.0
  0
LINE
  5
15E
330
1F
100
AcDbEntity
  8
0-4
  6
Continuous
 62
     7
370
     9
100
AcDbLine
 10
-770.0431823730469
 20
261.3158519847974
 30
0.0
 11
-770.0407698347761
 21
-214.6841966783678
 31
0.0
  0
LINE
  5
15F
330
1F
100
AcDbEntity
  8
0-4
  6
Continuous
 62
     7
370
     9
100
AcDbLine
 10
-651.152059194204
 20
261.3164705843539
 30
0.0
 11
-771.543162577861
 21
261.3158519847974
 31
0.0
  0
LINE
  5
160
330
1F
100
AcDbEntity
  8
0-4
  6
Continuous
 62
     7
370
     9
100
AcDbLine
 10
-651.1495847959776
 20
-214.6835780788112
 30
0.0
 11
-771.5407500395904
 21
-214.6841966783678
 31
0.0
  0
LINE
  5
161
330
1F
100
AcDbEntity
  8
1-4
  6
Continuous
 62
     7
370
     9
100
AcDbLine
 10
-544.6459177378061
 20
-320.2414373449377
 30
0.0
 11
-279.3817674791491
 21
-320.2414373449377
 31
0.0
  0
TEXT
  5
162
330
1F
100
AcDbEntity
  8
0-4
  6
Continuous
 62
     2
370
     9
100
AcDbText
 10
-421.9021029085726
 20
354.0356883445947
 30
0.0
 40
15.24
  1
450
 41
1.083333333333333
  7
ＭＳ ゴシック
100
AcDbText
  0
TEXT
  5
163
330
1F
100
AcDbEntity
  8
0-4
  6
Continuous
 62
     2
370
     9
100
AcDbText
 10
-421.9020410486169
 20
393.5275789168076
 30
0.0
 40
15.24
  1
476
 41
1.083333333333333
  7
ＭＳ ゴシック
100
AcDbText
  0
TEXT
  5
164
330
1F
100
AcDbEntity
  8
0-4
  6
Continuous
 62
     2
370
     9
100
AcDbText
 10
-736.3699531513005
 20
7.06602806069402
 30
0.0
 40
15.24
  1
450
 50
90.0003271676473
 41
1.083333333333333
  7
ＭＳ ゴシック
100
AcDbText
  0
TEXT
  5
165
330
1F
100
AcDbEntity
  8
0-4
  6
Continuous
 62
     2
370
     9
100
AcDbText
 10
-775.8618437235132
 20
7.065780620871362
 30
0.0
 40
15.24
  1
476
 50
90.0003271676473
 41
1.083333333333333
  7
ＭＳ ゴシック
100
AcDbText
  0
TEXT
  5
166
330
1F
100
AcDbEntity
  8
1-4
  6
Continuous
 62
     2
370
     9
100
AcDbText
 10
-532.9222168793549
 20
-314.0614519933752
 30
0.0
 40
15.24
  1
平面詳細図　Ｓ＝１：５
 41
1.113636363636364
  7
ＭＳ ゴシック
100
AcDbText
  0
LWPOLYLINE
  5
167
330
1F
100
AcDbEntity
  8
0-4
  6
Continuous
 62
     7
370
     9
100
AcDbPolyline
 90
        4
 70
     1
 43
0.5
 10
-630.4021647685282
 20
348.2157279349663
 42
0.4142135623731
 10
-630.6521647685282
 20
348.4657279349663
 42
0.4142135623731
 10
-630.9021647685282
 20
348.2157279349663
 42
0.4142135623731
 10
-630.6521647685282
 20
347.9657279349663
 42
0.4142135623731
  0
LWPOLYLINE
  5
168
330
1F
100
AcDbEntity
  8
0-4
  6
Continuous
 62
     7
370
     9
100
AcDbPolyline
 90
        4
 70
     1
 43
0.5
 10
-180.4020410486169
 20
348.2157279349663
 42
0.4142135623731
 10
-180.6520410486169
 20
348.4657279349663
 42
0.4142135623731
 10
-180.9020410486169
 20
348.2157279349663
 42
0.4142135623731
 10
-180.6520410486169
 20
347.9657279349663
 42
0.4142135623731
  0
LWPOLYLINE
  5
169
330
1F
100
AcDbEntity
  8
0-4
  6
Continuous
 62
     7
370
     9
100
AcDbPolyline
 90
        4
 70
     1
 43
0.5
 10
-643.4020344502215
 20
387.7076185071792
 42
0.4142135623731
 10
-643.6520344502217
 20
387.9576185071792
 42
0.4142135623731
 10
-643.9020344502217
 20
387.7076185071792
 42
0.4142135623731
 10
-643.6520344502217
 20
387.4576185071792
 42
0.4142135623731
  0
LWPOLYLINE
  5
16A
330
1F
100
AcDbEntity
  8
0-4
  6
Continuous
 62
     7
370
     9
100
AcDbPolyline
 90
        4
 70
     1
 43
0.5
 10
-167.4020476470122
 20
387.7076185071792
 42
0.4142135623731
 10
-167.6520476470122
 20
387.9576185071792
 42
0.4142135623731
 10
-167.9020476470122
 20
387.7076185071792
 42
0.4142135623731
 10
-167.6520476470122
 20
387.4576185071792
 42
0.4142135623731
  0
LWPOLYLINE
  5
16B
330
1F
100
AcDbEntity
  8
0-4
  6
Continuous
 62
     7
370
     9
100
AcDbPolyline
 90
        4
 70
     1
 43
0.5
 10
-730.3012299408783
 20
248.3161060230152
 42
0.4142135623731
 10
-730.5512299408783
 20
248.5661060230152
 42
0.4142135623731
 10
-730.8012299408784
 20
248.3161060230152
 42
0.4142135623731
 10
-730.5512299408783
 20
248.0661060230153
 42
0.4142135623731
  0
LWPOLYLINE
  5
16C
330
1F
100
AcDbEntity
  8
0-4
  6
Continuous
 62
     7
370
     9
100
AcDbPolyline
 90
        4
 70
     1
 43
0.5
 10
-730.298941122519
 20
-201.6839558369404
 42
0.4142135623731
 10
-730.548941122519
 20
-201.4339558369404
 42
0.4142135623731
 10
-730.7989411225191
 20
-201.6839558369404
 42
0.4142135623731
 10
-730.548941122519
 20
-201.9339558369404
 42
0.4142135623731
  0
LWPOLYLINE
  5
16D
330
1F
100
AcDbEntity
  8
0-4
  6
Continuous
 62
     7
370
     9
100
AcDbPolyline
 90
        4
 70
     1
 43
0.5
 10
-769.7931823730469
 20
261.3158519847974
 42
0.4142135623731
 10
-770.0431823730469
 20
261.5658519847974
 42
0.4142135623731
 10
-770.2931823730469
 20
261.3158519847974
 42
0.4142135623731
 10
-770.0431823730469
 20
261.0658519847974
 42
0.4142135623731
  0
LWPOLYLINE
  5
16E
330
1F
100
AcDbEntity
  8
0-4
  6
Continuous
 62
     7
370
     9
100
AcDbPolyline
 90
        4
 70
     1
 43
0.5
 10
-769.7907698347761
 20
-214.6841966783678
 42
0.4142135623731
 10
-770.0407698347761
 20
-214.4341966783678
 42
0.4142135623731
 10
-770.2907698347763
 20
-214.6841966783678
 42
0.4142135623731
 10
-770.0407698347761
 20
-214.9341966783678
 42
0.4142135623731
  0
LINE
  5
16F
330
1F
100
AcDbEntity
  8
0-0
  6
Continuous
 62
     4
370
     9
100
AcDbLine
 10
-192.6520148906928
 20
-189.6841985047092
 30
0.0
 11
-618.6521196991321
 21
-189.6841985047092
 31
0.0
  0
LINE
  5
170
330
1F
100
AcDbEntity
  8
0-0
  6
Continuous
 62
     4
370
     9
100
AcDbLine
 10
-192.6520148906928
 20
236.3158538111389
 30
0.0
 11
-192.6520148906928
 21
-189.6841985047092
 31
0.0
  0
LINE
  5
171
330
1F
100
AcDbEntity
  8
0-0
  6
Continuous
 62
     4
370
     9
100
AcDbLine
 10
-618.6521196991321
 20
236.3158538111389
 30
0.0
 11
-192.6520148906928
 21
236.3158538111389
 31
0.0
  0
LINE
  5
172
330
1F
100
AcDbEntity
  8
0-0
  6
Continuous
 62
     4
370
     9
100
AcDbLine
 10
-618.6521196991321
 20
-189.6841985047092
 30
0.0
 11
-618.6521196991321
 21
236.3158538111389
 31
0.0
  0
LINE
  5
173
330
1F
100
AcDbEntity
  8
0-0
  6
Continuous
 62
     4
370
     9
100
AcDbLine
 10
-630.6521359594632
 20
-201.6841622724495
 30
0.0
 11
-630.6521359594632
 21
248.3158700714702
 31
0.0
  0
LINE
  5
174
330
1F
100
AcDbEntity
  8
0-0
  6
Continuous
 62
     4
370
     9
100
AcDbLine
 10
-180.6520511229526
 20
-201.6841622724495
 30
0.0
 11
-630.6521359594632
 21
-201.6841622724495
 31
0.0
  0
LINE
  5
175
330
1F
100
AcDbEntity
  8
0-0
  6
Continuous
 62
     4
370
     9
100
AcDbLine
 10
-180.6520511229526
 20
248.3158700714702
 30
0.0
 11
-180.6520511229526
 21
-201.6841622724495
 31
0.0
  0
LINE
  5
176
330
1F
100
AcDbEntity
  8
0-0
  6
Continuous
 62
     4
370
     9
100
AcDbLine
 10
-630.6521359594632
 20
248.3158700714702
 30
0.0
 11
-180.6520511229526
 21
248.3158700714702
 31
0.0
  0
LINE
  5
177
330
1F
100
AcDbEntity
  8
0-0
  6
Continuous
 62
     4
370
     9
100
AcDbLine
 10
-628.152018837947
 20
245.8158579351361
 30
0.0
 11
-183.1520632592867
 21
245.8158579351361
 31
0.0
  0
LINE
  5
178
330
1F
100
AcDbEntity
  8
0-0
  6
Continuous
 62
     4
370
     9
100
AcDbLine
 10
-628.152018837947
 20
-199.1841501361152
 30
0.0
 11
-628.152018837947
 21
245.8158579351361
 31
0.0
  0
LINE
  5
179
330
1F
100
AcDbEntity
  8
0-0
  6
Continuous
 62
     4
370
     9
100
AcDbLine
 10
-183.1520632592867
 20
-199.1841501361152
 30
0.0
 11
-628.152018837947
 21
-199.1841501361152
 31
0.0
  0
LINE
  5
17A
330
1F
100
AcDbEntity
  8
0-0
  6
Continuous
 62
     4
370
     9
100
AcDbLine
 10
-183.1520632592867
 20
245.8158579351361
 30
0.0
 11
-183.1520632592867
 21
-199.1841501361152
 31
0.0
  0
LINE
  5
17B
330
1F
100
AcDbEntity
  8
0-0
  6
Continuous
 62
     4
370
     9
100
AcDbLine
 10
-621.1520268502843
 20
238.8158659474732
 30
0.0
 11
-190.1520027543586
 21
238.8158659474732
 31
0.0
  0
LINE
  5
17C
330
1F
100
AcDbEntity
  8
0-0
  6
Continuous
 62
     4
370
     9
100
AcDbLine
 10
-621.1520268502843
 20
-192.1842106410433
 30
0.0
 11
-621.1520268502843
 21
238.8158659474732
 31
0.0
  0
LINE
  5
17D
330
1F
100
AcDbEntity
  8
0-0
  6
Continuous
 62
     4
370
     9
100
AcDbLine
 10
-190.1520027543586
 20
-192.1842106410433
 30
0.0
 11
-621.1520268502843
 21
-192.1842106410433
 31
0.0
  0
LINE
  5
17E
330
1F
100
AcDbEntity
  8
0-0
  6
Continuous
 62
     4
370
     9
100
AcDbLine
 10
-190.1520027543586
 20
238.8158659474732
 30
0.0
 11
-190.1520027543586
 21
-192.1842106410433
 31
0.0
  0
LINE
  5
17F
330
1F
100
AcDbEntity
  8
0-1
  6
Continuous
 62
     2
370
     9
100
AcDbLine
 10
-631.6520148317785
 20
249.3158539289675
 30
0.0
 11
-179.6520147728643
 21
249.3158539289675
 31
0.0
  0
LINE
  5
180
330
1F
100
AcDbEntity
  8
0-1
  6
Continuous
 62
     2
370
     9
100
AcDbLine
 10
-643.6520310921098
 20
261.3157652041168
 30
0.0
 11
-167.6520510051241
 21
261.3157652041168
 31
0.0
  0
LINE
  5
181
330
1F
100
AcDbEntity
  8
0-1
  6
Continuous
 62
     2
370
     9
100
AcDbLine
 10
-631.6520148317785
 20
-202.6841986225377
 30
0.0
 11
-631.6520148317785
 21
249.3158539289675
 31
0.0
  0
LINE
  5
182
330
1F
100
AcDbEntity
  8
0-1
  6
Continuous
 62
     2
370
     9
100
AcDbLine
 10
-643.6520310921098
 20
-214.684162390278
 30
0.0
 11
-643.6520310921098
 21
261.3157652041168
 31
0.0
  0
LINE
  5
183
330
1F
100
AcDbEntity
  8
0-1
  6
Continuous
 62
     2
370
     9
100
AcDbLine
 10
-179.6520147728643
 20
-202.6841986225377
 30
0.0
 11
-631.6520148317785
 21
-202.6841986225377
 31
0.0
  0
LINE
  5
184
330
1F
100
AcDbEntity
  8
0-1
  6
Continuous
 62
     2
370
     9
100
AcDbLine
 10
-179.6520147728643
 20
249.3158539289675
 30
0.0
 11
-179.6520147728643
 21
-202.6841986225377
 31
0.0
  0
LINE
  5
185
330
1F
100
AcDbEntity
  8
0-1
  6
Continuous
 62
     2
370
     9
100
AcDbLine
 10
-167.6520510051241
 20
261.3157652041168
 30
0.0
 11
-167.6520510051241
 21
-214.684162390278
 31
0.0
  0
LINE
  5
186
330
1F
100
AcDbEntity
  8
0-1
  6
Continuous
 62
     2
370
     9
100
AcDbLine
 10
-167.6520510051241
 20
-214.684162390278
 30
0.0
 11
-643.6520310921098
 21
-214.684162390278
 31
0.0
  0
LINE
  5
187
330
1F
100
AcDbEntity
  8
0-1
  6
Continuous
 62
     2
370
     9
100
AcDbLine
 10
-641.1519139705936
 20
258.8157530677827
 30
0.0
 11
-170.1520631414582
 21
258.8157530677827
 31
0.0
  0
LINE
  5
188
330
1F
100
AcDbEntity
  8
0-1
  6
Continuous
 62
     2
370
     9
100
AcDbLine
 10
-170.1520631414582
 20
258.8157530677827
 30
0.0
 11
-170.1520631414582
 21
-212.1841502539438
 31
0.0
  0
LINE
  5
189
330
1F
100
AcDbEntity
  8
0-1
  6
Continuous
 62
     2
370
     9
100
AcDbLine
 10
-170.1520631414582
 20
-212.1841502539438
 30
0.0
 11
-641.1519139705936
 21
-212.1841502539438
 31
0.0
  0
LINE
  5
18A
330
1F
100
AcDbEntity
  8
0-1
  6
Continuous
 62
     2
370
     9
100
AcDbLine
 10
-641.1519139705936
 20
-212.1841502539438
 30
0.0
 11
-641.1519139705936
 21
258.8157530677827
 31
0.0
  0
LINE
  5
18B
330
1F
100
AcDbEntity
  8
0-1
  6
Continuous
 62
     2
370
     9
100
AcDbLine
 10
-634.1519219829307
 20
-205.1842107588718
 30
0.0
 11
-634.1519219829307
 21
251.8158660653016
 31
0.0
  0
LINE
  5
18C
330
1F
100
AcDbEntity
  8
0-1
  6
Continuous
 62
     2
370
     9
100
AcDbLine
 10
-634.1519219829307
 20
251.8158660653016
 30
0.0
 11
-177.1520026365302
 21
251.8158660653016
 31
0.0
  0
LINE
  5
18D
330
1F
100
AcDbEntity
  8
0-1
  6
Continuous
 62
     2
370
     9
100
AcDbLine
 10
-177.1520026365302
 20
-205.1842107588718
 30
0.0
 11
-634.1519219829307
 21
-205.1842107588718
 31
0.0
  0
LINE
  5
18E
330
1F
100
AcDbEntity
  8
0-1
  6
Continuous
 62
     2
370
     9
100
AcDbLine
 10
-177.1520026365302
 20
251.8158660653016
 30
0.0
 11
-177.1520026365302
 21
-205.1842107588718
 31
0.0
  0
LINE
  5
18F
330
1F
100
AcDbEntity
  8
0-1
  6
Continuous
 62
     2
370
     9
100
AcDbLine
 10
-179.6520147728643
 20
-202.6841986225377
 30
0.0
 11
-167.6520510051241
 21
-214.684162390278
 31
0.0
  0
LINE
  5
190
330
1F
100
AcDbEntity
  8
0-1
  6
Continuous
 62
     2
370
     9
100
AcDbLine
 10
-631.6520148317785
 20
-202.6841986225377
 30
0.0
 11
-643.6520310921098
 21
-214.684162390278
 31
0.0
  0
LINE
  5
191
330
1F
100
AcDbEntity
  8
0-1
  6
Continuous
 62
     2
370
     9
100
AcDbLine
 10
-631.6520148317785
 20
249.3158539289675
 30
0.0
 11
-643.6520310921098
 21
261.3157652041168
 31
0.0
  0
LINE
  5
192
330
1F
100
AcDbEntity
  8
0-1
  6
Continuous
 62
     2
370
     9
100
AcDbLine
 10
-179.6520147728643
 20
249.3158539289675
 30
0.0
 11
-167.6520510051241
 21
261.3157652041168
 31
0.0
  0
LINE
  5
193
330
1F
100
AcDbEntity
  8
0-1
  6
JWW_CENTER1
 62
     2
370
     9
100
AcDbLine
 10
-270.6520155976636
 20
219.4476746665927
 30
0.0
 11
-270.6520155976636
 21
248.7401676840766
 31
0.0
  0
LINE
  5
194
330
1F
100
AcDbEntity
  8
0-A
  6
JWW_DASHED1
 62
     2
370
     9
100
AcDbLine
 10
-536.5520276986492
 20
248.3158700714702
 30
0.0
 11
-536.5520276986492
 21
248.0158224216301
 31
0.0
  0
LINE
  5
195
330
1F
100
AcDbEntity
  8
0-A
  6
JWW_DASHED1
 62
     2
370
     9
100
AcDbLine
 10
-538.602178330587
 20
245.9658817600561
 30
0.0
 11
-536.5520276986492
 21
248.0158224216301
 31
0.0
  0
LINE
  5
196
330
1F
100
AcDbEntity
  8
0-A
  6
JWW_DASHED1
 62
     2
370
     9
100
AcDbLine
 10
-542.702059653735
 20
245.9658817600561
 30
0.0
 11
-538.602178330587
 21
245.9658817600561
 31
0.0
  0
LINE
  5
197
330
1F
100
AcDbEntity
  8
0-A
  6
JWW_DASHED1
 62
     2
370
     9
100
AcDbLine
 10
-542.702059653735
 20
245.9658817600561
 30
0.0
 11
-544.7520003153089
 21
248.0158224216301
 31
0.0
  0
LINE
  5
198
330
1F
100
AcDbEntity
  8
0-A
  6
JWW_DASHED1
 62
     2
370
     9
100
AcDbLine
 10
-536.5520276986492
 20
248.0158224216301
 30
0.0
 11
-544.7520003153089
 21
248.0158224216301
 31
0.0
  0
LINE
  5
199
330
1F
100
AcDbEntity
  8
0-A
  6
JWW_DASHED1
 62
     2
370
     9
100
AcDbLine
 10
-544.7520003153089
 20
248.3158700714702
 30
0.0
 11
-544.7520003153089
 21
248.0158224216301
 31
0.0
  0
LINE
  5
19A
330
1F
100
AcDbEntity
  8
0-A
  6
JWW_DASHED1
 62
     2
370
     9
100
AcDbLine
 10
-538.602178330587
 20
245.9658817600561
 30
0.0
 11
-538.602178330587
 21
239.9824612886292
 31
0.0
  0
LINE
  5
19B
330
1F
100
AcDbEntity
  8
0-A
  6
JWW_DASHED1
 62
     2
370
     9
100
AcDbLine
 10
-542.702059653735
 20
245.9658817600561
 30
0.0
 11
-542.702059653735
 21
239.9824612886292
 31
0.0
  0
LINE
  5
19C
330
1F
100
AcDbEntity
  8
0-A
  6
JWW_DASHED1
 62
     2
370
     9
100
AcDbLine
 10
-542.702059653735
 20
239.9824612886292
 30
0.0
 11
-540.6521189921609
 21
223.3158536933105
 31
0.0
  0
LINE
  5
19D
330
1F
100
AcDbEntity
  8
0-A
  6
JWW_DASHED1
 62
     2
370
     9
100
AcDbLine
 10
-540.6521189921609
 20
223.3158536933105
 30
0.0
 11
-538.602178330587
 21
239.9824612886292
 31
0.0
  0
LINE
  5
19E
330
1F
100
AcDbEntity
  8
0-A
  6
JWW_DASHED1
 62
     2
370
     9
100
AcDbLine
 10
-541.3299033264395
 20
224.7298991081799
 30
0.0
 11
-539.944308895862
 21
224.9740946412548
 31
0.0
  0
LINE
  5
19F
330
1F
100
AcDbEntity
  8
0-A
  6
JWW_DASHED1
 62
     2
370
     9
100
AcDbLine
 10
-541.5465927418594
 20
226.4916554454673
 30
0.0
 11
-539.7179608437085
 21
226.8140649390499
 31
0.0
  0
LINE
  5
1A0
330
1F
100
AcDbEntity
  8
0-A
  6
JWW_DASHED1
 62
     2
370
     9
100
AcDbLine
 10
-543.0634186497986
 20
238.8241597768425
 30
0.0
 11
-538.13394441936
 21
239.6934370828873
 31
0.0
  0
LINE
  5
1A1
330
1F
100
AcDbEntity
  8
0-A
  6
JWW_DASHED1
 62
     2
370
     9
100
AcDbLine
 10
-542.8467292343787
 20
237.0624034395551
 30
0.0
 11
-538.3600825011499
 21
237.8534667850923
 31
0.0
  0
LINE
  5
1A2
330
1F
100
AcDbEntity
  8
0-A
  6
JWW_DASHED1
 62
     2
370
     9
100
AcDbLine
 10
-542.6300398189587
 20
235.3006471022677
 30
0.0
 11
-538.5864305533037
 21
236.0136014724792
 31
0.0
  0
LINE
  5
1A3
330
1F
100
AcDbEntity
  8
0-A
  6
JWW_DASHED1
 62
     2
370
     9
100
AcDbLine
 10
-542.4133504035389
 20
233.5387857797986
 30
0.0
 11
-538.8127786054574
 21
234.1737361598661
 31
0.0
  0
LINE
  5
1A4
330
1F
100
AcDbEntity
  8
0-A
  6
JWW_DASHED1
 62
     2
370
     9
100
AcDbLine
 10
-542.196660988119
 20
231.7770294425112
 30
0.0
 11
-539.0391266576112
 21
232.3337658620711
 31
0.0
  0
LINE
  5
1A5
330
1F
100
AcDbEntity
  8
0-A
  6
JWW_DASHED1
 62
     2
370
     9
100
AcDbLine
 10
-541.9799715726991
 20
230.0152731052238
 30
0.0
 11
-539.2654747097649
 21
230.4937955642761
 31
0.0
  0
LINE
  5
1A6
330
1F
100
AcDbEntity
  8
0-A
  6
JWW_DASHED1
 62
     2
370
     9
100
AcDbLine
 10
-541.7632821572793
 20
228.2534117827547
 30
0.0
 11
-539.4918227619185
 21
228.6540352368449
 31
0.0
  0
LINE
  5
1A7
330
1F
100
AcDbEntity
  8
0-A
  6
JWW_DASHED1
 62
     2
370
     9
100
AcDbLine
 10
-274.7520019059936
 20
248.3158700714702
 30
0.0
 11
-274.7520019059936
 21
248.0158224216301
 31
0.0
  0
LINE
  5
1A8
330
1F
100
AcDbEntity
  8
0-A
  6
JWW_DASHED1
 62
     2
370
     9
100
AcDbLine
 10
-272.7019562592377
 20
245.9658817600561
 30
0.0
 11
-274.7520019059936
 21
248.0158224216301
 31
0.0
  0
LINE
  5
1A9
330
1F
100
AcDbEntity
  8
0-A
  6
JWW_DASHED1
 62
     2
370
     9
100
AcDbLine
 10
-268.6020749360898
 20
245.9658817600561
 30
0.0
 11
-272.7019562592377
 21
245.9658817600561
 31
0.0
  0
LINE
  5
1AA
330
1F
100
AcDbEntity
  8
0-A
  6
JWW_DASHED1
 62
     2
370
     9
100
AcDbLine
 10
-268.6020749360898
 20
245.9658817600561
 30
0.0
 11
-266.5520292893339
 21
248.0158224216301
 31
0.0
  0
LINE
  5
1AB
330
1F
100
AcDbEntity
  8
0-A
  6
JWW_DASHED1
 62
     2
370
     9
100
AcDbLine
 10
-274.7520019059936
 20
248.0158224216301
 30
0.0
 11
-266.5520292893339
 21
248.0158224216301
 31
0.0
  0
LINE
  5
1AC
330
1F
100
AcDbEntity
  8
0-A
  6
JWW_DASHED1
 62
     2
370
     9
100
AcDbLine
 10
-266.5520292893339
 20
248.3158700714702
 30
0.0
 11
-266.5520292893339
 21
248.0158224216301
 31
0.0
  0
LINE
  5
1AD
330
1F
100
AcDbEntity
  8
0-A
  6
JWW_DASHED1
 62
     2
370
     9
100
AcDbLine
 10
-272.7019562592377
 20
245.9658817600561
 30
0.0
 11
-272.7019562592377
 21
239.9824612886292
 31
0.0
  0
LINE
  5
1AE
330
1F
100
AcDbEntity
  8
0-A
  6
JWW_DASHED1
 62
     2
370
     9
100
AcDbLine
 10
-268.6020749360898
 20
245.9658817600561
 30
0.0
 11
-268.6020749360898
 21
239.9824612886292
 31
0.0
  0
LINE
  5
1AF
330
1F
100
AcDbEntity
  8
0-A
  6
JWW_DASHED1
 62
     2
370
     9
100
AcDbLine
 10
-268.6020749360898
 20
239.9824612886292
 30
0.0
 11
-270.6520155976636
 21
223.3158536933105
 31
0.0
  0
LINE
  5
1B0
330
1F
100
AcDbEntity
  8
0-A
  6
JWW_DASHED1
 62
     2
370
     9
100
AcDbLine
 10
-270.6520155976636
 20
223.3158536933105
 30
0.0
 11
-272.7019562592377
 21
239.9824612886292
 31
0.0
  0
LINE
  5
1B1
330
1F
100
AcDbEntity
  8
0-A
  6
JWW_DASHED1
 62
     2
370
     9
100
AcDbLine
 10
-269.9742312633851
 20
224.7298991081799
 30
0.0
 11
-271.3598256939625
 21
224.9740946412548
 31
0.0
  0
LINE
  5
1B2
330
1F
100
AcDbEntity
  8
0-A
  6
JWW_DASHED1
 62
     2
370
     9
100
AcDbLine
 10
-269.7575418479653
 20
226.4916554454673
 30
0.0
 11
-271.5860687609344
 21
226.8140649390499
 31
0.0
  0
LINE
  5
1B3
330
1F
100
AcDbEntity
  8
0-A
  6
JWW_DASHED1
 62
     2
370
     9
100
AcDbLine
 10
-268.2407159400261
 20
238.8241597768425
 30
0.0
 11
-273.1701901704648
 21
239.6934370828873
 31
0.0
  0
LINE
  5
1B4
330
1F
100
AcDbEntity
  8
0-A
  6
JWW_DASHED1
 62
     2
370
     9
100
AcDbLine
 10
-268.4574053554461
 20
237.0624034395551
 30
0.0
 11
-272.943947103493
 21
237.8534667850923
 31
0.0
  0
LINE
  5
1B5
330
1F
100
AcDbEntity
  8
0-A
  6
JWW_DASHED1
 62
     2
370
     9
100
AcDbLine
 10
-268.6740947708659
 20
235.3006471022677
 30
0.0
 11
-272.7177040365211
 21
236.0136014724792
 31
0.0
  0
LINE
  5
1B6
330
1F
100
AcDbEntity
  8
0-A
  6
JWW_DASHED1
 62
     2
370
     9
100
AcDbLine
 10
-268.8907841862858
 20
233.5387857797986
 30
0.0
 11
-272.4913559843674
 21
234.1737361598661
 31
0.0
  0
LINE
  5
1B7
330
1F
100
AcDbEntity
  8
0-A
  6
JWW_DASHED1
 62
     2
370
     9
100
AcDbLine
 10
-269.1074736017057
 20
231.7770294425112
 30
0.0
 11
-272.2650079322136
 21
232.3337658620711
 31
0.0
  0
LINE
  5
1B8
330
1F
100
AcDbEntity
  8
0-A
  6
JWW_DASHED1
 62
     2
370
     9
100
AcDbLine
 10
-269.3241630171255
 20
230.0152731052238
 30
0.0
 11
-272.0386598800599
 21
230.4937955642761
 31
0.0
  0
LINE
  5
1B9
330
1F
100
AcDbEntity
  8
0-A
  6
JWW_DASHED1
 62
     2
370
     9
100
AcDbLine
 10
-269.5408524325455
 20
228.2534117827547
 30
0.0
 11
-271.8123118279062
 21
228.6540352368449
 31
0.0
  0
LINE
  5
1BA
330
1F
100
AcDbEntity
  8
0-2
  6
JWW_CENTER1
 62
     3
370
     9
100
AcDbLine
 10
-275.652039870332
 20
80.88460962008341
 30
0.0
 11
-275.652039870332
 21
-35.36201777513412
 31
0.0
  0
LINE
  5
1BB
330
1F
100
AcDbEntity
  8
0-2
  6
JWW_CENTER1
 62
     3
370
     9
100
AcDbLine
 10
-535.6520947194927
 20
81.2813486224438
 30
0.0
 11
-535.6520947194927
 21
-36.08352843766951
 31
0.0
  0
LINE
  5
1BC
330
1F
100
AcDbEntity
  8
0-1
  6
JWW_CENTER1
 62
     2
370
     9
100
AcDbLine
 10
-602.6519580384478
 20
-120.3329820669754
 30
0.0
 11
-602.6519580384478
 21
-132.6256970144145
 31
0.0
  0
LINE
  5
1BD
330
1F
100
AcDbEntity
  8
0-1
  6
JWW_CENTER1
 62
     2
370
     9
100
AcDbLine
 10
-596.649325278735
 20
-126.6841656305613
 30
0.0
 11
-608.942040226174
 21
-126.6841656305613
 31
0.0
  0
LINE
  5
1BE
330
1F
100
AcDbEntity
  8
0-3
  6
Continuous
 62
     3
370
     9
100
AcDbLine
 10
-609.152010589953
 20
-180.1840893955303
 30
0.0
 11
-609.152010589953
 21
226.8157447019601
 31
0.0
  0
LINE
  5
1BF
330
1F
100
AcDbEntity
  8
0-3
  6
Continuous
 62
     3
370
     9
100
AcDbLine
 10
-202.1520715072808
 20
-180.1840893955303
 30
0.0
 11
-609.152010589953
 21
-180.1840893955303
 31
0.0
  0
LINE
  5
1C0
330
1F
100
AcDbEntity
  8
0-3
  6
Continuous
 62
     3
370
     9
100
AcDbLine
 10
-202.1520715072808
 20
226.8157447019601
 30
0.0
 11
-202.1520715072808
 21
-180.1840893955303
 31
0.0
  0
LINE
  5
1C1
330
1F
100
AcDbEntity
  8
0-3
  6
Continuous
 62
     3
370
     9
100
AcDbLine
 10
-609.152010589953
 20
226.8157447019601
 30
0.0
 11
-202.1520715072808
 21
226.8157447019601
 31
0.0
  0
LINE
  5
1C2
330
1F
100
AcDbEntity
  8
0-0
  6
Continuous
 62
     4
370
     9
100
AcDbLine
 10
-609.6519500261107
 20
-180.6840813242789
 30
0.0
 11
-609.6519500261107
 21
227.3157366307088
 31
0.0
  0
LINE
  5
1C3
330
1F
100
AcDbEntity
  8
0-0
  6
Continuous
 62
     4
370
     9
100
AcDbLine
 10
-609.6519500261107
 20
227.3157366307088
 30
0.0
 11
-201.6520795785322
 21
227.3157366307088
 31
0.0
  0
LINE
  5
1C4
330
1F
100
AcDbEntity
  8
0-0
  6
Continuous
 62
     4
370
     9
100
AcDbLine
 10
-630.6521359594632
 20
248.3158700714702
 30
0.0
 11
-609.6519500261107
 21
227.3157366307088
 31
0.0
  0
LINE
  5
1C5
330
1F
100
AcDbEntity
  8
0-0
  6
Continuous
 62
     4
370
     9
100
AcDbLine
 10
-630.6521359594632
 20
-201.6841622724495
 30
0.0
 11
-609.6519500261107
 21
-180.6840813242789
 31
0.0
  0
LINE
  5
1C6
330
1F
100
AcDbEntity
  8
0-0
  6
Continuous
 62
     4
370
     9
100
AcDbLine
 10
-201.6520795785322
 20
-180.6840813242789
 30
0.0
 11
-609.6519500261107
 21
-180.6840813242789
 31
0.0
  0
LINE
  5
1C7
330
1F
100
AcDbEntity
  8
0-0
  6
Continuous
 62
     4
370
     9
100
AcDbLine
 10
-201.6520795785322
 20
-180.6841338168699
 30
0.0
 11
-180.6520511229526
 21
-201.6841622724495
 31
0.0
  0
LINE
  5
1C8
330
1F
100
AcDbEntity
  8
0-0
  6
Continuous
 62
     4
370
     9
100
AcDbLine
 10
-201.6520795785322
 20
227.3157366307088
 30
0.0
 11
-180.6520511229526
 21
248.3158700714702
 31
0.0
  0
LINE
  5
1C9
330
1F
100
AcDbEntity
  8
0-0
  6
Continuous
 62
     4
370
     9
100
AcDbLine
 10
-201.6520795785322
 20
227.3157366307088
 30
0.0
 11
-201.6520795785322
 21
-180.6841338168699
 31
0.0
  0
LINE
  5
1CA
330
1F
100
AcDbEntity
  8
0-1
  6
JWW_CENTER1
 62
     2
370
     9
100
AcDbLine
 10
-602.6519580384478
 20
-20.33299529322306
 30
0.0
 11
-602.6519580384478
 21
-32.62571024066219
 31
0.0
  0
LINE
  5
1CB
330
1F
100
AcDbEntity
  8
0-1
  6
JWW_CENTER1
 62
     2
370
     9
100
AcDbLine
 10
-596.649325278735
 20
-26.68417885680896
 30
0.0
 11
-608.942040226174
 21
-26.68417885680896
 31
0.0
  0
LINE
  5
1CC
330
1F
100
AcDbEntity
  8
0-1
  6
JWW_CENTER1
 62
     2
370
     9
100
AcDbLine
 10
-540.6521189921609
 20
219.4476746665927
 30
0.0
 11
-540.6521189921609
 21
248.7401676840766
 31
0.0
  0
LINE
  5
1CD
330
1F
100
AcDbEntity
  8
0-1
  6
JWW_CENTER1
 62
     2
370
     9
100
AcDbLine
 10
-602.6519580384478
 20
166.9646373734052
 30
0.0
 11
-602.6519580384478
 21
179.2573523208443
 31
0.0
  0
LINE
  5
1CE
330
1F
100
AcDbEntity
  8
0-1
  6
JWW_CENTER1
 62
     2
370
     9
100
AcDbLine
 10
-596.649325278735
 20
173.3158209369911
 30
0.0
 11
-608.942040226174
 21
173.3158209369911
 31
0.0
  0
LINE
  5
1CF
330
1F
100
AcDbEntity
  8
0-1
  6
JWW_CENTER1
 62
     2
370
     9
100
AcDbLine
 10
-602.6519580384478
 20
66.96462435335746
 30
0.0
 11
-602.6519580384478
 21
79.25733930079645
 31
0.0
  0
LINE
  5
1D0
330
1F
100
AcDbEntity
  8
0-1
  6
JWW_CENTER1
 62
     2
370
     9
100
AcDbLine
 10
-596.649325278735
 20
73.31580791694336
 30
0.0
 11
-608.942040226174
 21
73.31580791694336
 31
0.0
  0
LINE
  5
1D1
330
1F
100
AcDbEntity
  8
0-1
  6
JWW_CENTER1
 62
     2
370
     9
100
AcDbLine
 10
-262.0032313284265
 20
-173.684089336616
 30
0.0
 11
-249.7105163809875
 21
-173.684089336616
 31
0.0
  0
LINE
  5
1D2
330
1F
100
AcDbEntity
  8
0-1
  6
JWW_CENTER1
 62
     2
370
     9
100
AcDbLine
 10
-255.6520477648407
 20
-167.6814565769032
 30
0.0
 11
-255.6520477648407
 21
-179.9741715243422
 31
0.0
  0
LINE
  5
1D3
330
1F
100
AcDbEntity
  8
0-1
  6
JWW_CENTER1
 62
     2
370
     9
100
AcDbLine
 10
-362.0032443484743
 20
-173.684089336616
 30
0.0
 11
-349.7105294010353
 21
-173.684089336616
 31
0.0
  0
LINE
  5
1D4
330
1F
100
AcDbEntity
  8
0-1
  6
JWW_CENTER1
 62
     2
370
     9
100
AcDbLine
 10
-355.6520607848884
 20
-167.6814565769032
 30
0.0
 11
-355.6520607848884
 21
-179.9741715243422
 31
0.0
  0
LINE
  5
1D5
330
1F
100
AcDbEntity
  8
0-1
  6
JWW_CENTER1
 62
     2
370
     9
100
AcDbLine
 10
-549.3008507688072
 20
-173.684089336616
 30
0.0
 11
-561.5935657162463
 21
-173.684089336616
 31
0.0
  0
LINE
  5
1D6
330
1F
100
AcDbEntity
  8
0-1
  6
JWW_CENTER1
 62
     2
370
     9
100
AcDbLine
 10
-555.6520343323931
 20
-167.6814565769032
 30
0.0
 11
-555.6520343323931
 21
-179.9741715243422
 31
0.0
  0
LINE
  5
1D7
330
1F
100
AcDbEntity
  8
0-1
  6
JWW_CENTER1
 62
     2
370
     9
100
AcDbLine
 10
-449.3008377487594
 20
-173.684089336616
 30
0.0
 11
-461.5935526961985
 21
-173.684089336616
 31
0.0
  0
LINE
  5
1D8
330
1F
100
AcDbEntity
  8
0-1
  6
JWW_CENTER1
 62
     2
370
     9
100
AcDbLine
 10
-455.6520213123453
 20
-167.6814565769032
 30
0.0
 11
-455.6520213123454
 21
-179.9741715243422
 31
0.0
  0
LINE
  5
1D9
330
1F
100
AcDbEntity
  8
0-1
  6
JWW_CENTER1
 62
     2
370
     9
100
AcDbLine
 10
-208.652124058786
 20
166.9646373734052
 30
0.0
 11
-208.652124058786
 21
179.2573523208443
 31
0.0
  0
LINE
  5
1DA
330
1F
100
AcDbEntity
  8
0-1
  6
JWW_CENTER1
 62
     2
370
     9
100
AcDbLine
 10
-214.6547568184988
 20
173.3158209369911
 30
0.0
 11
-202.3620418710598
 21
173.3158209369911
 31
0.0
  0
LINE
  5
1DB
330
1F
100
AcDbEntity
  8
0-1
  6
JWW_CENTER1
 62
     2
370
     9
100
AcDbLine
 10
-208.652124058786
 20
66.96462435335746
 30
0.0
 11
-208.652124058786
 21
79.25733930079645
 31
0.0
  0
LINE
  5
1DC
330
1F
100
AcDbEntity
  8
0-1
  6
JWW_CENTER1
 62
     2
370
     9
100
AcDbLine
 10
-214.6547568184988
 20
73.31580791694336
 30
0.0
 11
-202.3620418710598
 21
73.31580791694336
 31
0.0
  0
LINE
  5
1DD
330
1F
100
AcDbEntity
  8
0-1
  6
JWW_CENTER1
 62
     2
370
     9
100
AcDbLine
 10
-208.652124058786
 20
-120.3329820669754
 30
0.0
 11
-208.652124058786
 21
-132.6256970144145
 31
0.0
  0
LINE
  5
1DE
330
1F
100
AcDbEntity
  8
0-1
  6
JWW_CENTER1
 62
     2
370
     9
100
AcDbLine
 10
-214.6547568184988
 20
-126.6841656305613
 30
0.0
 11
-202.3620418710598
 21
-126.6841656305613
 31
0.0
  0
LINE
  5
1DF
330
1F
100
AcDbEntity
  8
0-1
  6
JWW_CENTER1
 62
     2
370
     9
100
AcDbLine
 10
-208.652124058786
 20
-20.33296904692762
 30
0.0
 11
-208.652124058786
 21
-32.62568399436674
 31
0.0
  0
LINE
  5
1E0
330
1F
100
AcDbEntity
  8
0-1
  6
JWW_CENTER1
 62
     2
370
     9
100
AcDbLine
 10
-214.6547568184988
 20
-26.68415261051351
 30
0.0
 11
-202.3620418710598
 21
-26.68415261051351
 31
0.0
  0
LINE
  5
1E1
330
1F
100
AcDbEntity
  8
0-1
  6
JWW_CENTER1
 62
     2
370
     9
100
AcDbLine
 10
-549.3008507688071
 20
220.3157446430458
 30
0.0
 11
-561.5935657162462
 21
220.3157446430458
 31
0.0
  0
LINE
  5
1E2
330
1F
100
AcDbEntity
  8
0-1
  6
JWW_CENTER1
 62
     2
370
     9
100
AcDbLine
 10
-555.652034332393
 20
214.313111883333
 30
0.0
 11
-555.652034332393
 21
226.6058268307721
 31
0.0
  0
LINE
  5
1E3
330
1F
100
AcDbEntity
  8
0-1
  6
JWW_CENTER1
 62
     2
370
     9
100
AcDbLine
 10
-449.3008377487594
 20
220.3157446430458
 30
0.0
 11
-461.5935526961985
 21
220.3157446430458
 31
0.0
  0
LINE
  5
1E4
330
1F
100
AcDbEntity
  8
0-1
  6
JWW_CENTER1
 62
     2
370
     9
100
AcDbLine
 10
-455.6520213123453
 20
214.313111883333
 30
0.0
 11
-455.6520213123453
 21
226.6058268307721
 31
0.0
  0
LINE
  5
1E5
330
1F
100
AcDbEntity
  8
0-1
  6
JWW_CENTER1
 62
     2
370
     9
100
AcDbLine
 10
-262.0032313284265
 20
220.3157446430458
 30
0.0
 11
-249.7105163809875
 21
220.3157446430458
 31
0.0
  0
LINE
  5
1E6
330
1F
100
AcDbEntity
  8
0-1
  6
JWW_CENTER1
 62
     2
370
     9
100
AcDbLine
 10
-255.6520477648406
 20
214.313111883333
 30
0.0
 11
-255.6520477648406
 21
226.6058268307721
 31
0.0
  0
LINE
  5
1E7
330
1F
100
AcDbEntity
  8
0-1
  6
JWW_CENTER1
 62
     2
370
     9
100
AcDbLine
 10
-362.0032443484743
 20
220.3157446430458
 30
0.0
 11
-349.7105294010353
 21
220.3157446430458
 31
0.0
  0
LINE
  5
1E8
330
1F
100
AcDbEntity
  8
0-1
  6
JWW_CENTER1
 62
     2
370
     9
100
AcDbLine
 10
-355.6520607848884
 20
214.313111883333
 30
0.0
 11
-355.6520607848884
 21
226.6058268307721
 31
0.0
  0
CIRCLE
  5
1E9
330
1F
100
AcDbEntity
  8
0-1
  6
JWW_DASHED1
 62
     2
370
     9
100
AcDbCircle
 10
-602.6519580384478
 20
-126.6841656305613
 30
0.0
 40
1.999999907716361
  0
CIRCLE
  5
1EA
330
1F
100
AcDbEntity
  8
0-1
  6
JWW_DASHED1
 62
     2
370
     9
100
AcDbCircle
 10
-602.6519580384478
 20
-26.68417885680896
 30
0.0
 40
1.999999907716361
  0
CIRCLE
  5
1EB
330
1F
100
AcDbEntity
  8
0-1
  6
JWW_DASHED1
 62
     2
370
     9
100
AcDbCircle
 10
-602.6519580384478
 20
173.3158209369911
 30
0.0
 40
1.999999907716361
  0
CIRCLE
  5
1EC
330
1F
100
AcDbEntity
  8
0-1
  6
JWW_DASHED1
 62
     2
370
     9
100
AcDbCircle
 10
-602.6519580384478
 20
73.31580791694336
 30
0.0
 40
1.999999907716361
  0
CIRCLE
  5
1ED
330
1F
100
AcDbEntity
  8
0-1
  6
JWW_DASHED1
 62
     2
370
     9
100
AcDbCircle
 10
-255.6520477648407
 20
-173.684089336616
 30
0.0
 40
1.999999907716361
  0
CIRCLE
  5
1EE
330
1F
100
AcDbEntity
  8
0-1
  6
JWW_DASHED1
 62
     2
370
     9
100
AcDbCircle
 10
-355.6520607848884
 20
-173.684089336616
 30
0.0
 40
1.999999907716361
  0
CIRCLE
  5
1EF
330
1F
100
AcDbEntity
  8
0-1
  6
JWW_DASHED1
 62
     2
370
     9
100
AcDbCircle
 10
-555.6520343323931
 20
-173.684089336616
 30
0.0
 40
1.999999907716361
  0
CIRCLE
  5
1F0
330
1F
100
AcDbEntity
  8
0-1
  6
JWW_DASHED1
 62
     2
370
     9
100
AcDbCircle
 10
-455.6520213123453
 20
-173.684089336616
 30
0.0
 40
1.999999907716361
  0
CIRCLE
  5
1F1
330
1F
100
AcDbEntity
  8
0-1
  6
JWW_DASHED1
 62
     2
370
     9
100
AcDbCircle
 10
-208.652124058786
 20
173.3158209369911
 30
0.0
 40
1.999999907716361
  0
CIRCLE
  5
1F2
330
1F
100
AcDbEntity
  8
0-1
  6
JWW_DASHED1
 62
     2
370
     9
100
AcDbCircle
 10
-208.652124058786
 20
73.31580791694336
 30
0.0
 40
1.999999907716361
  0
CIRCLE
  5
1F3
330
1F
100
AcDbEntity
  8
0-1
  6
JWW_DASHED1
 62
     2
370
     9
100
AcDbCircle
 10
-208.652124058786
 20
-126.6841656305613
 30
0.0
 40
1.999999907716361
  0
CIRCLE
  5
1F4
330
1F
100
AcDbEntity
  8
0-1
  6
JWW_DASHED1
 62
     2
370
     9
100
AcDbCircle
 10
-208.652124058786
 20
-26.68415261051351
 30
0.0
 40
1.999999907716361
  0
CIRCLE
  5
1F5
330
1F
100
AcDbEntity
  8
0-1
  6
JWW_DASHED1
 62
     2
370
     9
100
AcDbCircle
 10
-555.652034332393
 20
220.3157446430458
 30
0.0
 40
1.999999907716361
  0
CIRCLE
  5
1F6
330
1F
100
AcDbEntity
  8
0-1
  6
JWW_DASHED1
 62
     2
370
     9
100
AcDbCircle
 10
-455.6520213123453
 20
220.3157446430458
 30
0.0
 40
1.999999907716361
  0
CIRCLE
  5
1F7
330
1F
100
AcDbEntity
  8
0-1
  6
JWW_DASHED1
 62
     2
370
     9
100
AcDbCircle
 10
-255.6520477648406
 20
220.3157446430458
 30
0.0
 40
1.999999907716361
  0
CIRCLE
  5
1F8
330
1F
100
AcDbEntity
  8
0-1
  6
JWW_DASHED1
 62
     2
370
     9
100
AcDbCircle
 10
-355.6520607848884
 20
220.3157446430458
 30
0.0
 40
1.999999907716361
  0
LINE
  5
1F9
330
1F
100
AcDbEntity
  8
0-9
  6
JWW_DASHED3
 62
     2
370
     9
100
AcDbLine
 10
-605.6520410486169
 20
-176.6841723467851
 30
0.0
 11
-205.6520410486169
 21
-176.6841723467851
 31
0.0
  0
LINE
  5
1FA
330
1F
100
AcDbEntity
  8
0-9
  6
JWW_DASHED3
 62
     2
370
     9
100
AcDbLine
 10
-205.6520410486169
 20
-176.6841723467851
 30
0.0
 11
-205.6520410486169
 21
223.3158276532149
 31
0.0
  0
LINE
  5
1FB
330
1F
100
AcDbEntity
  8
0-9
  6
JWW_DASHED3
 62
     2
370
     9
100
AcDbLine
 10
-205.6520410486169
 20
223.3158276532149
 30
0.0
 11
-605.6520410486169
 21
223.3158276532149
 31
0.0
  0
LINE
  5
1FC
330
1F
100
AcDbEntity
  8
0-9
  6
JWW_DASHED3
 62
     2
370
     9
100
AcDbLine
 10
-605.6520410486169
 20
223.3158276532149
 30
0.0
 11
-605.6520410486169
 21
-176.6841723467851
 31
0.0
  0
LINE
  5
1FD
330
1F
100
AcDbEntity
  8
0-0
  6
JWW_CENTER1
 62
     4
370
     9
100
AcDbLine
 10
-405.6520410486169
 20
-234.684162390278
 30
0.0
 11
-405.6520410486169
 21
281.3157652041168
 31
0.0
  0
LINE
  5
1FE
330
1F
100
AcDbEntity
  8
0-0
  6
JWW_CENTER1
 62
     4
370
     9
100
AcDbLine
 10
-147.6520510051241
 20
23.31582765321485
 30
0.0
 11
-663.6520310921098
 21
23.31582765321485
 31
0.0
  0
LINE
  5
1FF
330
1F
100
AcDbEntity
  8
0-4
  6
Continuous
 62
     7
370
     9
100
AcDbLine
 10
-630.6521647685282
 20
268.8164953283362
 30
0.0
 11
-630.6521647685282
 21
349.7157081397805
 31
0.0
  0
LINE
  5
200
330
1F
100
AcDbEntity
  8
0-4
  6
Continuous
 62
     7
370
     9
100
AcDbLine
 10
-180.6520410486169
 20
268.8164953283362
 30
0.0
 11
-180.6520410486169
 21
349.7157081397805
 31
0.0
  0
LINE
  5
201
330
1F
100
AcDbEntity
  8
0-4
  6
Continuous
 62
     7
370
     9
100
AcDbLine
 10
-651.1519906801711
 20
248.3165323890241
 30
0.0
 11
-732.0512101456926
 21
248.3161060230152
 31
0.0
  0
LINE
  5
202
330
1F
100
AcDbEntity
  8
0-4
  6
Continuous
 62
     7
370
     9
100
AcDbLine
 10
-651.1496533103114
 20
-201.6835913306766
 30
0.0
 11
-732.0488594673775
 21
-201.6840176968961
 31
0.0
  0
LINE
  5
203
330
1F
100
AcDbEntity
  8
0-4
  6
Continuous
 62
     7
370
     9
100
AcDbLine
 10
-605.6520410486169
 20
308.7238373627534
 30
0.0
 11
-205.6520410486169
 21
308.7238373627534
 31
0.0
  0
LWPOLYLINE
  5
204
330
1F
100
AcDbEntity
  8
0-4
  6
Continuous
 62
     7
370
     9
100
AcDbPolyline
 90
        4
 70
     1
 43
0.5
 10
-605.402041048617
 20
308.7238373627534
 42
0.4142135623731
 10
-605.6520410486169
 20
308.9738373627534
 42
0.4142135623731
 10
-605.9020410486169
 20
308.7238373627534
 42
0.4142135623731
 10
-605.6520410486169
 20
308.4738373627534
 42
0.4142135623731
  0
LWPOLYLINE
  5
205
330
1F
100
AcDbEntity
  8
0-4
  6
Continuous
 62
     7
370
     9
100
AcDbPolyline
 90
        4
 70
     1
 43
0.5
 10
-205.4020410486169
 20
308.7238373627534
 42
0.4142135623731
 10
-205.6520410486169
 20
308.9738373627534
 42
0.4142135623731
 10
-205.9020410486169
 20
308.7238373627534
 42
0.4142135623731
 10
-205.6520410486169
 20
308.4738373627534
 42
0.4142135623731
  0
TEXT
  5
206
330
1F
100
AcDbEntity
  8
0-4
  6
Continuous
 62
     2
370
   211
100
AcDbText
 10
-421.9020410486169
 20
314.5438374819627
 30
0.0
 40
15.24
  1
400
 41
1.083333333333333
  7
ＭＳ ゴシック
100
AcDbText
  0
LINE
  5
207
330
1F
100
AcDbEntity
  8
0-4
  6
Continuous
 62
     7
370
     9
100
AcDbLine
 10
-605.6520410486169
 20
310.223837422358
 30
0.0
 11
-605.6520410486169
 21
268.8164953283362
 31
0.0
  0
LINE
  5
208
330
1F
100
AcDbEntity
  8
0-4
  6
Continuous
 62
     7
370
     9
100
AcDbLine
 10
-205.6520410486169
 20
310.223837422358
 30
0.0
 11
-205.6520410486169
 21
268.8164953283362
 31
0.0
  0
LINE
  5
209
330
1F
100
AcDbEntity
  8
0-4
  6
Continuous
 62
     7
370
     9
100
AcDbLine
 10
-691.0597707949393
 20
223.3153603987359
 30
0.0
 11
-691.0562712783083
 21
-176.6846395859559
 31
0.0
  0
LWPOLYLINE
  5
20A
330
1F
100
AcDbEntity
  8
0-4
  6
Continuous
 62
     7
370
     9
100
AcDbPolyline
 90
        4
 70
     1
 43
0.5
 10
-690.8097707949391
 20
223.3153603987359
 42
0.4142135623731
 10
-691.0597707949393
 20
223.5653603987359
 42
0.4142135623731
 10
-691.3097707949394
 20
223.3153603987359
 42
0.4142135623731
 10
-691.0597707949393
 20
223.0653603987359
 42
0.4142135623731
  0
LINE
  5
20B
330
1F
100
AcDbEntity
  8
0-4
  6
Continuous
 62
     7
370
     9
100
AcDbLine
 10
-692.5597708544865
 20
223.315347275548
 30
0.0
 11
-651.1524287620495
 21
223.3157095397537
 31
0.0
  0
LWPOLYLINE
  5
20C
330
1F
100
AcDbEntity
  8
0-4
  6
Continuous
 62
     7
370
     9
100
AcDbPolyline
 90
        4
 70
     1
 43
0.5
 10
-690.8062712783083
 20
-176.6846395859558
 42
0.4142135623731
 10
-691.0562712783083
 20
-176.4346395859559
 42
0.4142135623731
 10
-691.3062712783084
 20
-176.6846395859558
 42
0.4142135623731
 10
-691.0562712783083
 20
-176.9346395859558
 42
0.4142135623731
  0
LINE
  5
20D
330
1F
100
AcDbEntity
  8
0-4
  6
Continuous
 62
     7
370
     9
100
AcDbLine
 10
-692.5562713378555
 20
-176.6846527091438
 30
0.0
 11
-651.1489292454183
 21
-176.684290444938
 31
0.0
  0
TEXT
  5
20E
330
1F
100
AcDbEntity
  8
0-4
  6
Continuous
 62
     2
370
   211
100
AcDbText
 10
-696.8778789877473
 20
7.065309489043888
 30
0.0
 40
15.24
  1
400
 50
90.00050126883323
 41
1.083333333333333
  7
ＭＳ ゴシック
100
AcDbText
  0
LINE
  5
20F
330
1F
100
AcDbEntity
  8
0-0
  6
JWW_DASHED1
 62
   211
370
     5
100
AcDbLine
 10
-597.6519337657794
 20
215.3156153851957
 30
0.0
 11
-213.6522008240452
 21
215.3156153851957
 31
0.0
  0
LINE
  5
210
330
1F
100
AcDbEntity
  8
0-0
  6
JWW_DASHED1
 62
   211
370
     5
100
AcDbLine
 10
-597.6519337657794
 20
-168.6839600787658
 30
0.0
 11
-597.6519337657794
 21
215.3156153851957
 31
0.0
  0
LINE
  5
211
330
1F
100
AcDbEntity
  8
0-0
  6
JWW_DASHED1
 62
   211
370
     5
100
AcDbLine
 10
-213.6522008240452
 20
215.3156153851957
 30
0.0
 11
-213.6523583018181
 21
-168.6839600787658
 31
0.0
  0
LINE
  5
212
330
1F
100
AcDbEntity
  8
0-0
  6
JWW_DASHED1
 62
   211
370
     5
100
AcDbLine
 10
-213.6523583018181
 20
-168.6839600787658
 30
0.0
 11
-597.6519337657794
 21
-168.6839600787658
 31
0.0
  0
LINE
  5
213
330
1F
100
AcDbEntity
  8
D-4
  6
Continuous
 62
     7
370
     9
100
AcDbLine
 10
523.5165982633023
 20
394.4285855186428
 30
0.0
 11
528.5767426361908
 21
405.8585732456276
 31
0.0
  0
LINE
  5
214
330
1F
100
AcDbEntity
  8
D-4
  6
Continuous
 62
     7
370
     9
100
AcDbLine
 10
523.5165982633023
 20
394.4285855186428
 30
0.0
 11
531.3629150390625
 21
404.1595277035035
 31
0.0
  0
LINE
  5
215
330
1F
100
AcDbEntity
  8
D-0
  6
Continuous
 62
     4
370
     9
100
AcDbLine
 10
507.0497255067568
 20
388.1786267586133
 30
0.0
 11
509.5496100348396
 21
386.9288082144832
 31
0.0
  0
LINE
  5
216
330
1F
100
AcDbEntity
  8
D-0
  6
Continuous
 62
     4
370
     9
100
AcDbLine
 10
509.5496100348396
 20
386.9288082144832
 30
0.0
 11
509.5496100348396
 21
376.9285277826842
 31
0.0
  0
LINE
  5
217
330
1F
100
AcDbEntity
  8
D-0
  6
Continuous
 62
     4
370
     9
100
AcDbLine
 10
497.0499399546031
 20
383.1787339825365
 30
0.0
 11
497.0499399546031
 21
376.9285277826842
 31
0.0
  0
LINE
  5
218
330
1F
100
AcDbEntity
  8
D-0
  6
Continuous
 62
     4
370
     9
100
AcDbLine
 10
502.0497090107688
 20
383.1787339825365
 30
0.0
 11
497.0499399546031
 21
383.1787339825365
 31
0.0
  0
LINE
  5
219
330
1F
100
AcDbEntity
  8
D-0
  6
Continuous
 62
     4
370
     9
100
AcDbLine
 10
502.0497090107688
 20
390.1785591250617
 30
0.0
 11
502.0497090107688
 21
383.1787339825365
 31
0.0
  0
LINE
  5
21A
330
1F
100
AcDbEntity
  8
D-0
  6
Continuous
 62
     4
370
     9
100
AcDbLine
 10
502.0497090107688
 20
390.1785591250617
 30
0.0
 11
462.0495770428633
 21
390.1785591250617
 31
0.0
  0
LINE
  5
21B
330
1F
100
AcDbEntity
  8
D-0
  6
Continuous
 62
     4
370
     9
100
AcDbLine
 10
467.049840978674
 20
383.1787339825365
 30
0.0
 11
467.049840978674
 21
376.9285277826842
 31
0.0
  0
LINE
  5
21C
330
1F
100
AcDbEntity
  8
D-0
  6
Continuous
 62
     4
370
     9
100
AcDbLine
 10
467.049840978674
 20
383.1787339825365
 30
0.0
 11
462.0495770428633
 21
383.1787339825365
 31
0.0
  0
LINE
  5
21D
330
1F
100
AcDbEntity
  8
D-0
  6
Continuous
 62
     4
370
     9
100
AcDbLine
 10
462.0495770428633
 20
390.1785591250617
 30
0.0
 11
462.0495770428633
 21
383.1787339825365
 31
0.0
  0
LINE
  5
21E
330
1F
100
AcDbEntity
  8
D-0
  6
Continuous
 62
     4
370
     9
100
AcDbLine
 10
502.0497090107688
 20
395.1788230608725
 30
0.0
 11
457.0498079866977
 21
395.1788230608725
 31
0.0
  0
LINE
  5
21F
330
1F
100
AcDbEntity
  8
D-0
  6
Continuous
 62
     4
370
     9
100
AcDbLine
 10
457.0498079866977
 20
395.1788230608725
 30
0.0
 11
457.0498079866977
 21
388.9287405809316
 31
0.0
  0
LINE
  5
220
330
1F
100
AcDbEntity
  8
D-0
  6
Continuous
 62
     4
370
     9
100
AcDbLine
 10
457.0498079866977
 20
383.9286003650321
 30
0.0
 11
457.0498079866977
 21
376.9285277826842
 31
0.0
  0
LINE
  5
221
330
1F
100
AcDbEntity
  8
D-0
  6
Continuous
 62
     4
370
     9
100
AcDbLine
 10
509.5496100348396
 20
376.9285277826842
 30
0.0
 11
497.0499399546031
 21
376.9285277826842
 31
0.0
  0
LINE
  5
222
330
1F
100
AcDbEntity
  8
D-0
  6
Continuous
 62
     4
370
     9
100
AcDbLine
 10
467.049840978674
 20
376.9285277826842
 30
0.0
 11
457.0498079866977
 21
376.9285277826842
 31
0.0
  0
LINE
  5
223
330
1F
100
AcDbEntity
  8
D-1
  6
Continuous
 62
     2
370
     9
100
AcDbLine
 10
535.7995110589106
 20
444.4286267586133
 30
0.0
 11
542.0495935388516
 21
440.6786762465779
 31
0.0
  0
LINE
  5
224
330
1F
100
AcDbEntity
  8
D-1
  6
Continuous
 62
     2
370
     9
100
AcDbLine
 10
542.0495935388516
 20
440.6786762465779
 30
0.0
 11
542.0495935388516
 21
439.4287339825365
 31
0.0
  0
LINE
  5
225
330
1F
100
AcDbEntity
  8
D-5
  6
Continuous
 62
     7
370
     9
100
AcDbLine
 10
449.5496595228042
 20
376.9285277826842
 30
0.0
 11
449.5496595228042
 21
374.4288288344685
 31
0.0
  0
LINE
  5
226
330
1F
100
AcDbEntity
  8
D-5
  6
Continuous
 62
     7
370
     9
100
AcDbLine
 10
509.5496100348396
 20
376.9285277826842
 30
0.0
 11
509.5496100348396
 21
374.4288288344685
 31
0.0
  0
LINE
  5
227
330
1F
100
AcDbEntity
  8
D-5
  6
Continuous
 62
     7
370
     9
100
AcDbLine
 10
493.2997420027451
 20
368.1788082144832
 30
0.0
 11
493.2997420027451
 21
365.7905190464089
 31
0.0
  0
LINE
  5
228
330
1F
100
AcDbEntity
  8
D-5
  6
Continuous
 62
     7
370
     9
100
AcDbLine
 10
465.7997749947214
 20
368.1788082144832
 30
0.0
 11
465.7997749947214
 21
365.7905190464089
 31
0.0
  0
LINE
  5
229
330
1F
100
AcDbEntity
  8
D-5
  6
Continuous
 62
     7
370
     9
100
AcDbLine
 10
490.1745770428633
 20
374.4288288344685
 30
0.0
 11
490.1745770428633
 21
368.1788082144832
 31
0.0
  0
LINE
  5
22A
330
1F
100
AcDbEntity
  8
D-5
  6
Continuous
 62
     7
370
     9
100
AcDbLine
 10
493.2997420027451
 20
368.1788082144832
 30
0.0
 11
490.1745770428633
 21
368.1788082144832
 31
0.0
  0
LINE
  5
22B
330
1F
100
AcDbEntity
  8
D-5
  6
Continuous
 62
     7
370
     9
100
AcDbLine
 10
468.9246925147805
 20
374.4288288344685
 30
0.0
 11
468.9246925147805
 21
368.1788082144832
 31
0.0
  0
LINE
  5
22C
330
1F
100
AcDbEntity
  8
D-5
  6
Continuous
 62
     7
370
     9
100
AcDbLine
 10
468.9246925147805
 20
368.1788082144832
 30
0.0
 11
465.7997749947214
 21
368.1788082144832
 31
0.0
  0
LINE
  5
22D
330
1F
100
AcDbEntity
  8
D-5
  6
Continuous
 62
     7
370
     9
100
AcDbLine
 10
487.0496595228042
 20
374.4288288344685
 30
0.0
 11
487.0496595228042
 21
365.9800579505474
 31
0.0
  0
LINE
  5
22E
330
1F
100
AcDbEntity
  8
D-5
  6
Continuous
 62
     7
370
     9
100
AcDbLine
 10
487.0496595228042
 20
374.4288288344685
 30
0.0
 11
472.0496100348396
 21
374.4288288344685
 31
0.0
  0
LINE
  5
22F
330
1F
100
AcDbEntity
  8
D-5
  6
Continuous
 62
     7
370
     9
100
AcDbLine
 10
472.0496100348396
 20
374.4288288344685
 30
0.0
 11
472.0496100348396
 21
365.9800579505474
 31
0.0
  0
LINE
  5
230
330
1F
100
AcDbEntity
  8
D-1
  6
Continuous
 62
     2
370
     9
100
AcDbLine
 10
512.0494945629224
 20
374.4288288344685
 30
0.0
 11
493.2997420027451
 21
374.4288288344685
 31
0.0
  0
LINE
  5
231
330
1F
100
AcDbEntity
  8
D-5
  6
Continuous
 62
     7
370
     9
100
AcDbLine
 10
493.2997420027451
 20
374.4288288344685
 30
0.0
 11
490.1745770428633
 21
374.4288288344685
 31
0.0
  0
LINE
  5
232
330
1F
100
AcDbEntity
  8
D-1
  6
Continuous
 62
     2
370
     9
100
AcDbLine
 10
465.7997749947214
 20
374.4288288344685
 30
0.0
 11
447.0497749947214
 21
374.4288288344685
 31
0.0
  0
LINE
  5
233
330
1F
100
AcDbEntity
  8
D-5
  6
Continuous
 62
     7
370
     9
100
AcDbLine
 10
465.7997749947214
 20
374.4288288344685
 30
0.0
 11
468.9246925147805
 21
374.4288288344685
 31
0.0
  0
LINE
  5
234
330
1F
100
AcDbEntity
  8
D-1
  6
Continuous
 62
     2
370
     9
100
AcDbLine
 10
495.174840978674
 20
369.4287504785246
 30
0.0
 11
493.2997420027451
 21
369.4287504785246
 31
0.0
  0
LINE
  5
235
330
1F
100
AcDbEntity
  8
D-1
  6
Continuous
 62
     2
370
     9
100
AcDbLine
 10
463.9246760187922
 20
369.4287504785246
 30
0.0
 11
465.7997749947214
 21
369.4287504785246
 31
0.0
  0
LINE
  5
236
330
1F
100
AcDbEntity
  8
D-1
  6
Continuous
 62
     2
370
     9
100
AcDbLine
 10
485.1748079866977
 20
341.9286597505896
 30
0.0
 11
485.1748079866977
 21
339.4285277826842
 31
0.0
  0
LINE
  5
237
330
1F
100
AcDbEntity
  8
D-1
  6
Continuous
 62
     2
370
     9
100
AcDbLine
 10
488.9247584987331
 20
341.9286597505896
 30
0.0
 11
485.1748079866977
 21
341.9286597505896
 31
0.0
  0
LINE
  5
238
330
1F
100
AcDbEntity
  8
D-1
  6
Continuous
 62
     2
370
     9
100
AcDbLine
 10
488.9247584987331
 20
350.6787504785246
 30
0.0
 11
488.9247584987331
 21
341.9286597505896
 31
0.0
  0
LINE
  5
239
330
1F
100
AcDbEntity
  8
D-1
  6
Continuous
 62
     2
370
     9
100
AcDbLine
 10
473.9247090107688
 20
341.9286597505896
 30
0.0
 11
473.9247090107688
 21
339.4285277826842
 31
0.0
  0
LINE
  5
23A
330
1F
100
AcDbEntity
  8
D-1
  6
Continuous
 62
     2
370
     9
100
AcDbLine
 10
470.1745110589107
 20
341.9286597505896
 30
0.0
 11
473.9247090107688
 21
341.9286597505896
 31
0.0
  0
LINE
  5
23B
330
1F
100
AcDbEntity
  8
D-1
  6
Continuous
 62
     2
370
     9
100
AcDbLine
 10
470.1745110589107
 20
350.6787504785246
 30
0.0
 11
470.1745110589107
 21
341.9286597505896
 31
0.0
  0
LINE
  5
23C
330
1F
100
AcDbEntity
  8
D-1
  6
Continuous
 62
     2
370
     9
100
AcDbLine
 10
453.2993625950169
 20
369.4287504785246
 30
0.0
 11
457.6743460990289
 21
369.4287504785246
 31
0.0
  0
LINE
  5
23D
330
1F
100
AcDbEntity
  8
D-1
  6
Continuous
 62
     2
370
     9
100
AcDbLine
 10
447.0497749947214
 20
374.4288288344685
 30
0.0
 11
447.0497749947214
 21
339.4285277826842
 31
0.0
  0
LINE
  5
23E
330
1F
100
AcDbEntity
  8
D-1
  6
Continuous
 62
     2
370
     9
100
AcDbLine
 10
450.7997255067568
 20
345.6787339825365
 30
0.0
 11
450.7997255067568
 21
366.9287422305305
 31
0.0
  0
LINE
  5
23F
330
1F
100
AcDbEntity
  8
D-1
  6
Continuous
 62
     2
370
     9
100
AcDbLine
 10
463.9249234586148
 20
343.178602014631
 30
0.0
 11
453.2993625950169
 21
343.178602014631
 31
0.0
  0
LINE
  5
240
330
1F
100
AcDbEntity
  8
D-1
  6
Continuous
 62
     2
370
     9
100
AcDbLine
 10
466.4248079866977
 20
348.1787422305305
 30
0.0
 11
466.4248079866977
 21
345.6787339825365
 31
0.0
  0
LINE
  5
241
330
1F
100
AcDbEntity
  8
D-1
  6
Continuous
 62
     2
370
     9
100
AcDbLine
 10
462.6746100348396
 20
350.6787504785246
 30
0.0
 11
463.9249234586148
 21
350.6787504785246
 31
0.0
  0
LINE
  5
242
330
1F
100
AcDbEntity
  8
D-1
  6
Continuous
 62
     2
370
     9
100
AcDbLine
 10
460.1749729465794
 20
353.1786350066074
 30
0.0
 11
460.1749729465794
 21
366.9287422305305
 31
0.0
  0
LINE
  5
243
330
1F
100
AcDbEntity
  8
D-1
  6
Continuous
 62
     2
370
     9
100
AcDbLine
 10
524.5496595228042
 20
344.4286679985837
 30
0.0
 11
517.0500059385557
 21
344.4286679985837
 31
0.0
  0
LINE
  5
244
330
1F
100
AcDbEntity
  8
D-1
  6
Continuous
 62
     2
370
     9
100
AcDbLine
 10
509.5496100348396
 20
369.4287504785246
 30
0.0
 11
501.4246760187922
 21
369.4287504785246
 31
0.0
  0
LINE
  5
245
330
1F
100
AcDbEntity
  8
D-1
  6
Continuous
 62
     2
370
     9
100
AcDbLine
 10
498.9250389305323
 20
354.4288247104714
 30
0.0
 11
498.9250389305323
 21
366.9287422305305
 31
0.0
  0
LINE
  5
246
330
1F
100
AcDbEntity
  8
D-1
  6
Continuous
 62
     2
370
     9
100
AcDbLine
 10
495.174840978674
 20
350.6787504785246
 30
0.0
 11
492.6744615709461
 21
350.6787504785246
 31
0.0
  0
LINE
  5
247
330
1F
100
AcDbEntity
  8
D-1
  6
Continuous
 62
     2
370
     9
100
AcDbLine
 10
529.5496760187922
 20
346.9286762465779
 30
0.0
 11
529.5496760187922
 21
339.4285277826842
 31
0.0
  0
LINE
  5
248
330
1F
100
AcDbEntity
  8
D-1
  6
Continuous
 62
     2
370
     9
100
AcDbLine
 10
524.5496595228042
 20
346.9286762465779
 30
0.0
 11
524.5496595228042
 21
344.4286679985837
 31
0.0
  0
LINE
  5
249
330
1F
100
AcDbEntity
  8
D-1
  6
Continuous
 62
     2
370
     9
100
AcDbLine
 10
512.0494945629224
 20
345.6787339825365
 30
0.0
 11
512.0494945629224
 21
366.9287422305305
 31
0.0
  0
LINE
  5
24A
330
1F
100
AcDbEntity
  8
D-1
  6
Continuous
 62
     2
370
     9
100
AcDbLine
 10
495.174840978674
 20
343.178602014631
 30
0.0
 11
509.5496100348396
 21
343.178602014631
 31
0.0
  0
LINE
  5
24B
330
1F
100
AcDbEntity
  8
D-1
  6
Continuous
 62
     2
370
     9
100
AcDbLine
 10
492.6744615709461
 20
345.6787339825365
 30
0.0
 11
492.6744615709461
 21
350.6787504785246
 31
0.0
  0
LINE
  5
24C
330
1F
100
AcDbEntity
  8
D-1
  6
Continuous
 62
     2
370
     9
100
AcDbLine
 10
529.5496760187922
 20
394.4285855186428
 30
0.0
 11
517.0500059385557
 21
394.4285855186428
 31
0.0
  0
LINE
  5
24D
330
1F
100
AcDbEntity
  8
D-1
  6
Continuous
 62
     2
370
     9
100
AcDbLine
 10
529.5496760187922
 20
386.9284370547492
 30
0.0
 11
529.5496760187922
 21
394.4285855186428
 31
0.0
  0
LINE
  5
24E
330
1F
100
AcDbEntity
  8
D-1
  6
Continuous
 62
     2
370
     9
100
AcDbLine
 10
524.5496595228042
 20
386.9284370547492
 30
0.0
 11
524.5496595228042
 21
389.4288164624774
 31
0.0
  0
LINE
  5
24F
330
1F
100
AcDbEntity
  8
D-1
  6
Continuous
 62
     2
370
     9
100
AcDbLine
 10
524.5496595228042
 20
389.4288164624774
 30
0.0
 11
517.0500059385557
 21
389.4288164624774
 31
0.0
  0
LINE
  5
250
330
1F
100
AcDbEntity
  8
D-1
  6
Continuous
 62
     2
370
     9
100
AcDbLine
 10
517.0500059385557
 20
389.4288164624774
 30
0.0
 11
517.0500059385557
 21
344.4286679985837
 31
0.0
  0
LINE
  5
251
330
1F
100
AcDbEntity
  8
D-1
  6
Continuous
 62
     2
370
     9
100
AcDbLine
 10
522.0497749947214
 20
439.4287339825365
 30
0.0
 11
542.0495935388516
 21
439.4287339825365
 31
0.0
  0
LINE
  5
252
330
1F
100
AcDbEntity
  8
D-1
  6
Continuous
 62
     2
370
     9
100
AcDbLine
 10
517.0500059385557
 20
434.428593766637
 30
0.0
 11
517.0500059385557
 21
394.4285855186428
 31
0.0
  0
LINE
  5
253
330
1F
100
AcDbEntity
  8
D-1
  6
Continuous
 62
     2
370
     9
100
AcDbLine
 10
529.5496760187922
 20
339.4285277826842
 30
0.0
 11
485.1748079866977
 21
339.4285277826842
 31
0.0
  0
LINE
  5
254
330
1F
100
AcDbEntity
  8
D-1
  6
Continuous
 62
     2
370
     9
100
AcDbLine
 10
473.9247090107688
 20
339.4285277826842
 30
0.0
 11
447.0497749947214
 21
339.4285277826842
 31
0.0
  0
LINE
  5
255
330
1F
100
AcDbEntity
  8
D-1
  6
Continuous
 62
     2
370
     9
100
AcDbLine
 10
495.174840978674
 20
358.1785277826842
 30
0.0
 11
495.174840978674
 21
369.4287504785246
 31
0.0
  0
LINE
  5
256
330
1F
100
AcDbEntity
  8
D-1
  6
Continuous
 62
     2
370
     9
100
AcDbLine
 10
463.9246760187922
 20
358.1785277826842
 30
0.0
 11
463.9246760187922
 21
369.4287504785246
 31
0.0
  0
LINE
  5
257
330
1F
100
AcDbEntity
  8
D-5
  6
Continuous
 62
     7
370
     9
100
AcDbLine
 10
457.0498079866977
 20
376.9285277826842
 30
0.0
 11
449.5496595228042
 21
376.9285277826842
 31
0.0
  0
LINE
  5
258
330
1F
100
AcDbEntity
  8
D-5
  6
Continuous
 62
     7
370
     9
100
AcDbLine
 10
497.0499399546031
 20
376.9285277826842
 30
0.0
 11
467.049840978674
 21
376.9285277826842
 31
0.0
  0
LINE
  5
259
330
1F
100
AcDbEntity
  8
D-B
  6
Continuous
 62
     7
370
     9
100
AcDbLine
 10
455.7997420027451
 20
396.928593766637
 30
0.0
 11
455.7997420027451
 21
401.9287339825365
 31
0.0
  0
LINE
  5
25A
330
1F
100
AcDbEntity
  8
D-1
  6
Continuous
 62
     2
370
     9
100
AcDbLine
 10
535.7995110589106
 20
444.4286267586133
 30
0.0
 11
518.2995770428633
 21
444.4286267586133
 31
0.0
  0
LINE
  5
25B
330
1F
100
AcDbEntity
  8
D-1
  6
Continuous
 62
     2
370
     9
100
AcDbLine
 10
512.0494945629224
 20
439.4287339825365
 30
0.0
 11
512.0494945629224
 21
374.4288288344685
 31
0.0
  0
LINE
  5
25C
330
1F
100
AcDbEntity
  8
D-0
  6
JWW_CENTER1
 62
     4
370
     9
100
AcDbLine
 10
439.5496265308279
 20
426.8074472294747
 30
0.0
 11
439.5496265308279
 21
376.9285277826842
 31
0.0
  0
LINE
  5
25D
330
1F
100
AcDbEntity
  8
D-3
  6
Continuous
 62
     3
370
     9
100
AcDbLine
 10
455.7997420027451
 20
396.928593766637
 30
0.0
 11
455.7997420027451
 21
388.9287405809316
 31
0.0
  0
LINE
  5
25E
330
1F
100
AcDbEntity
  8
D-B
  6
Continuous
 62
     7
370
     9
100
AcDbLine
 10
498.2995110589107
 20
418.0537686241116
 30
0.0
 11
498.2995110589107
 21
401.9287339825365
 31
0.0
  0
LINE
  5
25F
330
1F
100
AcDbEntity
  8
D-0
  6
Continuous
 62
     4
370
     9
100
AcDbLine
 10
444.7995572476773
 20
388.9287405809316
 30
0.0
 11
444.7995572476773
 21
383.9286003650321
 31
0.0
  0
LINE
  5
260
330
1F
100
AcDbEntity
  8
D-0
  6
Continuous
 62
     4
370
     9
100
AcDbLine
 10
434.2996958139781
 20
388.9287405809316
 30
0.0
 11
434.2996958139781
 21
383.9286003650321
 31
0.0
  0
LINE
  5
261
330
1F
100
AcDbEntity
  8
D-A
  6
Continuous
 62
     2
370
     9
100
AcDbLine
 10
430.7996595228042
 20
381.8578383493544
 30
0.0
 11
430.7996595228042
 21
383.9286003650321
 31
0.0
  0
LINE
  5
262
330
1F
100
AcDbEntity
  8
D-A
  6
Continuous
 62
     2
370
     9
100
AcDbLine
 10
448.2995935388513
 20
381.8578383493544
 30
0.0
 11
448.2995935388513
 21
383.9286003650321
 31
0.0
  0
LINE
  5
263
330
1F
100
AcDbEntity
  8
D-A
  6
Continuous
 62
     2
370
     9
100
AcDbLine
 10
438.2245862806167
 20
380.9286399554038
 30
0.0
 11
440.8746667810388
 21
380.9286399554038
 31
0.0
  0
LINE
  5
264
330
1F
100
AcDbEntity
  8
D-A
  6
Continuous
 62
     2
370
     9
100
AcDbLine
 10
438.2245862806167
 20
377.4678847360732
 30
0.0
 11
438.2245862806167
 21
380.9286399554038
 31
0.0
  0
LINE
  5
265
330
1F
100
AcDbEntity
  8
D-A
  6
Continuous
 62
     2
370
     9
100
AcDbLine
 10
446.3173531197214
 20
385.5629403935372
 30
0.0
 11
433.2819758234797
 21
390.8953922912358
 31
0.0
  0
LINE
  5
266
330
1F
100
AcDbEntity
  8
D-A
  6
Continuous
 62
     2
370
     9
100
AcDbLine
 10
446.3173531197214
 20
390.2006431292319
 30
0.0
 11
433.2819758234797
 21
395.5332806067974
 31
0.0
  0
LINE
  5
267
330
1F
100
AcDbEntity
  8
D-A
  6
Continuous
 62
     2
370
     9
100
AcDbLine
 10
446.3173531197214
 20
394.8384695848379
 30
0.0
 11
433.2819758234797
 21
400.1711689223591
 31
0.0
  0
LINE
  5
268
330
1F
100
AcDbEntity
  8
D-A
  6
Continuous
 62
     2
370
     9
100
AcDbLine
 10
446.3173531197214
 20
399.4761104605769
 30
0.0
 11
432.7994681693414
 21
405.0060193367383
 31
0.0
  0
LINE
  5
269
330
1F
100
AcDbEntity
  8
D-0
  6
Continuous
 62
     4
370
     9
100
AcDbLine
 10
457.0498079866977
 20
383.9286003650321
 30
0.0
 11
427.0494615709461
 21
383.9286003650321
 31
0.0
  0
LINE
  5
26A
330
1F
100
AcDbEntity
  8
D-0
  6
Continuous
 62
     4
370
     9
100
AcDbLine
 10
427.0494615709461
 20
388.9287405809316
 30
0.0
 11
427.0494615709461
 21
383.9286003650321
 31
0.0
  0
LINE
  5
26B
330
1F
100
AcDbEntity
  8
D-3
  6
Continuous
 62
     3
370
     9
100
AcDbLine
 10
427.0494615709461
 20
388.9287405809316
 30
0.0
 11
279.549840978674
 21
388.9287405809316
 31
0.0
  0
LINE
  5
26C
330
1F
100
AcDbEntity
  8
D-0
  6
Continuous
 62
     4
370
     9
100
AcDbLine
 10
457.0498079866977
 20
388.9287405809316
 30
0.0
 11
444.5496430268159
 21
388.9287405809316
 31
0.0
  0
LINE
  5
26D
330
1F
100
AcDbEntity
  8
D-0
  6
Continuous
 62
     4
370
     9
100
AcDbLine
 10
434.5496100348396
 20
388.9287405809316
 30
0.0
 11
427.0494615709461
 21
388.9287405809316
 31
0.0
  0
LINE
  5
26E
330
1F
100
AcDbEntity
  8
D-3
  6
Continuous
 62
     3
370
     9
100
AcDbLine
 10
455.7997420027451
 20
396.928593766637
 30
0.0
 11
444.5496430268159
 21
396.928593766637
 31
0.0
  0
LINE
  5
26F
330
1F
100
AcDbEntity
  8
D-1
  6
Continuous
 62
     2
370
     9
100
AcDbLine
 10
518.2995770428633
 20
444.4286267586133
 30
0.0
 11
512.0494945629224
 21
439.4287339825365
 31
0.0
  0
LINE
  5
270
330
1F
100
AcDbEntity
  8
D-B
  6
Continuous
 62
     7
370
     9
100
AcDbLine
 10
498.2995110589107
 20
439.4287339825365
 30
0.0
 11
498.2995110589107
 21
428.3038395568608
 31
0.0
  0
LINE
  5
271
330
1F
100
AcDbEntity
  8
D-B
  6
Continuous
 62
     7
370
     9
100
AcDbLine
 10
444.5496430268159
 20
401.9287339825365
 30
0.0
 11
498.2995110589107
 21
401.9287339825365
 31
0.0
  0
LINE
  5
272
330
1F
100
AcDbEntity
  8
D-B
  6
Continuous
 62
     7
370
     9
100
AcDbLine
 10
445.420383762669
 20
396.928593766637
 30
0.0
 11
444.5496430268159
 21
397.79933450249
 31
0.0
  0
LINE
  5
273
330
1F
100
AcDbEntity
  8
D-B
  6
Continuous
 62
     7
370
     9
100
AcDbLine
 10
450.7237614812078
 20
396.928593766637
 30
0.0
 11
445.7237449852198
 21
401.9287339825365
 31
0.0
  0
LINE
  5
274
330
1F
100
AcDbEntity
  8
D-B
  6
Continuous
 62
     7
370
     9
100
AcDbLine
 10
455.7997420027451
 20
397.1561146835498
 30
0.0
 11
451.0271227037586
 21
401.9287339825365
 31
0.0
  0
LINE
  5
275
330
1F
100
AcDbEntity
  8
D-B
  6
Continuous
 62
     7
370
     9
100
AcDbLine
 10
328.74755859375
 20
396.928593766637
 30
0.0
 11
323.747542097762
 21
401.9287339825365
 31
0.0
  0
LINE
  5
276
330
1F
100
AcDbEntity
  8
D-B
  6
Continuous
 62
     7
370
     9
100
AcDbLine
 10
334.0509363122888
 20
396.928593766637
 30
0.0
 11
329.0509198163008
 21
401.9287339825365
 31
0.0
  0
LINE
  5
277
330
1F
100
AcDbEntity
  8
D-B
  6
Continuous
 62
     7
370
     9
100
AcDbLine
 10
339.3540665910052
 20
396.928593766637
 30
0.0
 11
334.3540500950169
 21
401.9287339825365
 31
0.0
  0
LINE
  5
278
330
1F
100
AcDbEntity
  8
D-B
  6
Continuous
 62
     7
370
     9
100
AcDbLine
 10
344.657444309544
 20
396.928593766637
 30
0.0
 11
339.6574278135557
 21
401.9287339825365
 31
0.0
  0
LINE
  5
279
330
1F
100
AcDbEntity
  8
D-B
  6
Continuous
 62
     7
370
     9
100
AcDbLine
 10
349.9608220280828
 20
396.928593766637
 30
0.0
 11
344.9605580922722
 21
401.9287339825365
 31
0.0
  0
LINE
  5
27A
330
1F
100
AcDbEntity
  8
D-B
  6
Continuous
 62
     7
370
     9
100
AcDbLine
 10
355.263952306799
 20
396.928593766637
 30
0.0
 11
350.2641832506336
 21
401.9287339825365
 31
0.0
  0
LINE
  5
27B
330
1F
100
AcDbEntity
  8
D-B
  6
Continuous
 62
     7
370
     9
100
AcDbLine
 10
360.5675774651604
 20
396.928593766637
 30
0.0
 11
355.5673135293497
 21
401.9287339825365
 31
0.0
  0
LINE
  5
27C
330
1F
100
AcDbEntity
  8
D-B
  6
Continuous
 62
     7
370
     9
100
AcDbLine
 10
365.8707077438768
 20
396.928593766637
 30
0.0
 11
360.8706912478885
 21
401.9287339825365
 31
0.0
  0
LINE
  5
27D
330
1F
100
AcDbEntity
  8
D-B
  6
Continuous
 62
     7
370
     9
100
AcDbLine
 10
371.1740854624156
 20
396.928593766637
 30
0.0
 11
366.1740689664273
 21
401.9287339825365
 31
0.0
  0
LINE
  5
27E
330
1F
100
AcDbEntity
  8
D-B
  6
Continuous
 62
     7
370
     9
100
AcDbLine
 10
397.6904791754646
 20
396.928593766637
 30
0.0
 11
392.690710119299
 21
401.9287339825365
 31
0.0
  0
LINE
  5
27F
330
1F
100
AcDbEntity
  8
D-B
  6
Continuous
 62
     7
370
     9
100
AcDbLine
 10
402.994104333826
 20
396.928593766637
 30
0.0
 11
397.9938403980154
 21
401.9287339825365
 31
0.0
  0
LINE
  5
280
330
1F
100
AcDbEntity
  8
D-B
  6
Continuous
 62
     7
370
     9
100
AcDbLine
 10
408.2972346125422
 20
396.928593766637
 30
0.0
 11
403.2969706767315
 21
401.9287339825365
 31
0.0
  0
LINE
  5
281
330
1F
100
AcDbEntity
  8
D-B
  6
Continuous
 62
     7
370
     9
100
AcDbLine
 10
413.6003648912586
 20
396.928593766637
 30
0.0
 11
408.600595835093
 21
401.9287339825365
 31
0.0
  0
LINE
  5
282
330
1F
100
AcDbEntity
  8
D-B
  6
Continuous
 62
     7
370
     9
100
AcDbLine
 10
418.9039900496201
 20
396.928593766637
 30
0.0
 11
413.9037261138091
 21
401.9287339825365
 31
0.0
  0
LINE
  5
283
330
1F
100
AcDbEntity
  8
D-B
  6
Continuous
 62
     7
370
     9
100
AcDbLine
 10
424.2071203283362
 20
396.928593766637
 30
0.0
 11
419.2071038323482
 21
401.9287339825365
 31
0.0
  0
LINE
  5
284
330
1F
100
AcDbEntity
  8
D-B
  6
Continuous
 62
     7
370
     9
100
AcDbLine
 10
429.510498046875
 20
396.928593766637
 30
0.0
 11
424.510481550887
 21
401.9287339825365
 31
0.0
  0
LINE
  5
285
330
1F
100
AcDbEntity
  8
D-B
  6
Continuous
 62
     7
370
     9
100
AcDbLine
 10
434.5496100348396
 20
397.1927357772998
 30
0.0
 11
429.8136118296031
 21
401.9287339825365
 31
0.0
  0
LINE
  5
286
330
1F
100
AcDbEntity
  8
D-A
  6
Continuous
 62
     2
370
     9
100
AcDbLine
 10
439.5496265308279
 20
423.9286086130263
 30
0.0
 11
444.5496430268159
 21
411.8574424456381
 31
0.0
  0
LINE
  5
287
330
1F
100
AcDbEntity
  8
D-A
  6
Continuous
 62
     2
370
     9
100
AcDbLine
 10
444.5496430268159
 20
383.9286003650321
 30
0.0
 11
444.5496430268159
 21
411.8574424456381
 31
0.0
  0
LINE
  5
288
330
1F
100
AcDbEntity
  8
D-A
  6
Continuous
 62
     2
370
     9
100
AcDbLine
 10
434.5496100348396
 20
383.9286003650321
 30
0.0
 11
434.5496100348396
 21
411.8574424456381
 31
0.0
  0
LINE
  5
289
330
1F
100
AcDbEntity
  8
D-A
  6
Continuous
 62
     2
370
     9
100
AcDbLine
 10
439.5496265308279
 20
423.9286086130263
 30
0.0
 11
434.5496100348396
 21
411.8574424456381
 31
0.0
  0
LINE
  5
28A
330
1F
100
AcDbEntity
  8
D-A
  6
Continuous
 62
     2
370
     9
100
AcDbLine
 10
444.9168437236065
 20
415.5442339429461
 30
0.0
 11
435.7378160631336
 21
419.2990095315229
 31
0.0
  0
LINE
  5
28B
330
1F
100
AcDbEntity
  8
D-A
  6
Continuous
 62
     2
370
     9
100
AcDbLine
 10
446.2995374524917
 20
411.5530296038413
 30
0.0
 11
434.5246186127534
 21
416.3699406310795
 31
0.0
  0
LINE
  5
28C
330
1F
100
AcDbEntity
  8
D-A
  6
Continuous
 62
     2
370
     9
100
AcDbLine
 10
446.2995374524917
 20
408.1274726992805
 30
0.0
 11
433.3114211623734
 21
413.4406242908134
 31
0.0
  0
LINE
  5
28D
330
1F
100
AcDbEntity
  8
D-A
  6
Continuous
 62
     2
370
     9
100
AcDbLine
 10
446.2995374524917
 20
404.1212363909506
 30
0.0
 11
432.7994681693414
 21
409.6439076522998
 31
0.0
  0
LINE
  5
28E
330
1F
100
AcDbEntity
  8
D-A
  6
Continuous
 62
     2
370
     9
100
AcDbLine
 10
443.2085191881336
 20
419.6685609066285
 30
0.0
 11
436.9512609533362
 21
422.2282021518776
 31
0.0
  0
LINE
  5
28F
330
1F
100
AcDbEntity
  8
D-B
  6
Continuous
 62
     7
370
     9
100
AcDbLine
 10
498.2995110589107
 20
409.4286350066074
 30
0.0
 11
444.5496430268159
 21
409.4286350066074
 31
0.0
  0
LINE
  5
290
330
1F
100
AcDbEntity
  8
D-B
  6
Continuous
 62
     7
370
     9
100
AcDbLine
 10
498.2995110589107
 20
416.9287834705009
 30
0.0
 11
442.4491263724664
 21
416.9287834705009
 31
0.0
  0
LINE
  5
291
330
1F
100
AcDbEntity
  8
D-A
  6
Continuous
 62
     2
370
     9
100
AcDbLine
 10
440.8746667810388
 20
377.4676991562061
 30
0.0
 11
440.8746667810388
 21
380.9286399554038
 31
0.0
  0
LINE
  5
292
330
1F
100
AcDbEntity
  8
D-1
  6
Continuous
 62
     2
370
     9
100
AcDbLine
 10
492.6747090107688
 20
355.6785195346901
 30
0.0
 11
466.4248079866977
 21
355.6785195346901
 31
0.0
  0
LINE
  5
293
330
1F
100
AcDbEntity
  8
D-1
  6
Continuous
 62
     2
370
     9
100
AcDbLine
 10
473.2996760187922
 20
355.6785195346901
 30
0.0
 11
473.2996760187922
 21
350.6787504785246
 31
0.0
  0
LINE
  5
294
330
1F
100
AcDbEntity
  8
D-1
  6
Continuous
 62
     2
370
     9
100
AcDbLine
 10
485.799840978674
 20
355.6785195346901
 30
0.0
 11
485.799840978674
 21
350.6787504785246
 31
0.0
  0
LINE
  5
295
330
1F
100
AcDbEntity
  8
D-6
  6
Continuous
 62
     6
370
     5
100
AcDbLine
 10
641.4246430268158
 20
292.5537752225069
 30
0.0
 11
532.0498079866977
 21
401.9287339825365
 31
0.0
  0
LINE
  5
296
330
1F
100
AcDbEntity
  8
D-6
  6
Continuous
 62
     6
370
     5
100
AcDbLine
 10
641.4246430268158
 20
401.9287339825365
 30
0.0
 11
532.0498079866977
 21
292.5537752225069
 31
0.0
  0
LINE
  5
297
330
1F
100
AcDbEntity
  8
D-6
  6
Continuous
 62
     6
370
     5
100
AcDbLine
 10
641.4246430268158
 20
401.9287339825365
 30
0.0
 11
641.4246430268158
 21
292.5537752225069
 31
0.0
  0
LINE
  5
298
330
1F
100
AcDbEntity
  8
D-6
  6
Continuous
 62
     6
370
     5
100
AcDbLine
 10
594.1680908203125
 20
365.4796109092678
 30
0.0
 11
602.7497987489443
 21
352.6069252964089
 31
0.0
  0
LINE
  5
299
330
1F
100
AcDbEntity
  8
D-6
  6
Continuous
 62
     6
370
     5
100
AcDbLine
 10
602.7497987489443
 20
352.6069252964089
 30
0.0
 11
597.288801863387
 21
342.8550744465355
 31
0.0
  0
LINE
  5
29A
330
1F
100
AcDbEntity
  8
D-6
  6
Continuous
 62
     6
370
     5
100
AcDbLine
 10
597.288801863387
 20
342.8550744465355
 30
0.0
 11
584.4159925306167
 21
335.053420558761
 31
0.0
  0
LINE
  5
29B
330
1F
100
AcDbEntity
  8
D-6
  6
Continuous
 62
     6
370
     5
100
AcDbLine
 10
584.4159925306167
 20
335.053420558761
 30
0.0
 11
568.4229670344172
 21
345.5855728893143
 31
0.0
  0
LINE
  5
29C
330
1F
100
AcDbEntity
  8
D-6
  6
Continuous
 62
     6
370
     5
100
AcDbLine
 10
568.4229670344172
 20
345.5855728893143
 30
0.0
 11
578.5647830447635
 21
365.8696997896521
 31
0.0
  0
LINE
  5
29D
330
1F
100
AcDbEntity
  8
D-6
  6
Continuous
 62
     6
370
     5
100
AcDbLine
 10
578.5647830447635
 20
365.8696997896521
 30
0.0
 11
594.1680908203125
 21
365.4796109092678
 31
0.0
  0
LINE
  5
29E
330
1F
100
AcDbEntity
  8
D-6
  6
Continuous
 62
     6
370
     5
100
AcDbLine
 10
597.6787670238599
 20
380.6927060845212
 30
0.0
 11
623.4238908097552
 21
370.5506426343524
 31
0.0
  0
LINE
  5
29F
330
1F
100
AcDbEntity
  8
D-6
  6
Continuous
 62
     6
370
     5
100
AcDbLine
 10
623.4238908097552
 20
370.5506426343524
 30
0.0
 11
621.0836049672721
 21
337.7839190015399
 31
0.0
  0
LINE
  5
2A0
330
1F
100
AcDbEntity
  8
D-6
  6
Continuous
 62
     6
370
     5
100
AcDbLine
 10
621.0836049672721
 20
337.7839190015399
 30
0.0
 11
583.6358147698481
 21
314.7692936584232
 31
0.0
  0
LINE
  5
2A1
330
1F
100
AcDbEntity
  8
D-6
  6
Continuous
 62
     6
370
     5
100
AcDbLine
 10
583.6358147698481
 20
314.7692936584232
 30
0.0
 11
553.2096244193415
 21
335.4435094391453
 31
0.0
  0
LINE
  5
2A2
330
1F
100
AcDbEntity
  8
D-6
  6
Continuous
 62
     6
370
     5
100
AcDbLine
 10
553.2096244193415
 20
335.4435094391453
 30
0.0
 11
550.4791259765625
 21
363.9192553877307
 31
0.0
  0
LINE
  5
2A3
330
1F
100
AcDbEntity
  8
D-6
  6
Continuous
 62
     6
370
     5
100
AcDbLine
 10
550.4791259765625
 20
363.9192553877307
 30
0.0
 11
569.5928625158363
 21
385.7637378096057
 31
0.0
  0
LINE
  5
2A4
330
1F
100
AcDbEntity
  8
D-6
  6
Continuous
 62
     6
370
     5
100
AcDbLine
 10
569.5928625158363
 20
385.7637378096057
 30
0.0
 11
580.1251385663008
 21
387.3240933311428
 31
0.0
  0
LINE
  5
2A5
330
1F
100
AcDbEntity
  8
D-6
  6
Continuous
 62
     6
370
     5
100
AcDbLine
 10
580.1251385663008
 20
387.3240933311428
 30
0.0
 11
597.6787670238599
 21
380.6927060845212
 31
0.0
  0
LINE
  5
2A6
330
1F
100
AcDbEntity
  8
D-6
  6
Continuous
 62
     6
370
     5
100
AcDbLine
 10
610.5513289168075
 20
395.5157123793904
 30
0.0
 11
633.565954259924
 21
371.7209092755052
 31
0.0
  0
LINE
  5
2A7
330
1F
100
AcDbEntity
  8
D-6
  6
Continuous
 62
     6
370
     5
100
AcDbLine
 10
633.565954259924
 20
371.7209092755052
 30
0.0
 11
637.0766304634714
 21
336.6137760802982
 31
0.0
  0
LINE
  5
2A8
330
1F
100
AcDbEntity
  8
D-6
  6
Continuous
 62
     6
370
     5
100
AcDbLine
 10
637.0766304634714
 20
336.6137760802982
 30
0.0
 11
609.7711511560391
 21
312.0386714957332
 31
0.0
  0
LINE
  5
2A9
330
1F
100
AcDbEntity
  8
D-6
  6
Continuous
 62
     6
370
     5
100
AcDbLine
 10
609.7711511560391
 20
312.0386714957332
 30
0.0
 11
569.2028973553633
 21
303.4569635671014
 31
0.0
  0
LINE
  5
2AA
330
1F
100
AcDbEntity
  8
D-6
  6
Continuous
 62
     6
370
     5
100
AcDbLine
 10
569.2028973553633
 20
303.4569635671014
 30
0.0
 11
543.067808408995
 21
319.4502365031234
 31
0.0
  0
LINE
  5
2AB
330
1F
100
AcDbEntity
  8
D-6
  6
Continuous
 62
     6
370
     5
100
AcDbLine
 10
543.067808408995
 20
319.4502365031234
 30
0.0
 11
539.1666721653294
 21
345.9756617696985
 31
0.0
  0
LINE
  5
2AC
330
1F
100
AcDbEntity
  8
D-6
  6
Continuous
 62
     6
370
     5
100
AcDbLine
 10
539.1666721653294
 20
345.9756617696985
 30
0.0
 11
536.4364211623734
 21
377.5719950414469
 31
0.0
  0
LINE
  5
2AD
330
1F
100
AcDbEntity
  8
D-6
  6
Continuous
 62
     6
370
     5
100
AcDbLine
 10
536.4364211623734
 20
377.5719950414469
 30
0.0
 11
557.8904435441302
 21
392.005036175843
 31
0.0
  0
LINE
  5
2AE
330
1F
100
AcDbEntity
  8
D-6
  6
Continuous
 62
     6
370
     5
100
AcDbLine
 10
557.8904435441302
 20
392.005036175843
 30
0.0
 11
586.7562783730998
 21
396.2957664202475
 31
0.0
  0
LINE
  5
2AF
330
1F
100
AcDbEntity
  8
D-6
  6
Continuous
 62
     6
370
     5
100
AcDbLine
 10
586.7562783730998
 20
396.2957664202475
 30
0.0
 11
610.5513289168075
 21
395.5157123793904
 31
0.0
  0
LINE
  5
2B0
330
1F
100
AcDbEntity
  8
D-6
  6
Continuous
 62
     6
370
     5
100
AcDbLine
 10
640.5873066670188
 20
318.6700587423548
 30
0.0
 11
607.4306178737331
 21
297.6057540812484
 31
0.0
  0
LINE
  5
2B1
330
1F
100
AcDbEntity
  8
D-6
  6
Continuous
 62
     6
370
     5
100
AcDbLine
 10
620.0042724609375
 20
401.9287339825365
 30
0.0
 11
635.1263097814613
 21
392.005036175843
 31
0.0
  0
LINE
  5
2B2
330
1F
100
AcDbEntity
  8
D-6
  6
Continuous
 62
     6
370
     5
100
AcDbLine
 10
532.0498079866977
 20
389.5889100277222
 30
0.0
 11
547.6800867029141
 21
401.9287339825365
 31
0.0
  0
LINE
  5
2B3
330
1F
100
AcDbEntity
  8
D-6
  6
Continuous
 62
     6
370
     5
100
AcDbLine
 10
635.1263097814613
 20
392.005036175843
 30
0.0
 11
641.4246430268158
 21
378.5336699121183
 31
0.0
  0
LINE
  5
2B4
330
1F
100
AcDbEntity
  8
D-6
  6
Continuous
 62
     6
370
     5
100
AcDbLine
 10
641.4246430268158
 20
322.8939802346479
 30
0.0
 11
640.5873066670188
 21
318.6700587423548
 31
0.0
  0
LINE
  5
2B5
330
1F
100
AcDbEntity
  8
D-6
  6
Continuous
 62
     6
370
     5
100
AcDbLine
 10
607.4306178737331
 20
297.6057540812484
 30
0.0
 11
598.3666497307856
 21
292.5537752225069
 31
0.0
  0
LINE
  5
2B6
330
1F
100
AcDbEntity
  8
D-6
  6
Continuous
 62
     6
370
     5
100
AcDbLine
 10
562.4250257337417
 20
292.5537752225069
 30
0.0
 11
547.3584149334883
 21
298.3859318420169
 31
0.0
  0
LINE
  5
2B7
330
1F
100
AcDbEntity
  8
D-6
  6
Continuous
 62
     6
370
     5
100
AcDbLine
 10
547.3584149334883
 20
298.3859318420169
 30
0.0
 11
532.0498079866977
 21
313.1928545484149
 31
0.0
  0
LINE
  5
2B8
330
1F
100
AcDbEntity
  8
D-A
  6
Continuous
 62
     2
370
     9
100
AcDbLine
 10
484.6749795449747
 20
355.6785195346901
 30
0.0
 11
484.6749795449747
 21
334.8451999480137
 31
0.0
  0
LINE
  5
2B9
330
1F
100
AcDbEntity
  8
D-A
  6
Continuous
 62
     2
370
     9
100
AcDbLine
 10
474.425032332137
 20
355.6785195346901
 30
0.0
 11
474.425032332137
 21
334.8451999480137
 31
0.0
  0
LINE
  5
2BA
330
1F
100
AcDbEntity
  8
D-A
  6
Continuous
 62
     2
370
     9
100
AcDbLine
 10
484.6749795449747
 20
334.8451999480137
 30
0.0
 11
479.5500059385557
 21
293.1785607746605
 31
0.0
  0
LINE
  5
2BB
330
1F
100
AcDbEntity
  8
D-A
  6
Continuous
 62
     2
370
     9
100
AcDbLine
 10
474.425032332137
 20
334.8451999480137
 30
0.0
 11
479.5500059385557
 21
293.1785607746605
 31
0.0
  0
LINE
  5
2BC
330
1F
100
AcDbEntity
  8
D-A
  6
Continuous
 62
     2
370
     9
100
AcDbLine
 10
481.2439789643159
 20
296.7136098007373
 30
0.0
 11
477.7805637668919
 21
297.3242912830009
 31
0.0
  0
LINE
  5
2BD
330
1F
100
AcDbEntity
  8
D-A
  6
Continuous
 62
     2
370
     9
100
AcDbLine
 10
481.785872175887
 20
301.1180386436428
 30
0.0
 11
477.2146688925255
 21
301.9240738658768
 31
0.0
  0
LINE
  5
2BE
330
1F
100
AcDbEntity
  8
D-A
  6
Continuous
 62
     2
370
     9
100
AcDbLine
 10
485.578134897593
 20
331.9494117037146
 30
0.0
 11
473.2541470914273
 21
334.1224282260964
 31
0.0
  0
LINE
  5
2BF
330
1F
100
AcDbEntity
  8
D-A
  6
Continuous
 62
     2
370
     9
100
AcDbLine
 10
485.0362416860222
 20
327.5449828608092
 30
0.0
 11
473.8197945259714
 21
329.5226456432206
 31
0.0
  0
LINE
  5
2C0
330
1F
100
AcDbEntity
  8
D-A
  6
Continuous
 62
     2
370
     9
100
AcDbLine
 10
484.4948433540964
 20
323.1404302979925
 30
0.0
 11
474.3859368401607
 21
324.922986780256
 31
0.0
  0
LINE
  5
2C1
330
1F
100
AcDbEntity
  8
D-A
  6
Continuous
 62
     2
370
     9
100
AcDbLine
 10
483.9529501425255
 20
318.7360014550871
 30
0.0
 11
474.9515842747044
 21
320.3232041973802
 31
0.0
  0
LINE
  5
2C2
330
1F
100
AcDbEntity
  8
D-A
  6
Continuous
 62
     2
370
     9
100
AcDbLine
 10
483.4110569309544
 20
314.3315726121816
 30
0.0
 11
475.5172317092484
 21
315.7234216145043
 31
0.0
  0
LINE
  5
2C3
330
1F
100
AcDbEntity
  8
D-A
  6
Continuous
 62
     2
370
     9
100
AcDbLine
 10
482.8691637193836
 20
309.927020049365
 30
0.0
 11
476.0831265836148
 21
311.1235153117172
 31
0.0
  0
LINE
  5
2C4
330
1F
100
AcDbEntity
  8
D-A
  6
Continuous
 62
     2
370
     9
100
AcDbLine
 10
482.3275179476352
 20
305.5225912064595
 30
0.0
 11
476.6490214579815
 21
306.5239801686639
 31
0.0
  0
LINE
  5
2C5
330
1F
100
AcDbEntity
  8
D-1
  6
JWW_CENTER1
 62
     2
370
     9
100
AcDbLine
 10
479.5500059385557
 20
378.6384606770043
 30
0.0
 11
479.5500059385557
 21
291.6294637650532
 31
0.0
  0
LINE
  5
2C6
330
1F
100
AcDbEntity
  8
D-6
  6
Continuous
 62
     6
370
     5
100
AcDbLine
 10
479.4072331608953
 20
294.3380637835288
 30
0.0
 11
447.0497749947214
 21
326.6956456696141
 31
0.0
  0
LINE
  5
2C7
330
1F
100
AcDbEntity
  8
D-6
  6
Continuous
 62
     6
370
     5
100
AcDbLine
 10
474.4487865551099
 20
334.6519494465355
 30
0.0
 11
469.6719607791385
 21
339.4285277826842
 31
0.0
  0
LINE
  5
2C8
330
1F
100
AcDbEntity
  8
D-1
  6
Continuous
 62
     2
370
     9
100
AcDbLine
 10
474.425032332137
 20
350.6787504785246
 30
0.0
 11
470.1745110589107
 21
350.6787504785246
 31
0.0
  0
LINE
  5
2C9
330
1F
100
AcDbEntity
  8
D-1
  6
Continuous
 62
     2
370
     9
100
AcDbLine
 10
488.9247584987331
 20
350.6787504785246
 30
0.0
 11
484.6749795449747
 21
350.6787504785246
 31
0.0
  0
LINE
  5
2CA
330
1F
100
AcDbEntity
  8
D-3
  6
Continuous
 62
     3
370
     9
100
AcDbLine
 10
429.5495935388513
 20
396.928593766637
 30
0.0
 11
429.5495935388513
 21
388.9287405809316
 31
0.0
  0
LINE
  5
2CB
330
1F
100
AcDbEntity
  8
D-3
  6
Continuous
 62
     3
370
     9
100
AcDbLine
 10
449.5496595228042
 20
396.928593766637
 30
0.0
 11
449.5496595228042
 21
388.9287405809316
 31
0.0
  0
LINE
  5
2CC
330
1F
100
AcDbEntity
  8
D-0
  6
Continuous
 62
     4
370
     9
100
AcDbLine
 10
485.7995935388513
 20
444.4286267586133
 30
0.0
 11
479.5500059385557
 21
440.6786762465779
 31
0.0
  0
LINE
  5
2CD
330
1F
100
AcDbEntity
  8
D-0
  6
Continuous
 62
     4
370
     9
100
AcDbLine
 10
479.5500059385557
 20
440.6786762465779
 30
0.0
 11
479.5500059385557
 21
439.4287339825365
 31
0.0
  0
LINE
  5
2CE
330
1F
100
AcDbEntity
  8
D-0
  6
Continuous
 62
     4
370
     9
100
AcDbLine
 10
485.7995935388513
 20
444.4286267586133
 30
0.0
 11
503.2997749947214
 21
444.4286267586133
 31
0.0
  0
LINE
  5
2CF
330
1F
100
AcDbEntity
  8
D-0
  6
Continuous
 62
     4
370
     9
100
AcDbLine
 10
503.2997749947214
 20
444.4286267586133
 30
0.0
 11
509.5496100348396
 21
439.4287339825365
 31
0.0
  0
LINE
  5
2D0
330
1F
100
AcDbEntity
  8
D-0
  6
Continuous
 62
     4
370
     9
100
AcDbLine
 10
507.0497255067568
 20
433.8035607746605
 30
0.0
 11
502.0497090107688
 21
428.8035442786724
 31
0.0
  0
LINE
  5
2D1
330
1F
100
AcDbEntity
  8
D-0
  6
Continuous
 62
     4
370
     9
100
AcDbLine
 10
507.0497255067568
 20
412.5535525266665
 30
0.0
 11
502.0497090107688
 21
417.553692742566
 31
0.0
  0
LINE
  5
2D2
330
1F
100
AcDbEntity
  8
D-A
  6
Continuous
 62
     2
370
     9
100
AcDbLine
 10
507.0497255067568
 20
433.4286894433683
 30
0.0
 11
506.2997354043497
 21
433.4286894433683
 31
0.0
  0
LINE
  5
2D3
330
1F
100
AcDbEntity
  8
D-A
  6
Continuous
 62
     2
370
     9
100
AcDbLine
 10
501.1747617979307
 20
428.3035921170381
 30
0.0
 11
506.2997354043497
 21
433.4286894433683
 31
0.0
  0
LINE
  5
2D4
330
1F
100
AcDbEntity
  8
D-A
  6
Continuous
 62
     2
370
     9
100
AcDbLine
 10
501.1747617979307
 20
418.0535211842889
 30
0.0
 11
501.1747617979307
 21
428.3035921170381
 31
0.0
  0
LINE
  5
2D5
330
1F
100
AcDbEntity
  8
D-A
  6
Continuous
 62
     2
370
     9
100
AcDbLine
 10
501.1747617979307
 20
418.0535211842889
 30
0.0
 11
506.2997354043497
 21
412.9286094378256
 31
0.0
  0
LINE
  5
2D6
330
1F
100
AcDbEntity
  8
D-A
  6
Continuous
 62
     2
370
     9
100
AcDbLine
 10
506.2997354043497
 20
433.4286894433683
 30
0.0
 11
506.2997354043497
 21
412.9286094378256
 31
0.0
  0
LINE
  5
2D7
330
1F
100
AcDbEntity
  8
D-A
  6
Continuous
 62
     2
370
     9
100
AcDbLine
 10
507.0497255067568
 20
412.9286094378256
 30
0.0
 11
506.2997354043497
 21
412.9286094378256
 31
0.0
  0
LINE
  5
2D8
330
1F
100
AcDbEntity
  8
D-A
  6
Continuous
 62
     2
370
     9
100
AcDbLine
 10
501.1747617979307
 20
428.3035921170381
 30
0.0
 11
486.2165296399917
 21
428.3035921170381
 31
0.0
  0
LINE
  5
2D9
330
1F
100
AcDbEntity
  8
D-A
  6
Continuous
 62
     2
370
     9
100
AcDbLine
 10
501.1747617979307
 20
418.0535211842889
 30
0.0
 11
486.2165296399917
 21
418.0535211842889
 31
0.0
  0
LINE
  5
2DA
330
1F
100
AcDbEntity
  8
D-A
  6
Continuous
 62
     2
370
     9
100
AcDbLine
 10
486.2165296399917
 20
418.0535211842889
 30
0.0
 11
444.5496430268159
 21
423.1786185106191
 31
0.0
  0
LINE
  5
2DB
330
1F
100
AcDbEntity
  8
D-A
  6
Continuous
 62
     2
370
     9
100
AcDbLine
 10
444.5496430268159
 20
423.1786185106191
 30
0.0
 11
486.2165296399917
 21
428.3035921170381
 31
0.0
  0
LINE
  5
2DC
330
1F
100
AcDbEntity
  8
D-A
  6
Continuous
 62
     2
370
     9
100
AcDbLine
 10
448.0848157728042
 20
421.4842124651694
 30
0.0
 11
448.6957446948904
 21
424.9479369623717
 31
0.0
  0
LINE
  5
2DD
330
1F
100
AcDbEntity
  8
D-A
  6
Continuous
 62
     2
370
     9
100
AcDbLine
 10
452.4894920555323
 20
420.9426904133324
 30
0.0
 11
453.2954035578547
 21
425.5138318367383
 31
0.0
  0
LINE
  5
2DE
330
1F
100
AcDbEntity
  8
D-A
  6
Continuous
 62
     2
370
     9
100
AcDbLine
 10
483.3207413956927
 20
417.1503658316707
 30
0.0
 11
485.4937579180745
 21
429.474229917925
 31
0.0
  0
LINE
  5
2DF
330
1F
100
AcDbEntity
  8
D-A
  6
Continuous
 62
     2
370
     9
100
AcDbLine
 10
478.9160651129646
 20
417.6920734633748
 30
0.0
 11
480.8940990551099
 21
428.9084587634696
 31
0.0
  0
LINE
  5
2E0
330
1F
100
AcDbEntity
  8
D-A
  6
Continuous
 62
     2
370
     9
100
AcDbLine
 10
474.5116362700591
 20
418.2337810950787
 30
0.0
 11
476.2941927523227
 21
428.3426876090144
 31
0.0
  0
LINE
  5
2E1
330
1F
100
AcDbEntity
  8
D-A
  6
Continuous
 62
     2
370
     9
100
AcDbLine
 10
470.1072074271539
 20
418.7756743066496
 30
0.0
 11
471.6942864495357
 21
427.7769164545592
 31
0.0
  0
LINE
  5
2E2
330
1F
100
AcDbEntity
  8
D-A
  6
Continuous
 62
     2
370
     9
100
AcDbLine
 10
465.7027785842484
 20
419.3174437983092
 30
0.0
 11
467.0948750263938
 21
427.2110215801927
 31
0.0
  0
LINE
  5
2E3
330
1F
100
AcDbEntity
  8
D-A
  6
Continuous
 62
     2
370
     9
100
AcDbLine
 10
461.298349741343
 20
419.8590895700576
 30
0.0
 11
462.4949687236065
 21
426.6454360056044
 31
0.0
  0
LINE
  5
2E4
330
1F
100
AcDbEntity
  8
D-A
  6
Continuous
 62
     2
370
     9
100
AcDbLine
 10
456.8939208984375
 20
420.4008590617172
 30
0.0
 11
457.8950624208193
 21
426.0794792712821
 31
0.0
  0
LINE
  5
2E5
330
1F
100
AcDbEntity
  8
D-0
  6
JWW_CENTER1
 62
     4
370
     9
100
AcDbLine
 10
442.3533671611065
 20
423.1786185106191
 30
0.0
 11
508.3752606366133
 21
423.1786185106191
 31
0.0
  0
LINE
  5
2E6
330
1F
100
AcDbEntity
  8
D-0
  6
Continuous
 62
     4
370
     9
100
AcDbLine
 10
507.0497255067568
 20
434.4287174865483
 30
0.0
 11
507.0497255067568
 21
388.1786267586133
 31
0.0
  0
LINE
  5
2E7
330
1F
100
AcDbEntity
  8
D-0
  6
Continuous
 62
     4
370
     9
100
AcDbLine
 10
509.5496100348396
 20
439.4287339825365
 30
0.0
 11
509.5496100348396
 21
435.6787834705009
 31
0.0
  0
LINE
  5
2E8
330
1F
100
AcDbEntity
  8
D-0
  6
Continuous
 62
     4
370
     9
100
AcDbLine
 10
509.5496100348396
 20
435.6787834705009
 30
0.0
 11
507.0497255067568
 21
434.4287174865483
 31
0.0
  0
LINE
  5
2E9
330
1F
100
AcDbEntity
  8
D-0
  6
Continuous
 62
     4
370
     9
100
AcDbLine
 10
479.5500059385557
 20
439.4287339825365
 30
0.0
 11
502.0497090107688
 21
439.4287339825365
 31
0.0
  0
LINE
  5
2EA
330
1F
100
AcDbEntity
  8
D-0
  6
Continuous
 62
     4
370
     9
100
AcDbLine
 10
502.0497090107688
 20
439.4287339825365
 30
0.0
 11
502.0497090107688
 21
429.1785393298759
 31
0.0
  0
LINE
  5
2EB
330
1F
100
AcDbEntity
  8
D-0
  6
Continuous
 62
     4
370
     9
100
AcDbLine
 10
502.0497090107688
 20
417.1786976913625
 30
0.0
 11
502.0497090107688
 21
395.1788230608725
 31
0.0
  0
LINE
  5
2EC
330
1F
100
AcDbEntity
  8
D-6
  6
Continuous
 62
     6
370
     5
100
AcDbLine
 10
529.5496760187922
 20
339.4285277826842
 30
0.0
 11
532.0498079866977
 21
339.4285277826842
 31
0.0
  0
LINE
  5
2ED
330
1F
100
AcDbEntity
  8
D-6
  6
Continuous
 62
     6
370
     5
100
AcDbLine
 10
532.0498079866977
 20
312.406367072169
 30
0.0
 11
505.0273998363599
 21
339.4285277826842
 31
0.0
  0
LINE
  5
2EE
330
1F
100
AcDbEntity
  8
D-6
  6
Continuous
 62
     6
370
     5
100
AcDbLine
 10
532.0498079866977
 20
292.5537752225069
 30
0.0
 11
666.3598962732266
 21
292.5537752225069
 31
0.0
  0
LINE
  5
2EF
330
1F
100
AcDbEntity
  8
D-6
  6
Continuous
 62
     6
370
     5
100
AcDbLine
 10
532.0498079866977
 20
277.0510517348591
 30
0.0
 11
483.5337870829815
 21
325.5669489186639
 31
0.0
  0
LINE
  5
2F0
330
1F
100
AcDbEntity
  8
D-6
  6
Continuous
 62
     6
370
     5
100
AcDbLine
 10
532.0498079866977
 20
267.553692742566
 30
0.0
 11
641.3598137932856
 21
267.553692742566
 31
0.0
  0
LINE
  5
2F1
330
1F
100
AcDbEntity
  8
D-6
  6
Continuous
 62
     6
370
     5
100
AcDbLine
 10
532.0498079866977
 20
241.6956126776378
 30
0.0
 11
479.6613538587417
 21
294.0840668055939
 31
0.0
  0
LINE
  5
2F2
330
1F
100
AcDbEntity
  8
D-6
  6
Continuous
 62
     6
370
     5
100
AcDbLine
 10
532.0498079866977
 20
242.5537339825365
 30
0.0
 11
616.3599787531672
 21
242.5537339825365
 31
0.0
  0
LINE
  5
2F3
330
1F
100
AcDbEntity
  8
D-4
  6
Continuous
 62
     7
370
     9
100
AcDbLine
 10
387.0159252269849
 20
466.7605656310795
 30
0.0
 11
315.0129163587417
 21
466.7605656310795
 31
0.0
  0
LINE
  5
2F4
330
1F
100
AcDbEntity
  8
D-4
  6
Continuous
 62
     7
370
     9
100
AcDbLine
 10
347.4745466902451
 20
401.9285484026694
 30
0.0
 11
352.5346910631336
 21
413.3585979896099
 31
0.0
  0
LINE
  5
2F5
330
1F
100
AcDbEntity
  8
D-4
  6
Continuous
 62
     7
370
     9
100
AcDbLine
 10
347.4745466902451
 20
401.9285484026694
 30
0.0
 11
355.3203685863599
 21
411.6595524474858
 31
0.0
  0
LINE
  5
2F6
330
1F
100
AcDbEntity
  8
D-4
  6
Continuous
 62
     7
370
     9
100
AcDbLine
 10
381.9582552523227
 20
396.928593766637
 30
0.0
 11
387.0183996252112
 21
408.3585814936217
 31
0.0
  0
LINE
  5
2F7
330
1F
100
AcDbEntity
  8
D-4
  6
Continuous
 62
     7
370
     9
100
AcDbLine
 10
381.9582552523227
 20
396.928593766637
 30
0.0
 11
389.8043245882602
 21
406.6595359514975
 31
0.0
  0
LINE
  5
2F8
330
1F
100
AcDbEntity
  8
D-4
  6
Continuous
 62
     7
370
     9
100
AcDbLine
 10
259.9966513144005
 20
444.4286267586133
 30
0.0
 11
365.4847016205659
 21
617.3873307018143
 31
0.0
  0
LINE
  5
2F9
330
1F
100
AcDbEntity
  8
D-4
  6
Continuous
 62
     7
370
     9
100
AcDbLine
 10
259.9966513144005
 20
444.4286267586133
 30
0.0
 11
265.0567956872888
 21
455.858614485598
 31
0.0
  0
LINE
  5
2FA
330
1F
100
AcDbEntity
  8
D-4
  6
Continuous
 62
     7
370
     9
100
AcDbLine
 10
259.9966513144005
 20
444.4286267586133
 30
0.0
 11
267.8424732105154
 21
454.159568943474
 31
0.0
  0
LINE
  5
2FB
330
1F
100
AcDbEntity
  8
D-4
  6
Continuous
 62
     7
370
     9
100
AcDbLine
 10
135.8813311602619
 20
115.5689779252096
 30
0.0
 11
447.0497749947214
 21
115.5689779252096
 31
0.0
  0
LINE
  5
2FC
330
1F
100
AcDbEntity
  8
D-4
  6
Continuous
 62
     7
370
     9
100
AcDbLine
 10
447.0497749947214
 20
115.5689779252096
 30
0.0
 11
529.5496760187922
 21
115.5689779252096
 31
0.0
  0
LINE
  5
2FD
330
1F
100
AcDbEntity
  8
D-4
  6
Continuous
 62
     7
370
     9
100
AcDbLine
 10
529.5496760187922
 20
331.9285030387019
 30
0.0
 11
529.5496760187922
 21
114.0689977203954
 31
0.0
  0
LINE
  5
2FE
330
1F
100
AcDbEntity
  8
D-6
  6
Continuous
 62
     6
370
     5
100
AcDbLine
 10
447.0497749947214
 20
339.4285277826842
 30
0.0
 11
447.0497749947214
 21
89.53447326674251
 31
0.0
  0
LINE
  5
2FF
330
1F
100
AcDbEntity
  8
D-4
  6
Continuous
 62
     7
370
     9
100
AcDbLine
 10
680.8173102301521
 20
339.4285277826842
 30
0.0
 11
680.8173102301521
 21
439.4287339825365
 31
0.0
  0
LINE
  5
300
330
1F
100
AcDbEntity
  8
D-4
  6
Continuous
 62
     7
370
     9
100
AcDbLine
 10
539.5497090107688
 20
339.4285277826842
 30
0.0
 11
724.3060962573904
 21
339.4285277826842
 31
0.0
  0
LINE
  5
301
330
1F
100
AcDbEntity
  8
D-4
  6
Continuous
 62
     7
370
     9
100
AcDbLine
 10
688.3174586940456
 20
439.4287339825365
 30
0.0
 11
682.3172904349665
 21
439.4287339825365
 31
0.0
  0
LINE
  5
302
330
1F
100
AcDbEntity
  8
D-6
  6
Continuous
 62
     6
370
     5
100
AcDbLine
 10
532.0498079866977
 20
439.4287339825365
 30
0.0
 11
532.0498079866977
 21
89.53447326674251
 31
0.0
  0
LINE
  5
303
330
1F
100
AcDbEntity
  8
D-6
  6
Continuous
 62
     6
370
     5
100
AcDbLine
 10
532.0498079866977
 20
206.3402973403277
 30
0.0
 11
447.0497749947214
 21
291.3403303323042
 31
0.0
  0
LINE
  5
304
330
1F
100
AcDbEntity
  8
D-6
  6
Continuous
 62
     6
370
     5
100
AcDbLine
 10
532.0498079866977
 20
170.9847345631952
 30
0.0
 11
447.0497749947214
 21
255.9851387149055
 31
0.0
  0
LINE
  5
305
330
1F
100
AcDbEntity
  8
D-6
  6
Continuous
 62
     6
370
     5
100
AcDbLine
 10
532.0498079866977
 20
135.6297903856192
 30
0.0
 11
447.0497749947214
 21
220.6298233775956
 31
0.0
  0
LINE
  5
306
330
1F
100
AcDbEntity
  8
D-6
  6
Continuous
 62
     6
370
     5
100
AcDbLine
 10
472.0793028135557
 20
89.53447326674251
 30
0.0
 11
447.0497749947214
 21
114.5641248054883
 31
0.0
  0
LINE
  5
307
330
1F
100
AcDbEntity
  8
D-6
  6
Continuous
 62
     6
370
     5
100
AcDbLine
 10
532.0498079866977
 20
100.2742276084866
 30
0.0
 11
523.6190383498734
 21
108.7048735253996
 31
0.0
  0
LINE
  5
308
330
1F
100
AcDbEntity
  8
D-6
  6
Continuous
 62
     6
370
     5
100
AcDbLine
 10
489.842512800887
 20
142.4815227942974
 30
0.0
 11
447.0497749947214
 21
185.2746317601969
 31
0.0
  0
LINE
  5
309
330
1F
100
AcDbEntity
  8
D-6
  6
Continuous
 62
     6
370
     5
100
AcDbLine
 10
507.4344944309544
 20
89.53447326674251
 30
0.0
 11
488.2640941722974
 21
108.7048735253996
 31
0.0
  0
LINE
  5
30A
330
1F
100
AcDbEntity
  8
D-6
  6
Continuous
 62
     6
370
     5
100
AcDbLine
 10
454.4873211834883
 20
142.4815227942974
 30
0.0
 11
447.0497749947214
 21
149.9193164228869
 31
0.0
  0
LINE
  5
30B
330
1F
100
AcDbEntity
  8
D-4
  6
Continuous
 62
     7
370
     9
100
AcDbLine
 10
305.548838022593
 20
44.35233281330078
 30
0.0
 11
570.8127408414273
 21
44.35233281330078
 31
0.0
  0
LINE
  5
30C
330
1F
100
AcDbEntity
  8
D-4
  6
Continuous
 62
     7
370
     9
100
AcDbLine
 10
381.9582552523227
 20
396.928593766637
 30
0.0
 11
517.6854314030828
 21
619.4665675314174
 31
0.0
  0
LINE
  5
30D
330
1F
100
AcDbEntity
  8
D-4
  6
Continuous
 62
     7
370
     9
100
AcDbLine
 10
347.4745466902451
 20
401.9287339825365
 30
0.0
 11
387.0159252269849
 21
466.7605656310795
 31
0.0
  0
LINE
  5
30E
330
1F
100
AcDbEntity
  8
D-B
  6
Continuous
 62
     7
370
     9
100
AcDbLine
 10
363.0253972233953
 20
439.4287339825365
 30
0.0
 11
339.549544050887
 21
439.4287339825365
 31
0.0
  0
LINE
  5
30F
330
1F
100
AcDbEntity
  8
D-B
  6
Continuous
 62
     7
370
     9
100
AcDbLine
 10
358.4509772223396
 20
431.9287092385542
 30
0.0
 11
320.8000389305323
 21
431.9287092385542
 31
0.0
  0
LINE
  5
310
330
1F
100
AcDbEntity
  8
D-B
  6
Continuous
 62
     7
370
     9
100
AcDbLine
 10
344.7282120988177
 20
409.4286350066074
 30
0.0
 11
320.8000389305323
 21
409.4286350066074
 31
0.0
  0
LINE
  5
311
330
1F
100
AcDbEntity
  8
D-B
  6
Continuous
 62
     7
370
     9
100
AcDbLine
 10
349.3026320998734
 20
416.9287834705009
 30
0.0
 11
320.8000389305323
 21
416.9287834705009
 31
0.0
  0
LINE
  5
312
330
1F
100
AcDbEntity
  8
D-B
  6
Continuous
 62
     7
370
     9
100
AcDbLine
 10
353.8768046611065
 20
424.4286844945719
 30
0.0
 11
320.8000389305323
 21
424.4286844945719
 31
0.0
  0
LINE
  5
313
330
1F
100
AcDbEntity
  8
D-B
  6
Continuous
 62
     7
370
     9
100
AcDbLine
 10
392.3284582189612
 20
401.9287339825365
 30
0.0
 11
434.5496100348396
 21
401.9287339825365
 31
0.0
  0
LINE
  5
314
330
1F
100
AcDbEntity
  8
D-B
  6
Continuous
 62
     7
370
     9
100
AcDbLine
 10
479.5500059385557
 20
439.4287339825365
 30
0.0
 11
415.2000633445948
 21
439.4287339825365
 31
0.0
  0
LINE
  5
315
330
1F
100
AcDbEntity
  8
D-B
  6
Continuous
 62
     7
370
     9
100
AcDbLine
 10
400.5585541596284
 20
439.4287339825365
 30
0.0
 11
377.6669064083615
 21
439.4287339825365
 31
0.0
  0
LINE
  5
316
330
1F
100
AcDbEntity
  8
D-B
  6
Continuous
 62
     7
370
     9
100
AcDbLine
 10
498.2995110589107
 20
431.9287092385542
 30
0.0
 11
410.6256433435388
 21
431.9287092385542
 31
0.0
  0
LINE
  5
317
330
1F
100
AcDbEntity
  8
D-B
  6
Continuous
 62
     7
370
     9
100
AcDbLine
 10
395.9841341585727
 20
431.9287092385542
 30
0.0
 11
373.0924864073057
 21
431.9287092385542
 31
0.0
  0
LINE
  5
318
330
1F
100
AcDbEntity
  8
D-B
  6
Continuous
 62
     7
370
     9
100
AcDbLine
 10
434.5496100348396
 20
409.4286350066074
 30
0.0
 11
396.9028782200169
 21
409.4286350066074
 31
0.0
  0
LINE
  5
319
330
1F
100
AcDbEntity
  8
D-B
  6
Continuous
 62
     7
370
     9
100
AcDbLine
 10
382.2613690350508
 20
409.4286350066074
 30
0.0
 11
359.3694738439612
 21
409.4286350066074
 31
0.0
  0
LINE
  5
31A
330
1F
100
AcDbEntity
  8
D-B
  6
Continuous
 62
     7
370
     9
100
AcDbLine
 10
436.650374129012
 20
416.9287834705009
 30
0.0
 11
401.4772982210727
 21
416.9287834705009
 31
0.0
  0
LINE
  5
31B
330
1F
100
AcDbEntity
  8
D-B
  6
Continuous
 62
     7
370
     9
100
AcDbLine
 10
386.8357890361065
 20
416.9287834705009
 30
0.0
 11
363.9441412848396
 21
416.9287834705009
 31
0.0
  0
LINE
  5
31C
330
1F
100
AcDbEntity
  8
D-B
  6
Continuous
 62
     7
370
     9
100
AcDbLine
 10
454.7132337415542
 20
424.4286844945719
 30
0.0
 11
406.0514707823057
 21
424.4286844945719
 31
0.0
  0
LINE
  5
31D
330
1F
100
AcDbEntity
  8
D-B
  6
Continuous
 62
     7
370
     9
100
AcDbLine
 10
391.4099615973396
 20
424.4286844945719
 30
0.0
 11
368.5183138460727
 21
424.4286844945719
 31
0.0
  0
LINE
  5
31E
330
1F
100
AcDbEntity
  8
D-B
  6
Continuous
 62
     7
370
     9
100
AcDbLine
 10
375.3345386402029
 20
398.0715183073887
 30
0.0
 11
371.4771992451438
 21
401.9287339825365
 31
0.0
  0
LINE
  5
31F
330
1F
100
AcDbEntity
  8
D-B
  6
Continuous
 62
     7
370
     9
100
AcDbLine
 10
377.34375
 20
401.3656846661302
 30
0.0
 11
376.7808244035052
 21
401.9287339825365
 31
0.0
  0
LINE
  5
320
330
1F
100
AcDbEntity
  8
D-B
  6
Continuous
 62
     7
370
     9
100
AcDbLine
 10
392.3873488967484
 20
396.928593766637
 30
0.0
 11
390.4565759607263
 21
398.8593667026589
 31
0.0
  0
LINE
  5
321
330
1F
100
AcDbEntity
  8
D-4
  6
Continuous
 62
     7
370
     9
100
AcDbLine
 10
470.1267551731419
 20
364.3819059961027
 30
0.0
 11
465.0666108002534
 21
352.9518564091622
 31
0.0
  0
LINE
  5
322
330
1F
100
AcDbEntity
  8
D-4
  6
Continuous
 62
     7
370
     9
100
AcDbLine
 10
470.1267551731419
 20
364.3819059961027
 30
0.0
 11
462.2809332770271
 21
354.6509019512865
 31
0.0
  0
LINE
  5
323
330
1F
100
AcDbEntity
  8
D-4
  6
Continuous
 62
     7
370
     9
100
AcDbLine
 10
633.5204253325592
 20
177.8446324860204
 30
0.0
 11
826.02068926837
 21
177.8446324860204
 31
0.0
  0
LINE
  5
324
330
1F
100
AcDbEntity
  8
D-4
  6
Continuous
 62
     7
370
     9
100
AcDbLine
 10
483.9806634026607
 20
332.2528966461766
 30
0.0
 11
493.7743315825591
 21
324.4856368937484
 31
0.0
  0
LINE
  5
325
330
1F
100
AcDbEntity
  8
D-4
  6
Continuous
 62
     7
370
     9
100
AcDbLine
 10
483.9806634026607
 20
332.2528966461766
 30
0.0
 11
491.4300867029138
 21
322.2153765210711
 31
0.0
  0
LINE
  5
326
330
1F
100
AcDbEntity
  8
D-4
  6
Continuous
 62
     7
370
     9
100
AcDbLine
 10
633.5204253325592
 20
177.8446324860204
 30
0.0
 11
483.9806634026607
 21
332.2528966461766
 31
0.0
  0
LINE
  5
327
330
1F
100
AcDbEntity
  8
D-6
  6
Continuous
 62
     6
370
     5
100
AcDbLine
 10
532.0498079866977
 20
431.9287092385542
 30
0.0
 11
674.5672277502113
 21
431.9287092385542
 31
0.0
  0
LINE
  5
328
330
1F
100
AcDbEntity
  8
D-6
  6
Continuous
 62
     6
370
     5
100
AcDbLine
 10
532.0498079866977
 20
424.4286844945719
 30
0.0
 11
674.5672277502113
 21
424.4286844945719
 31
0.0
  0
LINE
  5
329
330
1F
100
AcDbEntity
  8
D-6
  6
Continuous
 62
     6
370
     5
100
AcDbLine
 10
532.0498079866977
 20
416.9287834705009
 30
0.0
 11
674.5672277502113
 21
416.9287834705009
 31
0.0
  0
LINE
  5
32A
330
1F
100
AcDbEntity
  8
D-6
  6
Continuous
 62
     6
370
     5
100
AcDbLine
 10
532.0498079866977
 20
409.4286350066074
 30
0.0
 11
674.5672277502113
 21
409.4286350066074
 31
0.0
  0
LINE
  5
32B
330
1F
100
AcDbEntity
  8
D-6
  6
Continuous
 62
     6
370
     5
100
AcDbLine
 10
532.0498079866977
 20
401.9287339825365
 30
0.0
 11
674.5672277502113
 21
401.9287339825365
 31
0.0
  0
LINE
  5
32C
330
1F
100
AcDbEntity
  8
D-4
  6
Continuous
 62
     7
370
     9
100
AcDbLine
 10
543.2994120829815
 20
444.4286267586133
 30
0.0
 11
724.3060962573904
 21
444.4286267586133
 31
0.0
  0
LINE
  5
32D
330
1F
100
AcDbEntity
  8
D-4
  6
Continuous
 62
     7
370
     9
100
AcDbLine
 10
680.8173102301521
 20
439.4287339825365
 30
0.0
 11
680.8173102301521
 21
462.9722619465355
 31
0.0
  0
LINE
  5
32E
330
1F
100
AcDbEntity
  8
D-4
  6
Continuous
 62
     7
370
     9
100
AcDbLine
 10
722.806116052576
 20
339.4285277826842
 30
0.0
 11
722.806116052576
 21
444.4286267586133
 31
0.0
  0
LINE
  5
32F
330
1F
100
AcDbEntity
  8
D-6
  6
Continuous
 62
     6
370
     5
100
AcDbLine
 10
687.0673927100929
 20
431.9287092385542
 30
0.0
 11
716.5560335726352
 21
431.9287092385542
 31
0.0
  0
LINE
  5
330
330
1F
100
AcDbEntity
  8
D-6
  6
Continuous
 62
     6
370
     5
100
AcDbLine
 10
729.0559510926943
 20
431.9287092385542
 30
0.0
 11
768.6079695418075
 21
431.9287092385542
 31
0.0
  0
LINE
  5
331
330
1F
100
AcDbEntity
  8
D-6
  6
Continuous
 62
     6
370
     5
100
AcDbLine
 10
687.0673927100929
 20
424.4286844945719
 30
0.0
 11
716.5560335726352
 21
424.4286844945719
 31
0.0
  0
LINE
  5
332
330
1F
100
AcDbEntity
  8
D-6
  6
Continuous
 62
     6
370
     5
100
AcDbLine
 10
729.0559510926943
 20
424.4286844945719
 30
0.0
 11
768.6079695418075
 21
424.4286844945719
 31
0.0
  0
LINE
  5
333
330
1F
100
AcDbEntity
  8
D-6
  6
Continuous
 62
     6
370
     5
100
AcDbLine
 10
687.0673927100929
 20
416.9287834705009
 30
0.0
 11
716.5560335726352
 21
416.9287834705009
 31
0.0
  0
LINE
  5
334
330
1F
100
AcDbEntity
  8
D-6
  6
Continuous
 62
     6
370
     5
100
AcDbLine
 10
729.0559510926943
 20
416.9287834705009
 30
0.0
 11
768.6079695418075
 21
416.9287834705009
 31
0.0
  0
LINE
  5
335
330
1F
100
AcDbEntity
  8
D-6
  6
Continuous
 62
     6
370
     5
100
AcDbLine
 10
687.0673927100929
 20
409.4286350066074
 30
0.0
 11
716.5560335726352
 21
409.4286350066074
 31
0.0
  0
LINE
  5
336
330
1F
100
AcDbEntity
  8
D-6
  6
Continuous
 62
     6
370
     5
100
AcDbLine
 10
729.0559510926943
 20
409.4286350066074
 30
0.0
 11
768.6079695418075
 21
409.4286350066074
 31
0.0
  0
LINE
  5
337
330
1F
100
AcDbEntity
  8
D-6
  6
Continuous
 62
     6
370
     5
100
AcDbLine
 10
687.0673927100929
 20
401.9287339825365
 30
0.0
 11
716.5560335726352
 21
401.9287339825365
 31
0.0
  0
LINE
  5
338
330
1F
100
AcDbEntity
  8
D-6
  6
Continuous
 62
     6
370
     5
100
AcDbLine
 10
729.0559510926943
 20
401.9287339825365
 30
0.0
 11
768.6079695418075
 21
401.9287339825365
 31
0.0
  0
LINE
  5
339
330
1F
100
AcDbEntity
  8
D-6
  6
Continuous
 62
     6
370
     5
100
AcDbLine
 10
542.0495935388516
 20
439.4287339825365
 30
0.0
 11
716.5560335726352
 21
439.4287339825365
 31
0.0
  0
LINE
  5
33A
330
1F
100
AcDbEntity
  8
D-6
  6
Continuous
 62
     6
370
     5
100
AcDbLine
 10
729.0559510926943
 20
439.4287339825365
 30
0.0
 11
768.6079695418075
 21
439.4287339825365
 31
0.0
  0
LINE
  5
33B
330
1F
100
AcDbEntity
  8
D-4
  6
Continuous
 62
     7
370
     9
100
AcDbLine
 10
506.4246925147805
 20
441.9285566506636
 30
0.0
 11
511.484836887669
 21
453.3585443776483
 31
0.0
  0
LINE
  5
33C
330
1F
100
AcDbEntity
  8
D-4
  6
Continuous
 62
     7
370
     9
100
AcDbLine
 10
506.4246925147805
 20
441.9285566506636
 30
0.0
 11
514.2707618507179
 21
451.6594369755685
 31
0.0
  0
LINE
  5
33D
330
1F
100
AcDbEntity
  8
D-5
  6
Continuous
 62
     7
370
     9
100
AcDbLine
 10
506.3262114653716
 20
374.4288288344685
 30
0.0
 11
508.8260959934544
 21
376.9287133625512
 31
0.0
  0
LINE
  5
33E
330
1F
100
AcDbEntity
  8
D-5
  6
Continuous
 62
     7
370
     9
100
AcDbLine
 10
492.3951020111909
 20
365.447505592281
 30
0.0
 11
493.2997420027451
 21
366.3520837238793
 31
0.0
  0
LINE
  5
33F
330
1F
100
AcDbEntity
  8
D-5
  6
Continuous
 62
     7
370
     9
100
AcDbLine
 10
501.3764252533784
 20
374.4288288344685
 30
0.0
 11
503.8763097814612
 21
376.9287133625512
 31
0.0
  0
LINE
  5
340
330
1F
100
AcDbEntity
  8
D-5
  6
Continuous
 62
     7
370
     9
100
AcDbLine
 10
485.6813173036318
 20
363.6834452367594
 30
0.0
 11
490.1765565614443
 21
368.1788082144832
 31
0.0
  0
LINE
  5
341
330
1F
100
AcDbEntity
  8
D-5
  6
Continuous
 62
     7
370
     9
100
AcDbLine
 10
496.4266390413852
 20
374.4288288344685
 30
0.0
 11
498.926523569468
 21
376.9287133625512
 31
0.0
  0
LINE
  5
342
330
1F
100
AcDbEntity
  8
D-5
  6
Continuous
 62
     7
370
     9
100
AcDbLine
 10
480.2331872888513
 20
363.1849777140609
 30
0.0
 11
482.33642578125
 21
365.2883399263708
 31
0.0
  0
LINE
  5
343
330
1F
100
AcDbEntity
  8
D-5
  6
Continuous
 62
     7
370
     9
100
AcDbLine
 10
487.0496595228042
 20
370.0015736679248
 30
0.0
 11
490.1745770428633
 21
373.1265530479397
 31
0.0
  0
LINE
  5
344
330
1F
100
AcDbEntity
  8
D-5
  6
Continuous
 62
     7
370
     9
100
AcDbLine
 10
491.4768528293919
 20
374.4288288344685
 30
0.0
 11
493.9767373574747
 21
376.9287133625512
 31
0.0
  0
LINE
  5
345
330
1F
100
AcDbEntity
  8
D-5
  6
Continuous
 62
     7
370
     9
100
AcDbLine
 10
475.4969416437922
 20
363.3983945610837
 30
0.0
 11
477.3458119985222
 21
365.2472649158134
 31
0.0
  0
LINE
  5
346
330
1F
100
AcDbEntity
  8
D-5
  6
Continuous
 62
     7
370
     9
100
AcDbLine
 10
486.5273140572214
 20
374.4288288344685
 30
0.0
 11
489.0269511454815
 21
376.9287133625512
 31
0.0
  0
LINE
  5
347
330
1F
100
AcDbEntity
  8
D-5
  6
Continuous
 62
     7
370
     9
100
AcDbLine
 10
471.2563179634714
 20
364.1074333728446
 30
0.0
 11
472.9468268317146
 21
365.7981896809105
 31
0.0
  0
LINE
  5
348
330
1F
100
AcDbEntity
  8
D-5
  6
Continuous
 62
     7
370
     9
100
AcDbLine
 10
481.5775278452281
 20
374.4288288344685
 30
0.0
 11
484.0774123733109
 21
376.9287133625512
 31
0.0
  0
LINE
  5
349
330
1F
100
AcDbEntity
  8
D-5
  6
Continuous
 62
     7
370
     9
100
AcDbLine
 10
467.4004632073482
 20
365.2014885486259
 30
0.0
 11
472.0496100348396
 21
369.8507590960288
 31
0.0
  0
LINE
  5
34A
330
1F
100
AcDbEntity
  8
D-5
  6
Continuous
 62
     7
370
     9
100
AcDbLine
 10
476.6277416332349
 20
374.4288288344685
 30
0.0
 11
479.1276261613177
 21
376.9287133625512
 31
0.0
  0
LINE
  5
34B
330
1F
100
AcDbEntity
  8
D-5
  6
Continuous
 62
     7
370
     9
100
AcDbLine
 10
468.9244450749578
 20
371.6753803481404
 30
0.0
 11
474.1778399493245
 21
376.9287133625512
 31
0.0
  0
LINE
  5
34C
330
1F
100
AcDbEntity
  8
D-5
  6
Continuous
 62
     7
370
     9
100
AcDbLine
 10
466.7281692092484
 20
374.4288288344685
 30
0.0
 11
469.2280537373313
 21
376.9287133625512
 31
0.0
  0
LINE
  5
34D
330
1F
100
AcDbEntity
  8
D-5
  6
Continuous
 62
     7
370
     9
100
AcDbLine
 10
461.7783829972552
 20
374.4288288344685
 30
0.0
 11
464.278267525338
 21
376.9287133625512
 31
0.0
  0
LINE
  5
34E
330
1F
100
AcDbEntity
  8
D-5
  6
Continuous
 62
     7
370
     9
100
AcDbLine
 10
456.828596785262
 20
374.4288288344685
 30
0.0
 11
459.3284813133448
 21
376.9287133625512
 31
0.0
  0
LINE
  5
34F
330
1F
100
AcDbEntity
  8
D-5
  6
Continuous
 62
     7
370
     9
100
AcDbLine
 10
451.8788105732688
 20
374.4288288344685
 30
0.0
 11
454.3786951013513
 21
376.9287133625512
 31
0.0
  0
ARC
  5
350
330
1F
100
AcDbEntity
  8
D-5
  6
Continuous
 62
     7
370
     9
100
AcDbCircle
 10
479.5500059385557
 20
400.6786679985837
 30
0.0
 40
37.50000386624723
100
AcDbArc
 50
248.4898071289062
 51
291.5101928710938
  0
ARC
  5
351
330
1F
100
AcDbEntity
  8
D-5
  6
Continuous
 62
     7
370
     9
100
AcDbCircle
 10
479.5500059385557
 20
400.6786679985837
 30
0.0
 40
35.50000190734863
100
AcDbArc
 50
257.8034057617188
 51
282.1965942382812
  0
ARC
  5
352
330
1F
100
AcDbEntity
  8
D-1
  6
Continuous
 62
     2
370
     9
100
AcDbCircle
 10
493.2997420027451
 20
371.9289443063857
 30
0.0
 40
2.500003415185052
100
AcDbArc
 50
90.0
 51
270.0
  0
ARC
  5
353
330
1F
100
AcDbEntity
  8
D-1
  6
Continuous
 62
     2
370
     9
100
AcDbCircle
 10
465.7997749947214
 20
371.9289443063857
 30
0.0
 40
2.500003415185052
100
AcDbArc
 50
270.0
 51
90.0
  0
ARC
  5
354
330
1F
100
AcDbEntity
  8
D-1
  6
Continuous
 62
     2
370
     9
100
AcDbCircle
 10
501.4246760187922
 20
366.9287422305305
 30
0.0
 40
2.500000032218727
100
AcDbArc
 50
90.0
 51
180.0
  0
ARC
  5
355
330
1F
100
AcDbEntity
  8
D-1
  6
Continuous
 62
     2
370
     9
100
AcDbCircle
 10
457.6743460990289
 20
366.9287422305305
 30
0.0
 40
2.500000032218727
100
AcDbArc
 50
0.0
 51
90.0
  0
ARC
  5
356
330
1F
100
AcDbEntity
  8
D-1
  6
Continuous
 62
     2
370
     9
100
AcDbCircle
 10
453.2993625950169
 20
366.9287422305305
 30
0.0
 40
2.500000032218727
100
AcDbArc
 50
90.0
 51
180.0
  0
ARC
  5
357
330
1F
100
AcDbEntity
  8
D-1
  6
Continuous
 62
     2
370
     9
100
AcDbCircle
 10
453.2993625950169
 20
345.6787339825365
 30
0.0
 40
2.500000032218727
100
AcDbArc
 50
180.0
 51
270.0
  0
ARC
  5
358
330
1F
100
AcDbEntity
  8
D-1
  6
Continuous
 62
     2
370
     9
100
AcDbCircle
 10
463.9249234586148
 20
345.6787339825365
 30
0.0
 40
2.500000032218727
100
AcDbArc
 50
270.0
 51
0.0
  0
ARC
  5
359
330
1F
100
AcDbEntity
  8
D-1
  6
Continuous
 62
     2
370
     9
100
AcDbCircle
 10
463.9249234586148
 20
348.1787422305305
 30
0.0
 40
2.500000032218727
100
AcDbArc
 50
0.0
 51
90.0
  0
ARC
  5
35A
330
1F
100
AcDbEntity
  8
D-1
  6
Continuous
 62
     2
370
     9
100
AcDbCircle
 10
462.6746100348396
 20
353.1786350066074
 30
0.0
 40
2.500000032218727
100
AcDbArc
 50
180.0
 51
270.0
  0
ARC
  5
35B
330
1F
100
AcDbEntity
  8
D-1
  6
Continuous
 62
     2
370
     9
100
AcDbCircle
 10
509.5496100348396
 20
366.9287422305305
 30
0.0
 40
2.500000032218727
100
AcDbArc
 50
0.0
 51
90.0
  0
ARC
  5
35C
330
1F
100
AcDbEntity
  8
D-1
  6
Continuous
 62
     2
370
     9
100
AcDbCircle
 10
495.174840978674
 20
354.4288247104714
 30
0.0
 40
3.75000004832809
100
AcDbArc
 50
270.0
 51
0.0
  0
ARC
  5
35D
330
1F
100
AcDbEntity
  8
D-1
  6
Continuous
 62
     2
370
     9
100
AcDbCircle
 10
527.049544050887
 20
346.9286762465779
 30
0.0
 40
2.500003415185052
100
AcDbArc
 50
0.0
 51
180.0
  0
ARC
  5
35E
330
1F
100
AcDbEntity
  8
D-1
  6
Continuous
 62
     2
370
     9
100
AcDbCircle
 10
509.5496100348396
 20
345.6787339825365
 30
0.0
 40
2.500000032218727
100
AcDbArc
 50
270.0
 51
0.0
  0
ARC
  5
35F
330
1F
100
AcDbEntity
  8
D-1
  6
Continuous
 62
     2
370
     9
100
AcDbCircle
 10
495.174840978674
 20
345.6787339825365
 30
0.0
 40
2.500000032218727
100
AcDbArc
 50
180.0
 51
270.0
  0
ARC
  5
360
330
1F
100
AcDbEntity
  8
D-1
  6
Continuous
 62
     2
370
     9
100
AcDbCircle
 10
527.049544050887
 20
386.9284370547492
 30
0.0
 40
2.500003415185052
100
AcDbArc
 50
180.0
 51
0.0
  0
ARC
  5
361
330
1F
100
AcDbEntity
  8
D-1
  6
Continuous
 62
     2
370
     9
100
AcDbCircle
 10
522.0497749947214
 20
434.428593766637
 30
0.0
 40
5.000000064437454
100
AcDbArc
 50
90.0
 51
180.0
  0
ARC
  5
362
330
1F
100
AcDbEntity
  8
D-1
  6
Continuous
 62
     2
370
     9
100
AcDbCircle
 10
492.6747090107688
 20
358.1785277826842
 30
0.0
 40
2.500000032218727
100
AcDbArc
 50
270.0
 51
0.0
  0
ARC
  5
363
330
1F
100
AcDbEntity
  8
D-1
  6
Continuous
 62
     2
370
     9
100
AcDbCircle
 10
466.4248079866977
 20
358.1785277826842
 30
0.0
 40
2.500000032218727
100
AcDbArc
 50
180.0
 51
270.0
  0
ARC
  5
364
330
1F
100
AcDbEntity
  8
D-A
  6
Continuous
 62
     2
370
     9
100
AcDbCircle
 10
434.5496100348396
 20
381.8578383493544
 30
0.0
 40
3.75000004832809
100
AcDbArc
 50
180.0
 51
254.5338897705078
  0
ARC
  5
365
330
1F
100
AcDbEntity
  8
D-A
  6
Continuous
 62
     2
370
     9
100
AcDbCircle
 10
444.5496430268159
 20
381.8578383493544
 30
0.0
 40
3.75000004832809
100
AcDbArc
 50
285.4661102294922
 51
0.0
  0
ARC
  5
366
330
1F
100
AcDbEntity
  8
D-A
  6
Continuous
 62
     2
370
     9
100
AcDbCircle
 10
439.5496265308279
 20
399.9286160362209
 30
0.0
 40
22.50000077324945
100
AcDbArc
 50
254.5339660644532
 51
266.6239776611328
  0
ARC
  5
367
330
1F
100
AcDbEntity
  8
D-A
  6
Continuous
 62
     2
370
     9
100
AcDbCircle
 10
439.5496265308279
 20
399.9286160362209
 30
0.0
 40
22.50000077324945
100
AcDbArc
 50
273.3760375976562
 51
285.4660339355468
  0
ARC
  5
368
330
1F
100
AcDbEntity
  8
D-A
  6
Continuous
 62
     2
370
     9
100
AcDbCircle
 10
479.5500059385557
 20
353.0794116377307
 30
0.0
 40
9.849169125428071
100
AcDbArc
 50
15.30145263671878
 51
164.6985473632813
  0
TEXT
  5
369
330
1F
100
AcDbEntity
  8
D-4
  6
Continuous
 62
     7
370
     9
100
AcDbText
 10
316.0566051586255
 20
472.3866129943608
 30
0.0
 40
11.43
  1
接着シロ
 41
1.125
  7
ＭＳ ゴシック
100
AcDbText
  0
TEXT
  5
36A
330
1F
100
AcDbEntity
  8
D-4
  6
Continuous
 62
     2
370
     9
100
AcDbText
 10
477.6749110866239
 20
121.3889383348379
 30
0.0
 40
15.24
  1
33
 41
1.0625
  7
ＭＳ ゴシック
100
AcDbText
  0
TEXT
  5
36B
330
1F
100
AcDbEntity
  8
D-4
  6
Continuous
 62
     2
370
     9
100
AcDbText
 10
674.9973498205237
 20
370.2169122975702
 30
0.0
 40
15.24
  1
40
 50
90.0
 41
1.0625
  7
ＭＳ ゴシック
100
AcDbText
  0
TEXT
  5
36C
330
1F
100
AcDbEntity
  8
D-4
  6
Continuous
 62
     2
370
     9
100
AcDbText
 10
317.272569811022
 20
50.53231816486328
 30
0.0
 40
15.24
  1
断面詳細図　Ｓ＝１：２
 41
1.113636363636364
  7
ＭＳ ゴシック
100
AcDbText
  0
TEXT
  5
36D
330
1F
100
AcDbEntity
  8
D-4
  6
Continuous
 62
     7
370
     9
100
AcDbText
 10
238.1808512919659
 20
16.20667970413691
 30
0.0
 40
11.43
  1
処理：陽極酸化塗装複合皮膜処理（アルミ材のみ）
 41
1.159420289855073
  7
ＭＳ ゴシック
100
AcDbText
  0
TEXT
  5
36E
330
1F
100
AcDbEntity
  8
D-4
  6
Continuous
 62
     7
370
     9
100
AcDbText
 10
636.1645714012353
 20
184.2413311768988
 30
0.0
 40
11.43
  1
木ネジ　φ４．１×２５
 41
1.151515151515152
  7
ＭＳ ゴシック
100
AcDbText
  0
TEXT
  5
36F
330
1F
100
AcDbEntity
  8
D-4
  6
Continuous
 62
     2
370
     9
100
AcDbText
 10
674.9973498205237
 20
449.8774227989163
 30
0.0
 40
15.24
  1
2
 50
90.0
 41
0.9999999999999998
  7
ＭＳ ゴシック
100
AcDbText
  0
TEXT
  5
370
330
1F
100
AcDbEntity
  8
D-4
  6
Continuous
 62
     2
370
     9
100
AcDbText
 10
716.9861556429477
 20
370.2169122975702
 30
0.0
 40
15.24
  1
42
 50
90.0
 41
1.0625
  7
ＭＳ ゴシック
100
AcDbText
  0
LWPOLYLINE
  5
371
330
1F
100
AcDbEntity
  8
D-4
  6
Continuous
 62
     7
370
     9
100
AcDbPolyline
 90
        4
 70
     1
 43
0.5
 10
447.2997749947214
 20
115.5689779252096
 42
0.4142135623731
 10
447.0497749947214
 20
115.8189779252096
 42
0.4142135623731
 10
446.7997749947214
 20
115.5689779252096
 42
0.4142135623731
 10
447.0497749947214
 20
115.3189779252096
 42
0.4142135623731
  0
LWPOLYLINE
  5
372
330
1F
100
AcDbEntity
  8
D-4
  6
Continuous
 62
     7
370
     9
100
AcDbPolyline
 90
        4
 70
     1
 43
0.5
 10
529.7996760187922
 20
115.5689779252096
 42
0.4142135623731
 10
529.5496760187922
 20
115.8189779252096
 42
0.4142135623731
 10
529.2996760187922
 20
115.5689779252096
 42
0.4142135623731
 10
529.5496760187922
 20
115.3189779252096
 42
0.4142135623731
  0
LWPOLYLINE
  5
373
330
1F
100
AcDbEntity
  8
D-4
  6
Continuous
 62
     7
370
     9
100
AcDbPolyline
 90
        4
 70
     1
 43
0.5
 10
681.0673102301521
 20
339.4285277826842
 42
0.4142135623731
 10
680.8173102301521
 20
339.6785277826842
 42
0.4142135623731
 10
680.5673102301521
 20
339.4285277826842
 42
0.4142135623731
 10
680.8173102301521
 20
339.1785277826842
 42
0.4142135623731
  0
LWPOLYLINE
  5
374
330
1F
100
AcDbEntity
  8
D-4
  6
Continuous
 62
     7
370
     9
100
AcDbPolyline
 90
        4
 70
     1
 43
0.5
 10
681.0673102301521
 20
439.4287339825365
 42
0.4142135623731
 10
680.8173102301521
 20
439.6787339825364
 42
0.4142135623731
 10
680.5673102301521
 20
439.4287339825365
 42
0.4142135623731
 10
680.8173102301521
 20
439.1787339825365
 42
0.4142135623731
  0
LWPOLYLINE
  5
375
330
1F
100
AcDbEntity
  8
D-4
  6
Continuous
 62
     7
370
     9
100
AcDbPolyline
 90
        4
 70
     1
 43
0.5
 10
681.0673102301521
 20
444.4286267586133
 42
0.4142135623731
 10
680.8173102301521
 20
444.6786267586133
 42
0.4142135623731
 10
680.5673102301521
 20
444.4286267586133
 42
0.4142135623731
 10
680.8173102301521
 20
444.1786267586133
 42
0.4142135623731
  0
LWPOLYLINE
  5
376
330
1F
100
AcDbEntity
  8
D-4
  6
Continuous
 62
     7
370
     9
100
AcDbPolyline
 90
        4
 70
     1
 43
0.5
 10
723.056116052576
 20
339.4285277826842
 42
0.4142135623731
 10
722.806116052576
 20
339.6785277826842
 42
0.4142135623731
 10
722.556116052576
 20
339.4285277826842
 42
0.4142135623731
 10
722.806116052576
 20
339.1785277826842
 42
0.4142135623731
  0
LWPOLYLINE
  5
377
330
1F
100
AcDbEntity
  8
D-4
  6
Continuous
 62
     7
370
     9
100
AcDbPolyline
 90
        4
 70
     1
 43
0.5
 10
723.056116052576
 20
444.4286267586133
 42
0.4142135623731
 10
722.806116052576
 20
444.6786267586133
 42
0.4142135623731
 10
722.556116052576
 20
444.4286267586133
 42
0.4142135623731
 10
722.806116052576
 20
444.1786267586133
 42
0.4142135623731
  0
TEXT
  5
378
330
1F
100
AcDbEntity
  8
D-4
  6
Continuous
 62
     2
370
     9
100
AcDbText
 10
136.8594525311445
 20
121.3889383348379
 30
0.0
 40
15.24
  1
□400
 41
1.1
  7
ＭＳ ゴシック
100
AcDbText
  0
TEXT
  5
379
330
1F
100
AcDbEntity
  8
D-4
  6
Continuous
 62
     7
370
     9
100
AcDbText
 10
584.981652862128
 20
567.3410852870458
 30
0.0
 40
11.43
  1
蓋フレーム（Ａ６０６３Ｓ－Ｔ５）
 50
0.0000255446035848
 41
1.15625
  7
ＭＳ ゴシック
100
AcDbText
  0
TEXT
  5
37A
330
1F
100
AcDbEntity
  8
D-4
  6
Continuous
 62
     7
370
     9
100
AcDbText
 10
610.9675365383796
 20
528.4340805955758
 30
0.0
 40
11.43
  1
アルミ受枠（Ａ６０６３Ｓ－Ｔ５）
 41
1.15625
  7
ＭＳ ゴシック
100
AcDbText
  0
LINE
  5
37B
330
1F
100
AcDbEntity
  8
D-4
  6
Continuous
 62
     7
370
     9
100
AcDbLine
 10
863.4217024352336
 20
563.4239810587833
 30
0.0
 11
580.525152698549
 21
563.4239810587833
 31
0.0
  0
LINE
  5
37C
330
1F
100
AcDbEntity
  8
D-4
  6
Continuous
 62
     7
370
     9
100
AcDbLine
 10
523.5165982633023
 20
394.4285855186428
 30
0.0
 11
602.3802705626415
 21
523.7333963089942
 31
0.0
  0
LINE
  5
37D
330
1F
100
AcDbEntity
  8
D-4
  6
Continuous
 62
     7
370
     9
100
AcDbLine
 10
875.7909717289414
 20
523.7333963089943
 30
0.0
 11
602.3802705626415
 21
523.7333963089943
 31
0.0
  0
LINE
  5
37E
330
1F
100
AcDbEntity
  8
D-4
  6
Continuous
 62
     7
370
     9
100
AcDbLine
 10
506.4246925147805
 20
441.9285566506636
 30
0.0
 11
580.525152698549
 21
563.4239810587833
 31
0.0
  0
LINE
  5
37F
330
1F
100
AcDbEntity
  8
D-4
  6
Continuous
 62
     7
370
     9
100
AcDbLine
 10
135.8813311602619
 20
533.4220995666863
 30
0.0
 11
542.049840978674
 21
533.4220995666863
 31
0.0
  0
LINE
  5
380
330
1F
100
AcDbEntity
  8
D-4
  6
Continuous
 62
     7
370
     9
100
AcDbLine
 10
509.5501049144849
 20
454.0143217675871
 30
0.0
 11
509.5501049144849
 21
534.9220179115447
 31
0.0
  0
LINE
  5
381
330
1F
100
AcDbEntity
  8
D-4
  6
Continuous
 62
     7
370
     9
100
AcDbLine
 10
512.0499894425677
 20
454.0143217675871
 30
0.0
 11
512.0499894425677
 21
534.9220179115447
 31
0.0
  0
LINE
  5
382
330
1F
100
AcDbEntity
  8
D-4
  6
Continuous
 62
     7
370
     9
100
AcDbLine
 10
542.049840978674
 20
454.0143217675871
 30
0.0
 11
542.049840978674
 21
575.9203839839159
 31
0.0
  0
LINE
  5
383
330
1F
100
AcDbEntity
  8
D-4
  6
Continuous
 62
     7
370
     9
100
AcDbLine
 10
135.8813311602619
 20
574.4204656390573
 30
0.0
 11
542.049840978674
 21
574.4204656390573
 31
0.0
  0
TEXT
  5
384
330
1F
100
AcDbEntity
  8
D-4
  6
Continuous
 62
     2
370
     9
100
AcDbText
 10
494.7992438239021
 20
538.7420459547247
 30
0.0
 40
15.24
  1
1
 41
0.9999999999999998
  7
ＭＳ ゴシック
100
AcDbText
  0
TEXT
  5
385
330
1F
100
AcDbEntity
  8
D-4
  6
Continuous
 62
     2
370
     9
100
AcDbText
 10
516.4249770705765
 20
538.7420459547247
 30
0.0
 40
15.24
  1
12
 41
1.0625
  7
ＭＳ ゴシック
100
AcDbText
  0
LWPOLYLINE
  5
386
330
1F
100
AcDbEntity
  8
D-4
  6
Continuous
 62
     7
370
     9
100
AcDbPolyline
 90
        4
 70
     1
 43
0.5
 10
509.8001049144849
 20
533.4220995666863
 42
0.4142135623731
 10
509.5501049144849
 20
533.6720995666863
 42
0.4142135623731
 10
509.3001049144849
 20
533.4220995666863
 42
0.4142135623731
 10
509.5501049144849
 20
533.1720995666863
 42
0.4142135623731
  0
LWPOLYLINE
  5
387
330
1F
100
AcDbEntity
  8
D-4
  6
Continuous
 62
     7
370
     9
100
AcDbPolyline
 90
        4
 70
     1
 43
0.5
 10
512.2999894425677
 20
533.4220995666863
 42
0.4142135623731
 10
512.0499894425677
 20
533.6720995666863
 42
0.4142135623731
 10
511.7999894425677
 20
533.4220995666863
 42
0.4142135623731
 10
512.0499894425677
 20
533.1720995666863
 42
0.4142135623731
  0
LWPOLYLINE
  5
388
330
1F
100
AcDbEntity
  8
D-4
  6
Continuous
 62
     7
370
     9
100
AcDbPolyline
 90
        4
 70
     1
 43
0.5
 10
542.299840978674
 20
533.4220995666863
 42
0.4142135623731
 10
542.049840978674
 20
533.6720995666863
 42
0.4142135623731
 10
541.799840978674
 20
533.4220995666863
 42
0.4142135623731
 10
542.049840978674
 20
533.1720995666863
 42
0.4142135623731
  0
LWPOLYLINE
  5
389
330
1F
100
AcDbEntity
  8
D-4
  6
Continuous
 62
     7
370
     9
100
AcDbPolyline
 90
        4
 70
     1
 43
0.5
 10
542.299840978674
 20
574.4204656390573
 42
0.4142135623731
 10
542.049840978674
 20
574.6704656390573
 42
0.4142135623731
 10
541.799840978674
 20
574.4204656390573
 42
0.4142135623731
 10
542.049840978674
 20
574.1704656390574
 42
0.4142135623731
  0
TEXT
  5
38A
330
1F
100
AcDbEntity
  8
D-4
  6
Continuous
 62
     2
370
     9
100
AcDbText
 10
136.8594525311445
 20
538.7420459547247
 30
0.0
 40
15.24
  1
□450
 41
1.1
  7
ＭＳ ゴシック
100
AcDbText
  0
TEXT
  5
38B
330
1F
100
AcDbEntity
  8
D-4
  6
Continuous
 62
     2
370
     9
100
AcDbText
 10
136.018641278861
 20
580.3496707303274
 30
0.0
 40
15.24
  1
□476
 50
0.0002181117649
 41
1.1
  7
ＭＳ ゴシック
100
AcDbText
  0
LINE
  5
38C
330
1F
100
AcDbEntity
  8
D-4
  6
Continuous
 62
     7
370
     9
100
AcDbLine
 10
272.0499399546031
 20
499.3227455073491
 30
0.0
 11
509.5501049144849
 21
499.3227455073491
 31
0.0
  0
LWPOLYLINE
  5
38D
330
1F
100
AcDbEntity
  8
D-4
  6
Continuous
 62
     7
370
     9
100
AcDbPolyline
 90
        4
 70
     1
 43
0.5
 10
272.2999399546031
 20
499.3227455073491
 42
0.4142135623731
 10
272.0499399546031
 20
499.5727455073491
 42
0.4142135623731
 10
271.7999399546031
 20
499.3227455073491
 42
0.4142135623731
 10
272.0499399546031
 20
499.0727455073491
 42
0.4142135623731
  0
LWPOLYLINE
  5
38E
330
1F
100
AcDbEntity
  8
D-4
  6
Continuous
 62
     7
370
     9
100
AcDbPolyline
 90
        4
 70
     1
 43
0.5
 10
509.8001049144849
 20
499.3227455073491
 42
0.4142135623731
 10
509.5501049144849
 20
499.5727455073491
 42
0.4142135623731
 10
509.3001049144849
 20
499.3227455073491
 42
0.4142135623731
 10
509.5501049144849
 20
499.0727455073491
 42
0.4142135623731
  0
LINE
  5
38F
330
1F
100
AcDbEntity
  8
D-4
  6
Continuous
 62
     7
370
     9
100
AcDbLine
 10
272.0499399546031
 20
500.8227455073491
 30
0.0
 11
272.0499399546031
 21
458.699561817207
 31
0.0
  0
TEXT
  5
390
330
1F
100
AcDbEntity
  8
D-4
  6
Continuous
 62
     2
370
   211
100
AcDbText
 10
380.175022434544
 20
505.142745507349
 30
0.0
 40
15.24
  1
95
 41
1.0625
  7
ＭＳ ゴシック
100
AcDbText
  0
TEXT
  5
391
330
1F
100
AcDbEntity
  8
D-0
  6
Continuous
 62
     7
370
     9
100
AcDbText
 10
236.6310705456567
 20
602.5403308601934
 30
0.0
 40
11.43
  1
（ＳＣＳ１３）
 50
359.9999484463209
 41
1.142857142857143
  7
ＭＳ ゴシック
100
AcDbText
  0
LINE
  5
392
330
1F
100
AcDbEntity
  8
D-0
  6
Continuous
 62
     7
370
     9
100
AcDbLine
 10
238.1617132587237
 20
617.3873307018143
 30
0.0
 11
365.4847016205659
 21
617.3873307018143
 31
0.0
  0
TEXT
  5
393
330
1F
100
AcDbEntity
  8
D-0
  6
Continuous
 62
     7
370
     9
100
AcDbText
 10
256.8975139059038
 20
624.3858030413413
 30
0.0
 40
11.43
  1
把手カバー
 41
1.133333333333333
  7
ＭＳ ゴシック
100
AcDbText
  0
LINE
  5
394
330
1F
100
AcDbEntity
  8
D-B
  6
Continuous
 62
     7
370
     9
100
AcDbLine
 10
320.800100790488
 20
396.9285937666368
 30
0.0
 11
320.800100790488
 21
439.4286102626248
 31
0.0
  0
LINE
  5
395
330
1F
100
AcDbEntity
  8
D-4
  6
Continuous
 62
     7
370
     9
100
AcDbLine
 10
128.381430136191
 20
439.4286102626251
 30
0.0
 11
88.41668206292255
 21
439.4286102626251
 31
0.0
  0
LINE
  5
396
330
1F
100
AcDbEntity
  8
D-4
  6
Continuous
 62
     7
370
     9
100
AcDbLine
 10
128.381430136191
 20
388.9915902958811
 30
0.0
 11
88.41668206292255
 21
388.9915902958811
 31
0.0
  0
LINE
  5
397
330
1F
100
AcDbEntity
  8
D-4
  6
Continuous
 62
     7
370
     9
100
AcDbLine
 10
128.381430136191
 20
396.9915672014977
 30
0.0
 11
88.41668206292255
 21
396.9915672014977
 31
0.0
  0
LINE
  5
398
330
1F
100
AcDbEntity
  8
D-4
  6
Continuous
 62
     7
370
     9
100
AcDbLine
 10
89.91666226773674
 20
396.9915672014977
 30
0.0
 11
89.91666226773674
 21
401.9286102626251
 31
0.0
  0
LINE
  5
399
330
1F
100
AcDbEntity
  8
D-4
  6
Continuous
 62
     7
370
     9
100
AcDbLine
 10
128.381430136191
 20
401.9286102626251
 30
0.0
 11
88.41668206292255
 21
401.9286102626251
 31
0.0
  0
LINE
  5
39A
330
1F
100
AcDbEntity
  8
D-4
  6
Continuous
 62
     7
370
     9
100
AcDbLine
 10
89.91666226773674
 20
401.9286102626251
 30
0.0
 11
89.91666226773674
 21
439.4286102626251
 31
0.0
  0
LINE
  5
39B
330
1F
100
AcDbEntity
  8
D-4
  6
Continuous
 62
     7
370
     9
100
AcDbLine
 10
89.91666226773674
 20
348.0850862576631
 30
0.0
 11
89.91666226773674
 21
396.9915672014977
 31
0.0
  0
LINE
  5
39C
330
1F
100
AcDbEntity
  8
D-4
  6
Continuous
 62
     7
370
     9
100
AcDbLine
 10
50.15308277027046
 20
384.6831681041581
 30
0.0
 11
50.15308277027046
 21
367.9869186320297
 31
0.0
  0
LINE
  5
39D
330
1F
100
AcDbEntity
  8
D-4
  6
Continuous
 62
     7
370
     9
100
AcDbLine
 10
88.1316313872469
 20
399.5614771993862
 30
0.0
 11
50.15308277027046
 21
384.6831681041581
 31
0.0
  0
TEXT
  5
39E
330
1F
100
AcDbEntity
  8
D-4
  6
Continuous
 62
     2
370
     9
100
AcDbText
 10
84.59653029983127
 20
351.5457713690441
 30
0.0
 40
15.24
  1
3.2
 50
90.0
 41
1.083333333333333
  7
ＭＳ ゴシック
100
AcDbText
  0
TEXT
  5
39F
330
1F
100
AcDbEntity
  8
D-4
  6
Continuous
 62
     2
370
     9
100
AcDbText
 10
46.34431323902046
 20
371.4475975574151
 30
0.0
 40
15.24
  1
2
 50
90.0
 41
0.9999999999999998
  7
ＭＳ ゴシック
100
AcDbText
  0
TEXT
  5
3A0
330
1F
100
AcDbEntity
  8
D-4
  6
Continuous
 62
     2
370
     9
100
AcDbText
 10
84.59653029983127
 20
411.6681860352972
 30
0.0
 40
15.24
  1
15
 50
90.0
 41
1.0625
  7
ＭＳ ゴシック
100
AcDbText
  0
LWPOLYLINE
  5
3A1
330
1F
100
AcDbEntity
  8
D-4
  6
Continuous
 62
     7
370
     9
100
AcDbPolyline
 90
        4
 70
     1
 43
0.5
 10
90.16666226773674
 20
439.4286102626251
 42
0.4142135623731
 10
89.91666226773674
 20
439.6786102626251
 42
0.4142135623731
 10
89.66666226773674
 20
439.4286102626251
 42
0.4142135623731
 10
89.91666226773674
 20
439.1786102626252
 42
0.4142135623731
  0
LWPOLYLINE
  5
3A2
330
1F
100
AcDbEntity
  8
D-4
  6
Continuous
 62
     7
370
     9
100
AcDbPolyline
 90
        4
 70
     1
 43
0.5
 10
90.16666226773674
 20
388.9915902958811
 42
0.4142135623731
 10
89.91666226773674
 20
389.2415902958811
 42
0.4142135623731
 10
89.66666226773674
 20
388.9915902958811
 42
0.4142135623731
 10
89.91666226773674
 20
388.7415902958811
 42
0.4142135623731
  0
LWPOLYLINE
  5
3A3
330
1F
100
AcDbEntity
  8
D-4
  6
Continuous
 62
     7
370
     9
100
AcDbPolyline
 90
        4
 70
     1
 43
0.5
 10
90.16666226773674
 20
396.9915672014977
 42
0.4142135623731
 10
89.91666226773674
 20
397.2415672014977
 42
0.4142135623731
 10
89.66666226773674
 20
396.9915672014977
 42
0.4142135623731
 10
89.91666226773674
 20
396.7415672014977
 42
0.4142135623731
  0
LWPOLYLINE
  5
3A4
330
1F
100
AcDbEntity
  8
D-4
  6
Continuous
 62
     7
370
     9
100
AcDbPolyline
 90
        4
 70
     1
 43
0.5
 10
90.16666226773674
 20
401.9286102626251
 42
0.4142135623731
 10
89.91666226773674
 20
402.1786102626251
 42
0.4142135623731
 10
89.66666226773674
 20
401.9286102626251
 42
0.4142135623731
 10
89.91666226773674
 20
401.6786102626252
 42
0.4142135623731
  0
LINE
  5
3A5
330
1F
100
AcDbEntity
  8
D-2
  6
Continuous
 62
     3
370
     9
100
AcDbLine
 10
295.8002657503698
 20
345.6791051422704
 30
0.0
 11
248.3003564783047
 21
345.6791051422704
 31
0.0
  0
LINE
  5
3A6
330
1F
100
AcDbEntity
  8
D-2
  6
Continuous
 62
     3
370
     9
100
AcDbLine
 10
295.8002657503698
 20
345.6791051422704
 30
0.0
 11
295.8002657503698
 21
334.4287587265186
 31
0.0
  0
LINE
  5
3A7
330
1F
100
AcDbEntity
  8
D-2
  6
Continuous
 62
     3
370
     9
100
AcDbLine
 10
295.8002657503698
 20
334.4287587265186
 30
0.0
 11
272.0500636745146
 21
334.4287587265186
 31
0.0
  0
LINE
  5
3A8
330
1F
100
AcDbEntity
  8
D-2
  6
Continuous
 62
     3
370
     9
100
AcDbLine
 10
248.3003564783047
 20
345.6791051422704
 30
0.0
 11
248.3003564783047
 21
339.4290226623293
 31
0.0
  0
LINE
  5
3A9
330
1F
100
AcDbEntity
  8
D-2
  6
Continuous
 62
     3
370
     9
100
AcDbLine
 10
295.8002657503698
 20
339.4290226623293
 30
0.0
 11
248.3003564783047
 21
339.4290226623293
 31
0.0
  0
LINE
  5
3AA
330
1F
100
AcDbEntity
  8
D-2
  6
Continuous
 62
     3
370
     9
100
AcDbLine
 10
272.0500636745146
 20
334.4287587265186
 30
0.0
 11
272.0500636745146
 21
339.4290226623293
 31
0.0
  0
LINE
  5
3AB
330
1F
100
AcDbEntity
  8
D-2
  6
Continuous
 62
     3
370
     9
100
AcDbLine
 10
277.0505131901924
 20
319.428709238554
 30
0.0
 11
267.0503564783047
 21
319.428709238554
 31
0.0
  0
LINE
  5
3AC
330
1F
100
AcDbEntity
  8
D-2
  6
Continuous
 62
     3
370
     9
100
AcDbLine
 10
264.5499152106211
 20
321.9290886462819
 30
0.0
 11
264.5499152106211
 21
339.4290226623293
 31
0.0
  0
LINE
  5
3AD
330
1F
100
AcDbEntity
  8
D-2
  6
Continuous
 62
     3
370
     9
100
AcDbLine
 10
279.5502121384081
 20
321.9290886462819
 30
0.0
 11
279.5502121384081
 21
334.4287587265186
 31
0.0
  0
LINE
  5
3AE
330
1F
100
AcDbEntity
  8
D-0
  6
Continuous
 62
     4
370
     9
100
AcDbLine
 10
228.3002904943521
 20
445.6785690226545
 30
0.0
 11
204.4196876319681
 21
443.1718798994493
 31
0.0
  0
LINE
  5
3AF
330
1F
100
AcDbEntity
  8
D-0
  6
Continuous
 62
     4
370
     9
100
AcDbLine
 10
315.7998368546772
 20
445.6785690226545
 30
0.0
 11
339.6802541371941
 21
443.1718798994493
 31
0.0
  0
LINE
  5
3B0
330
1F
100
AcDbEntity
  8
D-0
  6
Continuous
 62
     4
370
     9
100
AcDbLine
 10
315.7998368546772
 20
445.6785690226545
 30
0.0
 11
228.3002904943521
 21
445.6785690226545
 31
0.0
  0
LINE
  5
3B1
330
1F
100
AcDbEntity
  8
D-0
  6
Continuous
 62
     4
370
     9
100
AcDbLine
 10
340.7997956147067
 20
441.9286185106188
 30
0.0
 11
340.7997956147067
 21
439.4286102626248
 31
0.0
  0
LINE
  5
3B2
330
1F
100
AcDbEntity
  8
D-0
  6
Continuous
 62
     4
370
     9
100
AcDbLine
 10
203.3003317343225
 20
441.9286185106188
 30
0.0
 11
203.3003317343225
 21
439.4286102626248
 31
0.0
  0
LINE
  5
3B3
330
1F
100
AcDbEntity
  8
D-0
  6
Continuous
 62
     4
370
     9
100
AcDbLine
 10
249.5500513025235
 20
419.4286679985834
 30
0.0
 11
294.5500760465058
 21
419.4286679985834
 31
0.0
  0
LINE
  5
3B4
330
1F
100
AcDbEntity
  8
D-0
  6
Continuous
 62
     4
370
     9
100
AcDbLine
 10
310.800191518423
 20
419.4286679985834
 30
0.0
 11
295.7996471508131
 21
419.4286679985834
 31
0.0
  0
LINE
  5
3B5
330
1F
100
AcDbEntity
  8
D-0
  6
Continuous
 62
     4
370
     9
100
AcDbLine
 10
233.2999358306063
 20
419.4286679985834
 30
0.0
 11
248.300480198216
 21
419.4286679985834
 31
0.0
  0
LINE
  5
3B6
330
1F
100
AcDbEntity
  8
D-A
  6
Continuous
 62
     2
370
     9
100
AcDbLine
 10
312.0498863426417
 20
419.4286679985834
 30
0.0
 11
312.0498863426417
 21
413.178709238554
 31
0.0
  0
LINE
  5
3B7
330
1F
100
AcDbEntity
  8
D-A
  6
Continuous
 62
     2
370
     9
100
AcDbLine
 10
294.5499523265944
 20
419.4286679985834
 30
0.0
 11
294.5499523265944
 21
413.178709238554
 31
0.0
  0
LINE
  5
3B8
330
1F
100
AcDbEntity
  8
D-A
  6
Continuous
 62
     2
370
     9
100
AcDbLine
 10
307.6749028386299
 20
411.9286432546011
 30
0.0
 11
298.9249358306063
 21
411.9286432546011
 31
0.0
  0
LINE
  5
3B9
330
1F
100
AcDbEntity
  8
D-A
  6
JWW_CENTER1
 62
     2
370
     9
100
AcDbLine
 10
303.299919334618
 20
441.1510388679881
 30
0.0
 11
303.299919334618
 21
420.4210254072618
 31
0.0
  0
LINE
  5
3BA
330
1F
100
AcDbEntity
  8
D-A
  6
Continuous
 62
     2
370
     9
100
AcDbLine
 10
312.0498863426417
 20
419.4286679985834
 30
0.0
 11
310.800191518423
 21
419.4286679985834
 31
0.0
  0
LINE
  5
3BB
330
1F
100
AcDbEntity
  8
D-A
  6
Continuous
 62
     2
370
     9
100
AcDbLine
 10
303.299919334618
 20
413.178709238554
 30
0.0
 11
303.299919334618
 21
419.4286679985834
 31
0.0
  0
LINE
  5
3BC
330
1F
100
AcDbEntity
  8
D-A
  6
Continuous
 62
     2
370
     9
100
AcDbLine
 10
232.0501791464318
 20
419.4286679985834
 30
0.0
 11
232.0501791464318
 21
413.178709238554
 31
0.0
  0
LINE
  5
3BD
330
1F
100
AcDbEntity
  8
D-A
  6
Continuous
 62
     2
370
     9
100
AcDbLine
 10
249.5501750224348
 20
419.4286679985834
 30
0.0
 11
249.5501750224348
 21
413.178709238554
 31
0.0
  0
LINE
  5
3BE
330
1F
100
AcDbEntity
  8
D-A
  6
Continuous
 62
     2
370
     9
100
AcDbLine
 10
236.4251626504436
 20
411.9286432546011
 30
0.0
 11
245.1752533783786
 21
411.9286432546011
 31
0.0
  0
LINE
  5
3BF
330
1F
100
AcDbEntity
  8
D-A
  6
Continuous
 62
     2
370
     9
100
AcDbLine
 10
232.0501791464318
 20
419.4286679985834
 30
0.0
 11
233.2999358306063
 21
419.4286679985834
 31
0.0
  0
LINE
  5
3C0
330
1F
100
AcDbEntity
  8
D-A
  6
Continuous
 62
     2
370
     9
100
AcDbLine
 10
240.8002080144112
 20
413.178709238554
 30
0.0
 11
240.8002080144112
 21
419.4286679985834
 31
0.0
  0
LINE
  5
3C1
330
1F
100
AcDbEntity
  8
D-2
  6
Continuous
 62
     3
370
     9
100
AcDbLine
 10
279.5502121384081
 20
345.6791051422704
 30
0.0
 11
279.5502121384081
 21
419.4286679985834
 31
0.0
  0
LINE
  5
3C2
330
1F
100
AcDbEntity
  8
D-2
  6
Continuous
 62
     3
370
     9
100
AcDbLine
 10
264.5499152106211
 20
345.6791051422704
 30
0.0
 11
264.5499152106211
 21
419.4286679985834
 31
0.0
  0
LINE
  5
3C3
330
1F
100
AcDbEntity
  8
D-A
  6
Continuous
 62
     2
370
     9
100
AcDbLine
 10
305.7992471230999
 20
388.9286168610204
 30
0.0
 11
305.7992471230999
 21
386.4289179128043
 31
0.0
  0
LINE
  5
3C4
330
1F
100
AcDbEntity
  8
D-A
  6
Continuous
 62
     2
370
     9
100
AcDbLine
 10
307.0493131070526
 20
388.9286168610204
 30
0.0
 11
307.0493131070526
 21
386.4289179128043
 31
0.0
  0
LINE
  5
3C5
330
1F
100
AcDbEntity
  8
D-A
  6
Continuous
 62
     2
370
     9
100
AcDbLine
 10
312.7990722656253
 20
388.9282457012863
 30
0.0
 11
312.7990722656253
 21
386.4286086130261
 31
0.0
  0
LINE
  5
3C6
330
1F
100
AcDbEntity
  8
D-A
  6
Continuous
 62
     2
370
     9
100
AcDbLine
 10
312.7990722656253
 20
386.4286086130261
 30
0.0
 11
293.7995292044977
 21
386.4286086130261
 31
0.0
  0
LINE
  5
3C7
330
1F
100
AcDbEntity
  8
D-A
  6
Continuous
 62
     2
370
     9
100
AcDbLine
 10
293.7995292044977
 20
388.9282457012863
 30
0.0
 11
293.7995292044977
 21
386.4286086130261
 31
0.0
  0
LINE
  5
3C8
330
1F
100
AcDbEntity
  8
D-A
  6
Continuous
 62
     2
370
     9
100
AcDbLine
 10
312.0498863426417
 20
386.4286086130261
 30
0.0
 11
312.0498863426417
 21
380.1786498529964
 31
0.0
  0
LINE
  5
3C9
330
1F
100
AcDbEntity
  8
D-A
  6
Continuous
 62
     2
370
     9
100
AcDbLine
 10
294.5499523265944
 20
386.4286086130261
 30
0.0
 11
294.5499523265944
 21
380.1786498529964
 31
0.0
  0
LINE
  5
3CA
330
1F
100
AcDbEntity
  8
D-A
  6
Continuous
 62
     2
370
     9
100
AcDbLine
 10
311.6490956899285
 20
378.9285838690438
 30
0.0
 11
294.9507429793077
 21
378.9285838690438
 31
0.0
  0
LINE
  5
3CB
330
1F
100
AcDbEntity
  8
D-A
  6
Continuous
 62
     2
370
     9
100
AcDbLine
 10
303.299919334618
 20
380.1786498529964
 30
0.0
 11
303.299919334618
 21
386.4286086130261
 31
0.0
  0
LINE
  5
3CC
330
1F
100
AcDbEntity
  8
D-A
  6
Continuous
 62
     2
370
     9
100
AcDbLine
 10
243.299535802893
 20
388.9286168610204
 30
0.0
 11
243.299535802893
 21
386.4289179128043
 31
0.0
  0
LINE
  5
3CD
330
1F
100
AcDbEntity
  8
D-A
  6
Continuous
 62
     2
370
     9
100
AcDbLine
 10
244.5496017868456
 20
388.9286168610204
 30
0.0
 11
244.5496017868456
 21
386.4289179128043
 31
0.0
  0
LINE
  5
3CE
330
1F
100
AcDbEntity
  8
D-A
  6
Continuous
 62
     2
370
     9
100
AcDbLine
 10
250.2993609454183
 20
388.9282457012863
 30
0.0
 11
250.2993609454183
 21
386.4286086130261
 31
0.0
  0
LINE
  5
3CF
330
1F
100
AcDbEntity
  8
D-A
  6
Continuous
 62
     2
370
     9
100
AcDbLine
 10
250.2993609454183
 20
386.4286086130261
 30
0.0
 11
231.2998178842908
 21
386.4286086130261
 31
0.0
  0
LINE
  5
3D0
330
1F
100
AcDbEntity
  8
D-A
  6
Continuous
 62
     2
370
     9
100
AcDbLine
 10
231.2998178842908
 20
388.9282457012863
 30
0.0
 11
231.2998178842908
 21
386.4286086130261
 31
0.0
  0
LINE
  5
3D1
330
1F
100
AcDbEntity
  8
D-A
  6
Continuous
 62
     2
370
     9
100
AcDbLine
 10
249.5501750224348
 20
386.4286086130261
 30
0.0
 11
249.5501750224348
 21
380.1786498529964
 31
0.0
  0
LINE
  5
3D2
330
1F
100
AcDbEntity
  8
D-A
  6
Continuous
 62
     2
370
     9
100
AcDbLine
 10
232.0502410063875
 20
386.4286086130261
 30
0.0
 11
232.0502410063875
 21
380.1786498529964
 31
0.0
  0
LINE
  5
3D3
330
1F
100
AcDbEntity
  8
D-A
  6
Continuous
 62
     2
370
     9
100
AcDbLine
 10
240.8002080144112
 20
380.1786498529964
 30
0.0
 11
240.8002080144112
 21
386.4286086130261
 31
0.0
  0
LINE
  5
3D4
330
1F
100
AcDbEntity
  8
D-A
  6
Continuous
 62
     2
370
     9
100
AcDbLine
 10
308.2996883907836
 20
411.9286432546011
 30
0.0
 11
308.2996883907836
 21
401.9286102626248
 31
0.0
  0
LINE
  5
3D5
330
1F
100
AcDbEntity
  8
D-A
  6
Continuous
 62
     2
370
     9
100
AcDbLine
 10
306.7994607461468
 20
411.9286432546011
 30
0.0
 11
306.7994607461468
 21
401.9286102626248
 31
0.0
  0
LINE
  5
3D6
330
1F
100
AcDbEntity
  8
D-A
  6
Continuous
 62
     2
370
     9
100
AcDbLine
 10
299.7997593235328
 20
411.9286432546011
 30
0.0
 11
299.7997593235328
 21
401.9286102626248
 31
0.0
  0
LINE
  5
3D7
330
1F
100
AcDbEntity
  8
D-A
  6
Continuous
 62
     2
370
     9
100
AcDbLine
 10
298.2995316788959
 20
411.9286432546011
 30
0.0
 11
298.2995316788959
 21
401.9286102626248
 31
0.0
  0
LINE
  5
3D8
330
1F
100
AcDbEntity
  8
D-A
  6
Continuous
 62
     2
370
     9
100
AcDbLine
 10
245.8005956701333
 20
411.9286432546011
 30
0.0
 11
245.8005956701333
 21
401.9286102626248
 31
0.0
  0
LINE
  5
3D9
330
1F
100
AcDbEntity
  8
D-A
  6
Continuous
 62
     2
370
     9
100
AcDbLine
 10
244.3003680254964
 20
411.9286432546011
 30
0.0
 11
244.3003680254964
 21
401.9286102626248
 31
0.0
  0
LINE
  5
3DA
330
1F
100
AcDbEntity
  8
D-A
  6
Continuous
 62
     2
370
     9
100
AcDbLine
 10
237.3006666028824
 20
411.9286432546011
 30
0.0
 11
237.3006666028824
 21
401.9286102626248
 31
0.0
  0
LINE
  5
3DB
330
1F
100
AcDbEntity
  8
D-A
  6
Continuous
 62
     2
370
     9
100
AcDbLine
 10
235.8004389582456
 20
411.9286432546011
 30
0.0
 11
235.8004389582456
 21
401.9286102626248
 31
0.0
  0
LINE
  5
3DC
330
1F
100
AcDbEntity
  8
D-3
  6
Continuous
 62
     3
370
     9
100
AcDbLine
 10
308.3000595505175
 20
388.9286168610204
 30
0.0
 11
308.3000595505175
 21
396.9285937666368
 31
0.0
  0
LINE
  5
3DD
330
1F
100
AcDbEntity
  8
D-3
  6
Continuous
 62
     3
370
     9
100
AcDbLine
 10
235.8000677985117
 20
388.9286168610204
 30
0.0
 11
235.8000677985117
 21
396.9285937666368
 31
0.0
  0
LINE
  5
3DE
330
1F
100
AcDbEntity
  8
D-0
  6
Continuous
 62
     4
370
     9
100
AcDbLine
 10
313.4461274018161
 20
421.7727272983618
 30
0.0
 11
314.4035957955027
 21
437.0846746827579
 31
0.0
  0
LINE
  5
3DF
330
1F
100
AcDbEntity
  8
D-0
  6
Continuous
 62
     4
370
     9
100
AcDbLine
 10
230.6539999472131
 20
421.7727272983618
 30
0.0
 11
229.6965315535265
 21
437.0846746827579
 31
0.0
  0
LINE
  5
3E0
330
1F
100
AcDbEntity
  8
D-A
  6
Continuous
 62
     2
370
     9
100
AcDbLine
 10
293.1962709169132
 20
371.9414400174288
 30
0.0
 11
293.1962709169132
 21
377.9156270951314
 31
0.0
  0
LINE
  5
3E1
330
1F
100
AcDbEntity
  8
D-A
  6
Continuous
 62
     2
370
     9
100
AcDbLine
 10
294.9507429793077
 20
378.9285838690438
 30
0.0
 11
293.1962709169132
 21
377.9156270951314
 31
0.0
  0
LINE
  5
3E2
330
1F
100
AcDbEntity
  8
D-A
  6
Continuous
 62
     2
370
     9
100
AcDbLine
 10
296.2999086122257
 20
369.4279462991009
 30
0.0
 11
296.2999086122257
 21
368.2360286734673
 31
0.0
  0
LINE
  5
3E3
330
1F
100
AcDbEntity
  8
D-A
  6
Continuous
 62
     2
370
     9
100
AcDbLine
 10
295.6748756202495
 20
370.5104955231298
 30
0.0
 11
293.1962709169132
 21
371.9414400174288
 31
0.0
  0
LINE
  5
3E4
330
1F
100
AcDbEntity
  8
D-A
  6
Continuous
 62
     2
370
     9
100
AcDbLine
 10
310.9249011890311
 20
370.5104955231298
 30
0.0
 11
313.4035058923672
 21
371.9414400174288
 31
0.0
  0
LINE
  5
3E5
330
1F
100
AcDbEntity
  8
D-A
  6
Continuous
 62
     2
370
     9
100
AcDbLine
 10
310.2999300570104
 20
368.2360286734673
 30
0.0
 11
310.2999300570104
 21
369.4279462991009
 31
0.0
  0
LINE
  5
3E6
330
1F
100
AcDbEntity
  8
D-A
  6
Continuous
 62
     2
370
     9
100
AcDbLine
 10
313.4035058923672
 20
371.9414400174288
 30
0.0
 11
313.4035058923672
 21
377.9156270951314
 31
0.0
  0
LINE
  5
3E7
330
1F
100
AcDbEntity
  8
D-A
  6
Continuous
 62
     2
370
     9
100
AcDbLine
 10
298.2481260557435
 20
371.9414400174288
 30
0.0
 11
298.2481260557435
 21
377.9156270951314
 31
0.0
  0
LINE
  5
3E8
330
1F
100
AcDbEntity
  8
D-A
  6
Continuous
 62
     2
370
     9
100
AcDbLine
 10
308.3517126134927
 20
371.9414400174288
 30
0.0
 11
308.3517126134927
 21
377.9156270951314
 31
0.0
  0
LINE
  5
3E9
330
1F
100
AcDbEntity
  8
D-A
  6
Continuous
 62
     2
370
     9
100
AcDbLine
 10
311.6490956899285
 20
378.9285838690438
 30
0.0
 11
313.4035058923672
 21
377.9156270951314
 31
0.0
  0
LINE
  5
3EA
330
1F
100
AcDbEntity
  8
D-A
  6
Continuous
 62
     2
370
     9
100
AcDbLine
 10
294.9507429793077
 20
370.9285451034717
 30
0.0
 11
311.6490956899285
 21
370.9285451034717
 31
0.0
  0
LINE
  5
3EB
330
1F
100
AcDbEntity
  8
D-A
  6
JWW_CENTER1
 62
     2
370
     9
100
AcDbLine
 10
303.299919334618
 20
384.1366353959126
 30
0.0
 11
303.299919334618
 21
360.2549809142824
 31
0.0
  0
LINE
  5
3EC
330
1F
100
AcDbEntity
  8
D-A
  6
Continuous
 62
     2
370
     9
100
AcDbLine
 10
250.903856432116
 20
371.9414400174288
 30
0.0
 11
250.903856432116
 21
377.9156270951314
 31
0.0
  0
LINE
  5
3ED
330
1F
100
AcDbEntity
  8
D-A
  6
Continuous
 62
     2
370
     9
100
AcDbLine
 10
249.1493843697215
 20
378.9285838690438
 30
0.0
 11
250.903856432116
 21
377.9156270951314
 31
0.0
  0
LINE
  5
3EE
330
1F
100
AcDbEntity
  8
D-A
  6
Continuous
 62
     2
370
     9
100
AcDbLine
 10
247.8002187368035
 20
369.4279462991009
 30
0.0
 11
247.8002187368035
 21
368.2360286734673
 31
0.0
  0
LINE
  5
3EF
330
1F
100
AcDbEntity
  8
D-A
  6
Continuous
 62
     2
370
     9
100
AcDbLine
 10
248.4252517287798
 20
370.5104955231298
 30
0.0
 11
250.903856432116
 21
371.9414400174288
 31
0.0
  0
LINE
  5
3F0
330
1F
100
AcDbEntity
  8
D-A
  6
Continuous
 62
     2
370
     9
100
AcDbLine
 10
233.1752261599981
 20
370.5104955231298
 30
0.0
 11
230.696621456662
 21
371.9414400174288
 31
0.0
  0
LINE
  5
3F1
330
1F
100
AcDbEntity
  8
D-A
  6
Continuous
 62
     2
370
     9
100
AcDbLine
 10
233.8001972920188
 20
368.2360286734673
 30
0.0
 11
233.8001972920188
 21
369.4279462991009
 31
0.0
  0
LINE
  5
3F2
330
1F
100
AcDbEntity
  8
D-A
  6
Continuous
 62
     2
370
     9
100
AcDbLine
 10
230.696621456662
 20
371.9414400174288
 30
0.0
 11
230.696621456662
 21
377.9156270951314
 31
0.0
  0
LINE
  5
3F3
330
1F
100
AcDbEntity
  8
D-A
  6
Continuous
 62
     2
370
     9
100
AcDbLine
 10
245.8520012932857
 20
371.9414400174288
 30
0.0
 11
245.8520012932857
 21
377.9156270951314
 31
0.0
  0
LINE
  5
3F4
330
1F
100
AcDbEntity
  8
D-A
  6
Continuous
 62
     2
370
     9
100
AcDbLine
 10
235.7484147355365
 20
371.9414400174288
 30
0.0
 11
235.7484147355365
 21
377.9156270951314
 31
0.0
  0
LINE
  5
3F5
330
1F
100
AcDbEntity
  8
D-A
  6
Continuous
 62
     2
370
     9
100
AcDbLine
 10
249.1493843697215
 20
370.9285451034717
 30
0.0
 11
232.4510316591007
 21
370.9285451034717
 31
0.0
  0
LINE
  5
3F6
330
1F
100
AcDbEntity
  8
D-A
  6
JWW_CENTER1
 62
     2
370
     9
100
AcDbLine
 10
240.8002080144112
 20
384.3303807770361
 30
0.0
 11
240.8002080144112
 21
360.2549809142824
 31
0.0
  0
LINE
  5
3F7
330
1F
100
AcDbEntity
  8
D-A
  6
JWW_CENTER1
 62
     2
370
     9
100
AcDbLine
 10
303.299919334618
 20
410.9251510539045
 30
0.0
 11
303.299919334618
 21
388.9286168610204
 31
0.0
  0
LINE
  5
3F8
330
1F
100
AcDbEntity
  8
D-A
  6
Continuous
 62
     2
370
     9
100
AcDbLine
 10
249.1493843697215
 20
378.9285838690438
 30
0.0
 11
232.4510316591007
 21
378.9285838690438
 31
0.0
  0
LINE
  5
3F9
330
1F
100
AcDbEntity
  8
D-A
  6
Continuous
 62
     2
370
     9
100
AcDbLine
 10
232.4510316591007
 20
378.9285838690438
 30
0.0
 11
230.696621456662
 21
377.9156270951314
 31
0.0
  0
LINE
  5
3FA
330
1F
100
AcDbEntity
  8
D-0
  6
Continuous
 62
     4
370
     9
100
AcDbLine
 10
203.3003317343225
 20
439.4286102626248
 30
0.0
 11
340.7997956147067
 21
439.4286102626248
 31
0.0
  0
LINE
  5
3FB
330
1F
100
AcDbEntity
  8
D-0
  6
Continuous
 62
     4
370
     9
100
AcDbLine
 10
249.5109558105471
 20
419.7413082144829
 30
0.0
 11
249.5500513025235
 21
419.4286679985834
 31
0.0
  0
LINE
  5
3FC
330
1F
100
AcDbEntity
  8
D-A
  6
JWW_CENTER1
 62
     2
370
     9
100
AcDbLine
 10
240.8002080144112
 20
441.1510388679881
 30
0.0
 11
240.8002080144112
 21
420.4210254072618
 31
0.0
  0
LINE
  5
3FD
330
1F
100
AcDbEntity
  8
D-A
  6
JWW_CENTER1
 62
     2
370
     9
100
AcDbLine
 10
240.8002080144112
 20
410.9251510539045
 30
0.0
 11
240.8002080144112
 21
388.9286168610204
 31
0.0
  0
LINE
  5
3FE
330
1F
100
AcDbEntity
  8
D-0
  6
Continuous
 62
     4
370
     9
100
AcDbLine
 10
292.870887550148
 20
425.3588726478129
 30
0.0
 11
293.2996389028191
 21
421.9286762465777
 31
0.0
  0
LINE
  5
3FF
330
1F
100
AcDbEntity
  8
D-0
  6
Continuous
 62
     4
370
     9
100
AcDbLine
 10
258.6713636243668
 20
431.9285855186425
 30
0.0
 11
285.4287637246624
 21
431.9285855186425
 31
0.0
  0
LINE
  5
400
330
1F
100
AcDbEntity
  8
D-0
  6
Continuous
 62
     4
370
     9
100
AcDbLine
 10
251.2292397988811
 20
425.3588726478129
 30
0.0
 11
250.8004884462101
 21
421.9286762465777
 31
0.0
  0
ARC
  5
401
330
1F
100
AcDbEntity
  8
D-2
  6
Continuous
 62
     3
370
     9
100
AcDbCircle
 10
267.0503564783047
 20
321.9290886462819
 30
0.0
 40
2.500000273859179
100
AcDbArc
 50
180.0
 51
270.0
  0
ARC
  5
402
330
1F
100
AcDbEntity
  8
D-2
  6
Continuous
 62
     3
370
     9
100
AcDbCircle
 10
277.0505131901924
 20
321.9290886462819
 30
0.0
 40
2.500000273859179
100
AcDbArc
 50
270.0
 51
0.0
  0
ARC
  5
403
330
1F
100
AcDbEntity
  8
D-0
  6
Continuous
 62
     4
370
     9
100
AcDbCircle
 10
339.5498533506654
 20
441.9286185106188
 30
0.0
 40
1.250000016109364
100
AcDbArc
 50
0.0
 51
84.00610351562501
  0
ARC
  5
404
330
1F
100
AcDbEntity
  8
D-0
  6
Continuous
 62
     4
370
     9
100
AcDbCircle
 10
204.5503358583195
 20
441.9286185106188
 30
0.0
 40
1.250000016109364
100
AcDbArc
 50
95.993896484375
 51
180.0
  0
ARC
  5
405
330
1F
100
AcDbEntity
  8
D-A
  6
Continuous
 62
     2
370
     9
100
AcDbCircle
 10
307.6749028386299
 20
420.209959238554
 30
0.0
 40
8.281277321480417
100
AcDbArc
 50
238.1089477539062
 51
301.8907012939453
  0
ARC
  5
406
330
1F
100
AcDbEntity
  8
D-A
  6
Continuous
 62
     2
370
     9
100
AcDbCircle
 10
298.9249358306063
 20
420.209959238554
 30
0.0
 40
8.281277321480417
100
AcDbArc
 50
238.1092987060547
 51
301.8910522460938
  0
ARC
  5
407
330
1F
100
AcDbEntity
  8
D-A
  6
Continuous
 62
     2
370
     9
100
AcDbCircle
 10
236.4251626504436
 20
420.209959238554
 30
0.0
 40
8.281277321480417
100
AcDbArc
 50
238.1092987060547
 51
301.8910522460938
  0
ARC
  5
408
330
1F
100
AcDbEntity
  8
D-A
  6
Continuous
 62
     2
370
     9
100
AcDbCircle
 10
245.1752533783786
 20
420.209959238554
 30
0.0
 40
8.281277321480417
100
AcDbArc
 50
238.1089477539062
 51
301.8907012939453
  0
ARC
  5
409
330
1F
100
AcDbEntity
  8
D-A
  6
Continuous
 62
     2
370
     9
100
AcDbCircle
 10
307.6749028386299
 20
387.2098998529964
 30
0.0
 40
8.281277321480417
100
AcDbArc
 50
238.1089477539062
 51
301.8907012939453
  0
ARC
  5
40A
330
1F
100
AcDbEntity
  8
D-A
  6
Continuous
 62
     2
370
     9
100
AcDbCircle
 10
298.9249358306063
 20
387.2098998529964
 30
0.0
 40
8.281277321480417
100
AcDbArc
 50
238.1092987060547
 51
301.8910522460938
  0
ARC
  5
40B
330
1F
100
AcDbEntity
  8
D-A
  6
Continuous
 62
     2
370
     9
100
AcDbCircle
 10
245.1751915184229
 20
387.2098998529964
 30
0.0
 40
8.281277321480417
100
AcDbArc
 50
238.1089477539062
 51
301.8907012939453
  0
ARC
  5
40C
330
1F
100
AcDbEntity
  8
D-A
  6
Continuous
 62
     2
370
     9
100
AcDbCircle
 10
236.4252245103993
 20
387.2098998529964
 30
0.0
 40
8.281277321480417
100
AcDbArc
 50
238.1092987060547
 51
301.8910522460938
  0
ARC
  5
40D
330
1F
100
AcDbEntity
  8
D-0
  6
Continuous
 62
     4
370
     9
100
AcDbCircle
 10
316.8987171069998
 20
436.9286638745866
 30
0.0
 40
2.500000032218727
100
AcDbArc
 50
90.0
 51
176.4221649169922
  0
ARC
  5
40E
330
1F
100
AcDbEntity
  8
D-0
  6
Continuous
 62
     4
370
     9
100
AcDbCircle
 10
310.9510060903191
 20
421.9287381065332
 30
0.0
 40
2.500000032218727
100
AcDbArc
 50
270.0
 51
356.4221649169922
  0
ARC
  5
40F
330
1F
100
AcDbEntity
  8
D-0
  6
Continuous
 62
     4
370
     9
100
AcDbCircle
 10
227.2014102420294
 20
436.9286638745866
 30
0.0
 40
2.500000032218727
100
AcDbArc
 50
3.577835083007803
 51
89.99999999999999
  0
ARC
  5
410
330
1F
100
AcDbEntity
  8
D-0
  6
Continuous
 62
     4
370
     9
100
AcDbCircle
 10
233.1491212587101
 20
421.9287381065332
 30
0.0
 40
2.500000032218727
100
AcDbArc
 50
183.5778350830078
 51
270.0
  0
ARC
  5
411
330
1F
100
AcDbEntity
  8
D-A
  6
Continuous
 62
     2
370
     9
100
AcDbCircle
 10
303.299919334618
 20
384.0326488104501
 30
0.0
 40
13.10409210823678
100
AcDbArc
 50
247.3243103027343
 51
292.6756896972656
  0
ARC
  5
412
330
1F
100
AcDbEntity
  8
D-A
  6
Continuous
 62
     2
370
     9
100
AcDbCircle
 10
294.9507429793077
 20
376.8017767335392
 30
0.0
 40
5.873256277393651
100
AcDbArc
 50
270.0
 51
304.1535186767578
  0
ARC
  5
413
330
1F
100
AcDbEntity
  8
D-A
  6
Continuous
 62
     2
370
     9
100
AcDbCircle
 10
303.299919334618
 20
365.8244801620655
 30
0.0
 40
13.10409210823678
100
AcDbArc
 50
67.32431030273439
 51
112.6756896972656
  0
ARC
  5
414
330
1F
100
AcDbEntity
  8
D-A
  6
Continuous
 62
     2
370
     9
100
AcDbCircle
 10
294.9507429793077
 20
373.0553522389761
 30
0.0
 40
5.873256277393651
100
AcDbArc
 50
55.84648132324221
 51
90.00000000000003
  0
ARC
  5
415
330
1F
100
AcDbEntity
  8
D-A
  6
Continuous
 62
     2
370
     9
100
AcDbCircle
 10
303.299919334618
 20
370.9285451034717
 30
0.0
 40
7.500000096656181
100
AcDbArc
 50
201.0391845703125
 51
338.9608154296874
  0
ARC
  5
416
330
1F
100
AcDbEntity
  8
D-A
  6
Continuous
 62
     2
370
     9
100
AcDbCircle
 10
295.0499044882287
 20
369.4279462991009
 30
0.0
 40
1.250000016109364
100
AcDbArc
 50
0.0
 51
59.99960327148438
  0
ARC
  5
417
330
1F
100
AcDbEntity
  8
D-A
  6
Continuous
 62
     2
370
     9
100
AcDbCircle
 10
311.6490956899285
 20
376.8017767335392
 30
0.0
 40
5.873256277393651
100
AcDbArc
 50
235.8464813232422
 51
270.0
  0
ARC
  5
418
330
1F
100
AcDbEntity
  8
D-A
  6
Continuous
 62
     2
370
     9
100
AcDbCircle
 10
311.6490956899285
 20
373.0553522389761
 30
0.0
 40
5.873256277393651
100
AcDbArc
 50
90.0
 51
124.1535186767578
  0
ARC
  5
419
330
1F
100
AcDbEntity
  8
D-A
  6
Continuous
 62
     2
370
     9
100
AcDbCircle
 10
311.5498723210518
 20
369.4279462991009
 30
0.0
 40
1.250000016109364
100
AcDbArc
 50
120.0003967285157
 51
180.0000000000001
  0
ARC
  5
41A
330
1F
100
AcDbEntity
  8
D-A
  6
Continuous
 62
     2
370
     9
100
AcDbCircle
 10
240.8002080144112
 20
384.0326488104501
 30
0.0
 40
13.10409210823678
100
AcDbArc
 50
247.3243103027343
 51
292.6756896972656
  0
ARC
  5
41B
330
1F
100
AcDbEntity
  8
D-A
  6
Continuous
 62
     2
370
     9
100
AcDbCircle
 10
249.1493843697215
 20
376.8017767335392
 30
0.0
 40
5.873256277393651
100
AcDbArc
 50
235.8464813232422
 51
270.0
  0
ARC
  5
41C
330
1F
100
AcDbEntity
  8
D-A
  6
Continuous
 62
     2
370
     9
100
AcDbCircle
 10
240.8002080144112
 20
365.8244801620655
 30
0.0
 40
13.10409210823678
100
AcDbArc
 50
67.32431030273439
 51
112.6756896972656
  0
ARC
  5
41D
330
1F
100
AcDbEntity
  8
D-A
  6
Continuous
 62
     2
370
     9
100
AcDbCircle
 10
240.8002080144112
 20
370.9285451034717
 30
0.0
 40
7.500000096656181
100
AcDbArc
 50
201.0391845703125
 51
338.9608154296874
  0
ARC
  5
41E
330
1F
100
AcDbEntity
  8
D-A
  6
Continuous
 62
     2
370
     9
100
AcDbCircle
 10
249.0502228608005
 20
369.4279462991009
 30
0.0
 40
1.250000016109364
100
AcDbArc
 50
120.0003967285157
 51
180.0000000000001
  0
ARC
  5
41F
330
1F
100
AcDbEntity
  8
D-A
  6
Continuous
 62
     2
370
     9
100
AcDbCircle
 10
232.4510316591007
 20
376.8017767335392
 30
0.0
 40
5.873256277393651
100
AcDbArc
 50
270.0
 51
304.1535186767578
  0
ARC
  5
420
330
1F
100
AcDbEntity
  8
D-A
  6
Continuous
 62
     2
370
     9
100
AcDbCircle
 10
232.4510316591007
 20
373.0553522389761
 30
0.0
 40
5.873256277393651
100
AcDbArc
 50
55.84648132324221
 51
90.00000000000003
  0
ARC
  5
421
330
1F
100
AcDbEntity
  8
D-A
  6
Continuous
 62
     2
370
     9
100
AcDbCircle
 10
232.5502550279774
 20
369.4279462991009
 30
0.0
 40
1.250000016109364
100
AcDbArc
 50
0.0
 51
59.99960327148438
  0
ARC
  5
422
330
1F
100
AcDbEntity
  8
D-A
  6
Continuous
 62
     2
370
     9
100
AcDbCircle
 10
249.1493843697215
 20
373.0553522389761
 30
0.0
 40
5.873256277393651
100
AcDbArc
 50
90.0
 51
124.1535186767578
  0
ARC
  5
423
330
1F
100
AcDbEntity
  8
D-0
  6
Continuous
 62
     4
370
     9
100
AcDbCircle
 10
295.7996471508131
 20
421.9286762465777
 30
0.0
 40
2.500000032218727
100
AcDbArc
 50
180.0
 51
270.0
  0
ARC
  5
424
330
1F
100
AcDbEntity
  8
D-0
  6
Continuous
 62
     4
370
     9
100
AcDbCircle
 10
248.300480198216
 20
421.9286762465777
 30
0.0
 40
2.500000032218727
100
AcDbArc
 50
270.0
 51
0.0
  0
ARC
  5
425
330
1F
100
AcDbEntity
  8
D-0
  6
Continuous
 62
     4
370
     9
100
AcDbCircle
 10
285.4287637246624
 20
424.4285607746602
 30
0.0
 40
7.500000096656181
100
AcDbArc
 50
7.125366210937503
 51
90.00000000000001
  0
ARC
  5
426
330
1F
100
AcDbEntity
  8
D-0
  6
Continuous
 62
     4
370
     9
100
AcDbCircle
 10
258.6713636243668
 20
424.4285607746602
 30
0.0
 40
7.500000096656181
100
AcDbArc
 50
90.0
 51
172.8746337890625
  0
LINE
  5
427
330
1F
100
AcDbEntity
  8
D-3
  6
Continuous
 62
     3
370
     9
100
AcDbLine
 10
264.5499152106211
 20
388.9286168610204
 30
0.0
 11
141.2177494007798
 21
388.9286168610204
 31
0.0
  0
LINE
  5
428
330
1F
100
AcDbEntity
  8
D-3
  6
Continuous
 62
     3
370
     9
100
AcDbLine
 10
264.5499152106211
 20
396.9285937666368
 30
0.0
 11
141.2177494007798
 21
396.9285937666368
 31
0.0
  0
LINE
  5
429
330
1F
100
AcDbEntity
  8
D-B
  6
Continuous
 62
     7
370
     9
100
AcDbLine
 10
223.3000265585412
 20
396.9285937666368
 30
0.0
 11
223.3000265585412
 21
439.4286102626248
 31
0.0
  0
LINE
  5
42A
330
1F
100
AcDbEntity
  8
D-B
  6
Continuous
 62
     7
370
     9
100
AcDbLine
 10
203.3003317343225
 20
439.4286102626248
 30
0.0
 11
141.2177494007798
 21
439.4286102626248
 31
0.0
  0
LINE
  5
42B
330
1F
100
AcDbEntity
  8
D-B
  6
Continuous
 62
     7
370
     9
100
AcDbLine
 10
223.3000265585412
 20
409.4286350066071
 30
0.0
 11
141.2177494007798
 21
409.4286350066071
 31
0.0
  0
LINE
  5
42C
330
1F
100
AcDbEntity
  8
D-B
  6
Continuous
 62
     7
370
     9
100
AcDbLine
 10
223.3000265585412
 20
416.9286597505894
 30
0.0
 11
141.2177494007798
 21
416.9286597505894
 31
0.0
  0
LINE
  5
42D
330
1F
100
AcDbEntity
  8
D-B
  6
Continuous
 62
     7
370
     9
100
AcDbLine
 10
223.3000265585412
 20
424.428622634616
 30
0.0
 11
141.2177494007798
 21
424.428622634616
 31
0.0
  0
LINE
  5
42E
330
1F
100
AcDbEntity
  8
D-B
  6
Continuous
 62
     7
370
     9
100
AcDbLine
 10
223.3000265585412
 20
431.9286473785983
 30
0.0
 11
141.2177494007798
 21
431.9286473785983
 31
0.0
  0
LINE
  5
42F
330
1F
100
AcDbEntity
  8
D-B
  6
Continuous
 62
     7
370
     9
100
AcDbLine
 10
141.2177494007798
 20
401.9286102626248
 30
0.0
 11
264.5499152106211
 21
401.9286102626248
 31
0.0
  0
LINE
  5
430
330
1F
100
AcDbEntity
  8
D-B
  6
Continuous
 62
     7
370
     9
100
AcDbLine
 10
212.4609899228298
 20
396.9284700467256
 30
0.0
 11
207.4612208666641
 21
401.9286102626251
 31
0.0
  0
LINE
  5
431
330
1F
100
AcDbEntity
  8
D-B
  6
Continuous
 62
     7
370
     9
100
AcDbLine
 10
217.7646150811912
 20
396.9284700467256
 30
0.0
 11
212.7643511453803
 21
401.9286102626251
 31
0.0
  0
LINE
  5
432
330
1F
100
AcDbEntity
  8
D-B
  6
Continuous
 62
     7
370
     9
100
AcDbLine
 10
223.0677453599073
 20
396.9284700467256
 30
0.0
 11
218.0677288639193
 21
401.9286102626251
 31
0.0
  0
LINE
  5
433
330
1F
100
AcDbEntity
  8
D-B
  6
Continuous
 62
     7
370
     9
100
AcDbLine
 10
201.8544819255745
 20
396.9284700467256
 30
0.0
 11
196.8547128694089
 21
401.9286102626251
 31
0.0
  0
LINE
  5
434
330
1F
100
AcDbEntity
  8
D-B
  6
Continuous
 62
     7
370
     9
100
AcDbLine
 10
207.158107083936
 20
396.9284700467256
 30
0.0
 11
202.157843148125
 21
401.9286102626251
 31
0.0
  0
LINE
  5
435
330
1F
100
AcDbEntity
  8
D-B
  6
Continuous
 62
     7
370
     9
100
AcDbLine
 10
191.2479739283196
 20
396.9284700467256
 30
0.0
 11
186.248204872154
 21
401.9286102626251
 31
0.0
  0
LINE
  5
436
330
1F
100
AcDbEntity
  8
D-B
  6
Continuous
 62
     7
370
     9
100
AcDbLine
 10
196.5515990866811
 20
396.9284700467256
 30
0.0
 11
191.5513351508701
 21
401.9286102626251
 31
0.0
  0
LINE
  5
437
330
1F
100
AcDbEntity
  8
D-B
  6
Continuous
 62
     7
370
     9
100
AcDbLine
 10
180.6414659310644
 20
396.9284700467256
 30
0.0
 11
175.6416968748987
 21
401.9286102626251
 31
0.0
  0
LINE
  5
438
330
1F
100
AcDbEntity
  8
D-B
  6
Continuous
 62
     7
370
     9
100
AcDbLine
 10
185.9450910894258
 20
396.9284700467256
 30
0.0
 11
180.9448271536149
 21
401.9286102626251
 31
0.0
  0
LINE
  5
439
330
1F
100
AcDbEntity
  8
D-B
  6
Continuous
 62
     7
370
     9
100
AcDbLine
 10
170.0349579338094
 20
396.9284700467256
 30
0.0
 11
165.0351888776438
 21
401.9286102626251
 31
0.0
  0
LINE
  5
43A
330
1F
100
AcDbEntity
  8
D-B
  6
Continuous
 62
     7
370
     9
100
AcDbLine
 10
175.3385830921709
 20
396.9284700467256
 30
0.0
 11
170.3383191563599
 21
401.9286102626251
 31
0.0
  0
LINE
  5
43B
330
1F
100
AcDbEntity
  8
D-B
  6
Continuous
 62
     7
370
     9
100
AcDbLine
 10
159.4284499365542
 20
396.9284700467256
 30
0.0
 11
154.4286808803886
 21
401.9286102626251
 31
0.0
  0
LINE
  5
43C
330
1F
100
AcDbEntity
  8
D-B
  6
Continuous
 62
     7
370
     9
100
AcDbLine
 10
164.7320750949157
 20
396.9284700467256
 30
0.0
 11
159.7318111591047
 21
401.9286102626251
 31
0.0
  0
LINE
  5
43D
330
1F
100
AcDbEntity
  8
D-B
  6
Continuous
 62
     7
370
     9
100
AcDbLine
 10
148.8219419392993
 20
396.9284700467256
 30
0.0
 11
143.8221728831336
 21
401.9286102626251
 31
0.0
  0
LINE
  5
43E
330
1F
100
AcDbEntity
  8
D-B
  6
Continuous
 62
     7
370
     9
100
AcDbLine
 10
154.1255670976607
 20
396.9284700467256
 30
0.0
 11
149.1253031618498
 21
401.9286102626251
 31
0.0
  0
LINE
  5
43F
330
1F
100
AcDbEntity
  8
D-B
  6
Continuous
 62
     7
370
     9
100
AcDbLine
 10
143.5190591004055
 20
396.9284700467256
 30
0.0
 11
141.2177494007798
 21
399.2297228057906
 31
0.0
  0
LINE
  5
440
330
1F
100
AcDbEntity
  8
D-B
  6
Continuous
 62
     7
370
     9
100
AcDbLine
 10
279.5502121384081
 20
401.9287339825365
 30
0.0
 11
377.6869490339951
 21
401.9287339825365
 31
0.0
  0
LINE
  5
441
330
1F
100
AcDbEntity
  8
0-0
  6
Continuous
 62
     4
370
     9
100
AcDbLine
 10
-563.1521854474277
 20
-30.68415255159934
 30
0.0
 11
-563.1521854474277
 21
77.31580785802907
 31
0.0
  0
LINE
  5
442
330
1F
100
AcDbEntity
  8
0-0
  6
Continuous
 62
     4
370
     9
100
AcDbLine
 10
-510.1520848218997
 20
-32.68415914999451
 30
0.0
 11
-561.1521293610679
 21
-32.68415914999451
 31
0.0
  0
LINE
  5
443
330
1F
100
AcDbEntity
  8
0-0
  6
Continuous
 62
     4
370
     9
100
AcDbLine
 10
-508.1520287355399
 20
77.31580785802907
 30
0.0
 11
-508.15202873554
 21
-30.68415255159934
 31
0.0
  0
LINE
  5
444
330
1F
100
AcDbEntity
  8
0-0
  6
Continuous
 62
     4
370
     9
100
AcDbLine
 10
-510.1520848218997
 20
79.31586394438892
 30
0.0
 11
-561.1521293610679
 21
79.31586394438892
 31
0.0
  0
LINE
  5
445
330
1F
100
AcDbEntity
  8
0-0
  6
Continuous
 62
     4
370
     9
100
AcDbLine
 10
-562.5663964113212
 20
-32.09777625831379
 30
0.0
 11
-552.5663139313804
 21
-22.09774326633749
 31
0.0
  0
LINE
  5
446
330
1F
100
AcDbEntity
  8
0-0
  6
Continuous
 62
     4
370
     9
100
AcDbLine
 10
-508.7375208438592
 20
78.73002542031796
 30
0.0
 11
-518.7375785798178
 21
68.72999242834157
 31
0.0
  0
LINE
  5
447
330
1F
100
AcDbEntity
  8
0-0
  6
Continuous
 62
     4
370
     9
100
AcDbLine
 10
-508.7375208438593
 20
-32.09777625831379
 30
0.0
 11
-518.7375785798179
 21
-22.09774326633749
 31
0.0
  0
LINE
  5
448
330
1F
100
AcDbEntity
  8
0-0
  6
Continuous
 62
     4
370
     9
100
AcDbLine
 10
-520.1517466541421
 20
69.31583095241254
 30
0.0
 11
-551.1517994413043
 21
69.31583095241254
 31
0.0
  0
LINE
  5
449
330
1F
100
AcDbEntity
  8
0-0
  6
Continuous
 62
     4
370
     9
100
AcDbLine
 10
-518.1517647997292
 20
-20.68413193161405
 30
0.0
 11
-518.1517647997291
 21
67.31567589012369
 31
0.0
  0
LINE
  5
44A
330
1F
100
AcDbEntity
  8
0-0
  6
Continuous
 62
     4
370
     9
100
AcDbLine
 10
-553.1519545035932
 20
-20.68413193161405
 30
0.0
 11
-553.1519545035932
 21
67.31567589012369
 31
0.0
  0
LINE
  5
44B
330
1F
100
AcDbEntity
  8
0-0
  6
Continuous
 62
     4
370
     9
100
AcDbLine
 10
-551.1517994413043
 20
-22.6842127619561
 30
0.0
 11
-520.1517466541422
 21
-22.6842127619561
 31
0.0
  0
LINE
  5
44C
330
1F
100
AcDbEntity
  8
0-2
  6
Continuous
 62
     3
370
     9
100
AcDbLine
 10
-531.3520854817393
 20
-9.334178615260669
 30
0.0
 11
-539.9519307493701
 21
-9.334178615260669
 31
0.0
  0
LINE
  5
44D
330
1F
100
AcDbEntity
  8
0-2
  6
Continuous
 62
     3
370
     9
100
AcDbLine
 10
-529.6520996682891
 20
-7.634180429819253
 30
0.0
 11
-529.6520996682891
 21
54.26583573624914
 31
0.0
  0
LINE
  5
44E
330
1F
100
AcDbEntity
  8
0-0
  6
Continuous
 62
     4
370
     9
100
AcDbLine
 10
-531.1521046170856
 20
-9.834180264859498
 30
0.0
 11
-540.1520848218997
 21
-9.834180264859498
 31
0.0
  0
LINE
  5
44F
330
1F
100
AcDbEntity
  8
0-0
  6
Continuous
 62
     4
370
     9
100
AcDbLine
 10
-542.152091420295
 20
54.46584134488507
 30
0.0
 11
-542.152091420295
 21
-7.834186038455329
 31
0.0
  0
LINE
  5
450
330
1F
100
AcDbEntity
  8
0-0
  6
Continuous
 62
     4
370
     9
100
AcDbLine
 10
-531.1521046170856
 20
56.46583557128924
 30
0.0
 11
-540.1520848218997
 21
56.46583557128924
 31
0.0
  0
LINE
  5
451
330
1F
100
AcDbEntity
  8
0-0
  6
Continuous
 62
     4
370
     9
100
AcDbLine
 10
-529.1520980186903
 20
54.46584134488507
 30
0.0
 11
-529.1520980186904
 21
-7.834186038455329
 31
0.0
  0
LINE
  5
452
330
1F
100
AcDbEntity
  8
0-2
  6
Continuous
 62
     3
370
     9
100
AcDbLine
 10
-541.6520897706962
 20
54.26569964434666
 30
0.0
 11
-541.6520897706962
 21
-7.633821642076555
 31
0.0
  0
LINE
  5
453
330
1F
100
AcDbEntity
  8
0-2
  6
Continuous
 62
     3
370
     9
100
AcDbLine
 10
-539.9520792132638
 20
55.96569782978801
 30
0.0
 11
-531.328677674518
 21
55.96569782978801
 31
0.0
  0
LINE
  5
454
330
1F
100
AcDbEntity
  8
0-0
  6
Continuous
 62
     4
370
     9
100
AcDbLine
 10
-562.5663964113212
 20
78.73002542031796
 30
0.0
 11
-552.5663139313804
 21
68.72999242834157
 31
0.0
  0
ARC
  5
455
330
1F
100
AcDbEntity
  8
0-0
  6
Continuous
 62
     4
370
     9
100
AcDbCircle
 10
-551.1517994413043
 20
67.31567589012369
 30
0.0
 40
1.99999983246262
100
AcDbArc
 50
90.0
 51
180.0
  0
ARC
  5
456
330
1F
100
AcDbEntity
  8
0-0
  6
Continuous
 62
     4
370
     9
100
AcDbCircle
 10
-520.1517466541421
 20
67.31567589012369
 30
0.0
 40
1.99999983246262
100
AcDbArc
 50
0.0
 51
90.0
  0
ARC
  5
457
330
1F
100
AcDbEntity
  8
0-0
  6
Continuous
 62
     4
370
     9
100
AcDbCircle
 10
-520.1517466541422
 20
-20.68413193161405
 30
0.0
 40
1.99999983246262
100
AcDbArc
 50
270.0
 51
0.0
  0
ARC
  5
458
330
1F
100
AcDbEntity
  8
0-0
  6
Continuous
 62
     4
370
     9
100
AcDbCircle
 10
-551.1517994413043
 20
-20.68413193161405
 30
0.0
 40
1.99999983246262
100
AcDbArc
 50
180.0
 51
270.0
  0
ARC
  5
459
330
1F
100
AcDbEntity
  8
0-0
  6
Continuous
 62
     4
370
     9
100
AcDbCircle
 10
-561.1521293610679
 20
77.31580785802907
 30
0.0
 40
2.000000025774982
100
AcDbArc
 50
90.0
 51
180.0
  0
ARC
  5
45A
330
1F
100
AcDbEntity
  8
0-0
  6
Continuous
 62
     4
370
     9
100
AcDbCircle
 10
-561.1521293610679
 20
-30.68420203956379
 30
0.0
 40
2.000000025774982
100
AcDbArc
 50
180.0
 51
270.0
  0
ARC
  5
45B
330
1F
100
AcDbEntity
  8
0-0
  6
Continuous
 62
     4
370
     9
100
AcDbCircle
 10
-510.152109565882
 20
-30.68420203956379
 30
0.0
 40
2.000000025774982
100
AcDbArc
 50
270.0
 51
0.0
  0
ARC
  5
45C
330
1F
100
AcDbEntity
  8
0-0
  6
Continuous
 62
     4
370
     9
100
AcDbCircle
 10
-510.152109565882
 20
77.31580785802907
 30
0.0
 40
2.000000025774982
100
AcDbArc
 50
0.0
 51
90.0
  0
ARC
  5
45D
330
1F
100
AcDbEntity
  8
0-2
  6
Continuous
 62
     3
370
     9
100
AcDbCircle
 10
-539.9519307493701
 20
-7.633821642076555
 30
0.0
 40
1.700000891814361
100
AcDbArc
 50
180.0
 51
270.0
  0
ARC
  5
45E
330
1F
100
AcDbEntity
  8
0-2
  6
Continuous
 62
     3
370
     9
100
AcDbCircle
 10
-531.3522586896152
 20
54.26583573624914
 30
0.0
 40
1.700000891814361
100
AcDbArc
 50
0.0
 51
89.20521545410156
  0
ARC
  5
45F
330
1F
100
AcDbEntity
  8
0-2
  6
Continuous
 62
     3
370
     9
100
AcDbCircle
 10
-531.3520854817393
 20
-7.634180429819253
 30
0.0
 40
1.700000118564915
100
AcDbArc
 50
270.0
 51
0.0
  0
ARC
  5
460
330
1F
100
AcDbEntity
  8
0-0
  6
Continuous
 62
     4
370
     9
100
AcDbCircle
 10
-535.6520947194927
 20
23.31582765321485
 30
0.0
 40
12.50000025774982
100
AcDbArc
 50
301.3322448730469
 51
58.66775512695313
  0
ARC
  5
461
330
1F
100
AcDbEntity
  8
0-0
  6
Continuous
 62
     4
370
     9
100
AcDbCircle
 10
-535.6520947194927
 20
23.31582765321485
 30
0.0
 40
12.50000025774982
100
AcDbArc
 50
121.3322448730469
 51
238.6677551269532
  0
ARC
  5
462
330
1F
100
AcDbEntity
  8
0-0
  6
Continuous
 62
     4
370
     9
100
AcDbCircle
 10
-540.1520848218997
 20
-7.834186038455329
 30
0.0
 40
2.000000025774982
100
AcDbArc
 50
180.0
 51
270.0
  0
ARC
  5
463
330
1F
100
AcDbEntity
  8
0-0
  6
Continuous
 62
     4
370
     9
100
AcDbCircle
 10
-531.1521046170856
 20
-7.834186038455329
 30
0.0
 40
2.000000025774982
100
AcDbArc
 50
270.0
 51
0.0
  0
ARC
  5
464
330
1F
100
AcDbEntity
  8
0-0
  6
Continuous
 62
     4
370
     9
100
AcDbCircle
 10
-540.1520848218997
 20
54.46584134488507
 30
0.0
 40
2.000000025774982
100
AcDbArc
 50
90.0
 51
180.0
  0
ARC
  5
465
330
1F
100
AcDbEntity
  8
0-0
  6
Continuous
 62
     4
370
     9
100
AcDbCircle
 10
-531.1521046170856
 20
54.46584134488507
 30
0.0
 40
2.000000025774982
100
AcDbArc
 50
0.0
 51
90.0
  0
ARC
  5
466
330
1F
100
AcDbEntity
  8
0-2
  6
Continuous
 62
     3
370
     9
100
AcDbCircle
 10
-539.9520792132638
 20
54.26569964434666
 30
0.0
 40
1.700000118564915
100
AcDbArc
 50
90.0
 51
180.0
  0
LINE
  5
467
330
1F
100
AcDbEntity
  8
0-0
  6
Continuous
 62
     4
370
     9
100
AcDbLine
 10
-303.152130598267
 20
-30.68415255159934
 30
0.0
 11
-303.152130598267
 21
77.31580785802907
 31
0.0
  0
LINE
  5
468
330
1F
100
AcDbEntity
  8
0-0
  6
Continuous
 62
     4
370
     9
100
AcDbLine
 10
-250.1520299727391
 20
-32.68415914999451
 30
0.0
 11
-301.1520745119072
 21
-32.68415914999451
 31
0.0
  0
LINE
  5
469
330
1F
100
AcDbEntity
  8
0-0
  6
Continuous
 62
     4
370
     9
100
AcDbLine
 10
-248.1519738863793
 20
77.31580785802907
 30
0.0
 11
-248.1519738863793
 21
-30.68415255159934
 31
0.0
  0
LINE
  5
46A
330
1F
100
AcDbEntity
  8
0-0
  6
Continuous
 62
     4
370
     9
100
AcDbLine
 10
-250.1520299727391
 20
79.31586394438892
 30
0.0
 11
-301.1520745119072
 21
79.31586394438892
 31
0.0
  0
LINE
  5
46B
330
1F
100
AcDbEntity
  8
0-0
  6
Continuous
 62
     4
370
     9
100
AcDbLine
 10
-302.5663415621606
 20
-32.09777625831379
 30
0.0
 11
-292.5662590822197
 21
-22.09774326633749
 31
0.0
  0
LINE
  5
46C
330
1F
100
AcDbEntity
  8
0-0
  6
Continuous
 62
     4
370
     9
100
AcDbLine
 10
-248.7374659946986
 20
78.73002542031796
 30
0.0
 11
-258.7375237306572
 21
68.72999242834157
 31
0.0
  0
LINE
  5
46D
330
1F
100
AcDbEntity
  8
0-0
  6
Continuous
 62
     4
370
     9
100
AcDbLine
 10
-248.7374659946986
 20
-32.09777625831379
 30
0.0
 11
-258.7375237306572
 21
-22.09774326633749
 31
0.0
  0
LINE
  5
46E
330
1F
100
AcDbEntity
  8
0-0
  6
Continuous
 62
     4
370
     9
100
AcDbLine
 10
-260.1516918049815
 20
69.31583095241254
 30
0.0
 11
-291.1517445921436
 21
69.31583095241254
 31
0.0
  0
LINE
  5
46F
330
1F
100
AcDbEntity
  8
0-0
  6
Continuous
 62
     4
370
     9
100
AcDbLine
 10
-258.1517099505685
 20
-20.68413193161405
 30
0.0
 11
-258.1517099505685
 21
67.31567589012369
 31
0.0
  0
LINE
  5
470
330
1F
100
AcDbEntity
  8
0-0
  6
Continuous
 62
     4
370
     9
100
AcDbLine
 10
-293.1518996544326
 20
-20.68413193161405
 30
0.0
 11
-293.1518996544326
 21
67.31567589012369
 31
0.0
  0
LINE
  5
471
330
1F
100
AcDbEntity
  8
0-0
  6
Continuous
 62
     4
370
     9
100
AcDbLine
 10
-291.1517445921436
 20
-22.6842127619561
 30
0.0
 11
-260.1516918049815
 21
-22.6842127619561
 31
0.0
  0
LINE
  5
472
330
1F
100
AcDbEntity
  8
0-2
  6
Continuous
 62
     3
370
     9
100
AcDbLine
 10
-271.3520306325786
 20
-9.334178615260669
 30
0.0
 11
-279.9518759002095
 21
-9.334178615260669
 31
0.0
  0
LINE
  5
473
330
1F
100
AcDbEntity
  8
0-2
  6
Continuous
 62
     3
370
     9
100
AcDbLine
 10
-269.6520448191284
 20
-7.634180429819253
 30
0.0
 11
-269.6520448191284
 21
54.26583573624914
 31
0.0
  0
LINE
  5
474
330
1F
100
AcDbEntity
  8
0-0
  6
Continuous
 62
     4
370
     9
100
AcDbLine
 10
-271.1520497679249
 20
-9.834180264859498
 30
0.0
 11
-280.1520299727391
 21
-9.834180264859498
 31
0.0
  0
LINE
  5
475
330
1F
100
AcDbEntity
  8
0-0
  6
Continuous
 62
     4
370
     9
100
AcDbLine
 10
-282.1520365711344
 20
54.46584134488507
 30
0.0
 11
-282.1520365711344
 21
-7.834186038455329
 31
0.0
  0
LINE
  5
476
330
1F
100
AcDbEntity
  8
0-0
  6
Continuous
 62
     4
370
     9
100
AcDbLine
 10
-271.1520497679249
 20
56.46583557128924
 30
0.0
 11
-280.1520299727391
 21
56.46583557128924
 31
0.0
  0
LINE
  5
477
330
1F
100
AcDbEntity
  8
0-0
  6
Continuous
 62
     4
370
     9
100
AcDbLine
 10
-269.1520431695296
 20
54.46584134488507
 30
0.0
 11
-269.1520431695296
 21
-7.834186038455329
 31
0.0
  0
LINE
  5
478
330
1F
100
AcDbEntity
  8
0-2
  6
Continuous
 62
     3
370
     9
100
AcDbLine
 10
-281.6520349215356
 20
54.26569964434666
 30
0.0
 11
-281.6520349215356
 21
-7.633821642076555
 31
0.0
  0
LINE
  5
479
330
1F
100
AcDbEntity
  8
0-2
  6
Continuous
 62
     3
370
     9
100
AcDbLine
 10
-279.9520243641031
 20
55.96569782978801
 30
0.0
 11
-271.3286228253573
 21
55.96569782978801
 31
0.0
  0
LINE
  5
47A
330
1F
100
AcDbEntity
  8
0-0
  6
Continuous
 62
     4
370
     9
100
AcDbLine
 10
-302.5663415621606
 20
78.73002542031796
 30
0.0
 11
-292.5662590822197
 21
68.72999242834157
 31
0.0
  0
ARC
  5
47B
330
1F
100
AcDbEntity
  8
0-0
  6
Continuous
 62
     4
370
     9
100
AcDbCircle
 10
-291.1517445921436
 20
67.31567589012369
 30
0.0
 40
1.99999983246262
100
AcDbArc
 50
90.0
 51
180.0
  0
ARC
  5
47C
330
1F
100
AcDbEntity
  8
0-0
  6
Continuous
 62
     4
370
     9
100
AcDbCircle
 10
-260.1516918049815
 20
67.31567589012369
 30
0.0
 40
1.99999983246262
100
AcDbArc
 50
0.0
 51
90.0
  0
ARC
  5
47D
330
1F
100
AcDbEntity
  8
0-0
  6
Continuous
 62
     4
370
     9
100
AcDbCircle
 10
-260.1516918049815
 20
-20.68413193161405
 30
0.0
 40
1.99999983246262
100
AcDbArc
 50
270.0
 51
0.0
  0
ARC
  5
47E
330
1F
100
AcDbEntity
  8
0-0
  6
Continuous
 62
     4
370
     9
100
AcDbCircle
 10
-291.1517445921436
 20
-20.68413193161405
 30
0.0
 40
1.99999983246262
100
AcDbArc
 50
180.0
 51
270.0
  0
ARC
  5
47F
330
1F
100
AcDbEntity
  8
0-0
  6
Continuous
 62
     4
370
     9
100
AcDbCircle
 10
-301.1520745119072
 20
77.31580785802907
 30
0.0
 40
2.000000025774982
100
AcDbArc
 50
90.0
 51
180.0
  0
ARC
  5
480
330
1F
100
AcDbEntity
  8
0-0
  6
Continuous
 62
     4
370
     9
100
AcDbCircle
 10
-301.1520745119072
 20
-30.68420203956379
 30
0.0
 40
2.000000025774982
100
AcDbArc
 50
180.0
 51
270.0
  0
ARC
  5
481
330
1F
100
AcDbEntity
  8
0-0
  6
Continuous
 62
     4
370
     9
100
AcDbCircle
 10
-250.1520547167214
 20
-30.68420203956379
 30
0.0
 40
2.000000025774982
100
AcDbArc
 50
270.0
 51
0.0
  0
ARC
  5
482
330
1F
100
AcDbEntity
  8
0-0
  6
Continuous
 62
     4
370
     9
100
AcDbCircle
 10
-250.1520547167214
 20
77.31580785802907
 30
0.0
 40
2.000000025774982
100
AcDbArc
 50
0.0
 51
90.0
  0
ARC
  5
483
330
1F
100
AcDbEntity
  8
0-2
  6
Continuous
 62
     3
370
     9
100
AcDbCircle
 10
-279.9518759002095
 20
-7.633821642076555
 30
0.0
 40
1.700000891814361
100
AcDbArc
 50
180.0
 51
270.0
  0
ARC
  5
484
330
1F
100
AcDbEntity
  8
0-2
  6
Continuous
 62
     3
370
     9
100
AcDbCircle
 10
-271.3522038404545
 20
54.26583573624914
 30
0.0
 40
1.700000891814361
100
AcDbArc
 50
0.0
 51
89.20521545410156
  0
ARC
  5
485
330
1F
100
AcDbEntity
  8
0-2
  6
Continuous
 62
     3
370
     9
100
AcDbCircle
 10
-271.3520306325786
 20
-7.634180429819253
 30
0.0
 40
1.700000118564915
100
AcDbArc
 50
270.0
 51
0.0
  0
ARC
  5
486
330
1F
100
AcDbEntity
  8
0-0
  6
Continuous
 62
     4
370
     9
100
AcDbCircle
 10
-275.652039870332
 20
23.31582765321485
 30
0.0
 40
12.50000025774982
100
AcDbArc
 50
301.3322448730469
 51
58.66775512695313
  0
ARC
  5
487
330
1F
100
AcDbEntity
  8
0-0
  6
Continuous
 62
     4
370
     9
100
AcDbCircle
 10
-275.652039870332
 20
23.31582765321485
 30
0.0
 40
12.50000025774982
100
AcDbArc
 50
121.3322448730469
 51
238.6677551269532
  0
ARC
  5
488
330
1F
100
AcDbEntity
  8
0-0
  6
Continuous
 62
     4
370
     9
100
AcDbCircle
 10
-280.1520299727391
 20
-7.834186038455329
 30
0.0
 40
2.000000025774982
100
AcDbArc
 50
180.0
 51
270.0
  0
ARC
  5
489
330
1F
100
AcDbEntity
  8
0-0
  6
Continuous
 62
     4
370
     9
100
AcDbCircle
 10
-271.1520497679249
 20
-7.834186038455329
 30
0.0
 40
2.000000025774982
100
AcDbArc
 50
270.0
 51
0.0
  0
ARC
  5
48A
330
1F
100
AcDbEntity
  8
0-0
  6
Continuous
 62
     4
370
     9
100
AcDbCircle
 10
-280.1520299727391
 20
54.46584134488507
 30
0.0
 40
2.000000025774982
100
AcDbArc
 50
90.0
 51
180.0
  0
ARC
  5
48B
330
1F
100
AcDbEntity
  8
0-0
  6
Continuous
 62
     4
370
     9
100
AcDbCircle
 10
-271.1520497679249
 20
54.46584134488507
 30
0.0
 40
2.000000025774982
100
AcDbArc
 50
0.0
 51
90.0
  0
ARC
  5
48C
330
1F
100
AcDbEntity
  8
0-2
  6
Continuous
 62
     3
370
     9
100
AcDbCircle
 10
-279.9520243641031
 20
54.26569964434666
 30
0.0
 40
1.700000118564915
100
AcDbArc
 50
90.0
 51
180.0
  0
TEXT
  5
48D
330
1F
100
AcDbEntity
  8
D-F
  6
Continuous
 62
     7
370
     9
100
AcDbText
 10
175.2200868800132
 20
-455.4998059763769
 30
0.0
 40
11.43
  1
把手本体
 41
1.125
  7
ＭＳ ゴシック
100
AcDbText
  0
TEXT
  5
48E
330
1F
100
AcDbEntity
  8
D-F
  6
Continuous
 62
     7
370
     9
100
AcDbText
 10
157.7200868800132
 20
-479.9247534434843
 30
0.0
 40
11.43
  1
強化ナイロン
 41
1.138888888888889
  7
ＭＳ ゴシック
100
AcDbText
  0
LINE
  5
48F
330
1F
100
AcDbEntity
  8
D-F
  6
Continuous
 62
     7
370
     9
100
AcDbLine
 10
154.1884559139367
 20
-461.4660830957815
 30
0.0
 11
263.7517178460897
 21
-461.4660830957815
 31
0.0
  0
LINE
  5
490
330
1F
100
AcDbEntity
  8
D-3
  6
Continuous
 62
     3
370
     9
100
AcDbLine
 10
181.8248785297593
 20
-412.3688574964776
 30
0.0
 11
337.6004556198924
 21
-412.3688574964776
 31
0.0
  0
LINE
  5
491
330
1F
100
AcDbEntity
  8
D-3
  6
Continuous
 62
     3
370
     9
100
AcDbLine
 10
181.8248785297593
 20
-404.3688496608832
 30
0.0
 11
347.0904476048025
 21
-404.3688496608832
 31
0.0
  0
LINE
  5
492
330
1F
100
AcDbEntity
  8
D-3
  6
Continuous
 62
     3
370
     9
100
AcDbLine
 10
399.0997596797212
 20
-404.3688496608832
 30
0.0
 11
564.365607124565
 21
-404.3688496608832
 31
0.0
  0
LINE
  5
493
330
1F
100
AcDbEntity
  8
D-3
  6
Continuous
 62
     3
370
     9
100
AcDbLine
 10
408.5897825946092
 20
-412.3688574964776
 30
0.0
 11
564.365607124565
 21
-412.3688574964776
 31
0.0
  0
LINE
  5
494
330
1F
100
AcDbEntity
  8
D-D
  6
Continuous
 62
     7
370
     9
100
AcDbLine
 10
183.1184239265634
 20
-399.3688950248492
 30
0.0
 11
188.1183785625959
 21
-404.3688496608817
 31
0.0
  0
LINE
  5
495
330
1F
100
AcDbEntity
  8
D-D
  6
Continuous
 62
     7
370
     9
100
AcDbLine
 10
188.4217247854653
 20
-399.3688950248464
 30
0.0
 11
193.4216794214977
 21
-404.3688496608789
 31
0.0
  0
LINE
  5
496
330
1F
100
AcDbEntity
  8
D-D
  6
Continuous
 62
     7
370
     9
100
AcDbLine
 10
193.725025644363
 20
-399.3688950248487
 30
0.0
 11
198.7249802803956
 21
-404.3688496608814
 31
0.0
  0
LINE
  5
497
330
1F
100
AcDbEntity
  8
D-D
  6
Continuous
 62
     7
370
     9
100
AcDbLine
 10
199.0283265032598
 20
-399.3688950248502
 30
0.0
 11
204.0282811392924
 21
-404.3688496608827
 31
0.0
  0
LINE
  5
498
330
1F
100
AcDbEntity
  8
D-D
  6
Continuous
 62
     7
370
     9
100
AcDbLine
 10
204.3316273621617
 20
-399.3688950248475
 30
0.0
 11
209.3315819981942
 21
-404.36884966088
 31
0.0
  0
LINE
  5
499
330
1F
100
AcDbEntity
  8
D-D
  6
Continuous
 62
     7
370
     9
100
AcDbLine
 10
209.6349282210601
 20
-399.3688950248504
 30
0.0
 11
214.6348828570927
 21
-404.3688496608831
 31
0.0
  0
LINE
  5
49A
330
1F
100
AcDbEntity
  8
D-D
  6
Continuous
 62
     7
370
     9
100
AcDbLine
 10
214.938229079962
 20
-399.3688950248478
 30
0.0
 11
219.9381837159947
 21
-404.3688496608805
 31
0.0
  0
LINE
  5
49B
330
1F
100
AcDbEntity
  8
D-D
  6
Continuous
 62
     7
370
     9
100
AcDbLine
 10
220.2415299388582
 20
-399.3688950248485
 30
0.0
 11
225.2414845748906
 21
-404.3688496608809
 31
0.0
  0
LINE
  5
49C
330
1F
100
AcDbEntity
  8
D-D
  6
Continuous
 62
     7
370
     9
100
AcDbLine
 10
225.544830797757
 20
-399.3688950248519
 30
0.0
 11
230.5447854337898
 21
-404.3688496608846
 31
0.0
  0
LINE
  5
49D
330
1F
100
AcDbEntity
  8
D-D
  6
Continuous
 62
     7
370
     9
100
AcDbLine
 10
230.8481316566591
 20
-399.3688950248495
 30
0.0
 11
235.8480862926918
 21
-404.3688496608821
 31
0.0
  0
LINE
  5
49E
330
1F
100
AcDbEntity
  8
D-D
  6
Continuous
 62
     7
370
     9
100
AcDbLine
 10
236.1514325155546
 20
-399.3688950248495
 30
0.0
 11
241.1513871515871
 21
-404.3688496608819
 31
0.0
  0
LINE
  5
49F
330
1F
100
AcDbEntity
  8
D-D
  6
Continuous
 62
     7
370
     9
100
AcDbLine
 10
241.4547333744564
 20
-399.3688950248467
 30
0.0
 11
246.4546880104889
 21
-404.3688496608792
 31
0.0
  0
LINE
  5
4A0
330
1F
100
AcDbEntity
  8
D-D
  6
Continuous
 62
     7
370
     9
100
AcDbLine
 10
246.7580342333562
 20
-399.368895024851
 30
0.0
 11
251.7579888693888
 21
-404.3688496608837
 31
0.0
  0
LINE
  5
4A1
330
1F
100
AcDbEntity
  8
D-D
  6
Continuous
 62
     7
370
     9
100
AcDbLine
 10
252.0613350922511
 20
-399.3688950248504
 30
0.0
 11
253.09521808318
 21
-400.4027780157793
 31
0.0
  0
LINE
  5
4A2
330
1F
100
AcDbEntity
  8
D-D
  6
Continuous
 62
     7
370
     9
100
AcDbLine
 10
493.0952675711454
 20
-401.7542888532856
 30
0.0
 11
495.7098283787418
 21
-404.3688496608821
 31
0.0
  0
LINE
  5
4A3
330
1F
100
AcDbEntity
  8
D-D
  6
Continuous
 62
     7
370
     9
100
AcDbLine
 10
496.0131746016139
 20
-399.3688950248495
 30
0.0
 11
501.0131292376463
 21
-404.368849660882
 31
0.0
  0
LINE
  5
4A4
330
1F
100
AcDbEntity
  8
D-D
  6
Continuous
 62
     7
370
     9
100
AcDbLine
 10
501.316475460511
 20
-399.3688950248512
 30
0.0
 11
506.3164300965435
 21
-404.3688496608838
 31
0.0
  0
LINE
  5
4A5
330
1F
100
AcDbEntity
  8
D-D
  6
Continuous
 62
     7
370
     9
100
AcDbLine
 10
506.6197763194131
 20
-399.3688950248487
 30
0.0
 11
511.6197309554454
 21
-404.3688496608811
 31
0.0
  0
LINE
  5
4A6
330
1F
100
AcDbEntity
  8
D-D
  6
Continuous
 62
     7
370
     9
100
AcDbLine
 10
511.9230771783102
 20
-399.3688950248504
 30
0.0
 11
516.9230318143427
 21
-404.3688496608829
 31
0.0
  0
LINE
  5
4A7
330
1F
100
AcDbEntity
  8
D-D
  6
Continuous
 62
     7
370
     9
100
AcDbLine
 10
517.2263780372049
 20
-399.3688950248497
 30
0.0
 11
522.2263326732374
 21
-404.3688496608821
 31
0.0
  0
LINE
  5
4A8
330
1F
100
AcDbEntity
  8
D-D
  6
Continuous
 62
     7
370
     9
100
AcDbLine
 10
522.5296788961093
 20
-399.3688950248495
 30
0.0
 11
527.5296335321418
 21
-404.368849660882
 31
0.0
  0
LINE
  5
4A9
330
1F
100
AcDbEntity
  8
D-D
  6
Continuous
 62
     7
370
     9
100
AcDbLine
 10
527.8329797550066
 20
-399.3688950248514
 30
0.0
 11
532.8329343910391
 21
-404.3688496608838
 31
0.0
  0
LINE
  5
4AA
330
1F
100
AcDbEntity
  8
D-D
  6
Continuous
 62
     7
370
     9
100
AcDbLine
 10
533.1362806139084
 20
-399.3688950248487
 30
0.0
 11
538.1362352499409
 21
-404.3688496608812
 31
0.0
  0
LINE
  5
4AB
330
1F
100
AcDbEntity
  8
D-D
  6
Continuous
 62
     7
370
     9
100
AcDbLine
 10
538.4395814728058
 20
-399.3688950248506
 30
0.0
 11
543.4395361088382
 21
-404.3688496608829
 31
0.0
  0
LINE
  5
4AC
330
1F
100
AcDbEntity
  8
D-D
  6
Continuous
 62
     7
370
     9
100
AcDbLine
 10
543.7428823317003
 20
-399.3688950248497
 30
0.0
 11
548.7428369677328
 21
-404.3688496608821
 31
0.0
  0
LINE
  5
4AD
330
1F
100
AcDbEntity
  8
D-D
  6
Continuous
 62
     7
370
     9
100
AcDbLine
 10
549.0461831906049
 20
-399.3688950248497
 30
0.0
 11
554.0461378266373
 21
-404.3688496608821
 31
0.0
  0
LINE
  5
4AE
330
1F
100
AcDbEntity
  8
D-D
  6
Continuous
 62
     7
370
     9
100
AcDbLine
 10
554.3494840495022
 20
-399.3688950248515
 30
0.0
 11
559.3494386855346
 21
-404.3688496608838
 31
0.0
  0
LINE
  5
4AF
330
1F
100
AcDbEntity
  8
D-D
  6
Continuous
 62
     7
370
     9
100
AcDbLine
 10
559.6527849084041
 20
-399.3688950248488
 30
0.0
 11
564.3656071245666
 21
-404.0817172410113
 31
0.0
  0
LINE
  5
4B0
330
1F
100
AcDbEntity
  8
D-4
  6
Continuous
 62
     7
370
     9
100
AcDbLine
 10
272.0499399546031
 20
319.428709238554
 30
0.0
 11
266.9897955817146
 21
307.9987215115693
 31
0.0
  0
LINE
  5
4B1
330
1F
100
AcDbEntity
  8
D-4
  6
Continuous
 62
     7
370
     9
100
AcDbLine
 10
272.0499399546031
 20
319.428709238554
 30
0.0
 11
264.2038706186656
 21
309.6978907736047
 31
0.0
  0
LINE
  5
4B2
330
1F
100
AcDbEntity
  8
D-4
  6
Continuous
 62
     7
370
     9
100
AcDbLine
 10
249.1645777307342
 20
281.9057850450371
 30
0.0
 11
272.0499399546031
 21
319.428709238554
 31
0.0
  0
LINE
  5
4B3
330
1F
100
AcDbEntity
  8
D-0
  6
Continuous
 62
     7
370
     9
100
AcDbLine
 10
121.2412387539308
 20
281.9057850450371
 30
0.0
 11
249.1645777307342
 21
281.9057850450371
 31
0.0
  0
TEXT
  5
4B4
330
1F
100
AcDbEntity
  8
D-0
  6
Continuous
 62
     7
370
     9
100
AcDbText
 10
151.4529082423325
 20
287.2939190188548
 30
0.0
 40
11.43
  1
把手本体
 41
1.125
  7
ＭＳ ゴシック
100
AcDbText
  0
TEXT
  5
4B5
330
1F
100
AcDbEntity
  8
D-0
  6
Continuous
 62
     7
370
     9
100
AcDbText
 10
116.4529082423325
 20
264.683610345924
 30
0.0
 40
11.43
  1
（強化ナイロン）
 41
1.145833333333333
  7
ＭＳ ゴシック
100
AcDbText
  0
LINE
  5
4B6
330
1F
100
AcDbEntity
  8
D-4
  6
Continuous
 62
     7
370
     9
100
AcDbLine
 10
386.2332209072117
 20
226.8295666467385
 30
0.0
 11
470.1267551731419
 21
364.3819059961027
 31
0.0
  0
TEXT
  5
4B7
330
1F
100
AcDbEntity
  8
D-4
  6
Continuous
 62
     7
370
     9
100
AcDbText
 10
198.4783780869191
 20
209.1673219631955
 30
0.0
 40
11.43
  1
（軟質ポリ塩化ビニル）
 41
1.151515151515152
  7
ＭＳ ゴシック
100
AcDbText
  0
TEXT
  5
4B8
330
1F
100
AcDbEntity
  8
D-4
  6
Continuous
 62
     7
370
     9
100
AcDbText
 10
250.8857986683742
 20
232.877069376734
 30
0.0
 40
11.43
  1
クッション
 41
1.133333333333333
  7
ＭＳ ゴシック
100
AcDbText
  0
LINE
  5
4B9
330
1F
100
AcDbEntity
  8
D-4
  6
Continuous
 62
     7
370
     9
100
AcDbLine
 10
202.3266472554729
 20
226.8295666467385
 30
0.0
 11
386.2332209072117
 21
226.8295666467385
 31
0.0
  0
LINE
  5
4BA
330
1F
100
AcDbEntity
  8
0-4
  6
Continuous
 62
     7
370
     9
100
AcDbLine
 10
-535.6520947194927
 20
-72.23503756365648
 30
0.0
 11
-275.652039870332
 21
-72.23503756365648
 31
0.0
  0
LWPOLYLINE
  5
4BB
330
1F
100
AcDbEntity
  8
0-4
  6
Continuous
 62
     7
370
     9
100
AcDbPolyline
 90
        4
 70
     1
 43
0.5
 10
-535.4020947194927
 20
-72.23503756365648
 42
0.4142135623731
 10
-535.6520947194927
 20
-71.98503756365648
 42
0.4142135623731
 10
-535.9020947194927
 20
-72.23503756365648
 42
0.4142135623731
 10
-535.6520947194927
 20
-72.48503756365649
 42
0.4142135623731
  0
LWPOLYLINE
  5
4BC
330
1F
100
AcDbEntity
  8
0-4
  6
Continuous
 62
     7
370
     9
100
AcDbPolyline
 90
        4
 70
     1
 43
0.5
 10
-275.402039870332
 20
-72.23503756365648
 42
0.4142135623731
 10
-275.652039870332
 20
-71.98503756365648
 42
0.4142135623731
 10
-275.902039870332
 20
-72.23503756365648
 42
0.4142135623731
 10
-275.652039870332
 20
-72.48503756365649
 42
0.4142135623731
  0
LINE
  5
4BD
330
1F
100
AcDbEntity
  8
0-4
  6
Continuous
 62
     7
370
     9
100
AcDbLine
 10
-535.6520947194927
 20
-73.73503756365649
 30
0.0
 11
-535.6520947194927
 21
-46.08352843766951
 31
0.0
  0
LINE
  5
4BE
330
1F
100
AcDbEntity
  8
0-4
  6
Continuous
 62
     7
370
     9
100
AcDbLine
 10
-275.652039870332
 20
-73.73503756365649
 30
0.0
 11
-275.652039870332
 21
-45.36201777513412
 31
0.0
  0
TEXT
  5
4BF
330
1F
100
AcDbEntity
  8
0-4
  6
Continuous
 62
     2
370
   211
100
AcDbText
 10
-421.9020672949124
 20
-66.41503756365648
 30
0.0
 40
15.24
  1
260
 41
1.083333333333333
  7
ＭＳ ゴシック
100
AcDbText
  0
TEXT
  5
4C0
330
1F
100
AcDbEntity
  8
D-4
  6
Continuous
 62
     7
370
     9
100
AcDbText
 10
526.446809510927
 20
624.563712273816
 30
0.0
 40
11.43
  1
底板　ｔ＝３．２
 41
1.145833333333333
  7
ＭＳ ゴシック
100
AcDbText
  0
TEXT
  5
4C1
330
1F
100
AcDbEntity
  8
D-4
  6
Continuous
 62
     7
370
     9
100
AcDbText
 10
526.446809510927
 20
603.2405598578295
 30
0.0
 40
11.43
  1
溶融亜鉛めっき鋼板
 41
1.148148148148148
  7
ＭＳ ゴシック
100
AcDbText
  0
LINE
  5
4C2
330
1F
100
AcDbEntity
  8
D-4
  6
Continuous
 62
     7
370
     9
100
AcDbLine
 10
685.4231695222402
 20
619.4665675314174
 30
0.0
 11
517.6854314030828
 21
619.4665675314174
 31
0.0
  0
TEXT
  5
4C3
330
1F
100
AcDbEntity
  8
F-0
  6
Continuous
 62
     7
370
     9
100
AcDbText
 10
-408.9301057053801
 20
-683.7709262772734
 30
0.0
 40
11.43
  1
アルミニウム＋スチール製　アルミニウム目地　ＭＯＦＥ－４５０－１５－Ｍ
  7
ＭＳ ゴシック
100
AcDbText
  0
TEXT
  5
4C4
330
1F
100
AcDbEntity
  8
F-0
  6
Continuous
 62
     7
370
     9
100
AcDbText
 10
-410.5098929394227
 20
-663.2336922347201
 30
0.0
 40
11.43
  1
フロアーハッチ　フローリング床材用（フローリング厚15mm）　屋内用　一般形
  7
ＭＳ ゴシック
100
AcDbText
  0
ENDSEC
  0
SECTION
  2
OBJECTS
  0
DICTIONARY
  5
C
330
0
100
AcDbDictionary
281
     1
  3
ACAD_GROUP
350
D
  3
ACAD_LAYOUT
350
1A
  3
ACAD_MLEADERSTYLE
350
4C6
  3
ACAD_MLINESTYLE
350
17
  3
ACAD_PLOTSETTINGS
350
19
  3
ACAD_PLOTSTYLENAME
350
E
  3
ACAD_TABLESTYLE
350
4C5
  3
ACAD_VISUALSTYLE
350
2A
  0
DICTIONARY
  5
D
102
{ACAD_REACTORS
330
C
102
}
330
C
100
AcDbDictionary
281
     1
  0
DICTIONARY
  5
1A
102
{ACAD_REACTORS
330
C
102
}
330
C
100
AcDbDictionary
281
     1
  3
Layout1
350
1E
  3
Layout2
350
26
  3
Model
350
22
  0
DICTIONARY
  5
4C6
102
{ACAD_REACTORS
330
C
102
}
330
C
100
AcDbDictionary
281
     1
  0
DICTIONARY
  5
17
102
{ACAD_REACTORS
330
C
102
}
330
C
100
AcDbDictionary
281
     1
  3
Standard
350
18
  0
DICTIONARY
  5
19
102
{ACAD_REACTORS
330
C
102
}
330
C
100
AcDbDictionary
281
     1
  0
ACDBDICTIONARYWDFLT
  5
E
102
{ACAD_REACTORS
330
C
102
}
330
C
100
AcDbDictionary
281
     1
  3
Normal
350
F
100
AcDbDictionaryWithDefault
340
F
  0
DICTIONARY
  5
4C5
102
{ACAD_REACTORS
330
C
102
}
330
C
100
AcDbDictionary
281
     1
  0
DICTIONARY
  5
2A
102
{ACAD_REACTORS
330
C
102
}
330
C
100
AcDbDictionary
281
     1
  3
2dWireframe
350
2F
  3
3D Hidden
350
31
  3
3dWireframe
350
30
  3
Basic
350
32
  3
Brighten
350
36
  3
ColorChange
350
3A
  3
Conceptual
350
34
  3
Dim
350
35
  3
Facepattern
350
39
  3
Flat
350
2B
  3
FlatWithEdges
350
2C
  3
Gouraud
350
2D
  3
GouraudWithEdges
350
2E
  3
Linepattern
350
38
  3
Realistic
350
33
  3
Thicken
350
37
  0
LAYOUT
  5
1E
102
{ACAD_REACTORS
330
1A
102
}
330
1A
100
AcDbPlotSettings
  1

  2
none_device
  4

  6

 40
0.0
 41
0.0
 42
0.0
 43
0.0
 44
0.0
 45
0.0
 46
0.0
 47
0.0
 48
0.0
 49
0.0
140
0.0
141
0.0
142
1.0
143
1.0
 70
   688
 72
     0
 73
     0
 74
     5
  7

 75
    16
 76
     0
 77
     5
 78
   300
147
1.0
148
0.0
149
0.0
100
AcDbLayout
  1
Layout1
 70
     1
 71
     1
 10
0.0
 20
0.0
 11
420.0
 21
297.0
 12
0.0
 22
0.0
 32
0.0
 14
1.000000000000000E+20
 24
1.000000000000000E+20
 34
1.000000000000000E+20
 15
-1.000000000000000E+20
 25
-1.000000000000000E+20
 35
-1.000000000000000E+20
146
0.0
 13
0.0
 23
0.0
 33
0.0
 16
1.0
 26
0.0
 36
0.0
 17
0.0
 27
1.0
 37
0.0
 76
     0
330
1B
  0
LAYOUT
  5
26
102
{ACAD_REACTORS
330
1A
102
}
330
1A
100
AcDbPlotSettings
  1

  2
none_device
  4

  6

 40
0.0
 41
0.0
 42
0.0
 43
0.0
 44
0.0
 45
0.0
 46
0.0
 47
0.0
 48
0.0
 49
0.0
140
0.0
141
0.0
142
1.0
143
1.0
 70
   688
 72
     0
 73
     0
 74
     5
  7

 75
    16
 76
     0
 77
     5
 78
   300
147
1.0
148
0.0
149
0.0
100
AcDbLayout
  1
Layout2
 70
     1
 71
     2
 10
0.0
 20
0.0
 11
0.0
 21
0.0
 12
0.0
 22
0.0
 32
0.0
 14
0.0
 24
0.0
 34
0.0
 15
0.0
 25
0.0
 35
0.0
146
0.0
 13
0.0
 23
0.0
 33
0.0
 16
1.0
 26
0.0
 36
0.0
 17
0.0
 27
1.0
 37
0.0
 76
     0
330
23
  0
LAYOUT
  5
22
102
{ACAD_REACTORS
330
1A
102
}
330
1A
100
AcDbPlotSettings
  1

  2
none_device
  4

  6

 40
0.0
 41
0.0
 42
0.0
 43
0.0
 44
0.0
 45
0.0
 46
0.0
 47
0.0
 48
0.0
 49
0.0
140
0.0
141
0.0
142
1.0
143
1.0
 70
  1712
 72
     0
 73
     0
 74
     0
  7

 75
     0
 76
     0
 77
     5
 78
   300
147
1.0
148
0.0
149
0.0
100
AcDbLayout
  1
Model
 70
     1
 71
     0
 10
-1050.0
 20
-742.5
 11
1050.0
 21
742.5
 12
0.0
 22
0.0
 32
0.0
 14
-1050.0
 24
-742.5
 34
0.0
 15
1050.0
 25
742.5
 35
0.0
146
0.0
 13
0.0
 23
0.0
 33
0.0
 16
1.0
 26
0.0
 36
0.0
 17
0.0
 27
1.0
 37
0.0
 76
     0
330
1F
331
29
  0
MLINESTYLE
  5
18
102
{ACAD_REACTORS
330
17
102
}
330
17
100
AcDbMlineStyle
  2
Standard
 70
     0
  3

 62
   256
 51
90.0
 52
90.0
 71
     2
 49
0.5
 62
   256
  6
BYLAYER
 49
-0.5
 62
   256
  6
BYLAYER
  0
ACDBPLACEHOLDER
  5
F
102
{ACAD_REACTORS
330
E
102
}
330
E
  0
VISUALSTYLE
  5
2F
102
{ACAD_REACTORS
330
2A
102
}
330
2A
100
AcDbVisualStyle
  2
2dWireframe
 70
     4
 71
     0
 72
     2
 73
     0
 90
        0
 40
-0.6
 41
-30.0
 62
     5
 63
     7
421
 16777215
 74
     1
 91
        4
 64
     7
 65
   257
 75
     1
175
     1
 42
1.0
 92
        0
 66
   257
 43
1.0
 76
     1
 77
     6
 78
     2
 67
     7
 79
     5
170
     0
171
     0
290
     0
174
     0
 93
        1
 44
0.0
173
     0
291
     0
 45
0.0
1001
ACAD
1000
AcDbSavedByObjectVersion
1070
     0
  0
VISUALSTYLE
  5
31
102
{ACAD_REACTORS
330
2A
102
}
330
2A
100
AcDbVisualStyle
  2
3D Hidden
 70
     6
 71
     1
 72
     2
 73
     2
 90
        0
 40
-0.6
 41
-30.0
 62
     5
 63
     7
421
 16777215
 74
     2
 91
        2
 64
     7
 65
   257
 75
     2
175
     1
 42
40.0
 92
        0
 66
   257
 43
1.0
 76
     1
 77
     6
 78
     2
 67
     7
 79
     3
170
     0
171
     0
290
     0
174
     0
 93
        1
 44
0.0
173
     0
291
     0
 45
0.0
1001
ACAD
1000
AcDbSavedByObjectVersion
1070
     0
  0
VISUALSTYLE
  5
30
102
{ACAD_REACTORS
330
2A
102
}
330
2A
100
AcDbVisualStyle
  2
3dWireframe
 70
     5
 71
     0
 72
     2
 73
     0
 90
        0
 40
-0.6
 41
-30.0
 62
     5
 63
     7
421
 16777215
 74
     1
 91
        4
 64
     7
 65
   257
 75
     1
175
     1
 42
1.0
 92
        0
 66
   257
 43
1.0
 76
     1
 77
     6
 78
     2
 67
     7
 79
     5
170
     0
171
     0
290
     0
174
     0
 93
        1
 44
0.0
173
     0
291
     0
 45
0.0
1001
ACAD
1000
AcDbSavedByObjectVersion
1070
     0
  0
VISUALSTYLE
  5
32
102
{ACAD_REACTORS
330
2A
102
}
330
2A
100
AcDbVisualStyle
  2
Basic
 70
     7
 71
     1
 72
     0
 73
     1
 90
        0
 40
-0.6
 41
-30.0
 62
     5
 63
     7
421
 16777215
 74
     0
 91
        4
 64
     7
 65
   257
 75
     1
175
     1
 42
1.0
 92
        8
 66
     7
 43
1.0
 76
     1
 77
     6
 78
     2
 67
     7
 79
     5
170
     0
171
     0
290
     0
174
     0
 93
        1
 44
0.0
173
     0
291
     1
 45
0.0
1001
ACAD
1000
AcDbSavedByObjectVersion
1070
     0
  0
VISUALSTYLE
  5
36
102
{ACAD_REACTORS
330
2A
102
}
330
2A
100
AcDbVisualStyle
  2
Brighten
 70
    12
 71
     2
 72
     2
 73
     0
 90
        0
 40
-0.6
 41
-30.0
 62
     5
 63
     7
421
 16777215
 74
     1
 91
        4
 64
     7
 65
   257
 75
     1
175
     1
 42
1.0
 92
        8
 66
     7
 43
1.0
 76
     1
 77
     6
 78
     2
 67
     7
 79
     5
170
     0
171
     0
290
     0
174
     0
 93
        1
 44
50.0
173
     0
291
     1
 45
0.0
1001
ACAD
1000
AcDbSavedByObjectVersion
1070
     0
  0
VISUALSTYLE
  5
3A
102
{ACAD_REACTORS
330
2A
102
}
330
2A
100
AcDbVisualStyle
  2
ColorChange
 70
    16
 71
     2
 72
     2
 73
     3
 90
        0
 40
-0.6
 41
-30.0
 62
     5
 63
     8
421
  8421504
 74
     1
 91
        4
 64
     7
 65
   257
 75
     1
175
     1
 42
1.0
 92
        8
 66
     8
424
  8421504
 43
1.0
 76
     1
 77
     6
 78
     2
 67
     7
 79
     5
170
     0
171
     0
290
     0
174
     0
 93
        1
 44
0.0
173
     0
291
     1
 45
0.0
1001
ACAD
1000
AcDbSavedByObjectVersion
1070
     0
  0
VISUALSTYLE
  5
34
102
{ACAD_REACTORS
330
2A
102
}
330
2A
100
AcDbVisualStyle
  2
Conceptual
 70
     9
 71
     3
 72
     2
 73
     0
 90
        0
 40
-0.6
 41
-30.0
 62
     5
 63
     7
421
 16777215
 74
     2
 91
        2
 64
     7
 65
   257
 75
     1
175
     1
 42
40.0
 92
        8
 66
     7
 43
1.0
 76
     1
 77
     6
 78
     2
 67
     7
 79
     3
170
     0
171
     0
290
     0
174
     0
 93
        1
 44
0.0
173
     0
291
     0
 45
0.0
1001
ACAD
1000
AcDbSavedByObjectVersion
1070
     0
  0
VISUALSTYLE
  5
35
102
{ACAD_REACTORS
330
2A
102
}
330
2A
100
AcDbVisualStyle
  2
Dim
 70
    11
 71
     2
 72
     2
 73
     0
 90
        0
 40
-0.6
 41
-30.0
 62
     5
 63
     7
421
 16777215
 74
     1
 91
        4
 64
     7
 65
   257
 75
     1
175
     1
 42
1.0
 92
        8
 66
     7
 43
1.0
 76
     1
 77
     6
 78
     2
 67
     7
 79
     5
170
     0
171
     0
290
     0
174
     0
 93
        1
 44
-50.0
173
     0
291
     1
 45
0.0
1001
ACAD
1000
AcDbSavedByObjectVersion
1070
     0
  0
VISUALSTYLE
  5
39
102
{ACAD_REACTORS
330
2A
102
}
330
2A
100
AcDbVisualStyle
  2
Facepattern
 70
    15
 71
     2
 72
     2
 73
     0
 90
        0
 40
-0.6
 41
-30.0
 62
     5
 63
     7
421
 16777215
 74
     1
 91
        4
 64
     7
 65
   257
 75
     1
175
     1
 42
1.0
 92
        8
 66
     7
 43
1.0
 76
     1
 77
     6
 78
     2
 67
     7
 79
     5
170
     0
171
     0
290
     0
174
     0
 93
        1
 44
0.0
173
     0
291
     1
 45
0.0
1001
ACAD
1000
AcDbSavedByObjectVersion
1070
     0
  0
VISUALSTYLE
  5
2B
102
{ACAD_REACTORS
330
2A
102
}
330
2A
100
AcDbVisualStyle
  2
Flat
 70
     0
 71
     2
 72
     1
 73
     1
 90
        2
 40
-0.6
 41
30.0
 62
     5
 63
     7
421
 16777215
 74
     0
 91
        4
 64
     7
 65
   257
 75
     1
175
     1
 42
1.0
 92
        8
 66
     7
 43
1.0
 76
     1
 77
     6
 78
     2
 67
     7
 79
     5
170
     0
171
     0
290
     0
174
     0
 93
       13
 44
0.0
173
     0
291
     1
 45
0.0
1001
ACAD
1000
AcDbSavedByObjectVersion
1070
     0
  0
VISUALSTYLE
  5
2C
102
{ACAD_REACTORS
330
2A
102
}
330
2A
100
AcDbVisualStyle
  2
FlatWithEdges
 70
     1
 71
     2
 72
     1
 73
     1
 90
        2
 40
-0.6
 41
30.0
 62
     5
 63
     7
421
 16777215
 74
     1
 91
        4
 64
     7
 65
   257
 75
     1
175
     1
 42
1.0
 92
        0
 66
   257
 43
1.0
 76
     1
 77
     6
 78
     2
 67
     7
 79
     5
170
     0
171
     0
290
     0
174
     0
 93
       13
 44
0.0
173
     0
291
     1
 45
0.0
1001
ACAD
1000
AcDbSavedByObjectVersion
1070
     0
  0
VISUALSTYLE
  5
2D
102
{ACAD_REACTORS
330
2A
102
}
330
2A
100
AcDbVisualStyle
  2
Gouraud
 70
     2
 71
     2
 72
     2
 73
     1
 90
        2
 40
-0.6
 41
30.0
 62
     5
 63
     7
421
 16777215
 74
     0
 91
        4
 64
     7
 65
   257
 75
     1
175
     1
 42
1.0
 92
        0
 66
     7
 43
1.0
 76
     1
 77
     6
 78
     2
 67
     7
 79
     5
170
     0
171
     0
290
     0
174
     0
 93
       13
 44
0.0
173
     0
291
     1
 45
0.0
1001
ACAD
1000
AcDbSavedByObjectVersion
1070
     0
  0
VISUALSTYLE
  5
2E
102
{ACAD_REACTORS
330
2A
102
}
330
2A
100
AcDbVisualStyle
  2
GouraudWithEdges
 70
     3
 71
     2
 72
     2
 73
     1
 90
        2
 40
-0.6
 41
30.0
 62
     5
 63
     7
421
 16777215
 74
     1
 91
        4
 64
     7
 65
   257
 75
     1
175
     1
 42
1.0
 92
        0
 66
   257
 43
1.0
 76
     1
 77
     6
 78
     2
 67
     7
 79
     5
170
     0
171
     0
290
     0
174
     0
 93
       13
 44
0.0
173
     0
291
     1
 45
0.0
1001
ACAD
1000
AcDbSavedByObjectVersion
1070
     0
  0
VISUALSTYLE
  5
38
102
{ACAD_REACTORS
330
2A
102
}
330
2A
100
AcDbVisualStyle
  2
Linepattern
 70
    14
 71
     2
 72
     2
 73
     0
 90
        0
 40
-0.6
 41
-30.0
 62
     5
 63
     7
421
 16777215
 74
     1
 91
        4
 64
     7
 65
   257
 75
     7
175
     7
 42
1.0
 92
        8
 66
     7
 43
1.0
 76
     1
 77
     6
 78
     2
 67
     7
 79
     5
170
     0
171
     0
290
     0
174
     0
 93
        1
 44
0.0
173
     0
291
     1
 45
0.0
1001
ACAD
1000
AcDbSavedByObjectVersion
1070
     0
  0
VISUALSTYLE
  5
33
102
{ACAD_REACTORS
330
2A
102
}
330
2A
100
AcDbVisualStyle
  2
Realistic
 70
     8
 71
     2
 72
     2
 73
     0
 90
        0
 40
-0.6
 41
-30.0
 62
     5
 63
     7
421
 16777215
 74
     1
 91
        0
 64
     7
 65
   257
 75
     1
175
     1
 42
1.0
 92
        8
 66
     8
424
  7895160
 43
1.0
 76
     1
 77
     6
 78
     2
 67
     7
 79
     5
170
     0
171
     0
290
     0
174
     0
 93
       13
 44
0.0
173
     0
291
     0
 45
0.0
1001
ACAD
1000
AcDbSavedByObjectVersion
1070
     0
  0
VISUALSTYLE
  5
37
102
{ACAD_REACTORS
330
2A
102
}
330
2A
100
AcDbVisualStyle
  2
Thicken
 70
    13
 71
     2
 72
     2
 73
     0
 90
        0
 40
-0.6
 41
-30.0
 62
     5
 63
     7
421
 16777215
 74
     1
 91
        4
 64
     7
 65
   257
 75
     1
175
     1
 42
1.0
 92
       12
 66
     7
 43
1.0
 76
     1
 77
     6
 78
     2
 67
     7
 79
     5
170
     0
171
     0
290
     0
174
     0
 93
        1
 44
0.0
173
     0
291
     1
 45
0.0
1001
ACAD
1000
AcDbSavedByObjectVersion
1070
     0
  0
ENDSEC
  0
EOF
