  0
SECTION
  2
HEADER
  9
$ACADVER
  1
AC1018
  9
$ACADMAINTVER
 70
     0
  9
$DWGCODEPAGE
  3
ANSI_932
  9
$INSBASE
 10
0.0
 20
0.0
 30
0.0
  9
$EXTMIN
 10
-1050.0
 20
-742.5
 30
0.0
  9
$EXTMAX
 10
1050.0
 20
742.5
 30
0.0
  9
$LIMMIN
 10
-1050.0
 20
-742.5
  9
$LIMMAX
 10
1050.0
 20
742.5
  9
$ORTHOMODE
 70
     0
  9
$REGENMODE
 70
     1
  9
$FILLMODE
 70
     1
  9
$QTEXTMODE
 70
     0
  9
$MIRRTEXT
 70
     1
  9
$LTSCALE
 40
5.0
  9
$ATTMODE
 70
     1
  9
$TEXTSIZE
 40
2.5
  9
$TRACEWID
 40
1.0
  9
$TEXTSTYLE
  7
Standard
  9
$CLAYER
  8
0
  9
$CELTYPE
  6
ByLayer
  9
$CECOLOR
 62
   256
  9
$CELTSCALE
 40
1.0
  9
$DISPSILH
 70
     0
  9
$DIMSCALE
 40
1.0
  9
$DIMASZ
 40
2.5
  9
$DIMEXO
 40
0.625
  9
$DIMDLI
 40
3.75
  9
$DIMRND
 40
0.0
  9
$DIMDLE
 40
0.0
  9
$DIMEXE
 40
1.25
  9
$DIMTP
 40
0.0
  9
$DIMTM
 40
0.0
  9
$DIMTXT
 40
2.5
  9
$DIMCEN
 40
2.5
  9
$DIMTSZ
 40
0.0
  9
$DIMTOL
 70
     0
  9
$DIMLIM
 70
     0
  9
$DIMTIH
 70
     0
  9
$DIMTOH
 70
     0
  9
$DIMSE1
 70
     0
  9
$DIMSE2
 70
     0
  9
$DIMTAD
 70
     1
  9
$DIMZIN
 70
     8
  9
$DIMBLK
  1

  9
$DIMASO
 70
     1
  9
$DIMSHO
 70
     1
  9
$DIMPOST
  1

  9
$DIMAPOST
  1

  9
$DIMALT
 70
     0
  9
$DIMALTD
 70
     3
  9
$DIMALTF
 40
0.03937007874016
  9
$DIMLFAC
 40
1.0
  9
$DIMTOFL
 70
     1
  9
$DIMTVP
 40
0.0
  9
$DIMTIX
 70
     0
  9
$DIMSOXD
 70
     0
  9
$DIMSAH
 70
     0
  9
$DIMBLK1
  1

  9
$DIMBLK2
  1

  9
$DIMSTYLE
  2
ISO-25
  9
$DIMCLRD
 70
     0
  9
$DIMCLRE
 70
     0
  9
$DIMCLRT
 70
     0
  9
$DIMTFAC
 40
1.0
  9
$DIMGAP
 40
0.625
  9
$DIMJUST
 70
     0
  9
$DIMSD1
 70
     0
  9
$DIMSD2
 70
     0
  9
$DIMTOLJ
 70
     0
  9
$DIMTZIN
 70
     8
  9
$DIMALTZ
 70
     0
  9
$DIMALTTZ
 70
     0
  9
$DIMUPT
 70
     0
  9
$DIMDEC
 70
     2
  9
$DIMTDEC
 70
     2
  9
$DIMALTU
 70
     2
  9
$DIMALTTD
 70
     3
  9
$DIMTXSTY
  7
Standard
  9
$DIMAUNIT
 70
     0
  9
$DIMADEC
 70
     0
  9
$DIMALTRND
 40
0.0
  9
$DIMAZIN
 70
     0
  9
$DIMDSEP
 70
    44
  9
$DIMATFIT
 70
     3
  9
$DIMFRAC
 70
     0
  9
$DIMLDRBLK
  1

  9
$DIMLUNIT
 70
     2
  9
$DIMLWD
 70
    -2
  9
$DIMLWE
 70
    -2
  9
$DIMTMOVE
 70
     0
  9
$LUNITS
 70
     2
  9
$LUPREC
 70
     4
  9
$SKETCHINC
 40
1.0
  9
$FILLETRAD
 40
10.0
  9
$AUNITS
 70
     0
  9
$AUPREC
 70
     0
  9
$MENU
  1
.
  9
$ELEVATION
 40
0.0
  9
$PELEVATION
 40
0.0
  9
$THICKNESS
 40
0.0
  9
$LIMCHECK
 70
     0
  9
$CHAMFERA
 40
10.0
  9
$CHAMFERB
 40
10.0
  9
$CHAMFERC
 40
20.0
  9
$CHAMFERD
 40
0.0
  9
$SKPOLY
 70
     0
  9
$TDCREATE
 40
2457904.375147419
  9
$TDUCREATE
 40
2457904.000147419
  9
$TDUPDATE
 40
2457904.375147431
  9
$TDUUPDATE
 40
2457904.000147431
  9
$TDINDWG
 40
0.0000000116
  9
$TDUSRTIMER
 40
0.0000000116
  9
$USRTIMER
 70
     1
  9
$ANGBASE
 50
0.0
  9
$ANGDIR
 70
     0
  9
$PDMODE
 70
     0
  9
$PDSIZE
 40
0.0
  9
$PLINEWID
 40
0.0
  9
$SPLFRAME
 70
     0
  9
$SPLINETYPE
 70
     6
  9
$SPLINESEGS
 70
     8
  9
$HANDSEED
  5
3E7
  9
$SURFTAB1
 70
     6
  9
$SURFTAB2
 70
     6
  9
$SURFTYPE
 70
     6
  9
$SURFU
 70
     6
  9
$SURFV
 70
     6
  9
$UCSBASE
  2

  9
$UCSNAME
  2

  9
$UCSORG
 10
0.0
 20
0.0
 30
0.0
  9
$UCSXDIR
 10
1.0
 20
0.0
 30
0.0
  9
$UCSYDIR
 10
0.0
 20
1.0
 30
0.0
  9
$UCSORTHOREF
  2

  9
$UCSORTHOVIEW
 70
     0
  9
$UCSORGTOP
 10
0.0
 20
0.0
 30
0.0
  9
$UCSORGBOTTOM
 10
0.0
 20
0.0
 30
0.0
  9
$UCSORGLEFT
 10
0.0
 20
0.0
 30
0.0
  9
$UCSORGRIGHT
 10
0.0
 20
0.0
 30
0.0
  9
$UCSORGFRONT
 10
0.0
 20
0.0
 30
0.0
  9
$UCSORGBACK
 10
0.0
 20
0.0
 30
0.0
  9
$PUCSBASE
  2

  9
$PUCSNAME
  2

  9
$PUCSORG
 10
0.0
 20
0.0
 30
0.0
  9
$PUCSXDIR
 10
1.0
 20
0.0
 30
0.0
  9
$PUCSYDIR
 10
0.0
 20
1.0
 30
0.0
  9
$PUCSORTHOREF
  2

  9
$PUCSORTHOVIEW
 70
     0
  9
$PUCSORGTOP
 10
0.0
 20
0.0
 30
0.0
  9
$PUCSORGBOTTOM
 10
0.0
 20
0.0
 30
0.0
  9
$PUCSORGLEFT
 10
0.0
 20
0.0
 30
0.0
  9
$PUCSORGRIGHT
 10
0.0
 20
0.0
 30
0.0
  9
$PUCSORGFRONT
 10
0.0
 20
0.0
 30
0.0
  9
$PUCSORGBACK
 10
0.0
 20
0.0
 30
0.0
  9
$USERI1
 70
     0
  9
$USERI2
 70
     0
  9
$USERI3
 70
     0
  9
$USERI4
 70
     0
  9
$USERI5
 70
     0
  9
$USERR1
 40
0.0
  9
$USERR2
 40
0.0
  9
$USERR3
 40
0.0
  9
$USERR4
 40
0.0
  9
$USERR5
 40
0.0
  9
$WORLDVIEW
 70
     1
  9
$SHADEDGE
 70
     3
  9
$SHADEDIF
 70
    70
  9
$TILEMODE
 70
     1
  9
$MAXACTVP
 70
    64
  9
$PINSBASE
 10
0.0
 20
0.0
 30
0.0
  9
$PLIMCHECK
 70
     0
  9
$PEXTMIN
 10
1.000000000000000E+20
 20
1.000000000000000E+20
 30
1.000000000000000E+20
  9
$PEXTMAX
 10
-1.000000000000000E+20
 20
-1.000000000000000E+20
 30
-1.000000000000000E+20
  9
$PLIMMIN
 10
0.0
 20
0.0
  9
$PLIMMAX
 10
420.0
 20
297.0
  9
$UNITMODE
 70
     0
  9
$VISRETAIN
 70
     1
  9
$PLINEGEN
 70
     0
  9
$PSLTSCALE
 70
     1
  9
$TREEDEPTH
 70
  3020
  9
$CMLSTYLE
  2
Standard
  9
$CMLJUST
 70
     0
  9
$CMLSCALE
 40
20.0
  9
$PROXYGRAPHICS
 70
     1
  9
$MEASUREMENT
 70
     1
  9
$CELWEIGHT
370
    -1
  9
$ENDCAPS
280
     0
  9
$JOINSTYLE
280
     0
  9
$LWDISPLAY
290
     0
  9
$INSUNITS
 70
     4
  9
$HYPERLINKBASE
  1

  9
$STYLESHEET
  1

  9
$XEDIT
290
     1
  9
$CEPSNTYPE
380
     0
  9
$PSTYLEMODE
290
     1
  9
$FINGERPRINTGUID
  2
{3C376908-3449-4878-AB2B-5718A4E0E295}
  9
$VERSIONGUID
  2
{FAEB1C32-E019-11D5-929B-00C0DF256EC4}
  9
$EXTNAMES
290
     1
  9
$PSVPSCALE
 40
0.0
  9
$OLESTARTUP
290
     0
  9
$SORTENTS
280
   127
  9
$INDEXCTL
280
     0
  9
$HIDETEXT
280
     1
  9
$XCLIPFRAME
290
     0
  9
$HALOGAP
280
     0
  9
$OBSCOLOR
 70
   257
  9
$OBSLTYPE
280
     0
  9
$INTERSECTIONDISPLAY
280
     0
  9
$INTERSECTIONCOLOR
 70
   257
  9
$DIMASSOC
280
     2
  9
$PROJECTNAME
  1

  0
ENDSEC
  0
SECTION
  2
CLASSES
  0
CLASS
  1
ACDBDICTIONARYWDFLT
  2
AcDbDictionaryWithDefault
  3
ObjectDBX Classes
 90
        0
 91
        4
280
     0
281
     0
  0
CLASS
  1
VISUALSTYLE
  2
AcDbVisualStyle
  3
ObjectDBX Classes
 90
     4095
 91
        4
280
     0
281
     0
  0
ENDSEC
  0
SECTION
  2
TABLES
  0
TABLE
  2
VPORT
  5
8
330
0
100
AcDbSymbolTable
 70
     1
  0
VPORT
  5
29
330
8
100
AcDbSymbolTableRecord
100
AcDbViewportTableRecord
  2
*Active
 70
     0
 10
0.0
 20
0.0
 11
1.0
 21
1.0
 12
0.0
 22
0.0
 13
0.0
 23
0.0
 14
10.0
 24
10.0
 15
10.0
 25
10.0
 16
0.0
 26
0.0
 36
1.0
 17
0.0
 27
0.0
 37
0.0
 40
1633.5
 41
1.414141414141414
 42
50.0
 43
0.0
 44
0.0
 50
0.0
 51
0.0
 71
     0
 72
 10000
 73
     1
 74
     3
 75
     0
 76
     0
 77
     0
 78
     0
281
     0
 65
     1
110
0.0
120
0.0
130
0.0
111
1.0
121
0.0
131
0.0
112
0.0
122
1.0
132
0.0
 79
     0
146
0.0
  0
ENDTAB
  0
TABLE
  2
LTYPE
  5
5
330
0
100
AcDbSymbolTable
 70
     5
  0
LTYPE
  5
14
330
5
100
AcDbSymbolTableRecord
100
AcDbLinetypeTableRecord
  2
ByBlock
 70
     0
  3

 72
    65
 73
     0
 40
0.0
  0
LTYPE
  5
15
330
5
100
AcDbSymbolTableRecord
100
AcDbLinetypeTableRecord
  2
ByLayer
 70
     0
  3

 72
    65
 73
     0
 40
0.0
  0
LTYPE
  5
16
330
5
100
AcDbSymbolTableRecord
100
AcDbLinetypeTableRecord
  2
Continuous
 70
     0
  3
Solid line
 72
    65
 73
     0
 40
0.0
  0
LTYPE
  5
3C
330
5
100
AcDbSymbolTableRecord
100
AcDbLinetypeTableRecord
  2
JWW_DASHED3
 70
     0
  3
---  ------  ------  ------  ---
 72
    65
 73
     2
 40
3.386666666666667
 49
2.54
 74
     0
 49
-0.8466666666666667
 74
     0
  0
LTYPE
  5
3D
330
5
100
AcDbSymbolTableRecord
100
AcDbLinetypeTableRecord
  2
JWW_CENTER1
 70
     0
  3
-----  --  ----------  --  -----
 72
    65
 73
     4
 40
6.773333333333333
 49
4.233333333333333
 74
     0
 49
-0.8466666666666667
 74
     0
 49
0.8466666666666667
 74
     0
 49
-0.8466666666666667
 74
     0
  0
LTYPE
  5
3E
330
5
100
AcDbSymbolTableRecord
100
AcDbLinetypeTableRecord
  2
JWW_CENTER2
 70
     0
  3
-------------  --  -------------
 72
    65
 73
     4
 40
13.54666666666667
 49
11.00666666666667
 74
     0
 49
-0.8466666666666667
 74
     0
 49
0.8466666666666667
 74
     0
 49
-0.8466666666666667
 74
     0
  0
LTYPE
  5
3F
330
5
100
AcDbSymbolTableRecord
100
AcDbLinetypeTableRecord
  2
JWW_PHANTOM1
 70
     0
  3
----  -  -  --------  -  -  ----
 72
    65
 73
     6
 40
6.773333333333333
 49
3.386666666666667
 74
     0
 49
-0.8466666666666667
 74
     0
 49
0.4233333333333333
 74
     0
 49
-0.8466666666666667
 74
     0
 49
0.4233333333333333
 74
     0
 49
-0.8466666666666667
 74
     0
  0
ENDTAB
  0
TABLE
  2
LAYER
  5
2
330
0
100
AcDbSymbolTable
 70
    11
  0
LAYER
  5
10
330
2
100
AcDbSymbolTableRecord
100
AcDbLayerTableRecord
  2
0
 70
     0
 62
     7
  6
Continuous
370
    -3
390
F
  0
LAYER
  5
40
330
2
100
AcDbSymbolTableRecord
100
AcDbLayerTableRecord
  2
0-1
 70
     0
 62
     7
  6
Continuous
370
    -3
390
F
  0
LAYER
  5
41
330
2
100
AcDbSymbolTableRecord
100
AcDbLayerTableRecord
  2
0-2
 70
     0
 62
     7
  6
Continuous
370
    -3
390
F
  0
LAYER
  5
42
330
2
100
AcDbSymbolTableRecord
100
AcDbLayerTableRecord
  2
0-4
 70
     0
 62
     7
  6
Continuous
370
    -3
390
F
  0
LAYER
  5
43
330
2
100
AcDbSymbolTableRecord
100
AcDbLayerTableRecord
  2
D-1
 70
     0
 62
     7
  6
Continuous
370
    -3
390
F
  0
LAYER
  5
44
330
2
100
AcDbSymbolTableRecord
100
AcDbLayerTableRecord
  2
D-2
 70
     0
 62
     7
  6
Continuous
370
    -3
390
F
  0
LAYER
  5
45
330
2
100
AcDbSymbolTableRecord
100
AcDbLayerTableRecord
  2
D-6
 70
     0
 62
     7
  6
Continuous
370
    -3
390
F
  0
LAYER
  5
46
330
2
100
AcDbSymbolTableRecord
100
AcDbLayerTableRecord
  2
D-4
 70
     0
 62
     7
  6
Continuous
370
    -3
390
F
  0
LAYER
  5
47
330
2
100
AcDbSymbolTableRecord
100
AcDbLayerTableRecord
  2
D-0
 70
     0
 62
     7
  6
Continuous
370
    -3
390
F
  0
LAYER
  5
48
330
2
100
AcDbSymbolTableRecord
100
AcDbLayerTableRecord
  2
D-5
 70
     0
 62
     7
  6
Continuous
370
    -3
390
F
  0
LAYER
  5
49
330
2
100
AcDbSymbolTableRecord
100
AcDbLayerTableRecord
  2
F-0
 70
     0
 62
     7
  6
Continuous
370
    -3
390
F
  0
ENDTAB
  0
TABLE
  2
STYLE
  5
3
330
0
100
AcDbSymbolTable
 70
     2
  0
STYLE
  5
11
330
3
100
AcDbSymbolTableRecord
100
AcDbTextStyleTableRecord
  2
Standard
 70
     0
 40
0.0
 41
1.0
 50
0.0
 71
     0
 42
2.5
  3
txt
  4

1001
ACAD
1000

1071
        0
  0
STYLE
  5
3B
330
3
100
AcDbSymbolTableRecord
100
AcDbTextStyleTableRecord
  2
ＭＳ ゴシック
 70
     0
 40
1.0
 41
1.0
 50
0.0
 71
     0
 42
10.0
  3

  4

1001
ACAD
1000
MS Gothic
1071
    32817
  0
ENDTAB
  0
TABLE
  2
VIEW
  5
6
330
0
100
AcDbSymbolTable
 70
     0
  0
ENDTAB
  0
TABLE
  2
UCS
  5
7
330
0
100
AcDbSymbolTable
 70
     0
  0
ENDTAB
  0
TABLE
  2
APPID
  5
9
330
0
100
AcDbSymbolTable
 70
     1
  0
APPID
  5
12
330
9
100
AcDbSymbolTableRecord
100
AcDbRegAppTableRecord
  2
ACAD
 70
     0
  0
ENDTAB
  0
TABLE
  2
DIMSTYLE
  5
A
330
0
100
AcDbSymbolTable
 70
     1
100
AcDbDimStyleTable
  0
DIMSTYLE
105
27
330
A
100
AcDbSymbolTableRecord
100
AcDbDimStyleTableRecord
  2
ISO-25
 70
     0
 41
2.5
 42
0.625
 43
3.75
 44
1.25
 73
     0
 74
     0
 77
     1
 78
     8
140
2.5
141
2.5
143
0.03937007874016
147
0.625
171
     3
172
     1
271
     2
272
     2
274
     3
278
    44
283
     0
284
     8
340
11
  0
ENDTAB
  0
TABLE
  2
BLOCK_RECORD
  5
1
330
0
100
AcDbSymbolTable
 70
     1
  0
BLOCK_RECORD
  5
1F
330
1
100
AcDbSymbolTableRecord
100
AcDbBlockTableRecord
  2
*Model_Space
340
22
  0
BLOCK_RECORD
  5
1B
330
1
100
AcDbSymbolTableRecord
100
AcDbBlockTableRecord
  2
*Paper_Space
340
1E
  0
BLOCK_RECORD
  5
23
330
1
100
AcDbSymbolTableRecord
100
AcDbBlockTableRecord
  2
*Paper_Space0
340
26
  0
ENDTAB
  0
ENDSEC
  0
SECTION
  2
BLOCKS
  0
BLOCK
  5
20
330
1F
100
AcDbEntity
  8
0
100
AcDbBlockBegin
  2
*Model_Space
 70
     0
 10
0.0
 20
0.0
 30
0.0
  3
*Model_Space
  1

  0
ENDBLK
  5
21
330
1F
100
AcDbEntity
  8
0
100
AcDbBlockEnd
  0
BLOCK
  5
1C
330
1B
100
AcDbEntity
 67
     1
  8
0
100
AcDbBlockBegin
  2
*Paper_Space
 70
     0
 10
0.0
 20
0.0
 30
0.0
  3
*Paper_Space
  1

  0
ENDBLK
  5
1D
330
1B
100
AcDbEntity
 67
     1
  8
0
100
AcDbBlockEnd
  0
BLOCK
  5
24
330
23
100
AcDbEntity
  8
0
100
AcDbBlockBegin
  2
*Paper_Space0
 70
     0
 10
0.0
 20
0.0
 30
0.0
  3
*Paper_Space0
  1

  0
ENDBLK
  5
25
330
23
100
AcDbEntity
  8
0
100
AcDbBlockEnd
  0
ENDSEC
  0
SECTION
  2
ENTITIES
  0
LINE
  5
4A
330
1F
100
AcDbEntity
  8
0-1
  6
JWW_DASHED3
 62
     2
370
     9
100
AcDbLine
 10
-162.8710772540117
 20
240.7914610166807
 30
0.0
 11
-162.8710772540117
 21
223.3848736737227
 31
0.0
  0
LINE
  5
4B
330
1F
100
AcDbEntity
  8
0-1
  6
JWW_DASHED3
 62
     2
370
     9
100
AcDbLine
 10
-173.0711034826329
 20
233.4093413481841
 30
0.0
 11
-173.0711034826329
 21
231.1093263368349
 31
0.0
  0
LINE
  5
4C
330
1F
100
AcDbEntity
  8
0-1
  6
JWW_DASHED3
 62
     2
370
     9
100
AcDbLine
 10
-156.8710945747993
 20
238.4092959842167
 30
0.0
 11
-143.8711011731947
 21
238.4092959842167
 31
0.0
  0
LINE
  5
4D
330
1F
100
AcDbEntity
  8
0-1
  6
Continuous
 62
     2
370
     9
100
AcDbLine
 10
-141.8710450868349
 20
261.4093223777978
 30
0.0
 11
-141.8710450868349
 21
240.4092902106208
 31
0.0
  0
LINE
  5
4E
330
1F
100
AcDbEntity
  8
0-1
  6
Continuous
 62
     2
370
     9
100
AcDbLine
 10
-156.8710945747993
 20
263.409316604202
 30
0.0
 11
-143.8711011731947
 21
263.409316604202
 31
0.0
  0
LINE
  5
4F
330
1F
100
AcDbEntity
  8
0-1
  6
JWW_DASHED3
 62
     2
370
     9
100
AcDbLine
 10
-173.0711034826329
 20
233.4093413481841
 30
0.0
 11
-156.8710945747993
 21
233.4093413481841
 31
0.0
  0
LINE
  5
50
330
1F
100
AcDbEntity
  8
0-1
  6
JWW_DASHED3
 62
     2
370
     9
100
AcDbLine
 10
-173.0711034826329
 20
231.1093263368349
 30
0.0
 11
-156.5710737898543
 21
231.1093263368349
 31
0.0
  0
LINE
  5
51
330
1F
100
AcDbEntity
  8
0-1
  6
JWW_DASHED3
 62
     2
370
     9
100
AcDbLine
 10
-599.071049045872
 20
231.1093263368349
 30
0.0
 11
-582.5710502830711
 21
231.1093263368349
 31
0.0
  0
LINE
  5
52
330
1F
100
AcDbEntity
  8
0-1
  6
JWW_DASHED3
 62
     2
370
     9
100
AcDbLine
 10
-599.071049045872
 20
233.4093413481841
 30
0.0
 11
-582.8710401380384
 21
233.4093413481841
 31
0.0
  0
LINE
  5
53
330
1F
100
AcDbEntity
  8
0-2
  6
Continuous
 62
     3
370
     9
100
AcDbLine
 10
-675.8710500356312
 20
-372.5906413310282
 30
0.0
 11
-675.8710500356312
 21
227.4092968090162
 31
0.0
  0
LINE
  5
54
330
1F
100
AcDbEntity
  8
0-2
  6
Continuous
 62
     3
370
     9
100
AcDbLine
 10
-675.8710500356312
 20
227.4092968090162
 30
0.0
 11
-75.87105003563124
 21
227.4092968090162
 31
0.0
  0
LINE
  5
55
330
1F
100
AcDbEntity
  8
0-2
  6
Continuous
 62
     3
370
     9
100
AcDbLine
 10
-75.87105003563124
 20
227.4092968090162
 30
0.0
 11
-75.87105003563124
 21
-372.5906413310282
 31
0.0
  0
LINE
  5
56
330
1F
100
AcDbEntity
  8
0-2
  6
Continuous
 62
     3
370
     9
100
AcDbLine
 10
-75.87105003563124
 20
-372.5906413310282
 30
0.0
 11
-675.8710500356312
 21
-372.5906413310282
 31
0.0
  0
LINE
  5
57
330
1F
100
AcDbEntity
  8
0-1
  6
Continuous
 62
     2
370
     9
100
AcDbLine
 10
-74.87108385240703
 20
-373.5906693742082
 30
0.0
 11
-676.8710471488333
 21
-373.5906693742082
 31
0.0
  0
LINE
  5
58
330
1F
100
AcDbEntity
  8
0-1
  6
Continuous
 62
     2
370
     9
100
AcDbLine
 10
-74.87108385240703
 20
228.409324852196
 30
0.0
 11
-74.87108385240703
 21
-373.5906693742082
 31
0.0
  0
LINE
  5
59
330
1F
100
AcDbEntity
  8
0-1
  6
Continuous
 62
     2
370
     9
100
AcDbLine
 10
-676.8710471488333
 20
228.409324852196
 30
0.0
 11
-74.87108385240703
 21
228.409324852196
 31
0.0
  0
LINE
  5
5A
330
1F
100
AcDbEntity
  8
0-1
  6
Continuous
 62
     2
370
     9
100
AcDbLine
 10
-676.8710471488333
 20
-373.5906693742082
 30
0.0
 11
-676.8710471488333
 21
228.409324852196
 31
0.0
  0
LINE
  5
5B
330
1F
100
AcDbEntity
  8
0-1
  6
Continuous
 62
     2
370
     9
100
AcDbLine
 10
-688.871043437236
 20
240.4092902106208
 30
0.0
 11
-62.87105663402656
 21
240.4092902106208
 31
0.0
  0
LINE
  5
5C
330
1F
100
AcDbEntity
  8
0-1
  6
Continuous
 62
     2
370
     9
100
AcDbLine
 10
-688.871043437236
 20
-385.5906656626108
 30
0.0
 11
-688.871043437236
 21
240.4092902106208
 31
0.0
  0
LINE
  5
5D
330
1F
100
AcDbEntity
  8
0-1
  6
Continuous
 62
     2
370
     9
100
AcDbLine
 10
-62.87105663402656
 20
-385.5906656626108
 30
0.0
 11
-688.871043437236
 21
-385.5906656626108
 31
0.0
  0
LINE
  5
5E
330
1F
100
AcDbEntity
  8
0-1
  6
Continuous
 62
     2
370
     9
100
AcDbLine
 10
-62.87105663402656
 20
240.4092902106208
 30
0.0
 11
-62.87105663402656
 21
-385.5906656626108
 31
0.0
  0
LINE
  5
5F
330
1F
100
AcDbEntity
  8
0-1
  6
JWW_DASHED3
 62
     2
370
     9
100
AcDbLine
 10
-650.871060345624
 20
202.4093380489866
 30
0.0
 11
-100.8710706556165
 21
202.4093380489866
 31
0.0
  0
LINE
  5
60
330
1F
100
AcDbEntity
  8
0-1
  6
JWW_DASHED3
 62
     2
370
     9
100
AcDbLine
 10
-650.871060345624
 20
-347.5906516410209
 30
0.0
 11
-650.871060345624
 21
202.4093380489866
 31
0.0
  0
LINE
  5
61
330
1F
100
AcDbEntity
  8
0-1
  6
JWW_DASHED3
 62
     2
370
     9
100
AcDbLine
 10
-100.8710706556165
 20
-347.5906516410209
 30
0.0
 11
-650.871060345624
 21
-347.5906516410209
 31
0.0
  0
LINE
  5
62
330
1F
100
AcDbEntity
  8
0-1
  6
JWW_DASHED3
 62
     2
370
     9
100
AcDbLine
 10
-100.8710706556165
 20
202.4093380489866
 30
0.0
 11
-100.8710706556165
 21
-347.5906516410209
 31
0.0
  0
LINE
  5
63
330
1F
100
AcDbEntity
  8
0-2
  6
Continuous
 62
     3
370
     9
100
AcDbLine
 10
-670.8710335396432
 20
222.4093421729836
 30
0.0
 11
-80.87106653161939
 21
222.4093421729836
 31
0.0
  0
LINE
  5
64
330
1F
100
AcDbEntity
  8
0-2
  6
Continuous
 62
     3
370
     9
100
AcDbLine
 10
-670.8710335396432
 20
-367.5906557650179
 30
0.0
 11
-670.8710335396432
 21
222.4093421729836
 31
0.0
  0
LINE
  5
65
330
1F
100
AcDbEntity
  8
0-2
  6
Continuous
 62
     3
370
     9
100
AcDbLine
 10
-80.87106653161939
 20
-367.5906557650179
 30
0.0
 11
-670.8710335396432
 21
-367.5906557650179
 31
0.0
  0
LINE
  5
66
330
1F
100
AcDbEntity
  8
0-2
  6
Continuous
 62
     3
370
     9
100
AcDbLine
 10
-80.87106653161939
 20
222.4093421729836
 30
0.0
 11
-80.87106653161939
 21
-367.5906557650179
 31
0.0
  0
LINE
  5
67
330
1F
100
AcDbEntity
  8
0-1
  6
Continuous
 62
     2
370
     9
100
AcDbLine
 10
-582.8710401380384
 20
263.409316604202
 30
0.0
 11
-569.8710467364336
 21
263.409316604202
 31
0.0
  0
LINE
  5
68
330
1F
100
AcDbEntity
  8
0-1
  6
Continuous
 62
     2
370
     9
100
AcDbLine
 10
-567.8710525100296
 20
261.4093223777978
 30
0.0
 11
-567.8710525100296
 21
240.4092902106208
 31
0.0
  0
LINE
  5
69
330
1F
100
AcDbEntity
  8
0-1
  6
JWW_DASHED3
 62
     2
370
     9
100
AcDbLine
 10
-582.8710401380384
 20
238.4092959842167
 30
0.0
 11
-569.8710467364336
 21
238.4092959842167
 31
0.0
  0
LINE
  5
6A
330
1F
100
AcDbEntity
  8
0-1
  6
JWW_DASHED3
 62
     2
370
     9
100
AcDbLine
 10
-599.071049045872
 20
233.4093413481841
 30
0.0
 11
-599.071049045872
 21
231.1093263368349
 31
0.0
  0
LINE
  5
6B
330
1F
100
AcDbEntity
  8
0-1
  6
JWW_DASHED3
 62
     2
370
     9
100
AcDbLine
 10
-588.8710537472286
 20
240.7914610166807
 30
0.0
 11
-588.8710537472286
 21
223.3848736737227
 31
0.0
  0
LINE
  5
6C
330
1F
100
AcDbEntity
  8
0-1
  6
JWW_DASHED3
 62
     2
370
     9
100
AcDbLine
 10
-582.8710401380384
 20
240.4092902106208
 30
0.0
 11
-582.8710401380384
 21
233.4093413481841
 31
0.0
  0
LINE
  5
6D
330
1F
100
AcDbEntity
  8
0-1
  6
JWW_DASHED3
 62
     2
370
     9
100
AcDbLine
 10
-580.571056056667
 20
240.4092902106208
 30
0.0
 11
-580.571056056667
 21
233.1093205632391
 31
0.0
  0
LINE
  5
6E
330
1F
100
AcDbEntity
  8
0-1
  6
Continuous
 62
     2
370
     9
100
AcDbLine
 10
-582.8710401380384
 20
263.409316604202
 30
0.0
 11
-582.8710401380384
 21
240.4092902106208
 31
0.0
  0
LINE
  5
6F
330
1F
100
AcDbEntity
  8
0-1
  6
Continuous
 62
     2
370
     9
100
AcDbLine
 10
-580.571056056667
 20
263.409316604202
 30
0.0
 11
-580.571056056667
 21
240.4092902106208
 31
0.0
  0
LINE
  5
70
330
1F
100
AcDbEntity
  8
0-1
  6
JWW_DASHED3
 62
     2
370
     9
100
AcDbLine
 10
-156.8710945747993
 20
240.4092902106208
 30
0.0
 11
-156.8710945747993
 21
233.4093413481841
 31
0.0
  0
LINE
  5
71
330
1F
100
AcDbEntity
  8
0-1
  6
JWW_DASHED3
 62
     2
370
     9
100
AcDbLine
 10
-154.5710795634501
 20
240.4092902106208
 30
0.0
 11
-154.5710795634501
 21
233.1093205632391
 31
0.0
  0
LINE
  5
72
330
1F
100
AcDbEntity
  8
0-1
  6
Continuous
 62
     2
370
     9
100
AcDbLine
 10
-156.8710945747993
 20
263.409316604202
 30
0.0
 11
-156.8710945747993
 21
240.4092902106208
 31
0.0
  0
LINE
  5
73
330
1F
100
AcDbEntity
  8
0-1
  6
Continuous
 62
     2
370
     9
100
AcDbLine
 10
-154.5710795634501
 20
263.409316604202
 30
0.0
 11
-154.5710795634501
 21
240.4092902106208
 31
0.0
  0
LINE
  5
74
330
1F
100
AcDbEntity
  8
0-1
  6
JWW_DASHED3
 62
     2
370
     9
100
AcDbLine
 10
-689.2531523833404
 20
140.4093314505913
 30
0.0
 11
-671.8465650403822
 21
140.4093314505913
 31
0.0
  0
LINE
  5
75
330
1F
100
AcDbEntity
  8
0-1
  6
JWW_DASHED3
 62
     2
370
     9
100
AcDbLine
 10
-681.8710327148438
 20
130.2093052219701
 30
0.0
 11
-679.5710177034946
 21
130.2093052219701
 31
0.0
  0
LINE
  5
76
330
1F
100
AcDbEntity
  8
0-1
  6
JWW_DASHED3
 62
     2
370
     9
100
AcDbLine
 10
-686.8709873508762
 20
146.4093141298036
 30
0.0
 11
-686.8709873508762
 21
159.4093075314085
 31
0.0
  0
LINE
  5
77
330
1F
100
AcDbEntity
  8
0-1
  6
Continuous
 62
     2
370
     9
100
AcDbLine
 10
-709.8710137444573
 20
161.4093636177682
 30
0.0
 11
-688.8709815772804
 21
161.4093636177682
 31
0.0
  0
LINE
  5
78
330
1F
100
AcDbEntity
  8
0-1
  6
Continuous
 62
     2
370
     9
100
AcDbLine
 10
-711.8710079708615
 20
146.4093141298036
 30
0.0
 11
-711.8710079708615
 21
159.4093075314085
 31
0.0
  0
LINE
  5
79
330
1F
100
AcDbEntity
  8
0-1
  6
JWW_DASHED3
 62
     2
370
     9
100
AcDbLine
 10
-681.8710327148438
 20
130.2093052219701
 30
0.0
 11
-681.8710327148438
 21
146.4093141298036
 31
0.0
  0
LINE
  5
7A
330
1F
100
AcDbEntity
  8
0-1
  6
JWW_DASHED3
 62
     2
370
     9
100
AcDbLine
 10
-679.5710177034946
 20
130.2093052219701
 30
0.0
 11
-679.5710177034946
 21
146.7093349147488
 31
0.0
  0
LINE
  5
7B
330
1F
100
AcDbEntity
  8
0-1
  6
JWW_DASHED3
 62
     2
370
     9
100
AcDbLine
 10
-679.5710177034946
 20
-295.790640341269
 30
0.0
 11
-679.5710177034946
 21
-279.2906415784681
 31
0.0
  0
LINE
  5
7C
330
1F
100
AcDbEntity
  8
0-1
  6
JWW_DASHED3
 62
     2
370
     9
100
AcDbLine
 10
-681.8710327148438
 20
-295.790640341269
 30
0.0
 11
-681.8710327148438
 21
-279.5906314334354
 31
0.0
  0
LINE
  5
7D
330
1F
100
AcDbEntity
  8
0-1
  6
Continuous
 62
     2
370
     9
100
AcDbLine
 10
-711.8710079708615
 20
-279.5906314334354
 30
0.0
 11
-711.8710079708615
 21
-266.5906380318307
 31
0.0
  0
LINE
  5
7E
330
1F
100
AcDbEntity
  8
0-1
  6
Continuous
 62
     2
370
     9
100
AcDbLine
 10
-709.8710137444573
 20
-264.5906438054265
 30
0.0
 11
-688.8709815772804
 21
-264.5906438054265
 31
0.0
  0
LINE
  5
7F
330
1F
100
AcDbEntity
  8
0-1
  6
JWW_DASHED3
 62
     2
370
     9
100
AcDbLine
 10
-686.8709873508762
 20
-279.5906314334354
 30
0.0
 11
-686.8709873508762
 21
-266.5906380318307
 31
0.0
  0
LINE
  5
80
330
1F
100
AcDbEntity
  8
0-1
  6
JWW_DASHED3
 62
     2
370
     9
100
AcDbLine
 10
-681.8710327148438
 20
-295.790640341269
 30
0.0
 11
-679.5710177034946
 21
-295.790640341269
 31
0.0
  0
LINE
  5
81
330
1F
100
AcDbEntity
  8
0-1
  6
JWW_DASHED3
 62
     2
370
     9
100
AcDbLine
 10
-689.2531523833404
 20
-285.5906450426256
 30
0.0
 11
-671.8465650403822
 21
-285.5906450426256
 31
0.0
  0
LINE
  5
82
330
1F
100
AcDbEntity
  8
0-1
  6
JWW_DASHED3
 62
     2
370
     9
100
AcDbLine
 10
-688.8709815772804
 20
-279.5906314334354
 30
0.0
 11
-681.8710327148438
 21
-279.5906314334354
 31
0.0
  0
LINE
  5
83
330
1F
100
AcDbEntity
  8
0-1
  6
JWW_DASHED3
 62
     2
370
     9
100
AcDbLine
 10
-688.8709815772804
 20
-277.290647352064
 30
0.0
 11
-681.5710119298988
 21
-277.290647352064
 31
0.0
  0
LINE
  5
84
330
1F
100
AcDbEntity
  8
0-1
  6
Continuous
 62
     2
370
     9
100
AcDbLine
 10
-711.8710079708615
 20
-279.5906314334354
 30
0.0
 11
-688.8709815772804
 21
-279.5906314334354
 31
0.0
  0
LINE
  5
85
330
1F
100
AcDbEntity
  8
0-1
  6
Continuous
 62
     2
370
     9
100
AcDbLine
 10
-711.8710079708615
 20
-277.290647352064
 30
0.0
 11
-688.8709815772804
 21
-277.290647352064
 31
0.0
  0
LINE
  5
86
330
1F
100
AcDbEntity
  8
0-1
  6
JWW_DASHED3
 62
     2
370
     9
100
AcDbLine
 10
-688.8709815772804
 20
146.4093141298036
 30
0.0
 11
-681.8710327148438
 21
146.4093141298036
 31
0.0
  0
LINE
  5
87
330
1F
100
AcDbEntity
  8
0-1
  6
JWW_DASHED3
 62
     2
370
     9
100
AcDbLine
 10
-688.8709815772804
 20
148.7093291411529
 30
0.0
 11
-681.5710119298988
 21
148.7093291411529
 31
0.0
  0
LINE
  5
88
330
1F
100
AcDbEntity
  8
0-1
  6
Continuous
 62
     2
370
     9
100
AcDbLine
 10
-711.8710079708615
 20
146.4093141298036
 30
0.0
 11
-688.8709815772804
 21
146.4093141298036
 31
0.0
  0
LINE
  5
89
330
1F
100
AcDbEntity
  8
0-1
  6
Continuous
 62
     2
370
     9
100
AcDbLine
 10
-711.8710079708615
 20
148.7093291411529
 30
0.0
 11
-688.8709815772804
 21
148.7093291411529
 31
0.0
  0
LINE
  5
8A
330
1F
100
AcDbEntity
  8
0-1
  6
JWW_DASHED3
 62
     2
370
     9
100
AcDbLine
 10
-588.8710228172508
 20
-385.9727436787373
 30
0.0
 11
-588.8710228172508
 21
-368.5661563357791
 31
0.0
  0
LINE
  5
8B
330
1F
100
AcDbEntity
  8
0-1
  6
JWW_DASHED3
 62
     2
370
     9
100
AcDbLine
 10
-578.6709965886296
 20
-378.5906240102407
 30
0.0
 11
-578.6709965886296
 21
-376.2906089988915
 31
0.0
  0
LINE
  5
8C
330
1F
100
AcDbEntity
  8
0-1
  6
JWW_DASHED3
 62
     2
370
     9
100
AcDbLine
 10
-594.8710054964632
 20
-383.5905786462732
 30
0.0
 11
-607.8709988980679
 21
-383.5905786462732
 31
0.0
  0
LINE
  5
8D
330
1F
100
AcDbEntity
  8
0-1
  6
Continuous
 62
     2
370
     9
100
AcDbLine
 10
-609.8710549844277
 20
-406.5906050398543
 30
0.0
 11
-609.8710549844277
 21
-385.5905728726773
 31
0.0
  0
LINE
  5
8E
330
1F
100
AcDbEntity
  8
0-1
  6
Continuous
 62
     2
370
     9
100
AcDbLine
 10
-594.8710054964632
 20
-408.5905992662584
 30
0.0
 11
-607.8709988980679
 21
-408.5905992662584
 31
0.0
  0
LINE
  5
8F
330
1F
100
AcDbEntity
  8
0-1
  6
JWW_DASHED3
 62
     2
370
     9
100
AcDbLine
 10
-578.6709965886296
 20
-378.5906240102407
 30
0.0
 11
-594.8710054964632
 21
-378.5906240102407
 31
0.0
  0
LINE
  5
90
330
1F
100
AcDbEntity
  8
0-1
  6
JWW_DASHED3
 62
     2
370
     9
100
AcDbLine
 10
-578.6709965886296
 20
-376.2906089988915
 30
0.0
 11
-595.1710262814083
 21
-376.2906089988915
 31
0.0
  0
LINE
  5
91
330
1F
100
AcDbEntity
  8
0-1
  6
JWW_DASHED3
 62
     2
370
     9
100
AcDbLine
 10
-152.6710510253906
 20
-376.2906089988915
 30
0.0
 11
-169.1710188582137
 21
-376.2906089988915
 31
0.0
  0
LINE
  5
92
330
1F
100
AcDbEntity
  8
0-1
  6
JWW_DASHED3
 62
     2
370
     9
100
AcDbLine
 10
-152.6710510253906
 20
-378.5906240102407
 30
0.0
 11
-168.8710599332242
 21
-378.5906240102407
 31
0.0
  0
LINE
  5
93
330
1F
100
AcDbEntity
  8
0-1
  6
Continuous
 62
     2
370
     9
100
AcDbLine
 10
-168.8710599332242
 20
-408.5905992662584
 30
0.0
 11
-181.8710533348289
 21
-408.5905992662584
 31
0.0
  0
LINE
  5
94
330
1F
100
AcDbEntity
  8
0-1
  6
Continuous
 62
     2
370
     9
100
AcDbLine
 10
-183.8710475612331
 20
-406.5906050398543
 30
0.0
 11
-183.8710475612331
 21
-385.5905728726773
 31
0.0
  0
LINE
  5
95
330
1F
100
AcDbEntity
  8
0-1
  6
JWW_DASHED3
 62
     2
370
     9
100
AcDbLine
 10
-168.8710599332242
 20
-383.5905786462732
 30
0.0
 11
-181.8710533348289
 21
-383.5905786462732
 31
0.0
  0
LINE
  5
96
330
1F
100
AcDbEntity
  8
0-1
  6
JWW_DASHED3
 62
     2
370
     9
100
AcDbLine
 10
-152.6710510253906
 20
-378.5906240102407
 30
0.0
 11
-152.6710510253906
 21
-376.2906089988915
 31
0.0
  0
LINE
  5
97
330
1F
100
AcDbEntity
  8
0-1
  6
JWW_DASHED3
 62
     2
370
     9
100
AcDbLine
 10
-162.8710772540117
 20
-385.9727436787373
 30
0.0
 11
-162.8710772540117
 21
-368.5661563357791
 31
0.0
  0
LINE
  5
98
330
1F
100
AcDbEntity
  8
0-1
  6
JWW_DASHED3
 62
     2
370
     9
100
AcDbLine
 10
-168.8710599332242
 20
-385.5905728726773
 30
0.0
 11
-168.8710599332242
 21
-378.5906240102407
 31
0.0
  0
LINE
  5
99
330
1F
100
AcDbEntity
  8
0-1
  6
JWW_DASHED3
 62
     2
370
     9
100
AcDbLine
 10
-171.1710749445734
 20
-385.5905728726773
 30
0.0
 11
-171.1710749445734
 21
-378.2906032252956
 31
0.0
  0
LINE
  5
9A
330
1F
100
AcDbEntity
  8
0-1
  6
Continuous
 62
     2
370
     9
100
AcDbLine
 10
-168.8710599332242
 20
-408.5905992662584
 30
0.0
 11
-168.8710599332242
 21
-385.5905728726773
 31
0.0
  0
LINE
  5
9B
330
1F
100
AcDbEntity
  8
0-1
  6
Continuous
 62
     2
370
     9
100
AcDbLine
 10
-171.1710749445734
 20
-408.5905992662584
 30
0.0
 11
-171.1710749445734
 21
-385.5905728726773
 31
0.0
  0
LINE
  5
9C
330
1F
100
AcDbEntity
  8
0-1
  6
JWW_DASHED3
 62
     2
370
     9
100
AcDbLine
 10
-594.8710054964632
 20
-385.5905728726773
 30
0.0
 11
-594.8710054964632
 21
-378.5906240102407
 31
0.0
  0
LINE
  5
9D
330
1F
100
AcDbEntity
  8
0-1
  6
JWW_DASHED3
 62
     2
370
     9
100
AcDbLine
 10
-597.1710205078125
 20
-385.5905728726773
 30
0.0
 11
-597.1710205078125
 21
-378.2906032252956
 31
0.0
  0
LINE
  5
9E
330
1F
100
AcDbEntity
  8
0-1
  6
Continuous
 62
     2
370
     9
100
AcDbLine
 10
-594.8710054964632
 20
-408.5905992662584
 30
0.0
 11
-594.8710054964632
 21
-385.5905728726773
 31
0.0
  0
LINE
  5
9F
330
1F
100
AcDbEntity
  8
0-1
  6
Continuous
 62
     2
370
     9
100
AcDbLine
 10
-597.1710205078125
 20
-408.5905992662584
 30
0.0
 11
-597.1710205078125
 21
-385.5905728726773
 31
0.0
  0
LINE
  5
A0
330
1F
100
AcDbEntity
  8
0-1
  6
JWW_DASHED3
 62
     2
370
     9
100
AcDbLine
 10
-62.48894768792226
 20
-285.5906141126478
 30
0.0
 11
-79.89553503088047
 21
-285.5906141126478
 31
0.0
  0
LINE
  5
A1
330
1F
100
AcDbEntity
  8
0-1
  6
JWW_DASHED3
 62
     2
370
     9
100
AcDbLine
 10
-69.87106735641888
 20
-275.3905878840266
 30
0.0
 11
-72.1710823677681
 21
-275.3905878840266
 31
0.0
  0
LINE
  5
A2
330
1F
100
AcDbEntity
  8
0-1
  6
JWW_DASHED3
 62
     2
370
     9
100
AcDbLine
 10
-64.87111272038632
 20
-291.5905967918602
 30
0.0
 11
-64.87111272038632
 21
-304.5905901934649
 31
0.0
  0
LINE
  5
A3
330
1F
100
AcDbEntity
  8
0-1
  6
Continuous
 62
     2
370
     9
100
AcDbLine
 10
-41.8710863268052
 20
-306.5906462798247
 30
0.0
 11
-62.87111849398215
 21
-306.5906462798247
 31
0.0
  0
LINE
  5
A4
330
1F
100
AcDbEntity
  8
0-1
  6
Continuous
 62
     2
370
     9
100
AcDbLine
 10
-39.87109210040117
 20
-291.5905967918602
 30
0.0
 11
-39.87109210040117
 21
-304.5905901934649
 31
0.0
  0
LINE
  5
A5
330
1F
100
AcDbEntity
  8
0-1
  6
JWW_DASHED3
 62
     2
370
     9
100
AcDbLine
 10
-69.87106735641888
 20
-275.3905878840266
 30
0.0
 11
-69.87106735641888
 21
-291.5905967918602
 31
0.0
  0
LINE
  5
A6
330
1F
100
AcDbEntity
  8
0-1
  6
JWW_DASHED3
 62
     2
370
     9
100
AcDbLine
 10
-72.1710823677681
 20
-275.3905878840266
 30
0.0
 11
-72.1710823677681
 21
-291.8906175768053
 31
0.0
  0
LINE
  5
A7
330
1F
100
AcDbEntity
  8
0-1
  6
JWW_DASHED3
 62
     2
370
     9
100
AcDbLine
 10
-72.1710823677681
 20
150.6093576792125
 30
0.0
 11
-72.1710823677681
 21
134.1093898463895
 31
0.0
  0
LINE
  5
A8
330
1F
100
AcDbEntity
  8
0-1
  6
JWW_DASHED3
 62
     2
370
     9
100
AcDbLine
 10
-69.87106735641888
 20
150.6093576792125
 30
0.0
 11
-69.87106735641888
 21
134.4093487713789
 31
0.0
  0
LINE
  5
A9
330
1F
100
AcDbEntity
  8
0-1
  6
Continuous
 62
     2
370
     9
100
AcDbLine
 10
-39.87109210040117
 20
134.4093487713789
 30
0.0
 11
-39.87109210040117
 21
121.4093553697741
 31
0.0
  0
LINE
  5
AA
330
1F
100
AcDbEntity
  8
0-1
  6
Continuous
 62
     2
370
     9
100
AcDbLine
 10
-41.8710863268052
 20
119.4093611433699
 30
0.0
 11
-62.87111849398215
 21
119.4093611433699
 31
0.0
  0
LINE
  5
AB
330
1F
100
AcDbEntity
  8
0-1
  6
JWW_DASHED3
 62
     2
370
     9
100
AcDbLine
 10
-64.87111272038632
 20
134.4093487713789
 30
0.0
 11
-64.87111272038632
 21
121.4093553697741
 31
0.0
  0
LINE
  5
AC
330
1F
100
AcDbEntity
  8
0-1
  6
JWW_DASHED3
 62
     2
370
     9
100
AcDbLine
 10
-69.87106735641888
 20
150.6093576792125
 30
0.0
 11
-72.1710823677681
 21
150.6093576792125
 31
0.0
  0
LINE
  5
AD
330
1F
100
AcDbEntity
  8
0-1
  6
JWW_DASHED3
 62
     2
370
     9
100
AcDbLine
 10
-62.48894768792226
 20
140.4093314505913
 30
0.0
 11
-79.89553503088047
 21
140.4093314505913
 31
0.0
  0
LINE
  5
AE
330
1F
100
AcDbEntity
  8
0-1
  6
JWW_DASHED3
 62
     2
370
     9
100
AcDbLine
 10
-62.87111849398215
 20
134.4093487713789
 30
0.0
 11
-69.87106735641888
 21
134.4093487713789
 31
0.0
  0
LINE
  5
AF
330
1F
100
AcDbEntity
  8
0-1
  6
JWW_DASHED3
 62
     2
370
     9
100
AcDbLine
 10
-62.87111849398215
 20
132.1093337600296
 30
0.0
 11
-70.17108814136392
 21
132.1093337600296
 31
0.0
  0
LINE
  5
B0
330
1F
100
AcDbEntity
  8
0-1
  6
Continuous
 62
     2
370
     9
100
AcDbLine
 10
-39.87109210040117
 20
134.4093487713789
 30
0.0
 11
-62.87111849398215
 21
134.4093487713789
 31
0.0
  0
LINE
  5
B1
330
1F
100
AcDbEntity
  8
0-1
  6
Continuous
 62
     2
370
     9
100
AcDbLine
 10
-39.87109210040117
 20
132.1093337600296
 30
0.0
 11
-62.87111849398215
 21
132.1093337600296
 31
0.0
  0
LINE
  5
B2
330
1F
100
AcDbEntity
  8
0-1
  6
JWW_DASHED3
 62
     2
370
     9
100
AcDbLine
 10
-62.87111849398215
 20
-291.5905967918602
 30
0.0
 11
-69.87106735641888
 21
-291.5905967918602
 31
0.0
  0
LINE
  5
B3
330
1F
100
AcDbEntity
  8
0-1
  6
JWW_DASHED3
 62
     2
370
     9
100
AcDbLine
 10
-62.87111849398215
 20
-293.8906118032094
 30
0.0
 11
-70.17108814136392
 21
-293.8906118032094
 31
0.0
  0
LINE
  5
B4
330
1F
100
AcDbEntity
  8
0-1
  6
Continuous
 62
     2
370
     9
100
AcDbLine
 10
-39.87109210040117
 20
-291.5905967918602
 30
0.0
 11
-62.87111849398215
 21
-291.5905967918602
 31
0.0
  0
LINE
  5
B5
330
1F
100
AcDbEntity
  8
0-1
  6
Continuous
 62
     2
370
     9
100
AcDbLine
 10
-39.87109210040117
 20
-293.8906118032094
 30
0.0
 11
-62.87111849398215
 21
-293.8906118032094
 31
0.0
  0
LINE
  5
B6
330
1F
100
AcDbEntity
  8
0-2
  6
Continuous
 62
     3
370
     9
100
AcDbLine
 10
-565.3709824020798
 20
-118.5906941181904
 30
0.0
 11
-596.3709857012774
 21
-118.5906941181904
 31
0.0
  0
LINE
  5
B7
330
1F
100
AcDbEntity
  8
0-2
  6
Continuous
 62
     3
370
     9
100
AcDbLine
 10
-563.3710191056534
 20
-28.59058277027017
 30
0.0
 11
-563.3710191056534
 21
-116.5906998917863
 31
0.0
  0
LINE
  5
B8
330
1F
100
AcDbEntity
  8
0-2
  6
Continuous
 62
     3
370
     9
100
AcDbLine
 10
-598.371072717615
 20
-28.59058277027017
 30
0.0
 11
-598.371072717615
 21
-116.5906998917863
 31
0.0
  0
LINE
  5
B9
330
1F
100
AcDbEntity
  8
0-2
  6
Continuous
 62
     3
370
     9
100
AcDbLine
 10
-596.3709857012774
 20
-26.59058854386615
 30
0.0
 11
-565.3709824020798
 21
-26.59058854386615
 31
0.0
  0
LINE
  5
BA
330
1F
100
AcDbEntity
  8
0-2
  6
Continuous
 62
     3
370
     9
100
AcDbLine
 10
-586.9711179991026
 20
-42.19067960172083
 30
0.0
 11
-586.9711179991026
 21
-102.990726780247
 31
0.0
  0
LINE
  5
BB
330
1F
100
AcDbEntity
  8
0-2
  6
Continuous
 62
     3
370
     9
100
AcDbLine
 10
-576.9709922171928
 20
-39.99063027871614
 30
0.0
 11
-584.7710996060757
 21
-39.99063027871614
 31
0.0
  0
LINE
  5
BC
330
1F
100
AcDbEntity
  8
0-2
  6
Continuous
 62
     3
370
     9
100
AcDbLine
 10
-576.9709922171928
 20
-105.190714243296
 30
0.0
 11
-584.7710996060757
 21
-105.190714243296
 31
0.0
  0
LINE
  5
BD
330
1F
100
AcDbEntity
  8
0-2
  6
Continuous
 62
     3
370
     9
100
AcDbLine
 10
-574.7711594040329
 20
-102.990726780247
 30
0.0
 11
-574.7711594040329
 21
-42.19067960172083
 31
0.0
  0
LINE
  5
BE
330
1F
100
AcDbEntity
  8
0-2
  6
JWW_CENTER1
 62
     3
370
     9
100
AcDbLine
 10
-602.683856036212
 20
-72.59064133102825
 30
0.0
 11
-560.0249213141363
 21
-72.59064133102825
 31
0.0
  0
LINE
  5
BF
330
1F
100
AcDbEntity
  8
0-2
  6
JWW_CENTER1
 62
     3
370
     9
100
AcDbLine
 10
-580.8710459116343
 20
-123.8700701739337
 30
0.0
 11
-580.8710459116343
 21
-22.65957394161731
 31
0.0
  0
LINE
  5
C0
330
1F
100
AcDbEntity
  8
0-2
  6
Continuous
 62
     3
370
     9
100
AcDbLine
 10
-155.3709906500738
 20
-118.5906941181904
 30
0.0
 11
-186.3709939492715
 21
-118.5906941181904
 31
0.0
  0
LINE
  5
C1
330
1F
100
AcDbEntity
  8
0-2
  6
Continuous
 62
     3
370
     9
100
AcDbLine
 10
-153.3709964236697
 20
-28.59058277027017
 30
0.0
 11
-153.3709964236697
 21
-116.5906998917863
 31
0.0
  0
LINE
  5
C2
330
1F
100
AcDbEntity
  8
0-2
  6
Continuous
 62
     3
370
     9
100
AcDbLine
 10
-188.371111895587
 20
-28.59058277027017
 30
0.0
 11
-188.371111895587
 21
-116.5906998917863
 31
0.0
  0
LINE
  5
C3
330
1F
100
AcDbEntity
  8
0-2
  6
Continuous
 62
     3
370
     9
100
AcDbLine
 10
-186.3709939492715
 20
-26.59058854386615
 30
0.0
 11
-155.3709906500738
 21
-26.59058854386615
 31
0.0
  0
LINE
  5
C4
330
1F
100
AcDbEntity
  8
0-2
  6
Continuous
 62
     3
370
     9
100
AcDbLine
 10
-176.9711262470966
 20
-42.19067960172083
 30
0.0
 11
-176.9711262470966
 21
-102.990726780247
 31
0.0
  0
LINE
  5
C5
330
1F
100
AcDbEntity
  8
0-2
  6
Continuous
 62
     3
370
     9
100
AcDbLine
 10
-166.9710313951647
 20
-39.99063027871614
 30
0.0
 11
-174.7710769240921
 21
-39.99063027871614
 31
0.0
  0
LINE
  5
C6
330
1F
100
AcDbEntity
  8
0-2
  6
Continuous
 62
     3
370
     9
100
AcDbLine
 10
-166.9710313951647
 20
-105.190714243296
 30
0.0
 11
-174.7710769240921
 21
-105.190714243296
 31
0.0
  0
LINE
  5
C7
330
1F
100
AcDbEntity
  8
0-2
  6
Continuous
 62
     3
370
     9
100
AcDbLine
 10
-164.7711676520269
 20
-102.990726780247
 30
0.0
 11
-164.7711676520269
 21
-42.19067960172083
 31
0.0
  0
LINE
  5
C8
330
1F
100
AcDbEntity
  8
0-2
  6
JWW_CENTER1
 62
     3
370
     9
100
AcDbLine
 10
-192.683864284206
 20
-72.59064133102825
 30
0.0
 11
-150.0249295621305
 21
-72.59064133102825
 31
0.0
  0
LINE
  5
C9
330
1F
100
AcDbEntity
  8
0-2
  6
JWW_CENTER1
 62
     3
370
     9
100
AcDbLine
 10
-170.8710541596284
 20
-123.8700701739337
 30
0.0
 11
-170.8710541596284
 21
-22.65957394161731
 31
0.0
  0
LINE
  5
CA
330
1F
100
AcDbEntity
  8
0-4
  6
Continuous
 62
     7
370
     9
100
AcDbLine
 10
-650.871060345624
 20
287.8167188489761
 30
0.0
 11
-100.8710706556165
 21
287.8167188489761
 31
0.0
  0
LINE
  5
CB
330
1F
100
AcDbEntity
  8
0-4
  6
Continuous
 62
     7
370
     9
100
AcDbLine
 10
-650.871060345624
 20
211.5566934121622
 30
0.0
 11
-650.871060345624
 21
289.3166990537902
 31
0.0
  0
LINE
  5
CC
330
1F
100
AcDbEntity
  8
0-4
  6
Continuous
 62
     7
370
     9
100
AcDbLine
 10
-100.8710706556165
 20
211.5566934121622
 30
0.0
 11
-100.8710706556165
 21
289.3166990537902
 31
0.0
  0
LINE
  5
CD
330
1F
100
AcDbEntity
  8
0-4
  6
Continuous
 62
     7
370
     9
100
AcDbLine
 10
-675.8710500356312
 20
327.3085475612332
 30
0.0
 11
-75.87105003563124
 21
327.3085475612332
 31
0.0
  0
LINE
  5
CE
330
1F
100
AcDbEntity
  8
0-4
  6
Continuous
 62
     7
370
     9
100
AcDbLine
 10
-675.8710500356312
 20
237.4306096257391
 30
0.0
 11
-675.8710500356312
 21
328.8085277660474
 31
0.0
  0
LINE
  5
CF
330
1F
100
AcDbEntity
  8
0-4
  6
Continuous
 62
     7
370
     9
100
AcDbLine
 10
-75.87105003563124
 20
237.4306096257391
 30
0.0
 11
-75.87105003563124
 21
328.8085277660474
 31
0.0
  0
LINE
  5
D0
330
1F
100
AcDbEntity
  8
0-4
  6
Continuous
 62
     7
370
     9
100
AcDbLine
 10
-688.871043437236
 20
359.3731606973185
 30
0.0
 11
-62.87105663402656
 21
359.3731606973185
 31
0.0
  0
LINE
  5
D1
330
1F
100
AcDbEntity
  8
0-4
  6
Continuous
 62
     7
370
     9
100
AcDbLine
 10
-688.871043437236
 20
251.3693897144215
 30
0.0
 11
-688.871043437236
 21
360.8731409021327
 31
0.0
  0
LINE
  5
D2
330
1F
100
AcDbEntity
  8
0-4
  6
Continuous
 62
     7
370
     9
100
AcDbLine
 10
-62.87105663402656
 20
251.3693897144215
 30
0.0
 11
-62.87105663402656
 21
360.8731409021327
 31
0.0
  0
LINE
  5
D3
330
1F
100
AcDbEntity
  8
0-4
  6
Continuous
 62
     7
370
     9
100
AcDbLine
 10
-736.2784720755911
 20
-347.5905897810652
 30
0.0
 11
-736.2784720755911
 21
202.4093999089422
 31
0.0
  0
LINE
  5
D4
330
1F
100
AcDbEntity
  8
0-4
  6
Continuous
 62
     7
370
     9
100
AcDbLine
 10
-660.0184466387773
 20
-347.5905897810652
 30
0.0
 11
-737.7784522804054
 21
-347.5905897810652
 31
0.0
  0
LINE
  5
D5
330
1F
100
AcDbEntity
  8
0-4
  6
Continuous
 62
     7
370
     9
100
AcDbLine
 10
-660.0184466387773
 20
202.4093999089422
 30
0.0
 11
-737.7784522804054
 21
202.4093999089422
 31
0.0
  0
LINE
  5
D6
330
1F
100
AcDbEntity
  8
0-4
  6
Continuous
 62
     7
370
     9
100
AcDbLine
 10
-775.7703007878484
 20
-372.5905794710726
 30
0.0
 11
-775.7703007878484
 21
227.4094205289275
 31
0.0
  0
LINE
  5
D7
330
1F
100
AcDbEntity
  8
0-4
  6
Continuous
 62
     7
370
     9
100
AcDbLine
 10
-685.8923628523543
 20
-372.5905794710726
 30
0.0
 11
-777.2702809926625
 21
-372.5905794710726
 31
0.0
  0
LINE
  5
D8
330
1F
100
AcDbEntity
  8
0-4
  6
Continuous
 62
     7
370
     9
100
AcDbLine
 10
-685.8923628523543
 20
227.4094205289275
 30
0.0
 11
-777.2702809926625
 21
227.4094205289275
 31
0.0
  0
LINE
  5
D9
330
1F
100
AcDbEntity
  8
0-4
  6
Continuous
 62
     7
370
     9
100
AcDbLine
 10
-807.8349139239338
 20
-385.5905728726773
 30
0.0
 11
-807.8349139239338
 21
240.4094139305322
 31
0.0
  0
LINE
  5
DA
330
1F
100
AcDbEntity
  8
0-4
  6
Continuous
 62
     7
370
     9
100
AcDbLine
 10
-699.8311429410367
 20
-385.5905728726773
 30
0.0
 11
-809.3348941287479
 21
-385.5905728726773
 31
0.0
  0
LINE
  5
DB
330
1F
100
AcDbEntity
  8
0-4
  6
Continuous
 62
     7
370
     9
100
AcDbLine
 10
-699.8311429410367
 20
240.4094139305322
 30
0.0
 11
-809.3348941287479
 21
240.4094139305322
 31
0.0
  0
LINE
  5
DC
330
1F
100
AcDbEntity
  8
D-1
  6
JWW_DASHED3
 62
     2
370
     9
100
AcDbLine
 10
442.3964216902451
 20
329.6433897276183
 30
0.0
 11
442.3964216902451
 21
354.6433484876479
 31
0.0
  0
LINE
  5
DD
330
1F
100
AcDbEntity
  8
D-1
  6
Continuous
 62
     2
370
     9
100
AcDbLine
 10
459.8963557062922
 20
414.6434227195947
 30
0.0
 11
453.6463969462628
 21
418.3933732316301
 31
0.0
  0
LINE
  5
DE
330
1F
100
AcDbEntity
  8
D-1
  6
Continuous
 62
     2
370
     9
100
AcDbLine
 10
453.6463969462628
 20
418.3933732316301
 30
0.0
 11
436.1463392103042
 21
418.3933732316301
 31
0.0
  0
LINE
  5
DF
330
1F
100
AcDbEntity
  8
D-1
  6
Continuous
 62
     2
370
     9
100
AcDbLine
 10
436.1463392103042
 20
418.3933732316301
 30
0.0
 11
429.8965041701859
 21
413.3933567356419
 31
0.0
  0
LINE
  5
E0
330
1F
100
AcDbEntity
  8
D-1
  6
Continuous
 62
     2
370
     9
100
AcDbLine
 10
429.8965041701859
 20
413.3933567356419
 30
0.0
 11
429.8965041701859
 21
348.3933897276183
 31
0.0
  0
LINE
  5
E1
330
1F
100
AcDbEntity
  8
D-1
  6
Continuous
 62
     2
370
     9
100
AcDbLine
 10
429.8965041701859
 20
348.3933897276183
 30
0.0
 11
408.6464959221919
 21
348.3933897276183
 31
0.0
  0
LINE
  5
E2
330
1F
100
AcDbEntity
  8
D-1
  6
Continuous
 62
     2
370
     9
100
AcDbLine
 10
408.6464959221919
 20
348.3933897276183
 30
0.0
 11
408.6464959221919
 21
344.6433154956715
 31
0.0
  0
LINE
  5
E3
330
1F
100
AcDbEntity
  8
D-1
  6
Continuous
 62
     2
370
     9
100
AcDbLine
 10
408.6464959221919
 20
344.6433154956715
 30
0.0
 11
413.0213557062922
 21
344.6433154956715
 31
0.0
  0
LINE
  5
E4
330
1F
100
AcDbEntity
  8
D-1
  6
Continuous
 62
     2
370
     9
100
AcDbLine
 10
413.0213557062922
 20
344.6433154956715
 30
0.0
 11
413.0213557062922
 21
332.1433979756124
 31
0.0
  0
LINE
  5
E5
330
1F
100
AcDbEntity
  8
D-1
  6
Continuous
 62
     2
370
     9
100
AcDbLine
 10
410.5213474582982
 20
329.6433897276183
 30
0.0
 11
398.1463870486698
 21
329.6433897276183
 31
0.0
  0
LINE
  5
E6
330
1F
100
AcDbEntity
  8
D-1
  6
Continuous
 62
     2
370
     9
100
AcDbLine
 10
381.7713144663219
 20
332.1433979756124
 30
0.0
 11
381.7713144663219
 21
344.6433154956715
 31
0.0
  0
LINE
  5
E7
330
1F
100
AcDbEntity
  8
D-1
  6
Continuous
 62
     2
370
     9
100
AcDbLine
 10
381.7713144663219
 20
344.6433154956715
 30
0.0
 11
386.1464216902451
 21
344.6433154956715
 31
0.0
  0
LINE
  5
E8
330
1F
100
AcDbEntity
  8
D-1
  6
Continuous
 62
     2
370
     9
100
AcDbLine
 10
386.1464216902451
 20
344.6433154956715
 30
0.0
 11
386.1464216902451
 21
348.3933897276183
 31
0.0
  0
LINE
  5
E9
330
1F
100
AcDbEntity
  8
D-1
  6
Continuous
 62
     2
370
     9
100
AcDbLine
 10
364.8964134422511
 20
313.3933979756124
 30
0.0
 11
391.7713474582982
 21
313.3933979756124
 31
0.0
  0
LINE
  5
EA
330
1F
100
AcDbEntity
  8
D-1
  6
Continuous
 62
     2
370
     9
100
AcDbLine
 10
391.7713474582982
 20
313.3933979756124
 30
0.0
 11
391.7713474582982
 21
317.1433484876479
 31
0.0
  0
LINE
  5
EB
330
1F
100
AcDbEntity
  8
D-1
  6
Continuous
 62
     2
370
     9
100
AcDbLine
 10
391.7713474582982
 20
317.1433484876479
 30
0.0
 11
388.0213969462628
 21
317.1433484876479
 31
0.0
  0
LINE
  5
EC
330
1F
100
AcDbEntity
  8
D-1
  6
Continuous
 62
     2
370
     9
100
AcDbLine
 10
388.0213969462628
 20
317.1433484876479
 30
0.0
 11
388.0213969462628
 21
325.8933154956715
 31
0.0
  0
LINE
  5
ED
330
1F
100
AcDbEntity
  8
D-1
  6
Continuous
 62
     2
370
     9
100
AcDbLine
 10
406.7713969462628
 20
325.8933154956715
 30
0.0
 11
406.7713969462628
 21
317.1433484876479
 31
0.0
  0
LINE
  5
EE
330
1F
100
AcDbEntity
  8
D-1
  6
Continuous
 62
     2
370
     9
100
AcDbLine
 10
406.7713969462628
 20
317.1433484876479
 30
0.0
 11
403.0213227143159
 21
317.1433484876479
 31
0.0
  0
LINE
  5
EF
330
1F
100
AcDbEntity
  8
D-1
  6
Continuous
 62
     2
370
     9
100
AcDbLine
 10
403.0213227143159
 20
317.1433484876479
 30
0.0
 11
403.0213227143159
 21
313.3933979756124
 31
0.0
  0
LINE
  5
F0
330
1F
100
AcDbEntity
  8
D-1
  6
Continuous
 62
     2
370
     9
100
AcDbLine
 10
403.0213227143159
 20
313.3933979756124
 30
0.0
 11
447.3963144663219
 21
313.3933979756124
 31
0.0
  0
LINE
  5
F1
330
1F
100
AcDbEntity
  8
D-1
  6
Continuous
 62
     2
370
     9
100
AcDbLine
 10
447.3963144663219
 20
313.3933979756124
 30
0.0
 11
447.3963144663219
 21
323.3934309675886
 31
0.0
  0
LINE
  5
F2
330
1F
100
AcDbEntity
  8
D-1
  6
Continuous
 62
     2
370
     9
100
AcDbLine
 10
447.3963144663219
 20
323.3934309675886
 30
0.0
 11
442.3964216902451
 21
323.3934309675886
 31
0.0
  0
LINE
  5
F3
330
1F
100
AcDbEntity
  8
D-1
  6
Continuous
 62
     2
370
     9
100
AcDbLine
 10
442.3964216902451
 20
329.6433897276183
 30
0.0
 11
442.3964216902451
 21
318.3932907516892
 31
0.0
  0
LINE
  5
F4
330
1F
100
AcDbEntity
  8
D-1
  6
Continuous
 62
     2
370
     9
100
AcDbLine
 10
442.3964216902451
 20
318.3932907516892
 30
0.0
 11
434.8963969462628
 21
318.3932907516892
 31
0.0
  0
LINE
  5
F5
330
1F
100
AcDbEntity
  8
D-1
  6
Continuous
 62
     2
370
     9
100
AcDbLine
 10
434.8963969462628
 20
318.3932907516892
 30
0.0
 11
434.8963969462628
 21
363.3933154956715
 31
0.0
  0
LINE
  5
F6
330
1F
100
AcDbEntity
  8
D-1
  6
Continuous
 62
     2
370
     9
100
AcDbLine
 10
434.8963969462628
 20
363.3933154956715
 30
0.0
 11
442.3964216902451
 21
363.3933154956715
 31
0.0
  0
LINE
  5
F7
330
1F
100
AcDbEntity
  8
D-1
  6
Continuous
 62
     2
370
     9
100
AcDbLine
 10
442.3964216902451
 20
363.3933154956715
 30
0.0
 11
442.3964216902451
 21
354.6433484876479
 31
0.0
  0
LINE
  5
F8
330
1F
100
AcDbEntity
  8
D-1
  6
Continuous
 62
     2
370
     9
100
AcDbLine
 10
442.3964216902451
 20
358.3934227195947
 30
0.0
 11
447.3963144663219
 21
358.3934227195947
 31
0.0
  0
LINE
  5
F9
330
1F
100
AcDbEntity
  8
D-1
  6
Continuous
 62
     2
370
     9
100
AcDbLine
 10
447.3963144663219
 20
358.3934227195947
 30
0.0
 11
447.3963144663219
 21
368.3933319916596
 31
0.0
  0
LINE
  5
FA
330
1F
100
AcDbEntity
  8
D-1
  6
Continuous
 62
     2
370
     9
100
AcDbLine
 10
447.3963144663219
 20
368.3933319916596
 30
0.0
 11
434.8963969462628
 21
368.3933319916596
 31
0.0
  0
LINE
  5
FB
330
1F
100
AcDbEntity
  8
D-1
  6
Continuous
 62
     2
370
     9
100
AcDbLine
 10
434.8963969462628
 20
368.3933319916596
 30
0.0
 11
434.8963969462628
 21
410.9902211782095
 31
0.0
  0
LINE
  5
FC
330
1F
100
AcDbEntity
  8
D-1
  6
Continuous
 62
     2
370
     9
100
AcDbLine
 10
429.8965041701859
 20
319.6433567356419
 30
0.0
 11
429.8965041701859
 21
342.1434309675888
 31
0.0
  0
LINE
  5
FD
330
1F
100
AcDbEntity
  8
D-1
  6
Continuous
 62
     2
370
     9
100
AcDbLine
 10
427.3964959221919
 20
344.6433154956715
 30
0.0
 11
419.2713144663219
 21
344.6433154956715
 31
0.0
  0
LINE
  5
FE
330
1F
100
AcDbEntity
  8
D-1
  6
Continuous
 62
     2
370
     9
100
AcDbLine
 10
416.7713062183279
 20
342.1434309675888
 30
0.0
 11
416.7713062183279
 21
332.1433979756124
 31
0.0
  0
LINE
  5
FF
330
1F
100
AcDbEntity
  8
D-1
  6
Continuous
 62
     2
370
     9
100
AcDbLine
 10
406.7713969462628
 20
325.8933154956715
 30
0.0
 11
388.0213969462628
 21
325.8933154956715
 31
0.0
  0
LINE
  5
100
330
1F
100
AcDbEntity
  8
D-1
  6
Continuous
 62
     2
370
     9
100
AcDbLine
 10
413.0213557062922
 20
317.1433484876479
 30
0.0
 11
427.3964959221919
 21
317.1433484876479
 31
0.0
  0
LINE
  5
101
330
1F
100
AcDbEntity
  8
D-1
  6
Continuous
 62
     2
370
     9
100
AcDbLine
 10
410.5213474582982
 20
325.8933154956715
 30
0.0
 11
410.5213474582982
 21
319.6433567356419
 31
0.0
  0
LINE
  5
102
330
1F
100
AcDbEntity
  8
D-1
  6
Continuous
 62
     2
370
     9
100
AcDbLine
 10
375.5213557062922
 20
344.6433154956715
 30
0.0
 11
371.1464959221917
 21
344.6433154956715
 31
0.0
  0
LINE
  5
103
330
1F
100
AcDbEntity
  8
D-1
  6
Continuous
 62
     2
370
     9
100
AcDbLine
 10
378.021240234375
 20
332.1433979756124
 30
0.0
 11
378.021240234375
 21
342.1434309675888
 31
0.0
  0
LINE
  5
104
330
1F
100
AcDbEntity
  8
D-1
  6
Continuous
 62
     2
370
     9
100
AcDbLine
 10
368.646240234375
 20
342.1434309675888
 30
0.0
 11
368.646240234375
 21
319.6433567356419
 31
0.0
  0
LINE
  5
105
330
1F
100
AcDbEntity
  8
D-1
  6
Continuous
 62
     2
370
     9
100
AcDbLine
 10
384.2713227143159
 20
319.6433567356419
 30
0.0
 11
384.2713227143159
 21
325.8933154956715
 31
0.0
  0
LINE
  5
106
330
1F
100
AcDbEntity
  8
D-1
  6
Continuous
 62
     2
370
     9
100
AcDbLine
 10
371.1464959221917
 20
317.1433484876479
 30
0.0
 11
381.7713144663219
 21
317.1433484876479
 31
0.0
  0
LINE
  5
107
330
1F
100
AcDbEntity
  8
D-1
  6
Continuous
 62
     2
370
     9
100
AcDbLine
 10
398.1463870486698
 20
329.6433897276183
 30
0.0
 11
398.1463870486698
 21
328.8933996252112
 31
0.0
  0
LINE
  5
108
330
1F
100
AcDbEntity
  8
D-1
  6
Continuous
 62
     2
370
     9
100
AcDbLine
 10
398.1463870486698
 20
328.8933996252112
 30
0.0
 11
396.6465305637669
 21
328.8933996252112
 31
0.0
  0
LINE
  5
109
330
1F
100
AcDbEntity
  8
D-1
  6
Continuous
 62
     2
370
     9
100
AcDbLine
 10
396.6465305637669
 20
328.8933996252112
 30
0.0
 11
396.6465305637669
 21
329.6433897276183
 31
0.0
  0
LINE
  5
10A
330
1F
100
AcDbEntity
  8
D-1
  6
Continuous
 62
     2
370
     9
100
AcDbLine
 10
396.6465305637669
 20
329.6433897276183
 30
0.0
 11
384.2713227143159
 21
329.6433897276183
 31
0.0
  0
LINE
  5
10B
330
1F
100
AcDbEntity
  8
D-1
  6
Continuous
 62
     2
370
     9
100
AcDbLine
 10
454.8963392103042
 20
342.1434309675888
 30
0.0
 11
454.8963392103042
 21
349.8933699324326
 31
0.0
  0
LINE
  5
10C
330
1F
100
AcDbEntity
  8
D-1
  6
Continuous
 62
     2
370
     9
100
AcDbLine
 10
364.8964134422511
 20
348.3933897276183
 30
0.0
 11
364.8964134422511
 21
313.3933979756124
 31
0.0
  0
LINE
  5
10D
330
1F
100
AcDbEntity
  8
D-1
  6
Continuous
 62
     2
370
     9
100
AcDbLine
 10
404.8964216902451
 20
340.893364983636
 30
0.0
 11
404.8964216902451
 21
348.3933897276183
 31
0.0
  0
LINE
  5
10E
330
1F
100
AcDbEntity
  8
D-1
  6
Continuous
 62
     2
370
     9
100
AcDbLine
 10
389.8964959221917
 20
348.3933897276183
 30
0.0
 11
389.8964959221917
 21
340.893364983636
 31
0.0
  0
LINE
  5
10F
330
1F
100
AcDbEntity
  8
D-1
  6
Continuous
 62
     2
370
     9
100
AcDbLine
 10
408.0213392103042
 20
348.3921525285051
 30
0.0
 11
427.3964959221919
 21
348.3933897276183
 31
0.0
  0
LINE
  5
110
330
1F
100
AcDbEntity
  8
D-1
  6
Continuous
 62
     2
370
     9
100
AcDbLine
 10
408.0213392103042
 20
342.1434309675888
 30
0.0
 11
408.0213392103042
 21
348.3933897276183
 31
0.0
  0
LINE
  5
111
330
1F
100
AcDbEntity
  8
D-1
  6
Continuous
 62
     2
370
     9
100
AcDbLine
 10
411.1465041701859
 20
342.1434309675888
 30
0.0
 11
408.0213392103042
 21
342.1434309675888
 31
0.0
  0
LINE
  5
112
330
1F
100
AcDbEntity
  8
D-1
  6
Continuous
 62
     2
370
     9
100
AcDbLine
 10
411.1465041701859
 20
340.6430796030406
 30
0.0
 11
411.1465041701859
 21
342.1434309675888
 31
0.0
  0
LINE
  5
113
330
1F
100
AcDbEntity
  8
D-1
  6
Continuous
 62
     2
370
     9
100
AcDbLine
 10
383.6464134422511
 20
342.1434309675888
 30
0.0
 11
383.6464134422511
 21
340.6430796030406
 31
0.0
  0
LINE
  5
114
330
1F
100
AcDbEntity
  8
D-1
  6
Continuous
 62
     2
370
     9
100
AcDbLine
 10
386.7713309623102
 20
342.1434309675888
 30
0.0
 11
383.6464134422511
 21
342.1434309675888
 31
0.0
  0
LINE
  5
115
330
1F
100
AcDbEntity
  8
D-1
  6
Continuous
 62
     2
370
     9
100
AcDbLine
 10
367.3964216902451
 20
350.893274255701
 30
0.0
 11
367.3964216902451
 21
348.3933897276183
 31
0.0
  0
LINE
  5
116
330
1F
100
AcDbEntity
  8
D-1
  6
Continuous
 62
     2
370
     9
100
AcDbLine
 10
427.3964959221919
 20
348.3933897276183
 30
0.0
 11
427.3964959221919
 21
350.893274255701
 31
0.0
  0
LINE
  5
117
330
1F
100
AcDbEntity
  8
D-1
  6
Continuous
 62
     2
370
     9
100
AcDbLine
 10
517.396421690245
 20
310.3933138460727
 30
0.0
 11
454.8963392103042
 21
310.3933138460727
 31
0.0
  0
LINE
  5
118
330
1F
100
AcDbEntity
  8
D-1
  6
Continuous
 62
     2
370
     9
100
AcDbLine
 10
453.431866620038
 20
318.607821077914
 30
0.0
 11
442.3964216902451
 21
329.6433897276183
 31
0.0
  0
LINE
  5
119
330
1F
100
AcDbEntity
  8
D-1
  6
Continuous
 62
     2
370
     9
100
AcDbLine
 10
454.8963392103042
 20
304.6434309675886
 30
0.0
 11
454.8963392103042
 21
315.0722771721918
 31
0.0
  0
LINE
  5
11A
330
1F
100
AcDbEntity
  8
D-1
  6
Continuous
 62
     2
370
     9
100
AcDbLine
 10
517.396421690245
 20
304.6434309675886
 30
0.0
 11
454.8963392103042
 21
304.6434309675886
 31
0.0
  0
LINE
  5
11B
330
1F
100
AcDbEntity
  8
D-2
  6
Continuous
 62
     3
370
     9
100
AcDbLine
 10
352.3964959221917
 20
367.8933798300254
 30
0.0
 11
382.3963474582982
 21
367.8933798300254
 31
0.0
  0
LINE
  5
11C
330
1F
100
AcDbEntity
  8
D-2
  6
Continuous
 62
     3
370
     9
100
AcDbLine
 10
419.8963474582982
 20
407.1433979756124
 30
0.0
 11
120.6942171663852
 21
407.1433979756124
 31
0.0
  0
LINE
  5
11D
330
1F
100
AcDbEntity
  8
D-2
  6
Continuous
 62
     3
370
     9
100
AcDbLine
 10
414.8963309623102
 20
400.8933154956715
 30
0.0
 11
120.6942171663852
 21
400.8933154956715
 31
0.0
  0
LINE
  5
11E
330
1F
100
AcDbEntity
  8
D-2
  6
Continuous
 62
     3
370
     9
100
AcDbLine
 10
414.8963309623102
 20
394.6433567356419
 30
0.0
 11
120.6942171663852
 21
394.6433567356419
 31
0.0
  0
LINE
  5
11F
330
1F
100
AcDbEntity
  8
D-2
  6
Continuous
 62
     3
370
     9
100
AcDbLine
 10
414.8963309623102
 20
388.3933979756124
 30
0.0
 11
120.6942171663852
 21
388.3933979756124
 31
0.0
  0
LINE
  5
120
330
1F
100
AcDbEntity
  8
D-6
  6
Continuous
 62
     6
370
     5
100
AcDbLine
 10
441.3462870829815
 20
407.1433979756124
 30
0.0
 11
645.44207598712
 21
407.1433979756124
 31
0.0
  0
LINE
  5
121
330
1F
100
AcDbEntity
  8
D-6
  6
Continuous
 62
     6
370
     5
100
AcDbLine
 10
441.3462870829815
 20
400.8933154956715
 30
0.0
 11
645.44207598712
 21
400.8933154956715
 31
0.0
  0
LINE
  5
122
330
1F
100
AcDbEntity
  8
D-6
  6
Continuous
 62
     6
370
     5
100
AcDbLine
 10
574.5188945048565
 20
325.8933154956715
 30
0.0
 11
645.44207598712
 21
254.9702577333193
 31
0.0
  0
LINE
  5
123
330
1F
100
AcDbEntity
  8
D-6
  6
Continuous
 62
     6
370
     5
100
AcDbLine
 10
569.215640506229
 20
325.8933154956715
 30
0.0
 11
645.44207598712
 21
249.6668800147805
 31
0.0
  0
LINE
  5
124
330
1F
100
AcDbEntity
  8
D-6
  6
Continuous
 62
     6
370
     5
100
AcDbLine
 10
563.9123865076016
 20
325.8933154956715
 30
0.0
 11
645.44207598712
 21
244.3636260161529
 31
0.0
  0
LINE
  5
125
330
1F
100
AcDbEntity
  8
D-6
  6
Continuous
 62
     6
370
     5
100
AcDbLine
 10
488.9123865076013
 20
275.8933979756124
 30
0.0
 11
576.4123040276606
 21
188.3933567356419
 31
0.0
  0
LINE
  5
126
330
1F
100
AcDbEntity
  8
D-6
  6
Continuous
 62
     6
370
     5
100
AcDbLine
 10
494.2156405062289
 20
275.8933979756124
 30
0.0
 11
581.7158054661106
 21
188.3933567356419
 31
0.0
  0
LINE
  5
127
330
1F
100
AcDbEntity
  8
D-6
  6
Continuous
 62
     6
370
     5
100
AcDbLine
 10
499.5188945048565
 20
275.8933979756124
 30
0.0
 11
587.0190594647383
 21
188.3933567356419
 31
0.0
  0
LINE
  5
128
330
1F
100
AcDbEntity
  8
D-6
  6
Continuous
 62
     6
370
     5
100
AcDbLine
 10
427.3964959221919
 20
223.015879038218
 30
0.0
 11
462.0188945048565
 21
188.3933567356419
 31
0.0
  0
LINE
  5
129
330
1F
100
AcDbEntity
  8
D-6
  6
Continuous
 62
     6
370
     5
100
AcDbLine
 10
427.3964959221919
 20
217.7126250395904
 30
0.0
 11
456.7156405062289
 21
188.3933567356419
 31
0.0
  0
LINE
  5
12A
330
1F
100
AcDbEntity
  8
D-6
  6
Continuous
 62
     6
370
     5
100
AcDbLine
 10
427.3964959221919
 20
212.4093710409629
 30
0.0
 11
451.4123865076013
 21
188.3933567356419
 31
0.0
  0
LINE
  5
12B
330
1F
100
AcDbEntity
  8
D-6
  6
Continuous
 62
     6
370
     5
100
AcDbLine
 10
539.8964959221919
 20
325.8933154956715
 30
0.0
 11
645.44207598712
 21
325.8933154956715
 31
0.0
  0
LINE
  5
12C
330
1F
100
AcDbEntity
  8
D-6
  6
Continuous
 62
     6
370
     5
100
AcDbLine
 10
539.8964959221919
 20
325.8933154956715
 30
0.0
 11
539.8964959221919
 21
275.8933979756124
 31
0.0
  0
LINE
  5
12D
330
1F
100
AcDbEntity
  8
D-6
  6
Continuous
 62
     6
370
     5
100
AcDbLine
 10
427.3964959221919
 20
275.8933979756124
 30
0.0
 11
539.8964959221919
 21
275.8933979756124
 31
0.0
  0
LINE
  5
12E
330
1F
100
AcDbEntity
  8
D-6
  6
Continuous
 62
     6
370
     5
100
AcDbLine
 10
427.3964959221919
 20
275.8933979756124
 30
0.0
 11
427.3964959221919
 21
188.3933567356419
 31
0.0
  0
LINE
  5
12F
330
1F
100
AcDbEntity
  8
D-6
  6
Continuous
 62
     6
370
     5
100
AcDbLine
 10
441.3462870829815
 20
382.1433154956715
 30
0.0
 11
441.3462870829815
 21
413.3933567356419
 31
0.0
  0
LINE
  5
130
330
1F
100
AcDbEntity
  8
D-2
  6
Continuous
 62
     3
370
     9
100
AcDbLine
 10
427.3964959221919
 20
403.3933237436656
 30
0.0
 11
427.3964959221919
 21
413.3933567356419
 31
0.0
  0
LINE
  5
131
330
1F
100
AcDbEntity
  8
D-2
  6
Continuous
 62
     3
370
     9
100
AcDbLine
 10
424.896240234375
 20
402.1433814796242
 30
0.0
 11
427.3964959221919
 21
403.3933237436656
 31
0.0
  0
LINE
  5
132
330
1F
100
AcDbEntity
  8
D-2
  6
Continuous
 62
     3
370
     9
100
AcDbLine
 10
424.896240234375
 20
362.1433732316301
 30
0.0
 11
424.896240234375
 21
402.1433814796242
 31
0.0
  0
LINE
  5
133
330
1F
100
AcDbEntity
  8
D-2
  6
Continuous
 62
     3
370
     9
100
AcDbLine
 10
427.3964959221919
 20
360.8934309675888
 30
0.0
 11
424.896240234375
 21
362.1433732316301
 31
0.0
  0
LINE
  5
134
330
1F
100
AcDbEntity
  8
D-2
  6
Continuous
 62
     3
370
     9
100
AcDbLine
 10
427.3964959221919
 20
350.893274255701
 30
0.0
 11
427.3964959221919
 21
360.8934309675888
 31
0.0
  0
LINE
  5
135
330
1F
100
AcDbEntity
  8
D-2
  6
Continuous
 62
     3
370
     9
100
AcDbLine
 10
414.8963309623102
 20
357.1433567356419
 30
0.0
 11
414.8963309623102
 21
350.893274255701
 31
0.0
  0
LINE
  5
136
330
1F
100
AcDbEntity
  8
D-2
  6
Continuous
 62
     3
370
     9
100
AcDbLine
 10
419.8963474582982
 20
357.1433567356419
 30
0.0
 11
414.8963309623102
 21
357.1433567356419
 31
0.0
  0
LINE
  5
137
330
1F
100
AcDbEntity
  8
D-2
  6
Continuous
 62
     3
370
     9
100
AcDbLine
 10
419.8963474582982
 20
369.1433220940668
 30
0.0
 11
419.8963474582982
 21
357.1433567356419
 31
0.0
  0
LINE
  5
138
330
1F
100
AcDbEntity
  8
D-2
  6
Continuous
 62
     3
370
     9
100
AcDbLine
 10
387.396240234375
 20
369.1433220940668
 30
0.0
 11
419.8963474582982
 21
369.1433220940668
 31
0.0
  0
LINE
  5
139
330
1F
100
AcDbEntity
  8
D-2
  6
Continuous
 62
     3
370
     9
100
AcDbLine
 10
387.396240234375
 20
357.1433567356419
 30
0.0
 11
387.396240234375
 21
369.1433220940668
 31
0.0
  0
LINE
  5
13A
330
1F
100
AcDbEntity
  8
D-2
  6
Continuous
 62
     3
370
     9
100
AcDbLine
 10
392.3965041701859
 20
357.1433567356419
 30
0.0
 11
387.396240234375
 21
357.1433567356419
 31
0.0
  0
LINE
  5
13B
330
1F
100
AcDbEntity
  8
D-2
  6
Continuous
 62
     3
370
     9
100
AcDbLine
 10
392.3965041701859
 20
350.893274255701
 30
0.0
 11
392.3965041701859
 21
357.1433567356419
 31
0.0
  0
LINE
  5
13C
330
1F
100
AcDbEntity
  8
D-2
  6
Continuous
 62
     3
370
     9
100
AcDbLine
 10
382.3963474582982
 20
362.8933633340372
 30
0.0
 11
382.3963474582982
 21
350.893274255701
 31
0.0
  0
LINE
  5
13D
330
1F
100
AcDbEntity
  8
D-2
  6
Continuous
 62
     3
370
     9
100
AcDbLine
 10
352.3964959221917
 20
362.8933633340372
 30
0.0
 11
382.3963474582982
 21
362.8933633340372
 31
0.0
  0
LINE
  5
13E
330
1F
100
AcDbEntity
  8
D-2
  6
Continuous
 62
     3
370
     9
100
AcDbLine
 10
352.3964959221917
 20
367.8933798300254
 30
0.0
 11
352.3964959221917
 21
362.8933633340372
 31
0.0
  0
LINE
  5
13F
330
1F
100
AcDbEntity
  8
D-2
  6
Continuous
 62
     3
370
     9
100
AcDbLine
 10
419.8963474582982
 20
374.143338590055
 30
0.0
 11
120.6942171663852
 21
374.143338590055
 31
0.0
  0
LINE
  5
140
330
1F
100
AcDbEntity
  8
D-2
  6
Continuous
 62
     3
370
     9
100
AcDbLine
 10
382.3963474582982
 20
374.143338590055
 30
0.0
 11
382.3963474582982
 21
367.8933798300254
 31
0.0
  0
LINE
  5
141
330
1F
100
AcDbEntity
  8
D-2
  6
Continuous
 62
     3
370
     9
100
AcDbLine
 10
419.8963474582982
 20
407.1433979756124
 30
0.0
 11
419.8963474582982
 21
374.143338590055
 31
0.0
  0
LINE
  5
142
330
1F
100
AcDbEntity
  8
D-2
  6
Continuous
 62
     3
370
     9
100
AcDbLine
 10
414.8963309623102
 20
413.3933567356419
 30
0.0
 11
414.8963309623102
 21
382.1433154956715
 31
0.0
  0
LINE
  5
143
330
1F
100
AcDbEntity
  8
D-2
  6
Continuous
 62
     3
370
     9
100
AcDbLine
 10
427.3964959221919
 20
413.3933567356419
 30
0.0
 11
120.6942171663852
 21
413.3933567356419
 31
0.0
  0
LINE
  5
144
330
1F
100
AcDbEntity
  8
D-6
  6
JWW_DASHED3
 62
     6
370
     5
100
AcDbLine
 10
482.0972751926732
 20
231.6154026340794
 30
0.0
 11
482.0972751926732
 21
275.8933979756124
 31
0.0
  0
LINE
  5
145
330
1F
100
AcDbEntity
  8
D-6
  6
JWW_DASHED3
 62
     6
370
     5
100
AcDbLine
 10
504.5972257047086
 20
231.6154026340794
 30
0.0
 11
504.5972257047086
 21
275.8933979756124
 31
0.0
  0
LINE
  5
146
330
1F
100
AcDbEntity
  8
D-1
  6
Continuous
 62
     2
370
     9
100
AcDbLine
 10
442.3964216902451
 20
354.6433484876479
 30
0.0
 11
463.7352608345651
 21
333.3045093433277
 31
0.0
  0
LINE
  5
147
330
1F
100
AcDbEntity
  8
D-1
  6
Continuous
 62
     2
370
     9
100
AcDbLine
 10
436.6465388117609
 20
319.6433567356419
 30
0.0
 11
442.3964216902451
 21
319.6433567356419
 31
0.0
  0
LINE
  5
148
330
1F
100
AcDbEntity
  8
D-1
  6
Continuous
 62
     2
370
     9
100
AcDbLine
 10
436.6465388117609
 20
363.3933154956715
 30
0.0
 11
436.6465388117609
 21
319.6433567356419
 31
0.0
  0
LINE
  5
149
330
1F
100
AcDbEntity
  8
D-1
  6
JWW_CENTER2
 62
     2
370
     9
100
AcDbLine
 10
463.8939934807857
 20
340.893364983636
 30
0.0
 11
433.6848078547297
 21
340.893364983636
 31
0.0
  0
LINE
  5
14A
330
1F
100
AcDbEntity
  8
D-1
  6
JWW_DASHED3
 62
     2
370
     9
100
AcDbLine
 10
454.8963392103042
 20
335.8933484876479
 30
0.0
 11
436.6465388117609
 21
335.8933484876479
 31
0.0
  0
LINE
  5
14B
330
1F
100
AcDbEntity
  8
D-1
  6
JWW_DASHED3
 62
     2
370
     9
100
AcDbLine
 10
454.8963392103042
 20
331.8933600348396
 30
0.0
 11
454.8963392103042
 21
342.1434309675888
 31
0.0
  0
LINE
  5
14C
330
1F
100
AcDbEntity
  8
D-1
  6
JWW_DASHED3
 62
     2
370
     9
100
AcDbLine
 10
454.8963392103042
 20
336.5183814796242
 30
0.0
 11
436.6465388117609
 21
336.5183814796242
 31
0.0
  0
LINE
  5
14D
330
1F
100
AcDbEntity
  8
D-1
  6
Continuous
 62
     2
370
     9
100
AcDbLine
 10
435.5213062183279
 20
345.8933814796242
 30
0.0
 11
434.8963969462628
 21
345.2683484876479
 31
0.0
  0
LINE
  5
14E
330
1F
100
AcDbEntity
  8
D-1
  6
Continuous
 62
     2
370
     9
100
AcDbLine
 10
435.5213062183279
 20
335.8933484876479
 30
0.0
 11
434.8963969462628
 21
336.5183814796242
 31
0.0
  0
LINE
  5
14F
330
1F
100
AcDbEntity
  8
D-1
  6
JWW_DASHED3
 62
     2
370
     9
100
AcDbLine
 10
435.5213062183279
 20
345.8933814796242
 30
0.0
 11
435.5213062183279
 21
335.8933484876479
 31
0.0
  0
LINE
  5
150
330
1F
100
AcDbEntity
  8
D-1
  6
JWW_DASHED3
 62
     2
370
     9
100
AcDbLine
 10
451.7714216902451
 20
345.2683484876479
 30
0.0
 11
436.6465388117609
 21
345.2683484876479
 31
0.0
  0
LINE
  5
151
330
1F
100
AcDbEntity
  8
D-1
  6
JWW_DASHED3
 62
     2
370
     9
100
AcDbLine
 10
451.14651241818
 20
345.8933814796242
 30
0.0
 11
436.6465388117609
 21
345.8933814796242
 31
0.0
  0
LINE
  5
152
330
1F
100
AcDbEntity
  8
D-1
  6
Continuous
 62
     2
370
     9
100
AcDbLine
 10
436.6465388117609
 20
345.2683484876479
 30
0.0
 11
434.8963969462628
 21
345.2683484876479
 31
0.0
  0
LINE
  5
153
330
1F
100
AcDbEntity
  8
D-1
  6
Continuous
 62
     2
370
     9
100
AcDbLine
 10
436.6465388117609
 20
345.8933814796242
 30
0.0
 11
435.5213062183279
 21
345.8933814796242
 31
0.0
  0
LINE
  5
154
330
1F
100
AcDbEntity
  8
D-1
  6
Continuous
 62
     2
370
     9
100
AcDbLine
 10
436.6465388117609
 20
336.5183814796242
 30
0.0
 11
434.8963969462628
 21
336.5183814796242
 31
0.0
  0
LINE
  5
155
330
1F
100
AcDbEntity
  8
D-1
  6
Continuous
 62
     2
370
     9
100
AcDbLine
 10
436.6465388117609
 20
335.8933484876479
 30
0.0
 11
435.5213062183279
 21
335.8933484876479
 31
0.0
  0
LINE
  5
156
330
1F
100
AcDbEntity
  8
D-2
  6
Continuous
 62
     3
370
     9
100
AcDbLine
 10
419.8963474582982
 20
382.1433154956715
 30
0.0
 11
120.6942171663852
 21
382.1433154956715
 31
0.0
  0
LINE
  5
157
330
1F
100
AcDbEntity
  8
D-2
  6
Continuous
 62
     3
370
     9
100
AcDbLine
 10
419.8963474582982
 20
376.8099975585938
 30
0.0
 11
120.6942171663852
 21
376.8099975585938
 31
0.0
  0
LINE
  5
158
330
1F
100
AcDbEntity
  8
D-2
  6
Continuous
 62
     3
370
     9
100
AcDbLine
 10
419.8963474582982
 20
379.4766565271327
 30
0.0
 11
120.6942171663852
 21
379.4766565271327
 31
0.0
  0
LINE
  5
159
330
1F
100
AcDbEntity
  8
D-1
  6
Continuous
 62
     2
370
     9
100
AcDbLine
 10
459.8963557062922
 20
414.6434227195947
 30
0.0
 11
459.8963557062922
 21
413.3933567356419
 31
0.0
  0
LINE
  5
15A
330
1F
100
AcDbEntity
  8
D-1
  6
Continuous
 62
     2
370
     9
100
AcDbLine
 10
437.9003163930534
 20
413.3933567356419
 30
0.0
 11
434.8963969462628
 21
410.9902211782095
 31
0.0
  0
LINE
  5
15B
330
1F
100
AcDbEntity
  8
D-1
  6
Continuous
 62
     2
370
     9
100
AcDbLine
 10
367.3964216902451
 20
348.3933897276183
 30
0.0
 11
369.8964299382391
 21
350.893274255701
 31
0.0
  0
LINE
  5
15C
330
1F
100
AcDbEntity
  8
D-1
  6
Continuous
 62
     2
370
     9
100
AcDbLine
 10
404.8964216902451
 20
348.3933897276183
 30
0.0
 11
389.8964959221917
 21
348.3933897276183
 31
0.0
  0
LINE
  5
15D
330
1F
100
AcDbEntity
  8
D-1
  6
Continuous
 62
     2
370
     9
100
AcDbLine
 10
372.3964381862331
 20
348.3933897276183
 30
0.0
 11
374.8964464342274
 21
350.893274255701
 31
0.0
  0
LINE
  5
15E
330
1F
100
AcDbEntity
  8
D-1
  6
Continuous
 62
     2
370
     9
100
AcDbLine
 10
377.3964546822214
 20
348.3933897276183
 30
0.0
 11
379.8964629302154
 21
350.893274255701
 31
0.0
  0
LINE
  5
15F
330
1F
100
AcDbEntity
  8
D-1
  6
Continuous
 62
     2
370
     9
100
AcDbLine
 10
382.3964711782097
 20
348.3933897276183
 30
0.0
 11
384.8964794262037
 21
350.893274255701
 31
0.0
  0
LINE
  5
160
330
1F
100
AcDbEntity
  8
D-1
  6
Continuous
 62
     2
370
     9
100
AcDbLine
 10
422.3964794262037
 20
348.3933897276183
 30
0.0
 11
424.8964876741977
 21
350.893274255701
 31
0.0
  0
LINE
  5
161
330
1F
100
AcDbEntity
  8
D-1
  6
Continuous
 62
     2
370
     9
100
AcDbLine
 10
427.3964959221919
 20
350.893274255701
 30
0.0
 11
367.3964216902451
 21
350.893274255701
 31
0.0
  0
LINE
  5
162
330
1F
100
AcDbEntity
  8
D-1
  6
Continuous
 62
     2
370
     9
100
AcDbLine
 10
386.7713309623102
 20
348.3933897276183
 30
0.0
 11
364.8964134422511
 21
348.3933897276183
 31
0.0
  0
LINE
  5
163
330
1F
100
AcDbEntity
  8
D-1
  6
Continuous
 62
     2
370
     9
100
AcDbLine
 10
386.7713309623102
 20
348.3933897276183
 30
0.0
 11
386.7713309623102
 21
342.1434309675888
 31
0.0
  0
LINE
  5
164
330
1F
100
AcDbEntity
  8
D-1
  6
Continuous
 62
     2
370
     9
100
AcDbLine
 10
386.7713309623102
 20
347.7683567356419
 30
0.0
 11
389.8964959221917
 21
350.893274255701
 31
0.0
  0
LINE
  5
165
330
1F
100
AcDbEntity
  8
D-1
  6
Continuous
 62
     2
370
     9
100
AcDbLine
 10
392.3965041701859
 20
348.3933897276183
 30
0.0
 11
394.89651241818
 21
350.893274255701
 31
0.0
  0
LINE
  5
166
330
1F
100
AcDbEntity
  8
D-1
  6
Continuous
 62
     2
370
     9
100
AcDbLine
 10
386.7713309623102
 20
342.7683402396538
 30
0.0
 11
389.8964959221917
 21
345.8933814796242
 31
0.0
  0
LINE
  5
167
330
1F
100
AcDbEntity
  8
D-1
  6
Continuous
 62
     2
370
     9
100
AcDbLine
 10
384.3719070022172
 20
340.3689162795608
 30
0.0
 11
386.1464216902451
 21
342.1434309675888
 31
0.0
  0
LINE
  5
168
330
1F
100
AcDbEntity
  8
D-1
  6
Continuous
 62
     2
370
     9
100
AcDbLine
 10
388.1953471415753
 20
339.1923399229308
 30
0.0
 11
389.8964959221917
 21
340.893364983636
 31
0.0
  0
LINE
  5
169
330
1F
100
AcDbEntity
  8
D-1
  6
Continuous
 62
     2
370
     9
100
AcDbLine
 10
397.3963969462628
 20
348.3933897276183
 30
0.0
 11
399.8964051942568
 21
350.893274255701
 31
0.0
  0
LINE
  5
16A
330
1F
100
AcDbEntity
  8
D-1
  6
Continuous
 62
     2
370
     9
100
AcDbLine
 10
402.3964134422511
 20
348.3933897276183
 30
0.0
 11
404.8964216902451
 21
350.893274255701
 31
0.0
  0
LINE
  5
16B
330
1F
100
AcDbEntity
  8
D-1
  6
Continuous
 62
     2
370
     9
100
AcDbLine
 10
404.8964216902451
 20
345.8933814796242
 30
0.0
 11
409.8964381862331
 21
350.893274255701
 31
0.0
  0
LINE
  5
16C
330
1F
100
AcDbEntity
  8
D-1
  6
Continuous
 62
     2
370
     9
100
AcDbLine
 10
392.3919265334672
 20
338.3889028188345
 30
0.0
 11
394.2412917678422
 21
340.2381443332982
 31
0.0
  0
LINE
  5
16D
330
1F
100
AcDbEntity
  8
D-1
  6
Continuous
 62
     2
370
     9
100
AcDbLine
 10
397.0611159865922
 20
338.05795205606
 30
0.0
 11
399.14455929318
 21
340.1415190825591
 31
0.0
  0
LINE
  5
16E
330
1F
100
AcDbEntity
  8
D-1
  6
Continuous
 62
     2
370
     9
100
AcDbLine
 10
412.3955803948482
 20
348.3923999683277
 30
0.0
 11
414.8964546822214
 21
350.893274255701
 31
0.0
  0
LINE
  5
16F
330
1F
100
AcDbEntity
  8
D-1
  6
Continuous
 62
     2
370
     9
100
AcDbLine
 10
402.390598606419
 20
338.38754189981
 30
0.0
 11
408.0213392103042
 21
344.0181587837839
 31
0.0
  0
LINE
  5
170
330
1F
100
AcDbEntity
  8
D-1
  6
Continuous
 62
     2
370
     9
100
AcDbLine
 10
417.3958443306589
 20
348.3926474081504
 30
0.0
 11
419.8964711782097
 21
350.893274255701
 31
0.0
  0
LINE
  5
171
330
1F
100
AcDbEntity
  8
D-1
  6
Continuous
 62
     2
370
     9
100
AcDbLine
 10
408.8277455922722
 20
339.8246723896749
 30
0.0
 11
411.1465041701859
 21
342.1433072476775
 31
0.0
  0
LINE
  5
172
330
1F
100
AcDbEntity
  8
D-1
  6
Continuous
 62
     2
370
     9
100
AcDbLine
 10
454.8963392103042
 20
345.2683484876479
 30
0.0
 11
451.7714216902451
 21
345.2683484876479
 31
0.0
  0
LINE
  5
173
330
1F
100
AcDbEntity
  8
D-1
  6
Continuous
 62
     2
370
     9
100
AcDbLine
 10
454.8963392103042
 20
345.8933814796242
 30
0.0
 11
451.14651241818
 21
345.8933814796242
 31
0.0
  0
LINE
  5
174
330
1F
100
AcDbEntity
  8
D-4
  6
Continuous
 62
     7
370
     9
100
AcDbLine
 10
223.3954764701225
 20
89.68466269003386
 30
0.0
 11
488.6596267287797
 21
89.68466269003386
 31
0.0
  0
LINE
  5
175
330
1F
100
AcDbEntity
  8
D-1
  6
Continuous
 62
     2
370
     9
100
AcDbLine
 10
437.9003163930534
 20
413.3933567356419
 30
0.0
 11
459.8963557062922
 21
413.3933567356419
 31
0.0
  0
LINE
  5
176
330
1F
100
AcDbEntity
  8
D-6
  6
Continuous
 62
     6
370
     5
100
AcDbLine
 10
459.8963557062922
 20
413.3933567356419
 30
0.0
 11
704.6609826990078
 21
413.3933567356419
 31
0.0
  0
LINE
  5
177
330
1F
100
AcDbEntity
  8
D-6
  6
Continuous
 62
     6
370
     5
100
AcDbLine
 10
364.8964134422511
 20
313.3933979756124
 30
0.0
 11
364.8964134422511
 21
130.024034654772
 31
0.0
  0
LINE
  5
178
330
1F
100
AcDbEntity
  8
D-6
  6
JWW_CENTER1
 62
     6
370
     5
100
AcDbLine
 10
493.3471267287797
 20
231.6154026340794
 30
0.0
 11
493.3471267287797
 21
347.715404613598
 31
0.0
  0
LINE
  5
179
330
1F
100
AcDbEntity
  8
D-6
  6
Continuous
 62
     6
370
     5
100
AcDbLine
 10
482.0972751926732
 20
275.8933979756124
 30
0.0
 11
482.0972751926732
 21
304.6434309675886
 31
0.0
  0
LINE
  5
17A
330
1F
100
AcDbEntity
  8
D-6
  6
Continuous
 62
     6
370
     5
100
AcDbLine
 10
504.5972257047086
 20
275.8933979756124
 30
0.0
 11
504.5972257047086
 21
304.6434309675886
 31
0.0
  0
LINE
  5
17B
330
1F
100
AcDbEntity
  8
D-6
  6
Continuous
 62
     6
370
     5
100
AcDbLine
 10
504.5972257047086
 20
329.6433897276183
 30
0.0
 11
504.5972257047086
 21
337.8091513144004
 31
0.0
  0
LINE
  5
17C
330
1F
100
AcDbEntity
  8
D-6
  6
JWW_DASHED3
 62
     6
370
     5
100
AcDbLine
 10
504.5972257047086
 20
304.6434309675886
 30
0.0
 11
504.5972257047086
 21
329.6433897276183
 31
0.0
  0
LINE
  5
17D
330
1F
100
AcDbEntity
  8
D-6
  6
Continuous
 62
     6
370
     5
100
AcDbLine
 10
482.0972751926732
 20
329.6433897276183
 30
0.0
 11
482.0972751926732
 21
337.8091513144004
 31
0.0
  0
LINE
  5
17E
330
1F
100
AcDbEntity
  8
D-6
  6
JWW_DASHED3
 62
     6
370
     5
100
AcDbLine
 10
482.0972751926732
 20
304.6434309675886
 30
0.0
 11
482.0972751926732
 21
329.6433897276183
 31
0.0
  0
LINE
  5
17F
330
1F
100
AcDbEntity
  8
D-1
  6
Continuous
 62
     2
370
     9
100
AcDbLine
 10
472.5740587389149
 20
329.6433897276183
 30
0.0
 11
512.3964051942568
 21
329.6433897276183
 31
0.0
  0
LINE
  5
180
330
1F
100
AcDbEntity
  8
D-1
  6
Continuous
 62
     2
370
     9
100
AcDbLine
 10
517.396421690245
 20
324.6433732316301
 30
0.0
 11
517.396421690245
 21
304.6434309675886
 31
0.0
  0
LINE
  5
181
330
1F
100
AcDbEntity
  8
D-6
  6
Continuous
 62
     6
370
     5
100
AcDbLine
 10
434.8963969462628
 20
382.1433154956715
 30
0.0
 11
540.3307528109165
 21
382.1433154956715
 31
0.0
  0
LINE
  5
182
330
1F
100
AcDbEntity
  8
D-6
  6
Continuous
 62
     6
370
     5
100
AcDbLine
 10
574.2705886428422
 20
382.1433154956715
 30
0.0
 11
645.44207598712
 21
382.1433154956715
 31
0.0
  0
LINE
  5
183
330
1F
100
AcDbEntity
  8
D-6
  6
Continuous
 62
     6
370
     5
100
AcDbLine
 10
441.3462870829815
 20
388.3933979756124
 30
0.0
 11
540.3307528109165
 21
388.3933979756124
 31
0.0
  0
LINE
  5
184
330
1F
100
AcDbEntity
  8
D-6
  6
Continuous
 62
     6
370
     5
100
AcDbLine
 10
574.2705886428422
 20
388.3933979756124
 30
0.0
 11
645.44207598712
 21
388.3933979756124
 31
0.0
  0
LINE
  5
185
330
1F
100
AcDbEntity
  8
D-6
  6
Continuous
 62
     6
370
     5
100
AcDbLine
 10
441.3462870829815
 20
394.6433567356419
 30
0.0
 11
540.3307528109165
 21
394.6433567356419
 31
0.0
  0
LINE
  5
186
330
1F
100
AcDbEntity
  8
D-6
  6
Continuous
 62
     6
370
     5
100
AcDbLine
 10
574.2705886428422
 20
394.6433567356419
 30
0.0
 11
645.44207598712
 21
394.6433567356419
 31
0.0
  0
LINE
  5
187
330
1F
100
AcDbEntity
  8
D-4
  6
Continuous
 62
     7
370
     9
100
AcDbLine
 10
71.97838860589115
 20
329.3335950696792
 30
0.0
 11
71.97838860589115
 21
413.3933567356419
 31
0.0
  0
LINE
  5
188
330
1F
100
AcDbEntity
  8
D-4
  6
Continuous
 62
     7
370
     9
100
AcDbLine
 10
108.7563592034418
 20
374.143338590055
 30
0.0
 11
70.47840840107696
 21
374.143338590055
 31
0.0
  0
LINE
  5
189
330
1F
100
AcDbEntity
  8
D-4
  6
Continuous
 62
     7
370
     9
100
AcDbLine
 10
108.7563592034418
 20
382.1433154956715
 30
0.0
 11
70.47840840107696
 21
382.1433154956715
 31
0.0
  0
LINE
  5
18A
330
1F
100
AcDbEntity
  8
D-4
  6
Continuous
 62
     7
370
     9
100
AcDbLine
 10
108.7563592034418
 20
413.3933567356419
 30
0.0
 11
70.47840840107696
 21
413.3933567356419
 31
0.0
  0
LINE
  5
18B
330
1F
100
AcDbEntity
  8
D-4
  6
Continuous
 62
     7
370
     9
100
AcDbLine
 10
335.548565838788
 20
313.3933979756124
 30
0.0
 11
335.548565838788
 21
418.3933732316301
 31
0.0
  0
LINE
  5
18C
330
1F
100
AcDbEntity
  8
D-4
  6
Continuous
 62
     7
370
     9
100
AcDbLine
 10
360.0813582136826
 20
313.3933979756124
 30
0.0
 11
334.048585633974
 21
313.3933979756124
 31
0.0
  0
LINE
  5
18D
330
1F
100
AcDbEntity
  8
D-4
  6
Continuous
 62
     7
370
     9
100
AcDbLine
 10
432.2351816538219
 20
418.3933732316301
 30
0.0
 11
334.048585633974
 21
418.3933732316301
 31
0.0
  0
LINE
  5
18E
330
1F
100
AcDbEntity
  8
D-4
  6
Continuous
 62
     7
370
     9
100
AcDbLine
 10
120.6942171663852
 20
473.9980501741977
 30
0.0
 11
459.8963557062922
 21
473.9980501741977
 31
0.0
  0
LINE
  5
18F
330
1F
100
AcDbEntity
  8
D-4
  6
Continuous
 62
     7
370
     9
100
AcDbLine
 10
427.3964959221919
 20
427.9790682406039
 30
0.0
 11
427.3964959221919
 21
475.4980303790119
 31
0.0
  0
LINE
  5
190
330
1F
100
AcDbEntity
  8
D-4
  6
Continuous
 62
     7
370
     9
100
AcDbLine
 10
429.8965041701859
 20
427.9790682406039
 30
0.0
 11
429.8965041701859
 21
475.4980303790119
 31
0.0
  0
LINE
  5
191
330
1F
100
AcDbEntity
  8
D-4
  6
Continuous
 62
     7
370
     9
100
AcDbLine
 10
459.8963557062922
 20
427.9790682406039
 30
0.0
 11
459.8963557062922
 21
516.4963345914275
 31
0.0
  0
LINE
  5
192
330
1F
100
AcDbEntity
  8
D-4
  6
Continuous
 62
     7
370
     9
100
AcDbLine
 10
120.6942171663852
 20
514.9963543866133
 30
0.0
 11
459.8963557062922
 21
514.9963543866133
 31
0.0
  0
LINE
  5
193
330
1F
100
AcDbEntity
  8
D-4
  6
Continuous
 62
     7
370
     9
100
AcDbLine
 10
569.8946153795398
 20
304.6434309675886
 30
0.0
 11
569.8946153795398
 21
431.0441053235854
 31
0.0
  0
LINE
  5
194
330
1F
100
AcDbEntity
  8
D-4
  6
Continuous
 62
     7
370
     9
100
AcDbLine
 10
525.4359889674831
 20
304.6434309675886
 30
0.0
 11
571.394595584354
 21
304.6434309675886
 31
0.0
  0
LINE
  5
195
330
1F
100
AcDbEntity
  8
D-4
  6
Continuous
 62
     7
370
     9
100
AcDbLine
 10
525.4359889674831
 20
329.6433897276183
 30
0.0
 11
571.394595584354
 21
329.6433897276183
 31
0.0
  0
LINE
  5
196
330
1F
100
AcDbEntity
  8
D-4
  6
Continuous
 62
     7
370
     9
100
AcDbLine
 10
677.6060362119932
 20
275.8933979756124
 30
0.0
 11
677.6060362119932
 21
413.3933567356419
 31
0.0
  0
LINE
  5
197
330
1F
100
AcDbEntity
  8
D-4
  6
Continuous
 62
     7
370
     9
100
AcDbLine
 10
553.2295433250636
 20
275.8933979756124
 30
0.0
 11
679.1060164168075
 21
275.8933979756124
 31
0.0
  0
LINE
  5
198
330
1F
100
AcDbEntity
  8
D-4
  6
Continuous
 62
     7
370
     9
100
AcDbLine
 10
120.6942171663852
 20
218.9056561444258
 30
0.0
 11
517.396421690245
 21
218.9056561444258
 31
0.0
  0
LINE
  5
199
330
1F
100
AcDbEntity
  8
D-4
  6
Continuous
 62
     7
370
     9
100
AcDbLine
 10
447.3963144663219
 20
290.7203633076437
 30
0.0
 11
447.3963144663219
 21
217.4056759396116
 31
0.0
  0
LINE
  5
19A
330
1F
100
AcDbEntity
  8
D-4
  6
Continuous
 62
     7
370
     9
100
AcDbLine
 10
517.396421690245
 20
290.7203633076437
 30
0.0
 11
517.396421690245
 21
217.4056759396116
 31
0.0
  0
LINE
  5
19B
330
1F
100
AcDbEntity
  8
D-6
  6
Continuous
 62
     6
370
     5
100
AcDbLine
 10
482.0972751926732
 20
337.8091513144004
 30
0.0
 11
504.5972257047086
 21
337.8091513144004
 31
0.0
  0
ARC
  5
19C
330
1F
100
AcDbEntity
  8
0-1
  6
JWW_DASHED3
 62
     2
370
     9
100
AcDbCircle
 10
-156.5710737898543
 20
233.1093205632391
 30
0.0
 40
1.999999904954756
100
AcDbArc
 50
270.0
 51
0.0
  0
ARC
  5
19D
330
1F
100
AcDbEntity
  8
0-1
  6
JWW_DASHED3
 62
     2
370
     9
100
AcDbCircle
 10
-143.8711011731947
 20
240.4092902106208
 30
0.0
 40
1.999999904954756
100
AcDbArc
 50
270.0
 51
0.0
  0
ARC
  5
19E
330
1F
100
AcDbEntity
  8
0-1
  6
Continuous
 62
     2
370
     9
100
AcDbCircle
 10
-143.8711011731947
 20
261.4093223777978
 30
0.0
 40
1.999999904954756
100
AcDbArc
 50
0.0
 51
90.0
  0
ARC
  5
19F
330
1F
100
AcDbEntity
  8
0-1
  6
Continuous
 62
     2
370
     9
100
AcDbCircle
 10
-569.8710467364336
 20
261.4093223777978
 30
0.0
 40
1.999999904954756
100
AcDbArc
 50
0.0
 51
90.0
  0
ARC
  5
1A0
330
1F
100
AcDbEntity
  8
0-1
  6
JWW_DASHED3
 62
     2
370
     9
100
AcDbCircle
 10
-569.8710467364336
 20
240.4092902106208
 30
0.0
 40
1.999999904954756
100
AcDbArc
 50
270.0
 51
0.0
  0
ARC
  5
1A1
330
1F
100
AcDbEntity
  8
0-1
  6
JWW_DASHED3
 62
     2
370
     9
100
AcDbCircle
 10
-582.5710502830711
 20
233.1093205632391
 30
0.0
 40
1.999999904954756
100
AcDbArc
 50
270.0
 51
0.0
  0
ARC
  5
1A2
330
1F
100
AcDbEntity
  8
0-1
  6
JWW_DASHED3
 62
     2
370
     9
100
AcDbCircle
 10
-681.5710119298988
 20
146.7093349147488
 30
0.0
 40
1.999999904954756
100
AcDbArc
 50
0.0
 51
90.0
  0
ARC
  5
1A3
330
1F
100
AcDbEntity
  8
0-1
  6
JWW_DASHED3
 62
     2
370
     9
100
AcDbCircle
 10
-688.8709815772804
 20
159.4093075314085
 30
0.0
 40
1.999999904954756
100
AcDbArc
 50
0.0
 51
90.0
  0
ARC
  5
1A4
330
1F
100
AcDbEntity
  8
0-1
  6
Continuous
 62
     2
370
     9
100
AcDbCircle
 10
-709.8710137444573
 20
159.4093075314085
 30
0.0
 40
1.999999904954756
100
AcDbArc
 50
90.0
 51
180.0
  0
ARC
  5
1A5
330
1F
100
AcDbEntity
  8
0-1
  6
Continuous
 62
     2
370
     9
100
AcDbCircle
 10
-709.8710137444573
 20
-266.5906380318307
 30
0.0
 40
1.999999904954756
100
AcDbArc
 50
90.0
 51
180.0
  0
ARC
  5
1A6
330
1F
100
AcDbEntity
  8
0-1
  6
JWW_DASHED3
 62
     2
370
     9
100
AcDbCircle
 10
-688.8709815772804
 20
-266.5906380318307
 30
0.0
 40
1.999999904954756
100
AcDbArc
 50
0.0
 51
90.0
  0
ARC
  5
1A7
330
1F
100
AcDbEntity
  8
0-1
  6
JWW_DASHED3
 62
     2
370
     9
100
AcDbCircle
 10
-681.5710119298988
 20
-279.2906415784681
 30
0.0
 40
1.999999904954756
100
AcDbArc
 50
0.0
 51
90.0
  0
ARC
  5
1A8
330
1F
100
AcDbEntity
  8
0-1
  6
JWW_DASHED3
 62
     2
370
     9
100
AcDbCircle
 10
-595.1710262814083
 20
-378.2906032252956
 30
0.0
 40
1.999999904954756
100
AcDbArc
 50
90.0
 51
180.0
  0
ARC
  5
1A9
330
1F
100
AcDbEntity
  8
0-1
  6
JWW_DASHED3
 62
     2
370
     9
100
AcDbCircle
 10
-607.8709988980679
 20
-385.5905728726773
 30
0.0
 40
1.999999904954756
100
AcDbArc
 50
90.0
 51
180.0
  0
ARC
  5
1AA
330
1F
100
AcDbEntity
  8
0-1
  6
Continuous
 62
     2
370
     9
100
AcDbCircle
 10
-607.8709988980679
 20
-406.5906050398543
 30
0.0
 40
1.999999904954756
100
AcDbArc
 50
180.0
 51
270.0
  0
ARC
  5
1AB
330
1F
100
AcDbEntity
  8
0-1
  6
Continuous
 62
     2
370
     9
100
AcDbCircle
 10
-181.8710533348289
 20
-406.5906050398543
 30
0.0
 40
1.999999904954756
100
AcDbArc
 50
180.0
 51
270.0
  0
ARC
  5
1AC
330
1F
100
AcDbEntity
  8
0-1
  6
JWW_DASHED3
 62
     2
370
     9
100
AcDbCircle
 10
-181.8710533348289
 20
-385.5905728726773
 30
0.0
 40
1.999999904954756
100
AcDbArc
 50
90.0
 51
180.0
  0
ARC
  5
1AD
330
1F
100
AcDbEntity
  8
0-1
  6
JWW_DASHED3
 62
     2
370
     9
100
AcDbCircle
 10
-169.1710188582137
 20
-378.2906032252956
 30
0.0
 40
1.999999904954756
100
AcDbArc
 50
90.0
 51
180.0
  0
ARC
  5
1AE
330
1F
100
AcDbEntity
  8
0-1
  6
JWW_DASHED3
 62
     2
370
     9
100
AcDbCircle
 10
-70.17108814136392
 20
-291.8906175768053
 30
0.0
 40
1.999999904954756
100
AcDbArc
 50
180.0
 51
270.0
  0
ARC
  5
1AF
330
1F
100
AcDbEntity
  8
0-1
  6
JWW_DASHED3
 62
     2
370
     9
100
AcDbCircle
 10
-62.87111849398215
 20
-304.5905901934649
 30
0.0
 40
1.999999904954756
100
AcDbArc
 50
180.0
 51
270.0
  0
ARC
  5
1B0
330
1F
100
AcDbEntity
  8
0-1
  6
Continuous
 62
     2
370
     9
100
AcDbCircle
 10
-41.8710863268052
 20
-304.5905901934649
 30
0.0
 40
1.999999904954756
100
AcDbArc
 50
270.0
 51
0.0
  0
ARC
  5
1B1
330
1F
100
AcDbEntity
  8
0-1
  6
Continuous
 62
     2
370
     9
100
AcDbCircle
 10
-41.8710863268052
 20
121.4093553697741
 30
0.0
 40
1.999999904954756
100
AcDbArc
 50
270.0
 51
0.0
  0
ARC
  5
1B2
330
1F
100
AcDbEntity
  8
0-1
  6
JWW_DASHED3
 62
     2
370
     9
100
AcDbCircle
 10
-62.87111849398215
 20
121.4093553697741
 30
0.0
 40
1.999999904954756
100
AcDbArc
 50
180.0
 51
270.0
  0
ARC
  5
1B3
330
1F
100
AcDbEntity
  8
0-1
  6
JWW_DASHED3
 62
     2
370
     9
100
AcDbCircle
 10
-70.17108814136392
 20
134.1093898463895
 30
0.0
 40
1.999999904954756
100
AcDbArc
 50
180.0
 51
270.0
  0
ARC
  5
1B4
330
1F
100
AcDbEntity
  8
0-2
  6
Continuous
 62
     3
370
     9
100
AcDbCircle
 10
-596.3709857012774
 20
-116.5906998917863
 30
0.0
 40
1.999999904954756
100
AcDbArc
 50
180.0
 51
270.0
  0
ARC
  5
1B5
330
1F
100
AcDbEntity
  8
0-2
  6
Continuous
 62
     3
370
     9
100
AcDbCircle
 10
-565.3709824020798
 20
-116.5906998917863
 30
0.0
 40
1.999999904954756
100
AcDbArc
 50
270.0
 51
0.0
  0
ARC
  5
1B6
330
1F
100
AcDbEntity
  8
0-2
  6
Continuous
 62
     3
370
     9
100
AcDbCircle
 10
-565.3709824020798
 20
-28.59058277027017
 30
0.0
 40
1.999999904954756
100
AcDbArc
 50
0.0
 51
90.0
  0
ARC
  5
1B7
330
1F
100
AcDbEntity
  8
0-2
  6
Continuous
 62
     3
370
     9
100
AcDbCircle
 10
-596.3709857012774
 20
-28.59058277027017
 30
0.0
 40
1.999999904954756
100
AcDbArc
 50
90.0
 51
180.0
  0
ARC
  5
1B8
330
1F
100
AcDbEntity
  8
0-2
  6
Continuous
 62
     3
370
     9
100
AcDbCircle
 10
-584.7710996060757
 20
-102.990726780247
 30
0.0
 40
2.20000002835248
100
AcDbArc
 50
180.0
 51
270.0
  0
ARC
  5
1B9
330
1F
100
AcDbEntity
  8
0-2
  6
Continuous
 62
     3
370
     9
100
AcDbCircle
 10
-584.7710996060757
 20
-42.19067960172083
 30
0.0
 40
2.20000002835248
100
AcDbArc
 50
90.0
 51
180.0
  0
ARC
  5
1BA
330
1F
100
AcDbEntity
  8
0-2
  6
Continuous
 62
     3
370
     9
100
AcDbCircle
 10
-576.9709922171928
 20
-42.19067960172083
 30
0.0
 40
2.20000002835248
100
AcDbArc
 50
0.0
 51
90.0
  0
ARC
  5
1BB
330
1F
100
AcDbEntity
  8
0-2
  6
Continuous
 62
     3
370
     9
100
AcDbCircle
 10
-576.9709922171928
 20
-102.990726780247
 30
0.0
 40
2.20000002835248
100
AcDbArc
 50
270.0
 51
0.0
  0
ARC
  5
1BC
330
1F
100
AcDbEntity
  8
0-2
  6
Continuous
 62
     3
370
     9
100
AcDbCircle
 10
-580.8710459116343
 20
-72.59064133102825
 30
0.0
 40
12.49999871125092
100
AcDbArc
 50
299.2091369628906
 51
35.18690490722659
  0
ARC
  5
1BD
330
1F
100
AcDbEntity
  8
0-2
  6
Continuous
 62
     3
370
     9
100
AcDbCircle
 10
-580.8710459116343
 20
-72.59064133102825
 30
0.0
 40
12.49999871125092
100
AcDbArc
 50
35.18690490722657
 51
60.79086303710938
  0
ARC
  5
1BE
330
1F
100
AcDbEntity
  8
0-2
  6
Continuous
 62
     3
370
     9
100
AcDbCircle
 10
-580.8710459116343
 20
-72.59064133102825
 30
0.0
 40
12.49999871125092
100
AcDbArc
 50
119.2092742919922
 51
240.7907257080078
  0
ARC
  5
1BF
330
1F
100
AcDbEntity
  8
0-2
  6
Continuous
 62
     3
370
     9
100
AcDbCircle
 10
-186.3709939492715
 20
-116.5906998917863
 30
0.0
 40
1.999999904954756
100
AcDbArc
 50
180.0
 51
270.0
  0
ARC
  5
1C0
330
1F
100
AcDbEntity
  8
0-2
  6
Continuous
 62
     3
370
     9
100
AcDbCircle
 10
-155.3709906500738
 20
-116.5906998917863
 30
0.0
 40
1.999999904954756
100
AcDbArc
 50
270.0
 51
0.0
  0
ARC
  5
1C1
330
1F
100
AcDbEntity
  8
0-2
  6
Continuous
 62
     3
370
     9
100
AcDbCircle
 10
-155.3709906500738
 20
-28.59058277027017
 30
0.0
 40
1.999999904954756
100
AcDbArc
 50
0.0
 51
90.0
  0
ARC
  5
1C2
330
1F
100
AcDbEntity
  8
0-2
  6
Continuous
 62
     3
370
     9
100
AcDbCircle
 10
-186.3709939492715
 20
-28.59058277027017
 30
0.0
 40
1.999999904954756
100
AcDbArc
 50
90.0
 51
180.0
  0
ARC
  5
1C3
330
1F
100
AcDbEntity
  8
0-2
  6
Continuous
 62
     3
370
     9
100
AcDbCircle
 10
-174.7710769240921
 20
-102.990726780247
 30
0.0
 40
2.20000002835248
100
AcDbArc
 50
180.0
 51
270.0
  0
ARC
  5
1C4
330
1F
100
AcDbEntity
  8
0-2
  6
Continuous
 62
     3
370
     9
100
AcDbCircle
 10
-174.7710769240921
 20
-42.19067960172083
 30
0.0
 40
2.20000002835248
100
AcDbArc
 50
90.0
 51
180.0
  0
ARC
  5
1C5
330
1F
100
AcDbEntity
  8
0-2
  6
Continuous
 62
     3
370
     9
100
AcDbCircle
 10
-166.9710313951647
 20
-42.19067960172083
 30
0.0
 40
2.20000002835248
100
AcDbArc
 50
0.0
 51
90.0
  0
ARC
  5
1C6
330
1F
100
AcDbEntity
  8
0-2
  6
Continuous
 62
     3
370
     9
100
AcDbCircle
 10
-166.9710313951647
 20
-102.990726780247
 30
0.0
 40
2.20000002835248
100
AcDbArc
 50
270.0
 51
0.0
  0
ARC
  5
1C7
330
1F
100
AcDbEntity
  8
0-2
  6
Continuous
 62
     3
370
     9
100
AcDbCircle
 10
-170.8710541596284
 20
-72.59064133102825
 30
0.0
 40
12.49999871125092
100
AcDbArc
 50
299.2091369628906
 51
35.18690490722659
  0
ARC
  5
1C8
330
1F
100
AcDbEntity
  8
0-2
  6
Continuous
 62
     3
370
     9
100
AcDbCircle
 10
-170.8710541596284
 20
-72.59064133102825
 30
0.0
 40
12.49999871125092
100
AcDbArc
 50
35.18690490722657
 51
60.79086303710938
  0
ARC
  5
1C9
330
1F
100
AcDbEntity
  8
0-2
  6
Continuous
 62
     3
370
     9
100
AcDbCircle
 10
-170.8710541596284
 20
-72.59064133102825
 30
0.0
 40
12.49999871125092
100
AcDbArc
 50
119.2092742919922
 51
240.7907257080078
  0
ARC
  5
1CA
330
1F
100
AcDbEntity
  8
D-1
  6
Continuous
 62
     2
370
     9
100
AcDbCircle
 10
419.2713144663219
 20
342.1434309675888
 30
0.0
 40
2.499999790578275
100
AcDbArc
 50
90.0
 51
180.0
  0
ARC
  5
1CB
330
1F
100
AcDbEntity
  8
D-1
  6
Continuous
 62
     2
370
     9
100
AcDbCircle
 10
427.3964959221919
 20
342.1434309675888
 30
0.0
 40
2.499999790578275
100
AcDbArc
 50
7.016464233398438
 51
90.0
  0
ARC
  5
1CC
330
1F
100
AcDbEntity
  8
D-1
  6
Continuous
 62
     2
370
     9
100
AcDbCircle
 10
427.3964959221919
 20
319.6433567356419
 30
0.0
 40
2.499999790578275
100
AcDbArc
 50
270.0
 51
0.0
  0
ARC
  5
1CD
330
1F
100
AcDbEntity
  8
D-1
  6
Continuous
 62
     2
370
     9
100
AcDbCircle
 10
413.0213557062922
 20
319.6433567356419
 30
0.0
 40
2.499999790578275
100
AcDbArc
 50
180.0
 51
270.0
  0
ARC
  5
1CE
330
1F
100
AcDbEntity
  8
D-1
  6
Continuous
 62
     2
370
     9
100
AcDbCircle
 10
381.7713144663219
 20
319.6433567356419
 30
0.0
 40
2.499999790578275
100
AcDbArc
 50
270.0
 51
0.0
  0
ARC
  5
1CF
330
1F
100
AcDbEntity
  8
D-1
  6
Continuous
 62
     2
370
     9
100
AcDbCircle
 10
371.1464959221917
 20
319.6433567356419
 30
0.0
 40
2.499999790578275
100
AcDbArc
 50
180.0
 51
270.0
  0
ARC
  5
1D0
330
1F
100
AcDbEntity
  8
D-1
  6
Continuous
 62
     2
370
     9
100
AcDbCircle
 10
371.1464959221917
 20
342.1434309675888
 30
0.0
 40
2.499999790578275
100
AcDbArc
 50
90.0
 51
180.0
  0
ARC
  5
1D1
330
1F
100
AcDbEntity
  8
D-1
  6
Continuous
 62
     2
370
     9
100
AcDbCircle
 10
375.5213557062922
 20
342.1434309675888
 30
0.0
 40
2.499999790578275
100
AcDbArc
 50
7.016464233398438
 51
90.0
  0
ARC
  5
1D2
330
1F
100
AcDbEntity
  8
D-1
  6
Continuous
 62
     2
370
     9
100
AcDbCircle
 10
410.5213474582982
 20
332.1433979756124
 30
0.0
 40
2.499999790578275
100
AcDbArc
 50
270.0
 51
0.0
  0
ARC
  5
1D3
330
1F
100
AcDbEntity
  8
D-1
  6
Continuous
 62
     2
370
     9
100
AcDbCircle
 10
384.2713227143159
 20
332.1433979756124
 30
0.0
 40
2.499999790578275
100
AcDbArc
 50
180.0
 51
270.0
  0
ARC
  5
1D4
330
1F
100
AcDbEntity
  8
D-1
  6
Continuous
 62
     2
370
     9
100
AcDbCircle
 10
410.5213474582982
 20
332.1433979756124
 30
0.0
 40
6.250000322187269
100
AcDbArc
 50
270.0
 51
0.0
  0
ARC
  5
1D5
330
1F
100
AcDbEntity
  8
D-1
  6
Continuous
 62
     2
370
     9
100
AcDbCircle
 10
384.2713227143159
 20
332.1433979756124
 30
0.0
 40
6.250000322187269
100
AcDbArc
 50
180.0
 51
270.0
  0
ARC
  5
1D6
330
1F
100
AcDbEntity
  8
D-1
  6
Continuous
 62
     2
370
     9
100
AcDbCircle
 10
397.3963969462628
 20
375.8933567356419
 30
0.0
 40
35.79455195246516
100
AcDbArc
 50
257.9052581787109
 51
282.0947265625
  0
ARC
  5
1D7
330
1F
100
AcDbEntity
  8
D-1
  6
Continuous
 62
     2
370
     9
100
AcDbCircle
 10
397.3963969462628
 20
375.8933567356419
 30
0.0
 40
37.83683519105654
100
AcDbArc
 50
248.690673828125
 51
291.3093109130859
  0
ARC
  5
1D8
330
1F
100
AcDbEntity
  8
D-1
  6
Continuous
 62
     2
370
     9
100
AcDbCircle
 10
449.8963227143159
 20
315.0722771721918
 30
0.0
 40
4.99999958115655
100
AcDbArc
 50
7.016464233398438
 51
45.0
  0
ARC
  5
1D9
330
1F
100
AcDbEntity
  8
D-1
  6
Continuous
 62
     2
370
     9
100
AcDbCircle
 10
472.5740587389149
 20
342.1434309675888
 30
0.0
 40
12.50000064437454
100
AcDbArc
 50
225.0
 51
270.0
  0
ARC
  5
1DA
330
1F
100
AcDbEntity
  8
D-1
  6
Continuous
 62
     2
370
     9
100
AcDbCircle
 10
454.8963392103042
 20
340.893364983636
 30
0.0
 40
9.000004948796454
100
AcDbArc
 50
320.6364898681641
 51
90.00000000000003
  0
ARC
  5
1DB
330
1F
100
AcDbEntity
  8
D-1
  6
JWW_DASHED3
 62
     2
370
     9
100
AcDbCircle
 10
454.8963392103042
 20
340.893364983636
 30
0.0
 40
9.000004948796454
100
AcDbArc
 50
270.0
 51
320.6364898681641
  0
ARC
  5
1DC
330
1F
100
AcDbEntity
  8
D-1
  6
Continuous
 62
     2
370
     9
100
AcDbCircle
 10
512.3964051942568
 20
324.6433732316301
 30
0.0
 40
4.99999958115655
100
AcDbArc
 50
0.0
 51
90.0
  0
TEXT
  5
1DD
330
1F
100
AcDbEntity
  8
0-4
  6
Continuous
 62
     2
370
     9
100
AcDbText
 10
-392.1211118955869
 20
293.13672709697
 30
0.0
 40
15.24
  1
550
 41
1.083333333333333
  7
ＭＳ ゴシック
100
AcDbText
  0
TEXT
  5
1DE
330
1F
100
AcDbEntity
  8
0-4
  6
Continuous
 62
     2
370
     9
100
AcDbText
 10
-392.1210500356313
 20
332.6285558092272
 30
0.0
 40
15.24
  1
600
 41
1.083333333333333
  7
ＭＳ ゴシック
100
AcDbText
  0
TEXT
  5
1DF
330
1F
100
AcDbEntity
  8
0-4
  6
Continuous
 62
     2
370
     9
100
AcDbText
 10
-392.1210500356313
 20
364.6931689453125
 30
0.0
 40
15.24
  1
626
 41
1.083333333333333
  7
ＭＳ ゴシック
100
AcDbText
  0
TEXT
  5
1E0
330
1F
100
AcDbEntity
  8
0-4
  6
Continuous
 62
     2
370
     9
100
AcDbText
 10
-741.5984803235854
 20
-88.84064133102825
 30
0.0
 40
15.24
  1
550
 50
90.0
 41
1.083333333333333
  7
ＭＳ ゴシック
100
AcDbText
  0
TEXT
  5
1E1
330
1F
100
AcDbEntity
  8
0-4
  6
Continuous
 62
     2
370
     9
100
AcDbText
 10
-781.0903090358426
 20
-88.84057947107259
 30
0.0
 40
15.24
  1
600
 50
90.0
 41
1.083333333333333
  7
ＭＳ ゴシック
100
AcDbText
  0
TEXT
  5
1E2
330
1F
100
AcDbEntity
  8
0-4
  6
Continuous
 62
     2
370
     9
100
AcDbText
 10
-813.1549221719278
 20
-88.84057947107259
 30
0.0
 40
15.24
  1
626
 50
90.0
 41
1.083333333333333
  7
ＭＳ ゴシック
100
AcDbText
  0
TEXT
  5
1E3
330
1F
100
AcDbEntity
  8
D-4
  6
Continuous
 62
     2
370
     9
100
AcDbText
 10
235.1192082585516
 20
95.86464804159635
 30
0.0
 40
15.24
  1
断面詳細図　Ｓ＝１：２
 41
1.113636363636364
  7
ＭＳ ゴシック
100
AcDbText
  0
TEXT
  5
1E4
330
1F
100
AcDbEntity
  8
D-4
  6
Continuous
 62
     7
370
     9
100
AcDbText
 10
504.6255369444152
 20
84.93729036898229
 30
0.0
 40
11.43
  1
処理：陽極酸化塗装複合皮膜処理（アルミ材のみ）
 41
1.159420289855073
  7
ＭＳ ゴシック
100
AcDbText
  0
TEXT
  5
1E5
330
1F
100
AcDbEntity
  8
D-4
  6
Continuous
 62
     2
370
     9
100
AcDbText
 10
66.65825663798569
 20
335.4350816881336
 30
0.0
 40
15.24
  1
3.2
 50
90.0
 41
1.083333333333333
  7
ＭＳ ゴシック
100
AcDbText
  0
TEXT
  5
1E6
330
1F
100
AcDbEntity
  8
D-4
  6
Continuous
 62
     2
370
     9
100
AcDbText
 10
66.65825663798569
 20
379.67124732765
 30
0.0
 40
15.24
  1
12.5
 50
90.0
 41
1.09375
  7
ＭＳ ゴシック
100
AcDbText
  0
TEXT
  5
1E7
330
1F
100
AcDbEntity
  8
D-4
  6
Continuous
 62
     2
370
     9
100
AcDbText
 10
330.228557590794
 20
347.0287632297826
 30
0.0
 40
15.24
  1
42
 50
90.0
 41
1.0625
  7
ＭＳ ゴシック
100
AcDbText
  0
TEXT
  5
1E8
330
1F
100
AcDbEntity
  8
D-4
  6
Continuous
 62
     2
370
     9
100
AcDbText
 10
412.6457585515204
 20
479.3180584221918
 30
0.0
 40
15.24
  1
1
 41
0.9999999999999998
  7
ＭＳ ゴシック
100
AcDbText
  0
TEXT
  5
1E9
330
1F
100
AcDbEntity
  8
D-4
  6
Continuous
 62
     2
370
     9
100
AcDbText
 10
434.2714917981948
 20
479.3180584221918
 30
0.0
 40
15.24
  1
12
 41
1.0625
  7
ＭＳ ゴシック
100
AcDbText
  0
TEXT
  5
1EA
330
1F
100
AcDbEntity
  8
D-4
  6
Continuous
 62
     2
370
     9
100
AcDbText
 10
564.5746071315456
 20
306.5184103476035
 30
0.0
 40
15.24
  1
10
 50
90.0
 41
1.0625
  7
ＭＳ ゴシック
100
AcDbText
  0
TEXT
  5
1EB
330
1F
100
AcDbEntity
  8
D-4
  6
Continuous
 62
     2
370
     9
100
AcDbText
 10
564.5746071315456
 20
349.6433113716744
 30
0.0
 40
15.24
  1
33.5
 50
90.0
 41
1.09375
  7
ＭＳ ゴシック
100
AcDbText
  0
TEXT
  5
1EC
330
1F
100
AcDbEntity
  8
D-4
  6
Continuous
 62
     2
370
     9
100
AcDbText
 10
564.5746071315456
 20
421.9535538956927
 30
0.0
 40
15.24
  1
2
 50
90.0
 41
0.9999999999999998
  7
ＭＳ ゴシック
100
AcDbText
  0
TEXT
  5
1ED
330
1F
100
AcDbEntity
  8
D-4
  6
Continuous
 62
     2
370
     9
100
AcDbText
 10
672.2860279639991
 20
311.5184392155828
 30
0.0
 40
15.24
  1
55～65
 50
90.0
 41
1.104166666666667
  7
ＭＳ ゴシック
100
AcDbText
  0
TEXT
  5
1EE
330
1F
100
AcDbEntity
  8
D-4
  6
Continuous
 62
     2
370
     9
100
AcDbText
 10
395.5214258142421
 20
224.2257881123311
 30
0.0
 40
15.24
  1
33
 41
1.0625
  7
ＭＳ ゴシック
100
AcDbText
  0
TEXT
  5
1EF
330
1F
100
AcDbEntity
  8
D-4
  6
Continuous
 62
     2
370
     9
100
AcDbText
 10
471.7713680782834
 20
224.2257881123311
 30
0.0
 40
15.24
  1
28
 41
1.0625
  7
ＭＳ ゴシック
100
AcDbText
  0
TEXT
  5
1F0
330
1F
100
AcDbEntity
  8
D-4
  6
Continuous
 62
     2
370
     9
100
AcDbText
 10
124.2686116114717
 20
224.2257881123421
 30
0.0
 40
15.24
  1
550
 50
359.9997818882351
 41
1.083333333333333
  7
ＭＳ ゴシック
100
AcDbText
  0
TEXT
  5
1F1
330
1F
100
AcDbEntity
  8
D-4
  6
Continuous
 62
     2
370
     9
100
AcDbText
 10
121.6723385372678
 20
479.3180584221918
 30
0.0
 40
15.24
  1
600
 41
1.083333333333333
  7
ＭＳ ゴシック
100
AcDbText
  0
TEXT
  5
1F2
330
1F
100
AcDbEntity
  8
D-4
  6
Continuous
 62
     2
370
     9
100
AcDbText
 10
120.8316617398649
 20
520.925930637669
 30
0.0
 40
15.24
  1
626
 41
1.083333333333333
  7
ＭＳ ゴシック
100
AcDbText
  0
LWPOLYLINE
  5
1F3
330
1F
100
AcDbEntity
  8
0-4
  6
Continuous
 62
     7
370
     9
100
AcDbPolyline
 90
        4
 70
     1
 43
0.5
 10
-650.6210603456238
 20
287.8167188489761
 42
0.4142135623731
 10
-650.871060345624
 20
288.0667188489761
 42
0.4142135623731
 10
-651.1210603456241
 20
287.8167188489761
 42
0.4142135623731
 10
-650.871060345624
 20
287.5667188489761
 42
0.4142135623731
  0
LWPOLYLINE
  5
1F4
330
1F
100
AcDbEntity
  8
0-4
  6
Continuous
 62
     7
370
     9
100
AcDbPolyline
 90
        4
 70
     1
 43
0.5
 10
-100.6210706556165
 20
287.8167188489761
 42
0.4142135623731
 10
-100.8710706556165
 20
288.0667188489761
 42
0.4142135623731
 10
-101.1210706556165
 20
287.8167188489761
 42
0.4142135623731
 10
-100.8710706556165
 20
287.5667188489761
 42
0.4142135623731
  0
LWPOLYLINE
  5
1F5
330
1F
100
AcDbEntity
  8
0-4
  6
Continuous
 62
     7
370
     9
100
AcDbPolyline
 90
        4
 70
     1
 43
0.5
 10
-675.6210500356312
 20
327.3085475612332
 42
0.4142135623731
 10
-675.8710500356312
 20
327.5585475612332
 42
0.4142135623731
 10
-676.1210500356312
 20
327.3085475612332
 42
0.4142135623731
 10
-675.8710500356312
 20
327.0585475612332
 42
0.4142135623731
  0
LWPOLYLINE
  5
1F6
330
1F
100
AcDbEntity
  8
0-4
  6
Continuous
 62
     7
370
     9
100
AcDbPolyline
 90
        4
 70
     1
 43
0.5
 10
-75.62105003563124
 20
327.3085475612332
 42
0.4142135623731
 10
-75.87105003563124
 20
327.5585475612332
 42
0.4142135623731
 10
-76.12105003563124
 20
327.3085475612332
 42
0.4142135623731
 10
-75.87105003563124
 20
327.0585475612332
 42
0.4142135623731
  0
LWPOLYLINE
  5
1F7
330
1F
100
AcDbEntity
  8
0-4
  6
Continuous
 62
     7
370
     9
100
AcDbPolyline
 90
        4
 70
     1
 43
0.5
 10
-688.621043437236
 20
359.3731606973185
 42
0.4142135623731
 10
-688.871043437236
 20
359.6231606973185
 42
0.4142135623731
 10
-689.1210434372362
 20
359.3731606973185
 42
0.4142135623731
 10
-688.871043437236
 20
359.1231606973185
 42
0.4142135623731
  0
LWPOLYLINE
  5
1F8
330
1F
100
AcDbEntity
  8
0-4
  6
Continuous
 62
     7
370
     9
100
AcDbPolyline
 90
        4
 70
     1
 43
0.5
 10
-62.62105663402656
 20
359.3731606973185
 42
0.4142135623731
 10
-62.87105663402656
 20
359.6231606973185
 42
0.4142135623731
 10
-63.12105663402656
 20
359.3731606973185
 42
0.4142135623731
 10
-62.87105663402656
 20
359.1231606973185
 42
0.4142135623731
  0
LWPOLYLINE
  5
1F9
330
1F
100
AcDbEntity
  8
0-4
  6
Continuous
 62
     7
370
     9
100
AcDbPolyline
 90
        4
 70
     1
 43
0.5
 10
-736.028472075591
 20
-347.5905897810652
 42
0.4142135623731
 10
-736.2784720755911
 20
-347.3405897810653
 42
0.4142135623731
 10
-736.5284720755913
 20
-347.5905897810652
 42
0.4142135623731
 10
-736.2784720755911
 20
-347.8405897810652
 42
0.4142135623731
  0
LWPOLYLINE
  5
1FA
330
1F
100
AcDbEntity
  8
0-4
  6
Continuous
 62
     7
370
     9
100
AcDbPolyline
 90
        4
 70
     1
 43
0.5
 10
-736.028472075591
 20
202.4093999089422
 42
0.4142135623731
 10
-736.2784720755911
 20
202.6593999089422
 42
0.4142135623731
 10
-736.5284720755913
 20
202.4093999089422
 42
0.4142135623731
 10
-736.2784720755911
 20
202.1593999089422
 42
0.4142135623731
  0
LWPOLYLINE
  5
1FB
330
1F
100
AcDbEntity
  8
0-4
  6
Continuous
 62
     7
370
     9
100
AcDbPolyline
 90
        4
 70
     1
 43
0.5
 10
-775.5203007878483
 20
-372.5905794710726
 42
0.4142135623731
 10
-775.7703007878484
 20
-372.3405794710726
 42
0.4142135623731
 10
-776.0203007878486
 20
-372.5905794710726
 42
0.4142135623731
 10
-775.7703007878484
 20
-372.8405794710726
 42
0.4142135623731
  0
LWPOLYLINE
  5
1FC
330
1F
100
AcDbEntity
  8
0-4
  6
Continuous
 62
     7
370
     9
100
AcDbPolyline
 90
        4
 70
     1
 43
0.5
 10
-775.5203007878483
 20
227.4094205289275
 42
0.4142135623731
 10
-775.7703007878484
 20
227.6594205289275
 42
0.4142135623731
 10
-776.0203007878486
 20
227.4094205289275
 42
0.4142135623731
 10
-775.7703007878484
 20
227.1594205289275
 42
0.4142135623731
  0
LWPOLYLINE
  5
1FD
330
1F
100
AcDbEntity
  8
0-4
  6
Continuous
 62
     7
370
     9
100
AcDbPolyline
 90
        4
 70
     1
 43
0.5
 10
-807.5849139239336
 20
-385.5905728726773
 42
0.4142135623731
 10
-807.8349139239338
 20
-385.3405728726773
 42
0.4142135623731
 10
-808.0849139239338
 20
-385.5905728726773
 42
0.4142135623731
 10
-807.8349139239338
 20
-385.8405728726773
 42
0.4142135623731
  0
LWPOLYLINE
  5
1FE
330
1F
100
AcDbEntity
  8
0-4
  6
Continuous
 62
     7
370
     9
100
AcDbPolyline
 90
        4
 70
     1
 43
0.5
 10
-807.5849139239336
 20
240.4094139305322
 42
0.4142135623731
 10
-807.8349139239338
 20
240.6594139305321
 42
0.4142135623731
 10
-808.0849139239338
 20
240.4094139305322
 42
0.4142135623731
 10
-807.8349139239338
 20
240.1594139305322
 42
0.4142135623731
  0
LWPOLYLINE
  5
1FF
330
1F
100
AcDbEntity
  8
D-4
  6
Continuous
 62
     7
370
     9
100
AcDbPolyline
 90
        4
 70
     1
 43
0.5
 10
72.22838860589115
 20
374.143338590055
 42
0.4142135623731
 10
71.97838860589115
 20
374.393338590055
 42
0.4142135623731
 10
71.72838860589115
 20
374.143338590055
 42
0.4142135623731
 10
71.97838860589115
 20
373.893338590055
 42
0.4142135623731
  0
LWPOLYLINE
  5
200
330
1F
100
AcDbEntity
  8
D-4
  6
Continuous
 62
     7
370
     9
100
AcDbPolyline
 90
        4
 70
     1
 43
0.5
 10
72.22838860589115
 20
382.1433154956715
 42
0.4142135623731
 10
71.97838860589115
 20
382.3933154956715
 42
0.4142135623731
 10
71.72838860589115
 20
382.1433154956715
 42
0.4142135623731
 10
71.97838860589115
 20
381.8933154956715
 42
0.4142135623731
  0
LWPOLYLINE
  5
201
330
1F
100
AcDbEntity
  8
D-4
  6
Continuous
 62
     7
370
     9
100
AcDbPolyline
 90
        4
 70
     1
 43
0.5
 10
72.22838860589115
 20
413.3933567356419
 42
0.4142135623731
 10
71.97838860589115
 20
413.6433567356419
 42
0.4142135623731
 10
71.72838860589115
 20
413.3933567356419
 42
0.4142135623731
 10
71.97838860589115
 20
413.1433567356419
 42
0.4142135623731
  0
LWPOLYLINE
  5
202
330
1F
100
AcDbEntity
  8
D-4
  6
Continuous
 62
     7
370
     9
100
AcDbPolyline
 90
        4
 70
     1
 43
0.5
 10
335.798565838788
 20
313.3933979756124
 42
0.4142135623731
 10
335.548565838788
 20
313.6433979756123
 42
0.4142135623731
 10
335.298565838788
 20
313.3933979756124
 42
0.4142135623731
 10
335.548565838788
 20
313.1433979756124
 42
0.4142135623731
  0
LWPOLYLINE
  5
203
330
1F
100
AcDbEntity
  8
D-4
  6
Continuous
 62
     7
370
     9
100
AcDbPolyline
 90
        4
 70
     1
 43
0.5
 10
335.798565838788
 20
418.3933732316301
 42
0.4142135623731
 10
335.548565838788
 20
418.6433732316301
 42
0.4142135623731
 10
335.298565838788
 20
418.3933732316301
 42
0.4142135623731
 10
335.548565838788
 20
418.1433732316301
 42
0.4142135623731
  0
LWPOLYLINE
  5
204
330
1F
100
AcDbEntity
  8
D-4
  6
Continuous
 62
     7
370
     9
100
AcDbPolyline
 90
        4
 70
     1
 43
0.5
 10
427.6464959221919
 20
473.9980501741977
 42
0.4142135623731
 10
427.3964959221919
 20
474.2480501741977
 42
0.4142135623731
 10
427.1464959221919
 20
473.9980501741977
 42
0.4142135623731
 10
427.3964959221919
 20
473.7480501741977
 42
0.4142135623731
  0
LWPOLYLINE
  5
205
330
1F
100
AcDbEntity
  8
D-4
  6
Continuous
 62
     7
370
     9
100
AcDbPolyline
 90
        4
 70
     1
 43
0.5
 10
430.1465041701859
 20
473.9980501741977
 42
0.4142135623731
 10
429.8965041701859
 20
474.2480501741977
 42
0.4142135623731
 10
429.6465041701859
 20
473.9980501741977
 42
0.4142135623731
 10
429.8965041701859
 20
473.7480501741977
 42
0.4142135623731
  0
LWPOLYLINE
  5
206
330
1F
100
AcDbEntity
  8
D-4
  6
Continuous
 62
     7
370
     9
100
AcDbPolyline
 90
        4
 70
     1
 43
0.5
 10
460.1463557062922
 20
473.9980501741977
 42
0.4142135623731
 10
459.8963557062922
 20
474.2480501741977
 42
0.4142135623731
 10
459.6463557062922
 20
473.9980501741977
 42
0.4142135623731
 10
459.8963557062922
 20
473.7480501741977
 42
0.4142135623731
  0
LWPOLYLINE
  5
207
330
1F
100
AcDbEntity
  8
D-4
  6
Continuous
 62
     7
370
     9
100
AcDbPolyline
 90
        4
 70
     1
 43
0.5
 10
460.1463557062922
 20
514.9963543866133
 42
0.4142135623731
 10
459.8963557062922
 20
515.2463543866132
 42
0.4142135623731
 10
459.6463557062922
 20
514.9963543866133
 42
0.4142135623731
 10
459.8963557062922
 20
514.7463543866133
 42
0.4142135623731
  0
LWPOLYLINE
  5
208
330
1F
100
AcDbEntity
  8
D-4
  6
Continuous
 62
     7
370
     9
100
AcDbPolyline
 90
        4
 70
     1
 43
0.5
 10
570.1446153795398
 20
304.6434309675886
 42
0.4142135623731
 10
569.8946153795398
 20
304.8934309675886
 42
0.4142135623731
 10
569.6446153795399
 20
304.6434309675886
 42
0.4142135623731
 10
569.8946153795398
 20
304.3934309675887
 42
0.4142135623731
  0
LWPOLYLINE
  5
209
330
1F
100
AcDbEntity
  8
D-4
  6
Continuous
 62
     7
370
     9
100
AcDbPolyline
 90
        4
 70
     1
 43
0.5
 10
570.1446153795398
 20
329.6433897276183
 42
0.4142135623731
 10
569.8946153795398
 20
329.8933897276183
 42
0.4142135623731
 10
569.6446153795399
 20
329.6433897276183
 42
0.4142135623731
 10
569.8946153795398
 20
329.3933897276184
 42
0.4142135623731
  0
LWPOLYLINE
  5
20A
330
1F
100
AcDbEntity
  8
D-4
  6
Continuous
 62
     7
370
     9
100
AcDbPolyline
 90
        4
 70
     1
 43
0.5
 10
570.1446153795398
 20
413.3933567356419
 42
0.4142135623731
 10
569.8946153795398
 20
413.6433567356419
 42
0.4142135623731
 10
569.6446153795399
 20
413.3933567356419
 42
0.4142135623731
 10
569.8946153795398
 20
413.1433567356419
 42
0.4142135623731
  0
LWPOLYLINE
  5
20B
330
1F
100
AcDbEntity
  8
D-4
  6
Continuous
 62
     7
370
     9
100
AcDbPolyline
 90
        4
 70
     1
 43
0.5
 10
570.1446153795398
 20
418.3933732316301
 42
0.4142135623731
 10
569.8946153795398
 20
418.6433732316301
 42
0.4142135623731
 10
569.6446153795399
 20
418.3933732316301
 42
0.4142135623731
 10
569.8946153795398
 20
418.1433732316301
 42
0.4142135623731
  0
LWPOLYLINE
  5
20C
330
1F
100
AcDbEntity
  8
D-4
  6
Continuous
 62
     7
370
     9
100
AcDbPolyline
 90
        4
 70
     1
 43
0.5
 10
677.8560362119933
 20
275.8933979756124
 42
0.4142135623731
 10
677.6060362119932
 20
276.1433979756123
 42
0.4142135623731
 10
677.3560362119931
 20
275.8933979756124
 42
0.4142135623731
 10
677.6060362119932
 20
275.6433979756124
 42
0.4142135623731
  0
LWPOLYLINE
  5
20D
330
1F
100
AcDbEntity
  8
D-4
  6
Continuous
 62
     7
370
     9
100
AcDbPolyline
 90
        4
 70
     1
 43
0.5
 10
677.8560362119933
 20
413.3933567356419
 42
0.4142135623731
 10
677.6060362119932
 20
413.6433567356419
 42
0.4142135623731
 10
677.3560362119931
 20
413.3933567356419
 42
0.4142135623731
 10
677.6060362119932
 20
413.1433567356419
 42
0.4142135623731
  0
LWPOLYLINE
  5
20E
330
1F
100
AcDbEntity
  8
D-4
  6
Continuous
 62
     7
370
     9
100
AcDbPolyline
 90
        4
 70
     1
 43
0.5
 10
365.1464134422511
 20
218.9056561444258
 42
0.4142135623731
 10
364.8964134422511
 20
219.1556561444258
 42
0.4142135623731
 10
364.6464134422511
 20
218.9056561444258
 42
0.4142135623731
 10
364.8964134422511
 20
218.6556561444258
 42
0.4142135623731
  0
LWPOLYLINE
  5
20F
330
1F
100
AcDbEntity
  8
D-4
  6
Continuous
 62
     7
370
     9
100
AcDbPolyline
 90
        4
 70
     1
 43
0.5
 10
447.6463144663219
 20
218.9056561444258
 42
0.4142135623731
 10
447.3963144663219
 20
219.1556561444258
 42
0.4142135623731
 10
447.1463144663219
 20
218.9056561444258
 42
0.4142135623731
 10
447.3963144663219
 20
218.6556561444258
 42
0.4142135623731
  0
LWPOLYLINE
  5
210
330
1F
100
AcDbEntity
  8
D-4
  6
Continuous
 62
     7
370
     9
100
AcDbPolyline
 90
        4
 70
     1
 43
0.5
 10
517.646421690245
 20
218.9056561444258
 42
0.4142135623731
 10
517.396421690245
 20
219.1556561444258
 42
0.4142135623731
 10
517.1464216902451
 20
218.9056561444258
 42
0.4142135623731
 10
517.396421690245
 20
218.6556561444258
 42
0.4142135623731
  0
LINE
  5
211
330
1F
100
AcDbEntity
  8
D-0
  6
Continuous
 62
     7
370
     9
100
AcDbLine
 10
373.2050808583617
 20
273.2320368601424
 30
0.0
 11
373.2050808583617
 21
273.9821780039412
 31
0.0
  0
LINE
  5
212
330
1F
100
AcDbEntity
  8
D-0
  6
Continuous
 62
     7
370
     9
100
AcDbLine
 10
373.2050808583617
 20
273.9821780039412
 30
0.0
 11
373.9549740468383
 21
273.9821780039412
 31
0.0
  0
LINE
  5
213
330
1F
100
AcDbEntity
  8
D-0
  6
Continuous
 62
     7
370
     9
100
AcDbLine
 10
373.9549740468383
 20
273.9821780039412
 30
0.0
 11
373.9549740468383
 21
273.2320368601424
 31
0.0
  0
LINE
  5
214
330
1F
100
AcDbEntity
  8
D-0
  6
Continuous
 62
     7
370
     9
100
AcDbLine
 10
373.9549740468383
 20
273.2320368601424
 30
0.0
 11
373.2050808583617
 21
273.2320368601424
 31
0.0
  0
LINE
  5
215
330
1F
100
AcDbEntity
  8
D-0
  6
Continuous
 62
     7
370
     9
100
AcDbLine
 10
374.9590547053588
 20
295.1567099476062
 30
0.0
 11
374.9590547053588
 21
295.906851091405
 31
0.0
  0
LINE
  5
216
330
1F
100
AcDbEntity
  8
D-0
  6
Continuous
 62
     7
370
     9
100
AcDbLine
 10
374.9590547053588
 20
295.906851091405
 30
0.0
 11
375.7089478938354
 21
295.906851091405
 31
0.0
  0
LINE
  5
217
330
1F
100
AcDbEntity
  8
D-0
  6
Continuous
 62
     7
370
     9
100
AcDbLine
 10
375.7089478938354
 20
295.906851091405
 30
0.0
 11
375.7089478938354
 21
295.1567099476062
 31
0.0
  0
LINE
  5
218
330
1F
100
AcDbEntity
  8
D-0
  6
Continuous
 62
     7
370
     9
100
AcDbLine
 10
375.7089478938354
 20
295.1567099476062
 30
0.0
 11
374.9590547053588
 21
295.1567099476062
 31
0.0
  0
LINE
  5
219
330
1F
100
AcDbEntity
  8
D-0
  6
Continuous
 62
     7
370
     9
100
AcDbLine
 10
398.1992081780704
 20
272.7935433983931
 30
0.0
 11
398.1992081780704
 21
273.543684542192
 31
0.0
  0
LINE
  5
21A
330
1F
100
AcDbEntity
  8
D-0
  6
Continuous
 62
     7
370
     9
100
AcDbLine
 10
398.1992081780704
 20
273.543684542192
 30
0.0
 11
398.9491013665469
 21
273.543684542192
 31
0.0
  0
LINE
  5
21B
330
1F
100
AcDbEntity
  8
D-0
  6
Continuous
 62
     7
370
     9
100
AcDbLine
 10
398.9491013665469
 20
273.543684542192
 30
0.0
 11
398.9491013665469
 21
272.7935433983931
 31
0.0
  0
LINE
  5
21C
330
1F
100
AcDbEntity
  8
D-0
  6
Continuous
 62
     7
370
     9
100
AcDbLine
 10
398.9491013665469
 20
272.7935433983931
 30
0.0
 11
398.1992081780704
 21
272.7935433983931
 31
0.0
  0
LINE
  5
21D
330
1F
100
AcDbEntity
  8
D-0
  6
Continuous
 62
     7
370
     9
100
AcDbLine
 10
391.4815039495423
 20
249.8994564401065
 30
0.0
 11
391.4815039495423
 21
250.6495975839053
 31
0.0
  0
LINE
  5
21E
330
1F
100
AcDbEntity
  8
D-0
  6
Continuous
 62
     7
370
     9
100
AcDbLine
 10
391.4815039495423
 20
250.6495975839053
 30
0.0
 11
392.2313971380189
 21
250.6495975839053
 31
0.0
  0
LINE
  5
21F
330
1F
100
AcDbEntity
  8
D-0
  6
Continuous
 62
     7
370
     9
100
AcDbLine
 10
392.2313971380189
 20
250.6495975839053
 30
0.0
 11
392.2313971380189
 21
249.8994564401065
 31
0.0
  0
LINE
  5
220
330
1F
100
AcDbEntity
  8
D-0
  6
Continuous
 62
     7
370
     9
100
AcDbLine
 10
392.2313971380189
 20
249.8994564401065
 30
0.0
 11
391.4815039495423
 21
249.8994564401065
 31
0.0
  0
LINE
  5
221
330
1F
100
AcDbEntity
  8
D-0
  6
Continuous
 62
     7
370
     9
100
AcDbLine
 10
373.8812081462516
 20
256.1113255471503
 30
0.0
 11
373.8812081462516
 21
256.8614666909492
 31
0.0
  0
LINE
  5
222
330
1F
100
AcDbEntity
  8
D-0
  6
Continuous
 62
     7
370
     9
100
AcDbLine
 10
373.8812081462516
 20
256.8614666909492
 30
0.0
 11
374.6311013347282
 21
256.8614666909492
 31
0.0
  0
LINE
  5
223
330
1F
100
AcDbEntity
  8
D-0
  6
Continuous
 62
     7
370
     9
100
AcDbLine
 10
374.6311013347282
 20
256.8614666909492
 30
0.0
 11
374.6311013347282
 21
256.1113255471503
 31
0.0
  0
LINE
  5
224
330
1F
100
AcDbEntity
  8
D-0
  6
Continuous
 62
     7
370
     9
100
AcDbLine
 10
374.6311013347282
 20
256.1113255471503
 30
0.0
 11
373.8812081462516
 21
256.1113255471503
 31
0.0
  0
LINE
  5
225
330
1F
100
AcDbEntity
  8
D-0
  6
Continuous
 62
     7
370
     9
100
AcDbLine
 10
417.7183546937385
 20
289.5696717300253
 30
0.0
 11
417.7183546937385
 21
290.3198128738242
 31
0.0
  0
LINE
  5
226
330
1F
100
AcDbEntity
  8
D-0
  6
Continuous
 62
     7
370
     9
100
AcDbLine
 10
417.7183546937385
 20
290.3198128738242
 30
0.0
 11
418.4682478822151
 21
290.3198128738242
 31
0.0
  0
LINE
  5
227
330
1F
100
AcDbEntity
  8
D-0
  6
Continuous
 62
     7
370
     9
100
AcDbLine
 10
418.4682478822151
 20
290.3198128738242
 30
0.0
 11
418.4682478822151
 21
289.5696717300253
 31
0.0
  0
LINE
  5
228
330
1F
100
AcDbEntity
  8
D-0
  6
Continuous
 62
     7
370
     9
100
AcDbLine
 10
418.4682478822151
 20
289.5696717300253
 30
0.0
 11
417.7183546937385
 21
289.5696717300253
 31
0.0
  0
LINE
  5
229
330
1F
100
AcDbEntity
  8
D-0
  6
Continuous
 62
     7
370
     9
100
AcDbLine
 10
394.2512936226842
 20
301.6483061048328
 30
0.0
 11
394.2512936226842
 21
302.3984472486316
 31
0.0
  0
LINE
  5
22A
330
1F
100
AcDbEntity
  8
D-0
  6
Continuous
 62
     7
370
     9
100
AcDbLine
 10
394.2512936226842
 20
302.3984472486316
 30
0.0
 11
395.0011868111607
 21
302.3984472486316
 31
0.0
  0
LINE
  5
22B
330
1F
100
AcDbEntity
  8
D-0
  6
Continuous
 62
     7
370
     9
100
AcDbLine
 10
395.0011868111607
 20
302.3984472486316
 30
0.0
 11
395.0011868111607
 21
301.6483061048328
 31
0.0
  0
LINE
  5
22C
330
1F
100
AcDbEntity
  8
D-0
  6
Continuous
 62
     7
370
     9
100
AcDbLine
 10
395.0011868111607
 20
301.6483061048328
 30
0.0
 11
394.2512936226842
 21
301.6483061048328
 31
0.0
  0
LINE
  5
22D
330
1F
100
AcDbEntity
  8
D-0
  6
Continuous
 62
     7
370
     9
100
AcDbLine
 10
431.8676121042272
 20
303.0287214619536
 30
0.0
 11
431.8676121042272
 21
303.7788626057525
 31
0.0
  0
LINE
  5
22E
330
1F
100
AcDbEntity
  8
D-0
  6
Continuous
 62
     7
370
     9
100
AcDbLine
 10
431.8676121042272
 20
303.7788626057525
 30
0.0
 11
432.6175052927038
 21
303.7788626057525
 31
0.0
  0
LINE
  5
22F
330
1F
100
AcDbEntity
  8
D-0
  6
Continuous
 62
     7
370
     9
100
AcDbLine
 10
432.6175052927038
 20
303.7788626057525
 30
0.0
 11
432.6175052927038
 21
303.0287214619536
 31
0.0
  0
LINE
  5
230
330
1F
100
AcDbEntity
  8
D-0
  6
Continuous
 62
     7
370
     9
100
AcDbLine
 10
432.6175052927038
 20
303.0287214619536
 30
0.0
 11
431.8676121042272
 21
303.0287214619536
 31
0.0
  0
LINE
  5
231
330
1F
100
AcDbEntity
  8
D-0
  6
Continuous
 62
     7
370
     9
100
AcDbLine
 10
415.9928354973375
 20
266.7928183375313
 30
0.0
 11
415.9928354973375
 21
267.5429594813302
 31
0.0
  0
LINE
  5
232
330
1F
100
AcDbEntity
  8
D-0
  6
Continuous
 62
     7
370
     9
100
AcDbLine
 10
415.9928354973375
 20
267.5429594813302
 30
0.0
 11
416.742728685814
 21
267.5429594813302
 31
0.0
  0
LINE
  5
233
330
1F
100
AcDbEntity
  8
D-0
  6
Continuous
 62
     7
370
     9
100
AcDbLine
 10
416.742728685814
 20
267.5429594813302
 30
0.0
 11
416.742728685814
 21
266.7928183375313
 31
0.0
  0
LINE
  5
234
330
1F
100
AcDbEntity
  8
D-0
  6
Continuous
 62
     7
370
     9
100
AcDbLine
 10
416.742728685814
 20
266.7928183375313
 30
0.0
 11
415.9928354973375
 21
266.7928183375313
 31
0.0
  0
LINE
  5
235
330
1F
100
AcDbEntity
  8
D-0
  6
Continuous
 62
     7
370
     9
100
AcDbLine
 10
419.7889777294199
 20
247.1218994985593
 30
0.0
 11
419.7889777294199
 21
247.8720406423581
 31
0.0
  0
LINE
  5
236
330
1F
100
AcDbEntity
  8
D-0
  6
Continuous
 62
     7
370
     9
100
AcDbLine
 10
419.7889777294199
 20
247.8720406423581
 30
0.0
 11
420.5388709178964
 21
247.8720406423581
 31
0.0
  0
LINE
  5
237
330
1F
100
AcDbEntity
  8
D-0
  6
Continuous
 62
     7
370
     9
100
AcDbLine
 10
420.5388709178964
 20
247.8720406423581
 30
0.0
 11
420.5388709178964
 21
247.1218994985593
 31
0.0
  0
LINE
  5
238
330
1F
100
AcDbEntity
  8
D-0
  6
Continuous
 62
     7
370
     9
100
AcDbLine
 10
420.5388709178964
 20
247.1218994985593
 30
0.0
 11
419.7889777294199
 21
247.1218994985593
 31
0.0
  0
LINE
  5
239
330
1F
100
AcDbEntity
  8
D-0
  6
Continuous
 62
     7
370
     9
100
AcDbLine
 10
376.3058939801131
 20
228.1411883381476
 30
0.0
 11
376.3058939801131
 21
228.8913294819464
 31
0.0
  0
LINE
  5
23A
330
1F
100
AcDbEntity
  8
D-0
  6
Continuous
 62
     7
370
     9
100
AcDbLine
 10
376.3058939801131
 20
228.8913294819464
 30
0.0
 11
377.0557871685896
 21
228.8913294819464
 31
0.0
  0
LINE
  5
23B
330
1F
100
AcDbEntity
  8
D-0
  6
Continuous
 62
     7
370
     9
100
AcDbLine
 10
377.0557871685896
 20
228.8913294819464
 30
0.0
 11
377.0557871685896
 21
228.1411883381476
 31
0.0
  0
LINE
  5
23C
330
1F
100
AcDbEntity
  8
D-0
  6
Continuous
 62
     7
370
     9
100
AcDbLine
 10
377.0557871685896
 20
228.1411883381476
 30
0.0
 11
376.3058939801131
 21
228.1411883381476
 31
0.0
  0
LINE
  5
23D
330
1F
100
AcDbEntity
  8
D-0
  6
Continuous
 62
     7
370
     9
100
AcDbLine
 10
391.3179109888023
 20
283.2427680098882
 30
0.0
 11
391.3179109888023
 21
283.992909153687
 31
0.0
  0
LINE
  5
23E
330
1F
100
AcDbEntity
  8
D-0
  6
Continuous
 62
     7
370
     9
100
AcDbLine
 10
391.3179109888023
 20
283.992909153687
 30
0.0
 11
392.0678041772789
 21
283.992909153687
 31
0.0
  0
LINE
  5
23F
330
1F
100
AcDbEntity
  8
D-0
  6
Continuous
 62
     7
370
     9
100
AcDbLine
 10
392.0678041772789
 20
283.992909153687
 30
0.0
 11
392.0678041772789
 21
283.2427680098882
 31
0.0
  0
LINE
  5
240
330
1F
100
AcDbEntity
  8
D-0
  6
Continuous
 62
     7
370
     9
100
AcDbLine
 10
392.0678041772789
 20
283.2427680098882
 30
0.0
 11
391.3179109888023
 21
283.2427680098882
 31
0.0
  0
LINE
  5
241
330
1F
100
AcDbEntity
  8
D-0
  6
Continuous
 62
     7
370
     9
100
AcDbLine
 10
413.4045567027359
 20
306.7098290809425
 30
0.0
 11
413.4045567027359
 21
307.4599702247414
 31
0.0
  0
LINE
  5
242
330
1F
100
AcDbEntity
  8
D-0
  6
Continuous
 62
     7
370
     9
100
AcDbLine
 10
413.4045567027359
 20
307.4599702247414
 30
0.0
 11
414.1544498912125
 21
307.4599702247414
 31
0.0
  0
LINE
  5
243
330
1F
100
AcDbEntity
  8
D-0
  6
Continuous
 62
     7
370
     9
100
AcDbLine
 10
414.1544498912125
 20
307.4599702247414
 30
0.0
 11
414.1544498912125
 21
306.7098290809425
 31
0.0
  0
LINE
  5
244
330
1F
100
AcDbEntity
  8
D-0
  6
Continuous
 62
     7
370
     9
100
AcDbLine
 10
414.1544498912125
 20
306.7098290809425
 30
0.0
 11
413.4045567027359
 21
306.7098290809425
 31
0.0
  0
LINE
  5
245
330
1F
100
AcDbEntity
  8
D-0
  6
Continuous
 62
     7
370
     9
100
AcDbLine
 10
439.632448488032
 20
284.9682872062892
 30
0.0
 11
439.632448488032
 21
285.718428350088
 31
0.0
  0
LINE
  5
246
330
1F
100
AcDbEntity
  8
D-0
  6
Continuous
 62
     7
370
     9
100
AcDbLine
 10
439.632448488032
 20
285.718428350088
 30
0.0
 11
440.3823416765085
 21
285.718428350088
 31
0.0
  0
LINE
  5
247
330
1F
100
AcDbEntity
  8
D-0
  6
Continuous
 62
     7
370
     9
100
AcDbLine
 10
440.3823416765085
 20
285.718428350088
 30
0.0
 11
440.3823416765085
 21
284.9682872062892
 31
0.0
  0
LINE
  5
248
330
1F
100
AcDbEntity
  8
D-0
  6
Continuous
 62
     7
370
     9
100
AcDbLine
 10
440.3823416765085
 20
284.9682872062892
 30
0.0
 11
439.632448488032
 21
284.9682872062892
 31
0.0
  0
LINE
  5
249
330
1F
100
AcDbEntity
  8
D-0
  6
Continuous
 62
     7
370
     9
100
AcDbLine
 10
462.409301880526
 20
282.8976641706079
 30
0.0
 11
462.409301880526
 21
283.6478053144068
 31
0.0
  0
LINE
  5
24A
330
1F
100
AcDbEntity
  8
D-0
  6
Continuous
 62
     7
370
     9
100
AcDbLine
 10
462.409301880526
 20
283.6478053144068
 30
0.0
 11
463.1591950690026
 21
283.6478053144068
 31
0.0
  0
LINE
  5
24B
330
1F
100
AcDbEntity
  8
D-0
  6
Continuous
 62
     7
370
     9
100
AcDbLine
 10
463.1591950690026
 20
283.6478053144068
 30
0.0
 11
463.1591950690026
 21
282.8976641706079
 31
0.0
  0
LINE
  5
24C
330
1F
100
AcDbEntity
  8
D-0
  6
Continuous
 62
     7
370
     9
100
AcDbLine
 10
463.1591950690026
 20
282.8976641706079
 30
0.0
 11
462.409301880526
 21
282.8976641706079
 31
0.0
  0
LINE
  5
24D
330
1F
100
AcDbEntity
  8
D-0
  6
Continuous
 62
     7
370
     9
100
AcDbLine
 10
474.8330400946136
 20
293.5958831882945
 30
0.0
 11
474.8330400946136
 21
294.3460243320934
 31
0.0
  0
LINE
  5
24E
330
1F
100
AcDbEntity
  8
D-0
  6
Continuous
 62
     7
370
     9
100
AcDbLine
 10
474.8330400946136
 20
294.3460243320934
 30
0.0
 11
475.5829332830902
 21
294.3460243320934
 31
0.0
  0
LINE
  5
24F
330
1F
100
AcDbEntity
  8
D-0
  6
Continuous
 62
     7
370
     9
100
AcDbLine
 10
475.5829332830902
 20
294.3460243320934
 30
0.0
 11
475.5829332830902
 21
293.5958831882945
 31
0.0
  0
LINE
  5
250
330
1F
100
AcDbEntity
  8
D-0
  6
Continuous
 62
     7
370
     9
100
AcDbLine
 10
475.5829332830902
 20
293.5958831882945
 30
0.0
 11
474.8330400946136
 21
293.5958831882945
 31
0.0
  0
LINE
  5
251
330
1F
100
AcDbEntity
  8
D-0
  6
Continuous
 62
     7
370
     9
100
AcDbLine
 10
460.3386788448447
 20
296.7018177418164
 30
0.0
 11
460.3386788448447
 21
297.4519588856152
 31
0.0
  0
LINE
  5
252
330
1F
100
AcDbEntity
  8
D-0
  6
Continuous
 62
     7
370
     9
100
AcDbLine
 10
460.3386788448447
 20
297.4519588856152
 30
0.0
 11
461.0885720333213
 21
297.4519588856152
 31
0.0
  0
LINE
  5
253
330
1F
100
AcDbEntity
  8
D-0
  6
Continuous
 62
     7
370
     9
100
AcDbLine
 10
461.0885720333213
 20
297.4519588856152
 30
0.0
 11
461.0885720333213
 21
296.7018177418164
 31
0.0
  0
LINE
  5
254
330
1F
100
AcDbEntity
  8
D-0
  6
Continuous
 62
     7
370
     9
100
AcDbLine
 10
461.0885720333213
 20
296.7018177418164
 30
0.0
 11
460.3386788448447
 21
296.7018177418164
 31
0.0
  0
LINE
  5
255
330
1F
100
AcDbEntity
  8
D-0
  6
Continuous
 62
     7
370
     9
100
AcDbLine
 10
445.1541099165154
 20
304.9843098845415
 30
0.0
 11
445.1541099165154
 21
305.7344510283403
 31
0.0
  0
LINE
  5
256
330
1F
100
AcDbEntity
  8
D-0
  6
Continuous
 62
     7
370
     9
100
AcDbLine
 10
445.1541099165154
 20
305.7344510283403
 30
0.0
 11
445.904003104992
 21
305.7344510283403
 31
0.0
  0
LINE
  5
257
330
1F
100
AcDbEntity
  8
D-0
  6
Continuous
 62
     7
370
     9
100
AcDbLine
 10
445.904003104992
 20
305.7344510283403
 30
0.0
 11
445.904003104992
 21
304.9843098845415
 31
0.0
  0
LINE
  5
258
330
1F
100
AcDbEntity
  8
D-0
  6
Continuous
 62
     7
370
     9
100
AcDbLine
 10
445.904003104992
 20
304.9843098845415
 30
0.0
 11
445.1541099165154
 21
304.9843098845415
 31
0.0
  0
LINE
  5
259
330
1F
100
AcDbEntity
  8
D-0
  6
Continuous
 62
     7
370
     9
100
AcDbLine
 10
367.6207806915611
 20
211.0010309872305
 30
0.0
 11
367.6207806915611
 21
211.7511721310293
 31
0.0
  0
LINE
  5
25A
330
1F
100
AcDbEntity
  8
D-0
  6
Continuous
 62
     7
370
     9
100
AcDbLine
 10
367.6207806915611
 20
211.7511721310293
 30
0.0
 11
368.3706738800377
 21
211.7511721310293
 31
0.0
  0
LINE
  5
25B
330
1F
100
AcDbEntity
  8
D-0
  6
Continuous
 62
     7
370
     9
100
AcDbLine
 10
368.3706738800377
 20
211.7511721310293
 30
0.0
 11
368.3706738800377
 21
211.0010309872305
 31
0.0
  0
LINE
  5
25C
330
1F
100
AcDbEntity
  8
D-0
  6
Continuous
 62
     7
370
     9
100
AcDbLine
 10
368.3706738800377
 20
211.0010309872305
 30
0.0
 11
367.6207806915611
 21
211.0010309872305
 31
0.0
  0
LINE
  5
25D
330
1F
100
AcDbEntity
  8
D-0
  6
Continuous
 62
     7
370
     9
100
AcDbLine
 10
372.9123728938577
 20
193.0556313446594
 30
0.0
 11
372.9123728938577
 21
193.8057724884582
 31
0.0
  0
LINE
  5
25E
330
1F
100
AcDbEntity
  8
D-0
  6
Continuous
 62
     7
370
     9
100
AcDbLine
 10
372.9123728938577
 20
193.8057724884582
 30
0.0
 11
373.6622660823343
 21
193.8057724884582
 31
0.0
  0
LINE
  5
25F
330
1F
100
AcDbEntity
  8
D-0
  6
Continuous
 62
     7
370
     9
100
AcDbLine
 10
373.6622660823343
 20
193.8057724884582
 30
0.0
 11
373.6622660823343
 21
193.0556313446594
 31
0.0
  0
LINE
  5
260
330
1F
100
AcDbEntity
  8
D-0
  6
Continuous
 62
     7
370
     9
100
AcDbLine
 10
373.6622660823343
 20
193.0556313446594
 30
0.0
 11
372.9123728938577
 21
193.0556313446594
 31
0.0
  0
LINE
  5
261
330
1F
100
AcDbEntity
  8
D-0
  6
Continuous
 62
     7
370
     9
100
AcDbLine
 10
395.2290878339781
 20
193.2857005708462
 30
0.0
 11
395.2290878339781
 21
194.035841714645
 31
0.0
  0
LINE
  5
262
330
1F
100
AcDbEntity
  8
D-0
  6
Continuous
 62
     7
370
     9
100
AcDbLine
 10
395.2290878339781
 20
194.035841714645
 30
0.0
 11
395.9789810224547
 21
194.035841714645
 31
0.0
  0
LINE
  5
263
330
1F
100
AcDbEntity
  8
D-0
  6
Continuous
 62
     7
370
     9
100
AcDbLine
 10
395.9789810224547
 20
194.035841714645
 30
0.0
 11
395.9789810224547
 21
193.2857005708462
 31
0.0
  0
LINE
  5
264
330
1F
100
AcDbEntity
  8
D-0
  6
Continuous
 62
     7
370
     9
100
AcDbLine
 10
395.9789810224547
 20
193.2857005708462
 30
0.0
 11
395.2290878339781
 21
193.2857005708462
 31
0.0
  0
LINE
  5
265
330
1F
100
AcDbEntity
  8
D-0
  6
Continuous
 62
     7
370
     9
100
AcDbLine
 10
387.4067341436266
 20
208.9304079515492
 30
0.0
 11
387.4067341436266
 21
209.680549095348
 31
0.0
  0
LINE
  5
266
330
1F
100
AcDbEntity
  8
D-0
  6
Continuous
 62
     7
370
     9
100
AcDbLine
 10
387.4067341436266
 20
209.680549095348
 30
0.0
 11
388.1566273321032
 21
209.680549095348
 31
0.0
  0
LINE
  5
267
330
1F
100
AcDbEntity
  8
D-0
  6
Continuous
 62
     7
370
     9
100
AcDbLine
 10
388.1566273321032
 20
209.680549095348
 30
0.0
 11
388.1566273321032
 21
208.9304079515492
 31
0.0
  0
LINE
  5
268
330
1F
100
AcDbEntity
  8
D-0
  6
Continuous
 62
     7
370
     9
100
AcDbLine
 10
388.1566273321032
 20
208.9304079515492
 30
0.0
 11
387.4067341436266
 21
208.9304079515492
 31
0.0
  0
LINE
  5
269
330
1F
100
AcDbEntity
  8
D-0
  6
Continuous
 62
     7
370
     9
100
AcDbLine
 10
415.9353181907908
 20
208.9304079515492
 30
0.0
 11
415.9353181907908
 21
209.680549095348
 31
0.0
  0
LINE
  5
26A
330
1F
100
AcDbEntity
  8
D-0
  6
Continuous
 62
     7
370
     9
100
AcDbLine
 10
415.9353181907908
 20
209.680549095348
 30
0.0
 11
416.6852113792674
 21
209.680549095348
 31
0.0
  0
LINE
  5
26B
330
1F
100
AcDbEntity
  8
D-0
  6
Continuous
 62
     7
370
     9
100
AcDbLine
 10
416.6852113792674
 20
209.680549095348
 30
0.0
 11
416.6852113792674
 21
208.9304079515492
 31
0.0
  0
LINE
  5
26C
330
1F
100
AcDbEntity
  8
D-0
  6
Continuous
 62
     7
370
     9
100
AcDbLine
 10
416.6852113792674
 20
208.9304079515492
 30
0.0
 11
415.9353181907908
 21
208.9304079515492
 31
0.0
  0
LINE
  5
26D
330
1F
100
AcDbEntity
  8
D-0
  6
Continuous
 62
     7
370
     9
100
AcDbLine
 10
418.0059412264721
 20
194.6661159279671
 30
0.0
 11
418.0059412264721
 21
195.4162570717659
 31
0.0
  0
LINE
  5
26E
330
1F
100
AcDbEntity
  8
D-0
  6
Continuous
 62
     7
370
     9
100
AcDbLine
 10
418.0059412264721
 20
195.4162570717659
 30
0.0
 11
418.7558344149487
 21
195.4162570717659
 31
0.0
  0
LINE
  5
26F
330
1F
100
AcDbEntity
  8
D-0
  6
Continuous
 62
     7
370
     9
100
AcDbLine
 10
418.7558344149487
 20
195.4162570717659
 30
0.0
 11
418.7558344149487
 21
194.6661159279671
 31
0.0
  0
LINE
  5
270
330
1F
100
AcDbEntity
  8
D-0
  6
Continuous
 62
     7
370
     9
100
AcDbLine
 10
418.7558344149487
 20
194.6661159279671
 30
0.0
 11
418.0059412264721
 21
194.6661159279671
 31
0.0
  0
LINE
  5
271
330
1F
100
AcDbEntity
  8
D-0
  6
Continuous
 62
     7
370
     9
100
AcDbLine
 10
401.2108877148352
 20
212.3814463443513
 30
0.0
 11
401.2108877148352
 21
213.1315874881501
 31
0.0
  0
LINE
  5
272
330
1F
100
AcDbEntity
  8
D-0
  6
Continuous
 62
     7
370
     9
100
AcDbLine
 10
401.2108877148352
 20
213.1315874881501
 30
0.0
 11
401.9607809033117
 21
213.1315874881501
 31
0.0
  0
LINE
  5
273
330
1F
100
AcDbEntity
  8
D-0
  6
Continuous
 62
     7
370
     9
100
AcDbLine
 10
401.9607809033117
 20
213.1315874881501
 30
0.0
 11
401.9607809033117
 21
212.3814463443513
 31
0.0
  0
LINE
  5
274
330
1F
100
AcDbEntity
  8
D-0
  6
Continuous
 62
     7
370
     9
100
AcDbLine
 10
401.9607809033117
 20
212.3814463443513
 30
0.0
 11
401.2108877148352
 21
212.3814463443513
 31
0.0
  0
LINE
  5
275
330
1F
100
AcDbEntity
  8
D-0
  6
Continuous
 62
     7
370
     9
100
AcDbLine
 10
531.2000005103816
 20
291.0076043936929
 30
0.0
 11
531.2000005103816
 21
291.7577455374918
 31
0.0
  0
LINE
  5
276
330
1F
100
AcDbEntity
  8
D-0
  6
Continuous
 62
     7
370
     9
100
AcDbLine
 10
531.2000005103816
 20
291.7577455374918
 30
0.0
 11
531.9498936988582
 21
291.7577455374918
 31
0.0
  0
LINE
  5
277
330
1F
100
AcDbEntity
  8
D-0
  6
Continuous
 62
     7
370
     9
100
AcDbLine
 10
531.9498936988582
 20
291.7577455374918
 30
0.0
 11
531.9498936988582
 21
291.0076043936929
 31
0.0
  0
LINE
  5
278
330
1F
100
AcDbEntity
  8
D-0
  6
Continuous
 62
     7
370
     9
100
AcDbLine
 10
531.9498936988582
 20
291.0076043936929
 30
0.0
 11
531.2000005103816
 21
291.0076043936929
 31
0.0
  0
LINE
  5
279
330
1F
100
AcDbEntity
  8
D-0
  6
Continuous
 62
     7
370
     9
100
AcDbLine
 10
513.9448085463711
 20
298.9449926971378
 30
0.0
 11
513.9448085463711
 21
299.6951338409366
 31
0.0
  0
LINE
  5
27A
330
1F
100
AcDbEntity
  8
D-0
  6
Continuous
 62
     7
370
     9
100
AcDbLine
 10
513.9448085463711
 20
299.6951338409366
 30
0.0
 11
514.6947017348476
 21
299.6951338409366
 31
0.0
  0
LINE
  5
27B
330
1F
100
AcDbEntity
  8
D-0
  6
Continuous
 62
     7
370
     9
100
AcDbLine
 10
514.6947017348476
 20
299.6951338409366
 30
0.0
 11
514.6947017348476
 21
298.9449926971378
 31
0.0
  0
LINE
  5
27C
330
1F
100
AcDbEntity
  8
D-0
  6
Continuous
 62
     7
370
     9
100
AcDbLine
 10
514.6947017348476
 20
298.9449926971378
 30
0.0
 11
513.9448085463711
 21
298.9449926971378
 31
0.0
  0
LINE
  5
27D
330
1F
100
AcDbEntity
  8
D-0
  6
Continuous
 62
     7
370
     9
100
AcDbLine
 10
533.9608312246232
 20
311.7138347505057
 30
0.0
 11
533.9608312246232
 21
312.4639758943045
 31
0.0
  0
LINE
  5
27E
330
1F
100
AcDbEntity
  8
D-0
  6
Continuous
 62
     7
370
     9
100
AcDbLine
 10
533.9608312246232
 20
312.4639758943045
 30
0.0
 11
534.7107244130998
 21
312.4639758943045
 31
0.0
  0
LINE
  5
27F
330
1F
100
AcDbEntity
  8
D-0
  6
Continuous
 62
     7
370
     9
100
AcDbLine
 10
534.7107244130998
 20
312.4639758943045
 30
0.0
 11
534.7107244130998
 21
311.7138347505057
 31
0.0
  0
LINE
  5
280
330
1F
100
AcDbEntity
  8
D-0
  6
Continuous
 62
     7
370
     9
100
AcDbLine
 10
534.7107244130998
 20
311.7138347505057
 30
0.0
 11
533.9608312246232
 21
311.7138347505057
 31
0.0
  0
LINE
  5
281
330
1F
100
AcDbEntity
  8
D-0
  6
Continuous
 62
     7
370
     9
100
AcDbLine
 10
524.9881314033378
 20
324.8277806431537
 30
0.0
 11
524.9881314033378
 21
325.5779217869525
 31
0.0
  0
LINE
  5
282
330
1F
100
AcDbEntity
  8
D-0
  6
Continuous
 62
     7
370
     9
100
AcDbLine
 10
524.9881314033378
 20
325.5779217869525
 30
0.0
 11
525.7380245918143
 21
325.5779217869525
 31
0.0
  0
LINE
  5
283
330
1F
100
AcDbEntity
  8
D-0
  6
Continuous
 62
     7
370
     9
100
AcDbLine
 10
525.7380245918143
 20
325.5779217869525
 30
0.0
 11
525.7380245918143
 21
324.8277806431537
 31
0.0
  0
LINE
  5
284
330
1F
100
AcDbEntity
  8
D-0
  6
Continuous
 62
     7
370
     9
100
AcDbLine
 10
525.7380245918143
 20
324.8277806431537
 30
0.0
 11
524.9881314033378
 21
324.8277806431537
 31
0.0
  0
LINE
  5
285
330
1F
100
AcDbEntity
  8
D-0
  6
Continuous
 62
     7
370
     9
100
AcDbLine
 10
453.2065328330537
 20
360.0283722497353
 30
0.0
 11
453.2065328330537
 21
360.7785133935341
 31
0.0
  0
LINE
  5
286
330
1F
100
AcDbEntity
  8
D-0
  6
Continuous
 62
     7
370
     9
100
AcDbLine
 10
453.2065328330537
 20
360.7785133935341
 30
0.0
 11
453.9564260215303
 21
360.7785133935341
 31
0.0
  0
LINE
  5
287
330
1F
100
AcDbEntity
  8
D-0
  6
Continuous
 62
     7
370
     9
100
AcDbLine
 10
453.9564260215303
 20
360.7785133935341
 30
0.0
 11
453.9564260215303
 21
360.0283722497353
 31
0.0
  0
LINE
  5
288
330
1F
100
AcDbEntity
  8
D-0
  6
Continuous
 62
     7
370
     9
100
AcDbLine
 10
453.9564260215303
 20
360.0283722497353
 30
0.0
 11
453.2065328330537
 21
360.0283722497353
 31
0.0
  0
LINE
  5
289
330
1F
100
AcDbEntity
  8
D-0
  6
Continuous
 62
     7
370
     9
100
AcDbLine
 10
460.1086096186579
 20
373.8325258209438
 30
0.0
 11
460.1086096186579
 21
374.5826669647426
 31
0.0
  0
LINE
  5
28A
330
1F
100
AcDbEntity
  8
D-0
  6
Continuous
 62
     7
370
     9
100
AcDbLine
 10
460.1086096186579
 20
374.5826669647426
 30
0.0
 11
460.8585028071344
 21
374.5826669647426
 31
0.0
  0
LINE
  5
28B
330
1F
100
AcDbEntity
  8
D-0
  6
Continuous
 62
     7
370
     9
100
AcDbLine
 10
460.8585028071344
 20
374.5826669647426
 30
0.0
 11
460.8585028071344
 21
373.8325258209438
 31
0.0
  0
LINE
  5
28C
330
1F
100
AcDbEntity
  8
D-0
  6
Continuous
 62
     7
370
     9
100
AcDbLine
 10
460.8585028071344
 20
373.8325258209438
 30
0.0
 11
460.1086096186579
 21
373.8325258209438
 31
0.0
  0
LINE
  5
28D
330
1F
100
AcDbEntity
  8
D-0
  6
Continuous
 62
     7
370
     9
100
AcDbLine
 10
475.2931785469872
 20
371.7619027852625
 30
0.0
 11
475.2931785469872
 21
372.5120439290613
 31
0.0
  0
LINE
  5
28E
330
1F
100
AcDbEntity
  8
D-0
  6
Continuous
 62
     7
370
     9
100
AcDbLine
 10
475.2931785469872
 20
372.5120439290613
 30
0.0
 11
476.0430717354638
 21
372.5120439290613
 31
0.0
  0
LINE
  5
28F
330
1F
100
AcDbEntity
  8
D-0
  6
Continuous
 62
     7
370
     9
100
AcDbLine
 10
476.0430717354638
 20
372.5120439290613
 30
0.0
 11
476.0430717354638
 21
371.7619027852625
 31
0.0
  0
LINE
  5
290
330
1F
100
AcDbEntity
  8
D-0
  6
Continuous
 62
     7
370
     9
100
AcDbLine
 10
476.0430717354638
 20
371.7619027852625
 30
0.0
 11
475.2931785469872
 21
371.7619027852625
 31
0.0
  0
LINE
  5
291
330
1F
100
AcDbEntity
  8
D-0
  6
Continuous
 62
     7
370
     9
100
AcDbLine
 10
469.0813094399434
 20
358.3028530533343
 30
0.0
 11
469.0813094399434
 21
359.0529941971331
 31
0.0
  0
LINE
  5
292
330
1F
100
AcDbEntity
  8
D-0
  6
Continuous
 62
     7
370
     9
100
AcDbLine
 10
469.0813094399434
 20
359.0529941971331
 30
0.0
 11
469.83120262842
 21
359.0529941971331
 31
0.0
  0
LINE
  5
293
330
1F
100
AcDbEntity
  8
D-0
  6
Continuous
 62
     7
370
     9
100
AcDbLine
 10
469.83120262842
 20
359.0529941971331
 30
0.0
 11
469.83120262842
 21
358.3028530533343
 31
0.0
  0
LINE
  5
294
330
1F
100
AcDbEntity
  8
D-0
  6
Continuous
 62
     7
370
     9
100
AcDbLine
 10
469.83120262842
 20
358.3028530533343
 30
0.0
 11
469.0813094399434
 21
358.3028530533343
 31
0.0
  0
LINE
  5
295
330
1F
100
AcDbEntity
  8
D-0
  6
Continuous
 62
     7
370
     9
100
AcDbLine
 10
476.6735939041081
 20
338.9770380536424
 30
0.0
 11
476.6735939041081
 21
339.7271791974412
 31
0.0
  0
LINE
  5
296
330
1F
100
AcDbEntity
  8
D-0
  6
Continuous
 62
     7
370
     9
100
AcDbLine
 10
476.6735939041081
 20
339.7271791974412
 30
0.0
 11
477.4234870925847
 21
339.7271791974412
 31
0.0
  0
LINE
  5
297
330
1F
100
AcDbEntity
  8
D-0
  6
Continuous
 62
     7
370
     9
100
AcDbLine
 10
477.4234870925847
 20
339.7271791974412
 30
0.0
 11
477.4234870925847
 21
338.9770380536424
 31
0.0
  0
LINE
  5
298
330
1F
100
AcDbEntity
  8
D-0
  6
Continuous
 62
     7
370
     9
100
AcDbLine
 10
477.4234870925847
 20
338.9770380536424
 30
0.0
 11
476.6735939041081
 21
338.9770380536424
 31
0.0
  0
LINE
  5
299
330
1F
100
AcDbEntity
  8
D-0
  6
Continuous
 62
     7
370
     9
100
AcDbLine
 10
485.6462937253935
 20
345.5340109999664
 30
0.0
 11
485.6462937253935
 21
346.2841521437653
 31
0.0
  0
LINE
  5
29A
330
1F
100
AcDbEntity
  8
D-0
  6
Continuous
 62
     7
370
     9
100
AcDbLine
 10
485.6462937253935
 20
346.2841521437653
 30
0.0
 11
486.3961869138701
 21
346.2841521437653
 31
0.0
  0
LINE
  5
29B
330
1F
100
AcDbEntity
  8
D-0
  6
Continuous
 62
     7
370
     9
100
AcDbLine
 10
486.3961869138701
 20
346.2841521437653
 30
0.0
 11
486.3961869138701
 21
345.5340109999664
 31
0.0
  0
LINE
  5
29C
330
1F
100
AcDbEntity
  8
D-0
  6
Continuous
 62
     7
370
     9
100
AcDbLine
 10
486.3961869138701
 20
345.5340109999664
 30
0.0
 11
485.6462937253935
 21
345.5340109999664
 31
0.0
  0
LINE
  5
29D
330
1F
100
AcDbEntity
  8
D-0
  6
Continuous
 62
     7
370
     9
100
AcDbLine
 10
498.4151357787614
 20
367.6206567139
 30
0.0
 11
498.4151357787614
 21
368.3707978576988
 31
0.0
  0
LINE
  5
29E
330
1F
100
AcDbEntity
  8
D-0
  6
Continuous
 62
     7
370
     9
100
AcDbLine
 10
498.4151357787614
 20
368.3707978576988
 30
0.0
 11
499.165028967238
 21
368.3707978576988
 31
0.0
  0
LINE
  5
29F
330
1F
100
AcDbEntity
  8
D-0
  6
Continuous
 62
     7
370
     9
100
AcDbLine
 10
499.165028967238
 20
368.3707978576988
 30
0.0
 11
499.165028967238
 21
367.6206567139
 31
0.0
  0
LINE
  5
2A0
330
1F
100
AcDbEntity
  8
D-0
  6
Continuous
 62
     7
370
     9
100
AcDbLine
 10
499.165028967238
 20
367.6206567139
 30
0.0
 11
498.4151357787614
 21
367.6206567139
 31
0.0
  0
LINE
  5
2A1
330
1F
100
AcDbEntity
  8
D-0
  6
Continuous
 62
     7
370
     9
100
AcDbLine
 10
521.1919891712555
 20
374.8678373387844
 30
0.0
 11
521.1919891712555
 21
375.6179784825832
 31
0.0
  0
LINE
  5
2A2
330
1F
100
AcDbEntity
  8
D-0
  6
Continuous
 62
     7
370
     9
100
AcDbLine
 10
521.1919891712555
 20
375.6179784825832
 30
0.0
 11
521.9418823597321
 21
375.6179784825832
 31
0.0
  0
LINE
  5
2A3
330
1F
100
AcDbEntity
  8
D-0
  6
Continuous
 62
     7
370
     9
100
AcDbLine
 10
521.9418823597321
 20
375.6179784825832
 30
0.0
 11
521.9418823597321
 21
374.8678373387844
 31
0.0
  0
LINE
  5
2A4
330
1F
100
AcDbEntity
  8
D-0
  6
Continuous
 62
     7
370
     9
100
AcDbLine
 10
521.9418823597321
 20
374.8678373387844
 30
0.0
 11
521.1919891712555
 21
374.8678373387844
 31
0.0
  0
LINE
  5
2A5
330
1F
100
AcDbEntity
  8
D-0
  6
Continuous
 62
     7
370
     9
100
AcDbLine
 10
538.1020772959859
 20
361.0636837675759
 30
0.0
 11
538.1020772959859
 21
361.8138249113748
 31
0.0
  0
LINE
  5
2A6
330
1F
100
AcDbEntity
  8
D-0
  6
Continuous
 62
     7
370
     9
100
AcDbLine
 10
538.1020772959859
 20
361.8138249113748
 30
0.0
 11
538.8519704844624
 21
361.8138249113748
 31
0.0
  0
LINE
  5
2A7
330
1F
100
AcDbEntity
  8
D-0
  6
Continuous
 62
     7
370
     9
100
AcDbLine
 10
538.8519704844624
 20
361.8138249113748
 30
0.0
 11
538.8519704844624
 21
361.0636837675759
 31
0.0
  0
LINE
  5
2A8
330
1F
100
AcDbEntity
  8
D-0
  6
Continuous
 62
     7
370
     9
100
AcDbLine
 10
538.8519704844624
 20
361.0636837675759
 30
0.0
 11
538.1020772959859
 21
361.0636837675759
 31
0.0
  0
LINE
  5
2A9
330
1F
100
AcDbEntity
  8
D-0
  6
Continuous
 62
     7
370
     9
100
AcDbLine
 10
524.9881314033378
 20
345.8791148392467
 30
0.0
 11
524.9881314033378
 21
346.6292559830455
 31
0.0
  0
LINE
  5
2AA
330
1F
100
AcDbEntity
  8
D-0
  6
Continuous
 62
     7
370
     9
100
AcDbLine
 10
524.9881314033378
 20
346.6292559830455
 30
0.0
 11
525.7380245918143
 21
346.6292559830455
 31
0.0
  0
LINE
  5
2AB
330
1F
100
AcDbEntity
  8
D-0
  6
Continuous
 62
     7
370
     9
100
AcDbLine
 10
525.7380245918143
 20
346.6292559830455
 30
0.0
 11
525.7380245918143
 21
345.8791148392467
 31
0.0
  0
LINE
  5
2AC
330
1F
100
AcDbEntity
  8
D-0
  6
Continuous
 62
     7
370
     9
100
AcDbLine
 10
525.7380245918143
 20
345.8791148392467
 30
0.0
 11
524.9881314033378
 21
345.8791148392467
 31
0.0
  0
LINE
  5
2AD
330
1F
100
AcDbEntity
  8
D-0
  6
Continuous
 62
     7
370
     9
100
AcDbLine
 10
512.5643931892502
 20
336.5613111786809
 30
0.0
 11
512.5643931892502
 21
337.3114523224797
 31
0.0
  0
LINE
  5
2AE
330
1F
100
AcDbEntity
  8
D-0
  6
Continuous
 62
     7
370
     9
100
AcDbLine
 10
512.5643931892502
 20
337.3114523224797
 30
0.0
 11
513.3142863777267
 21
337.3114523224797
 31
0.0
  0
LINE
  5
2AF
330
1F
100
AcDbEntity
  8
D-0
  6
Continuous
 62
     7
370
     9
100
AcDbLine
 10
513.3142863777267
 20
337.3114523224797
 30
0.0
 11
513.3142863777267
 21
336.5613111786809
 31
0.0
  0
LINE
  5
2B0
330
1F
100
AcDbEntity
  8
D-0
  6
Continuous
 62
     7
370
     9
100
AcDbLine
 10
513.3142863777267
 20
336.5613111786809
 30
0.0
 11
512.5643931892502
 21
336.5613111786809
 31
0.0
  0
LINE
  5
2B1
330
1F
100
AcDbEntity
  8
D-0
  6
Continuous
 62
     7
370
     9
100
AcDbLine
 10
510.8388739928491
 20
355.5420223390926
 30
0.0
 11
510.8388739928491
 21
356.2921634828914
 31
0.0
  0
LINE
  5
2B2
330
1F
100
AcDbEntity
  8
D-0
  6
Continuous
 62
     7
370
     9
100
AcDbLine
 10
510.8388739928491
 20
356.2921634828914
 30
0.0
 11
511.5887671813257
 21
356.2921634828914
 31
0.0
  0
LINE
  5
2B3
330
1F
100
AcDbEntity
  8
D-0
  6
Continuous
 62
     7
370
     9
100
AcDbLine
 10
511.5887671813257
 20
356.2921634828914
 30
0.0
 11
511.5887671813257
 21
355.5420223390926
 31
0.0
  0
LINE
  5
2B4
330
1F
100
AcDbEntity
  8
D-0
  6
Continuous
 62
     7
370
     9
100
AcDbLine
 10
511.5887671813257
 20
355.5420223390926
 30
0.0
 11
510.8388739928491
 21
355.5420223390926
 31
0.0
  0
LINE
  5
2B5
330
1F
100
AcDbEntity
  8
D-0
  6
Continuous
 62
     7
370
     9
100
AcDbLine
 10
543.6237387244693
 20
338.286830375082
 30
0.0
 11
543.6237387244693
 21
339.0369715188808
 31
0.0
  0
LINE
  5
2B6
330
1F
100
AcDbEntity
  8
D-0
  6
Continuous
 62
     7
370
     9
100
AcDbLine
 10
543.6237387244693
 20
339.0369715188808
 30
0.0
 11
544.3736319129458
 21
339.0369715188808
 31
0.0
  0
LINE
  5
2B7
330
1F
100
AcDbEntity
  8
D-0
  6
Continuous
 62
     7
370
     9
100
AcDbLine
 10
544.3736319129458
 20
339.0369715188808
 30
0.0
 11
544.3736319129458
 21
338.286830375082
 31
0.0
  0
LINE
  5
2B8
330
1F
100
AcDbEntity
  8
D-0
  6
Continuous
 62
     7
370
     9
100
AcDbLine
 10
544.3736319129458
 20
338.286830375082
 30
0.0
 11
543.6237387244693
 21
338.286830375082
 31
0.0
  0
LINE
  5
2B9
330
1F
100
AcDbEntity
  8
D-0
  6
Continuous
 62
     7
370
     9
100
AcDbLine
 10
556.7376846171173
 20
337.9417265358018
 30
0.0
 11
556.7376846171173
 21
338.6918676796006
 31
0.0
  0
LINE
  5
2BA
330
1F
100
AcDbEntity
  8
D-0
  6
Continuous
 62
     7
370
     9
100
AcDbLine
 10
556.7376846171173
 20
338.6918676796006
 30
0.0
 11
557.4875778055939
 21
338.6918676796006
 31
0.0
  0
LINE
  5
2BB
330
1F
100
AcDbEntity
  8
D-0
  6
Continuous
 62
     7
370
     9
100
AcDbLine
 10
557.4875778055939
 20
338.6918676796006
 30
0.0
 11
557.4875778055939
 21
337.9417265358018
 31
0.0
  0
LINE
  5
2BC
330
1F
100
AcDbEntity
  8
D-0
  6
Continuous
 62
     7
370
     9
100
AcDbLine
 10
557.4875778055939
 20
337.9417265358018
 30
0.0
 11
556.7376846171173
 21
337.9417265358018
 31
0.0
  0
LINE
  5
2BD
330
1F
100
AcDbEntity
  8
D-0
  6
Continuous
 62
     7
370
     9
100
AcDbLine
 10
501.003414573363
 20
346.3967705981669
 30
0.0
 11
501.003414573363
 21
347.1469117419657
 31
0.0
  0
LINE
  5
2BE
330
1F
100
AcDbEntity
  8
D-0
  6
Continuous
 62
     7
370
     9
100
AcDbLine
 10
501.003414573363
 20
347.1469117419657
 30
0.0
 11
501.7533077618396
 21
347.1469117419657
 31
0.0
  0
LINE
  5
2BF
330
1F
100
AcDbEntity
  8
D-0
  6
Continuous
 62
     7
370
     9
100
AcDbLine
 10
501.7533077618396
 20
347.1469117419657
 30
0.0
 11
501.7533077618396
 21
346.3967705981669
 31
0.0
  0
LINE
  5
2C0
330
1F
100
AcDbEntity
  8
D-0
  6
Continuous
 62
     7
370
     9
100
AcDbLine
 10
501.7533077618396
 20
346.3967705981669
 30
0.0
 11
501.003414573363
 21
346.3967705981669
 31
0.0
  0
LINE
  5
2C1
330
1F
100
AcDbEntity
  8
D-0
  6
Continuous
 62
     7
370
     9
100
AcDbLine
 10
494.446441627039
 20
358.4754049729743
 30
0.0
 11
494.446441627039
 21
359.2255461167731
 31
0.0
  0
LINE
  5
2C2
330
1F
100
AcDbEntity
  8
D-0
  6
Continuous
 62
     7
370
     9
100
AcDbLine
 10
494.446441627039
 20
359.2255461167731
 30
0.0
 11
495.1963348155155
 21
359.2255461167731
 31
0.0
  0
LINE
  5
2C3
330
1F
100
AcDbEntity
  8
D-0
  6
Continuous
 62
     7
370
     9
100
AcDbLine
 10
495.1963348155155
 20
359.2255461167731
 30
0.0
 11
495.1963348155155
 21
358.4754049729743
 31
0.0
  0
LINE
  5
2C4
330
1F
100
AcDbEntity
  8
D-0
  6
Continuous
 62
     7
370
     9
100
AcDbLine
 10
495.1963348155155
 20
358.4754049729743
 30
0.0
 11
494.446441627039
 21
358.4754049729743
 31
0.0
  0
LINE
  5
2C5
330
1F
100
AcDbEntity
  8
D-0
  6
Continuous
 62
     7
370
     9
100
AcDbLine
 10
509.9761143946486
 20
373.6599739013037
 30
0.0
 11
509.9761143946486
 21
374.4101150451025
 31
0.0
  0
LINE
  5
2C6
330
1F
100
AcDbEntity
  8
D-0
  6
Continuous
 62
     7
370
     9
100
AcDbLine
 10
509.9761143946486
 20
374.4101150451025
 30
0.0
 11
510.7260075831251
 21
374.4101150451025
 31
0.0
  0
LINE
  5
2C7
330
1F
100
AcDbEntity
  8
D-0
  6
Continuous
 62
     7
370
     9
100
AcDbLine
 10
510.7260075831251
 20
374.4101150451025
 30
0.0
 11
510.7260075831251
 21
373.6599739013037
 31
0.0
  0
LINE
  5
2C8
330
1F
100
AcDbEntity
  8
D-0
  6
Continuous
 62
     7
370
     9
100
AcDbLine
 10
510.7260075831251
 20
373.6599739013037
 30
0.0
 11
509.9761143946486
 21
373.6599739013037
 31
0.0
  0
LINE
  5
2C9
330
1F
100
AcDbEntity
  8
D-0
  6
Continuous
 62
     7
370
     9
100
AcDbLine
 10
523.0900602872965
 20
360.8911318479358
 30
0.0
 11
523.0900602872965
 21
361.6412729917346
 31
0.0
  0
LINE
  5
2CA
330
1F
100
AcDbEntity
  8
D-0
  6
Continuous
 62
     7
370
     9
100
AcDbLine
 10
523.0900602872965
 20
361.6412729917346
 30
0.0
 11
523.8399534757731
 21
361.6412729917346
 31
0.0
  0
LINE
  5
2CB
330
1F
100
AcDbEntity
  8
D-0
  6
Continuous
 62
     7
370
     9
100
AcDbLine
 10
523.8399534757731
 20
361.6412729917346
 30
0.0
 11
523.8399534757731
 21
360.8911318479358
 31
0.0
  0
LINE
  5
2CC
330
1F
100
AcDbEntity
  8
D-0
  6
Continuous
 62
     7
370
     9
100
AcDbLine
 10
523.8399534757731
 20
360.8911318479358
 30
0.0
 11
523.0900602872965
 21
360.8911318479358
 31
0.0
  0
LINE
  5
2CD
330
1F
100
AcDbEntity
  8
D-0
  6
Continuous
 62
     7
370
     9
100
AcDbLine
 10
535.1686946621039
 20
371.071695106702
 30
0.0
 11
535.1686946621039
 21
371.8218362505008
 31
0.0
  0
LINE
  5
2CE
330
1F
100
AcDbEntity
  8
D-0
  6
Continuous
 62
     7
370
     9
100
AcDbLine
 10
535.1686946621039
 20
371.8218362505008
 30
0.0
 11
535.9185878505805
 21
371.8218362505008
 31
0.0
  0
LINE
  5
2CF
330
1F
100
AcDbEntity
  8
D-0
  6
Continuous
 62
     7
370
     9
100
AcDbLine
 10
535.9185878505805
 20
371.8218362505008
 30
0.0
 11
535.9185878505805
 21
371.071695106702
 31
0.0
  0
LINE
  5
2D0
330
1F
100
AcDbEntity
  8
D-0
  6
Continuous
 62
     7
370
     9
100
AcDbLine
 10
535.9185878505805
 20
371.071695106702
 30
0.0
 11
535.1686946621039
 21
371.071695106702
 31
0.0
  0
LINE
  5
2D1
330
1F
100
AcDbEntity
  8
D-0
  6
Continuous
 62
     7
370
     9
100
AcDbLine
 10
577.6164668935701
 20
374.8678373387844
 30
0.0
 11
577.6164668935701
 21
375.6179784825832
 31
0.0
  0
LINE
  5
2D2
330
1F
100
AcDbEntity
  8
D-0
  6
Continuous
 62
     7
370
     9
100
AcDbLine
 10
577.6164668935701
 20
375.6179784825832
 30
0.0
 11
578.3663600820466
 21
375.6179784825832
 31
0.0
  0
LINE
  5
2D3
330
1F
100
AcDbEntity
  8
D-0
  6
Continuous
 62
     7
370
     9
100
AcDbLine
 10
578.3663600820466
 20
375.6179784825832
 30
0.0
 11
578.3663600820466
 21
374.8678373387844
 31
0.0
  0
LINE
  5
2D4
330
1F
100
AcDbEntity
  8
D-0
  6
Continuous
 62
     7
370
     9
100
AcDbLine
 10
578.3663600820466
 20
374.8678373387844
 30
0.0
 11
577.6164668935701
 21
374.8678373387844
 31
0.0
  0
LINE
  5
2D5
330
1F
100
AcDbEntity
  8
D-0
  6
Continuous
 62
     7
370
     9
100
AcDbLine
 10
604.5345663574266
 20
375.5580450173448
 30
0.0
 11
604.5345663574266
 21
376.3081861611436
 31
0.0
  0
LINE
  5
2D6
330
1F
100
AcDbEntity
  8
D-0
  6
Continuous
 62
     7
370
     9
100
AcDbLine
 10
604.5345663574266
 20
376.3081861611436
 30
0.0
 11
605.2844595459031
 21
376.3081861611436
 31
0.0
  0
LINE
  5
2D7
330
1F
100
AcDbEntity
  8
D-0
  6
Continuous
 62
     7
370
     9
100
AcDbLine
 10
605.2844595459031
 20
376.3081861611436
 30
0.0
 11
605.2844595459031
 21
375.5580450173448
 31
0.0
  0
LINE
  5
2D8
330
1F
100
AcDbEntity
  8
D-0
  6
Continuous
 62
     7
370
     9
100
AcDbLine
 10
605.2844595459031
 20
375.5580450173448
 30
0.0
 11
604.5345663574266
 21
375.5580450173448
 31
0.0
  0
LINE
  5
2D9
330
1F
100
AcDbEntity
  8
D-0
  6
Continuous
 62
     7
370
     9
100
AcDbLine
 10
630.4173543034425
 20
373.8325258209438
 30
0.0
 11
630.4173543034425
 21
374.5826669647426
 31
0.0
  0
LINE
  5
2DA
330
1F
100
AcDbEntity
  8
D-0
  6
Continuous
 62
     7
370
     9
100
AcDbLine
 10
630.4173543034425
 20
374.5826669647426
 30
0.0
 11
631.167247491919
 21
374.5826669647426
 31
0.0
  0
LINE
  5
2DB
330
1F
100
AcDbEntity
  8
D-0
  6
Continuous
 62
     7
370
     9
100
AcDbLine
 10
631.167247491919
 20
374.5826669647426
 30
0.0
 11
631.167247491919
 21
373.8325258209438
 31
0.0
  0
LINE
  5
2DC
330
1F
100
AcDbEntity
  8
D-0
  6
Continuous
 62
     7
370
     9
100
AcDbLine
 10
631.167247491919
 20
373.8325258209438
 30
0.0
 11
630.4173543034425
 21
373.8325258209438
 31
0.0
  0
LINE
  5
2DD
330
1F
100
AcDbEntity
  8
D-0
  6
Continuous
 62
     7
370
     9
100
AcDbLine
 10
591.0755166254983
 20
369.346175910301
 30
0.0
 11
591.0755166254983
 21
370.0963170540998
 31
0.0
  0
LINE
  5
2DE
330
1F
100
AcDbEntity
  8
D-0
  6
Continuous
 62
     7
370
     9
100
AcDbLine
 10
591.0755166254983
 20
370.0963170540998
 30
0.0
 11
591.8254098139748
 21
370.0963170540998
 31
0.0
  0
LINE
  5
2DF
330
1F
100
AcDbEntity
  8
D-0
  6
Continuous
 62
     7
370
     9
100
AcDbLine
 10
591.8254098139748
 20
370.0963170540998
 30
0.0
 11
591.8254098139748
 21
369.346175910301
 31
0.0
  0
LINE
  5
2E0
330
1F
100
AcDbEntity
  8
D-0
  6
Continuous
 62
     7
370
     9
100
AcDbLine
 10
591.8254098139748
 20
369.346175910301
 30
0.0
 11
591.0755166254983
 21
369.346175910301
 31
0.0
  0
LINE
  5
2E1
330
1F
100
AcDbEntity
  8
D-0
  6
Continuous
 62
     7
370
     9
100
AcDbLine
 10
574.8556361793284
 20
357.957749214054
 30
0.0
 11
574.8556361793284
 21
358.7078903578529
 31
0.0
  0
LINE
  5
2E2
330
1F
100
AcDbEntity
  8
D-0
  6
Continuous
 62
     7
370
     9
100
AcDbLine
 10
574.8556361793284
 20
358.7078903578529
 30
0.0
 11
575.6055293678049
 21
358.7078903578529
 31
0.0
  0
LINE
  5
2E3
330
1F
100
AcDbEntity
  8
D-0
  6
Continuous
 62
     7
370
     9
100
AcDbLine
 10
575.6055293678049
 20
358.7078903578529
 30
0.0
 11
575.6055293678049
 21
357.957749214054
 31
0.0
  0
LINE
  5
2E4
330
1F
100
AcDbEntity
  8
D-0
  6
Continuous
 62
     7
370
     9
100
AcDbLine
 10
575.6055293678049
 20
357.957749214054
 30
0.0
 11
574.8556361793284
 21
357.957749214054
 31
0.0
  0
LINE
  5
2E5
330
1F
100
AcDbEntity
  8
D-0
  6
Continuous
 62
     7
370
     9
100
AcDbLine
 10
578.9968822506909
 20
341.737868767884
 30
0.0
 11
578.9968822506909
 21
342.4880099116829
 31
0.0
  0
LINE
  5
2E6
330
1F
100
AcDbEntity
  8
D-0
  6
Continuous
 62
     7
370
     9
100
AcDbLine
 10
578.9968822506909
 20
342.4880099116829
 30
0.0
 11
579.7467754391674
 21
342.4880099116829
 31
0.0
  0
LINE
  5
2E7
330
1F
100
AcDbEntity
  8
D-0
  6
Continuous
 62
     7
370
     9
100
AcDbLine
 10
579.7467754391674
 20
342.4880099116829
 30
0.0
 11
579.7467754391674
 21
341.737868767884
 31
0.0
  0
LINE
  5
2E8
330
1F
100
AcDbEntity
  8
D-0
  6
Continuous
 62
     7
370
     9
100
AcDbLine
 10
579.7467754391674
 20
341.737868767884
 30
0.0
 11
578.9968822506909
 21
341.737868767884
 31
0.0
  0
LINE
  5
2E9
330
1F
100
AcDbEntity
  8
D-0
  6
Continuous
 62
     7
370
     9
100
AcDbLine
 10
592.110828143339
 20
330.0043382323568
 30
0.0
 11
592.110828143339
 21
330.7544793761556
 31
0.0
  0
LINE
  5
2EA
330
1F
100
AcDbEntity
  8
D-0
  6
Continuous
 62
     7
370
     9
100
AcDbLine
 10
592.110828143339
 20
330.7544793761556
 30
0.0
 11
592.8607213318155
 21
330.7544793761556
 31
0.0
  0
LINE
  5
2EB
330
1F
100
AcDbEntity
  8
D-0
  6
Continuous
 62
     7
370
     9
100
AcDbLine
 10
592.8607213318155
 20
330.7544793761556
 30
0.0
 11
592.8607213318155
 21
330.0043382323568
 31
0.0
  0
LINE
  5
2EC
330
1F
100
AcDbEntity
  8
D-0
  6
Continuous
 62
     7
370
     9
100
AcDbLine
 10
592.8607213318155
 20
330.0043382323568
 30
0.0
 11
592.110828143339
 21
330.0043382323568
 31
0.0
  0
LINE
  5
2ED
330
1F
100
AcDbEntity
  8
D-0
  6
Continuous
 62
     7
370
     9
100
AcDbLine
 10
609.3660201073496
 20
346.2242186785268
 30
0.0
 11
609.3660201073496
 21
346.9743598223256
 31
0.0
  0
LINE
  5
2EE
330
1F
100
AcDbEntity
  8
D-0
  6
Continuous
 62
     7
370
     9
100
AcDbLine
 10
609.3660201073496
 20
346.9743598223256
 30
0.0
 11
610.1159132958262
 21
346.9743598223256
 31
0.0
  0
LINE
  5
2EF
330
1F
100
AcDbEntity
  8
D-0
  6
Continuous
 62
     7
370
     9
100
AcDbLine
 10
610.1159132958262
 20
346.9743598223256
 30
0.0
 11
610.1159132958262
 21
346.2242186785268
 31
0.0
  0
LINE
  5
2F0
330
1F
100
AcDbEntity
  8
D-0
  6
Continuous
 62
     7
370
     9
100
AcDbLine
 10
610.1159132958262
 20
346.2242186785268
 30
0.0
 11
609.3660201073496
 21
346.2242186785268
 31
0.0
  0
LINE
  5
2F1
330
1F
100
AcDbEntity
  8
D-0
  6
Continuous
 62
     7
370
     9
100
AcDbLine
 10
592.110828143339
 20
351.7458801070102
 30
0.0
 11
592.110828143339
 21
352.496021250809
 31
0.0
  0
LINE
  5
2F2
330
1F
100
AcDbEntity
  8
D-0
  6
Continuous
 62
     7
370
     9
100
AcDbLine
 10
592.110828143339
 20
352.496021250809
 30
0.0
 11
592.8607213318155
 21
352.496021250809
 31
0.0
  0
LINE
  5
2F3
330
1F
100
AcDbEntity
  8
D-0
  6
Continuous
 62
     7
370
     9
100
AcDbLine
 10
592.8607213318155
 20
352.496021250809
 30
0.0
 11
592.8607213318155
 21
351.7458801070102
 31
0.0
  0
LINE
  5
2F4
330
1F
100
AcDbEntity
  8
D-0
  6
Continuous
 62
     7
370
     9
100
AcDbLine
 10
592.8607213318155
 20
351.7458801070102
 30
0.0
 11
592.110828143339
 21
351.7458801070102
 31
0.0
  0
LINE
  5
2F5
330
1F
100
AcDbEntity
  8
D-0
  6
Continuous
 62
     7
370
     9
100
AcDbLine
 10
577.2713630542898
 20
330.6945459109173
 30
0.0
 11
577.2713630542898
 21
331.4446870547161
 31
0.0
  0
LINE
  5
2F6
330
1F
100
AcDbEntity
  8
D-0
  6
Continuous
 62
     7
370
     9
100
AcDbLine
 10
577.2713630542898
 20
331.4446870547161
 30
0.0
 11
578.0212562427664
 21
331.4446870547161
 31
0.0
  0
LINE
  5
2F7
330
1F
100
AcDbEntity
  8
D-0
  6
Continuous
 62
     7
370
     9
100
AcDbLine
 10
578.0212562427664
 20
331.4446870547161
 30
0.0
 11
578.0212562427664
 21
330.6945459109173
 31
0.0
  0
LINE
  5
2F8
330
1F
100
AcDbEntity
  8
D-0
  6
Continuous
 62
     7
370
     9
100
AcDbLine
 10
578.0212562427664
 20
330.6945459109173
 30
0.0
 11
577.2713630542898
 21
330.6945459109173
 31
0.0
  0
LINE
  5
2F9
330
1F
100
AcDbEntity
  8
D-0
  6
Continuous
 62
     7
370
     9
100
AcDbLine
 10
611.781746982311
 20
330.6945459109173
 30
0.0
 11
611.781746982311
 21
331.4446870547161
 31
0.0
  0
LINE
  5
2FA
330
1F
100
AcDbEntity
  8
D-0
  6
Continuous
 62
     7
370
     9
100
AcDbLine
 10
611.781746982311
 20
331.4446870547161
 30
0.0
 11
612.5316401707876
 21
331.4446870547161
 31
0.0
  0
LINE
  5
2FB
330
1F
100
AcDbEntity
  8
D-0
  6
Continuous
 62
     7
370
     9
100
AcDbLine
 10
612.5316401707876
 20
331.4446870547161
 30
0.0
 11
612.5316401707876
 21
330.6945459109173
 31
0.0
  0
LINE
  5
2FC
330
1F
100
AcDbEntity
  8
D-0
  6
Continuous
 62
     7
370
     9
100
AcDbLine
 10
612.5316401707876
 20
330.6945459109173
 30
0.0
 11
611.781746982311
 21
330.6945459109173
 31
0.0
  0
LINE
  5
2FD
330
1F
100
AcDbEntity
  8
D-0
  6
Continuous
 62
     7
370
     9
100
AcDbLine
 10
633.8683926962447
 20
331.0396497501975
 30
0.0
 11
633.8683926962447
 21
331.7897908939963
 31
0.0
  0
LINE
  5
2FE
330
1F
100
AcDbEntity
  8
D-0
  6
Continuous
 62
     7
370
     9
100
AcDbLine
 10
633.8683926962447
 20
331.7897908939963
 30
0.0
 11
634.6182858847212
 21
331.7897908939963
 31
0.0
  0
LINE
  5
2FF
330
1F
100
AcDbEntity
  8
D-0
  6
Continuous
 62
     7
370
     9
100
AcDbLine
 10
634.6182858847212
 20
331.7897908939963
 30
0.0
 11
634.6182858847212
 21
331.0396497501975
 31
0.0
  0
LINE
  5
300
330
1F
100
AcDbEntity
  8
D-0
  6
Continuous
 62
     7
370
     9
100
AcDbLine
 10
634.6182858847212
 20
331.0396497501975
 30
0.0
 11
633.8683926962447
 21
331.0396497501975
 31
0.0
  0
LINE
  5
301
330
1F
100
AcDbEntity
  8
D-0
  6
Continuous
 62
     7
370
     9
100
AcDbLine
 10
631.107561982003
 20
346.569322517807
 30
0.0
 11
631.107561982003
 21
347.3194636616058
 31
0.0
  0
LINE
  5
302
330
1F
100
AcDbEntity
  8
D-0
  6
Continuous
 62
     7
370
     9
100
AcDbLine
 10
631.107561982003
 20
347.3194636616058
 30
0.0
 11
631.8574551704795
 21
347.3194636616058
 31
0.0
  0
LINE
  5
303
330
1F
100
AcDbEntity
  8
D-0
  6
Continuous
 62
     7
370
     9
100
AcDbLine
 10
631.8574551704795
 20
347.3194636616058
 30
0.0
 11
631.8574551704795
 21
346.569322517807
 31
0.0
  0
LINE
  5
304
330
1F
100
AcDbEntity
  8
D-0
  6
Continuous
 62
     7
370
     9
100
AcDbLine
 10
631.8574551704795
 20
346.569322517807
 30
0.0
 11
631.107561982003
 21
346.569322517807
 31
0.0
  0
LINE
  5
305
330
1F
100
AcDbEntity
  8
D-0
  6
Continuous
 62
     7
370
     9
100
AcDbLine
 10
618.3387199286351
 20
361.7538914461363
 30
0.0
 11
618.3387199286351
 21
362.5040325899352
 31
0.0
  0
LINE
  5
306
330
1F
100
AcDbEntity
  8
D-0
  6
Continuous
 62
     7
370
     9
100
AcDbLine
 10
618.3387199286351
 20
362.5040325899352
 30
0.0
 11
619.0886131171117
 21
362.5040325899352
 31
0.0
  0
LINE
  5
307
330
1F
100
AcDbEntity
  8
D-0
  6
Continuous
 62
     7
370
     9
100
AcDbLine
 10
619.0886131171117
 20
362.5040325899352
 30
0.0
 11
619.0886131171117
 21
361.7538914461363
 31
0.0
  0
LINE
  5
308
330
1F
100
AcDbEntity
  8
D-0
  6
Continuous
 62
     7
370
     9
100
AcDbLine
 10
619.0886131171117
 20
361.7538914461363
 30
0.0
 11
618.3387199286351
 21
361.7538914461363
 31
0.0
  0
LINE
  5
309
330
1F
100
AcDbEntity
  8
D-0
  6
Continuous
 62
     7
370
     9
100
AcDbLine
 10
606.6051893931078
 20
360.7185799282957
 30
0.0
 11
606.6051893931078
 21
361.4687210720945
 31
0.0
  0
LINE
  5
30A
330
1F
100
AcDbEntity
  8
D-0
  6
Continuous
 62
     7
370
     9
100
AcDbLine
 10
606.6051893931078
 20
361.4687210720945
 30
0.0
 11
607.3550825815844
 21
361.4687210720945
 31
0.0
  0
LINE
  5
30B
330
1F
100
AcDbEntity
  8
D-0
  6
Continuous
 62
     7
370
     9
100
AcDbLine
 10
607.3550825815844
 20
361.4687210720945
 30
0.0
 11
607.3550825815844
 21
360.7185799282957
 31
0.0
  0
LINE
  5
30C
330
1F
100
AcDbEntity
  8
D-0
  6
Continuous
 62
     7
370
     9
100
AcDbLine
 10
607.3550825815844
 20
360.7185799282957
 30
0.0
 11
606.6051893931078
 21
360.7185799282957
 31
0.0
  0
LINE
  5
30D
330
1F
100
AcDbEntity
  8
D-0
  6
Continuous
 62
     7
370
     9
100
AcDbLine
 10
644.5666117139313
 20
366.2402413567791
 30
0.0
 11
644.5666117139313
 21
366.9903825005779
 31
0.0
  0
LINE
  5
30E
330
1F
100
AcDbEntity
  8
D-0
  6
Continuous
 62
     7
370
     9
100
AcDbLine
 10
644.5666117139313
 20
366.9903825005779
 30
0.0
 11
645.3165049024078
 21
366.9903825005779
 31
0.0
  0
LINE
  5
30F
330
1F
100
AcDbEntity
  8
D-0
  6
Continuous
 62
     7
370
     9
100
AcDbLine
 10
645.3165049024078
 20
366.9903825005779
 30
0.0
 11
645.3165049024078
 21
366.2402413567791
 31
0.0
  0
LINE
  5
310
330
1F
100
AcDbEntity
  8
D-0
  6
Continuous
 62
     7
370
     9
100
AcDbLine
 10
645.3165049024078
 20
366.2402413567791
 30
0.0
 11
644.5666117139313
 21
366.2402413567791
 31
0.0
  0
LINE
  5
311
330
1F
100
AcDbEntity
  8
D-0
  6
Continuous
 62
     7
370
     9
100
AcDbLine
 10
643.8764040353708
 20
332.7651689465985
 30
0.0
 11
643.8764040353708
 21
333.5153100903973
 31
0.0
  0
LINE
  5
312
330
1F
100
AcDbEntity
  8
D-0
  6
Continuous
 62
     7
370
     9
100
AcDbLine
 10
643.8764040353708
 20
333.5153100903973
 30
0.0
 11
644.6262972238474
 21
333.5153100903973
 31
0.0
  0
LINE
  5
313
330
1F
100
AcDbEntity
  8
D-0
  6
Continuous
 62
     7
370
     9
100
AcDbLine
 10
644.6262972238474
 20
333.5153100903973
 30
0.0
 11
644.6262972238474
 21
332.7651689465985
 31
0.0
  0
LINE
  5
314
330
1F
100
AcDbEntity
  8
D-0
  6
Continuous
 62
     7
370
     9
100
AcDbLine
 10
644.6262972238474
 20
332.7651689465985
 30
0.0
 11
643.8764040353708
 21
332.7651689465985
 31
0.0
  0
LINE
  5
315
330
1F
100
AcDbEntity
  8
D-0
  6
Continuous
 62
     7
370
     9
100
AcDbLine
 10
636.6292234104862
 20
360.0283722497352
 30
0.0
 11
636.6292234104862
 21
360.7785133935341
 31
0.0
  0
LINE
  5
316
330
1F
100
AcDbEntity
  8
D-0
  6
Continuous
 62
     7
370
     9
100
AcDbLine
 10
636.6292234104862
 20
360.7785133935341
 30
0.0
 11
637.3791165989628
 21
360.7785133935341
 31
0.0
  0
LINE
  5
317
330
1F
100
AcDbEntity
  8
D-0
  6
Continuous
 62
     7
370
     9
100
AcDbLine
 10
637.3791165989628
 20
360.7785133935341
 30
0.0
 11
637.3791165989628
 21
360.0283722497352
 31
0.0
  0
LINE
  5
318
330
1F
100
AcDbEntity
  8
D-0
  6
Continuous
 62
     7
370
     9
100
AcDbLine
 10
637.3791165989628
 20
360.0283722497352
 30
0.0
 11
636.6292234104862
 21
360.0283722497352
 31
0.0
  0
LINE
  5
319
330
1F
100
AcDbEntity
  8
D-0
  6
Continuous
 62
     7
370
     9
100
AcDbLine
 10
642.8410925175301
 20
348.2948417142081
 30
0.0
 11
642.8410925175301
 21
349.0449828580069
 31
0.0
  0
LINE
  5
31A
330
1F
100
AcDbEntity
  8
D-0
  6
Continuous
 62
     7
370
     9
100
AcDbLine
 10
642.8410925175301
 20
349.0449828580069
 30
0.0
 11
643.5909857060067
 21
349.0449828580069
 31
0.0
  0
LINE
  5
31B
330
1F
100
AcDbEntity
  8
D-0
  6
Continuous
 62
     7
370
     9
100
AcDbLine
 10
643.5909857060067
 20
349.0449828580069
 30
0.0
 11
643.5909857060067
 21
348.2948417142081
 31
0.0
  0
LINE
  5
31C
330
1F
100
AcDbEntity
  8
D-0
  6
Continuous
 62
     7
370
     9
100
AcDbLine
 10
643.5909857060067
 20
348.2948417142081
 30
0.0
 11
642.8410925175301
 21
348.2948417142081
 31
0.0
  0
LINE
  5
31D
330
1F
100
AcDbEntity
  8
D-0
  6
Continuous
 62
     7
370
     9
100
AcDbLine
 10
621.9623102410774
 20
373.8325258209438
 30
0.0
 11
621.9623102410774
 21
374.5826669647426
 31
0.0
  0
LINE
  5
31E
330
1F
100
AcDbEntity
  8
D-0
  6
Continuous
 62
     7
370
     9
100
AcDbLine
 10
621.9623102410774
 20
374.5826669647426
 30
0.0
 11
622.7122034295539
 21
374.5826669647426
 31
0.0
  0
LINE
  5
31F
330
1F
100
AcDbEntity
  8
D-0
  6
Continuous
 62
     7
370
     9
100
AcDbLine
 10
622.7122034295539
 20
374.5826669647426
 30
0.0
 11
622.7122034295539
 21
373.8325258209438
 31
0.0
  0
LINE
  5
320
330
1F
100
AcDbEntity
  8
D-0
  6
Continuous
 62
     7
370
     9
100
AcDbLine
 10
622.7122034295539
 20
373.8325258209438
 30
0.0
 11
621.9623102410774
 21
373.8325258209438
 31
0.0
  0
LINE
  5
321
330
1F
100
AcDbEntity
  8
D-0
  6
Continuous
 62
     7
370
     9
100
AcDbLine
 10
623.6878294374784
 20
337.9417265358018
 30
0.0
 11
623.6878294374784
 21
338.6918676796006
 31
0.0
  0
LINE
  5
322
330
1F
100
AcDbEntity
  8
D-0
  6
Continuous
 62
     7
370
     9
100
AcDbLine
 10
623.6878294374784
 20
338.6918676796006
 30
0.0
 11
624.437722625955
 21
338.6918676796006
 31
0.0
  0
LINE
  5
323
330
1F
100
AcDbEntity
  8
D-0
  6
Continuous
 62
     7
370
     9
100
AcDbLine
 10
624.437722625955
 20
338.6918676796006
 30
0.0
 11
624.437722625955
 21
337.9417265358018
 31
0.0
  0
LINE
  5
324
330
1F
100
AcDbEntity
  8
D-0
  6
Continuous
 62
     7
370
     9
100
AcDbLine
 10
624.437722625955
 20
337.9417265358018
 30
0.0
 11
623.6878294374784
 21
337.9417265358018
 31
0.0
  0
LINE
  5
325
330
1F
100
AcDbEntity
  8
D-0
  6
Continuous
 62
     7
370
     9
100
AcDbLine
 10
597.8050414914625
 20
338.9770380536424
 30
0.0
 11
597.8050414914625
 21
339.7271791974412
 31
0.0
  0
LINE
  5
326
330
1F
100
AcDbEntity
  8
D-0
  6
Continuous
 62
     7
370
     9
100
AcDbLine
 10
597.8050414914625
 20
339.7271791974412
 30
0.0
 11
598.554934679939
 21
339.7271791974412
 31
0.0
  0
LINE
  5
327
330
1F
100
AcDbEntity
  8
D-0
  6
Continuous
 62
     7
370
     9
100
AcDbLine
 10
598.554934679939
 20
339.7271791974412
 30
0.0
 11
598.554934679939
 21
338.9770380536424
 31
0.0
  0
LINE
  5
328
330
1F
100
AcDbEntity
  8
D-0
  6
Continuous
 62
     7
370
     9
100
AcDbLine
 10
598.554934679939
 20
338.9770380536424
 30
0.0
 11
597.8050414914625
 21
338.9770380536424
 31
0.0
  0
LINE
  5
329
330
1F
100
AcDbEntity
  8
D-4
  6
Continuous
 62
     7
370
     9
100
AcDbLine
 10
364.8964134422511
 20
160.4518363053639
 30
0.0
 11
539.8964959221919
 21
160.4518363053639
 31
0.0
  0
LINE
  5
32A
330
1F
100
AcDbEntity
  8
D-4
  6
Continuous
 62
     7
370
     9
100
AcDbLine
 10
539.8964959221919
 20
264.1631420238599
 30
0.0
 11
539.8964959221919
 21
158.9518561005497
 31
0.0
  0
TEXT
  5
32B
330
1F
100
AcDbEntity
  8
D-4
  6
Continuous
 62
     2
370
     9
100
AcDbText
 10
419.2715784021327
 20
165.771844553358
 30
0.0
 40
15.24
  1
70～80
 41
1.104166666666667
  7
ＭＳ ゴシック
100
AcDbText
  0
LWPOLYLINE
  5
32C
330
1F
100
AcDbEntity
  8
D-4
  6
Continuous
 62
     7
370
     9
100
AcDbPolyline
 90
        4
 70
     1
 43
0.5
 10
365.1464134422511
 20
160.4518363053639
 42
0.4142135623731
 10
364.8964134422511
 20
160.7018363053639
 42
0.4142135623731
 10
364.6464134422511
 20
160.4518363053639
 42
0.4142135623731
 10
364.8964134422511
 20
160.2018363053639
 42
0.4142135623731
  0
LWPOLYLINE
  5
32D
330
1F
100
AcDbEntity
  8
D-4
  6
Continuous
 62
     7
370
     9
100
AcDbPolyline
 90
        4
 70
     1
 43
0.5
 10
540.1464959221919
 20
160.4518363053639
 42
0.4142135623731
 10
539.8964959221919
 20
160.7018363053639
 42
0.4142135623731
 10
539.646495922192
 20
160.4518363053639
 42
0.4142135623731
 10
539.8964959221919
 20
160.2018363053639
 42
0.4142135623731
  0
LINE
  5
32E
330
1F
100
AcDbEntity
  8
D-5
  6
Continuous
 62
     7
370
     9
100
AcDbLine
 10
166.827392578125
 20
-339.5276703705659
 30
0.0
 11
324.0318504539698
 21
-339.5276703705659
 31
0.0
  0
LINE
  5
32F
330
1F
100
AcDbEntity
  8
D-5
  6
Continuous
 62
     7
370
     9
100
AcDbLine
 10
324.0318504539698
 20
-339.5276703705659
 30
0.0
 11
346.6414168074326
 21
-362.1978594805743
 31
0.0
  0
LINE
  5
330
330
1F
100
AcDbEntity
  8
D-5
  6
Continuous
 62
     7
370
     9
100
AcDbLine
 10
156.6595953864021
 20
-255.0472610061233
 30
0.0
 11
321.6078062315245
 21
-255.0472610061233
 31
0.0
  0
LINE
  5
331
330
1F
100
AcDbEntity
  8
D-5
  6
Continuous
 62
     7
370
     9
100
AcDbLine
 10
186.7206882786107
 20
-389.1773368216849
 30
0.0
 11
353.8862073743667
 21
-389.1773368216849
 31
0.0
  0
LINE
  5
332
330
1F
100
AcDbEntity
  8
D-5
  6
Continuous
 62
     7
370
     9
100
AcDbLine
 10
321.6078062315245
 20
-255.0472610061233
 30
0.0
 11
369.2997288059544
 21
-339.3225427576013
 31
0.0
  0
LINE
  5
333
330
1F
100
AcDbEntity
  8
D-5
  6
Continuous
 62
     7
370
     9
100
AcDbLine
 10
353.8862073743667
 20
-389.1773368216849
 30
0.0
 11
396.0916467615075
 21
-364.3227489574535
 31
0.0
  0
LINE
  5
334
330
1F
100
AcDbEntity
  8
D-5
  6
Continuous
 62
     7
370
     9
100
AcDbLine
 10
353.8862073743667
 20
-389.1773368216849
 30
0.0
 11
421.7630334802575
 21
-408.3101262273015
 31
0.0
  0
LINE
  5
335
330
1F
100
AcDbEntity
  8
D-5
  6
Continuous
 62
     7
370
     9
100
AcDbLine
 10
421.7630334802575
 20
-408.3101262273015
 30
0.0
 11
409.3921558277029
 21
-406.5181670317779
 31
0.0
  0
LINE
  5
336
330
1F
100
AcDbEntity
  8
D-5
  6
Continuous
 62
     7
370
     9
100
AcDbLine
 10
421.7630334802575
 20
-408.3101262273015
 30
0.0
 11
410.2774955130914
 21
-403.37741336307
 31
0.0
  0
TEXT
  5
337
330
1F
100
AcDbEntity
  8
D-5
  6
Continuous
 62
     7
370
     9
100
AcDbText
 10
168.2212004790435
 20
-334.1395363967483
 30
0.0
 40
11.43
  1
アルミ製ボックス
 41
1.145833333333333
  7
ＭＳ ゴシック
100
AcDbText
  0
TEXT
  5
338
330
1F
100
AcDbEntity
  8
D-5
  6
Continuous
 62
     7
370
     9
100
AcDbText
 10
168.221237595017
 20
-318.5300426256334
 30
0.0
 40
11.43
  1
かさ上げ用
 41
1.133333333333333
  7
ＭＳ ゴシック
100
AcDbText
  0
TEXT
  5
339
330
1F
100
AcDbEntity
  8
D-5
  6
Continuous
 62
     7
370
     9
100
AcDbText
 10
159.0701788824958
 20
-248.0487886665963
 30
0.0
 40
11.43
  1
把手カバー　ｔ＝0.5
 41
1.157894736842105
  7
ＭＳ ゴシック
100
AcDbText
  0
TEXT
  5
33A
330
1F
100
AcDbEntity
  8
D-5
  6
Continuous
 62
     7
370
     9
100
AcDbText
 10
175.9436736235748
 20
-269.8942608477618
 30
0.0
 40
11.43
  1
（SUS304　ＨＬ）
 41
1.145833333333333
  7
ＭＳ ゴシック
100
AcDbText
  0
TEXT
  5
33B
330
1F
100
AcDbEntity
  8
D-5
  6
Continuous
 62
     7
370
     9
100
AcDbText
 10
194.508988663957
 20
-463.2421298960093
 30
0.0
 40
11.43
  1
ストッパープレート
 41
1.148148148148148
  7
ＭＳ ゴシック
100
AcDbText
  0
TEXT
  5
33C
330
1F
100
AcDbEntity
  8
D-5
  6
Continuous
 62
     7
370
     9
100
AcDbText
 10
232.442235173406
 20
-383.7892028478674
 30
0.0
 40
11.43
  1
把手本体
 41
1.125
  7
ＭＳ ゴシック
100
AcDbText
  0
TEXT
  5
33D
330
1F
100
AcDbEntity
  8
D-5
  6
Continuous
 62
     7
370
     9
100
AcDbText
 10
182.7448004645271
 20
-406.3995115207981
 30
0.0
 40
11.43
  1
（強化ナイロン樹脂）
 41
1.15
  7
ＭＳ ゴシック
100
AcDbText
  0
TEXT
  5
33E
330
1F
100
AcDbEntity
  8
D-5
  6
Continuous
 62
     7
370
     9
100
AcDbText
 10
186.8049332902238
 20
-486.6850890370961
 30
0.0
 40
11.43
  1
（SUS304　ｔ＝2.5）
 41
1.149122807017544
  7
ＭＳ ゴシック
100
AcDbText
  0
LINE
  5
33F
330
1F
100
AcDbEntity
  8
D-5
  6
Continuous
 62
     7
370
     9
100
AcDbLine
 10
346.6414168074326
 20
-362.1978594805743
 30
0.0
 11
336.7346686285896
 21
-354.5751045845651
 31
0.0
  0
LINE
  5
340
330
1F
100
AcDbEntity
  8
D-5
  6
Continuous
 62
     7
370
     9
100
AcDbLine
 10
346.6414168074326
 20
-362.1978594805743
 30
0.0
 11
339.0450142525339
 21
-352.2708212362753
 31
0.0
  0
LINE
  5
341
330
1F
100
AcDbEntity
  8
D-5
  6
Continuous
 62
     7
370
     9
100
AcDbLine
 10
369.2997288059544
 20
-339.3225427576013
 30
0.0
 11
361.7759498389992
 21
-329.3403254328547
 31
0.0
  0
LINE
  5
342
330
1F
100
AcDbEntity
  8
D-5
  6
Continuous
 62
     7
370
     9
100
AcDbLine
 10
369.2997288059544
 20
-339.3225427576013
 30
0.0
 11
364.615940403294
 21
-327.7332037848395
 31
0.0
  0
LINE
  5
343
330
1F
100
AcDbEntity
  8
D-5
  6
Continuous
 62
     7
370
     9
100
AcDbLine
 10
396.0916467615075
 20
-364.3227489574535
 30
0.0
 11
384.5848289695948
 21
-369.2054789775126
 31
0.0
  0
LINE
  5
344
330
1F
100
AcDbEntity
  8
D-5
  6
Continuous
 62
     7
370
     9
100
AcDbLine
 10
396.0916467615075
 20
-364.3227489574535
 30
0.0
 11
386.240696262669
 21
-372.0173851219383
 31
0.0
  0
LINE
  5
345
330
1F
100
AcDbEntity
  8
D-5
  6
Continuous
 62
     7
370
     9
100
AcDbLine
 10
379.2630169842695
 20
-442.5307263242867
 30
0.0
 11
370.485089276288
 21
-451.4298995453594
 31
0.0
  0
LINE
  5
346
330
1F
100
AcDbEntity
  8
D-5
  6
Continuous
 62
     7
370
     9
100
AcDbLine
 10
379.2630169842695
 20
-442.5307263242867
 30
0.0
 11
373.0874138909419
 21
-453.3985307742445
 31
0.0
  0
LINE
  5
347
330
1F
100
AcDbEntity
  8
D-5
  6
Continuous
 62
     7
370
     9
100
AcDbLine
 10
186.0720247835727
 20
-470.4942280537373
 30
0.0
 11
358.1091831126805
 21
-470.4942280537373
 31
0.0
  0
LINE
  5
348
330
1F
100
AcDbEntity
  8
D-5
  6
Continuous
 62
     7
370
     9
100
AcDbLine
 10
358.1091831126805
 20
-470.4942280537373
 30
0.0
 11
379.2630169842695
 21
-442.5307263242867
 31
0.0
  0
TEXT
  5
349
330
1F
100
AcDbEntity
  8
D-5
  6
Continuous
 62
     7
370
     9
100
AcDbText
 10
184.6574556620507
 20
236.450684765402
 30
0.0
 40
11.43
  1
軟質ポリ塩化ビニル
 50
0.00006915737602
 41
1.148148148148148
  7
ＭＳ ゴシック
100
AcDbText
  0
LINE
  5
34A
330
1F
100
AcDbEntity
  8
D-5
  6
Continuous
 62
     7
370
     9
100
AcDbLine
 10
554.3557656777873
 20
480.4600648622255
 30
0.0
 11
731.855732685811
 21
480.4600648622255
 31
0.0
  0
LINE
  5
34B
330
1F
100
AcDbEntity
  8
D-5
  6
Continuous
 62
     7
370
     9
100
AcDbLine
 10
264.9377771326013
 20
299.3918918918919
 30
0.0
 11
310.1913039748734
 21
377.6576026710305
 31
0.0
  0
LINE
  5
34C
330
1F
100
AcDbEntity
  8
D-5
  6
Continuous
 62
     7
370
     9
100
AcDbLine
 10
338.5798273859797
 20
253.0669506176099
 30
0.0
 11
398.0389981656461
 21
338.0620348131334
 31
0.0
  0
LINE
  5
34D
330
1F
100
AcDbEntity
  8
D-5
  6
Continuous
 62
     7
370
     9
100
AcDbLine
 10
310.1913039748734
 20
377.6576026710305
 30
0.0
 11
305.4002504091005
 21
366.112060546875
 31
0.0
  0
LINE
  5
34E
330
1F
100
AcDbEntity
  8
D-5
  6
Continuous
 62
     7
370
     9
100
AcDbLine
 10
310.1913039748734
 20
377.6576026710305
 30
0.0
 11
302.5753536739865
 21
367.7455345360009
 31
0.0
  0
LINE
  5
34F
330
1F
100
AcDbEntity
  8
D-5
  6
Continuous
 62
     7
370
     9
100
AcDbLine
 10
398.0389981656461
 20
338.0620348131334
 30
0.0
 11
392.2719182194891
 21
326.9717819626267
 31
0.0
  0
LINE
  5
350
330
1F
100
AcDbEntity
  8
D-5
  6
Continuous
 62
     7
370
     9
100
AcDbLine
 10
398.0389981656461
 20
338.0620348131334
 30
0.0
 11
389.5980834960938
 21
328.8423033018371
 31
0.0
  0
LINE
  5
351
330
1F
100
AcDbEntity
  8
D-5
  6
Continuous
 62
     7
370
     9
100
AcDbLine
 10
796.067356418919
 20
557.4739775786529
 30
0.0
 11
515.2717796531886
 21
557.4739775786529
 31
0.0
  0
LINE
  5
352
330
1F
100
AcDbEntity
  8
D-5
  6
Continuous
 62
     7
370
     9
100
AcDbLine
 10
427.3964959221919
 20
413.3933567356419
 30
0.0
 11
515.2717796531886
 21
557.4739775786529
 31
0.0
  0
LINE
  5
353
330
1F
100
AcDbEntity
  8
D-5
  6
Continuous
 62
     7
370
     9
100
AcDbLine
 10
440.6447951858109
 20
367.2147761164485
 30
0.0
 11
534.001737027555
 21
520.2831536370355
 31
0.0
  0
LINE
  5
354
330
1F
100
AcDbEntity
  8
D-5
  6
Continuous
 62
     7
370
     9
100
AcDbLine
 10
534.001737027555
 20
520.2831536370355
 30
0.0
 11
805.3115844726562
 21
520.2831536370355
 31
0.0
  0
LINE
  5
355
330
1F
100
AcDbEntity
  8
D-5
  6
Continuous
 62
     7
370
     9
100
AcDbLine
 10
460.9988238360432
 20
327.3916873416385
 30
0.0
 11
554.3557656777873
 21
480.4600648622255
 31
0.0
  0
LINE
  5
356
330
1F
100
AcDbEntity
  8
D-5
  6
Continuous
 62
     7
370
     9
100
AcDbLine
 10
427.3964959221919
 20
413.3933567356419
 30
0.0
 11
432.4566402950802
 21
424.8233444626267
 31
0.0
  0
LINE
  5
357
330
1F
100
AcDbEntity
  8
D-5
  6
Continuous
 62
     7
370
     9
100
AcDbLine
 10
427.3964959221919
 20
413.3933567356419
 30
0.0
 11
435.242441538218
 21
423.1242989205026
 31
0.0
  0
LINE
  5
358
330
1F
100
AcDbEntity
  8
D-5
  6
Continuous
 62
     7
370
     9
100
AcDbLine
 10
440.6447951858109
 20
367.2147761164485
 30
0.0
 11
445.7049395586995
 21
378.6447638434333
 31
0.0
  0
LINE
  5
359
330
1F
100
AcDbEntity
  8
D-5
  6
Continuous
 62
     7
370
     9
100
AcDbLine
 10
440.6447951858109
 20
367.2147761164485
 30
0.0
 11
448.490740801837
 21
376.9457183013091
 31
0.0
  0
LINE
  5
35A
330
1F
100
AcDbEntity
  8
D-5
  6
Continuous
 62
     7
370
     9
100
AcDbLine
 10
460.9988238360432
 20
327.3916873416385
 30
0.0
 11
466.0589682089318
 21
338.8216750686233
 31
0.0
  0
LINE
  5
35B
330
1F
100
AcDbEntity
  8
D-5
  6
Continuous
 62
     7
370
     9
100
AcDbLine
 10
460.9988238360432
 20
327.3916873416385
 30
0.0
 11
468.8447694520693
 21
337.1226295264992
 31
0.0
  0
TEXT
  5
35C
330
1F
100
AcDbEntity
  8
D-5
  6
Continuous
 62
     7
370
     9
100
AcDbText
 10
556.5758947423988
 20
484.5977616923565
 30
0.0
 40
11.43
  1
アンカー（ＳＰＨＣ）
 41
1.15
  7
ＭＳ ゴシック
100
AcDbText
  0
TEXT
  5
35D
330
1F
100
AcDbEntity
  8
D-5
  6
Continuous
 62
     7
370
     9
100
AcDbText
 10
540.4880874221391
 20
524.984023503484
 30
0.0
 40
11.43
  1
アルミ受枠（Ａ６０６３Ｓ－Ｔ５）
 41
1.15625
  7
ＭＳ ゴシック
100
AcDbText
  0
TEXT
  5
35E
330
1F
100
AcDbEntity
  8
D-5
  6
Continuous
 62
     7
370
     9
100
AcDbText
 10
517.6273687057687
 20
561.3912055267992
 30
0.0
 40
11.43
  1
蓋フレーム（Ａ６０６３Ｓ－Ｔ５）
 50
0.0000255446149782
 41
1.15625
  7
ＭＳ ゴシック
100
AcDbText
  0
TEXT
  5
35F
330
1F
100
AcDbEntity
  8
D-5
  6
Continuous
 62
     7
370
     9
100
AcDbText
 10
213.3447452919787
 20
257.1105064041184
 30
0.0
 40
11.43
  1
クッション
 50
0.00006915737602
 41
1.133333333333334
  7
ＭＳ ゴシック
100
AcDbText
  0
LINE
  5
360
330
1F
100
AcDbEntity
  8
D-5
  6
Continuous
 62
     7
370
     9
100
AcDbLine
 10
338.5798273859797
 20
253.0669506176099
 30
0.0
 11
183.5355109170459
 21
253.0669506176099
 31
0.0
  0
LINE
  5
361
330
1F
100
AcDbEntity
  8
D-0
  6
Continuous
 62
     7
370
     9
100
AcDbLine
 10
318.5811223210516
 20
-549.1622759844806
 30
0.0
 11
318.5811223210516
 21
-516.6625399202915
 31
0.0
  0
LINE
  5
362
330
1F
100
AcDbEntity
  8
D-0
  6
Continuous
 62
     7
370
     9
100
AcDbLine
 10
318.5811223210516
 20
-516.6625399202915
 30
0.0
 11
606.081328520904
 21
-516.6625399202915
 31
0.0
  0
LINE
  5
363
330
1F
100
AcDbEntity
  8
D-0
  6
Continuous
 62
     7
370
     9
100
AcDbLine
 10
606.081328520904
 20
-516.6625399202915
 30
0.0
 11
606.081328520904
 21
-549.1622759844806
 31
0.0
  0
LINE
  5
364
330
1F
100
AcDbEntity
  8
D-0
  6
Continuous
 62
     7
370
     9
100
AcDbLine
 10
606.081328520904
 20
-549.1622759844806
 30
0.0
 11
318.5811223210516
 21
-549.1622759844806
 31
0.0
  0
LINE
  5
365
330
1F
100
AcDbEntity
  8
D-0
  6
Continuous
 62
     3
370
     9
100
AcDbLine
 10
572.0134425807644
 20
-339.3225427576013
 30
0.0
 11
346.5132429793076
 21
-339.3225427576013
 31
0.0
  0
LINE
  5
366
330
1F
100
AcDbEntity
  8
D-0
  6
Continuous
 62
     3
370
     9
100
AcDbLine
 10
551.5609328811234
 20
-346.8224437816723
 30
0.0
 11
574.2627942884292
 21
-346.8224437816723
 31
0.0
  0
LINE
  5
367
330
1F
100
AcDbEntity
  8
D-0
  6
Continuous
 62
     3
370
     9
100
AcDbLine
 10
550.3609734612544
 20
-346.8224437816723
 30
0.0
 11
344.2627777924409
 21
-346.8224437816723
 31
0.0
  0
LINE
  5
368
330
1F
100
AcDbEntity
  8
D-0
  6
JWW_DASHED3
 62
     3
370
     9
100
AcDbLine
 10
368.1657120988177
 20
-347.7259702940245
 30
0.0
 11
371.5130780194258
 21
-358.0725427576013
 31
0.0
  0
LINE
  5
369
330
1F
100
AcDbEntity
  8
D-0
  6
Continuous
 62
     3
370
     9
100
AcDbLine
 10
344.2627777924409
 20
-341.5725130648226
 30
0.0
 11
344.2627777924409
 21
-346.8224437816723
 31
0.0
  0
LINE
  5
36A
330
1F
100
AcDbEntity
  8
D-0
  6
Continuous
 62
     3
370
     9
100
AcDbLine
 10
574.2627942884292
 20
-341.5725130648226
 30
0.0
 11
574.2627942884292
 21
-346.8224437816723
 31
0.0
  0
LINE
  5
36B
330
1F
100
AcDbEntity
  8
D-0
  6
JWW_CENTER1
 62
     3
370
     9
100
AcDbLine
 10
459.2630334802575
 20
-249.4622967694256
 30
0.0
 11
459.2630334802575
 21
-478.8685814110008
 31
0.0
  0
LINE
  5
36C
330
1F
100
AcDbEntity
  8
D-0
  6
JWW_DASHED3
 62
     3
370
     9
100
AcDbLine
 10
550.3609734612544
 20
-347.7259702940245
 30
0.0
 11
547.0129889410896
 21
-358.0725427576013
 31
0.0
  0
LINE
  5
36D
330
1F
100
AcDbEntity
  8
D-0
  6
JWW_DASHED3
 62
     3
370
     9
100
AcDbLine
 10
377.762913059544
 20
-364.3226252375422
 30
0.0
 11
540.7631539009714
 21
-364.3226252375422
 31
0.0
  0
LINE
  5
36E
330
1F
100
AcDbEntity
  8
D-0
  6
JWW_DASHED3
 62
     3
370
     9
100
AcDbLine
 10
350.5131077122044
 20
-346.8224437816723
 30
0.0
 11
350.5131077122044
 21
-370.5724602776605
 31
0.0
  0
LINE
  5
36F
330
1F
100
AcDbEntity
  8
D-0
  6
JWW_DASHED3
 62
     3
370
     9
100
AcDbLine
 10
568.012959248311
 20
-346.8224437816723
 30
0.0
 11
568.012959248311
 21
-370.5724602776605
 31
0.0
  0
LINE
  5
370
330
1F
100
AcDbEntity
  8
D-0
  6
Continuous
 62
     3
370
     9
100
AcDbLine
 10
345.5128437763938
 20
-346.8224437816723
 30
0.0
 11
345.5128437763938
 21
-370.5724602776605
 31
0.0
  0
LINE
  5
371
330
1F
100
AcDbEntity
  8
D-0
  6
Continuous
 62
     3
370
     9
100
AcDbLine
 10
573.0132231841217
 20
-346.8224437816723
 30
0.0
 11
573.0132231841217
 21
-370.5724602776605
 31
0.0
  0
LINE
  5
372
330
1F
100
AcDbEntity
  8
D-0
  6
Continuous
 62
     3
370
     9
100
AcDbLine
 10
569.2630252322635
 20
-86.82307062922291
 30
0.0
 11
349.2630417282518
 21
-86.82307062922291
 31
0.0
  0
LINE
  5
373
330
1F
100
AcDbEntity
  8
D-0
  6
Continuous
 62
     3
370
     9
100
AcDbLine
 10
574.2630417282519
 20
-169.3232190931165
 30
0.0
 11
574.2630417282519
 21
-91.82308712521106
 31
0.0
  0
LINE
  5
374
330
1F
100
AcDbEntity
  8
D-0
  6
Continuous
 62
     3
370
     9
100
AcDbLine
 10
344.2630252322635
 20
-169.3232190931165
 30
0.0
 11
344.2630252322635
 21
-91.82308712521106
 31
0.0
  0
LINE
  5
375
330
1F
100
AcDbEntity
  8
D-0
  6
Continuous
 62
     3
370
     9
100
AcDbLine
 10
349.2630417282518
 20
-174.3232355891047
 30
0.0
 11
569.2630252322635
 21
-174.3232355891047
 31
0.0
  0
LINE
  5
376
330
1F
100
AcDbEntity
  8
D-0
  6
Continuous
 62
     3
370
     9
100
AcDbLine
 10
377.7630367794552
 20
-140.3232718802787
 30
0.0
 11
377.7630367794552
 21
-120.8232817778716
 31
0.0
  0
LINE
  5
377
330
1F
100
AcDbEntity
  8
D-0
  6
Continuous
 62
     3
370
     9
100
AcDbLine
 10
535.2630615234375
 20
-115.3231894003378
 30
0.0
 11
383.2630054370779
 21
-115.3231894003378
 31
0.0
  0
LINE
  5
378
330
1F
100
AcDbEntity
  8
D-0
  6
Continuous
 62
     3
370
     9
100
AcDbLine
 10
540.7630301810602
 20
-140.3232718802787
 30
0.0
 11
540.7630301810602
 21
-120.8232817778716
 31
0.0
  0
LINE
  5
379
330
1F
100
AcDbEntity
  8
D-0
  6
Continuous
 62
     3
370
     9
100
AcDbLine
 10
535.2630615234375
 20
-145.8231168179898
 30
0.0
 11
383.2630054370779
 21
-145.8231168179898
 31
0.0
  0
LINE
  5
37A
330
1F
100
AcDbEntity
  8
D-0
  6
JWW_CENTER1
 62
     3
370
     9
100
AcDbLine
 10
459.2630334802575
 20
-190.0752546980574
 30
0.0
 11
459.2630334802575
 21
-68.48679001266888
 31
0.0
  0
LINE
  5
37B
330
1F
100
AcDbEntity
  8
D-0
  6
JWW_CENTER1
 62
     3
370
     9
100
AcDbLine
 10
326.8442514780406
 20
-130.5731531091638
 30
0.0
 11
592.4681792388092
 21
-130.5731531091638
 31
0.0
  0
LINE
  5
37C
330
1F
100
AcDbEntity
  8
D-0
  6
Continuous
 62
     3
370
     9
100
AcDbLine
 10
379.2630169842695
 20
-438.0726829735008
 30
0.0
 11
539.2630499762458
 21
-438.0726829735008
 31
0.0
  0
LINE
  5
37D
330
1F
100
AcDbEntity
  8
D-0
  6
Continuous
 62
     3
370
     9
100
AcDbLine
 10
379.2630169842695
 20
-444.3227654534417
 30
0.0
 11
539.2630499762458
 21
-444.3227654534417
 31
0.0
  0
LINE
  5
37E
330
1F
100
AcDbEntity
  8
D-0
  6
Continuous
 62
     3
370
     9
100
AcDbLine
 10
421.7630334802575
 20
-434.5726466823268
 30
0.0
 11
429.2630582242398
 21
-437.3226928710938
 31
0.0
  0
LINE
  5
37F
330
1F
100
AcDbEntity
  8
D-0
  6
Continuous
 62
     3
370
     9
100
AcDbLine
 10
496.7630334802575
 20
-434.5726466823268
 30
0.0
 11
489.2631324561867
 21
-437.3226928710938
 31
0.0
  0
LINE
  5
380
330
1F
100
AcDbEntity
  8
D-0
  6
Continuous
 62
     3
370
     9
100
AcDbLine
 10
429.2630582242398
 20
-437.3226928710938
 30
0.0
 11
429.2630582242398
 21
-438.0726829735008
 31
0.0
  0
LINE
  5
381
330
1F
100
AcDbEntity
  8
D-0
  6
Continuous
 62
     3
370
     9
100
AcDbLine
 10
489.2631324561867
 20
-437.3226928710938
 30
0.0
 11
489.2631324561867
 21
-438.0726829735008
 31
0.0
  0
LINE
  5
382
330
1F
100
AcDbEntity
  8
D-0
  6
Continuous
 62
     3
370
     9
100
AcDbLine
 10
419.2630252322635
 20
-461.822699469489
 30
0.0
 11
419.2630252322635
 21
-444.3227654534417
 31
0.0
  0
LINE
  5
383
330
1F
100
AcDbEntity
  8
D-0
  6
Continuous
 62
     3
370
     9
100
AcDbLine
 10
496.7630334802575
 20
-464.3225839975718
 30
0.0
 11
421.7630334802575
 21
-464.3225839975718
 31
0.0
  0
LINE
  5
384
330
1F
100
AcDbEntity
  8
D-0
  6
Continuous
 62
     3
370
     9
100
AcDbLine
 10
499.2630417282518
 20
-461.822699469489
 30
0.0
 11
499.2630417282518
 21
-444.3227654534417
 31
0.0
  0
LINE
  5
385
330
1F
100
AcDbEntity
  8
D-0
  6
Continuous
 62
     3
370
     9
100
AcDbLine
 10
379.2630169842695
 20
-438.0726829735008
 30
0.0
 11
379.2630169842695
 21
-449.3227819494299
 31
0.0
  0
LINE
  5
386
330
1F
100
AcDbEntity
  8
D-0
  6
Continuous
 62
     3
370
     9
100
AcDbLine
 10
539.2630499762458
 20
-438.0726829735008
 30
0.0
 11
539.2630499762458
 21
-449.3227819494299
 31
0.0
  0
LINE
  5
387
330
1F
100
AcDbEntity
  8
D-0
  6
Continuous
 62
     3
370
     9
100
AcDbLine
 10
379.2630169842695
 20
-449.3227819494299
 30
0.0
 11
418.6381159601984
 21
-449.3227819494299
 31
0.0
  0
LINE
  5
388
330
1F
100
AcDbEntity
  8
D-0
  6
Continuous
 62
     3
370
     9
100
AcDbLine
 10
499.8880747202281
 20
-449.3227819494299
 30
0.0
 11
539.2630499762458
 21
-449.3227819494299
 31
0.0
  0
LINE
  5
389
330
1F
100
AcDbEntity
  8
D-0
  6
Continuous
 62
     3
370
     9
100
AcDbLine
 10
499.8880747202281
 20
-444.3227654534417
 30
0.0
 11
499.8880747202281
 21
-449.3227819494299
 31
0.0
  0
LINE
  5
38A
330
1F
100
AcDbEntity
  8
D-0
  6
Continuous
 62
     3
370
     9
100
AcDbLine
 10
418.6381159601984
 20
-444.3227654534417
 30
0.0
 11
418.6381159601984
 21
-449.3227819494299
 31
0.0
  0
LINE
  5
38B
330
1F
100
AcDbEntity
  8
D-0
  6
Continuous
 62
     3
370
     9
100
AcDbLine
 10
421.7630334802575
 20
-401.5725872967694
 30
0.0
 11
421.7630334802575
 21
-434.5726466823268
 31
0.0
  0
LINE
  5
38C
330
1F
100
AcDbEntity
  8
D-0
  6
Continuous
 62
     3
370
     9
100
AcDbLine
 10
496.7630334802575
 20
-401.6131674276816
 30
0.0
 11
496.7630334802575
 21
-434.5726466823268
 31
0.0
  0
LINE
  5
38D
330
1F
100
AcDbEntity
  8
D-0
  6
JWW_PHANTOM1
 62
     3
370
     9
100
AcDbLine
 10
379.5130549250422
 20
-264.3225427576013
 30
0.0
 11
539.0130120354731
 21
-264.3225427576013
 31
0.0
  0
LINE
  5
38E
330
1F
100
AcDbEntity
  8
D-0
  6
JWW_PHANTOM1
 62
     3
370
     9
100
AcDbLine
 10
379.5130549250422
 20
-275.5726417335304
 30
0.0
 11
539.0130120354731
 21
-275.5726417335304
 31
0.0
  0
LINE
  5
38F
330
1F
100
AcDbEntity
  8
D-0
  6
JWW_PHANTOM1
 62
     3
370
     9
100
AcDbLine
 10
379.5130549250422
 20
-264.3225427576013
 30
0.0
 11
379.5130549250422
 21
-275.5726417335304
 31
0.0
  0
LINE
  5
390
330
1F
100
AcDbEntity
  8
D-0
  6
JWW_PHANTOM1
 62
     3
370
     9
100
AcDbLine
 10
539.0130120354731
 20
-264.3225427576013
 30
0.0
 11
539.0130120354731
 21
-275.5726417335304
 31
0.0
  0
LINE
  5
391
330
1F
100
AcDbEntity
  8
D-0
  6
JWW_PHANTOM1
 62
     3
370
     9
100
AcDbLine
 10
536.0130516258448
 20
-275.5726417335304
 30
0.0
 11
536.0130516258448
 21
-281.8226004935599
 31
0.0
  0
LINE
  5
392
330
1F
100
AcDbEntity
  8
D-0
  6
JWW_PHANTOM1
 62
     3
370
     9
100
AcDbLine
 10
382.5130153346706
 20
-275.5726417335304
 30
0.0
 11
382.5130153346706
 21
-281.8226004935599
 31
0.0
  0
LINE
  5
393
330
1F
100
AcDbEntity
  8
D-0
  6
JWW_PHANTOM1
 62
     3
370
     9
100
AcDbLine
 10
426.7630499762458
 20
-281.8226004935599
 30
0.0
 11
382.5130153346706
 21
-281.8226004935599
 31
0.0
  0
LINE
  5
394
330
1F
100
AcDbEntity
  8
D-0
  6
JWW_PHANTOM1
 62
     3
370
     9
100
AcDbLine
 10
491.7630169842695
 20
-281.8226004935599
 30
0.0
 11
536.0130516258448
 21
-281.8226004935599
 31
0.0
  0
LINE
  5
395
330
1F
100
AcDbEntity
  8
D-0
  6
JWW_PHANTOM1
 62
     3
370
     9
100
AcDbLine
 10
421.763157200169
 20
-325.3225213128167
 30
0.0
 11
421.763157200169
 21
-339.3225427576013
 31
0.0
  0
LINE
  5
396
330
1F
100
AcDbEntity
  8
D-0
  6
JWW_PHANTOM1
 62
     3
370
     9
100
AcDbLine
 10
434.2630747202281
 20
-306.8225592535895
 30
0.0
 11
434.2630747202281
 21
-289.3226252375422
 31
0.0
  0
LINE
  5
397
330
1F
100
AcDbEntity
  8
D-0
  6
JWW_PHANTOM1
 62
     3
370
     9
100
AcDbLine
 10
484.2632396801099
 20
-306.8225592535895
 30
0.0
 11
484.2632396801099
 21
-289.3226252375422
 31
0.0
  0
LINE
  5
398
330
1F
100
AcDbEntity
  8
D-0
  6
JWW_PHANTOM1
 62
     3
370
     9
100
AcDbLine
 10
496.763157200169
 20
-325.3631014437289
 30
0.0
 11
496.763157200169
 21
-339.3225427576013
 31
0.0
  0
LINE
  5
399
330
1F
100
AcDbEntity
  8
D-0
  6
JWW_PHANTOM1
 62
     3
370
     9
100
AcDbLine
 10
432.7630945154138
 20
-268.0726169895481
 30
0.0
 11
485.7629724451013
 21
-268.0726169895481
 31
0.0
  0
LINE
  5
39A
330
1F
100
AcDbEntity
  8
D-0
  6
JWW_PHANTOM1
 62
     3
370
     9
100
AcDbLine
 10
432.7630945154138
 20
-268.0726169895481
 30
0.0
 11
432.7630945154138
 21
-275.5726417335304
 31
0.0
  0
LINE
  5
39B
330
1F
100
AcDbEntity
  8
D-0
  6
JWW_PHANTOM1
 62
     3
370
     9
100
AcDbLine
 10
485.7629724451013
 20
-268.0726169895481
 30
0.0
 11
485.7629724451013
 21
-275.5726417335304
 31
0.0
  0
LINE
  5
39C
330
1F
100
AcDbEntity
  8
D-0
  6
Continuous
 62
     3
370
     9
100
AcDbLine
 10
434.2629510003169
 20
-383.0727489574535
 30
0.0
 11
434.2629510003169
 21
-370.5724602776605
 31
0.0
  0
LINE
  5
39D
330
1F
100
AcDbEntity
  8
D-0
  6
Continuous
 62
     3
370
     9
100
AcDbLine
 10
484.2629922402872
 20
-383.0727489574535
 30
0.0
 11
484.2629922402872
 21
-370.5724602776605
 31
0.0
  0
LINE
  5
39E
330
1F
100
AcDbEntity
  8
D-0
  6
Continuous
 62
     3
370
     9
100
AcDbLine
 10
573.0132231841217
 20
-370.5724602776605
 30
0.0
 11
345.5128437763938
 21
-370.5724602776605
 31
0.0
  0
LINE
  5
39F
330
1F
100
AcDbEntity
  8
D-0
  6
JWW_DASHED3
 62
     3
370
     9
100
AcDbLine
 10
434.2629510003169
 20
-370.5724602776605
 30
0.0
 11
434.2629510003169
 21
-364.3226252375422
 31
0.0
  0
LINE
  5
3A0
330
1F
100
AcDbEntity
  8
D-0
  6
JWW_DASHED3
 62
     3
370
     9
100
AcDbLine
 10
484.2629922402872
 20
-370.5724602776605
 30
0.0
 11
484.2629922402872
 21
-364.3226252375422
 31
0.0
  0
ARC
  5
3A1
330
1F
100
AcDbEntity
  8
D-0
  6
JWW_DASHED3
 62
     3
370
     9
100
AcDbCircle
 10
377.762913059544
 20
-358.0725427576013
 30
0.0
 40
6.250000322187269
100
AcDbArc
 50
180.0
 51
270.0
  0
ARC
  5
3A2
330
1F
100
AcDbEntity
  8
D-0
  6
JWW_DASHED3
 62
     3
370
     9
100
AcDbCircle
 10
540.7631539009714
 20
-358.0725427576013
 30
0.0
 40
6.250000322187269
100
AcDbArc
 50
270.0
 51
0.0
  0
ARC
  5
3A3
330
1F
100
AcDbEntity
  8
D-0
  6
Continuous
 62
     3
370
     9
100
AcDbCircle
 10
346.5132429793076
 20
-341.5725130648226
 30
0.0
 40
2.249999787356403
100
AcDbArc
 50
90.0
 51
180.0
  0
ARC
  5
3A4
330
1F
100
AcDbEntity
  8
D-0
  6
Continuous
 62
     3
370
     9
100
AcDbCircle
 10
572.0134425807644
 20
-341.5725130648226
 30
0.0
 40
2.249999787356403
100
AcDbArc
 50
0.0
 51
90.0
  0
ARC
  5
3A5
330
1F
100
AcDbEntity
  8
D-0
  6
JWW_DASHED3
 62
     3
370
     9
100
AcDbCircle
 10
551.5609328811234
 20
-348.072509765625
 30
0.0
 40
1.249999895289138
100
AcDbArc
 50
90.0
 51
163.8992004394532
  0
ARC
  5
3A6
330
1F
100
AcDbEntity
  8
D-0
  6
JWW_DASHED3
 62
     3
370
     9
100
AcDbCircle
 10
366.9646391997466
 20
-348.072509765625
 30
0.0
 40
1.249999895289138
100
AcDbArc
 50
16.10079956054688
 51
90.0
  0
ARC
  5
3A7
330
1F
100
AcDbEntity
  8
D-0
  6
Continuous
 62
     3
370
     9
100
AcDbCircle
 10
349.2630417282518
 20
-91.82308712521106
 30
0.0
 40
5.000000064437454
100
AcDbArc
 50
90.0
 51
180.0
  0
ARC
  5
3A8
330
1F
100
AcDbEntity
  8
D-0
  6
Continuous
 62
     3
370
     9
100
AcDbCircle
 10
569.2630252322635
 20
-91.82308712521106
 30
0.0
 40
5.000000064437454
100
AcDbArc
 50
0.0
 51
90.0
  0
ARC
  5
3A9
330
1F
100
AcDbEntity
  8
D-0
  6
Continuous
 62
     3
370
     9
100
AcDbCircle
 10
569.2630252322635
 20
-169.3232190931165
 30
0.0
 40
5.000000064437454
100
AcDbArc
 50
270.0
 51
0.0
  0
ARC
  5
3AA
330
1F
100
AcDbEntity
  8
D-0
  6
Continuous
 62
     3
370
     9
100
AcDbCircle
 10
349.2630417282518
 20
-169.3232190931165
 30
0.0
 40
5.000000064437454
100
AcDbArc
 50
180.0
 51
270.0
  0
ARC
  5
3AB
330
1F
100
AcDbEntity
  8
D-0
  6
Continuous
 62
     3
370
     9
100
AcDbCircle
 10
383.2630054370779
 20
-120.8232817778716
 30
0.0
 40
5.5000000708812
100
AcDbArc
 50
90.0
 51
180.0
  0
ARC
  5
3AC
330
1F
100
AcDbEntity
  8
D-0
  6
Continuous
 62
     3
370
     9
100
AcDbCircle
 10
383.2630054370779
 20
-140.3232718802787
 30
0.0
 40
5.5000000708812
100
AcDbArc
 50
180.0
 51
270.0
  0
ARC
  5
3AD
330
1F
100
AcDbEntity
  8
D-0
  6
Continuous
 62
     3
370
     9
100
AcDbCircle
 10
535.2630615234375
 20
-120.8232817778716
 30
0.0
 40
5.5000000708812
100
AcDbArc
 50
0.0
 51
90.0
  0
ARC
  5
3AE
330
1F
100
AcDbEntity
  8
D-0
  6
Continuous
 62
     3
370
     9
100
AcDbCircle
 10
535.2630615234375
 20
-140.3232718802787
 30
0.0
 40
5.5000000708812
100
AcDbArc
 50
270.0
 51
0.0
  0
ARC
  5
3AF
330
1F
100
AcDbEntity
  8
D-0
  6
Continuous
 62
     3
370
     9
100
AcDbCircle
 10
421.7630334802575
 20
-461.822699469489
 30
0.0
 40
2.500000032218727
100
AcDbArc
 50
180.0
 51
270.0
  0
ARC
  5
3B0
330
1F
100
AcDbEntity
  8
D-0
  6
Continuous
 62
     3
370
     9
100
AcDbCircle
 10
496.7630334802575
 20
-461.822699469489
 30
0.0
 40
2.500000032218727
100
AcDbArc
 50
270.0
 51
0.0
  0
ARC
  5
3B1
330
1F
100
AcDbEntity
  8
D-0
  6
Continuous
 62
     3
370
     9
100
AcDbCircle
 10
426.7630499762458
 20
-383.0727489574535
 30
0.0
 40
7.500000096656181
100
AcDbArc
 50
292.0240478515625
 51
0.0000000000000382
  0
ARC
  5
3B2
330
1F
100
AcDbEntity
  8
D-0
  6
Continuous
 62
     3
370
     9
100
AcDbCircle
 10
434.2630747202281
 20
-401.6131674276816
 30
0.0
 40
12.50000064437454
100
AcDbArc
 50
112.0243377685547
 51
180.0
  0
ARC
  5
3B3
330
1F
100
AcDbEntity
  8
D-0
  6
Continuous
 62
     3
370
     9
100
AcDbCircle
 10
484.2629922402872
 20
-401.6131674276816
 30
0.0
 40
12.50000064437454
100
AcDbArc
 50
0.0
 51
67.9756622314453
  0
ARC
  5
3B4
330
1F
100
AcDbEntity
  8
D-0
  6
Continuous
 62
     3
370
     9
100
AcDbCircle
 10
491.7630169842695
 20
-383.0727489574535
 30
0.0
 40
7.500000096656181
100
AcDbArc
 50
180.0
 51
247.9759521484375
  0
ARC
  5
3B5
330
1F
100
AcDbEntity
  8
D-0
  6
Continuous
 62
     3
370
     9
100
AcDbCircle
 10
459.2630334802575
 20
-130.5731531091638
 30
0.0
 40
32.49999896900074
100
AcDbArc
 50
207.9842987060547
 51
332.0157012939453
  0
ARC
  5
3B6
330
1F
100
AcDbEntity
  8
D-0
  6
Continuous
 62
     3
370
     9
100
AcDbCircle
 10
459.2630334802575
 20
-130.5731531091638
 30
0.0
 40
32.49999896900074
100
AcDbArc
 50
27.98429870605469
 51
152.0157012939453
  0
ARC
  5
3B7
330
1F
100
AcDbEntity
  8
D-0
  6
JWW_PHANTOM1
 62
     3
370
     9
100
AcDbCircle
 10
426.7630499762458
 20
-289.3226252375422
 30
0.0
 40
7.500000096656181
100
AcDbArc
 50
0.0
 51
90.0
  0
ARC
  5
3B8
330
1F
100
AcDbEntity
  8
D-0
  6
JWW_PHANTOM1
 62
     3
370
     9
100
AcDbCircle
 10
491.7630169842695
 20
-289.3226252375422
 30
0.0
 40
7.500000096656181
100
AcDbArc
 50
90.0
 51
180.0
  0
ARC
  5
3B9
330
1F
100
AcDbEntity
  8
D-0
  6
JWW_PHANTOM1
 62
     3
370
     9
100
AcDbCircle
 10
491.7630169842695
 20
-306.8225592535895
 30
0.0
 40
7.500000096656181
100
AcDbArc
 50
180.0
 51
247.9759521484375
  0
ARC
  5
3BA
330
1F
100
AcDbEntity
  8
D-0
  6
JWW_PHANTOM1
 62
     3
370
     9
100
AcDbCircle
 10
484.2632396801099
 20
-325.3631014437289
 30
0.0
 40
12.50000064437454
100
AcDbArc
 50
0.0
 51
67.97628784179688
  0
ARC
  5
3BB
330
1F
100
AcDbEntity
  8
D-0
  6
JWW_PHANTOM1
 62
     3
370
     9
100
AcDbCircle
 10
426.7630499762458
 20
-306.8225592535895
 30
0.0
 40
7.500000096656181
100
AcDbArc
 50
292.0240478515625
 51
0.0000000000000382
  0
ARC
  5
3BC
330
1F
100
AcDbEntity
  8
D-0
  6
JWW_PHANTOM1
 62
     3
370
     9
100
AcDbCircle
 10
434.2629510003169
 20
-325.3631014437289
 30
0.0
 40
12.50000064437454
100
AcDbArc
 50
112.0237121582031
 51
180.0
  0
TEXT
  5
3BD
330
1F
100
AcDbEntity
  8
D-0
  6
Continuous
 62
     2
370
     9
100
AcDbText
 10
339.8312872809333
 20
-540.0924409443622
 30
0.0
 40
15.24
  1
把手詳細図　Ｓ＝１：２
 41
1.113636363636364
  7
ＭＳ ゴシック
100
AcDbText
  0
LINE
  5
3BE
330
1F
100
AcDbEntity
  8
0-4
  6
Continuous
 62
     7
370
     9
100
AcDbLine
 10
-514.8648648648648
 20
-491.1486486486486
 30
0.0
 11
-249.6007146062077
 21
-491.1486486486486
 31
0.0
  0
TEXT
  5
3BF
330
1F
100
AcDbEntity
  8
0-4
  6
Continuous
 62
     2
370
     9
100
AcDbText
 10
-503.1411640064136
 20
-484.9686632970862
 30
0.0
 40
15.24
  1
平面詳細図　Ｓ＝１：５
 41
1.113636363636364
  7
ＭＳ ゴシック
100
AcDbText
  0
LINE
  5
3C0
330
1F
100
AcDbEntity
  8
D-4
  6
Continuous
 62
     7
370
     9
100
AcDbLine
 10
344.2630252322635
 20
-218.5773529877533
 30
0.0
 11
574.2630417282519
 21
-218.5773529877533
 31
0.0
  0
LINE
  5
3C1
330
1F
100
AcDbEntity
  8
D-4
  6
Continuous
 62
     7
370
     9
100
AcDbLine
 10
344.2630252322635
 20
-181.8231366131756
 30
0.0
 11
344.2630252322635
 21
-220.0773331925675
 31
0.0
  0
LINE
  5
3C2
330
1F
100
AcDbEntity
  8
D-4
  6
Continuous
 62
     7
370
     9
100
AcDbLine
 10
574.2630417282519
 20
-181.8231366131756
 30
0.0
 11
574.2630417282519
 21
-220.0773331925675
 31
0.0
  0
LINE
  5
3C3
330
1F
100
AcDbEntity
  8
D-4
  6
Continuous
 62
     7
370
     9
100
AcDbLine
 10
666.7880908862967
 20
-174.3232355891047
 30
0.0
 11
666.7880908862967
 21
-86.82307062922291
 31
0.0
  0
LINE
  5
3C4
330
1F
100
AcDbEntity
  8
D-4
  6
Continuous
 62
     7
370
     9
100
AcDbLine
 10
581.7630664722342
 20
-174.3232355891047
 30
0.0
 11
668.2879473711995
 21
-174.3232355891047
 31
0.0
  0
LINE
  5
3C5
330
1F
100
AcDbEntity
  8
D-4
  6
Continuous
 62
     7
370
     9
100
AcDbLine
 10
581.7630664722342
 20
-86.82307062922291
 30
0.0
 11
668.2879473711995
 21
-86.82307062922291
 31
0.0
  0
LINE
  5
3C6
330
1F
100
AcDbEntity
  8
D-4
  6
Continuous
 62
     7
370
     9
100
AcDbLine
 10
666.7880908862967
 20
-464.3225839975718
 30
0.0
 11
666.7880908862967
 21
-264.3225427576013
 31
0.0
  0
LINE
  5
3C7
330
1F
100
AcDbEntity
  8
D-4
  6
Continuous
 62
     7
370
     9
100
AcDbLine
 10
509.2630747202281
 20
-464.3225839975718
 30
0.0
 11
668.2879473711995
 21
-464.3225839975718
 31
0.0
  0
LINE
  5
3C8
330
1F
100
AcDbEntity
  8
D-4
  6
Continuous
 62
     7
370
     9
100
AcDbLine
 10
586.7630829682221
 20
-339.3225427576013
 30
0.0
 11
668.2879473711995
 21
-339.3225427576013
 31
0.0
  0
LINE
  5
3C9
330
1F
100
AcDbEntity
  8
D-4
  6
Continuous
 62
     7
370
     9
100
AcDbLine
 10
551.5130532754436
 20
-264.3225427576013
 30
0.0
 11
668.2879473711995
 21
-264.3225427576013
 31
0.0
  0
LINE
  5
3CA
330
1F
100
AcDbEntity
  8
D-4
  6
Continuous
 62
     7
370
     9
100
AcDbLine
 10
586.7630829682221
 20
-370.5724602776605
 30
0.0
 11
630.9834248310813
 21
-370.5724602776605
 31
0.0
  0
LINE
  5
3CB
330
1F
100
AcDbEntity
  8
D-4
  6
Continuous
 62
     7
370
     9
100
AcDbLine
 10
629.4834446262669
 20
-418.0770709063555
 30
0.0
 11
629.4834446262669
 21
-339.3225427576013
 31
0.0
  0
TEXT
  5
3CC
330
1F
100
AcDbEntity
  8
D-4
  6
Continuous
 62
     2
370
     9
100
AcDbText
 10
448.6380953402135
 20
-210.7573364917652
 30
0.0
 40
15.24
  1
92
 41
1.0625
  7
ＭＳ ゴシック
100
AcDbText
  0
TEXT
  5
3CD
330
1F
100
AcDbEntity
  8
D-4
  6
Continuous
 62
     2
370
     9
100
AcDbText
 10
658.9677032305744
 20
-141.1982149691195
 30
0.0
 40
15.24
  1
35
 50
90.0
 41
1.0625
  7
ＭＳ ゴシック
100
AcDbText
  0
TEXT
  5
3CE
330
1F
100
AcDbEntity
  8
D-4
  6
Continuous
 62
     2
370
     9
100
AcDbText
 10
658.9677032305744
 20
-412.4475633775866
 30
0.0
 40
15.24
  1
50
 50
90.0
 41
1.0625
  7
ＭＳ ゴシック
100
AcDbText
  0
TEXT
  5
3CF
330
1F
100
AcDbEntity
  8
D-4
  6
Continuous
 62
     2
370
     9
100
AcDbText
 10
658.9677032305744
 20
-312.447604617557
 30
0.0
 40
15.24
  1
30
 50
90.0
 41
1.0625
  7
ＭＳ ゴシック
100
AcDbText
  0
TEXT
  5
3D0
330
1F
100
AcDbEntity
  8
D-4
  6
Continuous
 62
     2
370
     9
100
AcDbText
 10
624.1635600981841
 20
-417.3277045585014
 30
0.0
 40
15.24
  1
12.5
 50
90.0
 41
1.09375
  7
ＭＳ ゴシック
100
AcDbText
  0
LWPOLYLINE
  5
3D1
330
1F
100
AcDbEntity
  8
D-4
  6
Continuous
 62
     7
370
     9
100
AcDbPolyline
 90
        4
 70
     1
 43
0.5
 10
344.5130252322635
 20
-218.5773529877533
 42
0.4142135623731
 10
344.2630252322635
 20
-218.3273529877533
 42
0.4142135623731
 10
344.0130252322635
 20
-218.5773529877533
 42
0.4142135623731
 10
344.2630252322635
 20
-218.8273529877533
 42
0.4142135623731
  0
LWPOLYLINE
  5
3D2
330
1F
100
AcDbEntity
  8
D-4
  6
Continuous
 62
     7
370
     9
100
AcDbPolyline
 90
        4
 70
     1
 43
0.5
 10
574.5130417282518
 20
-218.5773529877533
 42
0.4142135623731
 10
574.2630417282519
 20
-218.3273529877533
 42
0.4142135623731
 10
574.0130417282519
 20
-218.5773529877533
 42
0.4142135623731
 10
574.2630417282519
 20
-218.8273529877533
 42
0.4142135623731
  0
LWPOLYLINE
  5
3D3
330
1F
100
AcDbEntity
  8
D-4
  6
Continuous
 62
     7
370
     9
100
AcDbPolyline
 90
        4
 70
     1
 43
0.5
 10
667.0380908862967
 20
-174.3232355891047
 42
0.4142135623731
 10
666.7880908862967
 20
-174.0732355891047
 42
0.4142135623731
 10
666.5380908862966
 20
-174.3232355891047
 42
0.4142135623731
 10
666.7880908862967
 20
-174.5732355891047
 42
0.4142135623731
  0
LWPOLYLINE
  5
3D4
330
1F
100
AcDbEntity
  8
D-4
  6
Continuous
 62
     7
370
     9
100
AcDbPolyline
 90
        4
 70
     1
 43
0.5
 10
667.0380908862967
 20
-86.82307062922291
 42
0.4142135623731
 10
666.7880908862967
 20
-86.57307062922291
 42
0.4142135623731
 10
666.5380908862966
 20
-86.82307062922291
 42
0.4142135623731
 10
666.7880908862967
 20
-87.07307062922291
 42
0.4142135623731
  0
LWPOLYLINE
  5
3D5
330
1F
100
AcDbEntity
  8
D-4
  6
Continuous
 62
     7
370
     9
100
AcDbPolyline
 90
        4
 70
     1
 43
0.5
 10
667.0380908862967
 20
-464.3225839975718
 42
0.4142135623731
 10
666.7880908862967
 20
-464.0725839975718
 42
0.4142135623731
 10
666.5380908862966
 20
-464.3225839975718
 42
0.4142135623731
 10
666.7880908862967
 20
-464.5725839975717
 42
0.4142135623731
  0
LWPOLYLINE
  5
3D6
330
1F
100
AcDbEntity
  8
D-4
  6
Continuous
 62
     7
370
     9
100
AcDbPolyline
 90
        4
 70
     1
 43
0.5
 10
667.0380908862967
 20
-339.3225427576013
 42
0.4142135623731
 10
666.7880908862967
 20
-339.0725427576013
 42
0.4142135623731
 10
666.5380908862966
 20
-339.3225427576013
 42
0.4142135623731
 10
666.7880908862967
 20
-339.5725427576013
 42
0.4142135623731
  0
LWPOLYLINE
  5
3D7
330
1F
100
AcDbEntity
  8
D-4
  6
Continuous
 62
     7
370
     9
100
AcDbPolyline
 90
        4
 70
     1
 43
0.5
 10
667.0380908862967
 20
-264.3225427576013
 42
0.4142135623731
 10
666.7880908862967
 20
-264.0725427576013
 42
0.4142135623731
 10
666.5380908862966
 20
-264.3225427576013
 42
0.4142135623731
 10
666.7880908862967
 20
-264.5725427576013
 42
0.4142135623731
  0
LWPOLYLINE
  5
3D8
330
1F
100
AcDbEntity
  8
D-4
  6
Continuous
 62
     7
370
     9
100
AcDbPolyline
 90
        4
 70
     1
 43
0.5
 10
629.7334446262669
 20
-370.5724602776605
 42
0.4142135623731
 10
629.4834446262669
 20
-370.3224602776605
 42
0.4142135623731
 10
629.233444626267
 20
-370.5724602776605
 42
0.4142135623731
 10
629.4834446262669
 20
-370.8224602776605
 42
0.4142135623731
  0
LWPOLYLINE
  5
3D9
330
1F
100
AcDbEntity
  8
D-4
  6
Continuous
 62
     7
370
     9
100
AcDbPolyline
 90
        4
 70
     1
 43
0.5
 10
629.7334446262669
 20
-339.3225427576013
 42
0.4142135623731
 10
629.4834446262669
 20
-339.0725427576013
 42
0.4142135623731
 10
629.233444626267
 20
-339.3225427576013
 42
0.4142135623731
 10
629.4834446262669
 20
-339.5725427576013
 42
0.4142135623731
  0
LINE
  5
3DA
330
1F
100
AcDbEntity
  8
0-4
  6
Continuous
 62
     7
370
     9
100
AcDbLine
 10
-580.8710459116343
 20
-179.9500831946756
 30
0.0
 11
-170.8710541596284
 21
-179.9500831946756
 31
0.0
  0
LWPOLYLINE
  5
3DB
330
1F
100
AcDbEntity
  8
0-4
  6
Continuous
 62
     7
370
     9
100
AcDbPolyline
 90
        4
 70
     1
 43
0.5
 10
-580.6210459116343
 20
-179.9500831946756
 42
0.4142135623731
 10
-580.8710459116343
 20
-179.7000831946756
 42
0.4142135623731
 10
-581.1210459116343
 20
-179.9500831946756
 42
0.4142135623731
 10
-580.8710459116343
 20
-180.2000831946755
 42
0.4142135623731
  0
LWPOLYLINE
  5
3DC
330
1F
100
AcDbEntity
  8
0-4
  6
Continuous
 62
     7
370
     9
100
AcDbPolyline
 90
        4
 70
     1
 43
0.5
 10
-170.6210541596284
 20
-179.9500831946756
 42
0.4142135623731
 10
-170.8710541596284
 20
-179.7000831946756
 42
0.4142135623731
 10
-171.1210541596284
 20
-179.9500831946756
 42
0.4142135623731
 10
-170.8710541596284
 20
-180.2000831946755
 42
0.4142135623731
  0
LINE
  5
3DD
330
1F
100
AcDbEntity
  8
0-4
  6
Continuous
 62
     7
370
     9
100
AcDbLine
 10
-580.8710459116343
 20
-181.4500831946755
 30
0.0
 11
-580.8710459116343
 21
-133.8700701739336
 31
0.0
  0
LINE
  5
3DE
330
1F
100
AcDbEntity
  8
0-4
  6
Continuous
 62
     7
370
     9
100
AcDbLine
 10
-170.8710541596284
 20
-181.4500831946755
 30
0.0
 11
-170.8710541596284
 21
-133.8700701739336
 31
0.0
  0
TEXT
  5
3DF
330
1F
100
AcDbEntity
  8
0-4
  6
Continuous
 62
     2
370
   211
100
AcDbText
 10
-392.1210500356313
 20
-174.6300831946756
 30
0.0
 40
15.24
  1
410
 41
1.083333333333333
  7
ＭＳ ゴシック
100
AcDbText
  0
TEXT
  5
3E0
330
1F
100
AcDbEntity
  8
D-5
  6
Continuous
 62
     7
370
     9
100
AcDbText
 10
108.2670769732709
 20
304.4890366342906
 30
0.0
 40
11.43
  1
底板　ｔ＝３．２
 41
1.145833333333333
  7
ＭＳ ゴシック
100
AcDbText
  0
TEXT
  5
3E1
330
1F
100
AcDbEntity
  8
D-5
  6
Continuous
 62
     7
370
     9
100
AcDbText
 10
108.2670769732709
 20
283.1658842183041
 30
0.0
 40
11.43
  1
溶融亜鉛めっき鋼板
 41
1.148148148148148
  7
ＭＳ ゴシック
100
AcDbText
  0
LINE
  5
3E2
330
1F
100
AcDbEntity
  8
D-5
  6
Continuous
 62
     7
370
     9
100
AcDbLine
 10
105.6100640578511
 20
299.3918918918919
 30
0.0
 11
264.9377771326013
 21
299.3918918918919
 31
0.0
  0
TEXT
  5
3E3
330
1F
100
AcDbEntity
  8
F-0
  6
Continuous
 62
     7
370
     9
100
AcDbText
 10
-425.9400765089363
 20
-663.122045203969
 30
0.0
 40
11.43
  1
フロアーハッチ　フローリング床材用（フローリング厚12.5mm）屋内用　一般形
 41
1.097222222222222
  7
ＭＳ ゴシック
100
AcDbText
  0
TEXT
  5
3E4
330
1F
100
AcDbEntity
  8
F-0
  6
Continuous
 62
     7
370
     9
100
AcDbText
 10
-425.2800609085844
 20
-682.7542780563459
 30
0.0
 40
11.43
  1
アルミニウム＋スチール製　アルミニウム目地　ＭＯＦＭ－６００－１２.５－Ｃ
 41
1.097260273972603
  7
ＭＳ ゴシック
100
AcDbText
  0
ENDSEC
  0
SECTION
  2
OBJECTS
  0
DICTIONARY
  5
C
330
0
100
AcDbDictionary
281
     1
  3
ACAD_GROUP
350
D
  3
ACAD_LAYOUT
350
1A
  3
ACAD_MLEADERSTYLE
350
3E6
  3
ACAD_MLINESTYLE
350
17
  3
ACAD_PLOTSETTINGS
350
19
  3
ACAD_PLOTSTYLENAME
350
E
  3
ACAD_TABLESTYLE
350
3E5
  3
ACAD_VISUALSTYLE
350
2A
  0
DICTIONARY
  5
D
102
{ACAD_REACTORS
330
C
102
}
330
C
100
AcDbDictionary
281
     1
  0
DICTIONARY
  5
1A
102
{ACAD_REACTORS
330
C
102
}
330
C
100
AcDbDictionary
281
     1
  3
Layout1
350
1E
  3
Layout2
350
26
  3
Model
350
22
  0
DICTIONARY
  5
3E6
102
{ACAD_REACTORS
330
C
102
}
330
C
100
AcDbDictionary
281
     1
  0
DICTIONARY
  5
17
102
{ACAD_REACTORS
330
C
102
}
330
C
100
AcDbDictionary
281
     1
  3
Standard
350
18
  0
DICTIONARY
  5
19
102
{ACAD_REACTORS
330
C
102
}
330
C
100
AcDbDictionary
281
     1
  0
ACDBDICTIONARYWDFLT
  5
E
102
{ACAD_REACTORS
330
C
102
}
330
C
100
AcDbDictionary
281
     1
  3
Normal
350
F
100
AcDbDictionaryWithDefault
340
F
  0
DICTIONARY
  5
3E5
102
{ACAD_REACTORS
330
C
102
}
330
C
100
AcDbDictionary
281
     1
  0
DICTIONARY
  5
2A
102
{ACAD_REACTORS
330
C
102
}
330
C
100
AcDbDictionary
281
     1
  3
2dWireframe
350
2F
  3
3D Hidden
350
31
  3
3dWireframe
350
30
  3
Basic
350
32
  3
Brighten
350
36
  3
ColorChange
350
3A
  3
Conceptual
350
34
  3
Dim
350
35
  3
Facepattern
350
39
  3
Flat
350
2B
  3
FlatWithEdges
350
2C
  3
Gouraud
350
2D
  3
GouraudWithEdges
350
2E
  3
Linepattern
350
38
  3
Realistic
350
33
  3
Thicken
350
37
  0
LAYOUT
  5
1E
102
{ACAD_REACTORS
330
1A
102
}
330
1A
100
AcDbPlotSettings
  1

  2
none_device
  4

  6

 40
0.0
 41
0.0
 42
0.0
 43
0.0
 44
0.0
 45
0.0
 46
0.0
 47
0.0
 48
0.0
 49
0.0
140
0.0
141
0.0
142
1.0
143
1.0
 70
   688
 72
     0
 73
     0
 74
     5
  7

 75
    16
 76
     0
 77
     5
 78
   300
147
1.0
148
0.0
149
0.0
100
AcDbLayout
  1
Layout1
 70
     1
 71
     1
 10
0.0
 20
0.0
 11
420.0
 21
297.0
 12
0.0
 22
0.0
 32
0.0
 14
1.000000000000000E+20
 24
1.000000000000000E+20
 34
1.000000000000000E+20
 15
-1.000000000000000E+20
 25
-1.000000000000000E+20
 35
-1.000000000000000E+20
146
0.0
 13
0.0
 23
0.0
 33
0.0
 16
1.0
 26
0.0
 36
0.0
 17
0.0
 27
1.0
 37
0.0
 76
     0
330
1B
  0
LAYOUT
  5
26
102
{ACAD_REACTORS
330
1A
102
}
330
1A
100
AcDbPlotSettings
  1

  2
none_device
  4

  6

 40
0.0
 41
0.0
 42
0.0
 43
0.0
 44
0.0
 45
0.0
 46
0.0
 47
0.0
 48
0.0
 49
0.0
140
0.0
141
0.0
142
1.0
143
1.0
 70
   688
 72
     0
 73
     0
 74
     5
  7

 75
    16
 76
     0
 77
     5
 78
   300
147
1.0
148
0.0
149
0.0
100
AcDbLayout
  1
Layout2
 70
     1
 71
     2
 10
0.0
 20
0.0
 11
0.0
 21
0.0
 12
0.0
 22
0.0
 32
0.0
 14
0.0
 24
0.0
 34
0.0
 15
0.0
 25
0.0
 35
0.0
146
0.0
 13
0.0
 23
0.0
 33
0.0
 16
1.0
 26
0.0
 36
0.0
 17
0.0
 27
1.0
 37
0.0
 76
     0
330
23
  0
LAYOUT
  5
22
102
{ACAD_REACTORS
330
1A
102
}
330
1A
100
AcDbPlotSettings
  1

  2
none_device
  4

  6

 40
0.0
 41
0.0
 42
0.0
 43
0.0
 44
0.0
 45
0.0
 46
0.0
 47
0.0
 48
0.0
 49
0.0
140
0.0
141
0.0
142
1.0
143
1.0
 70
  1712
 72
     0
 73
     0
 74
     0
  7

 75
     0
 76
     0
 77
     5
 78
   300
147
1.0
148
0.0
149
0.0
100
AcDbLayout
  1
Model
 70
     1
 71
     0
 10
-1050.0
 20
-742.5
 11
1050.0
 21
742.5
 12
0.0
 22
0.0
 32
0.0
 14
-1050.0
 24
-742.5
 34
0.0
 15
1050.0
 25
742.5
 35
0.0
146
0.0
 13
0.0
 23
0.0
 33
0.0
 16
1.0
 26
0.0
 36
0.0
 17
0.0
 27
1.0
 37
0.0
 76
     0
330
1F
331
29
  0
MLINESTYLE
  5
18
102
{ACAD_REACTORS
330
17
102
}
330
17
100
AcDbMlineStyle
  2
Standard
 70
     0
  3

 62
   256
 51
90.0
 52
90.0
 71
     2
 49
0.5
 62
   256
  6
BYLAYER
 49
-0.5
 62
   256
  6
BYLAYER
  0
ACDBPLACEHOLDER
  5
F
102
{ACAD_REACTORS
330
E
102
}
330
E
  0
VISUALSTYLE
  5
2F
102
{ACAD_REACTORS
330
2A
102
}
330
2A
100
AcDbVisualStyle
  2
2dWireframe
 70
     4
 71
     0
 72
     2
 73
     0
 90
        0
 40
-0.6
 41
-30.0
 62
     5
 63
     7
421
 16777215
 74
     1
 91
        4
 64
     7
 65
   257
 75
     1
175
     1
 42
1.0
 92
        0
 66
   257
 43
1.0
 76
     1
 77
     6
 78
     2
 67
     7
 79
     5
170
     0
171
     0
290
     0
174
     0
 93
        1
 44
0.0
173
     0
291
     0
 45
0.0
1001
ACAD
1000
AcDbSavedByObjectVersion
1070
     0
  0
VISUALSTYLE
  5
31
102
{ACAD_REACTORS
330
2A
102
}
330
2A
100
AcDbVisualStyle
  2
3D Hidden
 70
     6
 71
     1
 72
     2
 73
     2
 90
        0
 40
-0.6
 41
-30.0
 62
     5
 63
     7
421
 16777215
 74
     2
 91
        2
 64
     7
 65
   257
 75
     2
175
     1
 42
40.0
 92
        0
 66
   257
 43
1.0
 76
     1
 77
     6
 78
     2
 67
     7
 79
     3
170
     0
171
     0
290
     0
174
     0
 93
        1
 44
0.0
173
     0
291
     0
 45
0.0
1001
ACAD
1000
AcDbSavedByObjectVersion
1070
     0
  0
VISUALSTYLE
  5
30
102
{ACAD_REACTORS
330
2A
102
}
330
2A
100
AcDbVisualStyle
  2
3dWireframe
 70
     5
 71
     0
 72
     2
 73
     0
 90
        0
 40
-0.6
 41
-30.0
 62
     5
 63
     7
421
 16777215
 74
     1
 91
        4
 64
     7
 65
   257
 75
     1
175
     1
 42
1.0
 92
        0
 66
   257
 43
1.0
 76
     1
 77
     6
 78
     2
 67
     7
 79
     5
170
     0
171
     0
290
     0
174
     0
 93
        1
 44
0.0
173
     0
291
     0
 45
0.0
1001
ACAD
1000
AcDbSavedByObjectVersion
1070
     0
  0
VISUALSTYLE
  5
32
102
{ACAD_REACTORS
330
2A
102
}
330
2A
100
AcDbVisualStyle
  2
Basic
 70
     7
 71
     1
 72
     0
 73
     1
 90
        0
 40
-0.6
 41
-30.0
 62
     5
 63
     7
421
 16777215
 74
     0
 91
        4
 64
     7
 65
   257
 75
     1
175
     1
 42
1.0
 92
        8
 66
     7
 43
1.0
 76
     1
 77
     6
 78
     2
 67
     7
 79
     5
170
     0
171
     0
290
     0
174
     0
 93
        1
 44
0.0
173
     0
291
     1
 45
0.0
1001
ACAD
1000
AcDbSavedByObjectVersion
1070
     0
  0
VISUALSTYLE
  5
36
102
{ACAD_REACTORS
330
2A
102
}
330
2A
100
AcDbVisualStyle
  2
Brighten
 70
    12
 71
     2
 72
     2
 73
     0
 90
        0
 40
-0.6
 41
-30.0
 62
     5
 63
     7
421
 16777215
 74
     1
 91
        4
 64
     7
 65
   257
 75
     1
175
     1
 42
1.0
 92
        8
 66
     7
 43
1.0
 76
     1
 77
     6
 78
     2
 67
     7
 79
     5
170
     0
171
     0
290
     0
174
     0
 93
        1
 44
50.0
173
     0
291
     1
 45
0.0
1001
ACAD
1000
AcDbSavedByObjectVersion
1070
     0
  0
VISUALSTYLE
  5
3A
102
{ACAD_REACTORS
330
2A
102
}
330
2A
100
AcDbVisualStyle
  2
ColorChange
 70
    16
 71
     2
 72
     2
 73
     3
 90
        0
 40
-0.6
 41
-30.0
 62
     5
 63
     8
421
  8421504
 74
     1
 91
        4
 64
     7
 65
   257
 75
     1
175
     1
 42
1.0
 92
        8
 66
     8
424
  8421504
 43
1.0
 76
     1
 77
     6
 78
     2
 67
     7
 79
     5
170
     0
171
     0
290
     0
174
     0
 93
        1
 44
0.0
173
     0
291
     1
 45
0.0
1001
ACAD
1000
AcDbSavedByObjectVersion
1070
     0
  0
VISUALSTYLE
  5
34
102
{ACAD_REACTORS
330
2A
102
}
330
2A
100
AcDbVisualStyle
  2
Conceptual
 70
     9
 71
     3
 72
     2
 73
     0
 90
        0
 40
-0.6
 41
-30.0
 62
     5
 63
     7
421
 16777215
 74
     2
 91
        2
 64
     7
 65
   257
 75
     1
175
     1
 42
40.0
 92
        8
 66
     7
 43
1.0
 76
     1
 77
     6
 78
     2
 67
     7
 79
     3
170
     0
171
     0
290
     0
174
     0
 93
        1
 44
0.0
173
     0
291
     0
 45
0.0
1001
ACAD
1000
AcDbSavedByObjectVersion
1070
     0
  0
VISUALSTYLE
  5
35
102
{ACAD_REACTORS
330
2A
102
}
330
2A
100
AcDbVisualStyle
  2
Dim
 70
    11
 71
     2
 72
     2
 73
     0
 90
        0
 40
-0.6
 41
-30.0
 62
     5
 63
     7
421
 16777215
 74
     1
 91
        4
 64
     7
 65
   257
 75
     1
175
     1
 42
1.0
 92
        8
 66
     7
 43
1.0
 76
     1
 77
     6
 78
     2
 67
     7
 79
     5
170
     0
171
     0
290
     0
174
     0
 93
        1
 44
-50.0
173
     0
291
     1
 45
0.0
1001
ACAD
1000
AcDbSavedByObjectVersion
1070
     0
  0
VISUALSTYLE
  5
39
102
{ACAD_REACTORS
330
2A
102
}
330
2A
100
AcDbVisualStyle
  2
Facepattern
 70
    15
 71
     2
 72
     2
 73
     0
 90
        0
 40
-0.6
 41
-30.0
 62
     5
 63
     7
421
 16777215
 74
     1
 91
        4
 64
     7
 65
   257
 75
     1
175
     1
 42
1.0
 92
        8
 66
     7
 43
1.0
 76
     1
 77
     6
 78
     2
 67
     7
 79
     5
170
     0
171
     0
290
     0
174
     0
 93
        1
 44
0.0
173
     0
291
     1
 45
0.0
1001
ACAD
1000
AcDbSavedByObjectVersion
1070
     0
  0
VISUALSTYLE
  5
2B
102
{ACAD_REACTORS
330
2A
102
}
330
2A
100
AcDbVisualStyle
  2
Flat
 70
     0
 71
     2
 72
     1
 73
     1
 90
        2
 40
-0.6
 41
30.0
 62
     5
 63
     7
421
 16777215
 74
     0
 91
        4
 64
     7
 65
   257
 75
     1
175
     1
 42
1.0
 92
        8
 66
     7
 43
1.0
 76
     1
 77
     6
 78
     2
 67
     7
 79
     5
170
     0
171
     0
290
     0
174
     0
 93
       13
 44
0.0
173
     0
291
     1
 45
0.0
1001
ACAD
1000
AcDbSavedByObjectVersion
1070
     0
  0
VISUALSTYLE
  5
2C
102
{ACAD_REACTORS
330
2A
102
}
330
2A
100
AcDbVisualStyle
  2
FlatWithEdges
 70
     1
 71
     2
 72
     1
 73
     1
 90
        2
 40
-0.6
 41
30.0
 62
     5
 63
     7
421
 16777215
 74
     1
 91
        4
 64
     7
 65
   257
 75
     1
175
     1
 42
1.0
 92
        0
 66
   257
 43
1.0
 76
     1
 77
     6
 78
     2
 67
     7
 79
     5
170
     0
171
     0
290
     0
174
     0
 93
       13
 44
0.0
173
     0
291
     1
 45
0.0
1001
ACAD
1000
AcDbSavedByObjectVersion
1070
     0
  0
VISUALSTYLE
  5
2D
102
{ACAD_REACTORS
330
2A
102
}
330
2A
100
AcDbVisualStyle
  2
Gouraud
 70
     2
 71
     2
 72
     2
 73
     1
 90
        2
 40
-0.6
 41
30.0
 62
     5
 63
     7
421
 16777215
 74
     0
 91
        4
 64
     7
 65
   257
 75
     1
175
     1
 42
1.0
 92
        0
 66
     7
 43
1.0
 76
     1
 77
     6
 78
     2
 67
     7
 79
     5
170
     0
171
     0
290
     0
174
     0
 93
       13
 44
0.0
173
     0
291
     1
 45
0.0
1001
ACAD
1000
AcDbSavedByObjectVersion
1070
     0
  0
VISUALSTYLE
  5
2E
102
{ACAD_REACTORS
330
2A
102
}
330
2A
100
AcDbVisualStyle
  2
GouraudWithEdges
 70
     3
 71
     2
 72
     2
 73
     1
 90
        2
 40
-0.6
 41
30.0
 62
     5
 63
     7
421
 16777215
 74
     1
 91
        4
 64
     7
 65
   257
 75
     1
175
     1
 42
1.0
 92
        0
 66
   257
 43
1.0
 76
     1
 77
     6
 78
     2
 67
     7
 79
     5
170
     0
171
     0
290
     0
174
     0
 93
       13
 44
0.0
173
     0
291
     1
 45
0.0
1001
ACAD
1000
AcDbSavedByObjectVersion
1070
     0
  0
VISUALSTYLE
  5
38
102
{ACAD_REACTORS
330
2A
102
}
330
2A
100
AcDbVisualStyle
  2
Linepattern
 70
    14
 71
     2
 72
     2
 73
     0
 90
        0
 40
-0.6
 41
-30.0
 62
     5
 63
     7
421
 16777215
 74
     1
 91
        4
 64
     7
 65
   257
 75
     7
175
     7
 42
1.0
 92
        8
 66
     7
 43
1.0
 76
     1
 77
     6
 78
     2
 67
     7
 79
     5
170
     0
171
     0
290
     0
174
     0
 93
        1
 44
0.0
173
     0
291
     1
 45
0.0
1001
ACAD
1000
AcDbSavedByObjectVersion
1070
     0
  0
VISUALSTYLE
  5
33
102
{ACAD_REACTORS
330
2A
102
}
330
2A
100
AcDbVisualStyle
  2
Realistic
 70
     8
 71
     2
 72
     2
 73
     0
 90
        0
 40
-0.6
 41
-30.0
 62
     5
 63
     7
421
 16777215
 74
     1
 91
        0
 64
     7
 65
   257
 75
     1
175
     1
 42
1.0
 92
        8
 66
     8
424
  7895160
 43
1.0
 76
     1
 77
     6
 78
     2
 67
     7
 79
     5
170
     0
171
     0
290
     0
174
     0
 93
       13
 44
0.0
173
     0
291
     0
 45
0.0
1001
ACAD
1000
AcDbSavedByObjectVersion
1070
     0
  0
VISUALSTYLE
  5
37
102
{ACAD_REACTORS
330
2A
102
}
330
2A
100
AcDbVisualStyle
  2
Thicken
 70
    13
 71
     2
 72
     2
 73
     0
 90
        0
 40
-0.6
 41
-30.0
 62
     5
 63
     7
421
 16777215
 74
     1
 91
        4
 64
     7
 65
   257
 75
     1
175
     1
 42
1.0
 92
       12
 66
     7
 43
1.0
 76
     1
 77
     6
 78
     2
 67
     7
 79
     5
170
     0
171
     0
290
     0
174
     0
 93
        1
 44
0.0
173
     0
291
     1
 45
0.0
1001
ACAD
1000
AcDbSavedByObjectVersion
1070
     0
  0
ENDSEC
  0
EOF
