  0
SECTION
  2
HEADER
  9
$ACADVER
  1
AC1018
  9
$ACADMAINTVER
 70
     0
  9
$DWGCODEPAGE
  3
ANSI_932
  9
$INSBASE
 10
0.0
 20
0.0
 30
0.0
  9
$EXTMIN
 10
-1050.0
 20
-742.5
 30
0.0
  9
$EXTMAX
 10
1050.0
 20
742.5
 30
0.0
  9
$LIMMIN
 10
-1050.0
 20
-742.5
  9
$LIMMAX
 10
1050.0
 20
742.5
  9
$ORTHOMODE
 70
     0
  9
$REGENMODE
 70
     1
  9
$FILLMODE
 70
     1
  9
$QTEXTMODE
 70
     0
  9
$MIRRTEXT
 70
     1
  9
$LTSCALE
 40
5.0
  9
$ATTMODE
 70
     1
  9
$TEXTSIZE
 40
2.5
  9
$TRACEWID
 40
1.0
  9
$TEXTSTYLE
  7
Standard
  9
$CLAYER
  8
0
  9
$CELTYPE
  6
ByLayer
  9
$CECOLOR
 62
   256
  9
$CELTSCALE
 40
1.0
  9
$DISPSILH
 70
     0
  9
$DIMSCALE
 40
1.0
  9
$DIMASZ
 40
2.5
  9
$DIMEXO
 40
0.625
  9
$DIMDLI
 40
3.75
  9
$DIMRND
 40
0.0
  9
$DIMDLE
 40
0.0
  9
$DIMEXE
 40
1.25
  9
$DIMTP
 40
0.0
  9
$DIMTM
 40
0.0
  9
$DIMTXT
 40
2.5
  9
$DIMCEN
 40
2.5
  9
$DIMTSZ
 40
0.0
  9
$DIMTOL
 70
     0
  9
$DIMLIM
 70
     0
  9
$DIMTIH
 70
     0
  9
$DIMTOH
 70
     0
  9
$DIMSE1
 70
     0
  9
$DIMSE2
 70
     0
  9
$DIMTAD
 70
     1
  9
$DIMZIN
 70
     8
  9
$DIMBLK
  1

  9
$DIMASO
 70
     1
  9
$DIMSHO
 70
     1
  9
$DIMPOST
  1

  9
$DIMAPOST
  1

  9
$DIMALT
 70
     0
  9
$DIMALTD
 70
     3
  9
$DIMALTF
 40
0.03937007874016
  9
$DIMLFAC
 40
1.0
  9
$DIMTOFL
 70
     1
  9
$DIMTVP
 40
0.0
  9
$DIMTIX
 70
     0
  9
$DIMSOXD
 70
     0
  9
$DIMSAH
 70
     0
  9
$DIMBLK1
  1

  9
$DIMBLK2
  1

  9
$DIMSTYLE
  2
ISO-25
  9
$DIMCLRD
 70
     0
  9
$DIMCLRE
 70
     0
  9
$DIMCLRT
 70
     0
  9
$DIMTFAC
 40
1.0
  9
$DIMGAP
 40
0.625
  9
$DIMJUST
 70
     0
  9
$DIMSD1
 70
     0
  9
$DIMSD2
 70
     0
  9
$DIMTOLJ
 70
     0
  9
$DIMTZIN
 70
     8
  9
$DIMALTZ
 70
     0
  9
$DIMALTTZ
 70
     0
  9
$DIMUPT
 70
     0
  9
$DIMDEC
 70
     2
  9
$DIMTDEC
 70
     2
  9
$DIMALTU
 70
     2
  9
$DIMALTTD
 70
     3
  9
$DIMTXSTY
  7
Standard
  9
$DIMAUNIT
 70
     0
  9
$DIMADEC
 70
     0
  9
$DIMALTRND
 40
0.0
  9
$DIMAZIN
 70
     0
  9
$DIMDSEP
 70
    44
  9
$DIMATFIT
 70
     3
  9
$DIMFRAC
 70
     0
  9
$DIMLDRBLK
  1

  9
$DIMLUNIT
 70
     2
  9
$DIMLWD
 70
    -2
  9
$DIMLWE
 70
    -2
  9
$DIMTMOVE
 70
     0
  9
$LUNITS
 70
     2
  9
$LUPREC
 70
     4
  9
$SKETCHINC
 40
1.0
  9
$FILLETRAD
 40
10.0
  9
$AUNITS
 70
     0
  9
$AUPREC
 70
     0
  9
$MENU
  1
.
  9
$ELEVATION
 40
0.0
  9
$PELEVATION
 40
0.0
  9
$THICKNESS
 40
0.0
  9
$LIMCHECK
 70
     0
  9
$CHAMFERA
 40
10.0
  9
$CHAMFERB
 40
10.0
  9
$CHAMFERC
 40
20.0
  9
$CHAMFERD
 40
0.0
  9
$SKPOLY
 70
     0
  9
$TDCREATE
 40
2456498.829484271
  9
$TDUCREATE
 40
2456498.454484271
  9
$TDUPDATE
 40
2456498.829484283
  9
$TDUUPDATE
 40
2456498.454484283
  9
$TDINDWG
 40
0.0000000116
  9
$TDUSRTIMER
 40
0.0000000116
  9
$USRTIMER
 70
     1
  9
$ANGBASE
 50
0.0
  9
$ANGDIR
 70
     0
  9
$PDMODE
 70
     0
  9
$PDSIZE
 40
0.0
  9
$PLINEWID
 40
0.0
  9
$SPLFRAME
 70
     0
  9
$SPLINETYPE
 70
     6
  9
$SPLINESEGS
 70
     8
  9
$HANDSEED
  5
4E7
  9
$SURFTAB1
 70
     6
  9
$SURFTAB2
 70
     6
  9
$SURFTYPE
 70
     6
  9
$SURFU
 70
     6
  9
$SURFV
 70
     6
  9
$UCSBASE
  2

  9
$UCSNAME
  2

  9
$UCSORG
 10
0.0
 20
0.0
 30
0.0
  9
$UCSXDIR
 10
1.0
 20
0.0
 30
0.0
  9
$UCSYDIR
 10
0.0
 20
1.0
 30
0.0
  9
$UCSORTHOREF
  2

  9
$UCSORTHOVIEW
 70
     0
  9
$UCSORGTOP
 10
0.0
 20
0.0
 30
0.0
  9
$UCSORGBOTTOM
 10
0.0
 20
0.0
 30
0.0
  9
$UCSORGLEFT
 10
0.0
 20
0.0
 30
0.0
  9
$UCSORGRIGHT
 10
0.0
 20
0.0
 30
0.0
  9
$UCSORGFRONT
 10
0.0
 20
0.0
 30
0.0
  9
$UCSORGBACK
 10
0.0
 20
0.0
 30
0.0
  9
$PUCSBASE
  2

  9
$PUCSNAME
  2

  9
$PUCSORG
 10
0.0
 20
0.0
 30
0.0
  9
$PUCSXDIR
 10
1.0
 20
0.0
 30
0.0
  9
$PUCSYDIR
 10
0.0
 20
1.0
 30
0.0
  9
$PUCSORTHOREF
  2

  9
$PUCSORTHOVIEW
 70
     0
  9
$PUCSORGTOP
 10
0.0
 20
0.0
 30
0.0
  9
$PUCSORGBOTTOM
 10
0.0
 20
0.0
 30
0.0
  9
$PUCSORGLEFT
 10
0.0
 20
0.0
 30
0.0
  9
$PUCSORGRIGHT
 10
0.0
 20
0.0
 30
0.0
  9
$PUCSORGFRONT
 10
0.0
 20
0.0
 30
0.0
  9
$PUCSORGBACK
 10
0.0
 20
0.0
 30
0.0
  9
$USERI1
 70
     0
  9
$USERI2
 70
     0
  9
$USERI3
 70
     0
  9
$USERI4
 70
     0
  9
$USERI5
 70
     0
  9
$USERR1
 40
0.0
  9
$USERR2
 40
0.0
  9
$USERR3
 40
0.0
  9
$USERR4
 40
0.0
  9
$USERR5
 40
0.0
  9
$WORLDVIEW
 70
     1
  9
$SHADEDGE
 70
     3
  9
$SHADEDIF
 70
    70
  9
$TILEMODE
 70
     1
  9
$MAXACTVP
 70
    64
  9
$PINSBASE
 10
0.0
 20
0.0
 30
0.0
  9
$PLIMCHECK
 70
     0
  9
$PEXTMIN
 10
1.000000000000000E+20
 20
1.000000000000000E+20
 30
1.000000000000000E+20
  9
$PEXTMAX
 10
-1.000000000000000E+20
 20
-1.000000000000000E+20
 30
-1.000000000000000E+20
  9
$PLIMMIN
 10
0.0
 20
0.0
  9
$PLIMMAX
 10
420.0
 20
297.0
  9
$UNITMODE
 70
     0
  9
$VISRETAIN
 70
     1
  9
$PLINEGEN
 70
     0
  9
$PSLTSCALE
 70
     1
  9
$TREEDEPTH
 70
  3020
  9
$CMLSTYLE
  2
Standard
  9
$CMLJUST
 70
     0
  9
$CMLSCALE
 40
20.0
  9
$PROXYGRAPHICS
 70
     1
  9
$MEASUREMENT
 70
     1
  9
$CELWEIGHT
370
    -1
  9
$ENDCAPS
280
     0
  9
$JOINSTYLE
280
     0
  9
$LWDISPLAY
290
     0
  9
$INSUNITS
 70
     4
  9
$HYPERLINKBASE
  1

  9
$STYLESHEET
  1

  9
$XEDIT
290
     1
  9
$CEPSNTYPE
380
     0
  9
$PSTYLEMODE
290
     1
  9
$FINGERPRINTGUID
  2
{A2826BB2-E53B-4C85-9D33-702E65A1712C}
  9
$VERSIONGUID
  2
{FAEB1C32-E019-11D5-929B-00C0DF256EC4}
  9
$EXTNAMES
290
     1
  9
$PSVPSCALE
 40
0.0
  9
$OLESTARTUP
290
     0
  9
$SORTENTS
280
   127
  9
$INDEXCTL
280
     0
  9
$HIDETEXT
280
     1
  9
$XCLIPFRAME
290
     0
  9
$HALOGAP
280
     0
  9
$OBSCOLOR
 70
   257
  9
$OBSLTYPE
280
     0
  9
$INTERSECTIONDISPLAY
280
     0
  9
$INTERSECTIONCOLOR
 70
   257
  9
$DIMASSOC
280
     2
  9
$PROJECTNAME
  1

  0
ENDSEC
  0
SECTION
  2
CLASSES
  0
CLASS
  1
ACDBDICTIONARYWDFLT
  2
AcDbDictionaryWithDefault
  3
ObjectDBX Classes
 90
        0
 91
        4
280
     0
281
     0
  0
CLASS
  1
VISUALSTYLE
  2
AcDbVisualStyle
  3
ObjectDBX Classes
 90
     4095
 91
        4
280
     0
281
     0
  0
ENDSEC
  0
SECTION
  2
TABLES
  0
TABLE
  2
VPORT
  5
8
330
0
100
AcDbSymbolTable
 70
     1
  0
VPORT
  5
29
330
8
100
AcDbSymbolTableRecord
100
AcDbViewportTableRecord
  2
*Active
 70
     0
 10
0.0
 20
0.0
 11
1.0
 21
1.0
 12
0.0
 22
0.0
 13
0.0
 23
0.0
 14
10.0
 24
10.0
 15
10.0
 25
10.0
 16
0.0
 26
0.0
 36
1.0
 17
0.0
 27
0.0
 37
0.0
 40
1633.5
 41
1.414141414141414
 42
50.0
 43
0.0
 44
0.0
 50
0.0
 51
0.0
 71
     0
 72
 10000
 73
     1
 74
     3
 75
     0
 76
     0
 77
     0
 78
     0
281
     0
 65
     1
110
0.0
120
0.0
130
0.0
111
1.0
121
0.0
131
0.0
112
0.0
122
1.0
132
0.0
 79
     0
146
0.0
  0
ENDTAB
  0
TABLE
  2
LTYPE
  5
5
330
0
100
AcDbSymbolTable
 70
     4
  0
LTYPE
  5
14
330
5
100
AcDbSymbolTableRecord
100
AcDbLinetypeTableRecord
  2
ByBlock
 70
     0
  3

 72
    65
 73
     0
 40
0.0
  0
LTYPE
  5
15
330
5
100
AcDbSymbolTableRecord
100
AcDbLinetypeTableRecord
  2
ByLayer
 70
     0
  3

 72
    65
 73
     0
 40
0.0
  0
LTYPE
  5
16
330
5
100
AcDbSymbolTableRecord
100
AcDbLinetypeTableRecord
  2
Continuous
 70
     0
  3
Solid line
 72
    65
 73
     0
 40
0.0
  0
LTYPE
  5
3C
330
5
100
AcDbSymbolTableRecord
100
AcDbLinetypeTableRecord
  2
JWW_CENTER2
 70
     0
  3
-------------  --  -------------
 72
    65
 73
     4
 40
13.54666666666667
 49
11.00666666666667
 74
     0
 49
-0.8466666666666667
 74
     0
 49
0.8466666666666667
 74
     0
 49
-0.8466666666666667
 74
     0
  0
LTYPE
  5
3D
330
5
100
AcDbSymbolTableRecord
100
AcDbLinetypeTableRecord
  2
JWW_CENTER1
 70
     0
  3
-----  --  ----------  --  -----
 72
    65
 73
     4
 40
6.773333333333333
 49
4.233333333333333
 74
     0
 49
-0.8466666666666667
 74
     0
 49
0.8466666666666667
 74
     0
 49
-0.8466666666666667
 74
     0
  0
LTYPE
  5
3E
330
5
100
AcDbSymbolTableRecord
100
AcDbLinetypeTableRecord
  2
JWW_DASHED1
 70
     0
  3
-  --  --  --  --  --  --  --  -
 72
    65
 73
     2
 40
1.693333333333333
 49
0.8466666666666667
 74
     0
 49
-0.8466666666666667
 74
     0
  0
ENDTAB
  0
TABLE
  2
LAYER
  5
2
330
0
100
AcDbSymbolTable
 70
     9
  0
LAYER
  5
10
330
2
100
AcDbSymbolTableRecord
100
AcDbLayerTableRecord
  2
0
 70
     0
 62
     7
  6
Continuous
370
    -3
390
F
  0
LAYER
  5
3F
330
2
100
AcDbSymbolTableRecord
100
AcDbLayerTableRecord
  2
B-0_通り芯
 70
     0
 62
     7
  6
Continuous
370
    -3
390
F
  0
LAYER
  5
40
330
2
100
AcDbSymbolTableRecord
100
AcDbLayerTableRecord
  2
B-1_ピット
 70
     0
 62
     7
  6
Continuous
370
    -3
390
F
  0
LAYER
  5
41
330
2
100
AcDbSymbolTableRecord
100
AcDbLayerTableRecord
  2
B-A
 70
     0
 62
     7
  6
Continuous
370
    -3
390
F
  0
LAYER
  5
42
330
2
100
AcDbSymbolTableRecord
100
AcDbLayerTableRecord
  2
B-3_受枠
 70
     0
 62
     7
  6
Continuous
370
    -3
390
F
  0
LAYER
  5
43
330
2
100
AcDbSymbolTableRecord
100
AcDbLayerTableRecord
  2
B-F
 70
     0
 62
     7
  6
Continuous
370
    -3
390
F
  0
LAYER
  5
44
330
2
100
AcDbSymbolTableRecord
100
AcDbLayerTableRecord
  2
B-4_寸法
 70
     0
 62
     7
  6
Continuous
370
    -3
390
F
  0
LAYER
  5
45
330
2
100
AcDbSymbolTableRecord
100
AcDbLayerTableRecord
  2
B-5_仕様文
 70
     0
 62
     7
  6
Continuous
370
    -3
390
F
  0
LAYER
  5
46
330
2
100
AcDbSymbolTableRecord
100
AcDbLayerTableRecord
  2
F-5
 70
     0
 62
     7
  6
Continuous
370
    -3
390
F
  0
ENDTAB
  0
TABLE
  2
STYLE
  5
3
330
0
100
AcDbSymbolTable
 70
     2
  0
STYLE
  5
11
330
3
100
AcDbSymbolTableRecord
100
AcDbTextStyleTableRecord
  2
Standard
 70
     0
 40
0.0
 41
1.0
 50
0.0
 71
     0
 42
2.5
  3
txt
  4

1001
ACAD
1000

1071
        0
  0
STYLE
  5
3B
330
3
100
AcDbSymbolTableRecord
100
AcDbTextStyleTableRecord
  2
ＭＳ ゴシック
 70
     0
 40
1.0
 41
1.0
 50
0.0
 71
     0
 42
10.0
  3

  4

1001
ACAD
1000
MS Gothic
1071
    32817
  0
ENDTAB
  0
TABLE
  2
VIEW
  5
6
330
0
100
AcDbSymbolTable
 70
     0
  0
ENDTAB
  0
TABLE
  2
UCS
  5
7
330
0
100
AcDbSymbolTable
 70
     0
  0
ENDTAB
  0
TABLE
  2
APPID
  5
9
330
0
100
AcDbSymbolTable
 70
     1
  0
APPID
  5
12
330
9
100
AcDbSymbolTableRecord
100
AcDbRegAppTableRecord
  2
ACAD
 70
     0
  0
ENDTAB
  0
TABLE
  2
DIMSTYLE
  5
A
330
0
100
AcDbSymbolTable
 70
     1
100
AcDbDimStyleTable
  0
DIMSTYLE
105
27
330
A
100
AcDbSymbolTableRecord
100
AcDbDimStyleTableRecord
  2
ISO-25
 70
     0
 41
2.5
 42
0.625
 43
3.75
 44
1.25
 73
     0
 74
     0
 77
     1
 78
     8
140
2.5
141
2.5
143
0.03937007874016
147
0.625
171
     3
172
     1
271
     2
272
     2
274
     3
278
    44
283
     0
284
     8
340
11
  0
ENDTAB
  0
TABLE
  2
BLOCK_RECORD
  5
1
330
0
100
AcDbSymbolTable
 70
     1
  0
BLOCK_RECORD
  5
1F
330
1
100
AcDbSymbolTableRecord
100
AcDbBlockTableRecord
  2
*Model_Space
340
22
  0
BLOCK_RECORD
  5
1B
330
1
100
AcDbSymbolTableRecord
100
AcDbBlockTableRecord
  2
*Paper_Space
340
1E
  0
BLOCK_RECORD
  5
23
330
1
100
AcDbSymbolTableRecord
100
AcDbBlockTableRecord
  2
*Paper_Space0
340
26
  0
ENDTAB
  0
ENDSEC
  0
SECTION
  2
BLOCKS
  0
BLOCK
  5
20
330
1F
100
AcDbEntity
  8
0
100
AcDbBlockBegin
  2
*Model_Space
 70
     0
 10
0.0
 20
0.0
 30
0.0
  3
*Model_Space
  1

  0
ENDBLK
  5
21
330
1F
100
AcDbEntity
  8
0
100
AcDbBlockEnd
  0
BLOCK
  5
1C
330
1B
100
AcDbEntity
 67
     1
  8
0
100
AcDbBlockBegin
  2
*Paper_Space
 70
     0
 10
0.0
 20
0.0
 30
0.0
  3
*Paper_Space
  1

  0
ENDBLK
  5
1D
330
1B
100
AcDbEntity
 67
     1
  8
0
100
AcDbBlockEnd
  0
BLOCK
  5
24
330
23
100
AcDbEntity
  8
0
100
AcDbBlockBegin
  2
*Paper_Space0
 70
     0
 10
0.0
 20
0.0
 30
0.0
  3
*Paper_Space0
  1

  0
ENDBLK
  5
25
330
23
100
AcDbEntity
  8
0
100
AcDbBlockEnd
  0
ENDSEC
  0
SECTION
  2
ENTITIES
  0
LINE
  5
47
330
1F
100
AcDbEntity
  8
B-0_通り芯
  6
Continuous
 62
     3
370
     9
100
AcDbLine
 10
409.9728970914273
 20
94.39189601588893
 30
0.0
 11
409.9728970914273
 21
117.4709090896568
 31
0.0
  0
LINE
  5
48
330
1F
100
AcDbEntity
  8
B-1_ピット
  6
Continuous
 62
     2
370
     9
100
AcDbLine
 10
-183.5553143475506
 20
232.8919446790542
 30
0.0
 11
-650.5551724820523
 21
232.8919446790542
 31
0.0
  0
LINE
  5
49
330
1F
100
AcDbEntity
  8
B-1_ピット
  6
Continuous
 62
     2
370
     9
100
AcDbLine
 10
-650.5551724820523
 20
232.8919446790542
 30
0.0
 11
-650.5551724820523
 21
-234.1080371753589
 31
0.0
  0
LINE
  5
4A
330
1F
100
AcDbEntity
  8
B-1_ピット
  6
Continuous
 62
     2
370
     9
100
AcDbLine
 10
-650.5551724820523
 20
-234.1080371753589
 30
0.0
 11
-183.5553143475506
 21
-234.1080371753589
 31
0.0
  0
LINE
  5
4B
330
1F
100
AcDbEntity
  8
B-1_ピット
  6
Continuous
 62
     2
370
     9
100
AcDbLine
 10
-183.5553143475506
 20
-234.1080371753589
 30
0.0
 11
-183.5553143475506
 21
232.8919446790542
 31
0.0
  0
LINE
  5
4C
330
1F
100
AcDbEntity
  8
B-1_ピット
  6
Continuous
 62
     2
370
     9
100
AcDbLine
 10
-643.5553473395271
 20
-227.1080264529666
 30
0.0
 11
-190.555325069943
 21
-227.1080264529666
 31
0.0
  0
LINE
  5
4D
330
1F
100
AcDbEntity
  8
B-1_ピット
  6
Continuous
 62
     2
370
     9
100
AcDbLine
 10
-190.555325069943
 20
-227.1080264529666
 30
0.0
 11
-190.555325069943
 21
225.8921195365288
 31
0.0
  0
LINE
  5
4E
330
1F
100
AcDbEntity
  8
B-1_ピット
  6
Continuous
 62
     2
370
     9
100
AcDbLine
 10
-190.555325069943
 20
225.8921195365288
 30
0.0
 11
-643.5553473395271
 21
225.8921195365288
 31
0.0
  0
LINE
  5
4F
330
1F
100
AcDbEntity
  8
B-1_ピット
  6
Continuous
 62
     2
370
     9
100
AcDbLine
 10
-643.5553473395271
 20
225.8921195365288
 30
0.0
 11
-643.5553473395271
 21
-227.1080264529666
 31
0.0
  0
LINE
  5
50
330
1F
100
AcDbEntity
  8
B-1_ピット
  6
Continuous
 62
     2
370
     9
100
AcDbLine
 10
-183.5553143475506
 20
-234.1080371753589
 30
0.0
 11
-190.555325069943
 21
-227.1080264529666
 31
0.0
  0
LINE
  5
51
330
1F
100
AcDbEntity
  8
B-1_ピット
  6
Continuous
 62
     2
370
     9
100
AcDbLine
 10
-650.5551724820523
 20
-234.1080371753589
 30
0.0
 11
-643.5553473395271
 21
-227.1080264529666
 31
0.0
  0
LINE
  5
52
330
1F
100
AcDbEntity
  8
B-1_ピット
  6
Continuous
 62
     2
370
     9
100
AcDbLine
 10
-650.5551724820523
 20
232.8919446790542
 30
0.0
 11
-643.5553473395271
 21
225.8921195365288
 31
0.0
  0
LINE
  5
53
330
1F
100
AcDbEntity
  8
B-1_ピット
  6
Continuous
 62
     2
370
     9
100
AcDbLine
 10
-190.555325069943
 20
225.8921195365288
 30
0.0
 11
-183.5553143475506
 21
232.8919446790542
 31
0.0
  0
LINE
  5
54
330
1F
100
AcDbEntity
  8
B-1_ピット
  6
Continuous
 62
     2
370
     9
100
AcDbLine
 10
-669.0552582611908
 20
-169.6024549329603
 30
0.0
 11
-669.0552582611908
 21
-225.6080462481524
 31
0.0
  0
LINE
  5
55
330
1F
100
AcDbEntity
  8
B-1_ピット
  6
Continuous
 62
     2
370
     9
100
AcDbLine
 10
-655.5551889780405
 20
-167.6025225665118
 30
0.0
 11
-667.0552021748312
 21
-167.6025225665118
 31
0.0
  0
LINE
  5
56
330
1F
100
AcDbEntity
  8
B-1_ピット
  6
Continuous
 62
     2
370
     9
100
AcDbLine
 10
-667.0552021748312
 20
-133.6025588576858
 30
0.0
 11
-655.5551889780405
 21
-133.6025588576858
 31
0.0
  0
LINE
  5
57
330
1F
100
AcDbEntity
  8
B-1_ピット
  6
Continuous
 62
     2
370
     9
100
AcDbLine
 10
-671.055438067462
 20
-169.6024549329603
 30
0.0
 11
-671.055438067462
 21
-225.6080462481524
 31
0.0
  0
LINE
  5
58
330
1F
100
AcDbEntity
  8
B-1_ピット
  6
Continuous
 62
     2
370
     9
100
AcDbLine
 10
-652.0914026208825
 20
-167.6025225665118
 30
0.0
 11
-652.0914026208825
 21
-133.6025588576858
 31
0.0
  0
LINE
  5
59
330
1F
100
AcDbEntity
  8
B-1_ピット
  6
Continuous
 62
     2
370
     9
100
AcDbLine
 10
-667.0552021748312
 20
-165.6024664801521
 30
0.0
 11
-655.5551889780405
 21
-165.6024664801521
 31
0.0
  0
LINE
  5
5A
330
1F
100
AcDbEntity
  8
B-1_ピット
  6
Continuous
 62
     2
370
     9
100
AcDbLine
 10
-667.0552021748312
 20
-135.6024293641786
 30
0.0
 11
-655.5551889780405
 21
-135.6024293641786
 31
0.0
  0
LINE
  5
5B
330
1F
100
AcDbEntity
  8
B-1_ピット
  6
Continuous
 62
     2
370
     9
100
AcDbLine
 10
-584.0499053130279
 20
-239.1079918113915
 30
0.0
 11
-584.0499053130279
 21
-250.608005008182
 31
0.0
  0
LINE
  5
5C
330
1F
100
AcDbEntity
  8
B-1_ピット
  6
Continuous
 62
     2
370
     9
100
AcDbLine
 10
-550.0499416042019
 20
-250.608005008182
 30
0.0
 11
-550.0499416042019
 21
-239.1079918113915
 31
0.0
  0
LINE
  5
5D
330
1F
100
AcDbEntity
  8
B-1_ピット
  6
Continuous
 62
     2
370
     9
100
AcDbLine
 10
-584.0499053130279
 20
-235.6440198743665
 30
0.0
 11
-550.0499416042019
 21
-235.6440198743665
 31
0.0
  0
LINE
  5
5E
330
1F
100
AcDbEntity
  8
B-1_ピット
  6
Continuous
 62
     2
370
     9
100
AcDbLine
 10
-582.0499729465794
 20
-250.608005008182
 30
0.0
 11
-582.0499729465794
 21
-239.1079918113915
 31
0.0
  0
LINE
  5
5F
330
1F
100
AcDbEntity
  8
B-1_ピット
  6
Continuous
 62
     2
370
     9
100
AcDbLine
 10
-586.050085119299
 20
-254.6079934609902
 30
0.0
 11
-642.0553671347127
 21
-254.6079934609902
 31
0.0
  0
LINE
  5
60
330
1F
100
AcDbEntity
  8
B-1_ピット
  6
Continuous
 62
     2
370
     9
100
AcDbLine
 10
-586.050085119299
 20
-252.6080610945418
 30
0.0
 11
-642.0553671347127
 21
-252.6080610945418
 31
0.0
  0
LINE
  5
61
330
1F
100
AcDbEntity
  8
B-1_ピット
  6
Continuous
 62
     2
370
     9
100
AcDbLine
 10
-178.5554215714738
 20
-167.6025225665118
 30
0.0
 11
-167.0554083746832
 21
-167.6025225665118
 31
0.0
  0
LINE
  5
62
330
1F
100
AcDbEntity
  8
B-1_ピット
  6
Continuous
 62
     2
370
     9
100
AcDbLine
 10
-167.0554083746832
 20
-133.6025588576858
 30
0.0
 11
-178.5554215714738
 21
-133.6025588576858
 31
0.0
  0
LINE
  5
63
330
1F
100
AcDbEntity
  8
B-1_ピット
  6
Continuous
 62
     2
370
     9
100
AcDbLine
 10
-182.0194553684543
 20
-167.6025225665118
 30
0.0
 11
-182.0194553684543
 21
-133.6025588576858
 31
0.0
  0
LINE
  5
64
330
1F
100
AcDbEntity
  8
B-1_ピット
  6
Continuous
 62
     2
370
     9
100
AcDbLine
 10
-167.0554083746832
 20
-165.6024664801521
 30
0.0
 11
-178.5554215714738
 21
-165.6024664801521
 31
0.0
  0
LINE
  5
65
330
1F
100
AcDbEntity
  8
B-1_ピット
  6
Continuous
 62
     2
370
     9
100
AcDbLine
 10
-167.0554083746832
 20
-135.6024293641786
 30
0.0
 11
-178.5554215714738
 21
-135.6024293641786
 31
0.0
  0
LINE
  5
66
330
1F
100
AcDbEntity
  8
B-1_ピット
  6
Continuous
 62
     2
370
     9
100
AcDbLine
 10
-250.0610145362647
 20
-239.1079918113915
 30
0.0
 11
-250.0610145362647
 21
-250.608005008182
 31
0.0
  0
LINE
  5
67
330
1F
100
AcDbEntity
  8
B-1_ピット
  6
Continuous
 62
     2
370
     9
100
AcDbLine
 10
-284.0609163851352
 20
-250.608005008182
 30
0.0
 11
-284.0609163851352
 21
-239.1079918113915
 31
0.0
  0
LINE
  5
68
330
1F
100
AcDbEntity
  8
B-1_ピット
  6
Continuous
 62
     2
370
     9
100
AcDbLine
 10
-250.0610145362647
 20
-235.6440198743665
 30
0.0
 11
-284.0609163851352
 21
-235.6440198743665
 31
0.0
  0
LINE
  5
69
330
1F
100
AcDbEntity
  8
B-1_ピット
  6
Continuous
 62
     2
370
     9
100
AcDbLine
 10
-252.0610087626689
 20
-250.608005008182
 30
0.0
 11
-252.0610087626689
 21
-239.1079918113915
 31
0.0
  0
LINE
  5
6A
330
1F
100
AcDbEntity
  8
B-1_ピット
  6
Continuous
 62
     2
370
     9
100
AcDbLine
 10
-282.0610458786423
 20
-250.608005008182
 30
0.0
 11
-282.0610458786423
 21
-239.1079918113915
 31
0.0
  0
LINE
  5
6B
330
1F
100
AcDbEntity
  8
B-1_ピット
  6
Continuous
 62
     2
370
     9
100
AcDbLine
 10
-655.5551889780405
 20
166.38624449034
 30
0.0
 11
-667.0552021748312
 21
166.38624449034
 31
0.0
  0
LINE
  5
6C
330
1F
100
AcDbEntity
  8
B-1_ピット
  6
Continuous
 62
     2
370
     9
100
AcDbLine
 10
-667.0552021748312
 20
132.3862807815139
 30
0.0
 11
-655.5551889780405
 21
132.3862807815139
 31
0.0
  0
LINE
  5
6D
330
1F
100
AcDbEntity
  8
B-1_ピット
  6
Continuous
 62
     2
370
     9
100
AcDbLine
 10
-652.0914026208825
 20
166.38624449034
 30
0.0
 11
-652.0914026208825
 21
132.3862807815139
 31
0.0
  0
LINE
  5
6E
330
1F
100
AcDbEntity
  8
B-1_ピット
  6
Continuous
 62
     2
370
     9
100
AcDbLine
 10
-667.0552021748312
 20
164.3863121238915
 30
0.0
 11
-655.5551889780405
 21
164.3863121238915
 31
0.0
  0
LINE
  5
6F
330
1F
100
AcDbEntity
  8
B-1_ピット
  6
Continuous
 62
     2
370
     9
100
AcDbLine
 10
-667.0552021748312
 20
134.3863368678738
 30
0.0
 11
-655.5551889780405
 21
134.3863368678738
 31
0.0
  0
LINE
  5
70
330
1F
100
AcDbEntity
  8
B-1_ピット
  6
Continuous
 62
     2
370
     9
100
AcDbLine
 10
-584.0499053130279
 20
237.8917137352197
 30
0.0
 11
-584.0499053130279
 21
249.3919743718328
 31
0.0
  0
LINE
  5
71
330
1F
100
AcDbEntity
  8
B-1_ピット
  6
Continuous
 62
     2
370
     9
100
AcDbLine
 10
-550.0499416042019
 20
249.3919743718328
 30
0.0
 11
-550.0499416042019
 21
237.8917137352197
 31
0.0
  0
LINE
  5
72
330
1F
100
AcDbEntity
  8
B-1_ピット
  6
Continuous
 62
     2
370
     9
100
AcDbLine
 10
-584.0499053130279
 20
234.4278036581504
 30
0.0
 11
-550.0499416042019
 21
234.4278036581504
 31
0.0
  0
LINE
  5
73
330
1F
100
AcDbEntity
  8
B-1_ピット
  6
Continuous
 62
     2
370
     9
100
AcDbLine
 10
-582.0499729465794
 20
249.3919743718328
 30
0.0
 11
-582.0499729465794
 21
237.8917137352197
 31
0.0
  0
LINE
  5
74
330
1F
100
AcDbEntity
  8
B-1_ピット
  6
Continuous
 62
     2
370
     9
100
AcDbLine
 10
-552.0498739706503
 20
249.3919743718328
 30
0.0
 11
-552.0498739706503
 21
237.8917137352197
 31
0.0
  0
LINE
  5
75
330
1F
100
AcDbEntity
  8
B-1_ピット
  6
Continuous
 62
     2
370
     9
100
AcDbLine
 10
-178.5554215714738
 20
166.38624449034
 30
0.0
 11
-167.0554083746832
 21
166.38624449034
 31
0.0
  0
LINE
  5
76
330
1F
100
AcDbEntity
  8
B-1_ピット
  6
Continuous
 62
     2
370
     9
100
AcDbLine
 10
-167.0554083746832
 20
132.3862807815139
 30
0.0
 11
-178.5554215714738
 21
132.3862807815139
 31
0.0
  0
LINE
  5
77
330
1F
100
AcDbEntity
  8
B-1_ピット
  6
Continuous
 62
     2
370
     9
100
AcDbLine
 10
-182.0194553684543
 20
166.38624449034
 30
0.0
 11
-182.0194553684543
 21
132.3862807815139
 31
0.0
  0
LINE
  5
78
330
1F
100
AcDbEntity
  8
B-1_ピット
  6
Continuous
 62
     2
370
     9
100
AcDbLine
 10
-167.0554083746832
 20
164.3863121238915
 30
0.0
 11
-178.5554215714738
 21
164.3863121238915
 31
0.0
  0
LINE
  5
79
330
1F
100
AcDbEntity
  8
B-1_ピット
  6
Continuous
 62
     2
370
     9
100
AcDbLine
 10
-167.0554083746832
 20
134.3863368678738
 30
0.0
 11
-178.5554215714738
 21
134.3863368678738
 31
0.0
  0
LINE
  5
7A
330
1F
100
AcDbEntity
  8
B-1_ピット
  6
Continuous
 62
     2
370
     9
100
AcDbLine
 10
-250.0610145362647
 20
237.8917137352197
 30
0.0
 11
-250.0610145362647
 21
249.3919743718328
 31
0.0
  0
LINE
  5
7B
330
1F
100
AcDbEntity
  8
B-1_ピット
  6
Continuous
 62
     2
370
     9
100
AcDbLine
 10
-284.0609163851352
 20
249.3919743718328
 30
0.0
 11
-284.0609163851352
 21
237.8917137352197
 31
0.0
  0
LINE
  5
7C
330
1F
100
AcDbEntity
  8
B-1_ピット
  6
Continuous
 62
     2
370
     9
100
AcDbLine
 10
-250.0610145362647
 20
234.4278036581504
 30
0.0
 11
-284.0609163851352
 21
234.4278036581504
 31
0.0
  0
LINE
  5
7D
330
1F
100
AcDbEntity
  8
B-1_ピット
  6
Continuous
 62
     2
370
     9
100
AcDbLine
 10
-252.0610087626689
 20
249.3919743718328
 30
0.0
 11
-252.0610087626689
 21
237.8917137352197
 31
0.0
  0
LINE
  5
7E
330
1F
100
AcDbEntity
  8
B-1_ピット
  6
Continuous
 62
     2
370
     9
100
AcDbLine
 10
-282.0610458786423
 20
249.3919743718328
 30
0.0
 11
-282.0610458786423
 21
237.8917137352197
 31
0.0
  0
LINE
  5
7F
330
1F
100
AcDbEntity
  8
B-1_ピット
  6
Continuous
 62
     2
370
     9
100
AcDbLine
 10
-192.0554289946685
 20
-254.6079934609902
 30
0.0
 11
-248.0609584499049
 21
-254.6079934609902
 31
0.0
  0
LINE
  5
80
330
1F
100
AcDbEntity
  8
B-1_ピット
  6
Continuous
 62
     2
370
     9
100
AcDbLine
 10
-286.0609724714949
 20
-254.6079934609902
 30
0.0
 11
-548.0500092377533
 21
-254.6079934609902
 31
0.0
  0
LINE
  5
81
330
1F
100
AcDbEntity
  8
B-1_ピット
  6
Continuous
 62
     2
370
     9
100
AcDbLine
 10
-192.0554289946685
 20
-252.6080610945418
 30
0.0
 11
-248.0609584499049
 21
-252.6080610945418
 31
0.0
  0
LINE
  5
82
330
1F
100
AcDbEntity
  8
B-1_ピット
  6
Continuous
 62
     2
370
     9
100
AcDbLine
 10
-286.0609724714949
 20
-252.6080610945418
 30
0.0
 11
-548.0500092377533
 21
-252.6080610945418
 31
0.0
  0
LINE
  5
83
330
1F
100
AcDbEntity
  8
B-1_ピット
  6
Continuous
 62
     2
370
     9
100
AcDbLine
 10
-548.0500092377533
 20
-237.108059444943
 30
0.0
 11
-286.0609724714949
 21
-237.108059444943
 31
0.0
  0
LINE
  5
84
330
1F
100
AcDbEntity
  8
B-1_ピット
  6
Continuous
 62
     2
370
     9
100
AcDbLine
 10
-165.0552285684121
 20
-225.6080462481524
 30
0.0
 11
-165.0552285684121
 21
-169.6024549329603
 31
0.0
  0
LINE
  5
85
330
1F
100
AcDbEntity
  8
B-1_ピット
  6
Continuous
 62
     2
370
     9
100
AcDbLine
 10
-163.0553580619193
 20
-225.6080462481524
 30
0.0
 11
-163.0553580619193
 21
-169.6024549329603
 31
0.0
  0
LINE
  5
86
330
1F
100
AcDbEntity
  8
B-1_ピット
  6
Continuous
 62
     2
370
     9
100
AcDbLine
 10
-165.0552285684121
 20
168.3864242966111
 30
0.0
 11
-165.0552285684121
 21
224.3918918918919
 31
0.0
  0
LINE
  5
87
330
1F
100
AcDbEntity
  8
B-1_ピット
  6
Continuous
 62
     2
370
     9
100
AcDbLine
 10
-163.0553580619193
 20
168.3864242966111
 30
0.0
 11
-163.0553580619193
 21
224.3918918918919
 31
0.0
  0
LINE
  5
88
330
1F
100
AcDbEntity
  8
B-1_ピット
  6
Continuous
 62
     2
370
     9
100
AcDbLine
 10
-192.0554289946685
 20
251.3917830183699
 30
0.0
 11
-248.0609584499049
 21
251.3917830183699
 31
0.0
  0
LINE
  5
89
330
1F
100
AcDbEntity
  8
B-1_ピット
  6
Continuous
 62
     2
370
     9
100
AcDbLine
 10
-192.0554289946685
 20
253.3920865445525
 30
0.0
 11
-248.0609584499049
 21
253.3920865445525
 31
0.0
  0
LINE
  5
8A
330
1F
100
AcDbEntity
  8
B-1_ピット
  6
Continuous
 62
     2
370
     9
100
AcDbLine
 10
-286.0609724714949
 20
235.8919050886824
 30
0.0
 11
-548.0500092377533
 21
235.8919050886824
 31
0.0
  0
LINE
  5
8B
330
1F
100
AcDbEntity
  8
B-1_ピット
  6
Continuous
 62
     2
370
     9
100
AcDbLine
 10
-286.0609724714949
 20
251.3917830183699
 30
0.0
 11
-548.0500092377533
 21
251.3917830183699
 31
0.0
  0
LINE
  5
8C
330
1F
100
AcDbEntity
  8
B-1_ピット
  6
Continuous
 62
     2
370
     9
100
AcDbLine
 10
-586.050085119299
 20
251.3917830183699
 30
0.0
 11
-642.0553671347127
 21
251.3917830183699
 31
0.0
  0
LINE
  5
8D
330
1F
100
AcDbEntity
  8
B-1_ピット
  6
Continuous
 62
     2
370
     9
100
AcDbLine
 10
-286.0609724714949
 20
253.3920865445525
 30
0.0
 11
-548.0500092377533
 21
253.3920865445525
 31
0.0
  0
LINE
  5
8E
330
1F
100
AcDbEntity
  8
B-1_ピット
  6
Continuous
 62
     2
370
     9
100
AcDbLine
 10
-586.050085119299
 20
253.3920865445525
 30
0.0
 11
-642.0553671347127
 21
253.3920865445525
 31
0.0
  0
LINE
  5
8F
330
1F
100
AcDbEntity
  8
B-1_ピット
  6
Continuous
 62
     2
370
     9
100
AcDbLine
 10
-653.5553803315033
 20
-131.6024409113703
 30
0.0
 11
-653.5553803315033
 21
130.3863484150655
 31
0.0
  0
LINE
  5
90
330
1F
100
AcDbEntity
  8
B-1_ピット
  6
Continuous
 62
     2
370
     9
100
AcDbLine
 10
-669.0552582611908
 20
-131.6024409113703
 30
0.0
 11
-669.0552582611908
 21
130.3863484150655
 31
0.0
  0
LINE
  5
91
330
1F
100
AcDbEntity
  8
B-1_ピット
  6
Continuous
 62
     2
370
     9
100
AcDbLine
 10
-669.0552582611908
 20
168.3864242966111
 30
0.0
 11
-669.0552582611908
 21
224.3918918918919
 31
0.0
  0
LINE
  5
92
330
1F
100
AcDbEntity
  8
B-1_ピット
  6
Continuous
 62
     2
370
     9
100
AcDbLine
 10
-671.055438067462
 20
-131.6024409113703
 30
0.0
 11
-671.055438067462
 21
130.3863484150655
 31
0.0
  0
LINE
  5
93
330
1F
100
AcDbEntity
  8
B-1_ピット
  6
Continuous
 62
     2
370
     9
100
AcDbLine
 10
-671.055438067462
 20
168.3864242966111
 30
0.0
 11
-671.055438067462
 21
224.3918918918919
 31
0.0
  0
LINE
  5
94
330
1F
100
AcDbEntity
  8
B-1_ピット
  6
Continuous
 62
     2
370
     9
100
AcDbLine
 10
-579.5555320945946
 20
-264.6080883129223
 30
0.0
 11
-642.0553671347127
 21
-264.6080883129223
 31
0.0
  0
LINE
  5
95
330
1F
100
AcDbEntity
  8
B-1_ピット
  6
Continuous
 62
     2
370
     9
100
AcDbLine
 10
-579.5555320945946
 20
-265.6080544961465
 30
0.0
 11
-642.0553671347127
 21
-265.6080544961465
 31
0.0
  0
LINE
  5
96
330
1F
100
AcDbEntity
  8
B-1_ピット
  6
Continuous
 62
     2
370
     9
100
AcDbLine
 10
-682.0554991026182
 20
-163.1080874881229
 30
0.0
 11
-682.0554991026182
 21
-225.6080462481524
 31
0.0
  0
LINE
  5
97
330
1F
100
AcDbEntity
  8
B-1_ピット
  6
Continuous
 62
     2
370
     9
100
AcDbLine
 10
-681.0553473395271
 20
-163.1080874881229
 30
0.0
 11
-681.0553473395271
 21
-225.6080462481524
 31
0.0
  0
LINE
  5
98
330
1F
100
AcDbEntity
  8
B-1_ピット
  6
Continuous
 62
     2
370
     9
100
AcDbLine
 10
-682.0554991026182
 20
224.3918918918919
 30
0.0
 11
-682.0554991026182
 21
161.8919949918181
 31
0.0
  0
LINE
  5
99
330
1F
100
AcDbEntity
  8
B-1_ピット
  6
Continuous
 62
     2
370
     9
100
AcDbLine
 10
-682.0554991026182
 20
136.8919125118772
 30
0.0
 11
-682.0554991026182
 21
-138.1080668681376
 31
0.0
  0
LINE
  5
9A
330
1F
100
AcDbEntity
  8
B-1_ピット
  6
Continuous
 62
     2
370
     9
100
AcDbLine
 10
-681.0553473395271
 20
224.3918918918919
 30
0.0
 11
-681.0553473395271
 21
161.8919949918181
 31
0.0
  0
LINE
  5
9B
330
1F
100
AcDbEntity
  8
B-1_ピット
  6
Continuous
 62
     2
370
     9
100
AcDbLine
 10
-681.0553473395271
 20
136.8919125118772
 30
0.0
 11
-681.0553473395271
 21
-138.1080668681376
 31
0.0
  0
LINE
  5
9C
330
1F
100
AcDbEntity
  8
B-1_ピット
  6
Continuous
 62
     2
370
     9
100
AcDbLine
 10
-579.5555320945946
 20
263.3918720967062
 30
0.0
 11
-642.0553671347127
 21
263.3918720967062
 31
0.0
  0
LINE
  5
9D
330
1F
100
AcDbEntity
  8
B-1_ピット
  6
Continuous
 62
     2
370
     9
100
AcDbLine
 10
-579.5555320945946
 20
264.3920238597974
 30
0.0
 11
-642.0553671347127
 21
264.3920238597974
 31
0.0
  0
LINE
  5
9E
330
1F
100
AcDbEntity
  8
B-1_ピット
  6
Continuous
 62
     2
370
     9
100
AcDbLine
 10
-192.0554289946685
 20
263.3918720967062
 30
0.0
 11
-254.5554496146536
 21
263.3918720967062
 31
0.0
  0
LINE
  5
9F
330
1F
100
AcDbEntity
  8
B-1_ピット
  6
Continuous
 62
     2
370
     9
100
AcDbLine
 10
-279.5554083746832
 20
263.3918720967062
 30
0.0
 11
-554.555573334565
 21
263.3918720967062
 31
0.0
  0
LINE
  5
A0
330
1F
100
AcDbEntity
  8
B-1_ピット
  6
Continuous
 62
     2
370
     9
100
AcDbLine
 10
-192.0554289946685
 20
264.3920238597974
 30
0.0
 11
-254.5554496146536
 21
264.3920238597974
 31
0.0
  0
LINE
  5
A1
330
1F
100
AcDbEntity
  8
B-1_ピット
  6
Continuous
 62
     2
370
     9
100
AcDbLine
 10
-279.5554083746832
 20
264.3920238597974
 30
0.0
 11
-554.555573334565
 21
264.3920238597974
 31
0.0
  0
LINE
  5
A2
330
1F
100
AcDbEntity
  8
B-1_ピット
  6
Continuous
 62
     2
370
     9
100
AcDbLine
 10
-153.0554487898543
 20
161.8919949918181
 30
0.0
 11
-153.0554487898543
 21
224.3918918918919
 31
0.0
  0
LINE
  5
A3
330
1F
100
AcDbEntity
  8
B-1_ピット
  6
Continuous
 62
     2
370
     9
100
AcDbLine
 10
-152.0553588867188
 20
161.8919949918181
 30
0.0
 11
-152.0553588867188
 21
224.3918918918919
 31
0.0
  0
LINE
  5
A4
330
1F
100
AcDbEntity
  8
B-1_ピット
  6
Continuous
 62
     2
370
     9
100
AcDbLine
 10
-153.0554487898543
 20
-225.6080462481524
 30
0.0
 11
-153.0554487898543
 21
-163.1080874881229
 31
0.0
  0
LINE
  5
A5
330
1F
100
AcDbEntity
  8
B-1_ピット
  6
Continuous
 62
     2
370
     9
100
AcDbLine
 10
-153.0554487898543
 20
-138.1080668681376
 30
0.0
 11
-153.0554487898543
 21
136.8919125118772
 31
0.0
  0
LINE
  5
A6
330
1F
100
AcDbEntity
  8
B-1_ピット
  6
Continuous
 62
     2
370
     9
100
AcDbLine
 10
-152.0553588867188
 20
-225.6080462481524
 30
0.0
 11
-152.0553588867188
 21
-163.1080874881229
 31
0.0
  0
LINE
  5
A7
330
1F
100
AcDbEntity
  8
B-1_ピット
  6
Continuous
 62
     2
370
     9
100
AcDbLine
 10
-152.0553588867188
 20
-138.1080668681376
 30
0.0
 11
-152.0553588867188
 21
136.8919125118772
 31
0.0
  0
LINE
  5
A8
330
1F
100
AcDbEntity
  8
B-1_ピット
  6
Continuous
 62
     2
370
     9
100
AcDbLine
 10
-192.0554289946685
 20
-265.6080544961465
 30
0.0
 11
-254.5554496146536
 21
-265.6080544961465
 31
0.0
  0
LINE
  5
A9
330
1F
100
AcDbEntity
  8
B-1_ピット
  6
Continuous
 62
     2
370
     9
100
AcDbLine
 10
-279.5554083746832
 20
-265.6080544961465
 30
0.0
 11
-554.555573334565
 21
-265.6080544961465
 31
0.0
  0
LINE
  5
AA
330
1F
100
AcDbEntity
  8
B-1_ピット
  6
Continuous
 62
     2
370
     9
100
AcDbLine
 10
-192.0554289946685
 20
-264.6080883129223
 30
0.0
 11
-254.5554496146536
 21
-264.6080883129223
 31
0.0
  0
LINE
  5
AB
330
1F
100
AcDbEntity
  8
B-1_ピット
  6
Continuous
 62
     2
370
     9
100
AcDbLine
 10
-279.5554083746832
 20
-264.6080883129223
 30
0.0
 11
-554.555573334565
 21
-264.6080883129223
 31
0.0
  0
LINE
  5
AC
330
1F
100
AcDbEntity
  8
B-0_通り芯
  6
JWW_CENTER2
 62
     3
370
     9
100
AcDbLine
 10
-706.0551823796453
 20
-0.6081081081080697
 30
0.0
 11
-128.055428169869
 21
-0.6081081081080697
 31
0.0
  0
LINE
  5
AD
330
1F
100
AcDbEntity
  8
B-0_通り芯
  6
JWW_CENTER2
 62
     3
370
     9
100
AcDbLine
 10
-417.0553671347128
 20
-289.6080470729518
 30
0.0
 11
-417.0553671347128
 21
288.391954576647
 31
0.0
  0
LINE
  5
AE
330
1F
100
AcDbEntity
  8
B-0_通り芯
  6
Continuous
 62
     3
370
     9
100
AcDbLine
 10
420.3169951567779
 20
3.585440145956511
 30
0.0
 11
409.9728970914273
 21
2.39191416147591
 31
0.0
  0
LINE
  5
AF
330
1F
100
AcDbEntity
  8
B-0_通り芯
  6
Continuous
 62
     3
370
     9
100
AcDbLine
 10
382.5848966031461
 20
152.8893919248839
 30
0.0
 11
372.9729729729729
 21
154.8917986895587
 31
0.0
  0
LINE
  5
B0
330
1F
100
AcDbEntity
  8
B-0_通り芯
  6
Continuous
 62
     3
370
     9
100
AcDbLine
 10
382.5848966031461
 20
125.8943258749473
 30
0.0
 11
372.9729729729729
 21
123.8917953903611
 31
0.0
  0
LINE
  5
B1
330
1F
100
AcDbEntity
  8
B-0_通り芯
  6
Continuous
 62
     3
370
     9
100
AcDbLine
 10
384.9730620513091
 20
128.831312849715
 30
0.0
 11
384.9730620513091
 21
149.9525286700275
 31
0.0
  0
LINE
  5
B2
330
1F
100
AcDbEntity
  8
B-0_通り芯
  6
Continuous
 62
     3
370
     9
100
AcDbLine
 10
392.9729152370143
 20
152.3919141614759
 30
0.0
 11
419.9733012431378
 21
152.3919141614759
 31
0.0
  0
LINE
  5
B3
330
1F
100
AcDbEntity
  8
B-0_通り芯
  6
Continuous
 62
     3
370
     9
100
AcDbLine
 10
392.9729152370143
 20
126.3919273582665
 30
0.0
 11
419.9733012431378
 21
126.3919273582665
 31
0.0
  0
LINE
  5
B4
330
1F
100
AcDbEntity
  8
B-0_通り芯
  6
Continuous
 62
     3
370
     9
100
AcDbLine
 10
390.9731065904774
 20
128.391859724715
 30
0.0
 11
390.9731065904774
 21
150.3918580751161
 31
0.0
  0
LINE
  5
B5
330
1F
100
AcDbEntity
  8
B-0_通り芯
  6
Continuous
 62
     3
370
     9
100
AcDbLine
 10
406.4231253959039
 20
214.3970551361909
 30
0.0
 11
372.9729729729729
 21
218.1838741817991
 31
0.0
  0
LINE
  5
B6
330
1F
100
AcDbEntity
  8
B-0_通り芯
  6
Continuous
 62
     3
370
     9
100
AcDbLine
 10
418.9793354756125
 20
207.982920053843
 30
0.0
 11
424.4732418575802
 21
209.39208984375
 31
0.0
  0
LINE
  5
B7
330
1F
100
AcDbEntity
  8
B-0_通り芯
  6
Continuous
 62
     3
370
     9
100
AcDbLine
 10
415.9731890704182
 20
204.1083217311551
 30
0.0
 11
415.9731890704182
 21
189.3918382799303
 31
0.0
  0
LINE
  5
B8
330
1F
100
AcDbEntity
  8
B-0_通り芯
  6
Continuous
 62
     3
370
     9
100
AcDbLine
 10
409.9728970914273
 20
210.4224292652027
 30
0.0
 11
409.9728970914273
 21
161.3919191102724
 31
0.0
  0
LINE
  5
B9
330
1F
100
AcDbEntity
  8
B-0_通り芯
  6
Continuous
 62
     3
370
     9
100
AcDbLine
 10
410.9734200142526
 20
161.3919191102724
 30
0.0
 11
372.9729729729729
 21
158.391958700644
 31
0.0
  0
LINE
  5
BA
330
1F
100
AcDbEntity
  8
B-0_通り芯
  6
Continuous
 62
     3
370
     9
100
AcDbLine
 10
410.9734200142526
 20
117.3919224094701
 30
0.0
 11
372.9729729729729
 21
120.3918828190984
 31
0.0
  0
LINE
  5
BB
330
1F
100
AcDbEntity
  8
B-0_通り芯
  6
Continuous
 62
     3
370
     9
100
AcDbLine
 10
411.4180693755279
 20
97.60873743005703
 30
0.0
 11
409.9728970914273
 21
97.39198014542865
 31
0.0
  0
LINE
  5
BC
330
1F
100
AcDbEntity
  8
B-0_通り芯
  6
Continuous
 62
     3
370
     9
100
AcDbLine
 10
420.3169951567779
 20
90.19834776182435
 30
0.0
 11
409.9728970914273
 21
91.39187374630495
 31
0.0
  0
LINE
  5
BD
330
1F
100
AcDbEntity
  8
B-0_通り芯
  6
Continuous
 62
     3
370
     9
100
AcDbLine
 10
421.078614930849
 20
98.33917978647591
 30
0.0
 11
427.8674976245779
 21
94.9447384396116
 31
0.0
  0
LINE
  5
BE
330
1F
100
AcDbEntity
  8
B-0_通り芯
  6
Continuous
 62
     3
370
     9
100
AcDbLine
 10
430.9731148384714
 20
143.3917854927682
 30
0.0
 11
429.9730867952914
 21
144.391813535948
 31
0.0
  0
LINE
  5
BF
330
1F
100
AcDbEntity
  8
B-0_通り芯
  6
Continuous
 62
     3
370
     9
100
AcDbLine
 10
429.9730867952914
 20
144.391813535948
 30
0.0
 11
429.9730867952914
 21
134.3919042638831
 31
0.0
  0
LINE
  5
C0
330
1F
100
AcDbEntity
  8
B-0_通り芯
  6
Continuous
 62
     3
370
     9
100
AcDbLine
 10
429.9730867952914
 20
134.3919042638831
 30
0.0
 11
430.9731148384714
 21
135.391932307063
 31
0.0
  0
LINE
  5
C1
330
1F
100
AcDbEntity
  8
B-0_通り芯
  6
Continuous
 62
     3
370
     9
100
AcDbLine
 10
428.9733061919341
 20
143.3917854927682
 30
0.0
 11
430.9731148384714
 21
143.3917854927682
 31
0.0
  0
LINE
  5
C2
330
1F
100
AcDbEntity
  8
B-0_通り芯
  6
Continuous
 62
     3
370
     9
100
AcDbLine
 10
430.9731148384714
 20
135.391932307063
 30
0.0
 11
428.9733061919341
 21
135.391932307063
 31
0.0
  0
LINE
  5
C3
330
1F
100
AcDbEntity
  8
B-0_通り芯
  6
Continuous
 62
     3
370
     9
100
AcDbLine
 10
429.9730867952914
 20
134.3919042638831
 30
0.0
 11
428.9733061919341
 21
134.3919042638831
 31
0.0
  0
LINE
  5
C4
330
1F
100
AcDbEntity
  8
B-0_通り芯
  6
Continuous
 62
     3
370
     9
100
AcDbLine
 10
430.9731148384714
 20
143.3917854927682
 30
0.0
 11
430.9731148384714
 21
135.391932307063
 31
0.0
  0
LINE
  5
C5
330
1F
100
AcDbEntity
  8
B-0_通り芯
  6
Continuous
 62
     3
370
     9
100
AcDbLine
 10
428.9733061919341
 20
144.391813535948
 30
0.0
 11
429.9730867952914
 21
144.391813535948
 31
0.0
  0
LINE
  5
C6
330
1F
100
AcDbEntity
  8
B-0_通り芯
  6
Continuous
 62
     3
370
     9
100
AcDbLine
 10
390.9731065904774
 20
144.391813535948
 30
0.0
 11
421.9732336095862
 21
144.391813535948
 31
0.0
  0
LINE
  5
C7
330
1F
100
AcDbEntity
  8
B-0_通り芯
  6
Continuous
 62
     3
370
     9
100
AcDbLine
 10
421.9732336095862
 20
134.3919042638831
 30
0.0
 11
390.9731065904774
 21
134.3919042638831
 31
0.0
  0
LINE
  5
C8
330
1F
100
AcDbEntity
  8
B-0_通り芯
  6
Continuous
 62
     3
370
     9
100
AcDbLine
 10
420.9732055664062
 20
104.391805287954
 30
0.0
 11
420.1135996225719
 21
104.391805287954
 31
0.0
  0
LINE
  5
C9
330
1F
100
AcDbEntity
  8
B-0_通り芯
  6
Continuous
 62
     3
370
     9
100
AcDbLine
 10
420.9732055664062
 20
166.8918877678949
 30
0.0
 11
420.9732055664062
 21
174.3919125118772
 31
0.0
  0
LINE
  5
CA
330
1F
100
AcDbEntity
  8
B-0_通り芯
  6
Continuous
 62
     3
370
     9
100
AcDbLine
 10
431.9731428816513
 20
115.8918184847445
 30
0.0
 11
431.9731428816513
 21
162.8918993150866
 31
0.0
  0
LINE
  5
CB
330
1F
100
AcDbEntity
  8
B-0_通り芯
  6
Continuous
 62
     3
370
     9
100
AcDbLine
 10
420.9732055664062
 20
111.8918300319363
 30
0.0
 11
420.9732055664062
 21
104.391805287954
 31
0.0
  0
LINE
  5
CC
330
1F
100
AcDbEntity
  8
B-0_通り芯
  6
Continuous
 62
     3
370
     9
100
AcDbLine
 10
430.4730389569258
 20
165.3919075630807
 30
0.0
 11
422.4734332110432
 21
165.3919075630807
 31
0.0
  0
LINE
  5
CD
330
1F
100
AcDbEntity
  8
B-0_通り芯
  6
Continuous
 62
     3
370
     9
100
AcDbLine
 10
430.4730389569258
 20
113.3917483767948
 30
0.0
 11
422.4734332110432
 21
113.3917483767948
 31
0.0
  0
LINE
  5
CE
330
1F
100
AcDbEntity
  8
B-0_通り芯
  6
Continuous
 62
     3
370
     9
100
AcDbLine
 10
432.9731709248313
 20
115.8918184847445
 30
0.0
 11
432.9731709248313
 21
162.8918993150866
 31
0.0
  0
LINE
  5
CF
330
1F
100
AcDbEntity
  8
B-0_通り芯
  6
Continuous
 62
     3
370
     9
100
AcDbLine
 10
430.4730389569258
 20
114.3919001398861
 30
0.0
 11
422.4734332110432
 21
114.3919001398861
 31
0.0
  0
LINE
  5
D0
330
1F
100
AcDbEntity
  8
B-0_通り芯
  6
Continuous
 62
     3
370
     9
100
AcDbLine
 10
430.4730389569258
 20
164.3918795199008
 30
0.0
 11
422.4734332110432
 21
164.3918795199008
 31
0.0
  0
LINE
  5
D1
330
1F
100
AcDbEntity
  8
B-0_通り芯
  6
JWW_CENTER1
 62
     3
370
     9
100
AcDbLine
 10
416.7687081001901
 20
169.3920197358003
 30
0.0
 11
427.1629127296242
 21
169.3920197358003
 31
0.0
  0
LINE
  5
D2
330
1F
100
AcDbEntity
  8
B-0_通り芯
  6
JWW_CENTER1
 62
     3
370
     9
100
AcDbLine
 10
416.7687081001901
 20
109.3919455038535
 30
0.0
 11
426.7917529956716
 21
109.3919455038535
 31
0.0
  0
LINE
  5
D3
330
1F
100
AcDbEntity
  8
B-0_通り芯
  6
Continuous
 62
     3
370
     9
100
AcDbLine
 10
421.572999696474
 20
171.9918699522276
 30
0.0
 11
420.9732055664062
 21
171.9918699522276
 31
0.0
  0
LINE
  5
D4
330
1F
100
AcDbEntity
  8
B-0_通り芯
  6
Continuous
 62
     3
370
     9
100
AcDbLine
 10
421.572999696474
 20
166.7919220795503
 30
0.0
 11
420.9764222841005
 21
166.7919220795503
 31
0.0
  0
LINE
  5
D5
330
1F
100
AcDbEntity
  8
B-0_通り芯
  6
Continuous
 62
     3
370
     9
100
AcDbLine
 10
423.5730557828336
 20
168.7917307260875
 30
0.0
 11
423.5730557828336
 21
169.9919375857792
 31
0.0
  0
LINE
  5
D6
330
1F
100
AcDbEntity
  8
B-0_通り芯
  6
Continuous
 62
     3
370
     9
100
AcDbLine
 10
421.572999696474
 20
106.7919715675148
 30
0.0
 11
420.9732055664062
 21
106.7919715675148
 31
0.0
  0
LINE
  5
D7
330
1F
100
AcDbEntity
  8
B-0_通り芯
  6
Continuous
 62
     3
370
     9
100
AcDbLine
 10
421.572999696474
 20
111.9919194401922
 30
0.0
 11
420.9764222841005
 21
111.9919194401922
 31
0.0
  0
LINE
  5
D8
330
1F
100
AcDbEntity
  8
B-0_通り芯
  6
Continuous
 62
     3
370
     9
100
AcDbLine
 10
423.5730557828336
 20
109.9918633538324
 30
0.0
 11
423.5730557828336
 21
108.7919039339633
 31
0.0
  0
LINE
  5
D9
330
1F
100
AcDbEntity
  8
B-0_通り芯
  6
Continuous
 62
     3
370
     9
100
AcDbLine
 10
372.9729729729729
 20
217.391819309544
 30
0.0
 11
369.973136283256
 21
217.391819309544
 31
0.0
  0
LINE
  5
DA
330
1F
100
AcDbEntity
  8
B-0_通り芯
  6
Continuous
 62
     3
370
     9
100
AcDbLine
 10
369.973136283256
 20
217.391819309544
 30
0.0
 11
369.973136283256
 21
224.3918918918919
 31
0.0
  0
LINE
  5
DB
330
1F
100
AcDbEntity
  8
B-0_通り芯
  6
Continuous
 62
     3
370
     9
100
AcDbLine
 10
369.973136283256
 20
224.3918918918919
 30
0.0
 11
379.9730455553211
 21
224.3918918918919
 31
0.0
  0
LINE
  5
DC
330
1F
100
AcDbEntity
  8
B-0_通り芯
  6
Continuous
 62
     3
370
     9
100
AcDbLine
 10
379.9730455553211
 20
224.3918918918919
 30
0.0
 11
379.9730455553211
 21
222.8919116870777
 31
0.0
  0
LINE
  5
DD
330
1F
100
AcDbEntity
  8
B-0_通り芯
  6
Continuous
 62
     3
370
     9
100
AcDbLine
 10
379.9730455553211
 20
222.8919116870777
 30
0.0
 11
372.9729729729729
 21
222.8919116870777
 31
0.0
  0
LINE
  5
DE
330
1F
100
AcDbEntity
  8
B-0_通り芯
  6
Continuous
 62
     3
370
     9
100
AcDbLine
 10
422.6979848500847
 20
218.592892208615
 30
0.0
 11
379.9730455553211
 21
223.4295984216639
 31
0.0
  0
LINE
  5
DF
330
1F
100
AcDbEntity
  8
B-0_通り芯
  6
Continuous
 62
     3
370
     9
100
AcDbLine
 10
372.9729729729729
 20
222.8919116870777
 30
0.0
 11
372.9729729729729
 21
154.8917986895587
 31
0.0
  0
LINE
  5
E0
330
1F
100
AcDbEntity
  8
B-0_通り芯
  6
Continuous
 62
     3
370
     9
100
AcDbLine
 10
372.9729729729729
 20
123.8917953903611
 30
0.0
 11
372.9729729729729
 21
94.39189601588893
 31
0.0
  0
LINE
  5
E1
330
1F
100
AcDbEntity
  8
B-0_通り芯
  6
Continuous
 62
     3
370
     9
100
AcDbLine
 10
369.973136283256
 20
126.3314283216322
 30
0.0
 11
369.973136283256
 21
94.39189601588893
 31
0.0
  0
LINE
  5
E2
330
1F
100
AcDbEntity
  8
B-0_通り芯
  6
Continuous
 62
     3
370
     9
100
AcDbLine
 10
369.973136283256
 20
126.3314283216322
 30
0.0
 11
369.973136283256
 21
217.391819309544
 31
0.0
  0
LINE
  5
E3
330
1F
100
AcDbEntity
  8
B-0_通り芯
  6
Continuous
 62
     3
370
     9
100
AcDbLine
 10
370.9729168866133
 20
134.3919042638831
 30
0.0
 11
369.973136283256
 21
135.391932307063
 31
0.0
  0
LINE
  5
E4
330
1F
100
AcDbEntity
  8
B-0_通り芯
  6
Continuous
 62
     3
370
     9
100
AcDbLine
 10
369.973136283256
 20
143.3917854927682
 30
0.0
 11
370.9729168866133
 21
144.391813535948
 31
0.0
  0
LINE
  5
E5
330
1F
100
AcDbEntity
  8
B-0_通り芯
  6
Continuous
 62
     3
370
     9
100
AcDbLine
 10
370.9729168866133
 20
144.391813535948
 30
0.0
 11
370.9729168866133
 21
134.3919042638831
 31
0.0
  0
LINE
  5
E6
330
1F
100
AcDbEntity
  8
B-0_通り芯
  6
Continuous
 62
     3
370
     9
100
AcDbLine
 10
370.9729168866133
 20
144.391813535948
 30
0.0
 11
384.9730620513091
 21
144.391813535948
 31
0.0
  0
LINE
  5
E7
330
1F
100
AcDbEntity
  8
B-0_通り芯
  6
Continuous
 62
     3
370
     9
100
AcDbLine
 10
384.9730620513091
 20
134.3919042638831
 30
0.0
 11
370.9729168866133
 21
134.3919042638831
 31
0.0
  0
LINE
  5
E8
330
1F
100
AcDbEntity
  8
B-0_通り芯
  6
Continuous
 62
     3
370
     9
100
AcDbLine
 10
378.4731890704182
 20
144.391813535948
 30
0.0
 11
378.4731890704182
 21
134.3919042638831
 31
0.0
  0
LINE
  5
E9
330
1F
100
AcDbEntity
  8
B-0_通り芯
  6
Continuous
 62
     3
370
     9
100
AcDbLine
 10
369.973136283256
 20
135.391932307063
 30
0.0
 11
378.4731890704182
 21
135.391932307063
 31
0.0
  0
LINE
  5
EA
330
1F
100
AcDbEntity
  8
B-0_通り芯
  6
Continuous
 62
     3
370
     9
100
AcDbLine
 10
369.973136283256
 20
143.3917854927682
 30
0.0
 11
378.4731890704182
 21
143.3917854927682
 31
0.0
  0
LINE
  5
EB
330
1F
100
AcDbEntity
  8
B-1_ピット
  6
Continuous
 62
     2
370
     9
100
AcDbLine
 10
434.9731032912797
 20
-265.6081163561021
 30
0.0
 11
426.9732501055745
 21
-264.6081501728779
 31
0.0
  0
LINE
  5
EC
330
1F
100
AcDbEntity
  8
B-1_ピット
  6
Continuous
 62
     2
370
     9
100
AcDbLine
 10
426.4732979439401
 20
-206.6080701673353
 30
0.0
 11
434.9731032912797
 21
-205.6081039841111
 31
0.0
  0
LINE
  5
ED
330
1F
100
AcDbEntity
  8
B-1_ピット
  6
Continuous
 62
     2
370
     9
100
AcDbLine
 10
434.9731032912797
 20
-205.6081039841111
 30
0.0
 11
434.9731032912797
 21
-265.6081163561021
 31
0.0
  0
LINE
  5
EE
330
1F
100
AcDbEntity
  8
B-1_ピット
  6
Continuous
 62
     2
370
     9
100
AcDbLine
 10
428.5228419948268
 20
-212.1937148635452
 30
0.0
 11
426.4732979439401
 21
-211.6080866633234
 31
0.0
  0
LINE
  5
EF
330
1F
100
AcDbEntity
  8
B-1_ピット
  6
Continuous
 62
     2
370
     9
100
AcDbLine
 10
429.9733342351141
 20
-214.1166934451541
 30
0.0
 11
429.9733342351141
 21
-222.7080515268686
 31
0.0
  0
LINE
  5
F0
330
1F
100
AcDbEntity
  8
B-1_ピット
  6
Continuous
 62
     2
370
     9
100
AcDbLine
 10
372.9729729729729
 20
-234.1080990353146
 30
0.0
 11
369.973136283256
 21
-234.1080990353146
 31
0.0
  0
LINE
  5
F1
330
1F
100
AcDbEntity
  8
B-1_ピット
  6
Continuous
 62
     2
370
     9
100
AcDbLine
 10
369.973136283256
 20
-234.1080990353146
 30
0.0
 11
369.973136283256
 21
-227.1080883129223
 31
0.0
  0
LINE
  5
F2
330
1F
100
AcDbEntity
  8
B-1_ピット
  6
Continuous
 62
     2
370
     9
100
AcDbLine
 10
369.973136283256
 20
-227.1080883129223
 30
0.0
 11
379.9730455553211
 21
-227.1080883129223
 31
0.0
  0
LINE
  5
F3
330
1F
100
AcDbEntity
  8
B-1_ピット
  6
Continuous
 62
     2
370
     9
100
AcDbLine
 10
379.9730455553211
 20
-227.1080883129223
 30
0.0
 11
379.9730455553211
 21
-228.6081303776922
 31
0.0
  0
LINE
  5
F4
330
1F
100
AcDbEntity
  8
B-1_ピット
  6
Continuous
 62
     2
370
     9
100
AcDbLine
 10
379.9730455553211
 20
-228.6081303776922
 30
0.0
 11
372.9729729729729
 21
-228.6081303776922
 31
0.0
  0
LINE
  5
F5
330
1F
100
AcDbEntity
  8
B-1_ピット
  6
Continuous
 62
     2
370
     9
100
AcDbLine
 10
372.9729729729729
 20
-234.1080990353146
 30
0.0
 11
372.9729729729729
 21
-228.6081303776922
 31
0.0
  0
LINE
  5
F6
330
1F
100
AcDbEntity
  8
B-1_ピット
  6
Continuous
 62
     2
370
     9
100
AcDbLine
 10
426.4732979439401
 20
205.3919158110747
 30
0.0
 11
434.9731032912797
 21
204.3920114878063
 31
0.0
  0
LINE
  5
F7
330
1F
100
AcDbEntity
  8
B-1_ピット
  6
Continuous
 62
     2
370
     9
100
AcDbLine
 10
434.9731032912797
 20
204.3920114878063
 30
0.0
 11
434.9731032912797
 21
264.3920238597974
 31
0.0
  0
LINE
  5
F8
330
1F
100
AcDbEntity
  8
B-1_ピット
  6
Continuous
 62
     2
370
     9
100
AcDbLine
 10
428.5228419948268
 20
210.9774367873733
 30
0.0
 11
426.4732979439401
 21
210.391746727196
 31
0.0
  0
LINE
  5
F9
330
1F
100
AcDbEntity
  8
B-1_ピット
  6
Continuous
 62
     2
370
     9
100
AcDbLine
 10
429.9733342351141
 20
212.9005390888936
 30
0.0
 11
429.9733342351141
 21
221.4918971706082
 31
0.0
  0
LINE
  5
FA
330
1F
100
AcDbEntity
  8
B-1_ピット
  6
Continuous
 62
     2
370
     9
100
AcDbLine
 10
372.9729729729729
 20
232.8919446790542
 30
0.0
 11
369.973136283256
 21
232.8919446790542
 31
0.0
  0
LINE
  5
FB
330
1F
100
AcDbEntity
  8
B-1_ピット
  6
Continuous
 62
     2
370
     9
100
AcDbLine
 10
369.973136283256
 20
232.8919446790542
 30
0.0
 11
369.973136283256
 21
225.8921195365288
 31
0.0
  0
LINE
  5
FC
330
1F
100
AcDbEntity
  8
B-1_ピット
  6
Continuous
 62
     2
370
     9
100
AcDbLine
 10
369.973136283256
 20
225.8921195365288
 30
0.0
 11
379.9730455553211
 21
225.8921195365288
 31
0.0
  0
LINE
  5
FD
330
1F
100
AcDbEntity
  8
B-1_ピット
  6
Continuous
 62
     2
370
     9
100
AcDbLine
 10
379.9730455553211
 20
225.8921195365288
 30
0.0
 11
379.9730455553211
 21
227.3918523015203
 31
0.0
  0
LINE
  5
FE
330
1F
100
AcDbEntity
  8
B-1_ピット
  6
Continuous
 62
     2
370
     9
100
AcDbLine
 10
379.9730455553211
 20
227.3918523015203
 30
0.0
 11
372.9729729729729
 21
227.3918523015203
 31
0.0
  0
LINE
  5
FF
330
1F
100
AcDbEntity
  8
B-1_ピット
  6
Continuous
 62
     2
370
     9
100
AcDbLine
 10
372.9729729729729
 20
232.8919446790542
 30
0.0
 11
372.9729729729729
 21
227.3918523015203
 31
0.0
  0
LINE
  5
100
330
1F
100
AcDbEntity
  8
B-1_ピット
  6
Continuous
 62
     2
370
     9
100
AcDbLine
 10
434.9731032912797
 20
-205.6081039841111
 30
0.0
 11
434.9731032912797
 21
204.3920114878063
 31
0.0
  0
LINE
  5
101
330
1F
100
AcDbEntity
  8
B-0_通り芯
  6
Continuous
 62
     3
370
     9
100
AcDbLine
 10
428.1151848870357
 20
149.1918986552471
 30
0.0
 11
428.9733061919341
 21
147.706022520323
 31
0.0
  0
LINE
  5
102
330
1F
100
AcDbEntity
  8
B-0_通り芯
  6
Continuous
 62
     3
370
     9
100
AcDbLine
 10
428.1151848870357
 20
129.5919428644955
 30
0.0
 11
428.9733061919341
 21
131.0778189994194
 31
0.0
  0
LINE
  5
103
330
1F
100
AcDbEntity
  8
B-0_通り芯
  6
Continuous
 62
     3
370
     9
100
AcDbLine
 10
428.1151848870357
 20
149.1918986552471
 30
0.0
 11
421.9732336095862
 21
149.1918986552471
 31
0.0
  0
LINE
  5
104
330
1F
100
AcDbEntity
  8
B-0_通り芯
  6
Continuous
 62
     3
370
     9
100
AcDbLine
 10
421.9732336095862
 20
149.1918986552471
 30
0.0
 11
421.9732336095862
 21
129.5919428644955
 31
0.0
  0
LINE
  5
105
330
1F
100
AcDbEntity
  8
B-0_通り芯
  6
Continuous
 62
     3
370
     9
100
AcDbLine
 10
421.9732336095862
 20
129.5919428644955
 30
0.0
 11
428.1151848870357
 21
129.5919428644955
 31
0.0
  0
LINE
  5
106
330
1F
100
AcDbEntity
  8
B-0_通り芯
  6
Continuous
 62
     3
370
     9
100
AcDbLine
 10
428.9733061919341
 20
131.0778189994194
 30
0.0
 11
428.9733061919341
 21
147.706022520323
 31
0.0
  0
LINE
  5
107
330
1F
100
AcDbEntity
  8
B-0_通り芯
  6
Continuous
 62
     3
370
     9
100
AcDbLine
 10
428.1151848870357
 20
144.391813535948
 30
0.0
 11
421.9732336095862
 21
144.391813535948
 31
0.0
  0
LINE
  5
108
330
1F
100
AcDbEntity
  8
B-0_通り芯
  6
Continuous
 62
     3
370
     9
100
AcDbLine
 10
421.9732336095862
 20
134.3919042638831
 30
0.0
 11
428.1151848870357
 21
134.3919042638831
 31
0.0
  0
LINE
  5
109
330
1F
100
AcDbEntity
  8
B-0_通り芯
  6
JWW_CENTER1
 62
     3
370
     9
100
AcDbLine
 10
367.9730801968961
 20
139.3919207598712
 30
0.0
 11
384.9730620513091
 21
139.3919207598712
 31
0.0
  0
LINE
  5
10A
330
1F
100
AcDbEntity
  8
B-0_通り芯
  6
JWW_CENTER1
 62
     3
370
     9
100
AcDbLine
 10
390.9731065904774
 20
139.3919207598712
 30
0.0
 11
433.9734464078336
 21
139.3919207598712
 31
0.0
  0
LINE
  5
10B
330
1F
100
AcDbEntity
  8
B-1_ピット
  6
Continuous
 62
     2
370
     9
100
AcDbLine
 10
-653.5553803315033
 20
-234.1080371753589
 30
0.0
 11
-653.5553803315033
 21
-169.6024549329603
 31
0.0
  0
LINE
  5
10C
330
1F
100
AcDbEntity
  8
B-1_ピット
  6
Continuous
 62
     2
370
     9
100
AcDbLine
 10
-650.5551724820523
 20
-237.108059444943
 30
0.0
 11
-586.050085119299
 21
-237.108059444943
 31
0.0
  0
LINE
  5
10D
330
1F
100
AcDbEntity
  8
B-1_ピット
  6
Continuous
 62
     2
370
     9
100
AcDbLine
 10
-650.5551724820523
 20
235.8919050886824
 30
0.0
 11
-586.050085119299
 21
235.8919050886824
 31
0.0
  0
LINE
  5
10E
330
1F
100
AcDbEntity
  8
B-1_ピット
  6
Continuous
 62
     2
370
     9
100
AcDbLine
 10
-653.5553803315033
 20
232.8919446790542
 30
0.0
 11
-653.5553803315033
 21
168.3864242966111
 31
0.0
  0
LINE
  5
10F
330
1F
100
AcDbEntity
  8
B-1_ピット
  6
Continuous
 62
     2
370
     9
100
AcDbLine
 10
-183.5553143475506
 20
-237.108059444943
 30
0.0
 11
-248.0609584499049
 21
-237.108059444943
 31
0.0
  0
LINE
  5
110
330
1F
100
AcDbEntity
  8
B-1_ピット
  6
Continuous
 62
     2
370
     9
100
AcDbLine
 10
-180.5554157978779
 20
-234.1080371753589
 30
0.0
 11
-180.5554157978779
 21
-169.6024549329603
 31
0.0
  0
LINE
  5
111
330
1F
100
AcDbEntity
  8
B-1_ピット
  6
Continuous
 62
     2
370
     9
100
AcDbLine
 10
-180.5554157978779
 20
232.8919446790542
 30
0.0
 11
-180.5554157978779
 21
168.3864242966111
 31
0.0
  0
LINE
  5
112
330
1F
100
AcDbEntity
  8
B-1_ピット
  6
Continuous
 62
     2
370
     9
100
AcDbLine
 10
-183.5553143475506
 20
235.8919050886824
 30
0.0
 11
-248.0609584499049
 21
235.8919050886824
 31
0.0
  0
LINE
  5
113
330
1F
100
AcDbEntity
  8
B-0_通り芯
  6
Continuous
 62
     3
370
     9
100
AcDbLine
 10
369.973136283256
 20
119.3918547759185
 30
0.0
 11
372.9729729729729
 21
119.3918547759185
 31
0.0
  0
LINE
  5
114
330
1F
100
AcDbEntity
  8
B-0_通り芯
  6
Continuous
 62
     3
370
     9
100
AcDbLine
 10
369.973136283256
 20
159.3918630239126
 30
0.0
 11
372.9729729729729
 21
159.3918630239126
 31
0.0
  0
LINE
  5
115
330
1F
100
AcDbEntity
  8
B-0_通り芯
  6
Continuous
 62
     3
370
     9
100
AcDbLine
 10
-202.5553522883234
 20
215.8918391047298
 30
0.0
 11
-631.5555057010134
 21
215.8918391047298
 31
0.0
  0
LINE
  5
116
330
1F
100
AcDbEntity
  8
B-0_通り芯
  6
Continuous
 62
     3
370
     9
100
AcDbLine
 10
-631.5555057010134
 20
-217.1081171809016
 30
0.0
 11
-202.5553522883234
 21
-217.1081171809016
 31
0.0
  0
LINE
  5
117
330
1F
100
AcDbEntity
  8
B-0_通り芯
  6
Continuous
 62
     3
370
     9
100
AcDbLine
 10
-482.0552722827808
 20
119.3918547759185
 30
0.0
 11
-352.0554001266892
 21
119.3918547759185
 31
0.0
  0
LINE
  5
118
330
1F
100
AcDbEntity
  8
B-0_通り芯
  6
Continuous
 62
     3
370
     9
100
AcDbLine
 10
-352.0554001266892
 20
119.3918547759185
 30
0.0
 11
-352.0554001266892
 21
159.3917393040013
 31
0.0
  0
LINE
  5
119
330
1F
100
AcDbEntity
  8
B-0_通り芯
  6
Continuous
 62
     3
370
     9
100
AcDbLine
 10
-352.0554001266892
 20
159.3917393040013
 30
0.0
 11
-482.0552722827808
 21
159.3917393040013
 31
0.0
  0
LINE
  5
11A
330
1F
100
AcDbEntity
  8
B-0_通り芯
  6
Continuous
 62
     3
370
     9
100
AcDbLine
 10
-482.0552722827808
 20
159.3917393040013
 30
0.0
 11
-482.0552722827808
 21
119.3918547759185
 31
0.0
  0
LINE
  5
11B
330
1F
100
AcDbEntity
  8
B-0_通り芯
  6
Continuous
 62
     3
370
     9
100
AcDbLine
 10
-462.655309728674
 20
133.2917868124473
 30
0.0
 11
-371.4554245407517
 21
133.2917868124473
 31
0.0
  0
LINE
  5
11C
330
1F
100
AcDbEntity
  8
B-0_通り芯
  6
Continuous
 62
     3
370
     9
100
AcDbLine
 10
-371.4554245407517
 20
133.2917868124473
 30
0.0
 11
-371.4554245407517
 21
145.4918072674727
 31
0.0
  0
LINE
  5
11D
330
1F
100
AcDbEntity
  8
B-0_通り芯
  6
Continuous
 62
     3
370
     9
100
AcDbLine
 10
-371.4554245407517
 20
145.4918072674727
 30
0.0
 11
-462.655309728674
 21
145.4918072674727
 31
0.0
  0
LINE
  5
11E
330
1F
100
AcDbEntity
  8
B-0_通り芯
  6
Continuous
 62
     3
370
     9
100
AcDbLine
 10
-462.655309728674
 20
145.4918072674727
 30
0.0
 11
-462.655309728674
 21
133.2917868124473
 31
0.0
  0
LINE
  5
11F
330
1F
100
AcDbEntity
  8
B-0_通り芯
  6
Continuous
 62
     3
370
     9
100
AcDbLine
 10
-492.0554289946685
 20
169.3918960158889
 30
0.0
 11
-494.0554232210727
 21
139.3919207598712
 31
0.0
  0
LINE
  5
120
330
1F
100
AcDbEntity
  8
B-0_通り芯
  6
Continuous
 62
     3
370
     9
100
AcDbLine
 10
-342.0553671347128
 20
169.3918960158889
 30
0.0
 11
-340.0553729083088
 21
139.3919207598712
 31
0.0
  0
LINE
  5
121
330
1F
100
AcDbEntity
  8
B-0_通り芯
  6
Continuous
 62
     3
370
     9
100
AcDbLine
 10
-492.0554289946685
 20
169.3918960158889
 30
0.0
 11
-342.0553671347128
 21
169.3918960158889
 31
0.0
  0
LINE
  5
122
330
1F
100
AcDbEntity
  8
B-0_通り芯
  6
Continuous
 62
     3
370
     9
100
AcDbLine
 10
-420.0554512642526
 20
5.391936431060032
 30
0.0
 11
-420.0554512642526
 21
88.39185147672097
 31
0.0
  0
LINE
  5
123
330
1F
100
AcDbEntity
  8
B-0_通り芯
  6
Continuous
 62
     3
370
     9
100
AcDbLine
 10
-414.0554067250844
 20
5.391936431060032
 30
0.0
 11
-414.0554067250844
 21
88.39185147672097
 31
0.0
  0
LINE
  5
124
330
1F
100
AcDbEntity
  8
B-0_通り芯
  6
Continuous
 62
     3
370
     9
100
AcDbLine
 10
-412.5554265202703
 20
6.891854775918489
 30
0.0
 11
-412.5554265202703
 21
86.89193313186237
 31
0.0
  0
LINE
  5
125
330
1F
100
AcDbEntity
  8
B-0_通り芯
  6
Continuous
 62
     3
370
     9
100
AcDbLine
 10
-421.5554314690667
 20
6.891854775918489
 30
0.0
 11
-421.5554314690667
 21
86.89193313186237
 31
0.0
  0
LINE
  5
126
330
1F
100
AcDbEntity
  8
B-0_通り芯
  6
Continuous
 62
     3
370
     9
100
AcDbLine
 10
-412.5554265202703
 20
101.8919207598712
 30
0.0
 11
-412.5554265202703
 21
119.3918547759185
 31
0.0
  0
LINE
  5
127
330
1F
100
AcDbEntity
  8
B-0_通り芯
  6
Continuous
 62
     3
370
     9
100
AcDbLine
 10
-414.0554067250844
 20
100.3918786951014
 30
0.0
 11
-414.0554067250844
 21
119.3918547759185
 31
0.0
  0
LINE
  5
128
330
1F
100
AcDbEntity
  8
B-0_通り芯
  6
Continuous
 62
     3
370
     9
100
AcDbLine
 10
-420.0554512642526
 20
100.3918786951014
 30
0.0
 11
-420.0554512642526
 21
119.3918547759185
 31
0.0
  0
LINE
  5
129
330
1F
100
AcDbEntity
  8
B-0_通り芯
  6
Continuous
 62
     3
370
     9
100
AcDbLine
 10
-421.5554314690667
 20
101.8919207598712
 30
0.0
 11
-421.5554314690667
 21
119.3918547759185
 31
0.0
  0
LINE
  5
12A
330
1F
100
AcDbEntity
  8
B-0_通り芯
  6
Continuous
 62
     3
370
     9
100
AcDbLine
 10
-421.5554314690667
 20
169.3918960158889
 30
0.0
 11
-420.0554512642526
 21
189.3918382799303
 31
0.0
  0
LINE
  5
12B
330
1F
100
AcDbEntity
  8
B-0_通り芯
  6
Continuous
 62
     3
370
     9
100
AcDbLine
 10
-412.5554265202703
 20
169.3918960158889
 30
0.0
 11
-414.0554067250844
 21
189.3918382799303
 31
0.0
  0
LINE
  5
12C
330
1F
100
AcDbEntity
  8
B-0_通り芯
  6
Continuous
 62
     3
370
     9
100
AcDbLine
 10
-420.0554512642526
 20
169.3918960158889
 30
0.0
 11
-420.0554512642526
 21
189.3918382799303
 31
0.0
  0
LINE
  5
12D
330
1F
100
AcDbEntity
  8
B-0_通り芯
  6
Continuous
 62
     3
370
     9
100
AcDbLine
 10
-414.0554067250844
 20
169.3918960158889
 30
0.0
 11
-414.0554067250844
 21
189.3918382799303
 31
0.0
  0
LINE
  5
12E
330
1F
100
AcDbEntity
  8
B-0_通り芯
  6
Continuous
 62
     3
370
     9
100
AcDbLine
 10
-515.0553935282938
 20
5.391936431060032
 30
0.0
 11
-515.0553935282938
 21
88.39185147672097
 31
0.0
  0
LINE
  5
12F
330
1F
100
AcDbEntity
  8
B-0_通り芯
  6
Continuous
 62
     3
370
     9
100
AcDbLine
 10
-509.0553489891258
 20
5.391936431060032
 30
0.0
 11
-509.0553489891258
 21
88.39185147672097
 31
0.0
  0
LINE
  5
130
330
1F
100
AcDbEntity
  8
B-0_通り芯
  6
Continuous
 62
     3
370
     9
100
AcDbLine
 10
-507.5553687843117
 20
6.891854775918489
 30
0.0
 11
-507.5553687843117
 21
86.89193313186237
 31
0.0
  0
LINE
  5
131
330
1F
100
AcDbEntity
  8
B-0_通り芯
  6
Continuous
 62
     3
370
     9
100
AcDbLine
 10
-516.5553737331081
 20
6.891854775918489
 30
0.0
 11
-516.5553737331081
 21
86.89193313186237
 31
0.0
  0
LINE
  5
132
330
1F
100
AcDbEntity
  8
B-0_通り芯
  6
Continuous
 62
     3
370
     9
100
AcDbLine
 10
-325.0554471402555
 20
5.391936431060032
 30
0.0
 11
-325.0554471402555
 21
88.39185147672097
 31
0.0
  0
LINE
  5
133
330
1F
100
AcDbEntity
  8
B-0_通り芯
  6
Continuous
 62
     3
370
     9
100
AcDbLine
 10
-319.0553407411318
 20
5.391936431060032
 30
0.0
 11
-319.0553407411318
 21
88.39185147672097
 31
0.0
  0
LINE
  5
134
330
1F
100
AcDbEntity
  8
B-0_通り芯
  6
Continuous
 62
     3
370
     9
100
AcDbLine
 10
-317.5554223962732
 20
6.891854775918489
 30
0.0
 11
-317.5554223962732
 21
86.89193313186237
 31
0.0
  0
LINE
  5
135
330
1F
100
AcDbEntity
  8
B-0_通り芯
  6
Continuous
 62
     3
370
     9
100
AcDbLine
 10
-326.555365485114
 20
6.891854775918489
 30
0.0
 11
-326.555365485114
 21
86.89193313186237
 31
0.0
  0
LINE
  5
136
330
1F
100
AcDbEntity
  8
B-0_通り芯
  6
Continuous
 62
     3
370
     9
100
AcDbLine
 10
-515.0553935282938
 20
100.3918786951014
 30
0.0
 11
-515.0553935282938
 21
189.3918382799303
 31
0.0
  0
LINE
  5
137
330
1F
100
AcDbEntity
  8
B-0_通り芯
  6
Continuous
 62
     3
370
     9
100
AcDbLine
 10
-509.0553489891258
 20
100.3918786951014
 30
0.0
 11
-509.0553489891258
 21
189.3918382799303
 31
0.0
  0
LINE
  5
138
330
1F
100
AcDbEntity
  8
B-0_通り芯
  6
Continuous
 62
     3
370
     9
100
AcDbLine
 10
-325.0554471402555
 20
100.3918786951014
 30
0.0
 11
-325.0554471402555
 21
189.3918382799303
 31
0.0
  0
LINE
  5
139
330
1F
100
AcDbEntity
  8
B-0_通り芯
  6
Continuous
 62
     3
370
     9
100
AcDbLine
 10
-319.0553407411318
 20
100.3918786951014
 30
0.0
 11
-319.0553407411318
 21
189.3918382799303
 31
0.0
  0
LINE
  5
13A
330
1F
100
AcDbEntity
  8
B-0_通り芯
  6
Continuous
 62
     3
370
     9
100
AcDbLine
 10
-516.5553737331081
 20
139.3919207598712
 30
0.0
 11
-515.0553935282938
 21
189.3918382799303
 31
0.0
  0
LINE
  5
13B
330
1F
100
AcDbEntity
  8
B-0_通り芯
  6
Continuous
 62
     3
370
     9
100
AcDbLine
 10
-516.5553737331081
 20
101.8919207598712
 30
0.0
 11
-516.5553737331081
 21
139.3919207598712
 31
0.0
  0
LINE
  5
13C
330
1F
100
AcDbEntity
  8
B-0_通り芯
  6
Continuous
 62
     3
370
     9
100
AcDbLine
 10
-509.0553489891258
 20
189.3918382799303
 30
0.0
 11
-507.5553687843117
 21
139.3919207598712
 31
0.0
  0
LINE
  5
13D
330
1F
100
AcDbEntity
  8
B-0_通り芯
  6
Continuous
 62
     3
370
     9
100
AcDbLine
 10
-507.5553687843117
 20
101.8919207598712
 30
0.0
 11
-507.5553687843117
 21
139.3919207598712
 31
0.0
  0
LINE
  5
13E
330
1F
100
AcDbEntity
  8
B-0_通り芯
  6
Continuous
 62
     3
370
     9
100
AcDbLine
 10
-325.0554471402555
 20
189.3918382799303
 30
0.0
 11
-326.555365485114
 21
139.3919207598712
 31
0.0
  0
LINE
  5
13F
330
1F
100
AcDbEntity
  8
B-0_通り芯
  6
Continuous
 62
     3
370
     9
100
AcDbLine
 10
-326.555365485114
 20
101.8919207598712
 30
0.0
 11
-326.555365485114
 21
139.3919207598712
 31
0.0
  0
LINE
  5
140
330
1F
100
AcDbEntity
  8
B-0_通り芯
  6
Continuous
 62
     3
370
     9
100
AcDbLine
 10
-317.5554223962732
 20
139.3919207598712
 30
0.0
 11
-319.0553407411318
 21
189.3918382799303
 31
0.0
  0
LINE
  5
141
330
1F
100
AcDbEntity
  8
B-0_通り芯
  6
Continuous
 62
     3
370
     9
100
AcDbLine
 10
-317.5554223962732
 20
101.8919207598712
 30
0.0
 11
-317.5554223962732
 21
139.3919207598712
 31
0.0
  0
LINE
  5
142
330
1F
100
AcDbEntity
  8
B-0_通り芯
  6
Continuous
 62
     3
370
     9
100
AcDbLine
 10
-414.0554067250844
 20
189.3918382799303
 30
0.0
 11
-325.0554471402555
 21
189.3918382799303
 31
0.0
  0
LINE
  5
143
330
1F
100
AcDbEntity
  8
B-0_通り芯
  6
Continuous
 62
     3
370
     9
100
AcDbLine
 10
-319.0553407411318
 20
189.3918382799303
 30
0.0
 11
-227.0554207466743
 21
189.3918382799303
 31
0.0
  0
LINE
  5
144
330
1F
100
AcDbEntity
  8
B-0_通り芯
  6
Continuous
 62
     3
370
     9
100
AcDbLine
 10
-317.5554223962732
 20
139.3919207598712
 30
0.0
 11
-277.0554619866448
 21
139.3919207598712
 31
0.0
  0
LINE
  5
145
330
1F
100
AcDbEntity
  8
B-0_通り芯
  6
Continuous
 62
     3
370
     9
100
AcDbLine
 10
-607.0552516627956
 20
189.3918382799303
 30
0.0
 11
-515.0553935282938
 21
189.3918382799303
 31
0.0
  0
LINE
  5
146
330
1F
100
AcDbEntity
  8
B-0_通り芯
  6
Continuous
 62
     3
370
     9
100
AcDbLine
 10
-509.0553489891258
 20
189.3918382799303
 30
0.0
 11
-420.0554512642526
 21
189.3918382799303
 31
0.0
  0
LINE
  5
147
330
1F
100
AcDbEntity
  8
B-0_通り芯
  6
Continuous
 62
     3
370
     9
100
AcDbLine
 10
-557.0553341427365
 20
139.3919207598712
 30
0.0
 11
-516.5553737331081
 21
139.3919207598712
 31
0.0
  0
LINE
  5
148
330
1F
100
AcDbEntity
  8
B-0_通り芯
  6
Continuous
 62
     3
370
     9
100
AcDbLine
 10
-507.5553687843117
 20
139.3919207598712
 30
0.0
 11
-494.0554232210727
 21
139.3919207598712
 31
0.0
  0
LINE
  5
149
330
1F
100
AcDbEntity
  8
B-0_通り芯
  6
Continuous
 62
     3
370
     9
100
AcDbLine
 10
-340.0553729083088
 20
139.3919207598712
 30
0.0
 11
-326.555365485114
 21
139.3919207598712
 31
0.0
  0
LINE
  5
14A
330
1F
100
AcDbEntity
  8
B-0_通り芯
  6
Continuous
 62
     3
370
     9
100
AcDbLine
 10
-494.0554232210727
 20
100.8917689967801
 30
0.0
 11
-494.0554232210727
 21
139.3919207598712
 31
0.0
  0
LINE
  5
14B
330
1F
100
AcDbEntity
  8
B-0_通り芯
  6
Continuous
 62
     3
370
     9
100
AcDbLine
 10
-492.0554289946685
 20
99.39185065192149
 30
0.0
 11
-492.0554289946685
 21
169.3918960158889
 31
0.0
  0
LINE
  5
14C
330
1F
100
AcDbEntity
  8
B-0_通り芯
  6
Continuous
 62
     3
370
     9
100
AcDbLine
 10
-492.11895916913
 20
98.89183663033151
 30
0.0
 11
-424.5554537386508
 21
98.89183663033151
 31
0.0
  0
LINE
  5
14D
330
1F
100
AcDbEntity
  8
B-0_通り芯
  6
Continuous
 62
     3
370
     9
100
AcDbLine
 10
-340.0553729083088
 20
100.8917689967801
 30
0.0
 11
-340.0553729083088
 21
139.3919207598712
 31
0.0
  0
LINE
  5
14E
330
1F
100
AcDbEntity
  8
B-0_通り芯
  6
Continuous
 62
     3
370
     9
100
AcDbLine
 10
-342.0553671347128
 20
99.39185065192149
 30
0.0
 11
-342.0553671347128
 21
169.3918960158889
 31
0.0
  0
LINE
  5
14F
330
1F
100
AcDbEntity
  8
B-0_通り芯
  6
Continuous
 62
     3
370
     9
100
AcDbLine
 10
-409.5554042506862
 20
98.89183663033151
 30
0.0
 11
-341.9918369602511
 21
98.89183663033151
 31
0.0
  0
LINE
  5
150
330
1F
100
AcDbEntity
  8
B-0_通り芯
  6
Continuous
 62
     3
370
     9
100
AcDbLine
 10
-496.0554793074324
 20
98.89183663033151
 30
0.0
 11
-504.5553465147276
 21
98.89183663033151
 31
0.0
  0
LINE
  5
151
330
1F
100
AcDbEntity
  8
B-0_通り芯
  6
Continuous
 62
     3
370
     9
100
AcDbLine
 10
-506.0553885794974
 20
97.39198014542865
 30
0.0
 11
-423.0554116738808
 21
97.39198014542865
 31
0.0
  0
LINE
  5
152
330
1F
100
AcDbEntity
  8
B-0_通り芯
  6
Continuous
 62
     3
370
     9
100
AcDbLine
 10
-504.5553465147276
 20
89.89195540144635
 30
0.0
 11
-424.5554537386508
 21
89.89195540144635
 31
0.0
  0
LINE
  5
153
330
1F
100
AcDbEntity
  8
B-0_通り芯
  6
Continuous
 62
     3
370
     9
100
AcDbLine
 10
-506.0553885794974
 20
91.39187374630495
 30
0.0
 11
-423.0554116738808
 21
91.39187374630495
 31
0.0
  0
LINE
  5
154
330
1F
100
AcDbEntity
  8
B-0_通り芯
  6
Continuous
 62
     3
370
     9
100
AcDbLine
 10
-338.0553168219489
 20
98.89183663033151
 30
0.0
 11
-329.5554496146536
 21
98.89183663033151
 31
0.0
  0
LINE
  5
155
330
1F
100
AcDbEntity
  8
B-0_通り芯
  6
Continuous
 62
     3
370
     9
100
AcDbLine
 10
-411.0553844555005
 20
97.39198014542865
 30
0.0
 11
-328.0554694098395
 21
97.39198014542865
 31
0.0
  0
LINE
  5
156
330
1F
100
AcDbEntity
  8
B-0_通り芯
  6
Continuous
 62
     3
370
     9
100
AcDbLine
 10
-411.0553844555005
 20
91.39187374630495
 30
0.0
 11
-328.0554694098395
 21
91.39187374630495
 31
0.0
  0
LINE
  5
157
330
1F
100
AcDbEntity
  8
B-0_通り芯
  6
Continuous
 62
     3
370
     9
100
AcDbLine
 10
-409.5554042506862
 20
89.89195540144635
 30
0.0
 11
-329.5554496146536
 21
89.89195540144635
 31
0.0
  0
LINE
  5
158
330
1F
100
AcDbEntity
  8
B-0_通り芯
  6
Continuous
 62
     3
370
     9
100
AcDbLine
 10
-314.5554001266892
 20
98.89183663033151
 30
0.0
 11
-277.0554619866448
 21
98.89183663033151
 31
0.0
  0
LINE
  5
159
330
1F
100
AcDbEntity
  8
B-0_通り芯
  6
Continuous
 62
     3
370
     9
100
AcDbLine
 10
-277.0554619866448
 20
98.89183663033151
 30
0.0
 11
-227.0554207466743
 21
97.39198014542865
 31
0.0
  0
LINE
  5
15A
330
1F
100
AcDbEntity
  8
B-0_通り芯
  6
Continuous
 62
     3
370
     9
100
AcDbLine
 10
-314.5554001266892
 20
89.89195540144635
 30
0.0
 11
-277.0554619866448
 21
89.89195540144635
 31
0.0
  0
LINE
  5
15B
330
1F
100
AcDbEntity
  8
B-0_通り芯
  6
Continuous
 62
     3
370
     9
100
AcDbLine
 10
-227.0554207466743
 20
91.39187374630495
 30
0.0
 11
-277.0554619866448
 21
89.89195540144635
 31
0.0
  0
LINE
  5
15C
330
1F
100
AcDbEntity
  8
B-0_通り芯
  6
Continuous
 62
     3
370
     9
100
AcDbLine
 10
-277.0554619866448
 20
139.3919207598712
 30
0.0
 11
-277.0554619866448
 21
98.89183663033151
 31
0.0
  0
LINE
  5
15D
330
1F
100
AcDbEntity
  8
B-0_通り芯
  6
Continuous
 62
     3
370
     9
100
AcDbLine
 10
-227.0554207466743
 20
189.3918382799303
 30
0.0
 11
-227.0554207466743
 21
97.39198014542865
 31
0.0
  0
LINE
  5
15E
330
1F
100
AcDbEntity
  8
B-0_通り芯
  6
Continuous
 62
     3
370
     9
100
AcDbLine
 10
-316.055442191459
 20
97.39198014542865
 30
0.0
 11
-227.0554207466743
 21
97.39198014542865
 31
0.0
  0
LINE
  5
15F
330
1F
100
AcDbEntity
  8
B-0_通り芯
  6
Continuous
 62
     3
370
     9
100
AcDbLine
 10
-316.055442191459
 20
91.39187374630495
 30
0.0
 11
-227.0554207466743
 21
91.39187374630495
 31
0.0
  0
LINE
  5
160
330
1F
100
AcDbEntity
  8
B-0_通り芯
  6
Continuous
 62
     3
370
     9
100
AcDbLine
 10
-424.5554537386508
 20
3.891832506334509
 30
0.0
 11
-504.5553465147276
 21
3.891832506334509
 31
0.0
  0
LINE
  5
161
330
1F
100
AcDbEntity
  8
B-0_通り芯
  6
Continuous
 62
     3
370
     9
100
AcDbLine
 10
-423.0554116738808
 20
2.39191416147591
 30
0.0
 11
-506.0553885794974
 21
2.39191416147591
 31
0.0
  0
LINE
  5
162
330
1F
100
AcDbEntity
  8
B-0_通り芯
  6
Continuous
 62
     3
370
     9
100
AcDbLine
 10
-409.5554042506862
 20
3.891832506334509
 30
0.0
 11
-329.5554496146536
 21
3.891832506334509
 31
0.0
  0
LINE
  5
163
330
1F
100
AcDbEntity
  8
B-0_通り芯
  6
Continuous
 62
     3
370
     9
100
AcDbLine
 10
-411.0553844555005
 20
2.39191416147591
 30
0.0
 11
-328.0554694098395
 21
2.39191416147591
 31
0.0
  0
LINE
  5
164
330
1F
100
AcDbEntity
  8
B-0_通り芯
  6
Continuous
 62
     3
370
     9
100
AcDbLine
 10
-519.5553960026921
 20
98.89183663033151
 30
0.0
 11
-557.0553341427365
 21
98.89183663033151
 31
0.0
  0
LINE
  5
165
330
1F
100
AcDbEntity
  8
B-0_通り芯
  6
Continuous
 62
     3
370
     9
100
AcDbLine
 10
-557.0553341427365
 20
89.89195540144635
 30
0.0
 11
-519.5553960026921
 21
89.89195540144635
 31
0.0
  0
LINE
  5
166
330
1F
100
AcDbEntity
  8
B-0_通り芯
  6
Continuous
 62
     3
370
     9
100
AcDbLine
 10
-607.0552516627956
 20
97.39198014542865
 30
0.0
 11
-607.0552516627956
 21
189.3918382799303
 31
0.0
  0
LINE
  5
167
330
1F
100
AcDbEntity
  8
B-0_通り芯
  6
Continuous
 62
     3
370
     9
100
AcDbLine
 10
-557.0553341427365
 20
98.89183663033151
 30
0.0
 11
-557.0553341427365
 21
139.3919207598712
 31
0.0
  0
LINE
  5
168
330
1F
100
AcDbEntity
  8
B-0_通り芯
  6
Continuous
 62
     3
370
     9
100
AcDbLine
 10
-607.0552516627956
 20
97.39198014542865
 30
0.0
 11
-557.0553341427365
 21
98.89183663033151
 31
0.0
  0
LINE
  5
169
330
1F
100
AcDbEntity
  8
B-0_通り芯
  6
Continuous
 62
     3
370
     9
100
AcDbLine
 10
-557.0553341427365
 20
89.89195540144635
 30
0.0
 11
-607.0552516627956
 21
91.39187374630495
 31
0.0
  0
LINE
  5
16A
330
1F
100
AcDbEntity
  8
B-0_通り芯
  6
Continuous
 62
     3
370
     9
100
AcDbLine
 10
-607.0552516627956
 20
97.39198014542865
 30
0.0
 11
-518.0554157978779
 21
97.39198014542865
 31
0.0
  0
LINE
  5
16B
330
1F
100
AcDbEntity
  8
B-0_通り芯
  6
Continuous
 62
     3
370
     9
100
AcDbLine
 10
-607.0552516627956
 20
91.39187374630495
 30
0.0
 11
-518.0554157978779
 21
91.39187374630495
 31
0.0
  0
LINE
  5
16C
330
1F
100
AcDbEntity
  8
B-0_通り芯
  6
Continuous
 62
     3
370
     9
100
AcDbLine
 10
-633.5555617873733
 20
-215.1081229544974
 30
0.0
 11
-633.5555617873733
 21
213.8920304581926
 31
0.0
  0
LINE
  5
16D
330
1F
100
AcDbEntity
  8
B-0_通り芯
  6
Continuous
 62
     3
370
     9
100
AcDbLine
 10
-314.5554001266892
 20
3.891832506334509
 30
0.0
 11
-277.0554619866448
 21
3.891832506334509
 31
0.0
  0
LINE
  5
16E
330
1F
100
AcDbEntity
  8
B-0_通り芯
  6
Continuous
 62
     3
370
     9
100
AcDbLine
 10
-277.0554619866448
 20
89.89195540144635
 30
0.0
 11
-277.0554619866448
 21
3.891832506334509
 31
0.0
  0
LINE
  5
16F
330
1F
100
AcDbEntity
  8
B-0_通り芯
  6
Continuous
 62
     3
370
     9
100
AcDbLine
 10
-277.0554619866448
 20
3.891832506334509
 30
0.0
 11
-227.0554207466743
 21
2.39191416147591
 31
0.0
  0
LINE
  5
170
330
1F
100
AcDbEntity
  8
B-0_通り芯
  6
Continuous
 62
     3
370
     9
100
AcDbLine
 10
-227.0554207466743
 20
91.39187374630495
 30
0.0
 11
-227.0554207466743
 21
2.39191416147591
 31
0.0
  0
LINE
  5
171
330
1F
100
AcDbEntity
  8
B-0_通り芯
  6
Continuous
 62
     3
370
     9
100
AcDbLine
 10
-316.055442191459
 20
2.39191416147591
 30
0.0
 11
-227.0554207466743
 21
2.39191416147591
 31
0.0
  0
LINE
  5
172
330
1F
100
AcDbEntity
  8
B-0_通り芯
  6
Continuous
 62
     3
370
     9
100
AcDbLine
 10
-518.0554157978779
 20
2.39191416147591
 30
0.0
 11
-607.0552516627956
 21
2.39191416147591
 31
0.0
  0
LINE
  5
173
330
1F
100
AcDbEntity
  8
B-0_通り芯
  6
Continuous
 62
     3
370
     9
100
AcDbLine
 10
-519.5553960026921
 20
3.891832506334509
 30
0.0
 11
-557.0553341427365
 21
3.891832506334509
 31
0.0
  0
LINE
  5
174
330
1F
100
AcDbEntity
  8
B-0_通り芯
  6
Continuous
 62
     3
370
     9
100
AcDbLine
 10
-607.0552516627956
 20
2.39191416147591
 30
0.0
 11
-557.0553341427365
 21
3.891832506334509
 31
0.0
  0
LINE
  5
175
330
1F
100
AcDbEntity
  8
B-0_通り芯
  6
Continuous
 62
     3
370
     9
100
AcDbLine
 10
-607.0552516627956
 20
2.39191416147591
 30
0.0
 11
-607.0552516627956
 21
91.39187374630495
 31
0.0
  0
LINE
  5
176
330
1F
100
AcDbEntity
  8
B-0_通り芯
  6
Continuous
 62
     3
370
     9
100
AcDbLine
 10
-557.0553341427365
 20
3.891832506334509
 30
0.0
 11
-557.0553341427365
 21
89.89195540144635
 31
0.0
  0
LINE
  5
177
330
1F
100
AcDbEntity
  8
B-0_通り芯
  6
Continuous
 62
     3
370
     9
100
AcDbLine
 10
-482.0552722827808
 20
-120.6079472722234
 30
0.0
 11
-352.0554001266892
 21
-120.6079472722234
 31
0.0
  0
LINE
  5
178
330
1F
100
AcDbEntity
  8
B-0_通り芯
  6
Continuous
 62
     3
370
     9
100
AcDbLine
 10
-352.0554001266892
 20
-120.6079472722234
 30
0.0
 11
-352.0554001266892
 21
-160.6079555202174
 31
0.0
  0
LINE
  5
179
330
1F
100
AcDbEntity
  8
B-0_通り芯
  6
Continuous
 62
     3
370
     9
100
AcDbLine
 10
-352.0554001266892
 20
-160.6079555202174
 30
0.0
 11
-482.0552722827808
 21
-160.6079555202174
 31
0.0
  0
LINE
  5
17A
330
1F
100
AcDbEntity
  8
B-0_通り芯
  6
Continuous
 62
     3
370
     9
100
AcDbLine
 10
-482.0552722827808
 20
-160.6079555202174
 30
0.0
 11
-482.0552722827808
 21
-120.6079472722234
 31
0.0
  0
LINE
  5
17B
330
1F
100
AcDbEntity
  8
B-0_通り芯
  6
Continuous
 62
     3
370
     9
100
AcDbLine
 10
-462.655309728674
 20
-134.5078793087521
 30
0.0
 11
-371.4554245407517
 21
-134.5078793087521
 31
0.0
  0
LINE
  5
17C
330
1F
100
AcDbEntity
  8
B-0_通り芯
  6
Continuous
 62
     3
370
     9
100
AcDbLine
 10
-371.4554245407517
 20
-134.5078793087521
 30
0.0
 11
-371.4554245407517
 21
-146.7080234836887
 31
0.0
  0
LINE
  5
17D
330
1F
100
AcDbEntity
  8
B-0_通り芯
  6
Continuous
 62
     3
370
     9
100
AcDbLine
 10
-371.4554245407517
 20
-146.7080234836887
 30
0.0
 11
-462.655309728674
 21
-146.7080234836887
 31
0.0
  0
LINE
  5
17E
330
1F
100
AcDbEntity
  8
B-0_通り芯
  6
Continuous
 62
     3
370
     9
100
AcDbLine
 10
-462.655309728674
 20
-146.7080234836887
 30
0.0
 11
-462.655309728674
 21
-134.5078793087521
 31
0.0
  0
LINE
  5
17F
330
1F
100
AcDbEntity
  8
B-0_通り芯
  6
Continuous
 62
     3
370
     9
100
AcDbLine
 10
-492.0554289946685
 20
-170.6079885121938
 30
0.0
 11
-494.0554232210727
 21
-140.6080751161317
 31
0.0
  0
LINE
  5
180
330
1F
100
AcDbEntity
  8
B-0_通り芯
  6
Continuous
 62
     3
370
     9
100
AcDbLine
 10
-342.0553671347128
 20
-170.6079885121938
 30
0.0
 11
-340.0553729083088
 21
-140.6080751161317
 31
0.0
  0
LINE
  5
181
330
1F
100
AcDbEntity
  8
B-0_通り芯
  6
Continuous
 62
     3
370
     9
100
AcDbLine
 10
-492.0554289946685
 20
-170.6079885121938
 30
0.0
 11
-342.0553671347128
 21
-170.6079885121938
 31
0.0
  0
LINE
  5
182
330
1F
100
AcDbEntity
  8
B-0_通り芯
  6
Continuous
 62
     3
370
     9
100
AcDbLine
 10
-420.0554512642526
 20
-6.608090787320435
 30
0.0
 11
-420.0554512642526
 21
-89.60794397302578
 31
0.0
  0
LINE
  5
183
330
1F
100
AcDbEntity
  8
B-0_通り芯
  6
Continuous
 62
     3
370
     9
100
AcDbLine
 10
-414.0554067250844
 20
-6.608090787320435
 30
0.0
 11
-414.0554067250844
 21
-89.60794397302578
 31
0.0
  0
LINE
  5
184
330
1F
100
AcDbEntity
  8
B-0_通り芯
  6
Continuous
 62
     3
370
     9
100
AcDbLine
 10
-412.5554265202703
 20
-8.1079472722233
 30
0.0
 11
-412.5554265202703
 21
-88.10808748812292
 31
0.0
  0
LINE
  5
185
330
1F
100
AcDbEntity
  8
B-0_通り芯
  6
Continuous
 62
     3
370
     9
100
AcDbLine
 10
-421.5554314690667
 20
-8.1079472722233
 30
0.0
 11
-421.5554314690667
 21
-88.10808748812292
 31
0.0
  0
LINE
  5
186
330
1F
100
AcDbEntity
  8
B-0_通り芯
  6
Continuous
 62
     3
370
     9
100
AcDbLine
 10
-412.5554265202703
 20
-103.108013256176
 30
0.0
 11
-412.5554265202703
 21
-120.6079472722234
 31
0.0
  0
LINE
  5
187
330
1F
100
AcDbEntity
  8
B-0_通り芯
  6
Continuous
 62
     3
370
     9
100
AcDbLine
 10
-414.0554067250844
 20
-101.6080949113176
 30
0.0
 11
-414.0554067250844
 21
-120.6079472722234
 31
0.0
  0
LINE
  5
188
330
1F
100
AcDbEntity
  8
B-0_通り芯
  6
Continuous
 62
     3
370
     9
100
AcDbLine
 10
-420.0554512642526
 20
-101.6080949113176
 30
0.0
 11
-420.0554512642526
 21
-120.6079472722234
 31
0.0
  0
LINE
  5
189
330
1F
100
AcDbEntity
  8
B-0_通り芯
  6
Continuous
 62
     3
370
     9
100
AcDbLine
 10
-421.5554314690667
 20
-103.108013256176
 30
0.0
 11
-421.5554314690667
 21
-120.6079472722234
 31
0.0
  0
LINE
  5
18A
330
1F
100
AcDbEntity
  8
B-0_通り芯
  6
Continuous
 62
     3
370
     9
100
AcDbLine
 10
-421.5554314690667
 20
-170.6079885121938
 30
0.0
 11
-420.0554512642526
 21
-190.6080544961465
 31
0.0
  0
LINE
  5
18B
330
1F
100
AcDbEntity
  8
B-0_通り芯
  6
Continuous
 62
     3
370
     9
100
AcDbLine
 10
-412.5554265202703
 20
-170.6079885121938
 30
0.0
 11
-414.0554067250844
 21
-190.6080544961465
 31
0.0
  0
LINE
  5
18C
330
1F
100
AcDbEntity
  8
B-0_通り芯
  6
Continuous
 62
     3
370
     9
100
AcDbLine
 10
-420.0554512642526
 20
-170.6079885121938
 30
0.0
 11
-420.0554512642526
 21
-190.6080544961465
 31
0.0
  0
LINE
  5
18D
330
1F
100
AcDbEntity
  8
B-0_通り芯
  6
Continuous
 62
     3
370
     9
100
AcDbLine
 10
-414.0554067250844
 20
-170.6079885121938
 30
0.0
 11
-414.0554067250844
 21
-190.6080544961465
 31
0.0
  0
LINE
  5
18E
330
1F
100
AcDbEntity
  8
B-0_通り芯
  6
Continuous
 62
     3
370
     9
100
AcDbLine
 10
-515.0553935282938
 20
-6.608090787320435
 30
0.0
 11
-515.0553935282938
 21
-89.60794397302578
 31
0.0
  0
LINE
  5
18F
330
1F
100
AcDbEntity
  8
B-0_通り芯
  6
Continuous
 62
     3
370
     9
100
AcDbLine
 10
-509.0553489891258
 20
-6.608090787320435
 30
0.0
 11
-509.0553489891258
 21
-89.60794397302578
 31
0.0
  0
LINE
  5
190
330
1F
100
AcDbEntity
  8
B-0_通り芯
  6
Continuous
 62
     3
370
     9
100
AcDbLine
 10
-507.5553687843117
 20
-8.1079472722233
 30
0.0
 11
-507.5553687843117
 21
-88.10808748812292
 31
0.0
  0
LINE
  5
191
330
1F
100
AcDbEntity
  8
B-0_通り芯
  6
Continuous
 62
     3
370
     9
100
AcDbLine
 10
-516.5553737331081
 20
-8.1079472722233
 30
0.0
 11
-516.5553737331081
 21
-88.10808748812292
 31
0.0
  0
LINE
  5
192
330
1F
100
AcDbEntity
  8
B-0_通り芯
  6
Continuous
 62
     3
370
     9
100
AcDbLine
 10
-325.0554471402555
 20
-6.608090787320435
 30
0.0
 11
-325.0554471402555
 21
-89.60794397302578
 31
0.0
  0
LINE
  5
193
330
1F
100
AcDbEntity
  8
B-0_通り芯
  6
Continuous
 62
     3
370
     9
100
AcDbLine
 10
-319.0553407411318
 20
-6.608090787320435
 30
0.0
 11
-319.0553407411318
 21
-89.60794397302578
 31
0.0
  0
LINE
  5
194
330
1F
100
AcDbEntity
  8
B-0_通り芯
  6
Continuous
 62
     3
370
     9
100
AcDbLine
 10
-317.5554223962732
 20
-8.1079472722233
 30
0.0
 11
-317.5554223962732
 21
-88.10808748812292
 31
0.0
  0
LINE
  5
195
330
1F
100
AcDbEntity
  8
B-0_通り芯
  6
Continuous
 62
     3
370
     9
100
AcDbLine
 10
-326.555365485114
 20
-8.1079472722233
 30
0.0
 11
-326.555365485114
 21
-88.10808748812292
 31
0.0
  0
LINE
  5
196
330
1F
100
AcDbEntity
  8
B-0_通り芯
  6
Continuous
 62
     3
370
     9
100
AcDbLine
 10
-515.0553935282938
 20
-101.6080949113176
 30
0.0
 11
-515.0553935282938
 21
-190.6080544961465
 31
0.0
  0
LINE
  5
197
330
1F
100
AcDbEntity
  8
B-0_通り芯
  6
Continuous
 62
     3
370
     9
100
AcDbLine
 10
-509.0553489891258
 20
-101.6080949113176
 30
0.0
 11
-509.0553489891258
 21
-190.6080544961465
 31
0.0
  0
LINE
  5
198
330
1F
100
AcDbEntity
  8
B-0_通り芯
  6
Continuous
 62
     3
370
     9
100
AcDbLine
 10
-325.0554471402555
 20
-101.6080949113176
 30
0.0
 11
-325.0554471402555
 21
-190.6080544961465
 31
0.0
  0
LINE
  5
199
330
1F
100
AcDbEntity
  8
B-0_通り芯
  6
Continuous
 62
     3
370
     9
100
AcDbLine
 10
-319.0553407411318
 20
-101.6080949113176
 30
0.0
 11
-319.0553407411318
 21
-190.6080544961465
 31
0.0
  0
LINE
  5
19A
330
1F
100
AcDbEntity
  8
B-0_通り芯
  6
Continuous
 62
     3
370
     9
100
AcDbLine
 10
-516.5553737331081
 20
-140.6080751161317
 30
0.0
 11
-515.0553935282938
 21
-190.6080544961465
 31
0.0
  0
LINE
  5
19B
330
1F
100
AcDbEntity
  8
B-0_通り芯
  6
Continuous
 62
     3
370
     9
100
AcDbLine
 10
-516.5553737331081
 20
-103.108013256176
 30
0.0
 11
-516.5553737331081
 21
-140.6080751161317
 31
0.0
  0
LINE
  5
19C
330
1F
100
AcDbEntity
  8
B-0_通り芯
  6
Continuous
 62
     3
370
     9
100
AcDbLine
 10
-509.0553489891258
 20
-190.6080544961465
 30
0.0
 11
-507.5553687843117
 21
-140.6080751161317
 31
0.0
  0
LINE
  5
19D
330
1F
100
AcDbEntity
  8
B-0_通り芯
  6
Continuous
 62
     3
370
     9
100
AcDbLine
 10
-507.5553687843117
 20
-103.108013256176
 30
0.0
 11
-507.5553687843117
 21
-140.6080751161317
 31
0.0
  0
LINE
  5
19E
330
1F
100
AcDbEntity
  8
B-0_通り芯
  6
Continuous
 62
     3
370
     9
100
AcDbLine
 10
-325.0554471402555
 20
-190.6080544961465
 30
0.0
 11
-326.555365485114
 21
-140.6080751161317
 31
0.0
  0
LINE
  5
19F
330
1F
100
AcDbEntity
  8
B-0_通り芯
  6
Continuous
 62
     3
370
     9
100
AcDbLine
 10
-326.555365485114
 20
-103.108013256176
 30
0.0
 11
-326.555365485114
 21
-140.6080751161317
 31
0.0
  0
LINE
  5
1A0
330
1F
100
AcDbEntity
  8
B-0_通り芯
  6
Continuous
 62
     3
370
     9
100
AcDbLine
 10
-317.5554223962732
 20
-140.6080751161317
 30
0.0
 11
-319.0553407411318
 21
-190.6080544961465
 31
0.0
  0
LINE
  5
1A1
330
1F
100
AcDbEntity
  8
B-0_通り芯
  6
Continuous
 62
     3
370
     9
100
AcDbLine
 10
-317.5554223962732
 20
-103.108013256176
 30
0.0
 11
-317.5554223962732
 21
-140.6080751161317
 31
0.0
  0
LINE
  5
1A2
330
1F
100
AcDbEntity
  8
B-0_通り芯
  6
Continuous
 62
     3
370
     9
100
AcDbLine
 10
-414.0554067250844
 20
-190.6080544961465
 30
0.0
 11
-325.0554471402555
 21
-190.6080544961465
 31
0.0
  0
LINE
  5
1A3
330
1F
100
AcDbEntity
  8
B-0_通り芯
  6
Continuous
 62
     3
370
     9
100
AcDbLine
 10
-319.0553407411318
 20
-190.6080544961465
 30
0.0
 11
-227.0554207466743
 21
-190.6080544961465
 31
0.0
  0
LINE
  5
1A4
330
1F
100
AcDbEntity
  8
B-0_通り芯
  6
Continuous
 62
     3
370
     9
100
AcDbLine
 10
-607.0552516627956
 20
-190.6080544961465
 30
0.0
 11
-515.0553935282938
 21
-190.6080544961465
 31
0.0
  0
LINE
  5
1A5
330
1F
100
AcDbEntity
  8
B-0_通り芯
  6
Continuous
 62
     3
370
     9
100
AcDbLine
 10
-509.0553489891258
 20
-190.6080544961465
 30
0.0
 11
-420.0554512642526
 21
-190.6080544961465
 31
0.0
  0
LINE
  5
1A6
330
1F
100
AcDbEntity
  8
B-0_通り芯
  6
Continuous
 62
     3
370
     9
100
AcDbLine
 10
-557.0553341427365
 20
-140.6080751161317
 30
0.0
 11
-516.5553737331081
 21
-140.6080751161317
 31
0.0
  0
LINE
  5
1A7
330
1F
100
AcDbEntity
  8
B-0_通り芯
  6
Continuous
 62
     3
370
     9
100
AcDbLine
 10
-340.0553729083088
 20
-140.6080751161317
 30
0.0
 11
-326.555365485114
 21
-140.6080751161317
 31
0.0
  0
LINE
  5
1A8
330
1F
100
AcDbEntity
  8
B-0_通り芯
  6
Continuous
 62
     3
370
     9
100
AcDbLine
 10
-494.0554232210727
 20
-102.1078614930849
 30
0.0
 11
-494.0554232210727
 21
-140.6080751161317
 31
0.0
  0
LINE
  5
1A9
330
1F
100
AcDbEntity
  8
B-0_通り芯
  6
Continuous
 62
     3
370
     9
100
AcDbLine
 10
-492.0554289946685
 20
-100.608005008182
 30
0.0
 11
-492.0554289946685
 21
-170.6079885121938
 31
0.0
  0
LINE
  5
1AA
330
1F
100
AcDbEntity
  8
B-0_通り芯
  6
Continuous
 62
     3
370
     9
100
AcDbLine
 10
-492.11895916913
 20
-100.1079909865921
 30
0.0
 11
-424.5554537386508
 21
-100.1079909865921
 31
0.0
  0
LINE
  5
1AB
330
1F
100
AcDbEntity
  8
B-0_通り芯
  6
Continuous
 62
     3
370
     9
100
AcDbLine
 10
-340.0553729083088
 20
-102.1078614930849
 30
0.0
 11
-340.0553729083088
 21
-140.6080751161317
 31
0.0
  0
LINE
  5
1AC
330
1F
100
AcDbEntity
  8
B-0_通り芯
  6
Continuous
 62
     3
370
     9
100
AcDbLine
 10
-342.0553671347128
 20
-100.608005008182
 30
0.0
 11
-342.0553671347128
 21
-170.6079885121938
 31
0.0
  0
LINE
  5
1AD
330
1F
100
AcDbEntity
  8
B-0_通り芯
  6
Continuous
 62
     3
370
     9
100
AcDbLine
 10
-409.5554042506862
 20
-100.1079909865921
 30
0.0
 11
-341.9918369602511
 21
-100.1079909865921
 31
0.0
  0
LINE
  5
1AE
330
1F
100
AcDbEntity
  8
B-0_通り芯
  6
Continuous
 62
     3
370
     9
100
AcDbLine
 10
-496.0554793074324
 20
-100.1079909865921
 30
0.0
 11
-504.5553465147276
 21
-100.1079909865921
 31
0.0
  0
LINE
  5
1AF
330
1F
100
AcDbEntity
  8
B-0_通り芯
  6
Continuous
 62
     3
370
     9
100
AcDbLine
 10
-506.0553885794974
 20
-98.60807264173346
 30
0.0
 11
-423.0554116738808
 21
-98.60807264173346
 31
0.0
  0
LINE
  5
1B0
330
1F
100
AcDbEntity
  8
B-0_通り芯
  6
Continuous
 62
     3
370
     9
100
AcDbLine
 10
-504.5553465147276
 20
-91.1081097577069
 30
0.0
 11
-424.5554537386508
 21
-91.1081097577069
 31
0.0
  0
LINE
  5
1B1
330
1F
100
AcDbEntity
  8
B-0_通り芯
  6
Continuous
 62
     3
370
     9
100
AcDbLine
 10
-506.0553885794974
 20
-92.60802810256536
 30
0.0
 11
-423.0554116738808
 21
-92.60802810256536
 31
0.0
  0
LINE
  5
1B2
330
1F
100
AcDbEntity
  8
B-0_通り芯
  6
Continuous
 62
     3
370
     9
100
AcDbLine
 10
-338.0553168219489
 20
-100.1079909865921
 30
0.0
 11
-329.5554496146536
 21
-100.1079909865921
 31
0.0
  0
LINE
  5
1B3
330
1F
100
AcDbEntity
  8
B-0_通り芯
  6
Continuous
 62
     3
370
     9
100
AcDbLine
 10
-411.0553844555005
 20
-98.60807264173346
 30
0.0
 11
-328.0554694098395
 21
-98.60807264173346
 31
0.0
  0
LINE
  5
1B4
330
1F
100
AcDbEntity
  8
B-0_通り芯
  6
Continuous
 62
     3
370
     9
100
AcDbLine
 10
-411.0553844555005
 20
-92.60802810256536
 30
0.0
 11
-328.0554694098395
 21
-92.60802810256536
 31
0.0
  0
LINE
  5
1B5
330
1F
100
AcDbEntity
  8
B-0_通り芯
  6
Continuous
 62
     3
370
     9
100
AcDbLine
 10
-409.5554042506862
 20
-91.1081097577069
 30
0.0
 11
-329.5554496146536
 21
-91.1081097577069
 31
0.0
  0
LINE
  5
1B6
330
1F
100
AcDbEntity
  8
B-0_通り芯
  6
Continuous
 62
     3
370
     9
100
AcDbLine
 10
-314.5554001266892
 20
-100.1079909865921
 30
0.0
 11
-277.0554619866448
 21
-100.1079909865921
 31
0.0
  0
LINE
  5
1B7
330
1F
100
AcDbEntity
  8
B-0_通り芯
  6
Continuous
 62
     3
370
     9
100
AcDbLine
 10
-277.0554619866448
 20
-100.1079909865921
 30
0.0
 11
-227.0554207466743
 21
-98.60807264173346
 31
0.0
  0
LINE
  5
1B8
330
1F
100
AcDbEntity
  8
B-0_通り芯
  6
Continuous
 62
     3
370
     9
100
AcDbLine
 10
-314.5554001266892
 20
-91.1081097577069
 30
0.0
 11
-277.0554619866448
 21
-91.1081097577069
 31
0.0
  0
LINE
  5
1B9
330
1F
100
AcDbEntity
  8
B-0_通り芯
  6
Continuous
 62
     3
370
     9
100
AcDbLine
 10
-227.0554207466743
 20
-92.60802810256536
 30
0.0
 11
-277.0554619866448
 21
-91.1081097577069
 31
0.0
  0
LINE
  5
1BA
330
1F
100
AcDbEntity
  8
B-0_通り芯
  6
Continuous
 62
     3
370
     9
100
AcDbLine
 10
-277.0554619866448
 20
-140.6080751161317
 30
0.0
 11
-277.0554619866448
 21
-100.1079909865921
 31
0.0
  0
LINE
  5
1BB
330
1F
100
AcDbEntity
  8
B-0_通り芯
  6
Continuous
 62
     3
370
     9
100
AcDbLine
 10
-227.0554207466743
 20
-190.6080544961465
 30
0.0
 11
-227.0554207466743
 21
-98.60807264173346
 31
0.0
  0
LINE
  5
1BC
330
1F
100
AcDbEntity
  8
B-0_通り芯
  6
Continuous
 62
     3
370
     9
100
AcDbLine
 10
-316.055442191459
 20
-98.60807264173346
 30
0.0
 11
-227.0554207466743
 21
-98.60807264173346
 31
0.0
  0
LINE
  5
1BD
330
1F
100
AcDbEntity
  8
B-0_通り芯
  6
Continuous
 62
     3
370
     9
100
AcDbLine
 10
-316.055442191459
 20
-92.60802810256536
 30
0.0
 11
-227.0554207466743
 21
-92.60802810256536
 31
0.0
  0
LINE
  5
1BE
330
1F
100
AcDbEntity
  8
B-0_通り芯
  6
Continuous
 62
     3
370
     9
100
AcDbLine
 10
-424.5554537386508
 20
-5.108048722550649
 30
0.0
 11
-504.5553465147276
 21
-5.108048722550649
 31
0.0
  0
LINE
  5
1BF
330
1F
100
AcDbEntity
  8
B-0_通り芯
  6
Continuous
 62
     3
370
     9
100
AcDbLine
 10
-423.0554116738808
 20
-3.60800665778072
 30
0.0
 11
-506.0553885794974
 21
-3.60800665778072
 31
0.0
  0
LINE
  5
1C0
330
1F
100
AcDbEntity
  8
B-0_通り芯
  6
Continuous
 62
     3
370
     9
100
AcDbLine
 10
-409.5554042506862
 20
-5.108048722550649
 30
0.0
 11
-329.5554496146536
 21
-5.108048722550649
 31
0.0
  0
LINE
  5
1C1
330
1F
100
AcDbEntity
  8
B-0_通り芯
  6
Continuous
 62
     3
370
     9
100
AcDbLine
 10
-411.0553844555005
 20
-3.60800665778072
 30
0.0
 11
-328.0554694098395
 21
-3.60800665778072
 31
0.0
  0
LINE
  5
1C2
330
1F
100
AcDbEntity
  8
B-0_通り芯
  6
Continuous
 62
     3
370
     9
100
AcDbLine
 10
-519.5553960026921
 20
-100.1079909865921
 30
0.0
 11
-557.0553341427365
 21
-100.1079909865921
 31
0.0
  0
LINE
  5
1C3
330
1F
100
AcDbEntity
  8
B-0_通り芯
  6
Continuous
 62
     3
370
     9
100
AcDbLine
 10
-557.0553341427365
 20
-91.1081097577069
 30
0.0
 11
-519.5553960026921
 21
-91.1081097577069
 31
0.0
  0
LINE
  5
1C4
330
1F
100
AcDbEntity
  8
B-0_通り芯
  6
Continuous
 62
     3
370
     9
100
AcDbLine
 10
-607.0552516627956
 20
-98.60807264173346
 30
0.0
 11
-607.0552516627956
 21
-190.6080544961465
 31
0.0
  0
LINE
  5
1C5
330
1F
100
AcDbEntity
  8
B-0_通り芯
  6
Continuous
 62
     3
370
     9
100
AcDbLine
 10
-557.0553341427365
 20
-100.1079909865921
 30
0.0
 11
-557.0553341427365
 21
-140.6080751161317
 31
0.0
  0
LINE
  5
1C6
330
1F
100
AcDbEntity
  8
B-0_通り芯
  6
Continuous
 62
     3
370
     9
100
AcDbLine
 10
-607.0552516627956
 20
-98.60807264173346
 30
0.0
 11
-557.0553341427365
 21
-100.1079909865921
 31
0.0
  0
LINE
  5
1C7
330
1F
100
AcDbEntity
  8
B-0_通り芯
  6
Continuous
 62
     3
370
     9
100
AcDbLine
 10
-557.0553341427365
 20
-91.1081097577069
 30
0.0
 11
-607.0552516627956
 21
-92.60802810256536
 31
0.0
  0
LINE
  5
1C8
330
1F
100
AcDbEntity
  8
B-0_通り芯
  6
Continuous
 62
     3
370
     9
100
AcDbLine
 10
-607.0552516627956
 20
-98.60807264173346
 30
0.0
 11
-518.0554157978779
 21
-98.60807264173346
 31
0.0
  0
LINE
  5
1C9
330
1F
100
AcDbEntity
  8
B-0_通り芯
  6
Continuous
 62
     3
370
     9
100
AcDbLine
 10
-607.0552516627956
 20
-92.60802810256536
 30
0.0
 11
-518.0554157978779
 21
-92.60802810256536
 31
0.0
  0
LINE
  5
1CA
330
1F
100
AcDbEntity
  8
B-0_通り芯
  6
Continuous
 62
     3
370
     9
100
AcDbLine
 10
-314.5554001266892
 20
-5.108048722550649
 30
0.0
 11
-277.0554619866448
 21
-5.108048722550649
 31
0.0
  0
LINE
  5
1CB
330
1F
100
AcDbEntity
  8
B-0_通り芯
  6
Continuous
 62
     3
370
     9
100
AcDbLine
 10
-277.0554619866448
 20
-91.1081097577069
 30
0.0
 11
-277.0554619866448
 21
-5.108048722550649
 31
0.0
  0
LINE
  5
1CC
330
1F
100
AcDbEntity
  8
B-0_通り芯
  6
Continuous
 62
     3
370
     9
100
AcDbLine
 10
-277.0554619866448
 20
-5.108048722550649
 30
0.0
 11
-227.0554207466743
 21
-3.60800665778072
 31
0.0
  0
LINE
  5
1CD
330
1F
100
AcDbEntity
  8
B-0_通り芯
  6
Continuous
 62
     3
370
     9
100
AcDbLine
 10
-316.055442191459
 20
-3.60800665778072
 30
0.0
 11
-227.0554207466743
 21
-3.60800665778072
 31
0.0
  0
LINE
  5
1CE
330
1F
100
AcDbEntity
  8
B-0_通り芯
  6
Continuous
 62
     3
370
     9
100
AcDbLine
 10
-518.0554157978779
 20
-3.60800665778072
 30
0.0
 11
-607.0552516627956
 21
-3.60800665778072
 31
0.0
  0
LINE
  5
1CF
330
1F
100
AcDbEntity
  8
B-0_通り芯
  6
Continuous
 62
     3
370
     9
100
AcDbLine
 10
-519.5553960026921
 20
-5.108048722550649
 30
0.0
 11
-557.0553341427365
 21
-5.108048722550649
 31
0.0
  0
LINE
  5
1D0
330
1F
100
AcDbEntity
  8
B-0_通り芯
  6
Continuous
 62
     3
370
     9
100
AcDbLine
 10
-607.0552516627956
 20
-3.60800665778072
 30
0.0
 11
-557.0553341427365
 21
-5.108048722550649
 31
0.0
  0
LINE
  5
1D1
330
1F
100
AcDbEntity
  8
B-0_通り芯
  6
Continuous
 62
     3
370
     9
100
AcDbLine
 10
-607.0552516627956
 20
-3.60800665778072
 30
0.0
 11
-607.0552516627956
 21
-92.60802810256536
 31
0.0
  0
LINE
  5
1D2
330
1F
100
AcDbEntity
  8
B-0_通り芯
  6
Continuous
 62
     3
370
     9
100
AcDbLine
 10
-557.0553341427365
 20
-5.108048722550649
 30
0.0
 11
-557.0553341427365
 21
-91.1081097577069
 31
0.0
  0
LINE
  5
1D3
330
1F
100
AcDbEntity
  8
B-0_通り芯
  6
Continuous
 62
     3
370
     9
100
AcDbLine
 10
-642.0553671347127
 20
-225.6081081081081
 30
0.0
 11
-192.0554289946685
 21
-225.6081081081081
 31
0.0
  0
LINE
  5
1D4
330
1F
100
AcDbEntity
  8
B-0_通り芯
  6
Continuous
 62
     3
370
     9
100
AcDbLine
 10
-192.0554289946685
 20
224.3918918918919
 30
0.0
 11
-192.0554289946685
 21
-225.6081081081081
 31
0.0
  0
LINE
  5
1D5
330
1F
100
AcDbEntity
  8
B-0_通り芯
  6
Continuous
 62
     3
370
     9
100
AcDbLine
 10
-642.0553671347127
 20
224.3918918918919
 30
0.0
 11
-192.0554289946685
 21
224.3918918918919
 31
0.0
  0
LINE
  5
1D6
330
1F
100
AcDbEntity
  8
B-0_通り芯
  6
Continuous
 62
     3
370
     9
100
AcDbLine
 10
-642.0553671347127
 20
224.3918918918919
 30
0.0
 11
-642.0553671347127
 21
-225.6081081081081
 31
0.0
  0
LINE
  5
1D7
330
1F
100
AcDbEntity
  8
B-0_通り芯
  6
Continuous
 62
     3
370
     9
100
AcDbLine
 10
-635.0552945523648
 20
217.391819309544
 30
0.0
 11
-635.0552945523648
 21
-218.6080355257601
 31
0.0
  0
LINE
  5
1D8
330
1F
100
AcDbEntity
  8
B-0_通り芯
  6
Continuous
 62
     3
370
     9
100
AcDbLine
 10
-635.0552945523648
 20
-218.6080355257601
 30
0.0
 11
-199.0553159971495
 21
-218.6080355257601
 31
0.0
  0
LINE
  5
1D9
330
1F
100
AcDbEntity
  8
B-0_通り芯
  6
Continuous
 62
     3
370
     9
100
AcDbLine
 10
-635.0552945523648
 20
217.391819309544
 30
0.0
 11
-199.0553159971495
 21
217.391819309544
 31
0.0
  0
LINE
  5
1DA
330
1F
100
AcDbEntity
  8
B-0_通り芯
  6
Continuous
 62
     3
370
     9
100
AcDbLine
 10
-199.0553159971495
 20
217.391819309544
 30
0.0
 11
-199.0553159971495
 21
-218.6080355257601
 31
0.0
  0
LINE
  5
1DB
330
1F
100
AcDbEntity
  8
B-0_通り芯
  6
Continuous
 62
     3
370
     9
100
AcDbLine
 10
-642.0553671347127
 20
-225.6081081081081
 30
0.0
 11
-635.0552945523648
 21
-218.6080355257601
 31
0.0
  0
LINE
  5
1DC
330
1F
100
AcDbEntity
  8
B-0_通り芯
  6
Continuous
 62
     3
370
     9
100
AcDbLine
 10
-199.0553159971495
 20
-218.6080355257601
 30
0.0
 11
-192.0554289946685
 21
-225.6081081081081
 31
0.0
  0
LINE
  5
1DD
330
1F
100
AcDbEntity
  8
B-0_通り芯
  6
Continuous
 62
     3
370
     9
100
AcDbLine
 10
-199.0553159971495
 20
217.391819309544
 30
0.0
 11
-192.0554289946685
 21
224.3918918918919
 31
0.0
  0
LINE
  5
1DE
330
1F
100
AcDbEntity
  8
B-0_通り芯
  6
Continuous
 62
     3
370
     9
100
AcDbLine
 10
-642.0553671347127
 20
224.3918918918919
 30
0.0
 11
-635.0552945523648
 21
217.391819309544
 31
0.0
  0
LINE
  5
1DF
330
1F
100
AcDbEntity
  8
B-0_通り芯
  6
JWW_CENTER2
 62
     3
370
     9
100
AcDbLine
 10
-489.470487027555
 20
-140.6078895362648
 30
0.0
 11
-349.2223378774281
 21
-140.6078895362648
 31
0.0
  0
LINE
  5
1E0
330
1F
100
AcDbEntity
  8
B-0_通り芯
  6
JWW_CENTER2
 62
     3
370
     9
100
AcDbLine
 10
-489.1047091097445
 20
139.3917970399599
 30
0.0
 11
-344.784875818201
 21
139.3917970399599
 31
0.0
  0
LINE
  5
1E1
330
1F
100
AcDbEntity
  8
B-0_通り芯
  6
Continuous
 62
     3
370
     9
100
AcDbLine
 10
422.9732616527662
 20
6.56560536977409
 30
0.0
 11
422.9732616527662
 21
87.21818253800677
 31
0.0
  0
LINE
  5
1E2
330
1F
100
AcDbEntity
  8
B-0_通り芯
  6
Continuous
 62
     3
370
     9
100
AcDbLine
 10
413.9731329840583
 20
100.5754790434966
 30
0.0
 11
413.9731329840583
 21
114.3919001398861
 31
0.0
  0
LINE
  5
1E3
330
1F
100
AcDbEntity
  8
B-0_通り芯
  6
Continuous
 62
     3
370
     9
100
AcDbLine
 10
419.9733012431378
 20
100.1279222643053
 30
0.0
 11
419.9733012431378
 21
134.3919042638831
 31
0.0
  0
LINE
  5
1E4
330
1F
100
AcDbEntity
  8
B-0_通り芯
  6
Continuous
 62
     3
370
     9
100
AcDbLine
 10
419.9733012431378
 20
174.3919125118772
 30
0.0
 11
420.9732055664062
 21
174.3919125118772
 31
0.0
  0
LINE
  5
1E5
330
1F
100
AcDbEntity
  8
B-0_通り芯
  6
Continuous
 62
     3
370
     9
100
AcDbLine
 10
409.9728970914273
 20
189.3918382799303
 30
0.0
 11
413.9731329840583
 21
174.0066487080342
 31
0.0
  0
LINE
  5
1E6
330
1F
100
AcDbEntity
  8
B-0_通り芯
  6
Continuous
 62
     3
370
     9
100
AcDbLine
 10
413.9731329840583
 20
164.3918795199008
 30
0.0
 11
413.9731329840583
 21
174.0066487080342
 31
0.0
  0
LINE
  5
1E7
330
1F
100
AcDbEntity
  8
B-0_通り芯
  6
Continuous
 62
     3
370
     9
100
AcDbLine
 10
419.9733012431378
 20
144.391813535948
 30
0.0
 11
419.9733012431378
 21
174.2506243731525
 31
0.0
  0
LINE
  5
1E8
330
1F
100
AcDbEntity
  8
B-0_通り芯
  6
Continuous
 62
     3
370
     9
100
AcDbLine
 10
415.9731890704182
 20
189.3918382799303
 30
0.0
 11
419.9733012431378
 21
174.2506243731525
 31
0.0
  0
LINE
  5
1E9
330
1F
100
AcDbEntity
  8
B-0_通り芯
  6
JWW_CENTER2
 62
     7
370
     9
100
AcDbLine
 10
356.3077771985854
 20
-0.6081081081080697
 30
0.0
 11
449.0030649546031
 21
-0.6081081081080697
 31
0.0
  0
LINE
  5
1EA
330
1F
100
AcDbEntity
  8
B-0_通り芯
  6
Continuous
 62
     3
370
     9
100
AcDbLine
 10
428.9733061919341
 20
-0.6081081081080697
 30
0.0
 11
428.9733061919341
 21
93.15593410182643
 31
0.0
  0
LINE
  5
1EB
330
1F
100
AcDbEntity
  8
B-0_通り芯
  6
Continuous
 62
     3
370
     9
100
AcDbLine
 10
409.9728970914273
 20
94.39189601588893
 30
0.0
 11
409.9728970914273
 21
-0.6081081081080697
 31
0.0
  0
LINE
  5
1EC
330
1F
100
AcDbEntity
  8
B-0_通り芯
  6
Continuous
 62
     3
370
     9
100
AcDbLine
 10
372.9729729729729
 20
-0.6081081081080697
 30
0.0
 11
372.9729729729729
 21
94.39189601588893
 31
0.0
  0
LINE
  5
1ED
330
1F
100
AcDbEntity
  8
B-0_通り芯
  6
Continuous
 62
     3
370
     9
100
AcDbLine
 10
369.973136283256
 20
-0.6081081081080697
 30
0.0
 11
369.973136283256
 21
94.39189601588893
 31
0.0
  0
LINE
  5
1EE
330
1F
100
AcDbEntity
  8
B-0_通り芯
  6
Continuous
 62
     3
370
     9
100
AcDbLine
 10
420.3169951567779
 20
-4.801594502217057
 30
0.0
 11
409.9728970914273
 21
-3.60800665778072
 31
0.0
  0
LINE
  5
1EF
330
1F
100
AcDbEntity
  8
B-0_通り芯
  6
Continuous
 62
     3
370
     9
100
AcDbLine
 10
382.5848966031461
 20
-154.1056081411
 30
0.0
 11
372.9729729729729
 21
-156.1080767657305
 31
0.0
  0
LINE
  5
1F0
330
1F
100
AcDbEntity
  8
B-0_通り芯
  6
Continuous
 62
     3
370
     9
100
AcDbLine
 10
382.5848966031461
 20
-127.1105420911634
 30
0.0
 11
372.9729729729729
 21
-125.1078878866659
 31
0.0
  0
LINE
  5
1F1
330
1F
100
AcDbEntity
  8
B-0_通り芯
  6
Continuous
 62
     3
370
     9
100
AcDbLine
 10
384.9730620513091
 20
-130.0475290659311
 30
0.0
 11
384.9730620513091
 21
-151.1687448862436
 31
0.0
  0
LINE
  5
1F2
330
1F
100
AcDbEntity
  8
B-0_通り芯
  6
Continuous
 62
     3
370
     9
100
AcDbLine
 10
392.9729152370143
 20
-153.6080685177365
 30
0.0
 11
419.9733012431378
 21
-153.6080685177365
 31
0.0
  0
LINE
  5
1F3
330
1F
100
AcDbEntity
  8
B-0_通り芯
  6
Continuous
 62
     3
370
     9
100
AcDbLine
 10
392.9729152370143
 20
-127.6080198545714
 30
0.0
 11
419.9733012431378
 21
-127.6080198545714
 31
0.0
  0
LINE
  5
1F4
330
1F
100
AcDbEntity
  8
B-0_通り芯
  6
Continuous
 62
     3
370
     9
100
AcDbLine
 10
390.9731065904774
 20
-129.6080759409311
 30
0.0
 11
390.9731065904774
 21
-151.6080742913323
 31
0.0
  0
LINE
  5
1F5
330
1F
100
AcDbEntity
  8
B-0_通り芯
  6
Continuous
 62
     3
370
     9
100
AcDbLine
 10
406.4231253959039
 20
-215.6132713524071
 30
0.0
 11
372.9729729729729
 21
-219.4000285380595
 31
0.0
  0
LINE
  5
1F6
330
1F
100
AcDbEntity
  8
B-0_通り芯
  6
Continuous
 62
     3
370
     9
100
AcDbLine
 10
424.4732418575802
 20
-217.8215480495143
 30
0.0
 11
424.4732418575802
 21
-210.6082442000105
 31
0.0
  0
LINE
  5
1F7
330
1F
100
AcDbEntity
  8
B-0_通り芯
  6
Continuous
 62
     3
370
     9
100
AcDbLine
 10
418.9793354756125
 20
-209.1990744101034
 30
0.0
 11
424.4732418575802
 21
-210.6082442000105
 31
0.0
  0
LINE
  5
1F8
330
1F
100
AcDbEntity
  8
B-0_通り芯
  6
Continuous
 62
     3
370
     9
100
AcDbLine
 10
415.9731890704182
 20
-205.3245379473711
 30
0.0
 11
415.9731890704182
 21
-190.6080544961465
 31
0.0
  0
LINE
  5
1F9
330
1F
100
AcDbEntity
  8
B-0_通り芯
  6
Continuous
 62
     3
370
     9
100
AcDbLine
 10
409.9728970914273
 20
-211.6385836214633
 30
0.0
 11
409.9728970914273
 21
-162.6081353264885
 31
0.0
  0
LINE
  5
1FA
330
1F
100
AcDbEntity
  8
B-0_通り芯
  6
Continuous
 62
     3
370
     9
100
AcDbLine
 10
410.9734200142526
 20
-162.6081353264885
 30
0.0
 11
372.9729729729729
 21
-159.6081130569046
 31
0.0
  0
LINE
  5
1FB
330
1F
100
AcDbEntity
  8
B-0_通り芯
  6
Continuous
 62
     3
370
     9
100
AcDbLine
 10
410.9734200142526
 20
-118.6080149057749
 30
0.0
 11
372.9729729729729
 21
-121.6080371753589
 31
0.0
  0
LINE
  5
1FC
330
1F
100
AcDbEntity
  8
B-0_通り芯
  6
Continuous
 62
     3
370
     9
100
AcDbLine
 10
411.4180693755279
 20
-98.82489178631758
 30
0.0
 11
409.9728970914273
 21
-98.60807264173346
 31
0.0
  0
LINE
  5
1FD
330
1F
100
AcDbEntity
  8
B-0_通り芯
  6
Continuous
 62
     3
370
     9
100
AcDbLine
 10
420.3169951567779
 20
-91.41456397804049
 30
0.0
 11
409.9728970914273
 21
-92.60802810256536
 31
0.0
  0
LINE
  5
1FE
330
1F
100
AcDbEntity
  8
B-0_通り芯
  6
Continuous
 62
     3
370
     9
100
AcDbLine
 10
421.078614930849
 20
-99.55527228278086
 30
0.0
 11
427.8674976245779
 21
-96.16095465582774
 31
0.0
  0
LINE
  5
1FF
330
1F
100
AcDbEntity
  8
B-0_通り芯
  6
Continuous
 62
     3
370
     9
100
AcDbLine
 10
430.9731148384714
 20
-144.60806356894
 30
0.0
 11
429.9730867952914
 21
-145.6080297521643
 31
0.0
  0
LINE
  5
200
330
1F
100
AcDbEntity
  8
B-0_通り芯
  6
Continuous
 62
     3
370
     9
100
AcDbLine
 10
429.9730867952914
 20
-145.6080297521643
 30
0.0
 11
429.9730867952914
 21
-135.6079967601879
 31
0.0
  0
LINE
  5
201
330
1F
100
AcDbEntity
  8
B-0_通り芯
  6
Continuous
 62
     3
370
     9
100
AcDbLine
 10
429.9730867952914
 20
-135.6079967601879
 30
0.0
 11
430.9731148384714
 21
-136.6080866633234
 31
0.0
  0
LINE
  5
202
330
1F
100
AcDbEntity
  8
B-0_通り芯
  6
Continuous
 62
     3
370
     9
100
AcDbLine
 10
428.9733061919341
 20
-144.60806356894
 30
0.0
 11
430.9731148384714
 21
-144.60806356894
 31
0.0
  0
LINE
  5
203
330
1F
100
AcDbEntity
  8
B-0_通り芯
  6
Continuous
 62
     3
370
     9
100
AcDbLine
 10
430.9731148384714
 20
-136.6080866633234
 30
0.0
 11
428.9733061919341
 21
-136.6080866633234
 31
0.0
  0
LINE
  5
204
330
1F
100
AcDbEntity
  8
B-0_通り芯
  6
Continuous
 62
     3
370
     9
100
AcDbLine
 10
429.9730867952914
 20
-135.6079967601879
 30
0.0
 11
428.9733061919341
 21
-135.6079967601879
 31
0.0
  0
LINE
  5
205
330
1F
100
AcDbEntity
  8
B-0_通り芯
  6
Continuous
 62
     3
370
     9
100
AcDbLine
 10
430.9731148384714
 20
-144.60806356894
 30
0.0
 11
430.9731148384714
 21
-136.6080866633234
 31
0.0
  0
LINE
  5
206
330
1F
100
AcDbEntity
  8
B-0_通り芯
  6
Continuous
 62
     3
370
     9
100
AcDbLine
 10
428.9733061919341
 20
-145.6080297521643
 30
0.0
 11
429.9730867952914
 21
-145.6080297521643
 31
0.0
  0
LINE
  5
207
330
1F
100
AcDbEntity
  8
B-0_通り芯
  6
Continuous
 62
     3
370
     9
100
AcDbLine
 10
390.9731065904774
 20
-145.6080297521643
 30
0.0
 11
421.9732336095862
 21
-145.6080297521643
 31
0.0
  0
LINE
  5
208
330
1F
100
AcDbEntity
  8
B-0_通り芯
  6
Continuous
 62
     3
370
     9
100
AcDbLine
 10
421.9732336095862
 20
-135.6079967601879
 30
0.0
 11
390.9731065904774
 21
-135.6079967601879
 31
0.0
  0
LINE
  5
209
330
1F
100
AcDbEntity
  8
B-0_通り芯
  6
Continuous
 62
     3
370
     9
100
AcDbLine
 10
420.9732055664062
 20
-105.6078977842589
 30
0.0
 11
420.1135996225719
 21
-105.6078977842589
 31
0.0
  0
LINE
  5
20A
330
1F
100
AcDbEntity
  8
B-0_通り芯
  6
Continuous
 62
     3
370
     9
100
AcDbLine
 10
420.9732055664062
 20
-168.1080421241554
 30
0.0
 11
420.9732055664062
 21
-175.6081287280933
 31
0.0
  0
LINE
  5
20B
330
1F
100
AcDbEntity
  8
B-0_通り芯
  6
Continuous
 62
     3
370
     9
100
AcDbLine
 10
431.9731428816513
 20
-117.1079109810493
 30
0.0
 11
431.9731428816513
 21
-164.1081155313027
 31
0.0
  0
LINE
  5
20C
330
1F
100
AcDbEntity
  8
B-0_通り芯
  6
Continuous
 62
     3
370
     9
100
AcDbLine
 10
420.9732055664062
 20
-113.1079225282411
 30
0.0
 11
420.9732055664062
 21
-105.6078977842589
 31
0.0
  0
LINE
  5
20D
330
1F
100
AcDbEntity
  8
B-0_通り芯
  6
Continuous
 62
     3
370
     9
100
AcDbLine
 10
430.4730389569258
 20
-166.6081237792969
 30
0.0
 11
422.4734332110432
 21
-166.6081237792969
 31
0.0
  0
LINE
  5
20E
330
1F
100
AcDbEntity
  8
B-0_通り芯
  6
Continuous
 62
     3
370
     9
100
AcDbLine
 10
430.4730389569258
 20
-114.6079645930109
 30
0.0
 11
422.4734332110432
 21
-114.6079645930109
 31
0.0
  0
LINE
  5
20F
330
1F
100
AcDbEntity
  8
B-0_通り芯
  6
Continuous
 62
     3
370
     9
100
AcDbLine
 10
432.9731709248313
 20
-117.1079109810493
 30
0.0
 11
432.9731709248313
 21
-164.1081155313027
 31
0.0
  0
LINE
  5
210
330
1F
100
AcDbEntity
  8
B-0_通り芯
  6
Continuous
 62
     3
370
     9
100
AcDbLine
 10
430.4730389569258
 20
-115.6079926361908
 30
0.0
 11
422.4734332110432
 21
-115.6079926361908
 31
0.0
  0
LINE
  5
211
330
1F
100
AcDbEntity
  8
B-0_通り芯
  6
Continuous
 62
     3
370
     9
100
AcDbLine
 10
430.4730389569258
 20
-165.6080338761612
 30
0.0
 11
422.4734332110432
 21
-165.6080338761612
 31
0.0
  0
LINE
  5
212
330
1F
100
AcDbEntity
  8
B-0_通り芯
  6
JWW_CENTER1
 62
     3
370
     9
100
AcDbLine
 10
416.7687081001901
 20
-170.6081740920608
 30
0.0
 11
427.1629127296242
 21
-170.6081740920608
 31
0.0
  0
LINE
  5
213
330
1F
100
AcDbEntity
  8
B-0_通り芯
  6
JWW_CENTER1
 62
     3
370
     9
100
AcDbLine
 10
416.7687081001901
 20
-110.6080380001583
 30
0.0
 11
426.7917529956716
 21
-110.6080380001583
 31
0.0
  0
LINE
  5
214
330
1F
100
AcDbEntity
  8
B-0_通り芯
  6
Continuous
 62
     3
370
     9
100
AcDbLine
 10
421.572999696474
 20
-173.2080861684438
 30
0.0
 11
420.9732055664062
 21
-173.2080861684438
 31
0.0
  0
LINE
  5
215
330
1F
100
AcDbEntity
  8
B-0_通り芯
  6
Continuous
 62
     3
370
     9
100
AcDbLine
 10
421.572999696474
 20
-168.0081382957665
 30
0.0
 11
420.9764222841005
 21
-168.0081382957665
 31
0.0
  0
LINE
  5
216
330
1F
100
AcDbEntity
  8
B-0_通り芯
  6
Continuous
 62
     3
370
     9
100
AcDbLine
 10
423.5730557828336
 20
-170.0079469423036
 30
0.0
 11
423.5730557828336
 21
-171.2080919420396
 31
0.0
  0
LINE
  5
217
330
1F
100
AcDbEntity
  8
B-0_通り芯
  6
Continuous
 62
     3
370
     9
100
AcDbLine
 10
421.572999696474
 20
-108.0081259237753
 30
0.0
 11
420.9732055664062
 21
-108.0081259237753
 31
0.0
  0
LINE
  5
218
330
1F
100
AcDbEntity
  8
B-0_通り芯
  6
Continuous
 62
     3
370
     9
100
AcDbLine
 10
421.572999696474
 20
-113.2080737964527
 30
0.0
 11
420.9764222841005
 21
-113.2080737964527
 31
0.0
  0
LINE
  5
219
330
1F
100
AcDbEntity
  8
B-0_通り芯
  6
Continuous
 62
     3
370
     9
100
AcDbLine
 10
423.5730557828336
 20
-111.2079558501372
 30
0.0
 11
423.5730557828336
 21
-110.0079964302681
 31
0.0
  0
LINE
  5
21A
330
1F
100
AcDbEntity
  8
B-0_通り芯
  6
Continuous
 62
     3
370
     9
100
AcDbLine
 10
372.9729729729729
 20
-218.6080973857158
 30
0.0
 11
369.973136283256
 21
-218.6080973857158
 31
0.0
  0
LINE
  5
21B
330
1F
100
AcDbEntity
  8
B-0_通り芯
  6
Continuous
 62
     3
370
     9
100
AcDbLine
 10
369.973136283256
 20
-218.6080973857158
 30
0.0
 11
369.973136283256
 21
-225.6081699680638
 31
0.0
  0
LINE
  5
21C
330
1F
100
AcDbEntity
  8
B-0_通り芯
  6
Continuous
 62
     3
370
     9
100
AcDbLine
 10
369.973136283256
 20
-225.6081699680638
 30
0.0
 11
379.9730455553211
 21
-225.6081699680638
 31
0.0
  0
LINE
  5
21D
330
1F
100
AcDbEntity
  8
B-0_通り芯
  6
Continuous
 62
     3
370
     9
100
AcDbLine
 10
379.9730455553211
 20
-225.6081699680638
 30
0.0
 11
379.9730455553211
 21
-224.1080660433383
 31
0.0
  0
LINE
  5
21E
330
1F
100
AcDbEntity
  8
B-0_通り芯
  6
Continuous
 62
     3
370
     9
100
AcDbLine
 10
379.9730455553211
 20
-224.1080660433383
 30
0.0
 11
372.9729729729729
 21
-224.1080660433383
 31
0.0
  0
LINE
  5
21F
330
1F
100
AcDbEntity
  8
B-0_通り芯
  6
Continuous
 62
     3
370
     9
100
AcDbLine
 10
422.6979848500847
 20
-219.8088609850084
 30
0.0
 11
379.9730455553211
 21
-224.64581463788
 31
0.0
  0
LINE
  5
220
330
1F
100
AcDbEntity
  8
B-0_通り芯
  6
Continuous
 62
     3
370
     9
100
AcDbLine
 10
372.9729729729729
 20
-224.1080660433383
 30
0.0
 11
372.9729729729729
 21
-156.1080767657305
 31
0.0
  0
LINE
  5
221
330
1F
100
AcDbEntity
  8
B-0_通り芯
  6
Continuous
 62
     3
370
     9
100
AcDbLine
 10
372.9729729729729
 20
-125.1078878866659
 30
0.0
 11
372.9729729729729
 21
-95.60805037214948
 31
0.0
  0
LINE
  5
222
330
1F
100
AcDbEntity
  8
B-0_通り芯
  6
Continuous
 62
     3
370
     9
100
AcDbLine
 10
369.973136283256
 20
-127.547520817937
 30
0.0
 11
369.973136283256
 21
-95.60805037214948
 31
0.0
  0
LINE
  5
223
330
1F
100
AcDbEntity
  8
B-0_通り芯
  6
Continuous
 62
     3
370
     9
100
AcDbLine
 10
369.973136283256
 20
-127.547520817937
 30
0.0
 11
369.973136283256
 21
-218.6080973857158
 31
0.0
  0
LINE
  5
224
330
1F
100
AcDbEntity
  8
B-0_通り芯
  6
Continuous
 62
     3
370
     9
100
AcDbLine
 10
370.9729168866133
 20
-135.6079967601879
 30
0.0
 11
369.973136283256
 21
-136.6080866633234
 31
0.0
  0
LINE
  5
225
330
1F
100
AcDbEntity
  8
B-0_通り芯
  6
Continuous
 62
     3
370
     9
100
AcDbLine
 10
369.973136283256
 20
-144.60806356894
 30
0.0
 11
370.9729168866133
 21
-145.6080297521643
 31
0.0
  0
LINE
  5
226
330
1F
100
AcDbEntity
  8
B-0_通り芯
  6
Continuous
 62
     3
370
     9
100
AcDbLine
 10
370.9729168866133
 20
-145.6080297521643
 30
0.0
 11
370.9729168866133
 21
-135.6079967601879
 31
0.0
  0
LINE
  5
227
330
1F
100
AcDbEntity
  8
B-0_通り芯
  6
Continuous
 62
     3
370
     9
100
AcDbLine
 10
370.9729168866133
 20
-145.6080297521643
 30
0.0
 11
384.9730620513091
 21
-145.6080297521643
 31
0.0
  0
LINE
  5
228
330
1F
100
AcDbEntity
  8
B-0_通り芯
  6
Continuous
 62
     3
370
     9
100
AcDbLine
 10
384.9730620513091
 20
-135.6079967601879
 30
0.0
 11
370.9729168866133
 21
-135.6079967601879
 31
0.0
  0
LINE
  5
229
330
1F
100
AcDbEntity
  8
B-0_通り芯
  6
Continuous
 62
     3
370
     9
100
AcDbLine
 10
378.4731890704182
 20
-145.6080297521643
 30
0.0
 11
378.4731890704182
 21
-135.6079967601879
 31
0.0
  0
LINE
  5
22A
330
1F
100
AcDbEntity
  8
B-0_通り芯
  6
Continuous
 62
     3
370
     9
100
AcDbLine
 10
369.973136283256
 20
-136.6080866633234
 30
0.0
 11
378.4731890704182
 21
-136.6080866633234
 31
0.0
  0
LINE
  5
22B
330
1F
100
AcDbEntity
  8
B-0_通り芯
  6
Continuous
 62
     3
370
     9
100
AcDbLine
 10
369.973136283256
 20
-144.60806356894
 30
0.0
 11
378.4731890704182
 21
-144.60806356894
 31
0.0
  0
LINE
  5
22C
330
1F
100
AcDbEntity
  8
B-0_通り芯
  6
Continuous
 62
     3
370
     9
100
AcDbLine
 10
428.1151848870357
 20
-150.4081148714632
 30
0.0
 11
428.9733061919341
 21
-148.9222387365393
 31
0.0
  0
LINE
  5
22D
330
1F
100
AcDbEntity
  8
B-0_通り芯
  6
Continuous
 62
     3
370
     9
100
AcDbLine
 10
428.1151848870357
 20
-130.8080972207559
 30
0.0
 11
428.9733061919341
 21
-132.2939114957242
 31
0.0
  0
LINE
  5
22E
330
1F
100
AcDbEntity
  8
B-0_通り芯
  6
Continuous
 62
     3
370
     9
100
AcDbLine
 10
428.1151848870357
 20
-150.4081148714632
 30
0.0
 11
421.9732336095862
 21
-150.4081148714632
 31
0.0
  0
LINE
  5
22F
330
1F
100
AcDbEntity
  8
B-0_通り芯
  6
Continuous
 62
     3
370
     9
100
AcDbLine
 10
421.9732336095862
 20
-150.4081148714632
 30
0.0
 11
421.9732336095862
 21
-130.8080972207559
 31
0.0
  0
LINE
  5
230
330
1F
100
AcDbEntity
  8
B-0_通り芯
  6
Continuous
 62
     3
370
     9
100
AcDbLine
 10
421.9732336095862
 20
-130.8080972207559
 30
0.0
 11
428.1151848870357
 21
-130.8080972207559
 31
0.0
  0
LINE
  5
231
330
1F
100
AcDbEntity
  8
B-0_通り芯
  6
Continuous
 62
     3
370
     9
100
AcDbLine
 10
428.9733061919341
 20
-132.2939114957242
 30
0.0
 11
428.9733061919341
 21
-148.9222387365393
 31
0.0
  0
LINE
  5
232
330
1F
100
AcDbEntity
  8
B-0_通り芯
  6
Continuous
 62
     3
370
     9
100
AcDbLine
 10
428.1151848870357
 20
-145.6080297521643
 30
0.0
 11
421.9732336095862
 21
-145.6080297521643
 31
0.0
  0
LINE
  5
233
330
1F
100
AcDbEntity
  8
B-0_通り芯
  6
Continuous
 62
     3
370
     9
100
AcDbLine
 10
421.9732336095862
 20
-135.6079967601879
 30
0.0
 11
428.1151848870357
 21
-135.6079967601879
 31
0.0
  0
LINE
  5
234
330
1F
100
AcDbEntity
  8
B-0_通り芯
  6
JWW_CENTER1
 62
     3
370
     9
100
AcDbLine
 10
367.9730801968961
 20
-140.6080751161317
 30
0.0
 11
384.9730620513091
 21
-140.6080751161317
 31
0.0
  0
LINE
  5
235
330
1F
100
AcDbEntity
  8
B-0_通り芯
  6
JWW_CENTER1
 62
     3
370
     9
100
AcDbLine
 10
390.9731065904774
 20
-140.6080751161317
 30
0.0
 11
433.9734464078336
 21
-140.6080751161317
 31
0.0
  0
LINE
  5
236
330
1F
100
AcDbEntity
  8
B-0_通り芯
  6
Continuous
 62
     3
370
     9
100
AcDbLine
 10
369.973136283256
 20
-120.6079472722234
 30
0.0
 11
372.9729729729729
 21
-120.6079472722234
 31
0.0
  0
LINE
  5
237
330
1F
100
AcDbEntity
  8
B-0_通り芯
  6
Continuous
 62
     3
370
     9
100
AcDbLine
 10
369.973136283256
 20
-160.6080792401288
 30
0.0
 11
372.9729729729729
 21
-160.6080792401288
 31
0.0
  0
LINE
  5
238
330
1F
100
AcDbEntity
  8
B-0_通り芯
  6
Continuous
 62
     3
370
     9
100
AcDbLine
 10
422.9732616527662
 20
-7.7816978660789
 30
0.0
 11
422.9732616527662
 21
-88.43433689426732
 31
0.0
  0
LINE
  5
239
330
1F
100
AcDbEntity
  8
B-0_通り芯
  6
Continuous
 62
     3
370
     9
100
AcDbLine
 10
413.9731329840583
 20
-101.7916333997572
 30
0.0
 11
413.9731329840583
 21
-115.6079926361908
 31
0.0
  0
LINE
  5
23A
330
1F
100
AcDbEntity
  8
B-0_通り芯
  6
Continuous
 62
     3
370
     9
100
AcDbLine
 10
419.9733012431378
 20
-101.3440147606102
 30
0.0
 11
419.9733012431378
 21
-135.6079967601879
 31
0.0
  0
LINE
  5
23B
330
1F
100
AcDbEntity
  8
B-0_通り芯
  6
Continuous
 62
     3
370
     9
100
AcDbLine
 10
419.9733012431378
 20
-175.6081287280933
 30
0.0
 11
420.9732055664062
 21
-175.6081287280933
 31
0.0
  0
LINE
  5
23C
330
1F
100
AcDbEntity
  8
B-0_通り芯
  6
Continuous
 62
     3
370
     9
100
AcDbLine
 10
409.9728970914273
 20
-190.6080544961465
 30
0.0
 11
413.9731329840583
 21
-175.2228649242504
 31
0.0
  0
LINE
  5
23D
330
1F
100
AcDbEntity
  8
B-0_通り芯
  6
Continuous
 62
     3
370
     9
100
AcDbLine
 10
413.9731329840583
 20
-165.6080338761612
 30
0.0
 11
413.9731329840583
 21
-175.2228649242504
 31
0.0
  0
LINE
  5
23E
330
1F
100
AcDbEntity
  8
B-0_通り芯
  6
Continuous
 62
     3
370
     9
100
AcDbLine
 10
419.9733012431378
 20
-145.6080297521643
 30
0.0
 11
419.9733012431378
 21
-175.4667168694573
 31
0.0
  0
LINE
  5
23F
330
1F
100
AcDbEntity
  8
B-0_通り芯
  6
Continuous
 62
     3
370
     9
100
AcDbLine
 10
415.9731890704182
 20
-190.6080544961465
 30
0.0
 11
419.9733012431378
 21
-175.4667168694573
 31
0.0
  0
LINE
  5
240
330
1F
100
AcDbEntity
  8
B-0_通り芯
  6
Continuous
 62
     3
370
     9
100
AcDbLine
 10
428.9733061919341
 20
-0.6081081081080697
 30
0.0
 11
428.9733061919341
 21
-94.37202659813124
 31
0.0
  0
LINE
  5
241
330
1F
100
AcDbEntity
  8
B-0_通り芯
  6
Continuous
 62
     3
370
     9
100
AcDbLine
 10
409.9728970914273
 20
-95.60805037214948
 30
0.0
 11
409.9728970914273
 21
-0.6081081081080697
 31
0.0
  0
LINE
  5
242
330
1F
100
AcDbEntity
  8
B-0_通り芯
  6
Continuous
 62
     3
370
     9
100
AcDbLine
 10
372.9729729729729
 20
-0.6081081081080697
 30
0.0
 11
372.9729729729729
 21
-95.60805037214948
 31
0.0
  0
LINE
  5
243
330
1F
100
AcDbEntity
  8
B-0_通り芯
  6
Continuous
 62
     3
370
     9
100
AcDbLine
 10
369.973136283256
 20
-0.6081081081080697
 30
0.0
 11
369.973136283256
 21
-95.60805037214948
 31
0.0
  0
LINE
  5
244
330
1F
100
AcDbEntity
  8
B-A
  6
Continuous
 62
     2
370
     9
100
AcDbLine
 10
416.6949710330448
 20
-258.1075967324746
 30
0.0
 11
422.4730620513091
 21
-258.1075967324746
 31
0.0
  0
LINE
  5
245
330
1F
100
AcDbEntity
  8
B-A
  6
Continuous
 62
     2
370
     9
100
AcDbLine
 10
416.6949710330448
 20
-254.3547388025232
 30
0.0
 11
422.4730620513091
 21
-254.3547388025232
 31
0.0
  0
LINE
  5
246
330
1F
100
AcDbEntity
  8
B-A
  6
Continuous
 62
     2
370
     9
100
AcDbLine
 10
443.0515186206716
 20
-243.1078565442884
 30
0.0
 11
437.2733038824958
 21
-243.1078565442884
 31
0.0
  0
LINE
  5
247
330
1F
100
AcDbEntity
  8
B-A
  6
Continuous
 62
     2
370
     9
100
AcDbLine
 10
443.0515186206716
 20
-258.1075967324746
 30
0.0
 11
437.2733038824958
 21
-258.1075967324746
 31
0.0
  0
LINE
  5
248
330
1F
100
AcDbEntity
  8
B-A
  6
Continuous
 62
     2
370
     9
100
AcDbLine
 10
443.0515186206716
 20
-246.8605288943729
 30
0.0
 11
437.2733038824958
 21
-246.8605288943729
 31
0.0
  0
LINE
  5
249
330
1F
100
AcDbEntity
  8
B-A
  6
Continuous
 62
     2
370
     9
100
AcDbLine
 10
443.0515186206716
 20
-254.3547388025232
 30
0.0
 11
437.2733038824958
 21
-254.3547388025232
 31
0.0
  0
LINE
  5
24A
330
1F
100
AcDbEntity
  8
B-A
  6
Continuous
 62
     2
370
     9
100
AcDbLine
 10
443.7733005832982
 20
-244.9842545792862
 30
0.0
 11
443.7733005832982
 21
-256.2316317171664
 31
0.0
  0
LINE
  5
24B
330
1F
100
AcDbEntity
  8
B-A
  6
Continuous
 62
     2
370
     9
100
AcDbLine
 10
414.273401208826
 20
-253.6076561180321
 30
0.0
 11
415.2731818121833
 21
-254.607869741079
 31
0.0
  0
LINE
  5
24C
330
1F
100
AcDbEntity
  8
B-A
  6
Continuous
 62
     2
370
     9
100
AcDbLine
 10
415.9731890704182
 20
-254.607869741079
 30
0.0
 11
415.2731818121833
 21
-254.607869741079
 31
0.0
  0
LINE
  5
24D
330
1F
100
AcDbEntity
  8
B-A
  6
Continuous
 62
     2
370
     9
100
AcDbLine
 10
415.9731890704182
 20
-253.6076561180321
 30
0.0
 11
414.273401208826
 21
-253.6076561180321
 31
0.0
  0
LINE
  5
24E
330
1F
100
AcDbEntity
  8
B-A
  6
Continuous
 62
     2
370
     9
100
AcDbLine
 10
414.273401208826
 20
-253.6076561180321
 30
0.0
 11
414.273401208826
 21
-247.607797158731
 31
0.0
  0
LINE
  5
24F
330
1F
100
AcDbEntity
  8
B-A
  6
Continuous
 62
     2
370
     9
100
AcDbLine
 10
437.2733038824958
 20
-264.607779013144
 30
0.0
 11
437.2733038824958
 21
-238.607544770112
 31
0.0
  0
LINE
  5
250
330
1F
100
AcDbEntity
  8
B-A
  6
Continuous
 62
     2
370
     9
100
AcDbLine
 10
437.2733038824958
 20
-264.607779013144
 30
0.0
 11
434.9731032912797
 21
-264.607779013144
 31
0.0
  0
LINE
  5
251
330
1F
100
AcDbEntity
  8
B-A
  6
Continuous
 62
     2
370
     9
100
AcDbLine
 10
437.2733038824958
 20
-238.607544770112
 30
0.0
 11
434.9731032912797
 21
-238.607544770112
 31
0.0
  0
LINE
  5
252
330
1F
100
AcDbEntity
  8
B-3_受枠
  6
Continuous
 62
     4
370
     9
100
AcDbLine
 10
426.9732501055745
 20
-308.1078854122677
 30
0.0
 11
422.4730620513091
 21
-308.1078854122677
 31
0.0
  0
LINE
  5
253
330
1F
100
AcDbEntity
  8
B-A
  6
Continuous
 62
     2
370
     9
100
AcDbLine
 10
415.9731890704182
 20
-246.6077072555954
 30
0.0
 11
415.2731818121833
 21
-246.6077072555954
 31
0.0
  0
LINE
  5
254
330
1F
100
AcDbEntity
  8
B-A
  6
Continuous
 62
     2
370
     9
100
AcDbLine
 10
415.9731890704182
 20
-247.607797158731
 30
0.0
 11
414.273401208826
 21
-247.607797158731
 31
0.0
  0
LINE
  5
255
330
1F
100
AcDbEntity
  8
B-A
  6
Continuous
 62
     2
370
     9
100
AcDbLine
 10
414.273401208826
 20
-247.607797158731
 30
0.0
 11
415.2731818121833
 21
-246.6077072555954
 31
0.0
  0
LINE
  5
256
330
1F
100
AcDbEntity
  8
B-A
  6
Continuous
 62
     2
370
     9
100
AcDbLine
 10
415.2731818121833
 20
-254.607869741079
 30
0.0
 11
415.2731818121833
 21
-246.6077072555954
 31
0.0
  0
LINE
  5
257
330
1F
100
AcDbEntity
  8
B-A
  6
Continuous
 62
     2
370
     9
100
AcDbLine
 10
416.6949710330448
 20
-243.1078565442884
 30
0.0
 11
422.4730620513091
 21
-243.1078565442884
 31
0.0
  0
LINE
  5
258
330
1F
100
AcDbEntity
  8
B-A
  6
Continuous
 62
     2
370
     9
100
AcDbLine
 10
416.6949710330448
 20
-246.8605288943729
 30
0.0
 11
422.4730620513091
 21
-246.8605288943729
 31
0.0
  0
LINE
  5
259
330
1F
100
AcDbEntity
  8
B-A
  6
Continuous
 62
     2
370
     9
100
AcDbLine
 10
415.9731890704182
 20
-256.2316317171664
 30
0.0
 11
415.9731890704182
 21
-244.983945279508
 31
0.0
  0
LINE
  5
25A
330
1F
100
AcDbEntity
  8
B-3_受枠
  6
Continuous
 62
     4
370
     9
100
AcDbLine
 10
422.4730620513091
 20
-308.1078854122677
 30
0.0
 11
422.4730620513091
 21
-238.1078400483002
 31
0.0
  0
LINE
  5
25B
330
1F
100
AcDbEntity
  8
B-A
  6
JWW_DASHED1
 62
     2
370
     9
100
AcDbLine
 10
434.9731032912797
 20
-254.6083027607685
 30
0.0
 11
426.9732501055745
 21
-254.6083027607685
 31
0.0
  0
LINE
  5
25C
330
1F
100
AcDbEntity
  8
B-A
  6
JWW_DASHED1
 62
     2
370
     9
100
AcDbLine
 10
434.9731032912797
 20
-253.6082747175887
 30
0.0
 11
426.9732501055745
 21
-253.6082747175887
 31
0.0
  0
LINE
  5
25D
330
1F
100
AcDbEntity
  8
B-A
  6
JWW_DASHED1
 62
     2
370
     9
100
AcDbLine
 10
434.9731032912797
 20
-247.607797158731
 30
0.0
 11
426.9732501055745
 21
-247.607797158731
 31
0.0
  0
LINE
  5
25E
330
1F
100
AcDbEntity
  8
B-A
  6
JWW_DASHED1
 62
     2
370
     9
100
AcDbLine
 10
434.9731032912797
 20
-246.6077072555954
 30
0.0
 11
426.9732501055745
 21
-246.6077072555954
 31
0.0
  0
LINE
  5
25F
330
1F
100
AcDbEntity
  8
B-A
  6
Continuous
 62
     2
370
     9
100
AcDbLine
 10
-674.5549794789906
 20
-150.6080462481524
 30
0.0
 11
-670.8023071289062
 21
-157.1081048089104
 31
0.0
  0
LINE
  5
260
330
1F
100
AcDbEntity
  8
B-A
  6
Continuous
 62
     2
370
     9
100
AcDbLine
 10
-674.5549794789906
 20
-150.6080462481524
 30
0.0
 11
-670.8023071289062
 21
-144.10804954735
 31
0.0
  0
LINE
  5
261
330
1F
100
AcDbEntity
  8
B-A
  6
Continuous
 62
     2
370
     9
100
AcDbLine
 10
-670.8023071289062
 20
-144.10804954735
 30
0.0
 11
-663.3082209406672
 21
-144.10804954735
 31
0.0
  0
LINE
  5
262
330
1F
100
AcDbEntity
  8
B-A
  6
Continuous
 62
     2
370
     9
100
AcDbLine
 10
-659.5550537109375
 20
-150.6080462481524
 30
0.0
 11
-663.3082209406672
 21
-144.10804954735
 31
0.0
  0
LINE
  5
263
330
1F
100
AcDbEntity
  8
B-A
  6
Continuous
 62
     2
370
     9
100
AcDbLine
 10
-659.5550537109375
 20
-150.6080462481524
 30
0.0
 11
-663.3082209406672
 21
-157.1081048089104
 31
0.0
  0
LINE
  5
264
330
1F
100
AcDbEntity
  8
B-A
  6
Continuous
 62
     2
370
     9
100
AcDbLine
 10
-670.8023071289062
 20
-157.1081048089104
 30
0.0
 11
-663.3082209406672
 21
-157.1081048089104
 31
0.0
  0
LINE
  5
265
330
1F
100
AcDbEntity
  8
B-3_受枠
  6
Continuous
 62
     4
370
     9
100
AcDbLine
 10
-724.5551444388724
 20
-163.1078400483002
 30
0.0
 11
-667.0554496146536
 21
-163.1078400483002
 31
0.0
  0
LINE
  5
266
330
1F
100
AcDbEntity
  8
B-3_受枠
  6
Continuous
 62
     4
370
     9
100
AcDbLine
 10
-724.5551444388724
 20
-138.1081287280933
 30
0.0
 11
-724.5551444388724
 21
-163.1078400483002
 31
0.0
  0
LINE
  5
267
330
1F
100
AcDbEntity
  8
B-3_受枠
  6
Continuous
 62
     4
370
     9
100
AcDbLine
 10
-724.5551444388724
 20
-138.1081287280933
 30
0.0
 11
-667.0554496146536
 21
-138.1081287280933
 31
0.0
  0
LINE
  5
268
330
1F
100
AcDbEntity
  8
B-1_ピット
  6
JWW_CENTER1
 62
     2
370
     9
100
AcDbLine
 10
-729.5551609348606
 20
-150.6079843881967
 30
0.0
 11
-648.5916137695312
 21
-150.6079843881967
 31
0.0
  0
LINE
  5
269
330
1F
100
AcDbEntity
  8
B-F
  6
Continuous
 62
     7
370
     9
100
AcDbLine
 10
-3.007012444573434
 20
249.3919743718328
 30
0.0
 11
-3.007012444573434
 21
-250.6082524480047
 31
0.0
  0
LINE
  5
26A
330
1F
100
AcDbEntity
  8
B-F
  6
Continuous
 62
     7
370
     9
100
AcDbLine
 10
-246.279391726932
 20
249.3919743718328
 30
0.0
 11
-1.507032239759241
 21
249.3919743718328
 31
0.0
  0
LINE
  5
26B
330
1F
100
AcDbEntity
  8
B-F
  6
Continuous
 62
     7
370
     9
100
AcDbLine
 10
-246.279391726932
 20
-250.6082524480047
 30
0.0
 11
-1.507032239759241
 21
-250.6082524480047
 31
0.0
  0
LINE
  5
26C
330
1F
100
AcDbEntity
  8
B-F
  6
Continuous
 62
     7
370
     9
100
AcDbLine
 10
-3.007012444573434
 20
249.3919743718328
 30
0.0
 11
-4.964880041173956
 21
234.5203461518159
 31
0.0
  0
LINE
  5
26D
330
1F
100
AcDbEntity
  8
B-F
  6
Continuous
 62
     7
370
     9
100
AcDbLine
 10
-3.007012444573434
 20
249.3919743718328
 30
0.0
 11
-1.049144847972912
 21
234.5203461518159
 31
0.0
  0
LINE
  5
26E
330
1F
100
AcDbEntity
  8
B-F
  6
Continuous
 62
     7
370
     9
100
AcDbLine
 10
-3.007012444573434
 20
-250.6082524480047
 30
0.0
 11
-4.964880041173956
 21
-235.7365623680321
 31
0.0
  0
LINE
  5
26F
330
1F
100
AcDbEntity
  8
B-F
  6
Continuous
 62
     7
370
     9
100
AcDbLine
 10
-3.007012444573434
 20
-250.6082524480047
 30
0.0
 11
-1.049144847972912
 21
-235.7365623680321
 31
0.0
  0
LINE
  5
270
330
1F
100
AcDbEntity
  8
B-F
  6
Continuous
 62
     7
370
     9
100
AcDbLine
 10
-199.0555634369721
 20
-82.69725902660468
 30
0.0
 11
-213.9272535169447
 21
-80.73939143000416
 31
0.0
  0
LINE
  5
271
330
1F
100
AcDbEntity
  8
B-F
  6
Continuous
 62
     7
370
     9
100
AcDbLine
 10
-192.0552434148014
 20
-82.69725902660468
 30
0.0
 11
-190.555325069943
 21
-82.69725902660468
 31
0.0
  0
LINE
  5
272
330
1F
100
AcDbEntity
  8
B-F
  6
Continuous
 62
     7
370
     9
100
AcDbLine
 10
-183.555438067462
 20
-82.69725902660468
 30
0.0
 11
-168.6837479874895
 21
-80.73939143000416
 31
0.0
  0
LINE
  5
273
330
1F
100
AcDbEntity
  8
B-F
  6
Continuous
 62
     7
370
     9
100
AcDbLine
 10
-183.555438067462
 20
-82.69725902660468
 30
0.0
 11
-168.6837479874895
 21
-84.6551266232052
 31
0.0
  0
LINE
  5
274
330
1F
100
AcDbEntity
  8
B-F
  6
Continuous
 62
     7
370
     9
100
AcDbLine
 10
-199.0555634369721
 20
-82.69725902660468
 30
0.0
 11
-213.9272535169447
 21
-84.6551266232052
 31
0.0
  0
LINE
  5
275
330
1F
100
AcDbEntity
  8
B-F
  6
Continuous
 62
     7
370
     9
100
AcDbLine
 10
-190.555325069943
 20
-82.69725902660468
 30
0.0
 11
-161.1826097643053
 21
-82.69725902660468
 31
0.0
  0
LINE
  5
276
330
1F
100
AcDbEntity
  8
B-1_ピット
  6
Continuous
 62
     2
370
     9
100
AcDbLine
 10
-163.0553580619193
 20
-131.6024409113703
 30
0.0
 11
-163.0553580619193
 21
-92.05809309675885
 31
0.0
  0
LINE
  5
277
330
1F
100
AcDbEntity
  8
B-1_ピット
  6
Continuous
 62
     2
370
     9
100
AcDbLine
 10
-163.0553580619193
 20
-58.05138665276601
 30
0.0
 11
-163.0553580619193
 21
130.3863484150655
 31
0.0
  0
LINE
  5
278
330
1F
100
AcDbEntity
  8
B-1_ピット
  6
Continuous
 62
     2
370
     9
100
AcDbLine
 10
-165.0552285684121
 20
-131.6024409113703
 30
0.0
 11
-165.0552285684121
 21
-92.05809309675885
 31
0.0
  0
LINE
  5
279
330
1F
100
AcDbEntity
  8
B-1_ピット
  6
Continuous
 62
     2
370
     9
100
AcDbLine
 10
-165.0552285684121
 20
-58.05138665276601
 30
0.0
 11
-165.0552285684121
 21
130.3863484150655
 31
0.0
  0
LINE
  5
27A
330
1F
100
AcDbEntity
  8
B-0_通り芯
  6
Continuous
 62
     3
370
     9
100
AcDbLine
 10
-200.555419921875
 20
-215.1081229544974
 30
0.0
 11
-200.555419921875
 21
-92.61000762114648
 31
0.0
  0
LINE
  5
27B
330
1F
100
AcDbEntity
  8
B-0_通り芯
  6
Continuous
 62
     3
370
     9
100
AcDbLine
 10
-200.555419921875
 20
-72.96340942382812
 30
0.0
 11
-200.555419921875
 21
213.8920304581926
 31
0.0
  0
LINE
  5
27C
330
1F
100
AcDbEntity
  8
B-1_ピット
  6
Continuous
 62
     2
370
     9
100
AcDbLine
 10
-180.5554157978779
 20
-72.96340942382812
 30
0.0
 11
-180.5554157978779
 21
130.3863484150655
 31
0.0
  0
LINE
  5
27D
330
1F
100
AcDbEntity
  8
B-1_ピット
  6
Continuous
 62
     2
370
     9
100
AcDbLine
 10
-180.5554157978779
 20
-131.6024409113703
 30
0.0
 11
-180.5554157978779
 21
-92.61000762114648
 31
0.0
  0
LINE
  5
27E
330
1F
100
AcDbEntity
  8
B-F
  6
Continuous
 62
     7
370
     9
100
AcDbLine
 10
-224.8605057999895
 20
-82.69725902660468
 30
0.0
 11
-192.0552434148014
 21
-82.69725902660468
 31
0.0
  0
LINE
  5
27F
330
1F
100
AcDbEntity
  8
B-0_通り芯
  6
Continuous
 62
     3
370
     9
100
AcDbLine
 10
-227.0554207466743
 20
-18.84262909760338
 30
0.0
 11
-227.0554207466743
 21
-3.60800665778072
 31
0.0
  0
LINE
  5
280
330
1F
100
AcDbEntity
  8
B-0_通り芯
  6
Continuous
 62
     3
370
     9
100
AcDbLine
 10
-227.0554207466743
 20
-92.60802810256536
 30
0.0
 11
-227.0554207466743
 21
-51.79734513566302
 31
0.0
  0
LINE
  5
281
330
1F
100
AcDbEntity
  8
B-F
  6
Continuous
 62
     7
370
     9
100
AcDbLine
 10
-237.7208812816723
 20
-44.83129552892734
 30
0.0
 11
-207.9812745790224
 21
-44.83129552892734
 31
0.0
  0
LINE
  5
282
330
1F
100
AcDbEntity
  8
B-F
  6
Continuous
 62
     7
370
     9
100
AcDbLine
 10
-207.9812745790224
 20
-44.83129552892734
 30
0.0
 11
-191.3231926995354
 21
-82.24425857131536
 31
0.0
  0
LINE
  5
283
330
1F
100
AcDbEntity
  8
B-F
  6
Continuous
 62
     7
370
     9
100
AcDbLine
 10
-482.0552722827808
 20
-68.99286630991341
 30
0.0
 11
-352.0554001266892
 21
-68.99286630991341
 31
0.0
  0
LINE
  5
284
330
1F
100
AcDbEntity
  8
B-F
  6
Continuous
 62
     7
370
     9
100
AcDbLine
 10
-482.0552722827808
 20
-110.607914280247
 30
0.0
 11
-482.0552722827808
 21
-67.49288610509922
 31
0.0
  0
LINE
  5
285
330
1F
100
AcDbEntity
  8
B-F
  6
Continuous
 62
     7
370
     9
100
AcDbLine
 10
-352.0554001266892
 20
-110.607914280247
 30
0.0
 11
-352.0554001266892
 21
-67.49288610509922
 31
0.0
  0
LINE
  5
286
330
1F
100
AcDbEntity
  8
B-F
  6
Continuous
 62
     7
370
     9
100
AcDbLine
 10
-482.0552722827808
 20
-68.99286630991341
 30
0.0
 11
-467.1835822028083
 21
-67.03499871331289
 31
0.0
  0
LINE
  5
287
330
1F
100
AcDbEntity
  8
B-F
  6
Continuous
 62
     7
370
     9
100
AcDbLine
 10
-482.0552722827808
 20
-68.99286630991341
 30
0.0
 11
-467.1835822028083
 21
-70.95073390651393
 31
0.0
  0
LINE
  5
288
330
1F
100
AcDbEntity
  8
B-F
  6
Continuous
 62
     7
370
     9
100
AcDbLine
 10
-352.0554001266892
 20
-68.99286630991341
 30
0.0
 11
-366.9270902066617
 21
-67.03499871331289
 31
0.0
  0
LINE
  5
289
330
1F
100
AcDbEntity
  8
B-F
  6
Continuous
 62
     7
370
     9
100
AcDbLine
 10
-352.0554001266892
 20
-68.99286630991341
 30
0.0
 11
-366.9270902066617
 21
-70.95073390651393
 31
0.0
  0
LINE
  5
28A
330
1F
100
AcDbEntity
  8
B-F
  6
Continuous
 62
     7
370
     9
100
AcDbLine
 10
-534.6402554898648
 20
-218.6080355257601
 30
0.0
 11
-534.6402554898648
 21
-140.6078895362648
 31
0.0
  0
LINE
  5
28B
330
1F
100
AcDbEntity
  8
B-F
  6
Continuous
 62
     7
370
     9
100
AcDbLine
 10
-499.4705200195312
 20
-140.6078895362648
 30
0.0
 11
-536.1402356946791
 21
-140.6078895362648
 31
0.0
  0
LINE
  5
28C
330
1F
100
AcDbEntity
  8
B-F
  6
Continuous
 62
     7
370
     9
100
AcDbLine
 10
-534.6402554898648
 20
-218.6080355257601
 30
0.0
 11
-536.5979993665541
 21
-203.7363454457875
 31
0.0
  0
LINE
  5
28D
330
1F
100
AcDbEntity
  8
B-F
  6
Continuous
 62
     7
370
     9
100
AcDbLine
 10
-534.6402554898648
 20
-218.6080355257601
 30
0.0
 11
-532.682264173353
 21
-203.7363454457875
 31
0.0
  0
LINE
  5
28E
330
1F
100
AcDbEntity
  8
B-F
  6
Continuous
 62
     7
370
     9
100
AcDbLine
 10
-534.6402554898648
 20
-140.6078895362648
 30
0.0
 11
-536.5979993665541
 21
-155.4795796162373
 31
0.0
  0
LINE
  5
28F
330
1F
100
AcDbEntity
  8
B-F
  6
Continuous
 62
     7
370
     9
100
AcDbLine
 10
-534.6402554898648
 20
-140.6078895362648
 30
0.0
 11
-532.682264173353
 21
-155.4795796162373
 31
0.0
  0
LINE
  5
290
330
1F
100
AcDbEntity
  8
B-F
  6
Continuous
 62
     7
370
     9
100
AcDbLine
 10
-289.6428494840055
 20
-160.6079555202174
 30
0.0
 11
-289.6428494840055
 21
-120.6079472722234
 31
0.0
  0
LINE
  5
291
330
1F
100
AcDbEntity
  8
B-F
  6
Continuous
 62
     7
370
     9
100
AcDbLine
 10
-342.0553671347128
 20
-160.6079555202174
 30
0.0
 11
-288.1428692791912
 21
-160.6079555202174
 31
0.0
  0
LINE
  5
292
330
1F
100
AcDbEntity
  8
B-F
  6
Continuous
 62
     7
370
     9
100
AcDbLine
 10
-342.0553671347128
 20
-120.6079472722234
 30
0.0
 11
-288.1428692791912
 21
-120.6079472722234
 31
0.0
  0
LINE
  5
293
330
1F
100
AcDbEntity
  8
B-F
  6
Continuous
 62
     7
370
     9
100
AcDbLine
 10
-289.6428494840055
 20
-160.6079555202174
 30
0.0
 11
-291.600717080606
 21
-145.7362654402449
 31
0.0
  0
LINE
  5
294
330
1F
100
AcDbEntity
  8
B-F
  6
Continuous
 62
     7
370
     9
100
AcDbLine
 10
-289.6428494840055
 20
-160.6079555202174
 30
0.0
 11
-287.6849818874049
 21
-145.7362654402449
 31
0.0
  0
LINE
  5
295
330
1F
100
AcDbEntity
  8
B-F
  6
Continuous
 62
     7
370
     9
100
AcDbLine
 10
-289.6428494840055
 20
-120.6079472722234
 30
0.0
 11
-291.600717080606
 21
-135.4796373521959
 31
0.0
  0
LINE
  5
296
330
1F
100
AcDbEntity
  8
B-F
  6
Continuous
 62
     7
370
     9
100
AcDbLine
 10
-289.6428494840055
 20
-120.6079472722234
 30
0.0
 11
-287.6849818874049
 21
-135.4796373521959
 31
0.0
  0
LINE
  5
297
330
1F
100
AcDbEntity
  8
B-0_通り芯
  6
Continuous
 62
     3
370
     9
100
AcDbLine
 10
-285.8614122545397
 20
-140.6080751161317
 30
0.0
 11
-277.0554619866448
 21
-140.6080751161317
 31
0.0
  0
LINE
  5
298
330
1F
100
AcDbEntity
  8
B-0_通り芯
  6
Continuous
 62
     3
370
     9
100
AcDbLine
 10
-317.5554223962732
 20
-140.6080751161317
 30
0.0
 11
-310.9429642960832
 21
-140.6080751161317
 31
0.0
  0
LINE
  5
299
330
1F
100
AcDbEntity
  8
B-F
  6
Continuous
 62
     7
370
     9
100
AcDbLine
 10
526.5367250184755
 20
-205.6081039841111
 30
0.0
 11
526.5367250184755
 21
204.3920114878063
 31
0.0
  0
LINE
  5
29A
330
1F
100
AcDbEntity
  8
B-F
  6
Continuous
 62
     7
370
     9
100
AcDbLine
 10
444.973136283256
 20
-205.6081039841111
 30
0.0
 11
528.0367052232898
 21
-205.6081039841111
 31
0.0
  0
LINE
  5
29B
330
1F
100
AcDbEntity
  8
B-F
  6
Continuous
 62
     7
370
     9
100
AcDbLine
 10
444.973136283256
 20
204.3920114878063
 30
0.0
 11
528.0367052232898
 21
204.3920114878063
 31
0.0
  0
LINE
  5
29C
330
1F
100
AcDbEntity
  8
B-F
  6
Continuous
 62
     7
370
     9
100
AcDbLine
 10
526.5367250184755
 20
-205.6081039841111
 30
0.0
 11
524.578857421875
 21
-190.7364139041385
 31
0.0
  0
LINE
  5
29D
330
1F
100
AcDbEntity
  8
B-F
  6
Continuous
 62
     7
370
     9
100
AcDbLine
 10
526.5367250184755
 20
-205.6081039841111
 30
0.0
 11
528.494592615076
 21
-190.7364139041385
 31
0.0
  0
LINE
  5
29E
330
1F
100
AcDbEntity
  8
B-F
  6
Continuous
 62
     7
370
     9
100
AcDbLine
 10
526.5367250184755
 20
204.3920114878063
 30
0.0
 11
524.578857421875
 21
189.5203832677893
 31
0.0
  0
LINE
  5
29F
330
1F
100
AcDbEntity
  8
B-F
  6
Continuous
 62
     7
370
     9
100
AcDbLine
 10
526.5367250184755
 20
204.3920114878063
 30
0.0
 11
528.494592615076
 21
189.5203832677893
 31
0.0
  0
LINE
  5
2A0
330
1F
100
AcDbEntity
  8
B-F
  6
Continuous
 62
     7
370
     9
100
AcDbLine
 10
576.7739373284419
 20
-265.6081163561021
 30
0.0
 11
576.7739373284419
 21
264.3920238597974
 31
0.0
  0
LINE
  5
2A1
330
1F
100
AcDbEntity
  8
B-F
  6
Continuous
 62
     7
370
     9
100
AcDbLine
 10
444.973136283256
 20
-265.6081163561021
 30
0.0
 11
578.273917533256
 21
-265.6081163561021
 31
0.0
  0
LINE
  5
2A2
330
1F
100
AcDbEntity
  8
B-F
  6
Continuous
 62
     7
370
     9
100
AcDbLine
 10
444.973136283256
 20
264.3920238597974
 30
0.0
 11
578.273917533256
 21
264.3920238597974
 31
0.0
  0
LINE
  5
2A3
330
1F
100
AcDbEntity
  8
B-F
  6
Continuous
 62
     7
370
     9
100
AcDbLine
 10
576.7739373284419
 20
-265.6081163561021
 30
0.0
 11
574.8160697318415
 21
-250.7364262761297
 31
0.0
  0
LINE
  5
2A4
330
1F
100
AcDbEntity
  8
B-F
  6
Continuous
 62
     7
370
     9
100
AcDbLine
 10
576.7739373284419
 20
-265.6081163561021
 30
0.0
 11
578.7318049250422
 21
-250.7364262761297
 31
0.0
  0
LINE
  5
2A5
330
1F
100
AcDbEntity
  8
B-F
  6
Continuous
 62
     7
370
     9
100
AcDbLine
 10
576.7739373284419
 20
264.3920238597974
 30
0.0
 11
574.8160697318415
 21
249.5203956397805
 31
0.0
  0
LINE
  5
2A6
330
1F
100
AcDbEntity
  8
B-F
  6
Continuous
 62
     7
370
     9
100
AcDbLine
 10
576.7739373284419
 20
264.3920238597974
 30
0.0
 11
578.7318049250422
 21
249.5203956397805
 31
0.0
  0
LINE
  5
2A7
330
1F
100
AcDbEntity
  8
B-0_通り芯
  6
Continuous
 62
     7
370
     9
100
AcDbLine
 10
274.5472263645482
 20
-225.6081699680638
 30
0.0
 11
274.5472263645482
 21
224.3918918918919
 31
0.0
  0
LINE
  5
2A8
330
1F
100
AcDbEntity
  8
B-0_通り芯
  6
Continuous
 62
     7
370
     9
100
AcDbLine
 10
358.4731230864654
 20
-225.6081699680638
 30
0.0
 11
273.0472461597341
 21
-225.6081699680638
 31
0.0
  0
LINE
  5
2A9
330
1F
100
AcDbEntity
  8
B-0_通り芯
  6
Continuous
 62
     7
370
     9
100
AcDbLine
 10
358.4731230864654
 20
224.3918918918919
 30
0.0
 11
273.0472461597341
 21
224.3918918918919
 31
0.0
  0
LINE
  5
2AA
330
1F
100
AcDbEntity
  8
B-0_通り芯
  6
Continuous
 62
     7
370
     9
100
AcDbLine
 10
274.5472263645482
 20
-225.6081699680638
 30
0.0
 11
272.5893587679477
 21
-210.7364798880912
 31
0.0
  0
LINE
  5
2AB
330
1F
100
AcDbEntity
  8
B-0_通り芯
  6
Continuous
 62
     7
370
     9
100
AcDbLine
 10
274.5472263645482
 20
-225.6081699680638
 30
0.0
 11
276.5050939611487
 21
-210.7364798880912
 31
0.0
  0
LINE
  5
2AC
330
1F
100
AcDbEntity
  8
B-0_通り芯
  6
Continuous
 62
     7
370
     9
100
AcDbLine
 10
274.5472263645482
 20
224.3918918918919
 30
0.0
 11
272.5893587679477
 21
209.5202018119194
 31
0.0
  0
LINE
  5
2AD
330
1F
100
AcDbEntity
  8
B-0_通り芯
  6
Continuous
 62
     7
370
     9
100
AcDbLine
 10
274.5472263645482
 20
224.3918918918919
 30
0.0
 11
276.5050939611487
 21
209.5202018119194
 31
0.0
  0
LINE
  5
2AE
330
1F
100
AcDbEntity
  8
B-F
  6
Continuous
 62
     7
370
     9
100
AcDbLine
 10
220.6836597339527
 20
-234.1080990353146
 30
0.0
 11
220.6836597339527
 21
232.8919446790542
 31
0.0
  0
LINE
  5
2AF
330
1F
100
AcDbEntity
  8
B-F
  6
Continuous
 62
     7
370
     9
100
AcDbLine
 10
358.4731230864654
 20
-234.1080990353146
 30
0.0
 11
219.1836795291385
 21
-234.1080990353146
 31
0.0
  0
LINE
  5
2B0
330
1F
100
AcDbEntity
  8
B-F
  6
Continuous
 62
     7
370
     9
100
AcDbLine
 10
220.6836597339527
 20
-234.1080990353146
 30
0.0
 11
218.7257921373522
 21
-219.2364089553421
 31
0.0
  0
LINE
  5
2B1
330
1F
100
AcDbEntity
  8
B-F
  6
Continuous
 62
     7
370
     9
100
AcDbLine
 10
220.6836597339527
 20
-234.1080990353146
 30
0.0
 11
222.6415273305533
 21
-219.2364089553421
 31
0.0
  0
LINE
  5
2B2
330
1F
100
AcDbEntity
  8
B-F
  6
Continuous
 62
     7
370
     9
100
AcDbLine
 10
220.6836597339527
 20
232.8919446790542
 30
0.0
 11
218.7257921373522
 21
218.0202545990815
 31
0.0
  0
LINE
  5
2B3
330
1F
100
AcDbEntity
  8
B-F
  6
Continuous
 62
     7
370
     9
100
AcDbLine
 10
220.6836597339527
 20
232.8919446790542
 30
0.0
 11
222.6415273305533
 21
218.0202545990815
 31
0.0
  0
LINE
  5
2B4
330
1F
100
AcDbEntity
  8
B-F
  6
Continuous
 62
     7
370
     9
100
AcDbLine
 10
358.4731230864654
 20
224.3918918918919
 30
0.0
 11
315.2747076910896
 21
224.3918918918919
 31
0.0
  0
LINE
  5
2B5
330
1F
100
AcDbEntity
  8
B-F
  6
Continuous
 62
     7
370
     9
100
AcDbLine
 10
358.4731230864654
 20
217.391819309544
 30
0.0
 11
315.2747076910896
 21
217.391819309544
 31
0.0
  0
LINE
  5
2B6
330
1F
100
AcDbEntity
  8
B-F
  6
Continuous
 62
     7
370
     9
100
AcDbLine
 10
316.7746878959039
 20
224.3918918918919
 30
0.0
 11
314.8168202993034
 21
239.2635201119089
 31
0.0
  0
LINE
  5
2B7
330
1F
100
AcDbEntity
  8
B-F
  6
Continuous
 62
     7
370
     9
100
AcDbLine
 10
316.7746878959039
 20
224.3918918918919
 30
0.0
 11
318.7325554925042
 21
239.2635201119089
 31
0.0
  0
LINE
  5
2B8
330
1F
100
AcDbEntity
  8
B-F
  6
Continuous
 62
     7
370
     9
100
AcDbLine
 10
316.7746878959039
 20
217.391819309544
 30
0.0
 11
314.8168202993034
 21
202.5201292295714
 31
0.0
  0
LINE
  5
2B9
330
1F
100
AcDbEntity
  8
B-F
  6
Continuous
 62
     7
370
     9
100
AcDbLine
 10
316.7746878959039
 20
217.391819309544
 30
0.0
 11
318.7325554925042
 21
202.5201292295714
 31
0.0
  0
LINE
  5
2BA
330
1F
100
AcDbEntity
  8
B-F
  6
Continuous
 62
     7
370
     9
100
AcDbLine
 10
358.4731230864654
 20
232.8919446790542
 30
0.0
 11
322.886204075169
 21
232.8919446790542
 31
0.0
  0
LINE
  5
2BB
330
1F
100
AcDbEntity
  8
B-F
  6
Continuous
 62
     7
370
     9
100
AcDbLine
 10
309.8867055532097
 20
232.8919446790542
 30
0.0
 11
219.1836795291385
 21
232.8919446790542
 31
0.0
  0
LINE
  5
2BC
330
1F
100
AcDbEntity
  8
B-F
  6
Continuous
 62
     7
370
     9
100
AcDbLine
 10
316.7746878959039
 20
244.3298504803633
 30
0.0
 11
316.7746878959039
 21
196.4039116936762
 31
0.0
  0
LINE
  5
2BD
330
1F
100
AcDbEntity
  8
B-1_ピット
  6
Continuous
 62
     2
370
     9
100
AcDbLine
 10
426.4732979439401
 20
210.4383891337628
 30
0.0
 11
429.9733342351141
 21
213.9384254249367
 31
0.0
  0
LINE
  5
2BE
330
1F
100
AcDbEntity
  8
B-1_ピット
  6
Continuous
 62
     2
370
     9
100
AcDbLine
 10
422.9732616527662
 20
219.6663480191619
 30
0.0
 11
426.8584380278716
 21
223.5515862542231
 31
0.0
  0
LINE
  5
2BF
330
1F
100
AcDbEntity
  8
B-1_ピット
  6
Continuous
 62
     2
370
     9
100
AcDbLine
 10
422.9785816089529
 20
221.7930932947108
 30
0.0
 11
424.8259673247466
 21
223.6404171505491
 31
0.0
  0
LINE
  5
2C0
330
1F
100
AcDbEntity
  8
B-1_ピット
  6
Continuous
 62
     2
370
     9
100
AcDbLine
 10
428.3559438344597
 20
-224.6710534997888
 30
0.0
 11
429.9359708218961
 21
-223.0910265123521
 31
0.0
  0
LINE
  5
2C1
330
1F
100
AcDbEntity
  8
B-1_ピット
  6
Continuous
 62
     2
370
     9
100
AcDbLine
 10
426.0989214922932
 20
-224.8068361024599
 30
0.0
 11
429.9733342351141
 21
-220.9324233596389
 31
0.0
  0
LINE
  5
2C2
330
1F
100
AcDbEntity
  8
B-1_ピット
  6
Continuous
 62
     2
370
     9
100
AcDbLine
 10
424.1156913138727
 20
-224.6687646814294
 30
0.0
 11
429.9733342351141
 21
-218.8111217601879
 31
0.0
  0
LINE
  5
2C3
330
1F
100
AcDbEntity
  8
B-1_ピット
  6
Continuous
 62
     2
370
     9
100
AcDbLine
 10
423.1000745618667
 20
-223.5630179740287
 30
0.0
 11
429.9733342351141
 21
-216.689820160737
 31
0.0
  0
LINE
  5
2C4
330
1F
100
AcDbEntity
  8
B-1_ピット
  6
Continuous
 62
     2
370
     9
100
AcDbLine
 10
422.9732616527662
 20
-221.5685911436339
 30
0.0
 11
429.9733342351141
 21
-214.5685185612859
 31
0.0
  0
LINE
  5
2C5
330
1F
100
AcDbEntity
  8
B-1_ピット
  6
Continuous
 62
     2
370
     9
100
AcDbLine
 10
426.4732979439401
 20
-211.7046500541068
 30
0.0
 11
426.5483959301099
 21
-211.629552067937
 31
0.0
  0
LINE
  5
2C6
330
1F
100
AcDbEntity
  8
B-0_通り芯
  6
Continuous
 62
     7
370
     9
100
AcDbLine
 10
369.9727651235222
 20
-195.8221064387141
 30
0.0
 11
409.9728970914273
 21
-195.8221064387141
 31
0.0
  0
LINE
  5
2C7
330
1F
100
AcDbEntity
  8
B-0_通り芯
  6
Continuous
 62
     7
370
     9
100
AcDbLine
 10
369.9727651235222
 20
-195.8221064387141
 30
0.0
 11
384.8443933435388
 21
-193.8642388421135
 31
0.0
  0
LINE
  5
2C8
330
1F
100
AcDbEntity
  8
B-0_通り芯
  6
Continuous
 62
     7
370
     9
100
AcDbLine
 10
369.9727651235222
 20
-195.8221064387141
 30
0.0
 11
384.8443933435388
 21
-197.7799740353146
 31
0.0
  0
LINE
  5
2C9
330
1F
100
AcDbEntity
  8
B-0_通り芯
  6
Continuous
 62
     7
370
     9
100
AcDbLine
 10
409.9728970914273
 20
-195.8221064387141
 30
0.0
 11
395.1012688714104
 21
-193.8642388421135
 31
0.0
  0
LINE
  5
2CA
330
1F
100
AcDbEntity
  8
B-0_通り芯
  6
Continuous
 62
     7
370
     9
100
AcDbLine
 10
409.9728970914273
 20
-195.8221064387141
 30
0.0
 11
395.1012688714104
 21
-197.7799740353146
 31
0.0
  0
LINE
  5
2CB
330
1F
100
AcDbEntity
  8
B-0_通り芯
  6
Continuous
 62
     7
370
     9
100
AcDbLine
 10
415.9731890704182
 20
-195.8221064387141
 30
0.0
 11
430.8448172904352
 21
-197.7799740353146
 31
0.0
  0
LINE
  5
2CC
330
1F
100
AcDbEntity
  8
B-0_通り芯
  6
Continuous
 62
     7
370
     9
100
AcDbLine
 10
409.9728970914273
 20
-195.8221064387141
 30
0.0
 11
395.1012688714104
 21
-193.8642388421135
 31
0.0
  0
LINE
  5
2CD
330
1F
100
AcDbEntity
  8
B-0_通り芯
  6
Continuous
 62
     7
370
     9
100
AcDbLine
 10
409.9728970914273
 20
-195.8221064387141
 30
0.0
 11
395.1012688714104
 21
-197.7799740353146
 31
0.0
  0
LINE
  5
2CE
330
1F
100
AcDbEntity
  8
B-0_通り芯
  6
Continuous
 62
     7
370
     9
100
AcDbLine
 10
415.9731890704182
 20
-195.8221064387141
 30
0.0
 11
430.8448172904352
 21
-193.8642388421135
 31
0.0
  0
LINE
  5
2CF
330
1F
100
AcDbEntity
  8
B-0_通り芯
  6
Continuous
 62
     7
370
     9
100
AcDbLine
 10
435.1221857844172
 20
-195.8221064387141
 30
0.0
 11
409.9728970914273
 21
-195.8221064387141
 31
0.0
  0
LINE
  5
2D0
330
1F
100
AcDbEntity
  8
B-1_ピット
  6
Continuous
 62
     2
370
     9
100
AcDbLine
 10
-552.0499976905617
 20
-239.1079918113915
 30
0.0
 11
-552.0499976905617
 21
-250.608005008182
 31
0.0
  0
LINE
  5
2D1
330
1F
100
AcDbEntity
  8
B-1_ピット
  6
JWW_CENTER1
 62
     2
370
     9
100
AcDbLine
 10
-667.0554496146536
 20
-168.1080421241554
 30
0.0
 11
-667.0554496146536
 21
-133.1080503721495
 31
0.0
  0
LINE
  5
2D2
330
1F
100
AcDbEntity
  8
B-A
  6
Continuous
 62
     2
370
     9
100
AcDbLine
 10
-159.5557547904349
 20
-150.6080462481524
 30
0.0
 11
-163.3084271405194
 21
-157.1081048089104
 31
0.0
  0
LINE
  5
2D3
330
1F
100
AcDbEntity
  8
B-A
  6
Continuous
 62
     2
370
     9
100
AcDbLine
 10
-159.5557547904349
 20
-150.6080462481524
 30
0.0
 11
-163.3084271405194
 21
-144.10804954735
 31
0.0
  0
LINE
  5
2D4
330
1F
100
AcDbEntity
  8
B-A
  6
Continuous
 62
     2
370
     9
100
AcDbLine
 10
-163.3084271405194
 20
-144.10804954735
 30
0.0
 11
-170.8025133287585
 21
-144.10804954735
 31
0.0
  0
LINE
  5
2D5
330
1F
100
AcDbEntity
  8
B-A
  6
Continuous
 62
     2
370
     9
100
AcDbLine
 10
-174.5556805584881
 20
-150.6080462481524
 30
0.0
 11
-170.8025133287585
 21
-144.10804954735
 31
0.0
  0
LINE
  5
2D6
330
1F
100
AcDbEntity
  8
B-A
  6
Continuous
 62
     2
370
     9
100
AcDbLine
 10
-174.5556805584881
 20
-150.6080462481524
 30
0.0
 11
-170.8025133287585
 21
-157.1081048089104
 31
0.0
  0
LINE
  5
2D7
330
1F
100
AcDbEntity
  8
B-A
  6
Continuous
 62
     2
370
     9
100
AcDbLine
 10
-163.3084271405194
 20
-157.1081048089104
 30
0.0
 11
-170.8025133287585
 21
-157.1081048089104
 31
0.0
  0
LINE
  5
2D8
330
1F
100
AcDbEntity
  8
B-3_受枠
  6
Continuous
 62
     4
370
     9
100
AcDbLine
 10
-109.5555898305531
 20
-163.1078400483002
 30
0.0
 11
-167.0552846547719
 21
-163.1078400483002
 31
0.0
  0
LINE
  5
2D9
330
1F
100
AcDbEntity
  8
B-3_受枠
  6
Continuous
 62
     4
370
     9
100
AcDbLine
 10
-109.5555898305531
 20
-138.1081287280933
 30
0.0
 11
-109.5555898305531
 21
-163.1078400483002
 31
0.0
  0
LINE
  5
2DA
330
1F
100
AcDbEntity
  8
B-3_受枠
  6
Continuous
 62
     4
370
     9
100
AcDbLine
 10
-109.5555898305531
 20
-138.1081287280933
 30
0.0
 11
-167.0552846547719
 21
-138.1081287280933
 31
0.0
  0
LINE
  5
2DB
330
1F
100
AcDbEntity
  8
B-1_ピット
  6
JWW_CENTER1
 62
     2
370
     9
100
AcDbLine
 10
-104.555573334565
 20
-150.6079843881967
 30
0.0
 11
-185.5191204998944
 21
-150.6079843881967
 31
0.0
  0
LINE
  5
2DC
330
1F
100
AcDbEntity
  8
B-1_ピット
  6
JWW_CENTER1
 62
     2
370
     9
100
AcDbLine
 10
-167.0552846547719
 20
-168.1080421241554
 30
0.0
 11
-167.0552846547719
 21
-133.1080503721495
 31
0.0
  0
LINE
  5
2DD
330
1F
100
AcDbEntity
  8
B-A
  6
Continuous
 62
     2
370
     9
100
AcDbLine
 10
-674.5549794789906
 20
149.3918300319363
 30
0.0
 11
-670.8023071289062
 21
155.8918885926943
 31
0.0
  0
LINE
  5
2DE
330
1F
100
AcDbEntity
  8
B-A
  6
Continuous
 62
     2
370
     9
100
AcDbLine
 10
-674.5549794789906
 20
149.3918300319363
 30
0.0
 11
-670.8023071289062
 21
142.8918333311339
 31
0.0
  0
LINE
  5
2DF
330
1F
100
AcDbEntity
  8
B-A
  6
Continuous
 62
     2
370
     9
100
AcDbLine
 10
-670.8023071289062
 20
142.8918333311339
 30
0.0
 11
-663.3082209406672
 21
142.8918333311339
 31
0.0
  0
LINE
  5
2E0
330
1F
100
AcDbEntity
  8
B-A
  6
Continuous
 62
     2
370
     9
100
AcDbLine
 10
-659.5550537109375
 20
149.3918300319363
 30
0.0
 11
-663.3082209406672
 21
142.8918333311339
 31
0.0
  0
LINE
  5
2E1
330
1F
100
AcDbEntity
  8
B-A
  6
Continuous
 62
     2
370
     9
100
AcDbLine
 10
-659.5550537109375
 20
149.3918300319363
 30
0.0
 11
-663.3082209406672
 21
155.8918885926943
 31
0.0
  0
LINE
  5
2E2
330
1F
100
AcDbEntity
  8
B-A
  6
Continuous
 62
     2
370
     9
100
AcDbLine
 10
-670.8023071289062
 20
155.8918885926943
 30
0.0
 11
-663.3082209406672
 21
155.8918885926943
 31
0.0
  0
LINE
  5
2E3
330
1F
100
AcDbEntity
  8
B-3_受枠
  6
Continuous
 62
     4
370
     9
100
AcDbLine
 10
-724.5551444388724
 20
161.8916238320841
 30
0.0
 11
-667.0554496146536
 21
161.8916238320841
 31
0.0
  0
LINE
  5
2E4
330
1F
100
AcDbEntity
  8
B-3_受枠
  6
Continuous
 62
     4
370
     9
100
AcDbLine
 10
-724.5551444388724
 20
136.8919125118772
 30
0.0
 11
-724.5551444388724
 21
161.8916238320841
 31
0.0
  0
LINE
  5
2E5
330
1F
100
AcDbEntity
  8
B-3_受枠
  6
Continuous
 62
     4
370
     9
100
AcDbLine
 10
-724.5551444388724
 20
136.8919125118772
 30
0.0
 11
-667.0554496146536
 21
136.8919125118772
 31
0.0
  0
LINE
  5
2E6
330
1F
100
AcDbEntity
  8
B-1_ピット
  6
JWW_CENTER1
 62
     2
370
     9
100
AcDbLine
 10
-729.5551609348606
 20
149.3917681719806
 30
0.0
 11
-648.5916137695312
 21
149.3917681719806
 31
0.0
  0
LINE
  5
2E7
330
1F
100
AcDbEntity
  8
B-1_ピット
  6
JWW_CENTER1
 62
     2
370
     9
100
AcDbLine
 10
-667.0554496146536
 20
166.8918259079392
 30
0.0
 11
-667.0554496146536
 21
131.8918341559333
 31
0.0
  0
LINE
  5
2E8
330
1F
100
AcDbEntity
  8
B-A
  6
Continuous
 62
     2
370
     9
100
AcDbLine
 10
-159.5557547904349
 20
149.3918300319363
 30
0.0
 11
-163.3084271405194
 21
155.8918885926943
 31
0.0
  0
LINE
  5
2E9
330
1F
100
AcDbEntity
  8
B-A
  6
Continuous
 62
     2
370
     9
100
AcDbLine
 10
-159.5557547904349
 20
149.3918300319363
 30
0.0
 11
-163.3084271405194
 21
142.8918333311339
 31
0.0
  0
LINE
  5
2EA
330
1F
100
AcDbEntity
  8
B-A
  6
Continuous
 62
     2
370
     9
100
AcDbLine
 10
-163.3084271405194
 20
142.8918333311339
 30
0.0
 11
-170.8025133287585
 21
142.8918333311339
 31
0.0
  0
LINE
  5
2EB
330
1F
100
AcDbEntity
  8
B-A
  6
Continuous
 62
     2
370
     9
100
AcDbLine
 10
-174.5556805584881
 20
149.3918300319363
 30
0.0
 11
-170.8025133287585
 21
142.8918333311339
 31
0.0
  0
LINE
  5
2EC
330
1F
100
AcDbEntity
  8
B-A
  6
Continuous
 62
     2
370
     9
100
AcDbLine
 10
-174.5556805584881
 20
149.3918300319363
 30
0.0
 11
-170.8025133287585
 21
155.8918885926943
 31
0.0
  0
LINE
  5
2ED
330
1F
100
AcDbEntity
  8
B-A
  6
Continuous
 62
     2
370
     9
100
AcDbLine
 10
-163.3084271405194
 20
155.8918885926943
 30
0.0
 11
-170.8025133287585
 21
155.8918885926943
 31
0.0
  0
LINE
  5
2EE
330
1F
100
AcDbEntity
  8
B-3_受枠
  6
Continuous
 62
     4
370
     9
100
AcDbLine
 10
-109.5555898305531
 20
161.8916238320841
 30
0.0
 11
-167.0552846547719
 21
161.8916238320841
 31
0.0
  0
LINE
  5
2EF
330
1F
100
AcDbEntity
  8
B-3_受枠
  6
Continuous
 62
     4
370
     9
100
AcDbLine
 10
-109.5555898305531
 20
136.8919125118772
 30
0.0
 11
-109.5555898305531
 21
161.8916238320841
 31
0.0
  0
LINE
  5
2F0
330
1F
100
AcDbEntity
  8
B-3_受枠
  6
Continuous
 62
     4
370
     9
100
AcDbLine
 10
-109.5555898305531
 20
136.8919125118772
 30
0.0
 11
-167.0552846547719
 21
136.8919125118772
 31
0.0
  0
LINE
  5
2F1
330
1F
100
AcDbEntity
  8
B-1_ピット
  6
JWW_CENTER1
 62
     2
370
     9
100
AcDbLine
 10
-104.555573334565
 20
149.3917681719806
 30
0.0
 11
-185.5191204998944
 21
149.3917681719806
 31
0.0
  0
LINE
  5
2F2
330
1F
100
AcDbEntity
  8
B-1_ピット
  6
JWW_CENTER1
 62
     2
370
     9
100
AcDbLine
 10
-167.0552846547719
 20
166.8918259079392
 30
0.0
 11
-167.0552846547719
 21
131.8918341559333
 31
0.0
  0
LINE
  5
2F3
330
1F
100
AcDbEntity
  8
B-A
  6
Continuous
 62
     2
370
     9
100
AcDbLine
 10
-267.0554289946685
 20
-258.1077204523859
 30
0.0
 11
-260.5553704339104
 21
-254.3550481023015
 31
0.0
  0
LINE
  5
2F4
330
1F
100
AcDbEntity
  8
B-A
  6
Continuous
 62
     2
370
     9
100
AcDbLine
 10
-267.0554289946685
 20
-258.1077204523859
 30
0.0
 11
-273.5554256954708
 21
-254.3550481023015
 31
0.0
  0
LINE
  5
2F5
330
1F
100
AcDbEntity
  8
B-A
  6
Continuous
 62
     2
370
     9
100
AcDbLine
 10
-273.5554256954708
 20
-254.3550481023015
 30
0.0
 11
-273.5554256954708
 21
-246.8609619140625
 31
0.0
  0
LINE
  5
2F6
330
1F
100
AcDbEntity
  8
B-A
  6
Continuous
 62
     2
370
     9
100
AcDbLine
 10
-267.0554289946685
 20
-243.1077946843328
 30
0.0
 11
-273.5554256954708
 21
-246.8609619140625
 31
0.0
  0
LINE
  5
2F7
330
1F
100
AcDbEntity
  8
B-A
  6
Continuous
 62
     2
370
     9
100
AcDbLine
 10
-267.0554289946685
 20
-243.1077946843328
 30
0.0
 11
-260.5553704339104
 21
-246.8609619140625
 31
0.0
  0
LINE
  5
2F8
330
1F
100
AcDbEntity
  8
B-A
  6
Continuous
 62
     2
370
     9
100
AcDbLine
 10
-260.5553704339104
 20
-254.3550481023015
 30
0.0
 11
-260.5553704339104
 21
-246.8609619140625
 31
0.0
  0
LINE
  5
2F9
330
1F
100
AcDbEntity
  8
B-3_受枠
  6
Continuous
 62
     4
370
     9
100
AcDbLine
 10
-254.5556351945207
 20
-308.1078854122677
 30
0.0
 11
-254.5556351945207
 21
-250.608190588049
 31
0.0
  0
LINE
  5
2FA
330
1F
100
AcDbEntity
  8
B-3_受枠
  6
Continuous
 62
     4
370
     9
100
AcDbLine
 10
-279.5553465147276
 20
-308.1078854122677
 30
0.0
 11
-254.5556351945207
 21
-308.1078854122677
 31
0.0
  0
LINE
  5
2FB
330
1F
100
AcDbEntity
  8
B-3_受枠
  6
Continuous
 62
     4
370
     9
100
AcDbLine
 10
-279.5553465147276
 20
-308.1078854122677
 30
0.0
 11
-279.5553465147276
 21
-250.608190588049
 31
0.0
  0
LINE
  5
2FC
330
1F
100
AcDbEntity
  8
B-1_ピット
  6
JWW_CENTER1
 62
     2
370
     9
100
AcDbLine
 10
-267.0554908546241
 20
-313.1079019082558
 30
0.0
 11
-267.0554908546241
 21
-232.1443547429265
 31
0.0
  0
LINE
  5
2FD
330
1F
100
AcDbEntity
  8
B-1_ピット
  6
JWW_CENTER1
 62
     2
370
     9
100
AcDbLine
 10
-249.5554331186655
 20
-250.608190588049
 30
0.0
 11
-284.5554248706713
 21
-250.608190588049
 31
0.0
  0
LINE
  5
2FE
330
1F
100
AcDbEntity
  8
B-A
  6
Continuous
 62
     2
370
     9
100
AcDbLine
 10
-567.0553052747572
 20
-258.1077204523859
 30
0.0
 11
-573.5553638355152
 21
-254.3550481023015
 31
0.0
  0
LINE
  5
2FF
330
1F
100
AcDbEntity
  8
B-A
  6
Continuous
 62
     2
370
     9
100
AcDbLine
 10
-567.0553052747572
 20
-258.1077204523859
 30
0.0
 11
-560.5553085739548
 21
-254.3550481023015
 31
0.0
  0
LINE
  5
300
330
1F
100
AcDbEntity
  8
B-A
  6
Continuous
 62
     2
370
     9
100
AcDbLine
 10
-560.5553085739548
 20
-254.3550481023015
 30
0.0
 11
-560.5553085739548
 21
-246.8609619140625
 31
0.0
  0
LINE
  5
301
330
1F
100
AcDbEntity
  8
B-A
  6
Continuous
 62
     2
370
     9
100
AcDbLine
 10
-567.0553052747572
 20
-243.1077946843328
 30
0.0
 11
-560.5553085739548
 21
-246.8609619140625
 31
0.0
  0
LINE
  5
302
330
1F
100
AcDbEntity
  8
B-A
  6
Continuous
 62
     2
370
     9
100
AcDbLine
 10
-567.0553052747572
 20
-243.1077946843328
 30
0.0
 11
-573.5553638355152
 21
-246.8609619140625
 31
0.0
  0
LINE
  5
303
330
1F
100
AcDbEntity
  8
B-A
  6
Continuous
 62
     2
370
     9
100
AcDbLine
 10
-573.5553638355152
 20
-254.3550481023015
 30
0.0
 11
-573.5553638355152
 21
-246.8609619140625
 31
0.0
  0
LINE
  5
304
330
1F
100
AcDbEntity
  8
B-3_受枠
  6
Continuous
 62
     4
370
     9
100
AcDbLine
 10
-579.555099074905
 20
-308.1078854122677
 30
0.0
 11
-579.555099074905
 21
-250.608190588049
 31
0.0
  0
LINE
  5
305
330
1F
100
AcDbEntity
  8
B-3_受枠
  6
Continuous
 62
     4
370
     9
100
AcDbLine
 10
-554.555387754698
 20
-308.1078854122677
 30
0.0
 11
-579.555099074905
 21
-308.1078854122677
 31
0.0
  0
LINE
  5
306
330
1F
100
AcDbEntity
  8
B-3_受枠
  6
Continuous
 62
     4
370
     9
100
AcDbLine
 10
-554.555387754698
 20
-308.1078854122677
 30
0.0
 11
-554.555387754698
 21
-250.608190588049
 31
0.0
  0
LINE
  5
307
330
1F
100
AcDbEntity
  8
B-1_ピット
  6
JWW_CENTER1
 62
     2
370
     9
100
AcDbLine
 10
-567.0552434148015
 20
-313.1079019082558
 30
0.0
 11
-567.0552434148015
 21
-232.1443547429265
 31
0.0
  0
LINE
  5
308
330
1F
100
AcDbEntity
  8
B-1_ピット
  6
JWW_CENTER1
 62
     2
370
     9
100
AcDbLine
 10
-584.5553011507602
 20
-250.608190588049
 30
0.0
 11
-549.5553093987542
 21
-250.608190588049
 31
0.0
  0
LINE
  5
309
330
1F
100
AcDbEntity
  8
B-A
  6
Continuous
 62
     2
370
     9
100
AcDbLine
 10
-267.0554289946685
 20
256.8915042361698
 30
0.0
 11
-260.5553704339104
 21
253.1388318860854
 31
0.0
  0
LINE
  5
30A
330
1F
100
AcDbEntity
  8
B-A
  6
Continuous
 62
     2
370
     9
100
AcDbLine
 10
-267.0554289946685
 20
256.8915042361698
 30
0.0
 11
-273.5554256954708
 21
253.1388318860854
 31
0.0
  0
LINE
  5
30B
330
1F
100
AcDbEntity
  8
B-A
  6
Continuous
 62
     2
370
     9
100
AcDbLine
 10
-273.5554256954708
 20
253.1388318860854
 30
0.0
 11
-273.5554256954708
 21
245.6447456978464
 31
0.0
  0
LINE
  5
30C
330
1F
100
AcDbEntity
  8
B-A
  6
Continuous
 62
     2
370
     9
100
AcDbLine
 10
-267.0554289946685
 20
241.8915784681167
 30
0.0
 11
-273.5554256954708
 21
245.6447456978464
 31
0.0
  0
LINE
  5
30D
330
1F
100
AcDbEntity
  8
B-A
  6
Continuous
 62
     2
370
     9
100
AcDbLine
 10
-267.0554289946685
 20
241.8915784681167
 30
0.0
 11
-260.5553704339104
 21
245.6447456978464
 31
0.0
  0
LINE
  5
30E
330
1F
100
AcDbEntity
  8
B-A
  6
Continuous
 62
     2
370
     9
100
AcDbLine
 10
-260.5553704339104
 20
253.1388318860854
 30
0.0
 11
-260.5553704339104
 21
245.6447456978464
 31
0.0
  0
LINE
  5
30F
330
1F
100
AcDbEntity
  8
B-3_受枠
  6
Continuous
 62
     4
370
     9
100
AcDbLine
 10
-254.5556351945207
 20
306.8916691960516
 30
0.0
 11
-254.5556351945207
 21
249.3919743718328
 31
0.0
  0
LINE
  5
310
330
1F
100
AcDbEntity
  8
B-3_受枠
  6
Continuous
 62
     4
370
     9
100
AcDbLine
 10
-279.5553465147276
 20
306.8916691960516
 30
0.0
 11
-254.5556351945207
 21
306.8916691960516
 31
0.0
  0
LINE
  5
311
330
1F
100
AcDbEntity
  8
B-3_受枠
  6
Continuous
 62
     4
370
     9
100
AcDbLine
 10
-279.5553465147276
 20
306.8916691960516
 30
0.0
 11
-279.5553465147276
 21
249.3919743718328
 31
0.0
  0
LINE
  5
312
330
1F
100
AcDbEntity
  8
B-1_ピット
  6
JWW_CENTER1
 62
     2
370
     9
100
AcDbLine
 10
-267.0554908546241
 20
311.8916856920397
 30
0.0
 11
-267.0554908546241
 21
230.9281385267104
 31
0.0
  0
LINE
  5
313
330
1F
100
AcDbEntity
  8
B-1_ピット
  6
JWW_CENTER1
 62
     2
370
     9
100
AcDbLine
 10
-249.5554331186655
 20
249.3919743718328
 30
0.0
 11
-284.5554248706713
 21
249.3919743718328
 31
0.0
  0
LINE
  5
314
330
1F
100
AcDbEntity
  8
B-A
  6
Continuous
 62
     2
370
     9
100
AcDbLine
 10
-567.0553052747572
 20
256.8915042361698
 30
0.0
 11
-573.5553638355152
 21
253.1388318860854
 31
0.0
  0
LINE
  5
315
330
1F
100
AcDbEntity
  8
B-A
  6
Continuous
 62
     2
370
     9
100
AcDbLine
 10
-567.0553052747572
 20
256.8915042361698
 30
0.0
 11
-560.5553085739548
 21
253.1388318860854
 31
0.0
  0
LINE
  5
316
330
1F
100
AcDbEntity
  8
B-A
  6
Continuous
 62
     2
370
     9
100
AcDbLine
 10
-560.5553085739548
 20
253.1388318860854
 30
0.0
 11
-560.5553085739548
 21
245.6447456978464
 31
0.0
  0
LINE
  5
317
330
1F
100
AcDbEntity
  8
B-A
  6
Continuous
 62
     2
370
     9
100
AcDbLine
 10
-567.0553052747572
 20
241.8915784681167
 30
0.0
 11
-560.5553085739548
 21
245.6447456978464
 31
0.0
  0
LINE
  5
318
330
1F
100
AcDbEntity
  8
B-A
  6
Continuous
 62
     2
370
     9
100
AcDbLine
 10
-567.0553052747572
 20
241.8915784681167
 30
0.0
 11
-573.5553638355152
 21
245.6447456978464
 31
0.0
  0
LINE
  5
319
330
1F
100
AcDbEntity
  8
B-A
  6
Continuous
 62
     2
370
     9
100
AcDbLine
 10
-573.5553638355152
 20
253.1388318860854
 30
0.0
 11
-573.5553638355152
 21
245.6447456978464
 31
0.0
  0
LINE
  5
31A
330
1F
100
AcDbEntity
  8
B-3_受枠
  6
Continuous
 62
     4
370
     9
100
AcDbLine
 10
-579.555099074905
 20
306.8916691960516
 30
0.0
 11
-579.555099074905
 21
249.3919743718328
 31
0.0
  0
LINE
  5
31B
330
1F
100
AcDbEntity
  8
B-3_受枠
  6
Continuous
 62
     4
370
     9
100
AcDbLine
 10
-554.555387754698
 20
306.8916691960516
 30
0.0
 11
-579.555099074905
 21
306.8916691960516
 31
0.0
  0
LINE
  5
31C
330
1F
100
AcDbEntity
  8
B-3_受枠
  6
Continuous
 62
     4
370
     9
100
AcDbLine
 10
-554.555387754698
 20
306.8916691960516
 30
0.0
 11
-554.555387754698
 21
249.3919743718328
 31
0.0
  0
LINE
  5
31D
330
1F
100
AcDbEntity
  8
B-1_ピット
  6
JWW_CENTER1
 62
     2
370
     9
100
AcDbLine
 10
-567.0552434148015
 20
311.8916856920397
 30
0.0
 11
-567.0552434148015
 21
230.9281385267104
 31
0.0
  0
LINE
  5
31E
330
1F
100
AcDbEntity
  8
B-1_ピット
  6
JWW_CENTER1
 62
     2
370
     9
100
AcDbLine
 10
-584.5553011507602
 20
249.3919743718328
 30
0.0
 11
-549.5553093987542
 21
249.3919743718328
 31
0.0
  0
LINE
  5
31F
330
1F
100
AcDbEntity
  8
B-4_寸法
  6
Continuous
 62
     7
370
     9
100
AcDbLine
 10
-56.55317564268358
 20
-150.6079843881967
 30
0.0
 11
-56.55317564268358
 21
149.3917681719806
 31
0.0
  0
LINE
  5
320
330
1F
100
AcDbEntity
  8
B-4_寸法
  6
Continuous
 62
     7
370
     9
100
AcDbLine
 10
-97.05554859058267
 20
-150.6079843881967
 30
0.0
 11
-55.05319543786939
 21
-150.6079843881967
 31
0.0
  0
LINE
  5
321
330
1F
100
AcDbEntity
  8
B-4_寸法
  6
Continuous
 62
     7
370
     9
100
AcDbLine
 10
-97.05554859058267
 20
149.3917681719806
 30
0.0
 11
-55.05319543786939
 21
149.3917681719806
 31
0.0
  0
LINE
  5
322
330
1F
100
AcDbEntity
  8
B-4_寸法
  6
Continuous
 62
     7
370
     9
100
AcDbLine
 10
-56.55317564268358
 20
-150.6079843881967
 30
0.0
 11
-58.51104323928411
 21
-135.7362943082242
 31
0.0
  0
LINE
  5
323
330
1F
100
AcDbEntity
  8
B-4_寸法
  6
Continuous
 62
     7
370
     9
100
AcDbLine
 10
-56.55317564268358
 20
-150.6079843881967
 30
0.0
 11
-54.5953080460832
 21
-135.7362943082242
 31
0.0
  0
LINE
  5
324
330
1F
100
AcDbEntity
  8
B-4_寸法
  6
Continuous
 62
     7
370
     9
100
AcDbLine
 10
-56.55317564268358
 20
149.3917681719806
 30
0.0
 11
-58.51104323928411
 21
134.5200780920081
 31
0.0
  0
LINE
  5
325
330
1F
100
AcDbEntity
  8
B-4_寸法
  6
Continuous
 62
     7
370
     9
100
AcDbLine
 10
-56.55317564268358
 20
149.3917681719806
 30
0.0
 11
-54.5953080460832
 21
134.5200780920081
 31
0.0
  0
LINE
  5
326
330
1F
100
AcDbEntity
  8
B-F
  6
Continuous
 62
     7
370
     9
100
AcDbLine
 10
-167.0552846547719
 20
-414.6564627982474
 30
0.0
 11
-667.0554496146536
 21
-414.6564627982474
 31
0.0
  0
LINE
  5
327
330
1F
100
AcDbEntity
  8
B-F
  6
Continuous
 62
     7
370
     9
100
AcDbLine
 10
-167.0552846547719
 20
-171.3840835158889
 30
0.0
 11
-167.0552846547719
 21
-416.1564430030617
 31
0.0
  0
LINE
  5
328
330
1F
100
AcDbEntity
  8
B-F
  6
Continuous
 62
     7
370
     9
100
AcDbLine
 10
-667.0554496146536
 20
-171.3840835158889
 30
0.0
 11
-667.0554496146536
 21
-416.1564430030617
 31
0.0
  0
LINE
  5
329
330
1F
100
AcDbEntity
  8
B-F
  6
Continuous
 62
     7
370
     9
100
AcDbLine
 10
-167.0552846547719
 20
-414.6564627982474
 30
0.0
 11
-181.9269128747888
 21
-412.6985952016469
 31
0.0
  0
LINE
  5
32A
330
1F
100
AcDbEntity
  8
B-F
  6
Continuous
 62
     7
370
     9
100
AcDbLine
 10
-167.0552846547719
 20
-414.6564627982474
 30
0.0
 11
-181.9269128747888
 21
-416.614330394848
 31
0.0
  0
LINE
  5
32B
330
1F
100
AcDbEntity
  8
B-F
  6
Continuous
 62
     7
370
     9
100
AcDbLine
 10
-667.0554496146536
 20
-414.6564627982474
 30
0.0
 11
-652.1838213946367
 21
-412.6985952016469
 31
0.0
  0
LINE
  5
32C
330
1F
100
AcDbEntity
  8
B-F
  6
Continuous
 62
     7
370
     9
100
AcDbLine
 10
-667.0554496146536
 20
-414.6564627982474
 30
0.0
 11
-652.1838213946367
 21
-416.614330394848
 31
0.0
  0
LINE
  5
32D
330
1F
100
AcDbEntity
  8
B-4_寸法
  6
Continuous
 62
     7
370
     9
100
AcDbLine
 10
-567.0552434148015
 20
-361.1102996001372
 30
0.0
 11
-267.0554908546241
 21
-361.1102996001372
 31
0.0
  0
LINE
  5
32E
330
1F
100
AcDbEntity
  8
B-4_寸法
  6
Continuous
 62
     7
370
     9
100
AcDbLine
 10
-567.0552434148015
 20
-320.6079266522381
 30
0.0
 11
-567.0552434148015
 21
-362.6102798049515
 31
0.0
  0
LINE
  5
32F
330
1F
100
AcDbEntity
  8
B-4_寸法
  6
Continuous
 62
     7
370
     9
100
AcDbLine
 10
-267.0554908546241
 20
-320.6079266522381
 30
0.0
 11
-267.0554908546241
 21
-362.6102798049515
 31
0.0
  0
LINE
  5
330
330
1F
100
AcDbEntity
  8
B-4_寸法
  6
Continuous
 62
     7
370
     9
100
AcDbLine
 10
-567.0552434148015
 20
-361.1102996001372
 30
0.0
 11
-552.183553334829
 21
-359.1524320035367
 31
0.0
  0
LINE
  5
331
330
1F
100
AcDbEntity
  8
B-4_寸法
  6
Continuous
 62
     7
370
     9
100
AcDbLine
 10
-567.0552434148015
 20
-361.1102996001372
 30
0.0
 11
-552.183553334829
 21
-363.0681671967378
 31
0.0
  0
LINE
  5
332
330
1F
100
AcDbEntity
  8
B-4_寸法
  6
Continuous
 62
     7
370
     9
100
AcDbLine
 10
-267.0554908546241
 20
-361.1102996001372
 30
0.0
 11
-281.9271809345966
 21
-359.1524320035367
 31
0.0
  0
LINE
  5
333
330
1F
100
AcDbEntity
  8
B-4_寸法
  6
Continuous
 62
     7
370
     9
100
AcDbLine
 10
-267.0554908546241
 20
-361.1102996001372
 30
0.0
 11
-281.9271809345966
 21
-363.0681671967378
 31
0.0
  0
LINE
  5
334
330
1F
100
AcDbEntity
  8
B-1_ピット
  6
Continuous
 62
     2
370
     9
100
AcDbLine
 10
426.9732501055745
 20
-257.9338939769848
 30
0.0
 11
434.9731032912797
 21
-255.648106755437
 31
0.0
  0
LINE
  5
335
330
1F
100
AcDbEntity
  8
B-1_ピット
  6
Continuous
 62
     2
370
     9
100
AcDbLine
 10
426.9732501055745
 20
-243.2824253391575
 30
0.0
 11
434.9731032912797
 21
-245.5681507007495
 31
0.0
  0
LINE
  5
336
330
1F
100
AcDbEntity
  8
B-3_受枠
  6
Continuous
 62
     4
370
     9
100
AcDbLine
 10
422.4730620513091
 20
-238.1078400483002
 30
0.0
 11
426.1756278373102
 21
-238.1078400483002
 31
0.0
  0
LINE
  5
337
330
1F
100
AcDbEntity
  8
B-3_受枠
  6
Continuous
 62
     4
370
     9
100
AcDbLine
 10
426.9732501055745
 20
-240.5043565904771
 30
0.0
 11
426.9732501055745
 21
-308.1078854122677
 31
0.0
  0
LINE
  5
338
330
1F
100
AcDbEntity
  8
B-1_ピット
  6
Continuous
 62
     2
370
     9
100
AcDbLine
 10
428.0754707955026
 20
-224.7054476351351
 30
0.0
 11
379.9730455553211
 21
-227.1722370869404
 31
0.0
  0
LINE
  5
339
330
1F
100
AcDbEntity
  8
B-1_ピット
  6
Continuous
 62
     2
370
     9
100
AcDbLine
 10
423.1778943860854
 20
-236.5096262338999
 30
0.0
 11
372.9729729729729
 21
-233.9350148793813
 31
0.0
  0
LINE
  5
33A
330
1F
100
AcDbEntity
  8
B-1_ピット
  6
Continuous
 62
     2
370
     9
100
AcDbLine
 10
428.0754707955026
 20
223.489231418919
 30
0.0
 11
379.9730455553211
 21
225.9560208707244
 31
0.0
  0
LINE
  5
33B
330
1F
100
AcDbEntity
  8
B-A
  6
JWW_CENTER1
 62
     2
370
     9
100
AcDbLine
 10
409.273384712838
 20
-250.6078194283151
 30
0.0
 11
448.7733170792865
 21
-250.6078194283151
 31
0.0
  0
LINE
  5
33C
330
1F
100
AcDbEntity
  8
B-1_ピット
  6
Continuous
 62
     2
370
     9
100
AcDbLine
 10
434.9731032912797
 20
264.391900139886
 30
0.0
 11
426.9732501055745
 21
263.3919339566619
 31
0.0
  0
LINE
  5
33D
330
1F
100
AcDbEntity
  8
B-A
  6
Continuous
 62
     2
370
     9
100
AcDbLine
 10
416.6949710330448
 20
256.8913805162584
 30
0.0
 11
422.4730620513091
 21
256.8913805162584
 31
0.0
  0
LINE
  5
33E
330
1F
100
AcDbEntity
  8
B-A
  6
Continuous
 62
     2
370
     9
100
AcDbLine
 10
416.6949710330448
 20
253.138522586307
 30
0.0
 11
422.4730620513091
 21
253.138522586307
 31
0.0
  0
LINE
  5
33F
330
1F
100
AcDbEntity
  8
B-A
  6
Continuous
 62
     2
370
     9
100
AcDbLine
 10
443.0515186206716
 20
241.8916403280723
 30
0.0
 11
437.2733038824958
 21
241.8916403280723
 31
0.0
  0
LINE
  5
340
330
1F
100
AcDbEntity
  8
B-A
  6
Continuous
 62
     2
370
     9
100
AcDbLine
 10
443.0515186206716
 20
256.8913805162584
 30
0.0
 11
437.2733038824958
 21
256.8913805162584
 31
0.0
  0
LINE
  5
341
330
1F
100
AcDbEntity
  8
B-A
  6
Continuous
 62
     2
370
     9
100
AcDbLine
 10
443.0515186206716
 20
245.6443126781568
 30
0.0
 11
437.2733038824958
 21
245.6443126781568
 31
0.0
  0
LINE
  5
342
330
1F
100
AcDbEntity
  8
B-A
  6
Continuous
 62
     2
370
     9
100
AcDbLine
 10
443.0515186206716
 20
253.138522586307
 30
0.0
 11
437.2733038824958
 21
253.138522586307
 31
0.0
  0
LINE
  5
343
330
1F
100
AcDbEntity
  8
B-A
  6
Continuous
 62
     2
370
     9
100
AcDbLine
 10
443.7733005832982
 20
243.7680383630702
 30
0.0
 11
443.7733005832982
 21
255.0154155009503
 31
0.0
  0
LINE
  5
344
330
1F
100
AcDbEntity
  8
B-A
  6
Continuous
 62
     2
370
     9
100
AcDbLine
 10
414.273401208826
 20
252.3914399018159
 30
0.0
 11
415.2731818121833
 21
253.3916535248628
 31
0.0
  0
LINE
  5
345
330
1F
100
AcDbEntity
  8
B-A
  6
Continuous
 62
     2
370
     9
100
AcDbLine
 10
415.9731890704182
 20
253.3916535248628
 30
0.0
 11
415.2731818121833
 21
253.3916535248628
 31
0.0
  0
LINE
  5
346
330
1F
100
AcDbEntity
  8
B-A
  6
Continuous
 62
     2
370
     9
100
AcDbLine
 10
415.9731890704182
 20
252.3914399018159
 30
0.0
 11
414.273401208826
 21
252.3914399018159
 31
0.0
  0
LINE
  5
347
330
1F
100
AcDbEntity
  8
B-A
  6
Continuous
 62
     2
370
     9
100
AcDbLine
 10
414.273401208826
 20
252.3914399018159
 30
0.0
 11
414.273401208826
 21
246.3915809425148
 31
0.0
  0
LINE
  5
348
330
1F
100
AcDbEntity
  8
B-A
  6
Continuous
 62
     2
370
     9
100
AcDbLine
 10
437.2733038824958
 20
263.3915627969279
 30
0.0
 11
437.2733038824958
 21
237.3913285538957
 31
0.0
  0
LINE
  5
349
330
1F
100
AcDbEntity
  8
B-A
  6
Continuous
 62
     2
370
     9
100
AcDbLine
 10
437.2733038824958
 20
263.3915627969279
 30
0.0
 11
434.9731032912797
 21
263.3915627969279
 31
0.0
  0
LINE
  5
34A
330
1F
100
AcDbEntity
  8
B-A
  6
Continuous
 62
     2
370
     9
100
AcDbLine
 10
437.2733038824958
 20
237.3913285538957
 30
0.0
 11
434.9731032912797
 21
237.3913285538957
 31
0.0
  0
LINE
  5
34B
330
1F
100
AcDbEntity
  8
B-3_受枠
  6
Continuous
 62
     4
370
     9
100
AcDbLine
 10
426.9732501055745
 20
306.8916691960516
 30
0.0
 11
422.4730620513091
 21
306.8916691960516
 31
0.0
  0
LINE
  5
34C
330
1F
100
AcDbEntity
  8
B-A
  6
Continuous
 62
     2
370
     9
100
AcDbLine
 10
415.9731890704182
 20
245.3914910393793
 30
0.0
 11
415.2731818121833
 21
245.3914910393793
 31
0.0
  0
LINE
  5
34D
330
1F
100
AcDbEntity
  8
B-A
  6
Continuous
 62
     2
370
     9
100
AcDbLine
 10
415.9731890704182
 20
246.3915809425148
 30
0.0
 11
414.273401208826
 21
246.3915809425148
 31
0.0
  0
LINE
  5
34E
330
1F
100
AcDbEntity
  8
B-A
  6
Continuous
 62
     2
370
     9
100
AcDbLine
 10
414.273401208826
 20
246.3915809425148
 30
0.0
 11
415.2731818121833
 21
245.3914910393793
 31
0.0
  0
LINE
  5
34F
330
1F
100
AcDbEntity
  8
B-A
  6
Continuous
 62
     2
370
     9
100
AcDbLine
 10
415.2731818121833
 20
253.3916535248628
 30
0.0
 11
415.2731818121833
 21
245.3914910393793
 31
0.0
  0
LINE
  5
350
330
1F
100
AcDbEntity
  8
B-A
  6
Continuous
 62
     2
370
     9
100
AcDbLine
 10
416.6949710330448
 20
241.8916403280723
 30
0.0
 11
422.4730620513091
 21
241.8916403280723
 31
0.0
  0
LINE
  5
351
330
1F
100
AcDbEntity
  8
B-A
  6
Continuous
 62
     2
370
     9
100
AcDbLine
 10
416.6949710330448
 20
245.6443126781568
 30
0.0
 11
422.4730620513091
 21
245.6443126781568
 31
0.0
  0
LINE
  5
352
330
1F
100
AcDbEntity
  8
B-A
  6
Continuous
 62
     2
370
     9
100
AcDbLine
 10
415.9731890704182
 20
255.0154155009503
 30
0.0
 11
415.9731890704182
 21
243.7677290632918
 31
0.0
  0
LINE
  5
353
330
1F
100
AcDbEntity
  8
B-3_受枠
  6
Continuous
 62
     4
370
     9
100
AcDbLine
 10
422.4730620513091
 20
306.8916691960516
 30
0.0
 11
422.4730620513091
 21
236.8916238320841
 31
0.0
  0
LINE
  5
354
330
1F
100
AcDbEntity
  8
B-A
  6
JWW_DASHED1
 62
     2
370
     9
100
AcDbLine
 10
434.9731032912797
 20
253.3920865445525
 30
0.0
 11
426.9732501055745
 21
253.3920865445525
 31
0.0
  0
LINE
  5
355
330
1F
100
AcDbEntity
  8
B-A
  6
JWW_DASHED1
 62
     2
370
     9
100
AcDbLine
 10
434.9731032912797
 20
252.3920585013725
 30
0.0
 11
426.9732501055745
 21
252.3920585013725
 31
0.0
  0
LINE
  5
356
330
1F
100
AcDbEntity
  8
B-A
  6
JWW_DASHED1
 62
     2
370
     9
100
AcDbLine
 10
434.9731032912797
 20
246.3915809425148
 30
0.0
 11
426.9732501055745
 21
246.3915809425148
 31
0.0
  0
LINE
  5
357
330
1F
100
AcDbEntity
  8
B-A
  6
JWW_DASHED1
 62
     2
370
     9
100
AcDbLine
 10
434.9731032912797
 20
245.3914910393793
 30
0.0
 11
426.9732501055745
 21
245.3914910393793
 31
0.0
  0
LINE
  5
358
330
1F
100
AcDbEntity
  8
B-1_ピット
  6
Continuous
 62
     2
370
     9
100
AcDbLine
 10
426.9732501055745
 20
256.7176777607687
 30
0.0
 11
434.9731032912797
 21
254.431890539221
 31
0.0
  0
LINE
  5
359
330
1F
100
AcDbEntity
  8
B-1_ピット
  6
Continuous
 62
     2
370
     9
100
AcDbLine
 10
426.9732501055745
 20
242.0662091229414
 30
0.0
 11
434.9731032912797
 21
244.3519344845335
 31
0.0
  0
LINE
  5
35A
330
1F
100
AcDbEntity
  8
B-3_受枠
  6
Continuous
 62
     4
370
     9
100
AcDbLine
 10
422.4730620513091
 20
236.8916238320841
 30
0.0
 11
426.1756278373102
 21
236.8916238320841
 31
0.0
  0
LINE
  5
35B
330
1F
100
AcDbEntity
  8
B-3_受枠
  6
Continuous
 62
     4
370
     9
100
AcDbLine
 10
426.9732501055745
 20
239.2881403742611
 30
0.0
 11
426.9732501055745
 21
306.8916691960516
 31
0.0
  0
LINE
  5
35C
330
1F
100
AcDbEntity
  8
B-A
  6
JWW_CENTER1
 62
     2
370
     9
100
AcDbLine
 10
409.273384712838
 20
249.3916032120988
 30
0.0
 11
448.7733170792865
 21
249.3916032120988
 31
0.0
  0
LINE
  5
35D
330
1F
100
AcDbEntity
  8
B-0_通り芯
  6
Continuous
 62
     3
370
     9
100
AcDbLine
 10
426.4732979439401
 20
-203.7331287280933
 30
0.0
 11
415.9731890704182
 21
-201.1082870895798
 31
0.0
  0
LINE
  5
35E
330
1F
100
AcDbEntity
  8
B-0_通り芯
  6
Continuous
 62
     3
370
     9
100
AcDbLine
 10
426.4732979439401
 20
-212.5368520375844
 30
0.0
 11
426.4732979439401
 21
-203.7331287280933
 31
0.0
  0
LINE
  5
35F
330
1F
100
AcDbEntity
  8
B-0_通り芯
  6
Continuous
 62
     3
370
     9
100
AcDbLine
 10
424.4732418575802
 20
-213.1081287280933
 30
0.0
 11
426.4732979439401
 21
-212.5368520375844
 31
0.0
  0
LINE
  5
360
330
1F
100
AcDbEntity
  8
B-1_ピット
  6
Continuous
 62
     2
370
     9
100
AcDbLine
 10
426.4732979439401
 20
-206.6080701673353
 30
0.0
 11
426.4732979439401
 21
-211.6080866633234
 31
0.0
  0
LINE
  5
361
330
1F
100
AcDbEntity
  8
B-1_ピット
  6
Continuous
 62
     2
370
     9
100
AcDbLine
 10
422.9732616527662
 20
-222.8618972365921
 30
0.0
 11
422.9732616527662
 21
-219.7580739614125
 31
0.0
  0
LINE
  5
362
330
1F
100
AcDbEntity
  8
B-1_ピット
  6
Continuous
 62
     2
370
     9
100
AcDbLine
 10
424.4691591005068
 20
-217.9513302364865
 30
0.0
 11
429.5429126636404
 21
-212.877576673353
 31
0.0
  0
LINE
  5
363
330
1F
100
AcDbEntity
  8
B-1_ピット
  6
Continuous
 62
     2
370
     9
100
AcDbLine
 10
424.4732418575802
 20
-215.8260077399177
 30
0.0
 11
428.1982009475297
 21
-212.1009867900126
 31
0.0
  0
LINE
  5
364
330
1F
100
AcDbEntity
  8
B-1_ピット
  6
Continuous
 62
     2
370
     9
100
AcDbLine
 10
424.4732418575802
 20
-213.7046442805109
 30
0.0
 11
425.3082275390625
 21
-212.869596739073
 31
0.0
  0
LINE
  5
365
330
1F
100
AcDbEntity
  8
B-0_通り芯
  6
Continuous
 62
     3
370
     9
100
AcDbLine
 10
424.4734892974029
 20
216.6054555532095
 30
0.0
 11
424.4734892974029
 21
209.3719853581609
 31
0.0
  0
LINE
  5
366
330
1F
100
AcDbEntity
  8
B-0_通り芯
  6
Continuous
 62
     3
370
     9
100
AcDbLine
 10
426.4732979439401
 20
202.5170362317886
 30
0.0
 11
415.9731890704182
 21
199.8920708733637
 31
0.0
  0
LINE
  5
367
330
1F
100
AcDbEntity
  8
B-0_通り芯
  6
Continuous
 62
     3
370
     9
100
AcDbLine
 10
426.4732979439401
 20
211.3205739614126
 30
0.0
 11
426.4732979439401
 21
202.5170362317886
 31
0.0
  0
LINE
  5
368
330
1F
100
AcDbEntity
  8
B-0_通り芯
  6
Continuous
 62
     3
370
     9
100
AcDbLine
 10
424.4732418575802
 20
211.8919743718328
 30
0.0
 11
426.4732979439401
 21
211.3205739614126
 31
0.0
  0
LINE
  5
369
330
1F
100
AcDbEntity
  8
B-1_ピット
  6
Continuous
 62
     2
370
     9
100
AcDbLine
 10
423.6505044473185
 20
218.2223510742188
 30
0.0
 11
428.7591470254435
 21
223.3309936523438
 31
0.0
  0
LINE
  5
36A
330
1F
100
AcDbEntity
  8
B-1_ピット
  6
Continuous
 62
     2
370
     9
100
AcDbLine
 10
424.4513434332771
 20
216.9018266007707
 30
0.0
 11
429.8167048273859
 21
222.2671879948797
 31
0.0
  0
LINE
  5
36B
330
1F
100
AcDbEntity
  8
B-1_ピット
  6
Continuous
 62
     2
370
     9
100
AcDbLine
 10
424.4734892974029
 20
214.80260900549
 30
0.0
 11
429.9733342351141
 21
220.3023920832455
 31
0.0
  0
LINE
  5
36C
330
1F
100
AcDbEntity
  8
B-1_ピット
  6
Continuous
 62
     2
370
     9
100
AcDbLine
 10
424.4734892974029
 20
212.6813074060389
 30
0.0
 11
429.9733342351141
 21
218.1810904837944
 31
0.0
  0
LINE
  5
36D
330
1F
100
AcDbEntity
  8
B-1_ピット
  6
Continuous
 62
     2
370
     9
100
AcDbLine
 10
425.5095198347763
 20
211.5959126240499
 30
0.0
 11
429.9733342351141
 21
216.0597270243878
 31
0.0
  0
LINE
  5
36E
330
1F
100
AcDbEntity
  8
B-1_ピット
  6
Continuous
 62
     2
370
     9
100
AcDbLine
 10
422.9732616527662
 20
221.6458047402872
 30
0.0
 11
422.9732616527662
 21
218.5419814651077
 31
0.0
  0
LINE
  5
36F
330
1F
100
AcDbEntity
  8
B-1_ピット
  6
Continuous
 62
     2
370
     9
100
AcDbLine
 10
423.1778943860854
 20
235.2932862977724
 30
0.0
 11
372.9729729729729
 21
232.7186749432539
 31
0.0
  0
LINE
  5
370
330
1F
100
AcDbEntity
  8
B-4_寸法
  6
Continuous
 62
     7
370
     9
100
AcDbLine
 10
369.973136283256
 20
-347.5857956345017
 30
0.0
 11
434.9731032912797
 21
-347.5857956345017
 31
0.0
  0
LINE
  5
371
330
1F
100
AcDbEntity
  8
B-4_寸法
  6
Continuous
 62
     7
370
     9
100
AcDbLine
 10
369.973136283256
 20
-241.6081237792969
 30
0.0
 11
369.973136283256
 21
-349.0858067692937
 31
0.0
  0
LINE
  5
372
330
1F
100
AcDbEntity
  8
B-4_寸法
  6
Continuous
 62
     7
370
     9
100
AcDbLine
 10
434.9731032912797
 20
-273.1081101701066
 30
0.0
 11
434.9731032912797
 21
-349.0858067692937
 31
0.0
  0
LINE
  5
373
330
1F
100
AcDbEntity
  8
B-4_寸法
  6
Continuous
 62
     7
370
     9
100
AcDbLine
 10
369.973136283256
 20
-347.5857956345017
 30
0.0
 11
384.8447645032729
 21
-345.6278971079234
 31
0.0
  0
LINE
  5
374
330
1F
100
AcDbEntity
  8
B-4_寸法
  6
Continuous
 62
     7
370
     9
100
AcDbLine
 10
369.973136283256
 20
-347.5857956345017
 30
0.0
 11
384.8447645032729
 21
-349.54369416108
 31
0.0
  0
LINE
  5
375
330
1F
100
AcDbEntity
  8
B-4_寸法
  6
Continuous
 62
     7
370
     9
100
AcDbLine
 10
434.9731032912797
 20
-347.5857956345017
 30
0.0
 11
420.1014750712628
 21
-345.6278971079234
 31
0.0
  0
LINE
  5
376
330
1F
100
AcDbEntity
  8
B-4_寸法
  6
Continuous
 62
     7
370
     9
100
AcDbLine
 10
434.9731032912797
 20
-347.5857956345017
 30
0.0
 11
420.1014750712628
 21
-349.54369416108
 31
0.0
  0
ARC
  5
377
330
1F
100
AcDbEntity
  8
B-1_ピット
  6
Continuous
 62
     2
370
     9
100
AcDbCircle
 10
-642.0553671347127
 20
-225.6080462481524
 30
0.0
 40
26.99999938140044
100
AcDbArc
 50
180.0
 51
270.0
  0
ARC
  5
378
330
1F
100
AcDbEntity
  8
B-1_ピット
  6
Continuous
 62
     2
370
     9
100
AcDbCircle
 10
-642.0553671347127
 20
-225.6080462481524
 30
0.0
 40
29.00000134029904
100
AcDbArc
 50
180.0
 51
270.0
  0
ARC
  5
379
330
1F
100
AcDbEntity
  8
B-1_ピット
  6
Continuous
 62
     2
370
     9
100
AcDbCircle
 10
-642.0553671347127
 20
-225.6080462481524
 30
0.0
 40
39.00000340229757
100
AcDbArc
 50
180.0
 51
270.0
  0
ARC
  5
37A
330
1F
100
AcDbEntity
  8
B-1_ピット
  6
Continuous
 62
     2
370
     9
100
AcDbCircle
 10
-642.0553671347127
 20
-225.6080462481524
 30
0.0
 40
40.00000051549964
100
AcDbArc
 50
180.0
 51
270.0
  0
ARC
  5
37B
330
1F
100
AcDbEntity
  8
B-1_ピット
  6
Continuous
 62
     2
370
     9
100
AcDbCircle
 10
-642.0553671347127
 20
224.3918918918919
 30
0.0
 40
26.99999938140044
100
AcDbArc
 50
90.0
 51
180.0
  0
ARC
  5
37C
330
1F
100
AcDbEntity
  8
B-1_ピット
  6
Continuous
 62
     2
370
     9
100
AcDbCircle
 10
-642.0553671347127
 20
224.3918918918919
 30
0.0
 40
29.00000134029904
100
AcDbArc
 50
90.0
 51
180.0
  0
ARC
  5
37D
330
1F
100
AcDbEntity
  8
B-1_ピット
  6
Continuous
 62
     2
370
     9
100
AcDbCircle
 10
-642.0553671347127
 20
224.3918918918919
 30
0.0
 40
39.00000340229757
100
AcDbArc
 50
90.0
 51
180.0
  0
ARC
  5
37E
330
1F
100
AcDbEntity
  8
B-1_ピット
  6
Continuous
 62
     2
370
     9
100
AcDbCircle
 10
-642.0553671347127
 20
224.3918918918919
 30
0.0
 40
40.00000051549964
100
AcDbArc
 50
90.0
 51
180.0
  0
ARC
  5
37F
330
1F
100
AcDbEntity
  8
B-1_ピット
  6
Continuous
 62
     2
370
     9
100
AcDbCircle
 10
-192.0554289946685
 20
224.3918918918919
 30
0.0
 40
26.99999938140044
100
AcDbArc
 50
0.0
 51
90.0
  0
ARC
  5
380
330
1F
100
AcDbEntity
  8
B-1_ピット
  6
Continuous
 62
     2
370
     9
100
AcDbCircle
 10
-192.0554289946685
 20
224.3918918918919
 30
0.0
 40
29.00000134029904
100
AcDbArc
 50
0.0
 51
90.0
  0
ARC
  5
381
330
1F
100
AcDbEntity
  8
B-1_ピット
  6
Continuous
 62
     2
370
     9
100
AcDbCircle
 10
-192.0554289946685
 20
224.3918918918919
 30
0.0
 40
39.00000340229757
100
AcDbArc
 50
0.0
 51
90.0
  0
ARC
  5
382
330
1F
100
AcDbEntity
  8
B-1_ピット
  6
Continuous
 62
     2
370
     9
100
AcDbCircle
 10
-192.0554289946685
 20
224.3918918918919
 30
0.0
 40
40.00000051549964
100
AcDbArc
 50
0.0
 51
90.0
  0
ARC
  5
383
330
1F
100
AcDbEntity
  8
B-1_ピット
  6
Continuous
 62
     2
370
     9
100
AcDbCircle
 10
-192.0554289946685
 20
-225.6080462481524
 30
0.0
 40
26.99999938140044
100
AcDbArc
 50
270.0
 51
0.0
  0
ARC
  5
384
330
1F
100
AcDbEntity
  8
B-1_ピット
  6
Continuous
 62
     2
370
     9
100
AcDbCircle
 10
-192.0554289946685
 20
-225.6080462481524
 30
0.0
 40
29.00000134029904
100
AcDbArc
 50
270.0
 51
0.0
  0
ARC
  5
385
330
1F
100
AcDbEntity
  8
B-1_ピット
  6
Continuous
 62
     2
370
     9
100
AcDbCircle
 10
-192.0554289946685
 20
-225.6080462481524
 30
0.0
 40
39.00000340229757
100
AcDbArc
 50
270.0
 51
0.0
  0
ARC
  5
386
330
1F
100
AcDbEntity
  8
B-1_ピット
  6
Continuous
 62
     2
370
     9
100
AcDbCircle
 10
-192.0554289946685
 20
-225.6080462481524
 30
0.0
 40
40.00000051549964
100
AcDbArc
 50
270.0
 51
0.0
  0
ARC
  5
387
330
1F
100
AcDbEntity
  8
B-1_ピット
  6
Continuous
 62
     2
370
     9
100
AcDbCircle
 10
-667.0552021748312
 20
-169.6024549329603
 30
0.0
 40
1.999999904954756
100
AcDbArc
 50
90.0
 51
180.0
  0
ARC
  5
388
330
1F
100
AcDbEntity
  8
B-1_ピット
  6
Continuous
 62
     2
370
     9
100
AcDbCircle
 10
-655.5551889780405
 20
-169.6024549329603
 30
0.0
 40
1.999999904954756
100
AcDbArc
 50
0.0
 51
90.0
  0
ARC
  5
389
330
1F
100
AcDbEntity
  8
B-1_ピット
  6
Continuous
 62
     2
370
     9
100
AcDbCircle
 10
-655.5551889780405
 20
-131.6024409113703
 30
0.0
 40
1.999999904954756
100
AcDbArc
 50
270.0
 51
0.0
  0
ARC
  5
38A
330
1F
100
AcDbEntity
  8
B-1_ピット
  6
Continuous
 62
     2
370
     9
100
AcDbCircle
 10
-667.0552021748312
 20
-131.6024409113703
 30
0.0
 40
1.999999904954756
100
AcDbArc
 50
180.0
 51
270.0
  0
ARC
  5
38B
330
1F
100
AcDbEntity
  8
B-1_ピット
  6
Continuous
 62
     2
370
     9
100
AcDbCircle
 10
-667.0552021748312
 20
-169.6024549329603
 30
0.0
 40
3.999999809909511
100
AcDbArc
 50
90.0
 51
180.0
  0
ARC
  5
38C
330
1F
100
AcDbEntity
  8
B-1_ピット
  6
Continuous
 62
     2
370
     9
100
AcDbCircle
 10
-667.0552021748312
 20
-131.6024409113703
 30
0.0
 40
3.999999809909511
100
AcDbArc
 50
180.0
 51
270.0
  0
ARC
  5
38D
330
1F
100
AcDbEntity
  8
B-1_ピット
  6
Continuous
 62
     2
370
     9
100
AcDbCircle
 10
-655.5551889780405
 20
-169.6024549329603
 30
0.0
 40
3.999999809909511
100
AcDbArc
 50
30.00000000000002
 51
90.00000000000001
  0
ARC
  5
38E
330
1F
100
AcDbEntity
  8
B-1_ピット
  6
Continuous
 62
     2
370
     9
100
AcDbCircle
 10
-655.5551889780405
 20
-131.6024409113703
 30
0.0
 40
3.999999809909511
100
AcDbArc
 50
270.0
 51
330.0
  0
ARC
  5
38F
330
1F
100
AcDbEntity
  8
B-1_ピット
  6
Continuous
 62
     2
370
     9
100
AcDbCircle
 10
-586.050085119299
 20
-250.608005008182
 30
0.0
 40
1.999999904954756
100
AcDbArc
 50
270.0
 51
0.0
  0
ARC
  5
390
330
1F
100
AcDbEntity
  8
B-1_ピット
  6
Continuous
 62
     2
370
     9
100
AcDbCircle
 10
-586.050085119299
 20
-239.1079918113915
 30
0.0
 40
1.999999904954756
100
AcDbArc
 50
0.0
 51
90.0
  0
ARC
  5
391
330
1F
100
AcDbEntity
  8
B-1_ピット
  6
Continuous
 62
     2
370
     9
100
AcDbCircle
 10
-548.0500092377533
 20
-239.1079918113915
 30
0.0
 40
1.999999904954756
100
AcDbArc
 50
90.0
 51
180.0
  0
ARC
  5
392
330
1F
100
AcDbEntity
  8
B-1_ピット
  6
Continuous
 62
     2
370
     9
100
AcDbCircle
 10
-548.0500092377533
 20
-250.608005008182
 30
0.0
 40
1.999999904954756
100
AcDbArc
 50
180.0
 51
270.0
  0
ARC
  5
393
330
1F
100
AcDbEntity
  8
B-1_ピット
  6
Continuous
 62
     2
370
     9
100
AcDbCircle
 10
-586.050085119299
 20
-250.608005008182
 30
0.0
 40
3.999999809909511
100
AcDbArc
 50
270.0
 51
0.0
  0
ARC
  5
394
330
1F
100
AcDbEntity
  8
B-1_ピット
  6
Continuous
 62
     2
370
     9
100
AcDbCircle
 10
-548.0500092377533
 20
-250.608005008182
 30
0.0
 40
3.999999809909511
100
AcDbArc
 50
180.0
 51
270.0
  0
ARC
  5
395
330
1F
100
AcDbEntity
  8
B-1_ピット
  6
Continuous
 62
     2
370
     9
100
AcDbCircle
 10
-586.050085119299
 20
-239.1079918113915
 30
0.0
 40
3.999999809909511
100
AcDbArc
 50
0.0
 51
59.99999999999999
  0
ARC
  5
396
330
1F
100
AcDbEntity
  8
B-1_ピット
  6
Continuous
 62
     2
370
     9
100
AcDbCircle
 10
-548.0500092377533
 20
-239.1079918113915
 30
0.0
 40
3.999999809909511
100
AcDbArc
 50
119.999984741211
 51
179.999984741211
  0
ARC
  5
397
330
1F
100
AcDbEntity
  8
B-1_ピット
  6
Continuous
 62
     2
370
     9
100
AcDbCircle
 10
-167.0554083746832
 20
-169.6024549329603
 30
0.0
 40
1.999999904954756
100
AcDbArc
 50
0.0
 51
90.0
  0
ARC
  5
398
330
1F
100
AcDbEntity
  8
B-1_ピット
  6
Continuous
 62
     2
370
     9
100
AcDbCircle
 10
-178.5554215714738
 20
-169.6024549329603
 30
0.0
 40
1.999999904954756
100
AcDbArc
 50
90.0
 51
180.0
  0
ARC
  5
399
330
1F
100
AcDbEntity
  8
B-1_ピット
  6
Continuous
 62
     2
370
     9
100
AcDbCircle
 10
-178.5554215714738
 20
-131.6024409113703
 30
0.0
 40
1.999999904954756
100
AcDbArc
 50
180.0
 51
270.0
  0
ARC
  5
39A
330
1F
100
AcDbEntity
  8
B-1_ピット
  6
Continuous
 62
     2
370
     9
100
AcDbCircle
 10
-167.0554083746832
 20
-131.6024409113703
 30
0.0
 40
1.999999904954756
100
AcDbArc
 50
270.0
 51
0.0
  0
ARC
  5
39B
330
1F
100
AcDbEntity
  8
B-1_ピット
  6
Continuous
 62
     2
370
     9
100
AcDbCircle
 10
-167.0554083746832
 20
-169.6024549329603
 30
0.0
 40
3.999999809909511
100
AcDbArc
 50
0.0
 51
90.0
  0
ARC
  5
39C
330
1F
100
AcDbEntity
  8
B-1_ピット
  6
Continuous
 62
     2
370
     9
100
AcDbCircle
 10
-167.0554083746832
 20
-131.6024409113703
 30
0.0
 40
3.999999809909511
100
AcDbArc
 50
270.0
 51
0.0
  0
ARC
  5
39D
330
1F
100
AcDbEntity
  8
B-1_ピット
  6
Continuous
 62
     2
370
     9
100
AcDbCircle
 10
-178.5554215714738
 20
-169.6024549329603
 30
0.0
 40
3.999999809909511
100
AcDbArc
 50
90.0
 51
149.9999847412109
  0
ARC
  5
39E
330
1F
100
AcDbEntity
  8
B-1_ピット
  6
Continuous
 62
     2
370
     9
100
AcDbCircle
 10
-178.5554215714738
 20
-131.6024409113703
 30
0.0
 40
3.999999809909511
100
AcDbArc
 50
209.9999847412109
 51
269.9999847412109
  0
ARC
  5
39F
330
1F
100
AcDbEntity
  8
B-1_ピット
  6
Continuous
 62
     2
370
     9
100
AcDbCircle
 10
-248.0609584499049
 20
-250.608005008182
 30
0.0
 40
1.999999904954756
100
AcDbArc
 50
180.0
 51
270.0
  0
ARC
  5
3A0
330
1F
100
AcDbEntity
  8
B-1_ピット
  6
Continuous
 62
     2
370
     9
100
AcDbCircle
 10
-248.0609584499049
 20
-239.1079918113915
 30
0.0
 40
1.999999904954756
100
AcDbArc
 50
90.0
 51
180.0
  0
ARC
  5
3A1
330
1F
100
AcDbEntity
  8
B-1_ピット
  6
Continuous
 62
     2
370
     9
100
AcDbCircle
 10
-286.0609724714949
 20
-239.1079918113915
 30
0.0
 40
1.999999904954756
100
AcDbArc
 50
0.0
 51
90.0
  0
ARC
  5
3A2
330
1F
100
AcDbEntity
  8
B-1_ピット
  6
Continuous
 62
     2
370
     9
100
AcDbCircle
 10
-286.0609724714949
 20
-250.608005008182
 30
0.0
 40
1.999999904954756
100
AcDbArc
 50
270.0
 51
0.0
  0
ARC
  5
3A3
330
1F
100
AcDbEntity
  8
B-1_ピット
  6
Continuous
 62
     2
370
     9
100
AcDbCircle
 10
-248.0609584499049
 20
-250.608005008182
 30
0.0
 40
3.999999809909511
100
AcDbArc
 50
180.0
 51
270.0
  0
ARC
  5
3A4
330
1F
100
AcDbEntity
  8
B-1_ピット
  6
Continuous
 62
     2
370
     9
100
AcDbCircle
 10
-286.0609724714949
 20
-250.608005008182
 30
0.0
 40
3.999999809909511
100
AcDbArc
 50
270.0
 51
0.0
  0
ARC
  5
3A5
330
1F
100
AcDbEntity
  8
B-1_ピット
  6
Continuous
 62
     2
370
     9
100
AcDbCircle
 10
-248.0609584499049
 20
-239.1079918113915
 30
0.0
 40
3.999999809909511
100
AcDbArc
 50
119.999984741211
 51
179.999984741211
  0
ARC
  5
3A6
330
1F
100
AcDbEntity
  8
B-1_ピット
  6
Continuous
 62
     2
370
     9
100
AcDbCircle
 10
-286.0609724714949
 20
-239.1079918113915
 30
0.0
 40
3.999999809909511
100
AcDbArc
 50
0.0
 51
59.99999999999999
  0
ARC
  5
3A7
330
1F
100
AcDbEntity
  8
B-1_ピット
  6
Continuous
 62
     2
370
     9
100
AcDbCircle
 10
-667.0552021748312
 20
168.3864242966111
 30
0.0
 40
1.999999904954756
100
AcDbArc
 50
180.0
 51
270.0
  0
ARC
  5
3A8
330
1F
100
AcDbEntity
  8
B-1_ピット
  6
Continuous
 62
     2
370
     9
100
AcDbCircle
 10
-655.5551889780405
 20
168.3864242966111
 30
0.0
 40
1.999999904954756
100
AcDbArc
 50
270.0
 51
0.0
  0
ARC
  5
3A9
330
1F
100
AcDbEntity
  8
B-1_ピット
  6
Continuous
 62
     2
370
     9
100
AcDbCircle
 10
-655.5551889780405
 20
130.3863484150655
 30
0.0
 40
1.999999904954756
100
AcDbArc
 50
0.0
 51
90.0
  0
ARC
  5
3AA
330
1F
100
AcDbEntity
  8
B-1_ピット
  6
Continuous
 62
     2
370
     9
100
AcDbCircle
 10
-667.0552021748312
 20
130.3863484150655
 30
0.0
 40
1.999999904954756
100
AcDbArc
 50
90.0
 51
180.0
  0
ARC
  5
3AB
330
1F
100
AcDbEntity
  8
B-1_ピット
  6
Continuous
 62
     2
370
     9
100
AcDbCircle
 10
-667.0552021748312
 20
168.3864242966111
 30
0.0
 40
3.999999809909511
100
AcDbArc
 50
180.0
 51
270.0
  0
ARC
  5
3AC
330
1F
100
AcDbEntity
  8
B-1_ピット
  6
Continuous
 62
     2
370
     9
100
AcDbCircle
 10
-667.0552021748312
 20
130.3863484150655
 30
0.0
 40
3.999999809909511
100
AcDbArc
 50
90.0
 51
180.0
  0
ARC
  5
3AD
330
1F
100
AcDbEntity
  8
B-1_ピット
  6
Continuous
 62
     2
370
     9
100
AcDbCircle
 10
-655.5551889780405
 20
168.3864242966111
 30
0.0
 40
3.999999809909511
100
AcDbArc
 50
270.0
 51
330.0
  0
ARC
  5
3AE
330
1F
100
AcDbEntity
  8
B-1_ピット
  6
Continuous
 62
     2
370
     9
100
AcDbCircle
 10
-655.5551889780405
 20
130.3863484150655
 30
0.0
 40
3.999999809909511
100
AcDbArc
 50
30.00000000000002
 51
90.00000000000001
  0
ARC
  5
3AF
330
1F
100
AcDbEntity
  8
B-1_ピット
  6
Continuous
 62
     2
370
     9
100
AcDbCircle
 10
-586.050085119299
 20
249.3919743718328
 30
0.0
 40
1.999999904954756
100
AcDbArc
 50
0.0
 51
90.0
  0
ARC
  5
3B0
330
1F
100
AcDbEntity
  8
B-1_ピット
  6
Continuous
 62
     2
370
     9
100
AcDbCircle
 10
-586.050085119299
 20
237.8917137352197
 30
0.0
 40
1.999999904954756
100
AcDbArc
 50
270.0
 51
0.0
  0
ARC
  5
3B1
330
1F
100
AcDbEntity
  8
B-1_ピット
  6
Continuous
 62
     2
370
     9
100
AcDbCircle
 10
-548.0500092377533
 20
237.8917137352197
 30
0.0
 40
1.999999904954756
100
AcDbArc
 50
180.0
 51
270.0
  0
ARC
  5
3B2
330
1F
100
AcDbEntity
  8
B-1_ピット
  6
Continuous
 62
     2
370
     9
100
AcDbCircle
 10
-548.0500092377533
 20
249.3919743718328
 30
0.0
 40
1.999999904954756
100
AcDbArc
 50
90.0
 51
180.0
  0
ARC
  5
3B3
330
1F
100
AcDbEntity
  8
B-1_ピット
  6
Continuous
 62
     2
370
     9
100
AcDbCircle
 10
-586.050085119299
 20
249.3919743718328
 30
0.0
 40
3.999999809909511
100
AcDbArc
 50
0.0
 51
90.0
  0
ARC
  5
3B4
330
1F
100
AcDbEntity
  8
B-1_ピット
  6
Continuous
 62
     2
370
     9
100
AcDbCircle
 10
-548.0500092377533
 20
249.3919743718328
 30
0.0
 40
3.999999809909511
100
AcDbArc
 50
90.0
 51
180.0
  0
ARC
  5
3B5
330
1F
100
AcDbEntity
  8
B-1_ピット
  6
Continuous
 62
     2
370
     9
100
AcDbCircle
 10
-586.050085119299
 20
237.8917137352197
 30
0.0
 40
3.999999809909511
100
AcDbArc
 50
300.0
 51
0.0000000000000127
  0
ARC
  5
3B6
330
1F
100
AcDbEntity
  8
B-1_ピット
  6
Continuous
 62
     2
370
     9
100
AcDbCircle
 10
-548.0500092377533
 20
237.8917137352197
 30
0.0
 40
3.999999809909511
100
AcDbArc
 50
180.0
 51
240.0
  0
ARC
  5
3B7
330
1F
100
AcDbEntity
  8
B-1_ピット
  6
Continuous
 62
     2
370
     9
100
AcDbCircle
 10
-167.0554083746832
 20
168.3864242966111
 30
0.0
 40
1.999999904954756
100
AcDbArc
 50
270.0
 51
0.0
  0
ARC
  5
3B8
330
1F
100
AcDbEntity
  8
B-1_ピット
  6
Continuous
 62
     2
370
     9
100
AcDbCircle
 10
-178.5554215714738
 20
168.3864242966111
 30
0.0
 40
1.999999904954756
100
AcDbArc
 50
180.0
 51
270.0
  0
ARC
  5
3B9
330
1F
100
AcDbEntity
  8
B-1_ピット
  6
Continuous
 62
     2
370
     9
100
AcDbCircle
 10
-178.5554215714738
 20
130.3863484150655
 30
0.0
 40
1.999999904954756
100
AcDbArc
 50
90.0
 51
180.0
  0
ARC
  5
3BA
330
1F
100
AcDbEntity
  8
B-1_ピット
  6
Continuous
 62
     2
370
     9
100
AcDbCircle
 10
-167.0554083746832
 20
130.3863484150655
 30
0.0
 40
1.999999904954756
100
AcDbArc
 50
0.0
 51
90.0
  0
ARC
  5
3BB
330
1F
100
AcDbEntity
  8
B-1_ピット
  6
Continuous
 62
     2
370
     9
100
AcDbCircle
 10
-167.0554083746832
 20
168.3864242966111
 30
0.0
 40
3.999999809909511
100
AcDbArc
 50
270.0
 51
0.0
  0
ARC
  5
3BC
330
1F
100
AcDbEntity
  8
B-1_ピット
  6
Continuous
 62
     2
370
     9
100
AcDbCircle
 10
-167.0554083746832
 20
130.3863484150655
 30
0.0
 40
3.999999809909511
100
AcDbArc
 50
0.0
 51
90.0
  0
ARC
  5
3BD
330
1F
100
AcDbEntity
  8
B-1_ピット
  6
Continuous
 62
     2
370
     9
100
AcDbCircle
 10
-178.5554215714738
 20
168.3864242966111
 30
0.0
 40
3.999999809909511
100
AcDbArc
 50
209.9999847412109
 51
269.9999847412109
  0
ARC
  5
3BE
330
1F
100
AcDbEntity
  8
B-1_ピット
  6
Continuous
 62
     2
370
     9
100
AcDbCircle
 10
-178.5554215714738
 20
130.3863484150655
 30
0.0
 40
3.999999809909511
100
AcDbArc
 50
90.0
 51
149.9999847412109
  0
ARC
  5
3BF
330
1F
100
AcDbEntity
  8
B-1_ピット
  6
Continuous
 62
     2
370
     9
100
AcDbCircle
 10
-248.0609584499049
 20
249.3919743718328
 30
0.0
 40
1.999999904954756
100
AcDbArc
 50
90.0
 51
180.0
  0
ARC
  5
3C0
330
1F
100
AcDbEntity
  8
B-1_ピット
  6
Continuous
 62
     2
370
     9
100
AcDbCircle
 10
-248.0609584499049
 20
237.8917137352197
 30
0.0
 40
1.999999904954756
100
AcDbArc
 50
180.0
 51
270.0
  0
ARC
  5
3C1
330
1F
100
AcDbEntity
  8
B-1_ピット
  6
Continuous
 62
     2
370
     9
100
AcDbCircle
 10
-286.0609724714949
 20
237.8917137352197
 30
0.0
 40
1.999999904954756
100
AcDbArc
 50
270.0
 51
0.0
  0
ARC
  5
3C2
330
1F
100
AcDbEntity
  8
B-1_ピット
  6
Continuous
 62
     2
370
     9
100
AcDbCircle
 10
-286.0609724714949
 20
249.3919743718328
 30
0.0
 40
1.999999904954756
100
AcDbArc
 50
0.0
 51
90.0
  0
ARC
  5
3C3
330
1F
100
AcDbEntity
  8
B-1_ピット
  6
Continuous
 62
     2
370
     9
100
AcDbCircle
 10
-248.0609584499049
 20
249.3919743718328
 30
0.0
 40
3.999999809909511
100
AcDbArc
 50
90.0
 51
180.0
  0
ARC
  5
3C4
330
1F
100
AcDbEntity
  8
B-1_ピット
  6
Continuous
 62
     2
370
     9
100
AcDbCircle
 10
-286.0609724714949
 20
249.3919743718328
 30
0.0
 40
3.999999809909511
100
AcDbArc
 50
0.0
 51
90.0
  0
ARC
  5
3C5
330
1F
100
AcDbEntity
  8
B-1_ピット
  6
Continuous
 62
     2
370
     9
100
AcDbCircle
 10
-248.0609584499049
 20
237.8917137352197
 30
0.0
 40
3.999999809909511
100
AcDbArc
 50
180.0
 51
240.0
  0
ARC
  5
3C6
330
1F
100
AcDbEntity
  8
B-1_ピット
  6
Continuous
 62
     2
370
     9
100
AcDbCircle
 10
-286.0609724714949
 20
237.8917137352197
 30
0.0
 40
3.999999809909511
100
AcDbArc
 50
300.0
 51
0.0000000000000127
  0
ARC
  5
3C7
330
1F
100
AcDbEntity
  8
B-0_通り芯
  6
Continuous
 62
     3
370
     9
100
AcDbCircle
 10
419.9733012431378
 20
6.56560536977409
 30
0.0
 40
3.000000038662472
100
AcDbArc
 50
276.5819396972656
 51
0.0
  0
ARC
  5
3C8
330
1F
100
AcDbEntity
  8
B-0_通り芯
  6
Continuous
 62
     3
370
     9
100
AcDbCircle
 10
381.9728542018581
 20
149.9525286700275
 30
0.0
 40
3.000000038662472
100
AcDbArc
 50
0.0
 51
78.23170471191406
  0
ARC
  5
3C9
330
1F
100
AcDbEntity
  8
B-0_通り芯
  6
Continuous
 62
     3
370
     9
100
AcDbCircle
 10
381.9728542018581
 20
128.831312849715
 30
0.0
 40
3.000000038662472
100
AcDbArc
 50
281.7682800292969
 51
0.0000000000000254
  0
ARC
  5
3CA
330
1F
100
AcDbEntity
  8
B-0_通り芯
  6
Continuous
 62
     3
370
     9
100
AcDbCircle
 10
392.9729152370143
 20
150.3918580751161
 30
0.0
 40
1.999999904954756
100
AcDbArc
 50
90.0
 51
180.0
  0
ARC
  5
3CB
330
1F
100
AcDbEntity
  8
B-0_通り芯
  6
Continuous
 62
     3
370
     9
100
AcDbCircle
 10
392.9729152370143
 20
128.391859724715
 30
0.0
 40
1.999999904954756
100
AcDbArc
 50
180.0
 51
270.0
  0
ARC
  5
3CC
330
1F
100
AcDbEntity
  8
B-0_通り芯
  6
Continuous
 62
     3
370
     9
100
AcDbCircle
 10
405.9731560784419
 20
210.4224292652027
 30
0.0
 40
3.999999809909511
100
AcDbArc
 50
0.0
 51
83.54118347167969
  0
ARC
  5
3CD
330
1F
100
AcDbEntity
  8
B-0_通り芯
  6
Continuous
 62
     3
370
     9
100
AcDbCircle
 10
422.4734332110432
 20
216.6054555532095
 30
0.0
 40
1.999999904954756
100
AcDbArc
 50
0.0
 51
83.54118347167969
  0
ARC
  5
3CE
330
1F
100
AcDbEntity
  8
B-0_通り芯
  6
Continuous
 62
     3
370
     9
100
AcDbCircle
 10
419.9733012431378
 20
204.1083217311551
 30
0.0
 40
3.999999809909511
100
AcDbArc
 50
104.3847503662109
 51
180.0
  0
ARC
  5
3CF
330
1F
100
AcDbEntity
  8
B-0_通り芯
  6
Continuous
 62
     3
370
     9
100
AcDbCircle
 10
410.9734200142526
 20
114.3919001398861
 30
0.0
 40
3.000000038662472
100
AcDbArc
 50
0.0
 51
90.0
  0
ARC
  5
3D0
330
1F
100
AcDbEntity
  8
B-0_通り芯
  6
Continuous
 62
     3
370
     9
100
AcDbCircle
 10
410.9734200142526
 20
100.5754790434966
 30
0.0
 40
3.000000038662472
100
AcDbArc
 50
278.53076171875
 51
0.0
  0
ARC
  5
3D1
330
1F
100
AcDbEntity
  8
B-0_通り芯
  6
Continuous
 62
     3
370
     9
100
AcDbCircle
 10
419.9733012431378
 20
87.21818253800677
 30
0.0
 40
3.000000038662472
100
AcDbArc
 50
0.0
 51
83.41804504394531
  0
ARC
  5
3D2
330
1F
100
AcDbEntity
  8
B-0_通り芯
  6
Continuous
 62
     3
370
     9
100
AcDbCircle
 10
426.9733738254857
 20
93.15593410182643
 30
0.0
 40
1.999999904954756
100
AcDbArc
 50
0.0
 51
63.43493652343751
  0
ARC
  5
3D3
330
1F
100
AcDbEntity
  8
B-0_通り芯
  6
Continuous
 62
     3
370
     9
100
AcDbCircle
 10
421.9732336095862
 20
100.1279222643053
 30
0.0
 40
1.999999904954756
100
AcDbArc
 50
180.0
 51
243.4349365234375
  0
ARC
  5
3D4
330
1F
100
AcDbEntity
  8
B-0_通り芯
  6
Continuous
 62
     3
370
     9
100
AcDbCircle
 10
422.4734332110432
 20
166.8918877678949
 30
0.0
 40
1.500000019331236
100
AcDbArc
 50
180.0
 51
270.0
  0
ARC
  5
3D5
330
1F
100
AcDbEntity
  8
B-0_通り芯
  6
Continuous
 62
     3
370
     9
100
AcDbCircle
 10
430.4730389569258
 20
162.8918993150866
 30
0.0
 40
1.500000019331236
100
AcDbArc
 50
0.0
 51
90.0
  0
ARC
  5
3D6
330
1F
100
AcDbEntity
  8
B-0_通り芯
  6
Continuous
 62
     3
370
     9
100
AcDbCircle
 10
430.4730389569258
 20
115.8918184847445
 30
0.0
 40
1.500000019331236
100
AcDbArc
 50
270.0
 51
0.0
  0
ARC
  5
3D7
330
1F
100
AcDbEntity
  8
B-0_通り芯
  6
Continuous
 62
     3
370
     9
100
AcDbCircle
 10
422.4734332110432
 20
111.8918300319363
 30
0.0
 40
1.500000019331236
100
AcDbArc
 50
90.0
 51
180.0
  0
ARC
  5
3D8
330
1F
100
AcDbEntity
  8
B-0_通り芯
  6
Continuous
 62
     3
370
     9
100
AcDbCircle
 10
430.4730389569258
 20
162.8918993150866
 30
0.0
 40
2.500000032218727
100
AcDbArc
 50
0.0
 51
90.0
  0
ARC
  5
3D9
330
1F
100
AcDbEntity
  8
B-0_通り芯
  6
Continuous
 62
     3
370
     9
100
AcDbCircle
 10
430.4730389569258
 20
115.8918184847445
 30
0.0
 40
2.500000032218727
100
AcDbArc
 50
270.0
 51
0.0
  0
ARC
  5
3DA
330
1F
100
AcDbEntity
  8
B-0_通り芯
  6
Continuous
 62
     3
370
     9
100
AcDbCircle
 10
422.4734332110432
 20
166.8918877678949
 30
0.0
 40
2.500000032218727
100
AcDbArc
 50
180.0
 51
270.0
  0
ARC
  5
3DB
330
1F
100
AcDbEntity
  8
B-0_通り芯
  6
Continuous
 62
     3
370
     9
100
AcDbCircle
 10
422.4734332110432
 20
111.8918300319363
 30
0.0
 40
2.500000032218727
100
AcDbArc
 50
90.0
 51
180.0
  0
ARC
  5
3DC
330
1F
100
AcDbEntity
  8
B-0_通り芯
  6
Continuous
 62
     3
370
     9
100
AcDbCircle
 10
421.572999696474
 20
169.9919375857792
 30
0.0
 40
1.999999904954756
100
AcDbArc
 50
0.0
 51
90.0
  0
ARC
  5
3DD
330
1F
100
AcDbEntity
  8
B-0_通り芯
  6
Continuous
 62
     3
370
     9
100
AcDbCircle
 10
421.572999696474
 20
168.7917307260875
 30
0.0
 40
1.999999904954756
100
AcDbArc
 50
270.0
 51
0.0
  0
ARC
  5
3DE
330
1F
100
AcDbEntity
  8
B-0_通り芯
  6
Continuous
 62
     3
370
     9
100
AcDbCircle
 10
421.572999696474
 20
108.7919039339633
 30
0.0
 40
1.999999904954756
100
AcDbArc
 50
270.0
 51
0.0
  0
ARC
  5
3DF
330
1F
100
AcDbEntity
  8
B-0_通り芯
  6
Continuous
 62
     3
370
     9
100
AcDbCircle
 10
421.572999696474
 20
109.9918633538324
 30
0.0
 40
1.999999904954756
100
AcDbArc
 50
0.0
 51
90.0
  0
ARC
  5
3E0
330
1F
100
AcDbEntity
  8
B-0_通り芯
  6
Continuous
 62
     3
370
     9
100
AcDbCircle
 10
364.8490287162164
 20
139.3919207598712
 30
0.0
 40
17.5000016753738
100
AcDbArc
 50
16.60154724121095
 51
62.33953857421876
  0
ARC
  5
3E1
330
1F
100
AcDbEntity
  8
B-0_通り芯
  6
Continuous
 62
     3
370
     9
100
AcDbCircle
 10
364.8490287162164
 20
139.3919207598712
 30
0.0
 40
17.5000016753738
100
AcDbArc
 50
297.6604461669922
 51
343.3984375
  0
ARC
  5
3E2
330
1F
100
AcDbEntity
  8
B-0_通り芯
  6
Continuous
 62
     3
370
     9
100
AcDbCircle
 10
363.6746793179898
 20
139.3919207598712
 30
0.0
 40
14.50000067014952
100
AcDbArc
 50
20.17126464843752
 51
64.25419616699222
  0
ARC
  5
3E3
330
1F
100
AcDbEntity
  8
B-0_通り芯
  6
Continuous
 62
     3
370
     9
100
AcDbCircle
 10
363.6746793179898
 20
139.3919207598712
 30
0.0
 40
14.50000067014952
100
AcDbArc
 50
295.7457885742188
 51
339.8287200927735
  0
ARC
  5
3E4
330
1F
100
AcDbEntity
  8
B-1_ピット
  6
Continuous
 62
     2
370
     9
100
AcDbCircle
 10
427.9730307089318
 20
-222.7080515268686
 30
0.0
 40
1.999999904954756
100
AcDbArc
 50
272.9356536865234
 51
0.0000000000000127
  0
ARC
  5
3E5
330
1F
100
AcDbEntity
  8
B-1_ピット
  6
Continuous
 62
     2
370
     9
100
AcDbCircle
 10
427.9730307089318
 20
-214.1166934451541
 30
0.0
 40
1.999999904954756
100
AcDbArc
 50
0.0
 51
74.05459594726562
  0
ARC
  5
3E6
330
1F
100
AcDbEntity
  8
B-1_ピット
  6
Continuous
 62
     2
370
     9
100
AcDbCircle
 10
424.9731940192146
 20
-222.8618972365921
 30
0.0
 40
1.999999904954756
100
AcDbArc
 50
180.0
 51
272.9356689453125
  0
ARC
  5
3E7
330
1F
100
AcDbEntity
  8
B-1_ピット
  6
Continuous
 62
     2
370
     9
100
AcDbCircle
 10
427.9730307089318
 20
221.4918971706082
 30
0.0
 40
1.999999904954756
100
AcDbArc
 50
0.0
 51
87.06431579589844
  0
ARC
  5
3E8
330
1F
100
AcDbEntity
  8
B-1_ピット
  6
Continuous
 62
     2
370
     9
100
AcDbCircle
 10
427.9730307089318
 20
212.9005390888936
 30
0.0
 40
1.999999904954756
100
AcDbArc
 50
285.9453735351562
 51
0.0000000000000127
  0
ARC
  5
3E9
330
1F
100
AcDbEntity
  8
B-1_ピット
  6
Continuous
 62
     2
370
     9
100
AcDbCircle
 10
424.9731940192146
 20
221.6458047402872
 30
0.0
 40
1.999999904954756
100
AcDbArc
 50
87.06431579589841
 51
179.9999999999999
  0
ARC
  5
3EA
330
1F
100
AcDbEntity
  8
B-0_通り芯
  6
Continuous
 62
     3
370
     9
100
AcDbCircle
 10
413.9731329840583
 20
139.3919207598712
 30
0.0
 40
15.00000115987417
100
AcDbArc
 50
340.5287780761719
 51
19.47120666503908
  0
ARC
  5
3EB
330
1F
100
AcDbEntity
  8
B-0_通り芯
  6
Continuous
 62
     3
370
     9
100
AcDbCircle
 10
422.1424824482688
 20
131.0778189994194
 30
0.0
 40
6.830581619932845
100
AcDbArc
 50
0.0
 51
29.02496337890625
  0
ARC
  5
3EC
330
1F
100
AcDbEntity
  8
B-0_通り芯
  6
Continuous
 62
     3
370
     9
100
AcDbCircle
 10
422.1424824482688
 20
147.706022520323
 30
0.0
 40
6.830581619932845
100
AcDbArc
 50
330.9750213623048
 51
0.0000000000000382
  0
ARC
  5
3ED
330
1F
100
AcDbEntity
  8
B-1_ピット
  6
Continuous
 62
     2
370
     9
100
AcDbCircle
 10
-650.5551724820523
 20
-234.1080371753589
 30
0.0
 40
3.000000038662472
100
AcDbArc
 50
180.0
 51
270.0
  0
ARC
  5
3EE
330
1F
100
AcDbEntity
  8
B-1_ピット
  6
Continuous
 62
     2
370
     9
100
AcDbCircle
 10
-650.5551724820523
 20
232.8919446790542
 30
0.0
 40
3.000000038662472
100
AcDbArc
 50
90.0
 51
180.0
  0
ARC
  5
3EF
330
1F
100
AcDbEntity
  8
B-1_ピット
  6
Continuous
 62
     2
370
     9
100
AcDbCircle
 10
-183.5553143475506
 20
-234.1080371753589
 30
0.0
 40
3.000000038662472
100
AcDbArc
 50
270.0
 51
0.0
  0
ARC
  5
3F0
330
1F
100
AcDbEntity
  8
B-1_ピット
  6
Continuous
 62
     2
370
     9
100
AcDbCircle
 10
-183.5553143475506
 20
232.8919446790542
 30
0.0
 40
3.000000038662472
100
AcDbArc
 50
0.0
 51
90.0
  0
ARC
  5
3F1
330
1F
100
AcDbEntity
  8
B-0_通り芯
  6
Continuous
 62
     3
370
     9
100
AcDbCircle
 10
-631.5555057010134
 20
213.8920304581926
 30
0.0
 40
2.000000267415433
100
AcDbArc
 50
90.0
 51
180.0
  0
ARC
  5
3F2
330
1F
100
AcDbEntity
  8
B-0_通り芯
  6
Continuous
 62
     3
370
     9
100
AcDbCircle
 10
-202.5553522883234
 20
213.8920304581926
 30
0.0
 40
2.000000267415433
100
AcDbArc
 50
0.0
 51
90.0
  0
ARC
  5
3F3
330
1F
100
AcDbEntity
  8
B-0_通り芯
  6
Continuous
 62
     3
370
     9
100
AcDbCircle
 10
-202.5553522883234
 20
-215.1081229544974
 30
0.0
 40
2.000000267415433
100
AcDbArc
 50
270.0
 51
0.0
  0
ARC
  5
3F4
330
1F
100
AcDbEntity
  8
B-0_通り芯
  6
Continuous
 62
     3
370
     9
100
AcDbCircle
 10
-631.5555057010134
 20
-215.1081229544974
 30
0.0
 40
2.000000267415433
100
AcDbArc
 50
180.0
 51
270.0
  0
ARC
  5
3F5
330
1F
100
AcDbEntity
  8
B-0_通り芯
  6
Continuous
 62
     3
370
     9
100
AcDbCircle
 10
-417.0553671347128
 20
139.3919207598712
 30
0.0
 40
15.00000115987417
100
AcDbArc
 50
203.99560546875
 51
336.004379272461
  0
ARC
  5
3F6
330
1F
100
AcDbEntity
  8
B-0_通り芯
  6
Continuous
 62
     3
370
     9
100
AcDbCircle
 10
-417.0553671347128
 20
139.3919207598712
 30
0.0
 40
15.00000115987417
100
AcDbArc
 50
23.99560546875003
 51
156.004379272461
  0
ARC
  5
3F7
330
1F
100
AcDbEntity
  8
B-0_通り芯
  6
Continuous
 62
     3
370
     9
100
AcDbCircle
 10
-424.5554537386508
 20
6.891854775918489
 30
0.0
 40
3.000000038662472
100
AcDbArc
 50
270.0
 51
0.0
  0
ARC
  5
3F8
330
1F
100
AcDbEntity
  8
B-0_通り芯
  6
Continuous
 62
     3
370
     9
100
AcDbCircle
 10
-409.5554042506862
 20
6.891854775918489
 30
0.0
 40
3.000000038662472
100
AcDbArc
 50
180.0
 51
270.0
  0
ARC
  5
3F9
330
1F
100
AcDbEntity
  8
B-0_通り芯
  6
Continuous
 62
     3
370
     9
100
AcDbCircle
 10
-411.0553844555005
 20
5.391936431060032
 30
0.0
 40
3.000000038662472
100
AcDbArc
 50
180.0
 51
270.0
  0
ARC
  5
3FA
330
1F
100
AcDbEntity
  8
B-0_通り芯
  6
Continuous
 62
     3
370
     9
100
AcDbCircle
 10
-423.0554116738808
 20
5.391936431060032
 30
0.0
 40
3.000000038662472
100
AcDbArc
 50
270.0
 51
0.0
  0
ARC
  5
3FB
330
1F
100
AcDbEntity
  8
B-0_通り芯
  6
Continuous
 62
     3
370
     9
100
AcDbCircle
 10
-424.5554537386508
 20
101.8919207598712
 30
0.0
 40
3.000000038662472
100
AcDbArc
 50
270.0
 51
0.0
  0
ARC
  5
3FC
330
1F
100
AcDbEntity
  8
B-0_通り芯
  6
Continuous
 62
     3
370
     9
100
AcDbCircle
 10
-409.5554042506862
 20
101.8919207598712
 30
0.0
 40
3.000000038662472
100
AcDbArc
 50
180.0
 51
270.0
  0
ARC
  5
3FD
330
1F
100
AcDbEntity
  8
B-0_通り芯
  6
Continuous
 62
     3
370
     9
100
AcDbCircle
 10
-409.5554042506862
 20
86.89193313186237
 30
0.0
 40
3.000000038662472
100
AcDbArc
 50
90.0
 51
180.0
  0
ARC
  5
3FE
330
1F
100
AcDbEntity
  8
B-0_通り芯
  6
Continuous
 62
     3
370
     9
100
AcDbCircle
 10
-424.5554537386508
 20
86.89193313186237
 30
0.0
 40
3.000000038662472
100
AcDbArc
 50
0.0
 51
90.0
  0
ARC
  5
3FF
330
1F
100
AcDbEntity
  8
B-0_通り芯
  6
Continuous
 62
     3
370
     9
100
AcDbCircle
 10
-423.0554116738808
 20
88.39185147672097
 30
0.0
 40
3.000000038662472
100
AcDbArc
 50
0.0
 51
90.0
  0
ARC
  5
400
330
1F
100
AcDbEntity
  8
B-0_通り芯
  6
Continuous
 62
     3
370
     9
100
AcDbCircle
 10
-411.0553844555005
 20
88.39185147672097
 30
0.0
 40
3.000000038662472
100
AcDbArc
 50
90.0
 51
180.0
  0
ARC
  5
401
330
1F
100
AcDbEntity
  8
B-0_通り芯
  6
Continuous
 62
     3
370
     9
100
AcDbCircle
 10
-423.0554116738808
 20
100.3918786951014
 30
0.0
 40
3.000000038662472
100
AcDbArc
 50
270.0
 51
0.0
  0
ARC
  5
402
330
1F
100
AcDbEntity
  8
B-0_通り芯
  6
Continuous
 62
     3
370
     9
100
AcDbCircle
 10
-411.0553844555005
 20
100.3918786951014
 30
0.0
 40
3.000000038662472
100
AcDbArc
 50
180.0
 51
270.0
  0
ARC
  5
403
330
1F
100
AcDbEntity
  8
B-0_通り芯
  6
Continuous
 62
     3
370
     9
100
AcDbCircle
 10
-519.5553960026921
 20
6.891854775918489
 30
0.0
 40
3.000000038662472
100
AcDbArc
 50
270.0
 51
0.0
  0
ARC
  5
404
330
1F
100
AcDbEntity
  8
B-0_通り芯
  6
Continuous
 62
     3
370
     9
100
AcDbCircle
 10
-504.5553465147276
 20
6.891854775918489
 30
0.0
 40
3.000000038662472
100
AcDbArc
 50
180.0
 51
270.0
  0
ARC
  5
405
330
1F
100
AcDbEntity
  8
B-0_通り芯
  6
Continuous
 62
     3
370
     9
100
AcDbCircle
 10
-506.0553885794974
 20
5.391936431060032
 30
0.0
 40
3.000000038662472
100
AcDbArc
 50
180.0
 51
270.0
  0
ARC
  5
406
330
1F
100
AcDbEntity
  8
B-0_通り芯
  6
Continuous
 62
     3
370
     9
100
AcDbCircle
 10
-518.0554157978779
 20
5.391936431060032
 30
0.0
 40
3.000000038662472
100
AcDbArc
 50
270.0
 51
0.0
  0
ARC
  5
407
330
1F
100
AcDbEntity
  8
B-0_通り芯
  6
Continuous
 62
     3
370
     9
100
AcDbCircle
 10
-519.5553960026921
 20
101.8919207598712
 30
0.0
 40
3.000000038662472
100
AcDbArc
 50
270.0
 51
0.0
  0
ARC
  5
408
330
1F
100
AcDbEntity
  8
B-0_通り芯
  6
Continuous
 62
     3
370
     9
100
AcDbCircle
 10
-504.5553465147276
 20
101.8919207598712
 30
0.0
 40
3.000000038662472
100
AcDbArc
 50
180.0
 51
270.0
  0
ARC
  5
409
330
1F
100
AcDbEntity
  8
B-0_通り芯
  6
Continuous
 62
     3
370
     9
100
AcDbCircle
 10
-504.5553465147276
 20
86.89193313186237
 30
0.0
 40
3.000000038662472
100
AcDbArc
 50
90.0
 51
180.0
  0
ARC
  5
40A
330
1F
100
AcDbEntity
  8
B-0_通り芯
  6
Continuous
 62
     3
370
     9
100
AcDbCircle
 10
-519.5553960026921
 20
86.89193313186237
 30
0.0
 40
3.000000038662472
100
AcDbArc
 50
0.0
 51
90.0
  0
ARC
  5
40B
330
1F
100
AcDbEntity
  8
B-0_通り芯
  6
Continuous
 62
     3
370
     9
100
AcDbCircle
 10
-518.0554157978779
 20
88.39185147672097
 30
0.0
 40
3.000000038662472
100
AcDbArc
 50
0.0
 51
90.0
  0
ARC
  5
40C
330
1F
100
AcDbEntity
  8
B-0_通り芯
  6
Continuous
 62
     3
370
     9
100
AcDbCircle
 10
-506.0553885794974
 20
88.39185147672097
 30
0.0
 40
3.000000038662472
100
AcDbArc
 50
90.0
 51
180.0
  0
ARC
  5
40D
330
1F
100
AcDbEntity
  8
B-0_通り芯
  6
Continuous
 62
     3
370
     9
100
AcDbCircle
 10
-518.0554157978779
 20
100.3918786951014
 30
0.0
 40
3.000000038662472
100
AcDbArc
 50
270.0
 51
0.0
  0
ARC
  5
40E
330
1F
100
AcDbEntity
  8
B-0_通り芯
  6
Continuous
 62
     3
370
     9
100
AcDbCircle
 10
-506.0553885794974
 20
100.3918786951014
 30
0.0
 40
3.000000038662472
100
AcDbArc
 50
180.0
 51
270.0
  0
ARC
  5
40F
330
1F
100
AcDbEntity
  8
B-0_通り芯
  6
Continuous
 62
     3
370
     9
100
AcDbCircle
 10
-329.5554496146536
 20
6.891854775918489
 30
0.0
 40
3.000000038662472
100
AcDbArc
 50
270.0
 51
0.0
  0
ARC
  5
410
330
1F
100
AcDbEntity
  8
B-0_通り芯
  6
Continuous
 62
     3
370
     9
100
AcDbCircle
 10
-314.5554001266892
 20
6.891854775918489
 30
0.0
 40
3.000000038662472
100
AcDbArc
 50
180.0
 51
270.0
  0
ARC
  5
411
330
1F
100
AcDbEntity
  8
B-0_通り芯
  6
Continuous
 62
     3
370
     9
100
AcDbCircle
 10
-316.055442191459
 20
5.391936431060032
 30
0.0
 40
3.000000038662472
100
AcDbArc
 50
180.0
 51
270.0
  0
ARC
  5
412
330
1F
100
AcDbEntity
  8
B-0_通り芯
  6
Continuous
 62
     3
370
     9
100
AcDbCircle
 10
-329.5554496146536
 20
101.8919207598712
 30
0.0
 40
3.000000038662472
100
AcDbArc
 50
270.0
 51
0.0
  0
ARC
  5
413
330
1F
100
AcDbEntity
  8
B-0_通り芯
  6
Continuous
 62
     3
370
     9
100
AcDbCircle
 10
-314.5554001266892
 20
101.8919207598712
 30
0.0
 40
3.000000038662472
100
AcDbArc
 50
180.0
 51
270.0
  0
ARC
  5
414
330
1F
100
AcDbEntity
  8
B-0_通り芯
  6
Continuous
 62
     3
370
     9
100
AcDbCircle
 10
-314.5554001266892
 20
86.89193313186237
 30
0.0
 40
3.000000038662472
100
AcDbArc
 50
90.0
 51
180.0
  0
ARC
  5
415
330
1F
100
AcDbEntity
  8
B-0_通り芯
  6
Continuous
 62
     3
370
     9
100
AcDbCircle
 10
-329.5554496146536
 20
86.89193313186237
 30
0.0
 40
3.000000038662472
100
AcDbArc
 50
0.0
 51
90.0
  0
ARC
  5
416
330
1F
100
AcDbEntity
  8
B-0_通り芯
  6
Continuous
 62
     3
370
     9
100
AcDbCircle
 10
-328.0554694098395
 20
88.39185147672097
 30
0.0
 40
3.000000038662472
100
AcDbArc
 50
0.0
 51
90.0
  0
ARC
  5
417
330
1F
100
AcDbEntity
  8
B-0_通り芯
  6
Continuous
 62
     3
370
     9
100
AcDbCircle
 10
-316.055442191459
 20
88.39185147672097
 30
0.0
 40
3.000000038662472
100
AcDbArc
 50
90.0
 51
180.0
  0
ARC
  5
418
330
1F
100
AcDbEntity
  8
B-0_通り芯
  6
Continuous
 62
     3
370
     9
100
AcDbCircle
 10
-328.0554694098395
 20
100.3918786951014
 30
0.0
 40
3.000000038662472
100
AcDbArc
 50
270.0
 51
0.0
  0
ARC
  5
419
330
1F
100
AcDbEntity
  8
B-0_通り芯
  6
Continuous
 62
     3
370
     9
100
AcDbCircle
 10
-316.055442191459
 20
100.3918786951014
 30
0.0
 40
3.000000038662472
100
AcDbArc
 50
180.0
 51
270.0
  0
ARC
  5
41A
330
1F
100
AcDbEntity
  8
B-0_通り芯
  6
Continuous
 62
     3
370
     9
100
AcDbCircle
 10
-496.0554793074324
 20
100.8917689967801
 30
0.0
 40
2.000000267415433
100
AcDbArc
 50
270.0
 51
0.0
  0
ARC
  5
41B
330
1F
100
AcDbEntity
  8
B-0_通り芯
  6
Continuous
 62
     3
370
     9
100
AcDbCircle
 10
-494.0554232210727
 20
99.39185065192149
 30
0.0
 40
2.000000267415433
100
AcDbArc
 50
270.0
 51
0.0
  0
ARC
  5
41C
330
1F
100
AcDbEntity
  8
B-0_通り芯
  6
Continuous
 62
     3
370
     9
100
AcDbCircle
 10
-338.0553168219489
 20
100.8917689967801
 30
0.0
 40
2.000000267415433
100
AcDbArc
 50
180.0
 51
270.0
  0
ARC
  5
41D
330
1F
100
AcDbEntity
  8
B-0_通り芯
  6
Continuous
 62
     3
370
     9
100
AcDbCircle
 10
-340.0553729083088
 20
99.39185065192149
 30
0.0
 40
2.000000267415433
100
AcDbArc
 50
180.0
 51
270.0
  0
ARC
  5
41E
330
1F
100
AcDbEntity
  8
B-0_通り芯
  6
Continuous
 62
     3
370
     9
100
AcDbCircle
 10
-328.0554694098395
 20
5.391936431060032
 30
0.0
 40
3.000000038662472
100
AcDbArc
 50
270.0
 51
0.0
  0
ARC
  5
41F
330
1F
100
AcDbEntity
  8
B-0_通り芯
  6
Continuous
 62
     3
370
     9
100
AcDbCircle
 10
-417.0553671347128
 20
-140.6080751161317
 30
0.0
 40
15.00000115987417
100
AcDbArc
 50
23.99562072753908
 51
156.00439453125
  0
ARC
  5
420
330
1F
100
AcDbEntity
  8
B-0_通り芯
  6
Continuous
 62
     3
370
     9
100
AcDbCircle
 10
-417.0553671347128
 20
-140.6080751161317
 30
0.0
 40
15.00000115987417
100
AcDbArc
 50
203.9956207275391
 51
336.00439453125
  0
ARC
  5
421
330
1F
100
AcDbEntity
  8
B-0_通り芯
  6
Continuous
 62
     3
370
     9
100
AcDbCircle
 10
-424.5554537386508
 20
-8.1079472722233
 30
0.0
 40
3.000000038662472
100
AcDbArc
 50
0.0
 51
90.0
  0
ARC
  5
422
330
1F
100
AcDbEntity
  8
B-0_通り芯
  6
Continuous
 62
     3
370
     9
100
AcDbCircle
 10
-409.5554042506862
 20
-8.1079472722233
 30
0.0
 40
3.000000038662472
100
AcDbArc
 50
90.0
 51
180.0
  0
ARC
  5
423
330
1F
100
AcDbEntity
  8
B-0_通り芯
  6
Continuous
 62
     3
370
     9
100
AcDbCircle
 10
-411.0553844555005
 20
-6.608090787320435
 30
0.0
 40
3.000000038662472
100
AcDbArc
 50
90.0
 51
180.0
  0
ARC
  5
424
330
1F
100
AcDbEntity
  8
B-0_通り芯
  6
Continuous
 62
     3
370
     9
100
AcDbCircle
 10
-423.0554116738808
 20
-6.608090787320435
 30
0.0
 40
3.000000038662472
100
AcDbArc
 50
0.0
 51
90.0
  0
ARC
  5
425
330
1F
100
AcDbEntity
  8
B-0_通り芯
  6
Continuous
 62
     3
370
     9
100
AcDbCircle
 10
-424.5554537386508
 20
-103.108013256176
 30
0.0
 40
3.000000038662472
100
AcDbArc
 50
0.0
 51
90.0
  0
ARC
  5
426
330
1F
100
AcDbEntity
  8
B-0_通り芯
  6
Continuous
 62
     3
370
     9
100
AcDbCircle
 10
-409.5554042506862
 20
-103.108013256176
 30
0.0
 40
3.000000038662472
100
AcDbArc
 50
90.0
 51
180.0
  0
ARC
  5
427
330
1F
100
AcDbEntity
  8
B-0_通り芯
  6
Continuous
 62
     3
370
     9
100
AcDbCircle
 10
-409.5554042506862
 20
-88.10808748812292
 30
0.0
 40
3.000000038662472
100
AcDbArc
 50
180.0
 51
270.0
  0
ARC
  5
428
330
1F
100
AcDbEntity
  8
B-0_通り芯
  6
Continuous
 62
     3
370
     9
100
AcDbCircle
 10
-424.5554537386508
 20
-88.10808748812292
 30
0.0
 40
3.000000038662472
100
AcDbArc
 50
270.0
 51
0.0
  0
ARC
  5
429
330
1F
100
AcDbEntity
  8
B-0_通り芯
  6
Continuous
 62
     3
370
     9
100
AcDbCircle
 10
-423.0554116738808
 20
-89.60794397302578
 30
0.0
 40
3.000000038662472
100
AcDbArc
 50
270.0
 51
0.0
  0
ARC
  5
42A
330
1F
100
AcDbEntity
  8
B-0_通り芯
  6
Continuous
 62
     3
370
     9
100
AcDbCircle
 10
-411.0553844555005
 20
-89.60794397302578
 30
0.0
 40
3.000000038662472
100
AcDbArc
 50
180.0
 51
270.0
  0
ARC
  5
42B
330
1F
100
AcDbEntity
  8
B-0_通り芯
  6
Continuous
 62
     3
370
     9
100
AcDbCircle
 10
-423.0554116738808
 20
-101.6080949113176
 30
0.0
 40
3.000000038662472
100
AcDbArc
 50
0.0
 51
90.0
  0
ARC
  5
42C
330
1F
100
AcDbEntity
  8
B-0_通り芯
  6
Continuous
 62
     3
370
     9
100
AcDbCircle
 10
-411.0553844555005
 20
-101.6080949113176
 30
0.0
 40
3.000000038662472
100
AcDbArc
 50
90.0
 51
180.0
  0
ARC
  5
42D
330
1F
100
AcDbEntity
  8
B-0_通り芯
  6
Continuous
 62
     3
370
     9
100
AcDbCircle
 10
-519.5553960026921
 20
-8.1079472722233
 30
0.0
 40
3.000000038662472
100
AcDbArc
 50
0.0
 51
90.0
  0
ARC
  5
42E
330
1F
100
AcDbEntity
  8
B-0_通り芯
  6
Continuous
 62
     3
370
     9
100
AcDbCircle
 10
-504.5553465147276
 20
-8.1079472722233
 30
0.0
 40
3.000000038662472
100
AcDbArc
 50
90.0
 51
180.0
  0
ARC
  5
42F
330
1F
100
AcDbEntity
  8
B-0_通り芯
  6
Continuous
 62
     3
370
     9
100
AcDbCircle
 10
-506.0553885794974
 20
-6.608090787320435
 30
0.0
 40
3.000000038662472
100
AcDbArc
 50
90.0
 51
180.0
  0
ARC
  5
430
330
1F
100
AcDbEntity
  8
B-0_通り芯
  6
Continuous
 62
     3
370
     9
100
AcDbCircle
 10
-518.0554157978779
 20
-6.608090787320435
 30
0.0
 40
3.000000038662472
100
AcDbArc
 50
0.0
 51
90.0
  0
ARC
  5
431
330
1F
100
AcDbEntity
  8
B-0_通り芯
  6
Continuous
 62
     3
370
     9
100
AcDbCircle
 10
-519.5553960026921
 20
-103.108013256176
 30
0.0
 40
3.000000038662472
100
AcDbArc
 50
0.0
 51
90.0
  0
ARC
  5
432
330
1F
100
AcDbEntity
  8
B-0_通り芯
  6
Continuous
 62
     3
370
     9
100
AcDbCircle
 10
-504.5553465147276
 20
-103.108013256176
 30
0.0
 40
3.000000038662472
100
AcDbArc
 50
90.0
 51
180.0
  0
ARC
  5
433
330
1F
100
AcDbEntity
  8
B-0_通り芯
  6
Continuous
 62
     3
370
     9
100
AcDbCircle
 10
-504.5553465147276
 20
-88.10808748812292
 30
0.0
 40
3.000000038662472
100
AcDbArc
 50
180.0
 51
270.0
  0
ARC
  5
434
330
1F
100
AcDbEntity
  8
B-0_通り芯
  6
Continuous
 62
     3
370
     9
100
AcDbCircle
 10
-519.5553960026921
 20
-88.10808748812292
 30
0.0
 40
3.000000038662472
100
AcDbArc
 50
270.0
 51
0.0
  0
ARC
  5
435
330
1F
100
AcDbEntity
  8
B-0_通り芯
  6
Continuous
 62
     3
370
     9
100
AcDbCircle
 10
-518.0554157978779
 20
-89.60794397302578
 30
0.0
 40
3.000000038662472
100
AcDbArc
 50
270.0
 51
0.0
  0
ARC
  5
436
330
1F
100
AcDbEntity
  8
B-0_通り芯
  6
Continuous
 62
     3
370
     9
100
AcDbCircle
 10
-506.0553885794974
 20
-89.60794397302578
 30
0.0
 40
3.000000038662472
100
AcDbArc
 50
180.0
 51
270.0
  0
ARC
  5
437
330
1F
100
AcDbEntity
  8
B-0_通り芯
  6
Continuous
 62
     3
370
     9
100
AcDbCircle
 10
-518.0554157978779
 20
-101.6080949113176
 30
0.0
 40
3.000000038662472
100
AcDbArc
 50
0.0
 51
90.0
  0
ARC
  5
438
330
1F
100
AcDbEntity
  8
B-0_通り芯
  6
Continuous
 62
     3
370
     9
100
AcDbCircle
 10
-506.0553885794974
 20
-101.6080949113176
 30
0.0
 40
3.000000038662472
100
AcDbArc
 50
90.0
 51
180.0
  0
ARC
  5
439
330
1F
100
AcDbEntity
  8
B-0_通り芯
  6
Continuous
 62
     3
370
     9
100
AcDbCircle
 10
-329.5554496146536
 20
-8.1079472722233
 30
0.0
 40
3.000000038662472
100
AcDbArc
 50
0.0
 51
90.0
  0
ARC
  5
43A
330
1F
100
AcDbEntity
  8
B-0_通り芯
  6
Continuous
 62
     3
370
     9
100
AcDbCircle
 10
-314.5554001266892
 20
-8.1079472722233
 30
0.0
 40
3.000000038662472
100
AcDbArc
 50
90.0
 51
180.0
  0
ARC
  5
43B
330
1F
100
AcDbEntity
  8
B-0_通り芯
  6
Continuous
 62
     3
370
     9
100
AcDbCircle
 10
-316.055442191459
 20
-6.608090787320435
 30
0.0
 40
3.000000038662472
100
AcDbArc
 50
90.0
 51
180.0
  0
ARC
  5
43C
330
1F
100
AcDbEntity
  8
B-0_通り芯
  6
Continuous
 62
     3
370
     9
100
AcDbCircle
 10
-329.5554496146536
 20
-103.108013256176
 30
0.0
 40
3.000000038662472
100
AcDbArc
 50
0.0
 51
90.0
  0
ARC
  5
43D
330
1F
100
AcDbEntity
  8
B-0_通り芯
  6
Continuous
 62
     3
370
     9
100
AcDbCircle
 10
-314.5554001266892
 20
-103.108013256176
 30
0.0
 40
3.000000038662472
100
AcDbArc
 50
90.0
 51
180.0
  0
ARC
  5
43E
330
1F
100
AcDbEntity
  8
B-0_通り芯
  6
Continuous
 62
     3
370
     9
100
AcDbCircle
 10
-314.5554001266892
 20
-88.10808748812292
 30
0.0
 40
3.000000038662472
100
AcDbArc
 50
180.0
 51
270.0
  0
ARC
  5
43F
330
1F
100
AcDbEntity
  8
B-0_通り芯
  6
Continuous
 62
     3
370
     9
100
AcDbCircle
 10
-329.5554496146536
 20
-88.10808748812292
 30
0.0
 40
3.000000038662472
100
AcDbArc
 50
270.0
 51
0.0
  0
ARC
  5
440
330
1F
100
AcDbEntity
  8
B-0_通り芯
  6
Continuous
 62
     3
370
     9
100
AcDbCircle
 10
-328.0554694098395
 20
-89.60794397302578
 30
0.0
 40
3.000000038662472
100
AcDbArc
 50
270.0
 51
0.0
  0
ARC
  5
441
330
1F
100
AcDbEntity
  8
B-0_通り芯
  6
Continuous
 62
     3
370
     9
100
AcDbCircle
 10
-316.055442191459
 20
-89.60794397302578
 30
0.0
 40
3.000000038662472
100
AcDbArc
 50
180.0
 51
270.0
  0
ARC
  5
442
330
1F
100
AcDbEntity
  8
B-0_通り芯
  6
Continuous
 62
     3
370
     9
100
AcDbCircle
 10
-328.0554694098395
 20
-101.6080949113176
 30
0.0
 40
3.000000038662472
100
AcDbArc
 50
0.0
 51
90.0
  0
ARC
  5
443
330
1F
100
AcDbEntity
  8
B-0_通り芯
  6
Continuous
 62
     3
370
     9
100
AcDbCircle
 10
-316.055442191459
 20
-101.6080949113176
 30
0.0
 40
3.000000038662472
100
AcDbArc
 50
90.0
 51
180.0
  0
ARC
  5
444
330
1F
100
AcDbEntity
  8
B-0_通り芯
  6
Continuous
 62
     3
370
     9
100
AcDbCircle
 10
-496.0554793074324
 20
-102.1078614930849
 30
0.0
 40
2.000000267415433
100
AcDbArc
 50
0.0
 51
90.0
  0
ARC
  5
445
330
1F
100
AcDbEntity
  8
B-0_通り芯
  6
Continuous
 62
     3
370
     9
100
AcDbCircle
 10
-494.0554232210727
 20
-100.608005008182
 30
0.0
 40
2.000000267415433
100
AcDbArc
 50
0.0
 51
90.0
  0
ARC
  5
446
330
1F
100
AcDbEntity
  8
B-0_通り芯
  6
Continuous
 62
     3
370
     9
100
AcDbCircle
 10
-338.0553168219489
 20
-102.1078614930849
 30
0.0
 40
2.000000267415433
100
AcDbArc
 50
90.0
 51
180.0
  0
ARC
  5
447
330
1F
100
AcDbEntity
  8
B-0_通り芯
  6
Continuous
 62
     3
370
     9
100
AcDbCircle
 10
-340.0553729083088
 20
-100.608005008182
 30
0.0
 40
2.000000267415433
100
AcDbArc
 50
90.0
 51
180.0
  0
ARC
  5
448
330
1F
100
AcDbEntity
  8
B-0_通り芯
  6
Continuous
 62
     3
370
     9
100
AcDbCircle
 10
-328.0554694098395
 20
-6.608090787320435
 30
0.0
 40
3.000000038662472
100
AcDbArc
 50
0.0
 51
90.0
  0
ARC
  5
449
330
1F
100
AcDbEntity
  8
B-0_通り芯
  6
Continuous
 62
     3
370
     9
100
AcDbCircle
 10
410.9734200142526
 20
164.3918795199008
 30
0.0
 40
3.000000038662472
100
AcDbArc
 50
270.0
 51
0.0
  0
ARC
  5
44A
330
1F
100
AcDbEntity
  8
B-0_通り芯
  6
Continuous
 62
     3
370
     9
100
AcDbCircle
 10
419.9733012431378
 20
-7.7816978660789
 30
0.0
 40
3.000000038662472
100
AcDbArc
 50
0.0
 51
83.41806030273438
  0
ARC
  5
44B
330
1F
100
AcDbEntity
  8
B-0_通り芯
  6
Continuous
 62
     3
370
     9
100
AcDbCircle
 10
381.9728542018581
 20
-151.1687448862436
 30
0.0
 40
3.000000038662472
100
AcDbArc
 50
281.7682952880859
 51
0.0
  0
ARC
  5
44C
330
1F
100
AcDbEntity
  8
B-0_通り芯
  6
Continuous
 62
     3
370
     9
100
AcDbCircle
 10
381.9728542018581
 20
-130.0475290659311
 30
0.0
 40
3.000000038662472
100
AcDbArc
 50
0.0
 51
78.23171997070312
  0
ARC
  5
44D
330
1F
100
AcDbEntity
  8
B-0_通り芯
  6
Continuous
 62
     3
370
     9
100
AcDbCircle
 10
392.9729152370143
 20
-151.6080742913323
 30
0.0
 40
1.999999904954756
100
AcDbArc
 50
180.0
 51
270.0
  0
ARC
  5
44E
330
1F
100
AcDbEntity
  8
B-0_通り芯
  6
Continuous
 62
     3
370
     9
100
AcDbCircle
 10
392.9729152370143
 20
-129.6080759409311
 30
0.0
 40
1.999999904954756
100
AcDbArc
 50
90.0
 51
180.0
  0
ARC
  5
44F
330
1F
100
AcDbEntity
  8
B-0_通り芯
  6
Continuous
 62
     3
370
     9
100
AcDbCircle
 10
405.9731560784419
 20
-211.6385836214633
 30
0.0
 40
3.999999809909511
100
AcDbArc
 50
276.4588165283203
 51
0.0
  0
ARC
  5
450
330
1F
100
AcDbEntity
  8
B-0_通り芯
  6
Continuous
 62
     3
370
     9
100
AcDbCircle
 10
422.4734332110432
 20
-217.8215480495143
 30
0.0
 40
1.999999904954756
100
AcDbArc
 50
276.4588165283203
 51
0.0
  0
ARC
  5
451
330
1F
100
AcDbEntity
  8
B-0_通り芯
  6
Continuous
 62
     3
370
     9
100
AcDbCircle
 10
419.9733012431378
 20
-205.3245379473711
 30
0.0
 40
3.999999809909511
100
AcDbArc
 50
180.0
 51
255.6152496337891
  0
ARC
  5
452
330
1F
100
AcDbEntity
  8
B-0_通り芯
  6
Continuous
 62
     3
370
     9
100
AcDbCircle
 10
410.9734200142526
 20
-115.6079926361908
 30
0.0
 40
3.000000038662472
100
AcDbArc
 50
270.0
 51
0.0
  0
ARC
  5
453
330
1F
100
AcDbEntity
  8
B-0_通り芯
  6
Continuous
 62
     3
370
     9
100
AcDbCircle
 10
410.9734200142526
 20
-101.7916333997572
 30
0.0
 40
3.000000038662472
100
AcDbArc
 50
0.0
 51
81.46923828125
  0
ARC
  5
454
330
1F
100
AcDbEntity
  8
B-0_通り芯
  6
Continuous
 62
     3
370
     9
100
AcDbCircle
 10
419.9733012431378
 20
-88.43433689426732
 30
0.0
 40
3.000000038662472
100
AcDbArc
 50
276.5819549560547
 51
0.0
  0
ARC
  5
455
330
1F
100
AcDbEntity
  8
B-0_通り芯
  6
Continuous
 62
     3
370
     9
100
AcDbCircle
 10
426.9733738254857
 20
-94.37202659813124
 30
0.0
 40
1.999999904954756
100
AcDbArc
 50
296.5650634765625
 51
0.0000000000000127
  0
ARC
  5
456
330
1F
100
AcDbEntity
  8
B-0_通り芯
  6
Continuous
 62
     3
370
     9
100
AcDbCircle
 10
421.9732336095862
 20
-101.3440147606102
 30
0.0
 40
1.999999904954756
100
AcDbArc
 50
116.5650634765625
 51
180.0
  0
ARC
  5
457
330
1F
100
AcDbEntity
  8
B-0_通り芯
  6
Continuous
 62
     3
370
     9
100
AcDbCircle
 10
422.4734332110432
 20
-168.1080421241554
 30
0.0
 40
1.500000019331236
100
AcDbArc
 50
90.0
 51
180.0
  0
ARC
  5
458
330
1F
100
AcDbEntity
  8
B-0_通り芯
  6
Continuous
 62
     3
370
     9
100
AcDbCircle
 10
430.4730389569258
 20
-164.1081155313027
 30
0.0
 40
1.500000019331236
100
AcDbArc
 50
270.0
 51
0.0
  0
ARC
  5
459
330
1F
100
AcDbEntity
  8
B-0_通り芯
  6
Continuous
 62
     3
370
     9
100
AcDbCircle
 10
430.4730389569258
 20
-117.1079109810493
 30
0.0
 40
1.500000019331236
100
AcDbArc
 50
0.0
 51
90.0
  0
ARC
  5
45A
330
1F
100
AcDbEntity
  8
B-0_通り芯
  6
Continuous
 62
     3
370
     9
100
AcDbCircle
 10
422.4734332110432
 20
-113.1079225282411
 30
0.0
 40
1.500000019331236
100
AcDbArc
 50
180.0
 51
270.0
  0
ARC
  5
45B
330
1F
100
AcDbEntity
  8
B-0_通り芯
  6
Continuous
 62
     3
370
     9
100
AcDbCircle
 10
430.4730389569258
 20
-164.1081155313027
 30
0.0
 40
2.500000032218727
100
AcDbArc
 50
270.0
 51
0.0
  0
ARC
  5
45C
330
1F
100
AcDbEntity
  8
B-0_通り芯
  6
Continuous
 62
     3
370
     9
100
AcDbCircle
 10
430.4730389569258
 20
-117.1079109810493
 30
0.0
 40
2.500000032218727
100
AcDbArc
 50
0.0
 51
90.0
  0
ARC
  5
45D
330
1F
100
AcDbEntity
  8
B-0_通り芯
  6
Continuous
 62
     3
370
     9
100
AcDbCircle
 10
422.4734332110432
 20
-168.1080421241554
 30
0.0
 40
2.500000032218727
100
AcDbArc
 50
90.0
 51
180.0
  0
ARC
  5
45E
330
1F
100
AcDbEntity
  8
B-0_通り芯
  6
Continuous
 62
     3
370
     9
100
AcDbCircle
 10
422.4734332110432
 20
-113.1079225282411
 30
0.0
 40
2.500000032218727
100
AcDbArc
 50
180.0
 51
270.0
  0
ARC
  5
45F
330
1F
100
AcDbEntity
  8
B-0_通り芯
  6
Continuous
 62
     3
370
     9
100
AcDbCircle
 10
421.572999696474
 20
-171.2080919420396
 30
0.0
 40
1.999999904954756
100
AcDbArc
 50
270.0
 51
0.0
  0
ARC
  5
460
330
1F
100
AcDbEntity
  8
B-0_通り芯
  6
Continuous
 62
     3
370
     9
100
AcDbCircle
 10
421.572999696474
 20
-170.0079469423036
 30
0.0
 40
1.999999904954756
100
AcDbArc
 50
0.0
 51
90.0
  0
ARC
  5
461
330
1F
100
AcDbEntity
  8
B-0_通り芯
  6
Continuous
 62
     3
370
     9
100
AcDbCircle
 10
421.572999696474
 20
-110.0079964302681
 30
0.0
 40
1.999999904954756
100
AcDbArc
 50
0.0
 51
90.0
  0
ARC
  5
462
330
1F
100
AcDbEntity
  8
B-0_通り芯
  6
Continuous
 62
     3
370
     9
100
AcDbCircle
 10
421.572999696474
 20
-111.2079558501372
 30
0.0
 40
1.999999904954756
100
AcDbArc
 50
270.0
 51
0.0
  0
ARC
  5
463
330
1F
100
AcDbEntity
  8
B-0_通り芯
  6
Continuous
 62
     3
370
     9
100
AcDbCircle
 10
364.8490287162164
 20
-140.6080751161317
 30
0.0
 40
17.5000016753738
100
AcDbArc
 50
297.6604614257812
 51
343.3984527587891
  0
ARC
  5
464
330
1F
100
AcDbEntity
  8
B-0_通り芯
  6
Continuous
 62
     3
370
     9
100
AcDbCircle
 10
364.8490287162164
 20
-140.6080751161317
 30
0.0
 40
17.5000016753738
100
AcDbArc
 50
16.60156250000001
 51
62.33955383300782
  0
ARC
  5
465
330
1F
100
AcDbEntity
  8
B-0_通り芯
  6
Continuous
 62
     3
370
     9
100
AcDbCircle
 10
363.6746793179898
 20
-140.6080751161317
 30
0.0
 40
14.50000067014952
100
AcDbArc
 50
295.7457885742188
 51
339.8287353515625
  0
ARC
  5
466
330
1F
100
AcDbEntity
  8
B-0_通り芯
  6
Continuous
 62
     3
370
     9
100
AcDbCircle
 10
363.6746793179898
 20
-140.6080751161317
 30
0.0
 40
14.50000067014952
100
AcDbArc
 50
20.17127990722656
 51
64.25421142578125
  0
ARC
  5
467
330
1F
100
AcDbEntity
  8
B-0_通り芯
  6
Continuous
 62
     3
370
     9
100
AcDbCircle
 10
413.9731329840583
 20
-140.6080751161317
 30
0.0
 40
15.00000115987417
100
AcDbArc
 50
340.5287933349609
 51
19.47122192382813
  0
ARC
  5
468
330
1F
100
AcDbEntity
  8
B-0_通り芯
  6
Continuous
 62
     3
370
     9
100
AcDbCircle
 10
422.1424824482688
 20
-132.2939114957242
 30
0.0
 40
6.830581619932845
100
AcDbArc
 50
330.9750366210938
 51
0.0
  0
ARC
  5
469
330
1F
100
AcDbEntity
  8
B-0_通り芯
  6
Continuous
 62
     3
370
     9
100
AcDbCircle
 10
422.1424824482688
 20
-148.9222387365393
 30
0.0
 40
6.830581619932845
100
AcDbArc
 50
0.0
 51
29.02497863769531
  0
ARC
  5
46A
330
1F
100
AcDbEntity
  8
B-0_通り芯
  6
Continuous
 62
     3
370
     9
100
AcDbCircle
 10
410.9734200142526
 20
-165.6080338761612
 30
0.0
 40
3.000000038662472
100
AcDbArc
 50
0.0
 51
90.0
  0
ARC
  5
46B
330
1F
100
AcDbEntity
  8
B-A
  6
Continuous
 62
     2
370
     9
100
AcDbCircle
 10
418.77346554318
 20
-256.2316317171664
 30
0.0
 40
2.800173533929362
100
AcDbArc
 50
137.9255676269531
 51
222.0746307373047
  0
ARC
  5
46C
330
1F
100
AcDbEntity
  8
B-A
  6
Continuous
 62
     2
370
     9
100
AcDbCircle
 10
440.9726529508023
 20
-244.9842545792862
 30
0.0
 40
2.800173533929362
100
AcDbArc
 50
317.9255676269531
 51
42.07463073730472
  0
ARC
  5
46D
330
1F
100
AcDbEntity
  8
B-A
  6
Continuous
 62
     2
370
     9
100
AcDbCircle
 10
433.6834469357052
 20
-250.6078194283151
 30
0.0
 40
10.08941192884703
100
AcDbArc
 50
338.1978454589844
 51
21.80212402343748
  0
ARC
  5
46E
330
1F
100
AcDbEntity
  8
B-A
  6
Continuous
 62
     2
370
     9
100
AcDbCircle
 10
440.9726529508023
 20
-256.2316317171664
 30
0.0
 40
2.800189723839632
100
AcDbArc
 50
317.9257202148438
 51
42.07427978515626
  0
ARC
  5
46F
330
1F
100
AcDbEntity
  8
B-A
  6
Continuous
 62
     2
370
     9
100
AcDbCircle
 10
418.77346554318
 20
-244.983945279508
 30
0.0
 40
2.800173533929362
100
AcDbArc
 50
137.9253692626953
 51
222.0744323730469
  0
ARC
  5
470
330
1F
100
AcDbEntity
  8
B-A
  6
Continuous
 62
     2
370
     9
100
AcDbCircle
 10
426.0623003985432
 20
-250.6078194283151
 30
0.0
 40
10.08941192884703
100
AcDbArc
 50
158.1998443603516
 51
201.8021392822265
  0
CIRCLE
  5
471
330
1F
100
AcDbEntity
  8
B-A
  6
Continuous
 62
     2
370
     9
100
AcDbCircle
 10
-667.0495110589104
 20
-150.6080462481524
 30
0.0
 40
6.500003466735017
  0
CIRCLE
  5
472
330
1F
100
AcDbEntity
  8
B-A
  6
Continuous
 62
     2
370
     9
100
AcDbCircle
 10
-667.0554496146536
 20
-150.6080462481524
 30
0.0
 40
4.000000776471318
  0
CIRCLE
  5
473
330
1F
100
AcDbEntity
  8
B-A
  6
Continuous
 62
     2
370
     9
100
AcDbCircle
 10
-667.0554496146536
 20
-150.6080462481524
 30
0.0
 40
3.323500301386859
  0
ARC
  5
474
330
1F
100
AcDbEntity
  8
B-3_受枠
  6
Continuous
 62
     4
370
     9
100
AcDbCircle
 10
-667.0554496146536
 20
-150.6080462481524
 30
0.0
 40
12.49999774468912
100
AcDbArc
 50
270.0
 51
90.0
  0
CIRCLE
  5
475
330
1F
100
AcDbEntity
  8
B-A
  6
Continuous
 62
     2
370
     9
100
AcDbCircle
 10
-167.0612232105151
 20
-150.6080462481524
 30
0.0
 40
6.500003466735017
  0
CIRCLE
  5
476
330
1F
100
AcDbEntity
  8
B-A
  6
Continuous
 62
     2
370
     9
100
AcDbCircle
 10
-167.0552846547719
 20
-150.6080462481524
 30
0.0
 40
4.000000776471318
  0
CIRCLE
  5
477
330
1F
100
AcDbEntity
  8
B-A
  6
Continuous
 62
     2
370
     9
100
AcDbCircle
 10
-167.0552846547719
 20
-150.6080462481524
 30
0.0
 40
3.323500301386859
  0
ARC
  5
478
330
1F
100
AcDbEntity
  8
B-3_受枠
  6
Continuous
 62
     4
370
     9
100
AcDbCircle
 10
-167.0552846547719
 20
-150.6080462481524
 30
0.0
 40
12.49999774468912
100
AcDbArc
 50
90.0
 51
270.0
  0
CIRCLE
  5
479
330
1F
100
AcDbEntity
  8
B-A
  6
Continuous
 62
     2
370
     9
100
AcDbCircle
 10
-667.0495110589104
 20
149.3918300319363
 30
0.0
 40
6.500003466735017
  0
CIRCLE
  5
47A
330
1F
100
AcDbEntity
  8
B-A
  6
Continuous
 62
     2
370
     9
100
AcDbCircle
 10
-667.0554496146536
 20
149.3918300319363
 30
0.0
 40
4.000000776471318
  0
CIRCLE
  5
47B
330
1F
100
AcDbEntity
  8
B-A
  6
Continuous
 62
     2
370
     9
100
AcDbCircle
 10
-667.0554496146536
 20
149.3918300319363
 30
0.0
 40
3.323500301386859
  0
ARC
  5
47C
330
1F
100
AcDbEntity
  8
B-3_受枠
  6
Continuous
 62
     4
370
     9
100
AcDbCircle
 10
-667.0554496146536
 20
149.3918300319363
 30
0.0
 40
12.49999774468912
100
AcDbArc
 50
270.0
 51
90.0
  0
CIRCLE
  5
47D
330
1F
100
AcDbEntity
  8
B-A
  6
Continuous
 62
     2
370
     9
100
AcDbCircle
 10
-167.0612232105151
 20
149.3918300319363
 30
0.0
 40
6.500003466735017
  0
CIRCLE
  5
47E
330
1F
100
AcDbEntity
  8
B-A
  6
Continuous
 62
     2
370
     9
100
AcDbCircle
 10
-167.0552846547719
 20
149.3918300319363
 30
0.0
 40
4.000000776471318
  0
CIRCLE
  5
47F
330
1F
100
AcDbEntity
  8
B-A
  6
Continuous
 62
     2
370
     9
100
AcDbCircle
 10
-167.0552846547719
 20
149.3918300319363
 30
0.0
 40
3.323500301386859
  0
ARC
  5
480
330
1F
100
AcDbEntity
  8
B-3_受枠
  6
Continuous
 62
     4
370
     9
100
AcDbCircle
 10
-167.0552846547719
 20
149.3918300319363
 30
0.0
 40
12.49999774468912
100
AcDbArc
 50
90.0
 51
270.0
  0
CIRCLE
  5
481
330
1F
100
AcDbEntity
  8
B-A
  6
Continuous
 62
     2
370
     9
100
AcDbCircle
 10
-267.0554289946685
 20
-250.6022520323057
 30
0.0
 40
6.500003466735017
  0
CIRCLE
  5
482
330
1F
100
AcDbEntity
  8
B-A
  6
Continuous
 62
     2
370
     9
100
AcDbCircle
 10
-267.0554289946685
 20
-250.608190588049
 30
0.0
 40
4.000000776471318
  0
CIRCLE
  5
483
330
1F
100
AcDbEntity
  8
B-A
  6
Continuous
 62
     2
370
     9
100
AcDbCircle
 10
-267.0554289946685
 20
-250.608190588049
 30
0.0
 40
3.323500301386859
  0
ARC
  5
484
330
1F
100
AcDbEntity
  8
B-3_受枠
  6
Continuous
 62
     4
370
     9
100
AcDbCircle
 10
-267.0554289946685
 20
-250.608190588049
 30
0.0
 40
12.49999774468912
100
AcDbArc
 50
0.0
 51
180.0
  0
CIRCLE
  5
485
330
1F
100
AcDbEntity
  8
B-A
  6
Continuous
 62
     2
370
     9
100
AcDbCircle
 10
-567.0553052747572
 20
-250.6022520323057
 30
0.0
 40
6.500003466735017
  0
CIRCLE
  5
486
330
1F
100
AcDbEntity
  8
B-A
  6
Continuous
 62
     2
370
     9
100
AcDbCircle
 10
-567.0553052747572
 20
-250.608190588049
 30
0.0
 40
4.000000776471318
  0
CIRCLE
  5
487
330
1F
100
AcDbEntity
  8
B-A
  6
Continuous
 62
     2
370
     9
100
AcDbCircle
 10
-567.0553052747572
 20
-250.608190588049
 30
0.0
 40
3.323500301386859
  0
ARC
  5
488
330
1F
100
AcDbEntity
  8
B-3_受枠
  6
Continuous
 62
     4
370
     9
100
AcDbCircle
 10
-567.0553052747572
 20
-250.608190588049
 30
0.0
 40
12.49999774468912
100
AcDbArc
 50
0.0
 51
180.0
  0
CIRCLE
  5
489
330
1F
100
AcDbEntity
  8
B-A
  6
Continuous
 62
     2
370
     9
100
AcDbCircle
 10
-267.0554289946685
 20
249.3860358160896
 30
0.0
 40
6.500003466735017
  0
CIRCLE
  5
48A
330
1F
100
AcDbEntity
  8
B-A
  6
Continuous
 62
     2
370
     9
100
AcDbCircle
 10
-267.0554289946685
 20
249.3919743718328
 30
0.0
 40
4.000000776471318
  0
CIRCLE
  5
48B
330
1F
100
AcDbEntity
  8
B-A
  6
Continuous
 62
     2
370
     9
100
AcDbCircle
 10
-267.0554289946685
 20
249.3919743718328
 30
0.0
 40
3.323500301386859
  0
ARC
  5
48C
330
1F
100
AcDbEntity
  8
B-3_受枠
  6
Continuous
 62
     4
370
     9
100
AcDbCircle
 10
-267.0554289946685
 20
249.3919743718328
 30
0.0
 40
12.49999774468912
100
AcDbArc
 50
180.0
 51
0.0
  0
CIRCLE
  5
48D
330
1F
100
AcDbEntity
  8
B-A
  6
Continuous
 62
     2
370
     9
100
AcDbCircle
 10
-567.0553052747572
 20
249.3860358160896
 30
0.0
 40
6.500003466735017
  0
CIRCLE
  5
48E
330
1F
100
AcDbEntity
  8
B-A
  6
Continuous
 62
     2
370
     9
100
AcDbCircle
 10
-567.0553052747572
 20
249.3919743718328
 30
0.0
 40
4.000000776471318
  0
CIRCLE
  5
48F
330
1F
100
AcDbEntity
  8
B-A
  6
Continuous
 62
     2
370
     9
100
AcDbCircle
 10
-567.0553052747572
 20
249.3919743718328
 30
0.0
 40
3.323500301386859
  0
ARC
  5
490
330
1F
100
AcDbEntity
  8
B-3_受枠
  6
Continuous
 62
     4
370
     9
100
AcDbCircle
 10
-567.0553052747572
 20
249.3919743718328
 30
0.0
 40
12.49999774468912
100
AcDbArc
 50
180.0
 51
0.0
  0
ARC
  5
491
330
1F
100
AcDbEntity
  8
B-1_ピット
  6
Continuous
 62
     2
370
     9
100
AcDbCircle
 10
422.9730142129435
 20
-240.5043565904771
 30
0.0
 40
3.99999956826906
100
AcDbArc
 50
0.0
 51
87.06401062011719
  0
ARC
  5
492
330
1F
100
AcDbEntity
  8
B-A
  6
Continuous
 62
     2
370
     9
100
AcDbCircle
 10
418.77346554318
 20
255.0154155009503
 30
0.0
 40
2.800173533929362
100
AcDbArc
 50
137.9253692626953
 51
222.0744323730469
  0
ARC
  5
493
330
1F
100
AcDbEntity
  8
B-A
  6
Continuous
 62
     2
370
     9
100
AcDbCircle
 10
440.9726529508023
 20
243.7680383630702
 30
0.0
 40
2.800173533929362
100
AcDbArc
 50
317.9253692626953
 51
42.07443237304686
  0
ARC
  5
494
330
1F
100
AcDbEntity
  8
B-A
  6
Continuous
 62
     2
370
     9
100
AcDbCircle
 10
433.6834469357052
 20
249.3916032120988
 30
0.0
 40
10.08941192884703
100
AcDbArc
 50
338.1978454589844
 51
21.80212402343748
  0
ARC
  5
495
330
1F
100
AcDbEntity
  8
B-A
  6
Continuous
 62
     2
370
     9
100
AcDbCircle
 10
440.9726529508023
 20
255.0154155009503
 30
0.0
 40
2.800189723839632
100
AcDbArc
 50
317.9257202148438
 51
42.07427978515626
  0
ARC
  5
496
330
1F
100
AcDbEntity
  8
B-A
  6
Continuous
 62
     2
370
     9
100
AcDbCircle
 10
418.77346554318
 20
243.7677290632918
 30
0.0
 40
2.800173533929362
100
AcDbArc
 50
137.9255676269531
 51
222.0746307373047
  0
ARC
  5
497
330
1F
100
AcDbEntity
  8
B-A
  6
Continuous
 62
     2
370
     9
100
AcDbCircle
 10
426.0623003985432
 20
249.3916032120988
 30
0.0
 40
10.08941192884703
100
AcDbArc
 50
158.1978607177734
 51
201.8001556396485
  0
ARC
  5
498
330
1F
100
AcDbEntity
  8
B-1_ピット
  6
Continuous
 62
     2
370
     9
100
AcDbCircle
 10
422.9730142129435
 20
239.2881403742611
 30
0.0
 40
3.99999956826906
100
AcDbArc
 50
272.9359893798828
 51
0.0000000000000127
  0
TEXT
  5
499
330
1F
100
AcDbEntity
  8
B-F
  6
Continuous
 62
     2
370
     9
100
AcDbText
 10
-8.32702069256758
 20
-16.85810810810807
 30
0.0
 40
15.24
  1
500
 50
90.0
 41
1.083333333333333
  7
ＭＳ ゴシック
100
AcDbText
  0
TEXT
  5
49A
330
1F
100
AcDbEntity
  8
B-F
  6
Continuous
 62
     2
370
     9
100
AcDbText
 10
-219.8664752857105
 20
-77.37725077861055
 30
0.0
 40
15.24
  1
7
 41
0.8749999999999999
  7
ＭＳ ゴシック
100
AcDbText
  0
TEXT
  5
49B
330
1F
100
AcDbEntity
  8
B-F
  6
Continuous
 62
     2
370
     9
100
AcDbText
 10
-233.9492047284101
 20
-40.22261491105365
 30
0.0
 40
15.24
  1
1.5
 41
0.7666666666666704
  7
ＭＳ ゴシック
100
AcDbText
  0
TEXT
  5
49C
330
1F
100
AcDbEntity
  8
B-F
  6
Continuous
 62
     2
370
     9
100
AcDbText
 10
-169.422650723844
 20
-77.37725077861055
 30
0.0
 40
15.24
  1
7
 41
0.8749999999999999
  7
ＭＳ ゴシック
100
AcDbText
  0
TEXT
  5
49D
330
1F
100
AcDbEntity
  8
B-F
  6
Continuous
 62
     2
370
     9
100
AcDbText
 10
-460.6167849978885
 20
-63.67285806191926
 30
0.0
 40
15.24
  1
130
 41
1.083333333333333
  7
ＭＳ ゴシック
100
AcDbText
  0
TEXT
  5
49E
330
1F
100
AcDbEntity
  8
B-F
  6
Continuous
 62
     2
370
     9
100
AcDbText
 10
-539.9601400179478
 20
-183.3166173986486
 30
0.0
 40
15.24
  1
78
 50
90.0
 41
1.0625
  7
ＭＳ ゴシック
100
AcDbText
  0
TEXT
  5
49F
330
1F
100
AcDbEntity
  8
B-F
  6
Continuous
 62
     2
370
     9
100
AcDbText
 10
-294.9628577319995
 20
-151.2329513962204
 30
0.0
 40
15.24
  1
40
 50
90.0
 41
1.0625
  7
ＭＳ ゴシック
100
AcDbText
  0
TEXT
  5
4A0
330
1F
100
AcDbEntity
  8
B-F
  6
Continuous
 62
     2
370
     9
100
AcDbText
 10
521.2167167704814
 20
-28.10801531817454
 30
0.0
 40
15.24
  1
□410
 50
90.0
 41
1.1
  7
ＭＳ ゴシック
100
AcDbText
  0
TEXT
  5
4A1
330
1F
100
AcDbEntity
  8
B-F
  6
Continuous
 62
     2
370
     9
100
AcDbText
 10
571.4539290804477
 20
-28.10813903808587
 30
0.0
 40
15.24
  1
□530
 50
90.0
 41
1.1
  7
ＭＳ ゴシック
100
AcDbText
  0
TEXT
  5
4A2
330
1F
100
AcDbEntity
  8
B-F
  6
Continuous
 62
     2
370
     9
100
AcDbText
 10
311.4546796479096
 20
210.3880206958669
 30
0.0
 40
15.24
  1
7
 50
90.0
 41
0.9999999999999998
  7
ＭＳ ゴシック
100
AcDbText
  0
TEXT
  5
4A3
330
1F
100
AcDbEntity
  8
B-0_通り芯
  6
Continuous
 62
     2
370
     9
100
AcDbText
 10
379.3478929674303
 20
-190.50209819072
 30
0.0
 40
15.24
  1
40
 41
1.0625
  7
ＭＳ ゴシック
100
AcDbText
  0
TEXT
  5
4A4
330
1F
100
AcDbEntity
  8
B-0_通り芯
  6
Continuous
 62
     2
370
     9
100
AcDbText
 10
424.7778567752324
 20
-190.50209819072
 30
0.0
 40
15.24
  1
6
 41
0.9999999999999998
  7
ＭＳ ゴシック
100
AcDbText
  0
TEXT
  5
4A5
330
1F
100
AcDbEntity
  8
B-4_寸法
  6
Continuous
 62
     2
370
     9
100
AcDbText
 10
-61.87318389067773
 20
-16.85810810810807
 30
0.0
 40
15.24
  1
300
 50
90.0
 41
1.083333333333333
  7
ＭＳ ゴシック
100
AcDbText
  0
TEXT
  5
4A6
330
1F
100
AcDbEntity
  8
B-F
  6
Continuous
 62
     2
370
     9
100
AcDbText
 10
-433.3053671347129
 20
-409.3364545502534
 30
0.0
 40
15.24
  1
500
 41
1.083333333333333
  7
ＭＳ ゴシック
100
AcDbText
  0
TEXT
  5
4A7
330
1F
100
AcDbEntity
  8
B-4_寸法
  6
Continuous
 62
     2
370
     9
100
AcDbText
 10
-433.3053671347129
 20
-355.7902913521432
 30
0.0
 40
15.24
  1
300
 41
1.083333333333333
  7
ＭＳ ゴシック
100
AcDbText
  0
TEXT
  5
4A8
330
1F
100
AcDbEntity
  8
B-4_寸法
  6
Continuous
 62
     2
370
     9
100
AcDbText
 10
391.8481816472234
 20
-342.2657873865076
 30
0.0
 40
15.24
  1
65
 41
1.0625
  7
ＭＳ ゴシック
100
AcDbText
  0
TEXT
  5
4A9
330
1F
100
AcDbEntity
  8
B-0_通り芯
  6
Continuous
 62
     2
370
     9
100
AcDbText
 10
269.2272181165542
 20
-28.1082008980416
 30
0.0
 40
15.24
  1
□450
 50
90.0
 41
1.1
  7
ＭＳ ゴシック
100
AcDbText
  0
TEXT
  5
4AA
330
1F
100
AcDbEntity
  8
B-F
  6
Continuous
 62
     2
370
     9
100
AcDbText
 10
215.3636514859587
 20
-28.10807717813027
 30
0.0
 40
15.24
  1
□467
 50
90.0
 41
1.1
  7
ＭＳ ゴシック
100
AcDbText
  0
LWPOLYLINE
  5
4AB
330
1F
100
AcDbEntity
  8
B-F
  6
Continuous
 62
     7
370
     9
100
AcDbPolyline
 90
        4
 70
     1
 43
0.5
 10
-191.8052434148015
 20
-82.69725902660468
 42
0.4142135623731
 10
-192.0552434148014
 20
-82.44725902660468
 42
0.4142135623731
 10
-192.3052434148014
 20
-82.69725902660468
 42
0.4142135623731
 10
-192.0552434148014
 20
-82.94725902660468
 42
0.4142135623731
  0
LWPOLYLINE
  5
4AC
330
1F
100
AcDbEntity
  8
B-F
  6
Continuous
 62
     7
370
     9
100
AcDbPolyline
 90
        4
 70
     1
 43
0.5
 10
-190.305325069943
 20
-82.69725902660468
 42
0.4142135623731
 10
-190.555325069943
 20
-82.44725902660468
 42
0.4142135623731
 10
-190.805325069943
 20
-82.69725902660468
 42
0.4142135623731
 10
-190.555325069943
 20
-82.94725902660468
 42
0.4142135623731
  0
LINE
  5
4AD
330
1F
100
AcDbEntity
  8
B-5_仕様文
  6
Continuous
 62
     7
370
     9
100
AcDbLine
 10
254.7156668998102
 20
-328.7010646510768
 30
0.0
 11
92.50946044921875
 21
-328.7010646510768
 31
0.0
  0
LINE
  5
4AE
330
1F
100
AcDbEntity
  8
B-5_仕様文
  6
Continuous
 62
     7
370
     9
100
AcDbLine
 10
194.2631489521749
 20
400.7626672693203
 30
0.0
 11
344.05517578125
 21
400.7626672693203
 31
0.0
  0
LINE
  5
4AF
330
1F
100
AcDbEntity
  8
B-5_仕様文
  6
Continuous
 62
     7
370
     9
100
AcDbLine
 10
18.84699641047305
 20
450.7627085092906
 30
0.0
 11
350.7901165936445
 21
450.7627085092906
 31
0.0
  0
LINE
  5
4B0
330
1F
100
AcDbEntity
  8
B-5_仕様文
  6
Continuous
 62
     7
370
     9
100
AcDbLine
 10
338.1079596442146
 20
300.7627085092906
 30
0.0
 11
105.8324865392737
 21
300.7627085092906
 31
0.0
  0
LINE
  5
4B1
330
1F
100
AcDbEntity
  8
B-5_仕様文
  6
Continuous
 62
     7
370
     9
100
AcDbLine
 10
341.2477235536318
 20
350.762749749261
 30
0.0
 11
106.6677196605787
 21
350.762749749261
 31
0.0
  0
LINE
  5
4B2
330
1F
100
AcDbEntity
  8
B-5_仕様文
  6
Continuous
 62
     7
370
     9
100
AcDbLine
 10
486.4306888064823
 20
414.3920238597974
 30
0.0
 11
671.137959248311
 21
414.3920238597974
 31
0.0
  0
LINE
  5
4B3
330
1F
100
AcDbEntity
  8
B-5_仕様文
  6
Continuous
 62
     7
370
     9
100
AcDbLine
 10
341.8360117319469
 20
350.762749749261
 30
0.0
 11
399.9612344277872
 21
234.1026677312078
 31
0.0
  0
LINE
  5
4B4
330
1F
100
AcDbEntity
  8
B-5_仕様文
  6
Continuous
 62
     7
370
     9
100
AcDbLine
 10
436.0973461254224
 20
263.3916246568834
 30
0.0
 11
486.4306888064823
 21
414.3920238597974
 31
0.0
  0
LINE
  5
4B5
330
1F
100
AcDbEntity
  8
B-5_仕様文
  6
Continuous
 62
     7
370
     9
100
AcDbLine
 10
429.9733342351141
 20
216.5521322714316
 30
0.0
 11
486.4611239046664
 21
314.3920650997678
 31
0.0
  0
LINE
  5
4B6
330
1F
100
AcDbEntity
  8
B-F
  6
Continuous
 62
     7
370
     9
100
AcDbLine
 10
443.5308095571159
 20
256.1541954246728
 30
0.0
 11
448.4110651789484
 21
270.3380646576753
 31
0.0
  0
LINE
  5
4B7
330
1F
100
AcDbEntity
  8
B-F
  6
Continuous
 62
     7
370
     9
100
AcDbLine
 10
443.5308095571159
 20
256.1541954246728
 30
0.0
 11
451.9158028267526
 21
268.5916343895166
 31
0.0
  0
LINE
  5
4B8
330
1F
100
AcDbEntity
  8
B-F
  6
Continuous
 62
     7
370
     9
100
AcDbLine
 10
436.0973461254224
 20
263.3916246568834
 30
0.0
 11
438.9427803658151
 21
278.1192429001267
 31
0.0
  0
LINE
  5
4B9
330
1F
100
AcDbEntity
  8
B-F
  6
Continuous
 62
     7
370
     9
100
AcDbLine
 10
436.0973461254224
 20
263.3916246568834
 30
0.0
 11
442.6575944230365
 21
276.8810540276605
 31
0.0
  0
LINE
  5
4BA
330
1F
100
AcDbEntity
  8
B-F
  6
Continuous
 62
     7
370
     9
100
AcDbLine
 10
429.9733342351141
 20
216.5521322714316
 30
0.0
 11
435.7135669605154
 21
230.4103706978464
 31
0.0
  0
LINE
  5
4BB
330
1F
100
AcDbEntity
  8
B-F
  6
Continuous
 62
     7
370
     9
100
AcDbLine
 10
429.9733342351141
 20
216.5521322714316
 30
0.0
 11
439.1047297297297
 21
228.4523793813345
 31
0.0
  0
LINE
  5
4BC
330
1F
100
AcDbEntity
  8
B-F
  6
Continuous
 62
     7
370
     9
100
AcDbLine
 10
409.9728970914273
 20
176.289157351932
 30
0.0
 11
400.8415015968117
 21
188.1894663217906
 31
0.0
  0
LINE
  5
4BD
330
1F
100
AcDbEntity
  8
B-F
  6
Continuous
 62
     7
370
     9
100
AcDbLine
 10
409.9728970914273
 20
176.289157351932
 30
0.0
 11
404.2326643660263
 21
190.1473339183912
 31
0.0
  0
LINE
  5
4BE
330
1F
100
AcDbEntity
  8
B-F
  6
Continuous
 62
     7
370
     9
100
AcDbLine
 10
399.9612344277872
 20
234.1026677312078
 30
0.0
 11
391.5767360377956
 21
246.5404778557856
 31
0.0
  0
LINE
  5
4BF
330
1F
100
AcDbEntity
  8
B-F
  6
Continuous
 62
     7
370
     9
100
AcDbLine
 10
399.9612344277872
 20
234.1026677312078
 30
0.0
 11
395.0815974055109
 21
248.2867844040329
 31
0.0
  0
LINE
  5
4C0
330
1F
100
AcDbEntity
  8
B-F
  6
Continuous
 62
     7
370
     9
100
AcDbLine
 10
416.1653260926943
 20
256.0344345505173
 30
0.0
 11
407.7808277027029
 21
268.4722446750951
 31
0.0
  0
LINE
  5
4C1
330
1F
100
AcDbEntity
  8
B-F
  6
Continuous
 62
     7
370
     9
100
AcDbLine
 10
416.1653260926943
 20
256.0344345505173
 30
0.0
 11
411.2856890704182
 21
270.2185512233426
 31
0.0
  0
LINE
  5
4C2
330
1F
100
AcDbEntity
  8
B-F
  6
Continuous
 62
     7
370
     9
100
AcDbLine
 10
422.4730620513091
 20
306.8916691960516
 30
0.0
 11
414.0885636613177
 21
319.3294793206293
 31
0.0
  0
LINE
  5
4C3
330
1F
100
AcDbEntity
  8
B-F
  6
Continuous
 62
     7
370
     9
100
AcDbLine
 10
422.4730620513091
 20
306.8916691960516
 30
0.0
 11
417.5934250290331
 21
321.0757858688767
 31
0.0
  0
LINE
  5
4C4
330
1F
100
AcDbEntity
  8
B-5_仕様文
  6
Continuous
 62
     7
370
     9
100
AcDbLine
 10
552.7461696315456
 20
-336.6163552773965
 30
0.0
 11
840.9583839210304
 21
-336.6163552773965
 31
0.0
  0
LINE
  5
4C5
330
1F
100
AcDbEntity
  8
B-F
  6
Continuous
 62
     7
370
     9
100
AcDbLine
 10
369.973136283256
 20
-129.0692757271431
 30
0.0
 11
364.2329035578547
 21
-142.9274522936021
 31
0.0
  0
LINE
  5
4C6
330
1F
100
AcDbEntity
  8
B-F
  6
Continuous
 62
     7
370
     9
100
AcDbLine
 10
369.973136283256
 20
-129.0692757271431
 30
0.0
 11
360.8417407886404
 21
-140.9695846970016
 31
0.0
  0
LINE
  5
4C7
330
1F
100
AcDbEntity
  8
B-F
  6
Continuous
 62
     7
370
     9
100
AcDbLine
 10
432.9731709248313
 20
-129.1634884396115
 30
0.0
 11
442.1045664194469
 21
-141.06379740947
 31
0.0
  0
LINE
  5
4C8
330
1F
100
AcDbEntity
  8
B-F
  6
Continuous
 62
     7
370
     9
100
AcDbLine
 10
432.9731709248313
 20
-129.1634884396115
 30
0.0
 11
438.7134036502323
 21
-143.0216650060705
 31
0.0
  0
LINE
  5
4C9
330
1F
100
AcDbEntity
  8
B-5_仕様文
  6
Continuous
 62
     7
370
     9
100
AcDbLine
 10
283.316369958826
 20
-378.7010749610695
 30
0.0
 11
117.3052813555744
 21
-378.7010749610695
 31
0.0
  0
LINE
  5
4CA
330
1F
100
AcDbEntity
  8
B-5_仕様文
  6
Continuous
 62
     7
370
     9
100
AcDbLine
 10
497.4650202570734
 20
364.391982619827
 30
0.0
 11
694.5623449377114
 21
364.391982619827
 31
0.0
  0
LINE
  5
4CB
330
1F
100
AcDbEntity
  8
B-5_仕様文
  6
Continuous
 62
     7
370
     9
100
AcDbLine
 10
497.4650202570734
 20
364.391982619827
 30
0.0
 11
443.5308095571159
 21
256.1541954246728
 31
0.0
  0
LINE
  5
4CC
330
1F
100
AcDbEntity
  8
B-5_仕様文
  6
Continuous
 62
     7
370
     9
100
AcDbLine
 10
344.05517578125
 20
400.7626672693203
 30
0.0
 11
416.1653260926943
 21
256.0343726905617
 31
0.0
  0
LINE
  5
4CD
330
1F
100
AcDbEntity
  8
B-5_仕様文
  6
Continuous
 62
     7
370
     9
100
AcDbLine
 10
369.973136283256
 20
-234.1080990353146
 30
0.0
 11
283.316369958826
 21
-378.7010749610695
 31
0.0
  0
LINE
  5
4CE
330
1F
100
AcDbEntity
  8
B-5_仕様文
  6
Continuous
 62
     7
370
     9
100
AcDbLine
 10
369.973136283256
 20
-225.6081699680638
 30
0.0
 11
283.316369958826
 21
-378.7010749610695
 31
0.0
  0
LINE
  5
4CF
330
1F
100
AcDbEntity
  8
B-5_仕様文
  6
Continuous
 62
     7
370
     9
100
AcDbLine
 10
432.9731709248313
 20
-129.1634884396115
 30
0.0
 11
552.7461696315456
 21
-336.6163552773965
 31
0.0
  0
LINE
  5
4D0
330
1F
100
AcDbEntity
  8
B-5_仕様文
  6
Continuous
 62
     7
370
     9
100
AcDbLine
 10
369.973136283256
 20
-129.0692757271431
 30
0.0
 11
254.7156668998102
 21
-328.7010646510768
 31
0.0
  0
LINE
  5
4D1
330
1F
100
AcDbEntity
  8
B-5_仕様文
  6
Continuous
 62
     7
370
     9
100
AcDbLine
 10
409.9728970914273
 20
176.289157351932
 30
0.0
 11
338.1079596442146
 21
300.7627085092906
 31
0.0
  0
LINE
  5
4D2
330
1F
100
AcDbEntity
  8
B-5_仕様文
  6
Continuous
 62
     7
370
     9
100
AcDbLine
 10
350.7901165936445
 20
450.7627085092906
 30
0.0
 11
422.4730620513091
 21
306.8916691960516
 31
0.0
  0
LINE
  5
4D3
330
1F
100
AcDbEntity
  8
B-F
  6
Continuous
 62
     7
370
     9
100
AcDbLine
 10
369.973136283256
 20
-225.6081699680638
 30
0.0
 11
364.3511797930745
 21
-239.5147828798036
 31
0.0
  0
LINE
  5
4D4
330
1F
100
AcDbEntity
  8
B-F
  6
Continuous
 62
     7
370
     9
100
AcDbLine
 10
369.973136283256
 20
-225.6081699680638
 30
0.0
 11
360.9434385557432
 21
-237.5858657424514
 31
0.0
  0
LINE
  5
4D5
330
1F
100
AcDbEntity
  8
B-F
  6
Continuous
 62
     7
370
     9
100
AcDbLine
 10
369.973136283256
 20
-234.1080990353146
 30
0.0
 11
364.0074858794341
 21
-247.8707638302365
 31
0.0
  0
LINE
  5
4D6
330
1F
100
AcDbEntity
  8
B-F
  6
Continuous
 62
     7
370
     9
100
AcDbLine
 10
369.973136283256
 20
-234.1080990353146
 30
0.0
 11
360.6487377269849
 21
-245.8578408730996
 31
0.0
  0
LINE
  5
4D7
330
1F
100
AcDbEntity
  8
B-5_仕様文
  6
Continuous
 62
     7
370
     9
100
AcDbLine
 10
771.4540223817568
 20
314.3920650997678
 30
0.0
 11
486.4611239046664
 21
314.3920650997678
 31
0.0
  0
TEXT
  5
4D8
330
1F
100
AcDbEntity
  8
B-5_仕様文
  6
Continuous
 62
     7
370
     9
100
AcDbText
 10
98.54328877217071
 20
-323.0507681851773
 30
0.0
 40
11.43
  1
把手：ＳＵＳ３０４
 41
1.148148148148148
  7
ＭＳ ゴシック
100
AcDbText
  0
TEXT
  5
4D9
330
1F
100
AcDbEntity
  8
B-5_仕様文
  6
Continuous
 62
     7
370
     9
100
AcDbText
 10
123.3391096785263
 20
-372.4681814327755
 30
0.0
 40
11.43
  1
目地：ＳＵＳ３０４
 41
1.148148148148148
  7
ＭＳ ゴシック
100
AcDbText
  0
TEXT
  5
4DA
330
1F
100
AcDbEntity
  8
B-5_仕様文
  6
Continuous
 62
     7
370
     9
100
AcDbText
 10
202.853249214791
 20
406.210929120038
 30
0.0
 40
11.43
  1
六角ナット：Ｍ８
 41
1.145833333333333
  7
ＭＳ ゴシック
100
AcDbText
  0
TEXT
  5
4DB
330
1F
100
AcDbEntity
  8
B-5_仕様文
  6
Continuous
 62
     7
370
     9
100
AcDbText
 10
494.9805759739232
 20
421.7299836359798
 30
0.0
 40
11.43
  1
大形角平座金：呼び８
 41
1.15
  7
ＭＳ ゴシック
100
AcDbText
  0
TEXT
  5
4DC
330
1F
100
AcDbEntity
  8
B-5_仕様文
  6
Continuous
 62
     7
370
     9
100
AcDbText
 10
500.3807315310918
 20
369.8402444705448
 30
0.0
 40
11.43
  1
六角ボルト：Ｍ８Ｘ２５
 41
1.151515151515152
  7
ＭＳ ゴシック
100
AcDbText
  0
TEXT
  5
4DD
330
1F
100
AcDbEntity
  8
B-5_仕様文
  6
Continuous
 62
     7
370
     9
100
AcDbText
 10
31.59944688951654
 20
456.2109703600084
 30
0.0
 40
11.43
  1
アンカー：ＳＳ４００，電気亜鉛めっき
 41
1.157407407407407
  7
ＭＳ ゴシック
100
AcDbText
  0
TEXT
  5
4DE
330
1F
100
AcDbEntity
  8
B-5_仕様文
  6
Continuous
 62
     7
370
     9
100
AcDbText
 10
111.8447793496622
 20
306.3334530722129
 30
0.0
 40
11.43
  1
蓋：ＦＣ２００，樹脂系塗装
 41
1.153846153846154
  7
ＭＳ ゴシック
100
AcDbText
  0
TEXT
  5
4DF
330
1F
100
AcDbEntity
  8
B-5_仕様文
  6
Continuous
 62
     7
370
     9
100
AcDbText
 10
112.6800124709672
 20
356.3334943121833
 30
0.0
 40
11.43
  1
枠：ＦＣ２００，樹脂系塗装
 41
1.153846153846154
  7
ＭＳ ゴシック
100
AcDbText
  0
TEXT
  5
4E0
330
1F
100
AcDbEntity
  8
B-5_仕様文
  6
Continuous
 62
     7
370
     9
100
AcDbText
 10
493.9539976377745
 20
319.9630571025128
 30
0.0
 40
11.43
  1
パッキン：エチレンプロピレンゴム
 41
1.15625
  7
ＭＳ ゴシック
100
AcDbText
  0
TEXT
  5
4E1
330
1F
100
AcDbEntity
  8
B-5_仕様文
  6
Continuous
 62
     7
370
     9
100
AcDbText
 10
557.1096100678317
 20
-331.191229050095
 30
0.0
 40
11.43
  1
カバー：ＳＰＣＣ，電気亜鉛めっき
 41
1.15625
  7
ＭＳ ゴシック
100
AcDbText
  0
LINE
  5
4E2
330
1F
100
AcDbEntity
  8
B-0_通り芯
  6
Continuous
 62
     3
370
     9
100
AcDbLine
 10
409.9728970914273
 20
-95.60805037214948
 30
0.0
 11
409.9728970914273
 21
-118.6870032146872
 31
0.0
  0
TEXT
  5
4E3
330
1F
100
AcDbEntity
  8
F-5
  6
Continuous
 62
     2
370
     9
100
AcDbText
 10
-403.9239289219208
 20
-661.6184942510632
 30
0.0
 40
15.24
  1
タイル用　ステンレス目地　一般型　充填深さ４０ｍｍ
 41
0.8989999999999999
  7
ＭＳ ゴシック
100
AcDbText
  0
TEXT
  5
4E4
330
1F
100
AcDbEntity
  8
F-5
  6
Continuous
 62
     2
370
     9
100
AcDbText
 10
-121.0456474931589
 20
-686.704386465637
 30
0.0
 40
15.24
  1
カラー舗装用鉄蓋　ＭＲＡＫ－４５０
 41
0.8985294117647057
  7
ＭＳ ゴシック
100
AcDbText
  0
ENDSEC
  0
SECTION
  2
OBJECTS
  0
DICTIONARY
  5
C
330
0
100
AcDbDictionary
281
     1
  3
ACAD_GROUP
350
D
  3
ACAD_LAYOUT
350
1A
  3
ACAD_MLEADERSTYLE
350
4E6
  3
ACAD_MLINESTYLE
350
17
  3
ACAD_PLOTSETTINGS
350
19
  3
ACAD_PLOTSTYLENAME
350
E
  3
ACAD_TABLESTYLE
350
4E5
  3
ACAD_VISUALSTYLE
350
2A
  0
DICTIONARY
  5
D
102
{ACAD_REACTORS
330
C
102
}
330
C
100
AcDbDictionary
281
     1
  0
DICTIONARY
  5
1A
102
{ACAD_REACTORS
330
C
102
}
330
C
100
AcDbDictionary
281
     1
  3
Layout1
350
1E
  3
Layout2
350
26
  3
Model
350
22
  0
DICTIONARY
  5
4E6
102
{ACAD_REACTORS
330
C
102
}
330
C
100
AcDbDictionary
281
     1
  0
DICTIONARY
  5
17
102
{ACAD_REACTORS
330
C
102
}
330
C
100
AcDbDictionary
281
     1
  3
Standard
350
18
  0
DICTIONARY
  5
19
102
{ACAD_REACTORS
330
C
102
}
330
C
100
AcDbDictionary
281
     1
  0
ACDBDICTIONARYWDFLT
  5
E
102
{ACAD_REACTORS
330
C
102
}
330
C
100
AcDbDictionary
281
     1
  3
Normal
350
F
100
AcDbDictionaryWithDefault
340
F
  0
DICTIONARY
  5
4E5
102
{ACAD_REACTORS
330
C
102
}
330
C
100
AcDbDictionary
281
     1
  0
DICTIONARY
  5
2A
102
{ACAD_REACTORS
330
C
102
}
330
C
100
AcDbDictionary
281
     1
  3
2dWireframe
350
2F
  3
3D Hidden
350
31
  3
3dWireframe
350
30
  3
Basic
350
32
  3
Brighten
350
36
  3
ColorChange
350
3A
  3
Conceptual
350
34
  3
Dim
350
35
  3
Facepattern
350
39
  3
Flat
350
2B
  3
FlatWithEdges
350
2C
  3
Gouraud
350
2D
  3
GouraudWithEdges
350
2E
  3
Linepattern
350
38
  3
Realistic
350
33
  3
Thicken
350
37
  0
LAYOUT
  5
1E
102
{ACAD_REACTORS
330
1A
102
}
330
1A
100
AcDbPlotSettings
  1

  2
none_device
  4

  6

 40
0.0
 41
0.0
 42
0.0
 43
0.0
 44
0.0
 45
0.0
 46
0.0
 47
0.0
 48
0.0
 49
0.0
140
0.0
141
0.0
142
1.0
143
1.0
 70
   688
 72
     0
 73
     0
 74
     5
  7

 75
    16
 76
     0
 77
     5
 78
   300
147
1.0
148
0.0
149
0.0
100
AcDbLayout
  1
Layout1
 70
     1
 71
     1
 10
0.0
 20
0.0
 11
420.0
 21
297.0
 12
0.0
 22
0.0
 32
0.0
 14
1.000000000000000E+20
 24
1.000000000000000E+20
 34
1.000000000000000E+20
 15
-1.000000000000000E+20
 25
-1.000000000000000E+20
 35
-1.000000000000000E+20
146
0.0
 13
0.0
 23
0.0
 33
0.0
 16
1.0
 26
0.0
 36
0.0
 17
0.0
 27
1.0
 37
0.0
 76
     0
330
1B
  0
LAYOUT
  5
26
102
{ACAD_REACTORS
330
1A
102
}
330
1A
100
AcDbPlotSettings
  1

  2
none_device
  4

  6

 40
0.0
 41
0.0
 42
0.0
 43
0.0
 44
0.0
 45
0.0
 46
0.0
 47
0.0
 48
0.0
 49
0.0
140
0.0
141
0.0
142
1.0
143
1.0
 70
   688
 72
     0
 73
     0
 74
     5
  7

 75
    16
 76
     0
 77
     5
 78
   300
147
1.0
148
0.0
149
0.0
100
AcDbLayout
  1
Layout2
 70
     1
 71
     2
 10
0.0
 20
0.0
 11
0.0
 21
0.0
 12
0.0
 22
0.0
 32
0.0
 14
0.0
 24
0.0
 34
0.0
 15
0.0
 25
0.0
 35
0.0
146
0.0
 13
0.0
 23
0.0
 33
0.0
 16
1.0
 26
0.0
 36
0.0
 17
0.0
 27
1.0
 37
0.0
 76
     0
330
23
  0
LAYOUT
  5
22
102
{ACAD_REACTORS
330
1A
102
}
330
1A
100
AcDbPlotSettings
  1

  2
none_device
  4

  6

 40
0.0
 41
0.0
 42
0.0
 43
0.0
 44
0.0
 45
0.0
 46
0.0
 47
0.0
 48
0.0
 49
0.0
140
0.0
141
0.0
142
1.0
143
1.0
 70
  1712
 72
     0
 73
     0
 74
     0
  7

 75
     0
 76
     0
 77
     5
 78
   300
147
1.0
148
0.0
149
0.0
100
AcDbLayout
  1
Model
 70
     1
 71
     0
 10
-1050.0
 20
-742.5
 11
1050.0
 21
742.5
 12
0.0
 22
0.0
 32
0.0
 14
-1050.0
 24
-742.5
 34
0.0
 15
1050.0
 25
742.5
 35
0.0
146
0.0
 13
0.0
 23
0.0
 33
0.0
 16
1.0
 26
0.0
 36
0.0
 17
0.0
 27
1.0
 37
0.0
 76
     0
330
1F
331
29
  0
MLINESTYLE
  5
18
102
{ACAD_REACTORS
330
17
102
}
330
17
100
AcDbMlineStyle
  2
Standard
 70
     0
  3

 62
   256
 51
90.0
 52
90.0
 71
     2
 49
0.5
 62
   256
  6
BYLAYER
 49
-0.5
 62
   256
  6
BYLAYER
  0
ACDBPLACEHOLDER
  5
F
102
{ACAD_REACTORS
330
E
102
}
330
E
  0
VISUALSTYLE
  5
2F
102
{ACAD_REACTORS
330
2A
102
}
330
2A
100
AcDbVisualStyle
  2
2dWireframe
 70
     4
 71
     0
 72
     2
 73
     0
 90
        0
 40
-0.6
 41
-30.0
 62
     5
 63
     7
421
 16777215
 74
     1
 91
        4
 64
     7
 65
   257
 75
     1
175
     1
 42
1.0
 92
        0
 66
   257
 43
1.0
 76
     1
 77
     6
 78
     2
 67
     7
 79
     5
170
     0
171
     0
290
     0
174
     0
 93
        1
 44
0.0
173
     0
291
     0
 45
0.0
1001
ACAD
1000
AcDbSavedByObjectVersion
1070
     0
  0
VISUALSTYLE
  5
31
102
{ACAD_REACTORS
330
2A
102
}
330
2A
100
AcDbVisualStyle
  2
3D Hidden
 70
     6
 71
     1
 72
     2
 73
     2
 90
        0
 40
-0.6
 41
-30.0
 62
     5
 63
     7
421
 16777215
 74
     2
 91
        2
 64
     7
 65
   257
 75
     2
175
     1
 42
40.0
 92
        0
 66
   257
 43
1.0
 76
     1
 77
     6
 78
     2
 67
     7
 79
     3
170
     0
171
     0
290
     0
174
     0
 93
        1
 44
0.0
173
     0
291
     0
 45
0.0
1001
ACAD
1000
AcDbSavedByObjectVersion
1070
     0
  0
VISUALSTYLE
  5
30
102
{ACAD_REACTORS
330
2A
102
}
330
2A
100
AcDbVisualStyle
  2
3dWireframe
 70
     5
 71
     0
 72
     2
 73
     0
 90
        0
 40
-0.6
 41
-30.0
 62
     5
 63
     7
421
 16777215
 74
     1
 91
        4
 64
     7
 65
   257
 75
     1
175
     1
 42
1.0
 92
        0
 66
   257
 43
1.0
 76
     1
 77
     6
 78
     2
 67
     7
 79
     5
170
     0
171
     0
290
     0
174
     0
 93
        1
 44
0.0
173
     0
291
     0
 45
0.0
1001
ACAD
1000
AcDbSavedByObjectVersion
1070
     0
  0
VISUALSTYLE
  5
32
102
{ACAD_REACTORS
330
2A
102
}
330
2A
100
AcDbVisualStyle
  2
Basic
 70
     7
 71
     1
 72
     0
 73
     1
 90
        0
 40
-0.6
 41
-30.0
 62
     5
 63
     7
421
 16777215
 74
     0
 91
        4
 64
     7
 65
   257
 75
     1
175
     1
 42
1.0
 92
        8
 66
     7
 43
1.0
 76
     1
 77
     6
 78
     2
 67
     7
 79
     5
170
     0
171
     0
290
     0
174
     0
 93
        1
 44
0.0
173
     0
291
     1
 45
0.0
1001
ACAD
1000
AcDbSavedByObjectVersion
1070
     0
  0
VISUALSTYLE
  5
36
102
{ACAD_REACTORS
330
2A
102
}
330
2A
100
AcDbVisualStyle
  2
Brighten
 70
    12
 71
     2
 72
     2
 73
     0
 90
        0
 40
-0.6
 41
-30.0
 62
     5
 63
     7
421
 16777215
 74
     1
 91
        4
 64
     7
 65
   257
 75
     1
175
     1
 42
1.0
 92
        8
 66
     7
 43
1.0
 76
     1
 77
     6
 78
     2
 67
     7
 79
     5
170
     0
171
     0
290
     0
174
     0
 93
        1
 44
50.0
173
     0
291
     1
 45
0.0
1001
ACAD
1000
AcDbSavedByObjectVersion
1070
     0
  0
VISUALSTYLE
  5
3A
102
{ACAD_REACTORS
330
2A
102
}
330
2A
100
AcDbVisualStyle
  2
ColorChange
 70
    16
 71
     2
 72
     2
 73
     3
 90
        0
 40
-0.6
 41
-30.0
 62
     5
 63
     8
421
  8421504
 74
     1
 91
        4
 64
     7
 65
   257
 75
     1
175
     1
 42
1.0
 92
        8
 66
     8
424
  8421504
 43
1.0
 76
     1
 77
     6
 78
     2
 67
     7
 79
     5
170
     0
171
     0
290
     0
174
     0
 93
        1
 44
0.0
173
     0
291
     1
 45
0.0
1001
ACAD
1000
AcDbSavedByObjectVersion
1070
     0
  0
VISUALSTYLE
  5
34
102
{ACAD_REACTORS
330
2A
102
}
330
2A
100
AcDbVisualStyle
  2
Conceptual
 70
     9
 71
     3
 72
     2
 73
     0
 90
        0
 40
-0.6
 41
-30.0
 62
     5
 63
     7
421
 16777215
 74
     2
 91
        2
 64
     7
 65
   257
 75
     1
175
     1
 42
40.0
 92
        8
 66
     7
 43
1.0
 76
     1
 77
     6
 78
     2
 67
     7
 79
     3
170
     0
171
     0
290
     0
174
     0
 93
        1
 44
0.0
173
     0
291
     0
 45
0.0
1001
ACAD
1000
AcDbSavedByObjectVersion
1070
     0
  0
VISUALSTYLE
  5
35
102
{ACAD_REACTORS
330
2A
102
}
330
2A
100
AcDbVisualStyle
  2
Dim
 70
    11
 71
     2
 72
     2
 73
     0
 90
        0
 40
-0.6
 41
-30.0
 62
     5
 63
     7
421
 16777215
 74
     1
 91
        4
 64
     7
 65
   257
 75
     1
175
     1
 42
1.0
 92
        8
 66
     7
 43
1.0
 76
     1
 77
     6
 78
     2
 67
     7
 79
     5
170
     0
171
     0
290
     0
174
     0
 93
        1
 44
-50.0
173
     0
291
     1
 45
0.0
1001
ACAD
1000
AcDbSavedByObjectVersion
1070
     0
  0
VISUALSTYLE
  5
39
102
{ACAD_REACTORS
330
2A
102
}
330
2A
100
AcDbVisualStyle
  2
Facepattern
 70
    15
 71
     2
 72
     2
 73
     0
 90
        0
 40
-0.6
 41
-30.0
 62
     5
 63
     7
421
 16777215
 74
     1
 91
        4
 64
     7
 65
   257
 75
     1
175
     1
 42
1.0
 92
        8
 66
     7
 43
1.0
 76
     1
 77
     6
 78
     2
 67
     7
 79
     5
170
     0
171
     0
290
     0
174
     0
 93
        1
 44
0.0
173
     0
291
     1
 45
0.0
1001
ACAD
1000
AcDbSavedByObjectVersion
1070
     0
  0
VISUALSTYLE
  5
2B
102
{ACAD_REACTORS
330
2A
102
}
330
2A
100
AcDbVisualStyle
  2
Flat
 70
     0
 71
     2
 72
     1
 73
     1
 90
        2
 40
-0.6
 41
30.0
 62
     5
 63
     7
421
 16777215
 74
     0
 91
        4
 64
     7
 65
   257
 75
     1
175
     1
 42
1.0
 92
        8
 66
     7
 43
1.0
 76
     1
 77
     6
 78
     2
 67
     7
 79
     5
170
     0
171
     0
290
     0
174
     0
 93
       13
 44
0.0
173
     0
291
     1
 45
0.0
1001
ACAD
1000
AcDbSavedByObjectVersion
1070
     0
  0
VISUALSTYLE
  5
2C
102
{ACAD_REACTORS
330
2A
102
}
330
2A
100
AcDbVisualStyle
  2
FlatWithEdges
 70
     1
 71
     2
 72
     1
 73
     1
 90
        2
 40
-0.6
 41
30.0
 62
     5
 63
     7
421
 16777215
 74
     1
 91
        4
 64
     7
 65
   257
 75
     1
175
     1
 42
1.0
 92
        0
 66
   257
 43
1.0
 76
     1
 77
     6
 78
     2
 67
     7
 79
     5
170
     0
171
     0
290
     0
174
     0
 93
       13
 44
0.0
173
     0
291
     1
 45
0.0
1001
ACAD
1000
AcDbSavedByObjectVersion
1070
     0
  0
VISUALSTYLE
  5
2D
102
{ACAD_REACTORS
330
2A
102
}
330
2A
100
AcDbVisualStyle
  2
Gouraud
 70
     2
 71
     2
 72
     2
 73
     1
 90
        2
 40
-0.6
 41
30.0
 62
     5
 63
     7
421
 16777215
 74
     0
 91
        4
 64
     7
 65
   257
 75
     1
175
     1
 42
1.0
 92
        0
 66
     7
 43
1.0
 76
     1
 77
     6
 78
     2
 67
     7
 79
     5
170
     0
171
     0
290
     0
174
     0
 93
       13
 44
0.0
173
     0
291
     1
 45
0.0
1001
ACAD
1000
AcDbSavedByObjectVersion
1070
     0
  0
VISUALSTYLE
  5
2E
102
{ACAD_REACTORS
330
2A
102
}
330
2A
100
AcDbVisualStyle
  2
GouraudWithEdges
 70
     3
 71
     2
 72
     2
 73
     1
 90
        2
 40
-0.6
 41
30.0
 62
     5
 63
     7
421
 16777215
 74
     1
 91
        4
 64
     7
 65
   257
 75
     1
175
     1
 42
1.0
 92
        0
 66
   257
 43
1.0
 76
     1
 77
     6
 78
     2
 67
     7
 79
     5
170
     0
171
     0
290
     0
174
     0
 93
       13
 44
0.0
173
     0
291
     1
 45
0.0
1001
ACAD
1000
AcDbSavedByObjectVersion
1070
     0
  0
VISUALSTYLE
  5
38
102
{ACAD_REACTORS
330
2A
102
}
330
2A
100
AcDbVisualStyle
  2
Linepattern
 70
    14
 71
     2
 72
     2
 73
     0
 90
        0
 40
-0.6
 41
-30.0
 62
     5
 63
     7
421
 16777215
 74
     1
 91
        4
 64
     7
 65
   257
 75
     7
175
     7
 42
1.0
 92
        8
 66
     7
 43
1.0
 76
     1
 77
     6
 78
     2
 67
     7
 79
     5
170
     0
171
     0
290
     0
174
     0
 93
        1
 44
0.0
173
     0
291
     1
 45
0.0
1001
ACAD
1000
AcDbSavedByObjectVersion
1070
     0
  0
VISUALSTYLE
  5
33
102
{ACAD_REACTORS
330
2A
102
}
330
2A
100
AcDbVisualStyle
  2
Realistic
 70
     8
 71
     2
 72
     2
 73
     0
 90
        0
 40
-0.6
 41
-30.0
 62
     5
 63
     7
421
 16777215
 74
     1
 91
        0
 64
     7
 65
   257
 75
     1
175
     1
 42
1.0
 92
        8
 66
     8
424
  7895160
 43
1.0
 76
     1
 77
     6
 78
     2
 67
     7
 79
     5
170
     0
171
     0
290
     0
174
     0
 93
       13
 44
0.0
173
     0
291
     0
 45
0.0
1001
ACAD
1000
AcDbSavedByObjectVersion
1070
     0
  0
VISUALSTYLE
  5
37
102
{ACAD_REACTORS
330
2A
102
}
330
2A
100
AcDbVisualStyle
  2
Thicken
 70
    13
 71
     2
 72
     2
 73
     0
 90
        0
 40
-0.6
 41
-30.0
 62
     5
 63
     7
421
 16777215
 74
     1
 91
        4
 64
     7
 65
   257
 75
     1
175
     1
 42
1.0
 92
       12
 66
     7
 43
1.0
 76
     1
 77
     6
 78
     2
 67
     7
 79
     5
170
     0
171
     0
290
     0
174
     0
 93
        1
 44
0.0
173
     0
291
     1
 45
0.0
1001
ACAD
1000
AcDbSavedByObjectVersion
1070
     0
  0
ENDSEC
  0
EOF
