  0
SECTION
  2
HEADER
  9
$ACADVER
  1
AC1018
  9
$ACADMAINTVER
 70
     0
  9
$DWGCODEPAGE
  3
ANSI_932
  9
$INSBASE
 10
0.0
 20
0.0
 30
0.0
  9
$EXTMIN
 10
-2100.0
 20
-1485.0
 30
0.0
  9
$EXTMAX
 10
2100.0
 20
1485.0
 30
0.0
  9
$LIMMIN
 10
-2100.0
 20
-1485.0
  9
$LIMMAX
 10
2100.0
 20
1485.0
  9
$ORTHOMODE
 70
     0
  9
$REGENMODE
 70
     1
  9
$FILLMODE
 70
     1
  9
$QTEXTMODE
 70
     0
  9
$MIRRTEXT
 70
     1
  9
$LTSCALE
 40
10.0
  9
$ATTMODE
 70
     1
  9
$TEXTSIZE
 40
2.5
  9
$TRACEWID
 40
1.0
  9
$TEXTSTYLE
  7
Standard
  9
$CLAYER
  8
0
  9
$CELTYPE
  6
ByLayer
  9
$CECOLOR
 62
   256
  9
$CELTSCALE
 40
1.0
  9
$DISPSILH
 70
     0
  9
$DIMSCALE
 40
1.0
  9
$DIMASZ
 40
2.5
  9
$DIMEXO
 40
0.625
  9
$DIMDLI
 40
3.75
  9
$DIMRND
 40
0.0
  9
$DIMDLE
 40
0.0
  9
$DIMEXE
 40
1.25
  9
$DIMTP
 40
0.0
  9
$DIMTM
 40
0.0
  9
$DIMTXT
 40
2.5
  9
$DIMCEN
 40
2.5
  9
$DIMTSZ
 40
0.0
  9
$DIMTOL
 70
     0
  9
$DIMLIM
 70
     0
  9
$DIMTIH
 70
     0
  9
$DIMTOH
 70
     0
  9
$DIMSE1
 70
     0
  9
$DIMSE2
 70
     0
  9
$DIMTAD
 70
     1
  9
$DIMZIN
 70
     8
  9
$DIMBLK
  1

  9
$DIMASO
 70
     1
  9
$DIMSHO
 70
     1
  9
$DIMPOST
  1

  9
$DIMAPOST
  1

  9
$DIMALT
 70
     0
  9
$DIMALTD
 70
     3
  9
$DIMALTF
 40
0.03937007874016
  9
$DIMLFAC
 40
1.0
  9
$DIMTOFL
 70
     1
  9
$DIMTVP
 40
0.0
  9
$DIMTIX
 70
     0
  9
$DIMSOXD
 70
     0
  9
$DIMSAH
 70
     0
  9
$DIMBLK1
  1

  9
$DIMBLK2
  1

  9
$DIMSTYLE
  2
ISO-25
  9
$DIMCLRD
 70
     0
  9
$DIMCLRE
 70
     0
  9
$DIMCLRT
 70
     0
  9
$DIMTFAC
 40
1.0
  9
$DIMGAP
 40
0.625
  9
$DIMJUST
 70
     0
  9
$DIMSD1
 70
     0
  9
$DIMSD2
 70
     0
  9
$DIMTOLJ
 70
     0
  9
$DIMTZIN
 70
     8
  9
$DIMALTZ
 70
     0
  9
$DIMALTTZ
 70
     0
  9
$DIMUPT
 70
     0
  9
$DIMDEC
 70
     2
  9
$DIMTDEC
 70
     2
  9
$DIMALTU
 70
     2
  9
$DIMALTTD
 70
     3
  9
$DIMTXSTY
  7
Standard
  9
$DIMAUNIT
 70
     0
  9
$DIMADEC
 70
     0
  9
$DIMALTRND
 40
0.0
  9
$DIMAZIN
 70
     0
  9
$DIMDSEP
 70
    44
  9
$DIMATFIT
 70
     3
  9
$DIMFRAC
 70
     0
  9
$DIMLDRBLK
  1

  9
$DIMLUNIT
 70
     2
  9
$DIMLWD
 70
    -2
  9
$DIMLWE
 70
    -2
  9
$DIMTMOVE
 70
     0
  9
$LUNITS
 70
     2
  9
$LUPREC
 70
     4
  9
$SKETCHINC
 40
1.0
  9
$FILLETRAD
 40
10.0
  9
$AUNITS
 70
     0
  9
$AUPREC
 70
     0
  9
$MENU
  1
.
  9
$ELEVATION
 40
0.0
  9
$PELEVATION
 40
0.0
  9
$THICKNESS
 40
0.0
  9
$LIMCHECK
 70
     0
  9
$CHAMFERA
 40
10.0
  9
$CHAMFERB
 40
10.0
  9
$CHAMFERC
 40
20.0
  9
$CHAMFERD
 40
0.0
  9
$SKPOLY
 70
     0
  9
$TDCREATE
 40
2456498.82965706
  9
$TDUCREATE
 40
2456498.45465706
  9
$TDUPDATE
 40
2456498.829657072
  9
$TDUUPDATE
 40
2456498.454657072
  9
$TDINDWG
 40
0.0000000116
  9
$TDUSRTIMER
 40
0.0000000116
  9
$USRTIMER
 70
     1
  9
$ANGBASE
 50
0.0
  9
$ANGDIR
 70
     0
  9
$PDMODE
 70
     0
  9
$PDSIZE
 40
0.0
  9
$PLINEWID
 40
0.0
  9
$SPLFRAME
 70
     0
  9
$SPLINETYPE
 70
     6
  9
$SPLINESEGS
 70
     8
  9
$HANDSEED
  5
3DA
  9
$SURFTAB1
 70
     6
  9
$SURFTAB2
 70
     6
  9
$SURFTYPE
 70
     6
  9
$SURFU
 70
     6
  9
$SURFV
 70
     6
  9
$UCSBASE
  2

  9
$UCSNAME
  2

  9
$UCSORG
 10
0.0
 20
0.0
 30
0.0
  9
$UCSXDIR
 10
1.0
 20
0.0
 30
0.0
  9
$UCSYDIR
 10
0.0
 20
1.0
 30
0.0
  9
$UCSORTHOREF
  2

  9
$UCSORTHOVIEW
 70
     0
  9
$UCSORGTOP
 10
0.0
 20
0.0
 30
0.0
  9
$UCSORGBOTTOM
 10
0.0
 20
0.0
 30
0.0
  9
$UCSORGLEFT
 10
0.0
 20
0.0
 30
0.0
  9
$UCSORGRIGHT
 10
0.0
 20
0.0
 30
0.0
  9
$UCSORGFRONT
 10
0.0
 20
0.0
 30
0.0
  9
$UCSORGBACK
 10
0.0
 20
0.0
 30
0.0
  9
$PUCSBASE
  2

  9
$PUCSNAME
  2

  9
$PUCSORG
 10
0.0
 20
0.0
 30
0.0
  9
$PUCSXDIR
 10
1.0
 20
0.0
 30
0.0
  9
$PUCSYDIR
 10
0.0
 20
1.0
 30
0.0
  9
$PUCSORTHOREF
  2

  9
$PUCSORTHOVIEW
 70
     0
  9
$PUCSORGTOP
 10
0.0
 20
0.0
 30
0.0
  9
$PUCSORGBOTTOM
 10
0.0
 20
0.0
 30
0.0
  9
$PUCSORGLEFT
 10
0.0
 20
0.0
 30
0.0
  9
$PUCSORGRIGHT
 10
0.0
 20
0.0
 30
0.0
  9
$PUCSORGFRONT
 10
0.0
 20
0.0
 30
0.0
  9
$PUCSORGBACK
 10
0.0
 20
0.0
 30
0.0
  9
$USERI1
 70
     0
  9
$USERI2
 70
     0
  9
$USERI3
 70
     0
  9
$USERI4
 70
     0
  9
$USERI5
 70
     0
  9
$USERR1
 40
0.0
  9
$USERR2
 40
0.0
  9
$USERR3
 40
0.0
  9
$USERR4
 40
0.0
  9
$USERR5
 40
0.0
  9
$WORLDVIEW
 70
     1
  9
$SHADEDGE
 70
     3
  9
$SHADEDIF
 70
    70
  9
$TILEMODE
 70
     1
  9
$MAXACTVP
 70
    64
  9
$PINSBASE
 10
0.0
 20
0.0
 30
0.0
  9
$PLIMCHECK
 70
     0
  9
$PEXTMIN
 10
1.000000000000000E+20
 20
1.000000000000000E+20
 30
1.000000000000000E+20
  9
$PEXTMAX
 10
-1.000000000000000E+20
 20
-1.000000000000000E+20
 30
-1.000000000000000E+20
  9
$PLIMMIN
 10
0.0
 20
0.0
  9
$PLIMMAX
 10
420.0
 20
297.0
  9
$UNITMODE
 70
     0
  9
$VISRETAIN
 70
     1
  9
$PLINEGEN
 70
     0
  9
$PSLTSCALE
 70
     1
  9
$TREEDEPTH
 70
  3020
  9
$CMLSTYLE
  2
Standard
  9
$CMLJUST
 70
     0
  9
$CMLSCALE
 40
20.0
  9
$PROXYGRAPHICS
 70
     1
  9
$MEASUREMENT
 70
     1
  9
$CELWEIGHT
370
    -1
  9
$ENDCAPS
280
     0
  9
$JOINSTYLE
280
     0
  9
$LWDISPLAY
290
     0
  9
$INSUNITS
 70
     4
  9
$HYPERLINKBASE
  1

  9
$STYLESHEET
  1

  9
$XEDIT
290
     1
  9
$CEPSNTYPE
380
     0
  9
$PSTYLEMODE
290
     1
  9
$FINGERPRINTGUID
  2
{0E6444BD-9BF0-4B7D-B839-EB01C3204199}
  9
$VERSIONGUID
  2
{FAEB1C32-E019-11D5-929B-00C0DF256EC4}
  9
$EXTNAMES
290
     1
  9
$PSVPSCALE
 40
0.0
  9
$OLESTARTUP
290
     0
  9
$SORTENTS
280
   127
  9
$INDEXCTL
280
     0
  9
$HIDETEXT
280
     1
  9
$XCLIPFRAME
290
     0
  9
$HALOGAP
280
     0
  9
$OBSCOLOR
 70
   257
  9
$OBSLTYPE
280
     0
  9
$INTERSECTIONDISPLAY
280
     0
  9
$INTERSECTIONCOLOR
 70
   257
  9
$DIMASSOC
280
     2
  9
$PROJECTNAME
  1

  0
ENDSEC
  0
SECTION
  2
CLASSES
  0
CLASS
  1
ACDBDICTIONARYWDFLT
  2
AcDbDictionaryWithDefault
  3
ObjectDBX Classes
 90
        0
 91
        4
280
     0
281
     0
  0
CLASS
  1
VISUALSTYLE
  2
AcDbVisualStyle
  3
ObjectDBX Classes
 90
     4095
 91
        4
280
     0
281
     0
  0
ENDSEC
  0
SECTION
  2
TABLES
  0
TABLE
  2
VPORT
  5
8
330
0
100
AcDbSymbolTable
 70
     1
  0
VPORT
  5
29
330
8
100
AcDbSymbolTableRecord
100
AcDbViewportTableRecord
  2
*Active
 70
     0
 10
0.0
 20
0.0
 11
1.0
 21
1.0
 12
0.0
 22
0.0
 13
0.0
 23
0.0
 14
10.0
 24
10.0
 15
10.0
 25
10.0
 16
0.0
 26
0.0
 36
1.0
 17
0.0
 27
0.0
 37
0.0
 40
3267.0
 41
1.414141414141414
 42
50.0
 43
0.0
 44
0.0
 50
0.0
 51
0.0
 71
     0
 72
 10000
 73
     1
 74
     3
 75
     0
 76
     0
 77
     0
 78
     0
281
     0
 65
     1
110
0.0
120
0.0
130
0.0
111
1.0
121
0.0
131
0.0
112
0.0
122
1.0
132
0.0
 79
     0
146
0.0
  0
ENDTAB
  0
TABLE
  2
LTYPE
  5
5
330
0
100
AcDbSymbolTable
 70
     3
  0
LTYPE
  5
14
330
5
100
AcDbSymbolTableRecord
100
AcDbLinetypeTableRecord
  2
ByBlock
 70
     0
  3

 72
    65
 73
     0
 40
0.0
  0
LTYPE
  5
15
330
5
100
AcDbSymbolTableRecord
100
AcDbLinetypeTableRecord
  2
ByLayer
 70
     0
  3

 72
    65
 73
     0
 40
0.0
  0
LTYPE
  5
16
330
5
100
AcDbSymbolTableRecord
100
AcDbLinetypeTableRecord
  2
Continuous
 70
     0
  3
Solid line
 72
    65
 73
     0
 40
0.0
  0
LTYPE
  5
3C
330
5
100
AcDbSymbolTableRecord
100
AcDbLinetypeTableRecord
  2
JWW_CENTER1
 70
     0
  3
-----  --  ----------  --  -----
 72
    65
 73
     4
 40
6.773333333333333
 49
4.233333333333333
 74
     0
 49
-0.8466666666666667
 74
     0
 49
0.8466666666666667
 74
     0
 49
-0.8466666666666667
 74
     0
  0
LTYPE
  5
3D
330
5
100
AcDbSymbolTableRecord
100
AcDbLinetypeTableRecord
  2
JWW_DASHED1
 70
     0
  3
-  --  --  --  --  --  --  --  -
 72
    65
 73
     2
 40
1.693333333333333
 49
0.8466666666666667
 74
     0
 49
-0.8466666666666667
 74
     0
  0
ENDTAB
  0
TABLE
  2
LAYER
  5
2
330
0
100
AcDbSymbolTable
 70
     6
  0
LAYER
  5
10
330
2
100
AcDbSymbolTableRecord
100
AcDbLayerTableRecord
  2
0
 70
     0
 62
     7
  6
Continuous
370
    -3
390
F
  0
LAYER
  5
3E
330
2
100
AcDbSymbolTableRecord
100
AcDbLayerTableRecord
  2
0-1_ピット
 70
     0
 62
     7
  6
Continuous
370
    -3
390
F
  0
LAYER
  5
3F
330
2
100
AcDbSymbolTableRecord
100
AcDbLayerTableRecord
  2
0-0_通り芯
 70
     0
 62
     7
  6
Continuous
370
    -3
390
F
  0
LAYER
  5
40
330
2
100
AcDbSymbolTableRecord
100
AcDbLayerTableRecord
  2
0-2_本体（蓋）
 70
     0
 62
     7
  6
Continuous
370
    -3
390
F
  0
LAYER
  5
41
330
2
100
AcDbSymbolTableRecord
100
AcDbLayerTableRecord
  2
0-4_寸法
 70
     0
 62
     7
  6
Continuous
370
    -3
390
F
  0
LAYER
  5
42
330
2
100
AcDbSymbolTableRecord
100
AcDbLayerTableRecord
  2
F-5ﾚｲﾔ
 70
     0
 62
     7
  6
Continuous
370
    -3
390
F
  0
ENDTAB
  0
TABLE
  2
STYLE
  5
3
330
0
100
AcDbSymbolTable
 70
     2
  0
STYLE
  5
11
330
3
100
AcDbSymbolTableRecord
100
AcDbTextStyleTableRecord
  2
Standard
 70
     0
 40
0.0
 41
1.0
 50
0.0
 71
     0
 42
2.5
  3
txt
  4

1001
ACAD
1000

1071
        0
  0
STYLE
  5
3B
330
3
100
AcDbSymbolTableRecord
100
AcDbTextStyleTableRecord
  2
ＭＳ ゴシック
 70
     0
 40
1.0
 41
1.0
 50
0.0
 71
     0
 42
10.0
  3

  4

1001
ACAD
1000
MS Gothic
1071
    32817
  0
ENDTAB
  0
TABLE
  2
VIEW
  5
6
330
0
100
AcDbSymbolTable
 70
     0
  0
ENDTAB
  0
TABLE
  2
UCS
  5
7
330
0
100
AcDbSymbolTable
 70
     0
  0
ENDTAB
  0
TABLE
  2
APPID
  5
9
330
0
100
AcDbSymbolTable
 70
     1
  0
APPID
  5
12
330
9
100
AcDbSymbolTableRecord
100
AcDbRegAppTableRecord
  2
ACAD
 70
     0
  0
ENDTAB
  0
TABLE
  2
DIMSTYLE
  5
A
330
0
100
AcDbSymbolTable
 70
     1
100
AcDbDimStyleTable
  0
DIMSTYLE
105
27
330
A
100
AcDbSymbolTableRecord
100
AcDbDimStyleTableRecord
  2
ISO-25
 70
     0
 41
2.5
 42
0.625
 43
3.75
 44
1.25
 73
     0
 74
     0
 77
     1
 78
     8
140
2.5
141
2.5
143
0.03937007874016
147
0.625
171
     3
172
     1
271
     2
272
     2
274
     3
278
    44
283
     0
284
     8
340
11
  0
ENDTAB
  0
TABLE
  2
BLOCK_RECORD
  5
1
330
0
100
AcDbSymbolTable
 70
     1
  0
BLOCK_RECORD
  5
1F
330
1
100
AcDbSymbolTableRecord
100
AcDbBlockTableRecord
  2
*Model_Space
340
22
  0
BLOCK_RECORD
  5
1B
330
1
100
AcDbSymbolTableRecord
100
AcDbBlockTableRecord
  2
*Paper_Space
340
1E
  0
BLOCK_RECORD
  5
23
330
1
100
AcDbSymbolTableRecord
100
AcDbBlockTableRecord
  2
*Paper_Space0
340
26
  0
ENDTAB
  0
ENDSEC
  0
SECTION
  2
BLOCKS
  0
BLOCK
  5
20
330
1F
100
AcDbEntity
  8
0
100
AcDbBlockBegin
  2
*Model_Space
 70
     0
 10
0.0
 20
0.0
 30
0.0
  3
*Model_Space
  1

  0
ENDBLK
  5
21
330
1F
100
AcDbEntity
  8
0
100
AcDbBlockEnd
  0
BLOCK
  5
1C
330
1B
100
AcDbEntity
 67
     1
  8
0
100
AcDbBlockBegin
  2
*Paper_Space
 70
     0
 10
0.0
 20
0.0
 30
0.0
  3
*Paper_Space
  1

  0
ENDBLK
  5
1D
330
1B
100
AcDbEntity
 67
     1
  8
0
100
AcDbBlockEnd
  0
BLOCK
  5
24
330
23
100
AcDbEntity
  8
0
100
AcDbBlockBegin
  2
*Paper_Space0
 70
     0
 10
0.0
 20
0.0
 30
0.0
  3
*Paper_Space0
  1

  0
ENDBLK
  5
25
330
23
100
AcDbEntity
  8
0
100
AcDbBlockEnd
  0
ENDSEC
  0
SECTION
  2
ENTITIES
  0
LINE
  5
43
330
1F
100
AcDbEntity
  8
0-1_ピット
  6
Continuous
 62
     2
370
    13
100
AcDbLine
 10
1013.954702827425
 20
309.9858295369046
 30
0.0
 11
965.9545939539033
 21
311.9448106127066
 31
0.0
  0
LINE
  5
44
330
1F
100
AcDbEntity
  8
0-1_ピット
  6
Continuous
 62
     2
370
    13
100
AcDbLine
 10
965.9545939539033
 20
311.9448106127066
 30
0.0
 11
965.9545939539033
 21
322.0263750262416
 31
0.0
  0
LINE
  5
45
330
1F
100
AcDbEntity
  8
0-1_ピット
  6
Continuous
 62
     2
370
    13
100
AcDbLine
 10
997.7337852545794
 20
438.1835356047895
 30
0.0
 11
1013.954702827425
 21
439.985763552952
 31
0.0
  0
LINE
  5
46
330
1F
100
AcDbEntity
  8
0-1_ピット
  6
Continuous
 62
     2
370
    13
100
AcDbLine
 10
995.9546929298323
 20
420.5772024650082
 30
0.0
 11
995.9546929298323
 21
436.1957277896499
 31
0.0
  0
LINE
  5
47
330
1F
100
AcDbEntity
  8
0-1_ピット
  6
JWW_CENTER1
 62
     2
370
    13
100
AcDbLine
 10
1040.052552080487
 20
445.9856843722082
 30
0.0
 11
967.5239810289667
 21
445.9856843722082
 31
0.0
  0
LINE
  5
48
330
1F
100
AcDbEntity
  8
0-1_ピット
  6
Continuous
 62
     2
370
    13
100
AcDbLine
 10
987.9545923043044
 20
483.3119816167186
 30
0.0
 11
987.9545923043044
 21
420.2999461437457
 31
0.0
  0
LINE
  5
49
330
1F
100
AcDbEntity
  8
0-1_ピット
  6
Continuous
 62
     2
370
    13
100
AcDbLine
 10
990.6107350803815
 20
486.2923942803593
 30
0.0
 11
1013.954702827425
 21
488.9857767497426
 31
0.0
  0
LINE
  5
4A
330
1F
100
AcDbEntity
  8
0-1_ピット
  6
JWW_DASHED1
 62
     2
370
    13
100
AcDbLine
 10
1013.954702827425
 20
460.9859812999957
 30
0.0
 11
987.9545923043044
 21
462.9857899465327
 31
0.0
  0
LINE
  5
4B
330
1F
100
AcDbEntity
  8
0-1_ピット
  6
JWW_DASHED1
 62
     2
370
    13
100
AcDbLine
 10
1013.954702827425
 20
430.9858823240666
 30
0.0
 11
987.9545923043044
 21
428.9858262377066
 31
0.0
  0
LINE
  5
4C
330
1F
100
AcDbEntity
  8
0-1_ピット
  6
Continuous
 62
     2
370
    13
100
AcDbLine
 10
990.358099021471
 20
383.37598605084
 30
0.0
 11
793.9545956035023
 21
389.9858460328926
 31
0.0
  0
LINE
  5
4D
330
1F
100
AcDbEntity
  8
0-1_ピット
  6
Continuous
 62
     2
370
    13
100
AcDbLine
 10
1001.954490029178
 20
329.2560717639947
 30
0.0
 11
1001.954490029178
 21
371.38294900745
 31
0.0
  0
LINE
  5
4E
330
1F
100
AcDbEntity
  8
0-1_ピット
  6
Continuous
 62
     2
370
    13
100
AcDbLine
 10
951.9546962290302
 20
353.5458782330613
 30
0.0
 11
951.9546962290302
 21
376.9331479490666
 31
0.0
  0
LINE
  5
4F
330
1F
100
AcDbEntity
  8
0-1_ピット
  6
Continuous
 62
     2
370
    13
100
AcDbLine
 10
954.843556158295
 20
350.5478973420145
 30
0.0
 11
990.3988028722945
 21
349.2311463258613
 31
0.0
  0
LINE
  5
50
330
1F
100
AcDbEntity
  8
0-1_ピット
  6
Continuous
 62
     2
370
    13
100
AcDbLine
 10
984.3700553137007
 20
408.58441286144
 30
0.0
 11
793.9545956035023
 21
401.9858113913176
 31
0.0
  0
LINE
  5
51
330
1F
100
AcDbEntity
  8
0-1_ピット
  6
Continuous
 62
     2
370
    13
100
AcDbLine
 10
997.7337852545794
 20
-718.2119383909355
 30
0.0
 11
1013.954702827425
 21
-720.0141044791428
 31
0.0
  0
LINE
  5
52
330
1F
100
AcDbEntity
  8
0-1_ピット
  6
Continuous
 62
     2
370
    13
100
AcDbLine
 10
995.9546929298323
 20
-706.6089902279284
 30
0.0
 11
995.9546929298323
 21
-716.2241305757962
 31
0.0
  0
LINE
  5
53
330
1F
100
AcDbEntity
  8
0-1_ピット
  6
JWW_CENTER1
 62
     2
370
    13
100
AcDbLine
 10
1040.052552080487
 20
-726.0142108782666
 30
0.0
 11
967.5239810289667
 21
-726.0142108782666
 31
0.0
  0
LINE
  5
54
330
1F
100
AcDbEntity
  8
0-1_ピット
  6
Continuous
 62
     2
370
    13
100
AcDbLine
 10
987.9545923043044
 20
-763.3406318426881
 30
0.0
 11
987.9545923043044
 21
-706.3318576265774
 31
0.0
  0
LINE
  5
55
330
1F
100
AcDbEntity
  8
0-1_ピット
  6
Continuous
 62
     2
370
    13
100
AcDbLine
 10
990.6107350803815
 20
-766.3207970665055
 30
0.0
 11
1013.954702827425
 21
-769.0143032558003
 31
0.0
  0
LINE
  5
56
330
1F
100
AcDbEntity
  8
0-1_ピット
  6
JWW_DASHED1
 62
     2
370
    13
100
AcDbLine
 10
1013.954702827425
 20
-741.0141985062753
 30
0.0
 11
987.9545923043044
 21
-743.0141308727241
 31
0.0
  0
LINE
  5
57
330
1F
100
AcDbEntity
  8
0-1_ピット
  6
JWW_DASHED1
 62
     2
370
    13
100
AcDbLine
 10
1013.954702827425
 20
-711.0142232502576
 30
0.0
 11
987.9545923043044
 21
-709.0142908838093
 31
0.0
  0
LINE
  5
58
330
1F
100
AcDbEntity
  8
0-1_ピット
  6
Continuous
 62
     2
370
    13
100
AcDbLine
 10
990.358099021471
 20
-663.4044506969428
 30
0.0
 11
793.9545956035021
 21
-670.0142488190395
 31
0.0
  0
LINE
  5
59
330
1F
100
AcDbEntity
  8
0-1_ピット
  6
Continuous
 62
     2
370
    13
100
AcDbLine
 10
1001.954490029178
 20
-609.2844126901857
 30
0.0
 11
1001.954490029178
 21
-651.4112899336399
 31
0.0
  0
LINE
  5
5A
330
1F
100
AcDbEntity
  8
0-1_ピット
  6
Continuous
 62
     2
370
    13
100
AcDbLine
 10
951.9546962290302
 20
-633.5742810192085
 30
0.0
 11
951.9546962290302
 21
-656.9614888752576
 31
0.0
  0
LINE
  5
5B
330
1F
100
AcDbEntity
  8
0-1_ピット
  6
Continuous
 62
     2
370
    13
100
AcDbLine
 10
954.843556158295
 20
-630.576300128161
 30
0.0
 11
990.3988028722945
 21
-629.2594872520524
 31
0.0
  0
LINE
  5
5C
330
1F
100
AcDbEntity
  8
0-1_ピット
  6
Continuous
 62
     2
370
    13
100
AcDbLine
 10
984.3700553137007
 20
-694.6162624843159
 30
0.0
 11
793.9545956035021
 21
-688.0177847341045
 31
0.0
  0
LINE
  5
5D
330
1F
100
AcDbEntity
  8
0-1_ピット
  6
Continuous
 62
     2
370
    13
100
AcDbLine
 10
1013.954702827425
 20
-769.0143032558003
 30
0.0
 11
1013.954702827425
 21
488.9857767497426
 31
0.0
  0
LINE
  5
5E
330
1F
100
AcDbEntity
  8
0-1_ピット
  6
JWW_DASHED1
 62
     2
370
    13
100
AcDbLine
 10
986.8080798861253
 20
-588.7700430348857
 30
0.0
 11
1001.954490029178
 21
-614.0142248998566
 31
0.0
  0
LINE
  5
5F
330
1F
100
AcDbEntity
  8
0-1_ピット
  6
JWW_DASHED1
 62
     2
370
    13
100
AcDbLine
 10
829.9546153986882
 20
287.985831186503
 30
0.0
 11
829.9546153986882
 21
382.9730302996791
 31
0.0
  0
LINE
  5
60
330
1F
100
AcDbEntity
  8
0-0_通り芯
  6
JWW_DASHED1
 62
     3
370
    13
100
AcDbLine
 10
811.2476699278266
 20
363.179576567627
 30
0.0
 11
809.9545494147354
 21
382.9858971704562
 31
0.0
  0
LINE
  5
61
330
1F
100
AcDbEntity
  8
0-0_通り芯
  6
JWW_DASHED1
 62
     3
370
    13
100
AcDbLine
 10
944.166032931944
 20
347.6898436706671
 30
0.0
 11
822.7993980475479
 21
351.9688205234962
 31
0.0
  0
LINE
  5
62
330
1F
100
AcDbEntity
  8
0-0_通り芯
  6
Continuous
 62
     3
370
    13
100
AcDbLine
 10
809.9545494147354
 20
382.9858971704562
 30
0.0
 11
793.9545956035023
 21
384.9857058169937
 31
0.0
  0
LINE
  5
63
330
1F
100
AcDbEntity
  8
0-0_通り芯
  6
Continuous
 62
     3
370
    13
100
AcDbLine
 10
946.7505418793679
 20
-132.7347383209928
 30
0.0
 11
933.9545626115261
 21
-134.0142496438386
 31
0.0
  0
LINE
  5
64
330
1F
100
AcDbEntity
  8
0-0_通り芯
  6
Continuous
 62
     3
370
    13
100
AcDbLine
 10
946.7505418793679
 20
37.26532766296032
 30
0.0
 11
933.9545626115261
 21
35.98581634011452
 31
0.0
  0
LINE
  5
65
330
1F
100
AcDbEntity
  8
0-0_通り芯
  6
Continuous
 62
     3
370
    13
100
AcDbLine
 10
946.7505418793679
 20
22.70633965884258
 30
0.0
 11
933.9545626115261
 21
23.98597470160041
 31
0.0
  0
LINE
  5
66
330
1F
100
AcDbEntity
  8
0-0_通り芯
  6
Continuous
 62
     3
370
    13
100
AcDbLine
 10
953.9546285954783
 20
-124.7744755069084
 30
0.0
 11
953.9546285954783
 21
14.74607684475927
 31
0.0
  0
LINE
  5
67
330
1F
100
AcDbEntity
  8
0-0_通り芯
  6
Continuous
 62
     3
370
    13
100
AcDbLine
 10
953.9546285954783
 20
45.22559047704362
 30
0.0
 11
953.9546285954783
 21
125.3445018078082
 31
0.0
  0
LINE
  5
68
330
1F
100
AcDbEntity
  8
0-0_通り芯
  6
Continuous
 62
     3
370
    13
100
AcDbLine
 10
933.9545626115261
 20
199.9857140649874
 30
0.0
 11
953.9546285954783
 21
125.3445018078082
 31
0.0
  0
LINE
  5
69
330
1F
100
AcDbEntity
  8
0-0_通り芯
  6
Continuous
 62
     3
370
    13
100
AcDbLine
 10
949.95464014267
 20
202.0921692750801
 30
0.0
 11
969.9547061266229
 21
127.4509570179009
 31
0.0
  0
LINE
  5
6A
330
1F
100
AcDbEntity
  8
0-0_通り芯
  6
Continuous
 62
     3
370
    13
100
AcDbLine
 10
804.9545329187468
 20
326.9858113913176
 30
0.0
 11
793.9545956035021
 21
328.9857437577666
 31
0.0
  0
LINE
  5
6B
330
1F
100
AcDbEntity
  8
0-0_通り芯
  6
Continuous
 62
     3
370
    13
100
AcDbLine
 10
804.9545329187468
 20
326.9858113913176
 30
0.0
 11
804.9545329187468
 21
242.9858064425213
 31
0.0
  0
LINE
  5
6C
330
1F
100
AcDbEntity
  8
0-0_通り芯
  6
Continuous
 62
     3
370
    13
100
AcDbLine
 10
804.9545329187468
 20
242.9858064425213
 30
0.0
 11
793.9545956035021
 21
240.9858740760728
 31
0.0
  0
LINE
  5
6D
330
1F
100
AcDbEntity
  8
0-0_通り芯
  6
Continuous
 62
     3
370
    13
100
AcDbLine
 10
804.9545329187468
 20
300.9859483080197
 30
0.0
 11
824.9545989027
 21
300.9859483080191
 31
0.0
  0
LINE
  5
6E
330
1F
100
AcDbEntity
  8
0-0_通り芯
  6
Continuous
 62
     3
370
    13
100
AcDbLine
 10
804.9545329187468
 20
268.9857932457312
 30
0.0
 11
824.9545989027
 21
268.9857932457312
 31
0.0
  0
LINE
  5
6F
330
1F
100
AcDbEntity
  8
0-0_通り芯
  6
Continuous
 62
     3
370
    13
100
AcDbLine
 10
824.9545989027
 20
331.9859516072171
 30
0.0
 11
824.9545989027
 21
300.6692253350462
 31
0.0
  0
LINE
  5
70
330
1F
100
AcDbEntity
  8
0-0_通り芯
  6
Continuous
 62
     3
370
    13
100
AcDbLine
 10
824.9545989027
 20
269.3025162187041
 30
0.0
 11
824.9545989027
 21
248.3879126502916
 31
0.0
  0
LINE
  5
71
330
1F
100
AcDbEntity
  8
0-0_通り芯
  6
Continuous
 62
     3
370
    13
100
AcDbLine
 10
933.9545626115261
 20
264.9856810730108
 30
0.0
 11
949.95464014267
 21
264.9856810730108
 31
0.0
  0
LINE
  5
72
330
1F
100
AcDbEntity
  8
0-0_通り芯
  6
Continuous
 62
     3
370
    13
100
AcDbLine
 10
930.9544784819865
 20
245.3879522406629
 30
0.0
 11
827.9545593123281
 21
245.3879522406629
 31
0.0
  0
LINE
  5
73
330
1F
100
AcDbEntity
  8
0-0_通り芯
  6
Continuous
 62
     3
370
    13
100
AcDbLine
 10
930.9544784819865
 20
334.9859120168458
 30
0.0
 11
827.9545593123281
 21
334.9859120168458
 31
0.0
  0
LINE
  5
74
330
1F
100
AcDbEntity
  8
0-0_通り芯
  6
Continuous
 62
     3
370
    13
100
AcDbLine
 10
933.9545626115261
 20
304.9859367608275
 30
0.0
 11
949.95464014267
 21
304.9859367608275
 31
0.0
  0
LINE
  5
75
330
1F
100
AcDbEntity
  8
0-0_通り芯
  6
Continuous
 62
     3
370
    13
100
AcDbLine
 10
803.9546285954783
 20
323.9858509816895
 30
0.0
 11
804.9545329187468
 21
323.9858509816895
 31
0.0
  0
LINE
  5
76
330
1F
100
AcDbEntity
  8
0-0_通り芯
  6
Continuous
 62
     3
370
    13
100
AcDbLine
 10
831.9546714850479
 20
300.4858724264739
 30
0.0
 11
812.8609775714075
 21
300.9859483080191
 31
0.0
  0
LINE
  5
77
330
1F
100
AcDbEntity
  8
0-0_通り芯
  6
Continuous
 62
     3
370
    13
100
AcDbLine
 10
803.9546285954783
 20
245.9857668521499
 30
0.0
 11
804.9545329187468
 21
245.9857668521499
 31
0.0
  0
LINE
  5
78
330
1F
100
AcDbEntity
  8
0-0_通り芯
  6
Continuous
 62
     3
370
    13
100
AcDbLine
 10
831.9546714850479
 20
269.4858691272759
 30
0.0
 11
812.8609775714075
 21
268.9857932457312
 31
0.0
  0
LINE
  5
79
330
1F
100
AcDbEntity
  8
0-0_通り芯
  6
Continuous
 62
     3
370
    13
100
AcDbLine
 10
831.9546714850479
 20
269.4858691272759
 30
0.0
 11
831.9546714850479
 21
300.4858724264739
 31
0.0
  0
LINE
  5
7A
330
1F
100
AcDbEntity
  8
0-0_通り芯
  6
Continuous
 62
     3
370
    13
100
AcDbLine
 10
797.9545840563104
 20
317.9860538823436
 30
0.0
 11
797.9545840563104
 21
251.9856876714061
 31
0.0
  0
LINE
  5
7B
330
1F
100
AcDbEntity
  8
0-0_通り芯
  6
Continuous
 62
     3
370
    13
100
AcDbLine
 10
933.9545626115261
 20
331.9859516072171
 30
0.0
 11
933.9545626115261
 21
248.3879126502916
 31
0.0
  0
LINE
  5
7C
330
1F
100
AcDbEntity
  8
0-0_通り芯
  6
Continuous
 62
     3
370
    13
100
AcDbLine
 10
922.3774719099844
 20
223.8893906908316
 30
0.0
 11
793.9545956035021
 21
228.4172920052322
 31
0.0
  0
LINE
  5
7D
330
1F
100
AcDbEntity
  8
0-0_通り芯
  6
Continuous
 62
     3
370
    13
100
AcDbLine
 10
949.95464014267
 20
341.6935107288384
 30
0.0
 11
949.95464014267
 21
202.0921692750801
 31
0.0
  0
LINE
  5
7E
330
1F
100
AcDbEntity
  8
0-0_通り芯
  6
Continuous
 62
     3
370
    13
100
AcDbLine
 10
812.0342811239835
 20
378.3723816774238
 30
0.0
 11
809.9545494147354
 21
382.9858971704562
 31
0.0
  0
LINE
  5
7F
330
1F
100
AcDbEntity
  8
0-0_通り芯
  6
JWW_DASHED1
 62
     3
370
    13
100
AcDbLine
 10
823.95457085952
 20
351.9282403925843
 30
0.0
 11
812.0342811239835
 21
378.3723816774238
 31
0.0
  0
LINE
  5
80
330
1F
100
AcDbEntity
  8
0-0_通り芯
  6
JWW_CENTER1
 62
     3
370
    13
100
AcDbLine
 10
771.9918369464075
 20
284.9857470569646
 30
0.0
 11
971.8744679905377
 21
284.9857470569634
 31
0.0
  0
LINE
  5
81
330
1F
100
AcDbEntity
  8
0-0_通り芯
  6
Continuous
 62
     3
370
    13
100
AcDbLine
 10
811.2476699278266
 20
-643.2079793537732
 30
0.0
 11
809.9545494147354
 21
-663.014238096647
 31
0.0
  0
LINE
  5
82
330
1F
100
AcDbEntity
  8
0-0_通り芯
  6
Continuous
 62
     3
370
    13
100
AcDbLine
 10
922.3774719099844
 20
-612.4864695749513
 30
0.0
 11
793.9545956035021
 21
-617.014185309485
 31
0.0
  0
LINE
  5
83
330
1F
100
AcDbEntity
  8
0-0_通り芯
  6
Continuous
 62
     3
370
    13
100
AcDbLine
 10
809.9545494147354
 20
-663.014238096647
 30
0.0
 11
793.9545956035021
 21
-665.0141704630958
 31
0.0
  0
LINE
  5
84
330
1F
100
AcDbEntity
  8
0-0_通り芯
  6
Continuous
 62
     3
370
    13
100
AcDbLine
 10
946.7505418793679
 20
-147.29372632511
 30
0.0
 11
933.9545626115261
 21
-146.0140912823522
 31
0.0
  0
LINE
  5
85
330
1F
100
AcDbEntity
  8
0-0_通り芯
  6
Continuous
 62
     3
370
    13
100
AcDbLine
 10
946.7505418793679
 20
-317.2936685891511
 30
0.0
 11
933.9545626115261
 21
-316.0141572663053
 31
0.0
  0
LINE
  5
86
330
1F
100
AcDbEntity
  8
0-0_通り芯
  6
Continuous
 62
     3
370
    13
100
AcDbLine
 10
946.7505418793679
 20
-302.7348043049449
 30
0.0
 11
933.9545626115261
 21
-304.0143156277918
 31
0.0
  0
LINE
  5
87
330
1F
100
AcDbEntity
  8
0-0_通り芯
  6
Continuous
 62
     3
370
    13
100
AcDbLine
 10
953.9546285954783
 20
-155.2539891391933
 30
0.0
 11
953.9546285954783
 21
-294.7745414908616
 31
0.0
  0
LINE
  5
88
330
1F
100
AcDbEntity
  8
0-0_通り芯
  6
Continuous
 62
     3
370
    13
100
AcDbLine
 10
953.9546285954783
 20
-325.2539314032344
 30
0.0
 11
953.9546285954783
 21
-405.373090173822
 31
0.0
  0
LINE
  5
89
330
1F
100
AcDbEntity
  8
0-0_通り芯
  6
Continuous
 62
     3
370
    13
100
AcDbLine
 10
933.9545626115261
 20
-480.0140549911782
 30
0.0
 11
953.9546285954783
 21
-405.373090173822
 31
0.0
  0
LINE
  5
8A
330
1F
100
AcDbEntity
  8
0-0_通り芯
  6
Continuous
 62
     3
370
    13
100
AcDbLine
 10
949.95464014267
 20
-482.1205102012709
 30
0.0
 11
969.9547061266229
 21
-407.4794216640032
 31
0.0
  0
LINE
  5
8B
330
1F
100
AcDbEntity
  8
0-0_通り芯
  6
Continuous
 62
     3
370
    13
100
AcDbLine
 10
949.95464014267
 20
-621.7219135149853
 30
0.0
 11
949.95464014267
 21
-482.1205102012709
 31
0.0
  0
LINE
  5
8C
330
1F
100
AcDbEntity
  8
0-0_通り芯
  6
Continuous
 62
     3
370
    13
100
AcDbLine
 10
793.9545956035021
 20
-665.0141704630958
 30
0.0
 11
793.9545956035023
 21
384.9857058169937
 31
0.0
  0
LINE
  5
8D
330
1F
100
AcDbEntity
  8
0-0_通り芯
  6
Continuous
 62
     3
370
    13
100
AcDbLine
 10
933.9545626115261
 20
-600.4939274112055
 30
0.0
 11
933.9545626115261
 21
211.8969722469978
 31
0.0
  0
LINE
  5
8E
330
1F
100
AcDbEntity
  8
0-0_通り芯
  6
Continuous
 62
     3
370
    13
100
AcDbLine
 10
823.9546945794312
 20
-631.9563957389084
 30
0.0
 11
809.9545494147354
 21
-663.014238096647
 31
0.0
  0
LINE
  5
8F
330
1F
100
AcDbEntity
  8
0-1_ピット
  6
Continuous
 62
     2
370
    13
100
AcDbLine
 10
965.9595427503563
 20
322.0266224660645
 30
0.0
 11
965.9545939539033
 21
311.9448106127066
 31
0.0
  0
LINE
  5
90
330
1F
100
AcDbEntity
  8
0-0_通り芯
  6
Continuous
 62
     3
370
    13
100
AcDbLine
 10
944.166032931944
 20
-627.7182464568139
 30
0.0
 11
822.7993980475479
 21
-631.9971614496876
 31
0.0
  0
LINE
  5
91
330
1F
100
AcDbEntity
  8
0-0_通り芯
  6
Continuous
 62
     3
370
    13
100
AcDbLine
 10
951.9545725091187
 20
302.3191540723775
 30
0.0
 11
949.95464014267
 21
300.9857008681968
 31
0.0
  0
LINE
  5
92
330
1F
100
AcDbEntity
  8
0-0_通り芯
  6
Continuous
 62
     3
370
    13
100
AcDbLine
 10
951.9545725091187
 20
331.6524027263046
 30
0.0
 11
949.95464014267
 21
332.985732210575
 31
0.0
  0
LINE
  5
93
330
1F
100
AcDbEntity
  8
0-0_通り芯
  6
Continuous
 62
     3
370
    13
100
AcDbLine
 10
951.9545725091187
 20
302.3191540723775
 30
0.0
 11
951.9545725091187
 21
331.6524027263046
 31
0.0
  0
LINE
  5
94
330
1F
100
AcDbEntity
  8
0-0_通り芯
  6
Continuous
 62
     3
370
    13
100
AcDbLine
 10
951.2903203052549
 20
344.3763770057603
 30
0.0
 11
951.9545725091187
 21
344.819046848454
 31
0.0
  0
LINE
  5
95
330
1F
100
AcDbEntity
  8
0-0_通り芯
  6
Continuous
 62
     3
370
    13
100
AcDbLine
 10
951.9545725091187
 20
344.819046848454
 30
0.0
 11
951.9545725091187
 21
369.6401066167186
 31
0.0
  0
LINE
  5
96
330
1F
100
AcDbEntity
  8
0-0_通り芯
  6
Continuous
 62
     3
370
    13
100
AcDbLine
 10
951.9545725091187
 20
369.6401066167186
 30
0.0
 11
817.2727058890807
 21
374.8425288876228
 31
0.0
  0
LINE
  5
97
330
1F
100
AcDbEntity
  8
0-0_通り芯
  6
Continuous
 62
     3
370
    13
100
AcDbLine
 10
951.9545725091187
 20
-649.6685712628212
 30
0.0
 11
817.2727058890807
 21
-654.8709316737691
 31
0.0
  0
LINE
  5
98
330
1F
100
AcDbEntity
  8
0-0_通り芯
  6
Continuous
 62
     3
370
    13
100
AcDbLine
 10
951.9545725091187
 20
-624.8474496346012
 30
0.0
 11
951.9545725091187
 21
-649.6685712628212
 31
0.0
  0
LINE
  5
99
330
1F
100
AcDbEntity
  8
0-0_通り芯
  6
Continuous
 62
     3
370
    13
100
AcDbLine
 10
951.2903203052549
 20
-624.4047179319512
 30
0.0
 11
951.9545725091187
 21
-624.8474496346012
 31
0.0
  0
LINE
  5
9A
330
1F
100
AcDbEntity
  8
0-0_通り芯
  6
Continuous
 62
     3
370
    13
100
AcDbLine
 10
984.377231068557
 20
-626.300539993026
 30
0.0
 11
951.9545725091187
 21
-627.4435263937332
 31
0.0
  0
LINE
  5
9B
330
1F
100
AcDbEntity
  8
0-1_ピット
  6
Continuous
 62
     2
370
    13
100
AcDbLine
 10
793.9545956035021
 20
-688.0177847341045
 30
0.0
 11
793.9545956035021
 21
-670.0142488190395
 31
0.0
  0
LINE
  5
9C
330
1F
100
AcDbEntity
  8
0-1_ピット
  6
Continuous
 62
     2
370
    13
100
AcDbLine
 10
793.9545956035023
 20
389.9858460328926
 30
0.0
 11
793.9545956035023
 21
401.9858113913176
 31
0.0
  0
LINE
  5
9D
330
1F
100
AcDbEntity
  8
0-0_通り芯
  6
JWW_CENTER1
 62
     3
370
    13
100
AcDbLine
 10
770.8286223402
 20
-140.0141704630954
 30
0.0
 11
1028.701745096745
 21
-140.0141704630954
 31
0.0
  0
LINE
  5
9E
330
1F
100
AcDbEntity
  8
0-0_通り芯
  6
Continuous
 62
     3
370
    13
100
AcDbLine
 10
981.6690022098153
 20
-595.0519215320355
 30
0.0
 11
992.4398102493002
 21
-605.8227295715204
 31
0.0
  0
LINE
  5
9F
330
1F
100
AcDbEntity
  8
0-1_ピット
  6
JWW_DASHED1
 62
     2
370
    13
100
AcDbLine
 10
965.9545939539033
 20
-591.9732752588093
 30
0.0
 11
965.9545939539033
 21
-602.0547778123881
 31
0.0
  0
LINE
  5
A0
330
1F
100
AcDbEntity
  8
0-1_ピット
  6
JWW_DASHED1
 62
     2
370
    13
100
AcDbLine
 10
965.9545939539033
 20
-602.0547778123881
 30
0.0
 11
989.6385440172479
 21
-603.021463339468
 31
0.0
  0
LINE
  5
A1
330
1F
100
AcDbEntity
  8
0-1_ピット
  6
Continuous
 62
     2
370
    13
100
AcDbLine
 10
996.199287194507
 20
-603.2891932275593
 30
0.0
 11
989.6385440172479
 21
-603.0214014795124
 31
0.0
  0
LINE
  5
A2
330
1F
100
AcDbEntity
  8
0-1_ピット
  6
Continuous
 62
     2
370
    13
100
AcDbLine
 10
965.9595427503563
 20
-602.0549633922553
 30
0.0
 11
965.9545939539033
 21
-602.0547778123881
 31
0.0
  0
LINE
  5
A3
330
1F
100
AcDbEntity
  8
0-1_ピット
  6
Continuous
 62
     2
370
    13
100
AcDbLine
 10
1013.954702827425
 20
-590.0141704630958
 30
0.0
 11
977.3969536720198
 21
-591.5062325935855
 31
0.0
  0
ARC
  5
A4
330
1F
100
AcDbEntity
  8
0-1_ピット
  6
Continuous
 62
     2
370
    13
100
AcDbCircle
 10
997.9545015763695
 20
436.1957277896499
 30
0.0
 40
1.999999904954756
100
AcDbArc
 50
96.34004211425781
 51
180.0
  0
ARC
  5
A5
330
1F
100
AcDbEntity
  8
0-1_ピット
  6
Continuous
 62
     2
370
    13
100
AcDbCircle
 10
983.954603851496
 20
420.5772024650082
 30
0.0
 40
11.99999918808808
100
AcDbArc
 50
271.9847564697266
 51
0.0000000000000127
  0
ARC
  5
A6
330
1F
100
AcDbEntity
  8
0-1_ピット
  6
Continuous
 62
     2
370
    13
100
AcDbCircle
 10
975.954503225969
 20
420.2999461437457
 30
0.0
 40
11.99999918808808
100
AcDbArc
 50
271.9847564697266
 51
0.0000000000000127
  0
ARC
  5
A7
330
1F
100
AcDbEntity
  8
0-1_ピット
  6
Continuous
 62
     2
370
    13
100
AcDbCircle
 10
990.9545527139328
 20
483.3119816167186
 30
0.0
 40
2.999999797022021
100
AcDbArc
 50
96.58244323730469
 51
180.0
  0
ARC
  5
A8
330
1F
100
AcDbEntity
  8
0-1_ピット
  6
Continuous
 62
     2
370
    13
100
AcDbCircle
 10
989.9547721105757
 20
371.38294900745
 30
0.0
 40
11.99999918808808
100
AcDbArc
 50
0.0
 51
88.07246398925781
  0
ARC
  5
A9
330
1F
100
AcDbEntity
  8
0-1_ピット
  6
Continuous
 62
     2
370
    13
100
AcDbCircle
 10
995.9546929298323
 20
329.2560717639947
 30
0.0
 40
5.999999594044042
100
AcDbArc
 50
272.3374633789062
 51
0.0000000000000254
  0
ARC
  5
AA
330
1F
100
AcDbEntity
  8
0-1_ピット
  6
Continuous
 62
     2
370
    13
100
AcDbCircle
 10
943.9545956035021
 20
376.9331479490666
 30
0.0
 40
7.999999619819023
100
AcDbArc
 50
0.0
 51
88.07258605957031
  0
ARC
  5
AB
330
1F
100
AcDbEntity
  8
0-1_ピット
  6
Continuous
 62
     2
370
    13
100
AcDbCircle
 10
954.9546566386583
 20
353.5458782330613
 30
0.0
 40
2.999999797022021
100
AcDbArc
 50
180.0
 51
267.8786163330078
  0
ARC
  5
AC
330
1F
100
AcDbEntity
  8
0-1_ピット
  6
Continuous
 62
     2
370
    13
100
AcDbCircle
 10
989.9547721105757
 20
337.2394702014947
 30
0.0
 40
11.99999918808808
100
AcDbArc
 50
0.0
 51
87.87905883789062
  0
ARC
  5
AD
330
1F
100
AcDbEntity
  8
0-1_ピット
  6
Continuous
 62
     2
370
    13
100
AcDbCircle
 10
997.9545015763695
 20
-716.2241305757962
 30
0.0
 40
1.999999904954756
100
AcDbArc
 50
180.0
 51
263.6599578857422
  0
ARC
  5
AE
330
1F
100
AcDbEntity
  8
0-1_ピット
  6
Continuous
 62
     2
370
    13
100
AcDbCircle
 10
983.954603851496
 20
-706.6089902279284
 30
0.0
 40
11.99999918808808
100
AcDbArc
 50
0.0
 51
88.01524353027345
  0
ARC
  5
AF
330
1F
100
AcDbEntity
  8
0-1_ピット
  6
Continuous
 62
     2
370
    13
100
AcDbCircle
 10
975.954503225969
 20
-706.3318576265774
 30
0.0
 40
11.99999918808808
100
AcDbArc
 50
0.0
 51
88.01524353027345
  0
ARC
  5
B0
330
1F
100
AcDbEntity
  8
0-1_ピット
  6
Continuous
 62
     2
370
    13
100
AcDbCircle
 10
990.9545527139328
 20
-763.3406318426881
 30
0.0
 40
2.999999797022021
100
AcDbArc
 50
180.0
 51
263.4175567626953
  0
ARC
  5
B1
330
1F
100
AcDbEntity
  8
0-1_ピット
  6
Continuous
 62
     2
370
    13
100
AcDbCircle
 10
989.9547721105757
 20
-651.4112899336399
 30
0.0
 40
11.99999918808808
100
AcDbArc
 50
271.9275360107422
 51
0.0000000000000127
  0
ARC
  5
B2
330
1F
100
AcDbEntity
  8
0-1_ピット
  6
Continuous
 62
     2
370
    13
100
AcDbCircle
 10
995.9546929298323
 20
-609.2844126901857
 30
0.0
 40
5.999999594044042
100
AcDbArc
 50
0.0
 51
87.66253662109375
  0
ARC
  5
B3
330
1F
100
AcDbEntity
  8
0-1_ピット
  6
Continuous
 62
     2
370
    13
100
AcDbCircle
 10
943.9545956035021
 20
-656.9614888752576
 30
0.0
 40
7.999999619819023
100
AcDbArc
 50
271.9274139404297
 51
0.0000000000000127
  0
ARC
  5
B4
330
1F
100
AcDbEntity
  8
0-1_ピット
  6
Continuous
 62
     2
370
    13
100
AcDbCircle
 10
954.9546566386583
 20
-633.5742810192085
 30
0.0
 40
2.999999797022021
100
AcDbArc
 50
92.12138366699219
 51
180.0
  0
ARC
  5
B5
330
1F
100
AcDbEntity
  8
0-1_ピット
  6
Continuous
 62
     2
370
    13
100
AcDbCircle
 10
989.9547721105757
 20
-617.2678111276857
 30
0.0
 40
11.99999918808808
100
AcDbArc
 50
272.1209411621094
 51
0.0000000000000127
  0
ARC
  5
B6
330
1F
100
AcDbEntity
  8
0-1_ピット
  6
JWW_DASHED1
 62
     2
370
    13
100
AcDbCircle
 10
1012.532913606564
 20
-573.3351180586399
 30
0.0
 40
29.99999845350111
100
AcDbArc
 50
190.0154571533203
 51
210.9638061523438
  0
ARC
  5
B7
330
1F
100
AcDbEntity
  8
0-1_ピット
  6
JWW_DASHED1
 62
     2
370
    13
100
AcDbCircle
 10
823.95457085952
 20
382.9730302996791
 30
0.0
 40
5.999999594044042
100
AcDbArc
 50
0.0
 51
88.0723876953125
  0
ARC
  5
B8
330
1F
100
AcDbEntity
  8
0-0_通り芯
  6
JWW_DASHED1
 62
     3
370
    13
100
AcDbCircle
 10
823.22214898452
 20
363.9614864071541
 30
0.0
 40
11.99999918808808
100
AcDbArc
 50
183.7359924316406
 51
267.9807739257812
  0
ARC
  5
B9
330
1F
100
AcDbEntity
  8
0-0_通り芯
  6
JWW_DASHED1
 62
     3
370
    13
100
AcDbCircle
 10
943.9545956035021
 20
341.6935107288384
 30
0.0
 40
5.999999594044042
100
AcDbArc
 50
0.0
 51
87.98077392578124
  0
ARC
  5
BA
330
1F
100
AcDbEntity
  8
0-0_通り芯
  6
Continuous
 62
     3
370
    13
100
AcDbCircle
 10
945.9545279699507
 20
-124.7744755069084
 30
0.0
 40
7.999999619819023
100
AcDbArc
 50
275.7101745605469
 51
0.0000000000000127
  0
ARC
  5
BB
330
1F
100
AcDbEntity
  8
0-0_通り芯
  6
Continuous
 62
     3
370
    13
100
AcDbCircle
 10
945.9545279699507
 20
45.22559047704362
 30
0.0
 40
7.999999619819023
100
AcDbArc
 50
275.7101745605469
 51
0.0000000000000127
  0
ARC
  5
BC
330
1F
100
AcDbEntity
  8
0-0_通り芯
  6
Continuous
 62
     3
370
    13
100
AcDbCircle
 10
945.9545279699507
 20
14.74607684475927
 30
0.0
 40
7.999999619819023
100
AcDbArc
 50
0.0
 51
84.28982543945312
  0
ARC
  5
BD
330
1F
100
AcDbEntity
  8
0-0_通り芯
  6
Continuous
 62
     3
370
    13
100
AcDbCircle
 10
827.9545593123281
 20
248.3879126502916
 30
0.0
 40
2.999999797022021
100
AcDbArc
 50
180.0
 51
270.0
  0
ARC
  5
BE
330
1F
100
AcDbEntity
  8
0-0_通り芯
  6
Continuous
 62
     3
370
    13
100
AcDbCircle
 10
827.9545593123281
 20
331.9859516072171
 30
0.0
 40
2.999999797022021
100
AcDbArc
 50
90.0
 51
180.0
  0
ARC
  5
BF
330
1F
100
AcDbEntity
  8
0-0_通り芯
  6
Continuous
 62
     3
370
    13
100
AcDbCircle
 10
930.9544784819865
 20
248.3879126502916
 30
0.0
 40
2.999999797022021
100
AcDbArc
 50
270.0
 51
0.0
  0
ARC
  5
C0
330
1F
100
AcDbEntity
  8
0-0_通り芯
  6
Continuous
 62
     3
370
    13
100
AcDbCircle
 10
930.9544784819865
 20
331.9859516072171
 30
0.0
 40
2.999999797022021
100
AcDbArc
 50
0.0
 51
90.0
  0
ARC
  5
C1
330
1F
100
AcDbEntity
  8
0-0_通り芯
  6
Continuous
 62
     3
370
    13
100
AcDbCircle
 10
803.9546285954783
 20
317.9860538823436
 30
0.0
 40
5.999999594044042
100
AcDbArc
 50
90.0
 51
180.0
  0
ARC
  5
C2
330
1F
100
AcDbEntity
  8
0-0_通り芯
  6
Continuous
 62
     3
370
    13
100
AcDbCircle
 10
803.9546285954783
 20
251.9856876714061
 30
0.0
 40
5.999999594044042
100
AcDbArc
 50
180.0
 51
270.0
  0
ARC
  5
C3
330
1F
100
AcDbEntity
  8
0-0_通り芯
  6
Continuous
 62
     3
370
    13
100
AcDbCircle
 10
921.954597253101
 20
211.8969722469978
 30
0.0
 40
11.99999918808808
100
AcDbArc
 50
0.0
 51
87.98072814941406
  0
ARC
  5
C4
330
1F
100
AcDbEntity
  8
0-0_通り芯
  6
Continuous
 62
     3
370
    13
100
AcDbCircle
 10
952.9544768323875
 20
341.8802040750165
 30
0.0
 40
2.999999797022021
100
AcDbArc
 50
123.6903228759766
 51
180.0
  0
ARC
  5
C5
330
1F
100
AcDbEntity
  8
0-0_通り芯
  6
Continuous
 62
     3
370
    13
100
AcDbCircle
 10
817.5041858431563
 20
380.8379957900718
 30
0.0
 40
5.999999594044042
100
AcDbArc
 50
204.264404296875
 51
267.7878112792969
  0
ARC
  5
C6
330
1F
100
AcDbEntity
  8
0-0_通り芯
  6
Continuous
 62
     3
370
    13
100
AcDbCircle
 10
823.2221489845198
 20
-643.9898891933003
 30
0.0
 40
11.99999918808808
100
AcDbArc
 50
92.01922607421875
 51
176.2640075683594
  0
ARC
  5
C7
330
1F
100
AcDbEntity
  8
0-0_通り芯
  6
Continuous
 62
     3
370
    13
100
AcDbCircle
 10
943.9545956035021
 20
-621.7219135149853
 30
0.0
 40
5.999999594044042
100
AcDbArc
 50
272.0192260742188
 51
0.0000000000000127
  0
ARC
  5
C8
330
1F
100
AcDbEntity
  8
0-0_通り芯
  6
Continuous
 62
     3
370
    13
100
AcDbCircle
 10
921.954597253101
 20
-600.4939274112055
 30
0.0
 40
11.99999918808808
100
AcDbArc
 50
272.0192718505859
 51
0.0
  0
ARC
  5
C9
330
1F
100
AcDbEntity
  8
0-0_通り芯
  6
Continuous
 62
     3
370
    13
100
AcDbCircle
 10
945.9545279699507
 20
-155.2539891391933
 30
0.0
 40
7.999999619819023
100
AcDbArc
 50
0.0
 51
84.28982543945312
  0
ARC
  5
CA
330
1F
100
AcDbEntity
  8
0-0_通り芯
  6
Continuous
 62
     3
370
    13
100
AcDbCircle
 10
945.9545279699507
 20
-325.2539314032344
 30
0.0
 40
7.999999619819023
100
AcDbArc
 50
0.0
 51
84.28982543945312
  0
ARC
  5
CB
330
1F
100
AcDbEntity
  8
0-0_通り芯
  6
Continuous
 62
     3
370
    13
100
AcDbCircle
 10
945.9545279699507
 20
-294.7745414908616
 30
0.0
 40
7.999999619819023
100
AcDbArc
 50
275.7101745605469
 51
0.0000000000000127
  0
ARC
  5
CC
330
1F
100
AcDbEntity
  8
0-0_通り芯
  6
Continuous
 62
     3
370
    13
100
AcDbCircle
 10
952.9544768323875
 20
-621.9085450012079
 30
0.0
 40
2.999999797022021
100
AcDbArc
 50
180.0
 51
236.3096771240234
  0
ARC
  5
CD
330
1F
100
AcDbEntity
  8
0-0_通り芯
  6
Continuous
 62
     3
370
    13
100
AcDbCircle
 10
817.5041858431563
 20
-660.8664604361741
 30
0.0
 40
5.999999594044042
100
AcDbArc
 50
92.21218872070312
 51
155.735595703125
  0
ARC
  5
CE
330
1F
100
AcDbEntity
  8
0-0_通り芯
  6
Continuous
 62
     3
370
    13
100
AcDbCircle
 10
960.4559862153054
 20
-616.2651849663683
 30
0.0
 40
29.99999845350111
100
AcDbArc
 50
45.00000000000005
 51
86.5037994384766
  0
ARC
  5
CF
330
1F
100
AcDbEntity
  8
0-0_通り芯
  6
Continuous
 62
     3
370
    13
100
AcDbCircle
 10
983.954603851496
 20
-614.3079978292801
 30
0.0
 40
11.99999918808808
100
AcDbArc
 50
272.0190277099609
 51
24.99067687988283
  0
ARC
  5
D0
330
1F
100
AcDbEntity
  8
0-0_通り芯
  6
Continuous
 62
     3
370
    13
100
AcDbCircle
 10
983.954603851496
 20
-614.3079978292801
 30
0.0
 40
11.99999918808808
100
AcDbArc
 50
24.99067687988284
 51
45.00016784667972
  0
LINE
  5
D1
330
1F
100
AcDbEntity
  8
0-2_本体（蓋）
  6
Continuous
 62
     7
370
    13
100
AcDbLine
 10
778.9545461155377
 20
384.9857058169937
 30
0.0
 11
650.9546351938741
 21
384.9857058169937
 31
0.0
  0
LINE
  5
D2
330
1F
100
AcDbEntity
  8
0-2_本体（蓋）
  6
Continuous
 62
     7
370
    13
100
AcDbLine
 10
653.9545956035022
 20
384.9857058169937
 30
0.0
 11
650.6916066624132
 21
360.1996587836322
 31
0.0
  0
LINE
  5
D3
330
1F
100
AcDbEntity
  8
0-2_本体（蓋）
  6
Continuous
 62
     7
370
    13
100
AcDbLine
 10
653.9545956035022
 20
384.9857058169937
 30
0.0
 11
657.2178319844147
 21
360.1996587836322
 31
0.0
  0
LINE
  5
D4
330
1F
100
AcDbEntity
  8
0-2_本体（蓋）
  6
Continuous
 62
     7
370
    13
100
AcDbLine
 10
778.9545461155377
 20
-665.0141704630958
 30
0.0
 11
650.9546351938741
 21
-665.0141704630958
 31
0.0
  0
LINE
  5
D5
330
1F
100
AcDbEntity
  8
0-2_本体（蓋）
  6
Continuous
 62
     7
370
    13
100
AcDbLine
 10
653.9545956035022
 20
-665.0141704630958
 30
0.0
 11
650.6916066624132
 21
-640.2281234297343
 31
0.0
  0
LINE
  5
D6
330
1F
100
AcDbEntity
  8
0-2_本体（蓋）
  6
Continuous
 62
     7
370
    13
100
AcDbLine
 10
653.9545956035022
 20
-665.0141704630958
 30
0.0
 11
657.2178319844147
 21
-640.2281234297343
 31
0.0
  0
LINE
  5
D7
330
1F
100
AcDbEntity
  8
0-2_本体（蓋）
  6
Continuous
 62
     7
370
    13
100
AcDbLine
 10
653.9545956035022
 20
-662.0144574932895
 30
0.0
 11
653.9545956035022
 21
384.9857058169937
 31
0.0
  0
LINE
  5
D8
330
1F
100
AcDbEntity
  8
0-2_本体（蓋）
  6
Continuous
 62
     7
370
    13
100
AcDbLine
 10
778.9545461155377
 20
401.9858113913176
 30
0.0
 11
550.9546351938739
 21
401.9858113913176
 31
0.0
  0
LINE
  5
D9
330
1F
100
AcDbEntity
  8
0-2_本体（蓋）
  6
Continuous
 62
     7
370
    13
100
AcDbLine
 10
553.9545956035022
 20
401.9858113913176
 30
0.0
 11
550.6913592225899
 21
377.1997643579562
 31
0.0
  0
LINE
  5
DA
330
1F
100
AcDbEntity
  8
0-2_本体（蓋）
  6
Continuous
 62
     7
370
    13
100
AcDbLine
 10
553.9545956035022
 20
401.9858113913176
 30
0.0
 11
557.2178319844145
 21
377.1997643579562
 31
0.0
  0
LINE
  5
DB
330
1F
100
AcDbEntity
  8
0-2_本体（蓋）
  6
Continuous
 62
     7
370
    13
100
AcDbLine
 10
553.9545956035022
 20
-688.0177847341045
 30
0.0
 11
553.9545956035022
 21
401.9858113913176
 31
0.0
  0
LINE
  5
DC
330
1F
100
AcDbEntity
  8
0-2_本体（蓋）
  6
Continuous
 62
     7
370
    13
100
AcDbLine
 10
778.9545461155377
 20
-688.0177847341045
 30
0.0
 11
550.9546351938739
 21
-688.0177847341045
 31
0.0
  0
LINE
  5
DD
330
1F
100
AcDbEntity
  8
0-2_本体（蓋）
  6
Continuous
 62
     7
370
    13
100
AcDbLine
 10
553.9545956035022
 20
-688.0177847341045
 30
0.0
 11
550.6913592225899
 21
-663.231737700743
 31
0.0
  0
LINE
  5
DE
330
1F
100
AcDbEntity
  8
0-2_本体（蓋）
  6
Continuous
 62
     7
370
    13
100
AcDbLine
 10
553.9545956035022
 20
-688.0177847341045
 30
0.0
 11
557.2178319844145
 21
-663.231737700743
 31
0.0
  0
LINE
  5
DF
330
1F
100
AcDbEntity
  8
0-2_本体（蓋）
  6
Continuous
 62
     7
370
    13
100
AcDbLine
 10
1153.954702827425
 20
309.9858295369046
 30
0.0
 11
1150.691466446513
 21
285.1995350637208
 31
0.0
  0
LINE
  5
E0
330
1F
100
AcDbEntity
  8
0-2_本体（蓋）
  6
Continuous
 62
     7
370
    13
100
AcDbLine
 10
1153.954702827425
 20
309.9858295369046
 30
0.0
 11
1157.217939208338
 21
285.1995350637208
 31
0.0
  0
LINE
  5
E1
330
1F
100
AcDbEntity
  8
0-2_本体（蓋）
  6
Continuous
 62
     7
370
    13
100
AcDbLine
 10
1157.956547078903
 20
309.9858295369046
 30
0.0
 11
1026.72927855061
 21
309.9858295369046
 31
0.0
  0
LINE
  5
E2
330
1F
100
AcDbEntity
  8
0-2_本体（蓋）
  6
Continuous
 62
     7
370
    13
100
AcDbLine
 10
1153.954702827425
 20
-590.0141704630958
 30
0.0
 11
1153.954702827425
 21
309.9858295369046
 31
0.0
  0
LINE
  5
E3
330
1F
100
AcDbEntity
  8
0-2_本体（蓋）
  6
Continuous
 62
     7
370
    13
100
AcDbLine
 10
1153.954702827425
 20
-590.0141704630958
 30
0.0
 11
1150.691466446513
 21
-565.2281234297343
 31
0.0
  0
LINE
  5
E4
330
1F
100
AcDbEntity
  8
0-2_本体（蓋）
  6
Continuous
 62
     7
370
    13
100
AcDbLine
 10
1153.954702827425
 20
-590.0141704630958
 30
0.0
 11
1157.217939208338
 21
-565.2281234297343
 31
0.0
  0
LINE
  5
E5
330
1F
100
AcDbEntity
  8
0-2_本体（蓋）
  6
Continuous
 62
     7
370
    13
100
AcDbLine
 10
1157.956547078903
 20
-590.0141704630958
 30
0.0
 11
1026.72927855061
 21
-590.0141704630958
 31
0.0
  0
LINE
  5
E6
330
1F
100
AcDbEntity
  8
0-2_本体（蓋）
  6
Continuous
 62
     7
370
    13
100
AcDbLine
 10
1028.95475231539
 20
439.985763552952
 30
0.0
 11
1256.954910676876
 21
439.985763552952
 31
0.0
  0
LINE
  5
E7
330
1F
100
AcDbEntity
  8
0-2_本体（蓋）
  6
Continuous
 62
     7
370
    13
100
AcDbLine
 10
1253.954702827425
 20
439.985763552952
 30
0.0
 11
1250.691713886336
 21
415.1997165195905
 31
0.0
  0
LINE
  5
E8
330
1F
100
AcDbEntity
  8
0-2_本体（蓋）
  6
Continuous
 62
     7
370
    13
100
AcDbLine
 10
1253.954702827425
 20
439.985763552952
 30
0.0
 11
1257.217939208337
 21
415.1997165195905
 31
0.0
  0
LINE
  5
E9
330
1F
100
AcDbEntity
  8
0-2_本体（蓋）
  6
Continuous
 62
     7
370
    13
100
AcDbLine
 10
1253.954702827425
 20
-720.0143519189655
 30
0.0
 11
1253.954702827425
 21
439.985763552952
 31
0.0
  0
LINE
  5
EA
330
1F
100
AcDbEntity
  8
0-2_本体（蓋）
  6
Continuous
 62
     7
370
    13
100
AcDbLine
 10
1028.95475231539
 20
-720.0143519189655
 30
0.0
 11
1256.954910676876
 21
-720.0143519189655
 31
0.0
  0
LINE
  5
EB
330
1F
100
AcDbEntity
  8
0-2_本体（蓋）
  6
Continuous
 62
     7
370
    13
100
AcDbLine
 10
1253.954702827425
 20
-720.0143519189655
 30
0.0
 11
1250.691713886336
 21
-695.2281811656931
 31
0.0
  0
LINE
  5
EC
330
1F
100
AcDbEntity
  8
0-2_本体（蓋）
  6
Continuous
 62
     7
370
    13
100
AcDbLine
 10
1253.954702827425
 20
-720.0143519189655
 30
0.0
 11
1257.217939208337
 21
-695.2281811656931
 31
0.0
  0
LINE
  5
ED
330
1F
100
AcDbEntity
  8
0-4_寸法
  6
Continuous
 62
     7
370
    13
100
AcDbLine
 10
912.6785084092047
 20
406.1000350303573
 30
0.0
 11
922.8077049885964
 21
428.9560514471646
 31
0.0
  0
LINE
  5
EE
330
1F
100
AcDbEntity
  8
0-4_寸法
  6
Continuous
 62
     7
370
    13
100
AcDbLine
 10
912.6785084092047
 20
406.1000350303573
 30
0.0
 11
928.3780702757583
 21
425.555609684601
 31
0.0
  0
LINE
  5
EF
330
1F
100
AcDbEntity
  8
0-1_ピット
  6
Continuous
 62
     2
370
    13
100
AcDbLine
 10
-1215.981088576209
 20
-373.6087452625043
 30
0.0
 11
-1215.981088576209
 21
93.58040433631345
 31
0.0
  0
LINE
  5
F0
330
1F
100
AcDbEntity
  8
0-1_ピット
  6
Continuous
 62
     2
370
    13
100
AcDbLine
 10
-1215.981088576209
 20
379.9856893210051
 30
0.0
 11
-1215.981088576209
 21
306.3909000737499
 31
0.0
  0
LINE
  5
F1
330
1F
100
AcDbEntity
  8
0-1_ピット
  6
Continuous
 62
     2
370
    13
100
AcDbLine
 10
-1165.981171056151
 20
379.9858130409166
 30
0.0
 11
-1165.981171056151
 21
-660.0142776870186
 31
0.0
  0
LINE
  5
F2
330
1F
100
AcDbEntity
  8
0-1_ピット
  6
Continuous
 62
     2
370
    13
100
AcDbLine
 10
-1215.981088576209
 20
-660.0140921071513
 30
0.0
 11
-1215.981088576209
 21
-586.4193647198522
 31
0.0
  0
LINE
  5
F3
330
1F
100
AcDbEntity
  8
0-1_ピット
  6
Continuous
 62
     2
370
    13
100
AcDbLine
 10
-55.98122054411473
 20
379.9856893210051
 30
0.0
 11
-55.98122054411473
 21
306.3909000737499
 31
0.0
  0
LINE
  5
F4
330
1F
100
AcDbEntity
  8
0-1_ピット
  6
Continuous
 62
     2
370
    13
100
AcDbLine
 10
-55.98122054411473
 20
-660.0140921071513
 30
0.0
 11
-55.98122054411473
 21
-586.4193647198524
 31
0.0
  0
LINE
  5
F5
330
1F
100
AcDbEntity
  8
0-0_通り芯
  6
JWW_CENTER1
 62
     3
370
    13
100
AcDbLine
 10
-1005.498382970213
 20
284.9857470569646
 30
0.0
 11
-1119.176938845424
 21
284.9857470569646
 31
0.0
  0
LINE
  5
F6
330
1F
100
AcDbEntity
  8
0-0_通り芯
  6
JWW_CENTER1
 62
     3
370
    13
100
AcDbLine
 10
-1060.981072080221
 20
227.0063901365671
 30
0.0
 11
-1060.981072080221
 21
344.6043928023187
 31
0.0
  0
LINE
  5
F7
330
1F
100
AcDbEntity
  8
0-0_通り芯
  6
Continuous
 62
     3
370
    13
100
AcDbLine
 10
-1160.981154560162
 20
370.9858080921208
 30
0.0
 11
-1160.981154560162
 21
-651.0142108782666
 31
0.0
  0
LINE
  5
F8
330
1F
100
AcDbEntity
  8
0-0_通り芯
  6
Continuous
 62
     3
370
    13
100
AcDbLine
 10
-1146.981256835289
 20
384.9857058169937
 30
0.0
 11
-124.9810522850353
 21
384.9857058169937
 31
0.0
  0
LINE
  5
F9
330
1F
100
AcDbEntity
  8
0-0_通り芯
  6
Continuous
 62
     3
370
    13
100
AcDbLine
 10
-1109.466410445931
 20
156.5003921952666
 30
0.0
 11
-932.4957172185236
 21
333.4712091425854
 31
0.0
  0
LINE
  5
FA
330
1F
100
AcDbEntity
  8
0-0_通り芯
  6
Continuous
 62
     3
370
    13
100
AcDbLine
 10
-901.3398268310658
 20
125.3445018078082
 30
0.0
 11
-975.981039088245
 21
199.9857140649874
 31
0.0
  0
LINE
  5
FB
330
1F
100
AcDbEntity
  8
0-0_通り芯
  6
Continuous
 62
     3
370
    13
100
AcDbLine
 10
-813.9811974497314
 20
125.3445018078082
 30
0.0
 11
-811.9811413633715
 21
199.9857140649874
 31
0.0
  0
LINE
  5
FC
330
1F
100
AcDbEntity
  8
0-0_通り芯
  6
Continuous
 62
     3
370
    13
100
AcDbLine
 10
-797.9812436384982
 20
125.3445018078082
 30
0.0
 11
-799.981299724858
 21
199.9857140649874
 31
0.0
  0
LINE
  5
FD
330
1F
100
AcDbEntity
  8
0-0_通り芯
  6
Continuous
 62
     3
370
    13
100
AcDbLine
 10
-813.9811974497314
 20
125.3445018078082
 30
0.0
 11
-901.3398268310658
 21
125.3445018078082
 31
0.0
  0
LINE
  5
FE
330
1F
100
AcDbEntity
  8
0-0_通り芯
  6
Continuous
 62
     3
370
    13
100
AcDbLine
 10
-643.9808840259559
 20
125.3445018078082
 30
0.0
 11
-641.9810753794189
 21
199.9857140649874
 31
0.0
  0
LINE
  5
FF
330
1F
100
AcDbEntity
  8
0-0_通り芯
  6
Continuous
 62
     3
370
    13
100
AcDbLine
 10
-643.9808840259559
 20
125.3445018078082
 30
0.0
 11
-797.9812436384982
 21
125.3445018078082
 31
0.0
  0
LINE
  5
100
330
1F
100
AcDbEntity
  8
0-0_通り芯
  6
Continuous
 62
     3
370
    13
100
AcDbLine
 10
-901.3398268310658
 20
37.98562498665206
 30
0.0
 11
-975.981039088245
 21
35.98581634011452
 31
0.0
  0
LINE
  5
101
330
1F
100
AcDbEntity
  8
0-0_通り芯
  6
Continuous
 62
     3
370
    13
100
AcDbLine
 10
-975.981039088245
 20
23.98597470160041
 30
0.0
 11
-901.3398268310658
 21
21.98591861524164
 31
0.0
  0
LINE
  5
102
330
1F
100
AcDbEntity
  8
0-0_通り芯
  6
Continuous
 62
     3
370
    13
100
AcDbLine
 10
-901.3398268310658
 20
37.98562498665206
 30
0.0
 11
-901.3398268310658
 21
125.3445018078082
 31
0.0
  0
LINE
  5
103
330
1F
100
AcDbEntity
  8
0-0_通り芯
  6
Continuous
 62
     3
370
    13
100
AcDbLine
 10
-901.3398268310658
 20
-132.0144409973017
 30
0.0
 11
-975.981039088245
 21
-134.0142496438386
 31
0.0
  0
LINE
  5
104
330
1F
100
AcDbEntity
  8
0-0_通り芯
  6
Continuous
 62
     3
370
    13
100
AcDbLine
 10
-901.3398268310658
 20
-132.0144409973017
 30
0.0
 11
-901.3398268310658
 21
21.98591861524164
 31
0.0
  0
LINE
  5
105
330
1F
100
AcDbEntity
  8
0-0_通り芯
  6
Continuous
 62
     3
370
    13
100
AcDbLine
 10
-821.9809269155252
 20
37.98562498665206
 30
0.0
 11
-901.3398268310658
 21
37.98562498665206
 31
0.0
  0
LINE
  5
106
330
1F
100
AcDbEntity
  8
0-0_通り芯
  6
Continuous
 62
     3
370
    13
100
AcDbLine
 10
-813.9811974497314
 20
45.98572561217907
 30
0.0
 11
-813.9811974497314
 21
125.3445018078082
 31
0.0
  0
LINE
  5
107
330
1F
100
AcDbEntity
  8
0-0_通り芯
  6
Continuous
 62
     3
370
    13
100
AcDbLine
 10
-797.9812436384982
 20
45.98572561217907
 30
0.0
 11
-797.9812436384982
 21
125.3445018078082
 31
0.0
  0
LINE
  5
108
330
1F
100
AcDbEntity
  8
0-0_通り芯
  6
Continuous
 62
     3
370
    13
100
AcDbLine
 10
-821.9809269155252
 20
21.98591861524164
 30
0.0
 11
-901.3398268310658
 21
21.98591861524164
 31
0.0
  0
LINE
  5
109
330
1F
100
AcDbEntity
  8
0-0_通り芯
  6
Continuous
 62
     3
370
    13
100
AcDbLine
 10
-799.981299724858
 20
45.98572561217907
 30
0.0
 11
-799.981299724858
 21
199.9857140649874
 31
0.0
  0
LINE
  5
10A
330
1F
100
AcDbEntity
  8
0-0_通り芯
  6
Continuous
 62
     3
370
    13
100
AcDbLine
 10
-821.9809269155252
 20
23.98597470160041
 30
0.0
 11
-975.981039088245
 21
23.98597470160041
 31
0.0
  0
LINE
  5
10B
330
1F
100
AcDbEntity
  8
0-0_通り芯
  6
Continuous
 62
     3
370
    13
100
AcDbLine
 10
-821.9809269155252
 20
35.98581634011452
 30
0.0
 11
-975.981039088245
 21
35.98581634011452
 31
0.0
  0
LINE
  5
10C
330
1F
100
AcDbEntity
  8
0-0_通り芯
  6
Continuous
 62
     3
370
    13
100
AcDbLine
 10
-811.9811413633715
 20
45.98572561217907
 30
0.0
 11
-811.9811413633715
 21
199.9857140649874
 31
0.0
  0
LINE
  5
10D
330
1F
100
AcDbEntity
  8
0-0_通り芯
  6
Continuous
 62
     3
370
    13
100
AcDbLine
 10
-651.9808609315726
 20
23.98597470160041
 30
0.0
 11
-789.9812667328815
 21
23.98597470160041
 31
0.0
  0
LINE
  5
10E
330
1F
100
AcDbEntity
  8
0-0_通り芯
  6
Continuous
 62
     3
370
    13
100
AcDbLine
 10
-651.9808609315726
 20
35.98581634011452
 30
0.0
 11
-789.9812667328815
 21
35.98581634011452
 31
0.0
  0
LINE
  5
10F
330
1F
100
AcDbEntity
  8
0-0_通り芯
  6
Continuous
 62
     3
370
    13
100
AcDbLine
 10
-641.9810753794189
 20
45.98572561217907
 30
0.0
 11
-641.9810753794189
 21
199.9857140649874
 31
0.0
  0
LINE
  5
110
330
1F
100
AcDbEntity
  8
0-0_通り芯
  6
Continuous
 62
     3
370
    13
100
AcDbLine
 10
-651.9808609315726
 20
37.98562498665206
 30
0.0
 11
-789.9812667328815
 21
37.98562498665206
 31
0.0
  0
LINE
  5
111
330
1F
100
AcDbEntity
  8
0-0_通り芯
  6
Continuous
 62
     3
370
    13
100
AcDbLine
 10
-643.9808840259559
 20
45.98572561217907
 30
0.0
 11
-643.9808840259559
 21
125.3445018078082
 31
0.0
  0
LINE
  5
112
330
1F
100
AcDbEntity
  8
0-0_通り芯
  6
Continuous
 62
     3
370
    13
100
AcDbLine
 10
-651.9808609315726
 20
21.98591861524164
 30
0.0
 11
-789.9812667328815
 21
21.98591861524164
 31
0.0
  0
LINE
  5
113
330
1F
100
AcDbEntity
  8
0-0_通り芯
  6
Continuous
 62
     3
370
    13
100
AcDbLine
 10
-643.9808840259559
 20
-124.014340371773
 30
0.0
 11
-643.9808840259559
 21
13.98594170962497
 31
0.0
  0
LINE
  5
114
330
1F
100
AcDbEntity
  8
0-0_通り芯
  6
Continuous
 62
     3
370
    13
100
AcDbLine
 10
-641.9810753794189
 20
-124.014340371773
 30
0.0
 11
-641.9810753794189
 21
13.98594170962497
 31
0.0
  0
LINE
  5
115
330
1F
100
AcDbEntity
  8
0-0_通り芯
  6
Continuous
 62
     3
370
    13
100
AcDbLine
 10
-789.9812667328815
 20
-134.0142496438386
 30
0.0
 11
-651.9808609315726
 21
-134.0142496438386
 31
0.0
  0
LINE
  5
116
330
1F
100
AcDbEntity
  8
0-0_通り芯
  6
Continuous
 62
     3
370
    13
100
AcDbLine
 10
-799.981299724858
 20
-124.014340371773
 30
0.0
 11
-799.981299724858
 21
13.98594170962497
 31
0.0
  0
LINE
  5
117
330
1F
100
AcDbEntity
  8
0-0_通り芯
  6
Continuous
 62
     3
370
    13
100
AcDbLine
 10
-811.9811413633715
 20
-124.014340371773
 30
0.0
 11
-811.9811413633715
 21
13.98594170962497
 31
0.0
  0
LINE
  5
118
330
1F
100
AcDbEntity
  8
0-0_通り芯
  6
Continuous
 62
     3
370
    13
100
AcDbLine
 10
-821.9809269155252
 20
-134.0142496438386
 30
0.0
 11
-975.981039088245
 21
-134.0142496438386
 31
0.0
  0
LINE
  5
119
330
1F
100
AcDbEntity
  8
0-0_通り芯
  6
Continuous
 62
     3
370
    13
100
AcDbLine
 10
-821.9809269155252
 20
-132.0144409973017
 30
0.0
 11
-901.3398268310658
 21
-132.0144409973017
 31
0.0
  0
LINE
  5
11A
330
1F
100
AcDbEntity
  8
0-0_通り芯
  6
Continuous
 62
     3
370
    13
100
AcDbLine
 10
-813.9811974497314
 20
-124.014340371773
 30
0.0
 11
-813.9811974497314
 21
13.98594170962497
 31
0.0
  0
LINE
  5
11B
330
1F
100
AcDbEntity
  8
0-0_通り芯
  6
Continuous
 62
     3
370
    13
100
AcDbLine
 10
-789.9812667328815
 20
-132.0144409973017
 30
0.0
 11
-651.9808609315726
 21
-132.0144409973017
 31
0.0
  0
LINE
  5
11C
330
1F
100
AcDbEntity
  8
0-0_通り芯
  6
Continuous
 62
     3
370
    13
100
AcDbLine
 10
-797.9812436384982
 20
-124.014340371773
 30
0.0
 11
-797.9812436384982
 21
13.98594170962497
 31
0.0
  0
LINE
  5
11D
330
1F
100
AcDbEntity
  8
0-0_通り芯
  6
JWW_CENTER1
 62
     3
370
    13
100
AcDbLine
 10
-266.4638024302001
 20
284.9857470569646
 30
0.0
 11
-152.7853702749001
 21
284.9857470569646
 31
0.0
  0
LINE
  5
11E
330
1F
100
AcDbEntity
  8
0-0_通り芯
  6
JWW_CENTER1
 62
     3
370
    13
100
AcDbLine
 10
-210.9811133201916
 20
227.0063901365671
 30
0.0
 11
-210.9811133201916
 21
344.6043928023187
 31
0.0
  0
LINE
  5
11F
330
1F
100
AcDbEntity
  8
0-0_通り芯
  6
Continuous
 62
     3
370
    13
100
AcDbLine
 10
-110.9812782800732
 20
370.9858080921208
 30
0.0
 11
-110.9812782800732
 21
-651.0142108782666
 31
0.0
  0
LINE
  5
120
330
1F
100
AcDbEntity
  8
0-0_通り芯
  6
Continuous
 62
     3
370
    13
100
AcDbLine
 10
-162.4957749544822
 20
156.5003921952666
 30
0.0
 11
-339.4664681818891
 21
333.4712091425854
 31
0.0
  0
LINE
  5
121
330
1F
100
AcDbEntity
  8
0-0_通り芯
  6
Continuous
 62
     3
370
    13
100
AcDbLine
 10
-370.6222348494357
 20
125.3445018078082
 30
0.0
 11
-295.9812700320793
 21
199.9857140649874
 31
0.0
  0
LINE
  5
122
330
1F
100
AcDbEntity
  8
0-0_通り芯
  6
Continuous
 62
     3
370
    13
100
AcDbLine
 10
-457.9812353905041
 20
125.3445018078082
 30
0.0
 11
-459.9811677569523
 21
199.9857140649874
 31
0.0
  0
LINE
  5
123
330
1F
100
AcDbEntity
  8
0-0_通り芯
  6
Continuous
 62
     3
370
    13
100
AcDbLine
 10
-473.9808180420033
 20
125.3445018078082
 30
0.0
 11
-471.9810093954659
 21
199.9857140649874
 31
0.0
  0
LINE
  5
124
330
1F
100
AcDbEntity
  8
0-0_通り芯
  6
Continuous
 62
     3
370
    13
100
AcDbLine
 10
-457.9812353905041
 20
125.3445018078082
 30
0.0
 11
-370.6222348494357
 21
125.3445018078082
 31
0.0
  0
LINE
  5
125
330
1F
100
AcDbEntity
  8
0-0_通り芯
  6
Continuous
 62
     3
370
    13
100
AcDbLine
 10
-627.9811776545455
 20
125.3445018078082
 30
0.0
 11
-629.9812337409054
 21
199.9857140649874
 31
0.0
  0
LINE
  5
126
330
1F
100
AcDbEntity
  8
0-0_通り芯
  6
Continuous
 62
     3
370
    13
100
AcDbLine
 10
-627.9811776545455
 20
125.3445018078082
 30
0.0
 11
-473.9808180420033
 21
125.3445018078082
 31
0.0
  0
LINE
  5
127
330
1F
100
AcDbEntity
  8
0-0_通り芯
  6
Continuous
 62
     3
370
    13
100
AcDbLine
 10
-370.6222348494357
 20
37.98562498665206
 30
0.0
 11
-295.9812700320793
 21
35.98581634011452
 31
0.0
  0
LINE
  5
128
330
1F
100
AcDbEntity
  8
0-0_通り芯
  6
Continuous
 62
     3
370
    13
100
AcDbLine
 10
-295.9812700320793
 20
23.98597470160041
 30
0.0
 11
-370.6222348494357
 21
21.98591861524164
 31
0.0
  0
LINE
  5
129
330
1F
100
AcDbEntity
  8
0-0_通り芯
  6
Continuous
 62
     3
370
    13
100
AcDbLine
 10
-370.6222348494357
 20
37.98562498665206
 30
0.0
 11
-370.6222348494357
 21
125.3445018078082
 31
0.0
  0
LINE
  5
12A
330
1F
100
AcDbEntity
  8
0-0_通り芯
  6
Continuous
 62
     3
370
    13
100
AcDbLine
 10
-370.6222348494357
 20
-132.0144409973017
 30
0.0
 11
-295.9812700320793
 21
-134.0142496438386
 31
0.0
  0
LINE
  5
12B
330
1F
100
AcDbEntity
  8
0-0_通り芯
  6
Continuous
 62
     3
370
    13
100
AcDbLine
 10
-370.6222348494357
 20
-132.0144409973017
 30
0.0
 11
-370.6222348494357
 21
21.98591861524164
 31
0.0
  0
LINE
  5
12C
330
1F
100
AcDbEntity
  8
0-0_通り芯
  6
Continuous
 62
     3
370
    13
100
AcDbLine
 10
-449.9811347649762
 20
37.98562498665206
 30
0.0
 11
-370.6222348494357
 21
37.98562498665206
 31
0.0
  0
LINE
  5
12D
330
1F
100
AcDbEntity
  8
0-0_通り芯
  6
Continuous
 62
     3
370
    13
100
AcDbLine
 10
-457.9812353905041
 20
45.98572561217907
 30
0.0
 11
-457.9812353905041
 21
125.3445018078082
 31
0.0
  0
LINE
  5
12E
330
1F
100
AcDbEntity
  8
0-0_通り芯
  6
Continuous
 62
     3
370
    13
100
AcDbLine
 10
-473.9808180420033
 20
45.98572561217907
 30
0.0
 11
-473.9808180420033
 21
125.3445018078082
 31
0.0
  0
LINE
  5
12F
330
1F
100
AcDbEntity
  8
0-0_通り芯
  6
Continuous
 62
     3
370
    13
100
AcDbLine
 10
-449.9811347649762
 20
21.98591861524164
 30
0.0
 11
-370.6222348494357
 21
21.98591861524164
 31
0.0
  0
LINE
  5
130
330
1F
100
AcDbEntity
  8
0-0_通り芯
  6
Continuous
 62
     3
370
    13
100
AcDbLine
 10
-471.9810093954659
 20
45.98572561217907
 30
0.0
 11
-471.9810093954659
 21
199.9857140649874
 31
0.0
  0
LINE
  5
131
330
1F
100
AcDbEntity
  8
0-0_通り芯
  6
Continuous
 62
     3
370
    13
100
AcDbLine
 10
-449.9811347649762
 20
23.98597470160041
 30
0.0
 11
-295.9812700320793
 21
23.98597470160041
 31
0.0
  0
LINE
  5
132
330
1F
100
AcDbEntity
  8
0-0_通り芯
  6
Continuous
 62
     3
370
    13
100
AcDbLine
 10
-449.9811347649762
 20
35.98581634011452
 30
0.0
 11
-295.9812700320793
 21
35.98581634011452
 31
0.0
  0
LINE
  5
133
330
1F
100
AcDbEntity
  8
0-0_通り芯
  6
Continuous
 62
     3
370
    13
100
AcDbLine
 10
-459.9811677569523
 20
45.98572561217907
 30
0.0
 11
-459.9811677569523
 21
199.9857140649874
 31
0.0
  0
LINE
  5
134
330
1F
100
AcDbEntity
  8
0-0_通り芯
  6
Continuous
 62
     3
370
    13
100
AcDbLine
 10
-619.981200748929
 20
23.98597470160041
 30
0.0
 11
-481.9810423874426
 21
23.98597470160041
 31
0.0
  0
LINE
  5
135
330
1F
100
AcDbEntity
  8
0-0_通り芯
  6
Continuous
 62
     3
370
    13
100
AcDbLine
 10
-619.981200748929
 20
35.98581634011452
 30
0.0
 11
-481.9810423874426
 21
35.98581634011452
 31
0.0
  0
LINE
  5
136
330
1F
100
AcDbEntity
  8
0-0_通り芯
  6
Continuous
 62
     3
370
    13
100
AcDbLine
 10
-629.9812337409054
 20
45.98572561217907
 30
0.0
 11
-629.9812337409054
 21
199.9857140649874
 31
0.0
  0
LINE
  5
137
330
1F
100
AcDbEntity
  8
0-0_通り芯
  6
Continuous
 62
     3
370
    13
100
AcDbLine
 10
-619.981200748929
 20
37.98562498665206
 30
0.0
 11
-481.9810423874426
 21
37.98562498665206
 31
0.0
  0
LINE
  5
138
330
1F
100
AcDbEntity
  8
0-0_通り芯
  6
Continuous
 62
     3
370
    13
100
AcDbLine
 10
-627.9811776545455
 20
45.98572561217907
 30
0.0
 11
-627.9811776545455
 21
125.3445018078082
 31
0.0
  0
LINE
  5
139
330
1F
100
AcDbEntity
  8
0-0_通り芯
  6
Continuous
 62
     3
370
    13
100
AcDbLine
 10
-619.981200748929
 20
21.98591861524164
 30
0.0
 11
-481.9810423874426
 21
21.98591861524164
 31
0.0
  0
LINE
  5
13A
330
1F
100
AcDbEntity
  8
0-0_通り芯
  6
Continuous
 62
     3
370
    13
100
AcDbLine
 10
-627.9811776545455
 20
-124.014340371773
 30
0.0
 11
-627.9811776545455
 21
13.98594170962497
 31
0.0
  0
LINE
  5
13B
330
1F
100
AcDbEntity
  8
0-0_通り芯
  6
Continuous
 62
     3
370
    13
100
AcDbLine
 10
-629.9812337409054
 20
-124.014340371773
 30
0.0
 11
-629.9812337409054
 21
13.98594170962497
 31
0.0
  0
LINE
  5
13C
330
1F
100
AcDbEntity
  8
0-0_通り芯
  6
Continuous
 62
     3
370
    13
100
AcDbLine
 10
-481.9810423874426
 20
-134.0142496438386
 30
0.0
 11
-619.981200748929
 21
-134.0142496438386
 31
0.0
  0
LINE
  5
13D
330
1F
100
AcDbEntity
  8
0-0_通り芯
  6
Continuous
 62
     3
370
    13
100
AcDbLine
 10
-471.9810093954659
 20
-124.014340371773
 30
0.0
 11
-471.9810093954659
 21
13.98594170962497
 31
0.0
  0
LINE
  5
13E
330
1F
100
AcDbEntity
  8
0-0_通り芯
  6
Continuous
 62
     3
370
    13
100
AcDbLine
 10
-459.9811677569523
 20
-124.014340371773
 30
0.0
 11
-459.9811677569523
 21
13.98594170962497
 31
0.0
  0
LINE
  5
13F
330
1F
100
AcDbEntity
  8
0-0_通り芯
  6
Continuous
 62
     3
370
    13
100
AcDbLine
 10
-449.9811347649762
 20
-134.0142496438386
 30
0.0
 11
-295.9812700320793
 21
-134.0142496438386
 31
0.0
  0
LINE
  5
140
330
1F
100
AcDbEntity
  8
0-0_通り芯
  6
Continuous
 62
     3
370
    13
100
AcDbLine
 10
-449.9811347649762
 20
-132.0144409973017
 30
0.0
 11
-370.6222348494357
 21
-132.0144409973017
 31
0.0
  0
LINE
  5
141
330
1F
100
AcDbEntity
  8
0-0_通り芯
  6
Continuous
 62
     3
370
    13
100
AcDbLine
 10
-457.9812353905041
 20
-124.014340371773
 30
0.0
 11
-457.9812353905041
 21
13.98594170962497
 31
0.0
  0
LINE
  5
142
330
1F
100
AcDbEntity
  8
0-0_通り芯
  6
Continuous
 62
     3
370
    13
100
AcDbLine
 10
-481.9810423874426
 20
-132.0144409973017
 30
0.0
 11
-619.981200748929
 21
-132.0144409973017
 31
0.0
  0
LINE
  5
143
330
1F
100
AcDbEntity
  8
0-0_通り芯
  6
Continuous
 62
     3
370
    13
100
AcDbLine
 10
-473.9808180420033
 20
-124.014340371773
 30
0.0
 11
-473.9808180420033
 21
13.98594170962497
 31
0.0
  0
LINE
  5
144
330
1F
100
AcDbEntity
  8
0-0_通り芯
  6
Continuous
 62
     3
370
    13
100
AcDbLine
 10
-901.3398268310658
 20
-405.373090173822
 30
0.0
 11
-975.981039088245
 21
-480.0140549911782
 31
0.0
  0
LINE
  5
145
330
1F
100
AcDbEntity
  8
0-0_通り芯
  6
Continuous
 62
     3
370
    13
100
AcDbLine
 10
-813.9811974497314
 20
-405.373090173822
 30
0.0
 11
-811.9811413633715
 21
-480.0140549911782
 31
0.0
  0
LINE
  5
146
330
1F
100
AcDbEntity
  8
0-0_通り芯
  6
Continuous
 62
     3
370
    13
100
AcDbLine
 10
-797.9812436384982
 20
-405.373090173822
 30
0.0
 11
-799.981299724858
 21
-480.0140549911782
 31
0.0
  0
LINE
  5
147
330
1F
100
AcDbEntity
  8
0-0_通り芯
  6
Continuous
 62
     3
370
    13
100
AcDbLine
 10
-813.9811974497314
 20
-405.373090173822
 30
0.0
 11
-901.3398268310658
 21
-405.373090173822
 31
0.0
  0
LINE
  5
148
330
1F
100
AcDbEntity
  8
0-0_通り芯
  6
Continuous
 62
     3
370
    13
100
AcDbLine
 10
-643.9808840259559
 20
-405.373090173822
 30
0.0
 11
-641.9810753794189
 21
-480.0140549911782
 31
0.0
  0
LINE
  5
149
330
1F
100
AcDbEntity
  8
0-0_通り芯
  6
Continuous
 62
     3
370
    13
100
AcDbLine
 10
-643.9808840259559
 20
-405.373090173822
 30
0.0
 11
-797.9812436384982
 21
-405.373090173822
 31
0.0
  0
LINE
  5
14A
330
1F
100
AcDbEntity
  8
0-0_通り芯
  6
Continuous
 62
     3
370
    13
100
AcDbLine
 10
-901.3398268310658
 20
-318.0140896327532
 30
0.0
 11
-975.981039088245
 21
-316.0141572663053
 31
0.0
  0
LINE
  5
14B
330
1F
100
AcDbEntity
  8
0-0_通り芯
  6
Continuous
 62
     3
370
    13
100
AcDbLine
 10
-975.981039088245
 20
-304.0143156277918
 30
0.0
 11
-901.3398268310658
 21
-302.0145069812543
 31
0.0
  0
LINE
  5
14C
330
1F
100
AcDbEntity
  8
0-0_通り芯
  6
Continuous
 62
     3
370
    13
100
AcDbLine
 10
-901.3398268310658
 20
-318.0140896327532
 30
0.0
 11
-901.3398268310658
 21
-405.373090173822
 31
0.0
  0
LINE
  5
14D
330
1F
100
AcDbEntity
  8
0-0_通り芯
  6
Continuous
 62
     3
370
    13
100
AcDbLine
 10
-901.3398268310658
 20
-148.0140236488
 30
0.0
 11
-975.981039088245
 21
-146.0140912823522
 31
0.0
  0
LINE
  5
14E
330
1F
100
AcDbEntity
  8
0-0_通り芯
  6
Continuous
 62
     3
370
    13
100
AcDbLine
 10
-901.3398268310658
 20
-148.0140236488
 30
0.0
 11
-901.3398268310658
 21
-302.0145069812543
 31
0.0
  0
LINE
  5
14F
330
1F
100
AcDbEntity
  8
0-0_通り芯
  6
Continuous
 62
     3
370
    13
100
AcDbLine
 10
-821.9809269155252
 20
-318.0140896327532
 30
0.0
 11
-901.3398268310658
 21
-318.0140896327532
 31
0.0
  0
LINE
  5
150
330
1F
100
AcDbEntity
  8
0-0_通り芯
  6
Continuous
 62
     3
370
    13
100
AcDbLine
 10
-813.9811974497314
 20
-326.0140665383699
 30
0.0
 11
-813.9811974497314
 21
-405.373090173822
 31
0.0
  0
LINE
  5
151
330
1F
100
AcDbEntity
  8
0-0_通り芯
  6
Continuous
 62
     3
370
    13
100
AcDbLine
 10
-797.9812436384982
 20
-326.0140665383699
 30
0.0
 11
-797.9812436384982
 21
-405.373090173822
 31
0.0
  0
LINE
  5
152
330
1F
100
AcDbEntity
  8
0-0_通り芯
  6
Continuous
 62
     3
370
    13
100
AcDbLine
 10
-821.9809269155252
 20
-302.0145069812543
 30
0.0
 11
-901.3398268310658
 21
-302.0145069812543
 31
0.0
  0
LINE
  5
153
330
1F
100
AcDbEntity
  8
0-0_通り芯
  6
Continuous
 62
     3
370
    13
100
AcDbLine
 10
-799.981299724858
 20
-326.0140665383699
 30
0.0
 11
-799.981299724858
 21
-480.0140549911782
 31
0.0
  0
LINE
  5
154
330
1F
100
AcDbEntity
  8
0-0_通り芯
  6
Continuous
 62
     3
370
    13
100
AcDbLine
 10
-821.9809269155252
 20
-304.0143156277918
 30
0.0
 11
-975.981039088245
 21
-304.0143156277918
 31
0.0
  0
LINE
  5
155
330
1F
100
AcDbEntity
  8
0-0_通り芯
  6
Continuous
 62
     3
370
    13
100
AcDbLine
 10
-821.9809269155252
 20
-316.0141572663053
 30
0.0
 11
-975.981039088245
 21
-316.0141572663053
 31
0.0
  0
LINE
  5
156
330
1F
100
AcDbEntity
  8
0-0_通り芯
  6
Continuous
 62
     3
370
    13
100
AcDbLine
 10
-811.9811413633715
 20
-326.0140665383699
 30
0.0
 11
-811.9811413633715
 21
-480.0140549911782
 31
0.0
  0
LINE
  5
157
330
1F
100
AcDbEntity
  8
0-0_通り芯
  6
Continuous
 62
     3
370
    13
100
AcDbLine
 10
-651.9808609315726
 20
-304.0143156277918
 30
0.0
 11
-789.9812667328815
 21
-304.0143156277918
 31
0.0
  0
LINE
  5
158
330
1F
100
AcDbEntity
  8
0-0_通り芯
  6
Continuous
 62
     3
370
    13
100
AcDbLine
 10
-651.9808609315726
 20
-316.0141572663053
 30
0.0
 11
-789.9812667328815
 21
-316.0141572663053
 31
0.0
  0
LINE
  5
159
330
1F
100
AcDbEntity
  8
0-0_通り芯
  6
Continuous
 62
     3
370
    13
100
AcDbLine
 10
-641.9810753794189
 20
-326.0140665383699
 30
0.0
 11
-641.9810753794189
 21
-480.0140549911782
 31
0.0
  0
LINE
  5
15A
330
1F
100
AcDbEntity
  8
0-0_通り芯
  6
Continuous
 62
     3
370
    13
100
AcDbLine
 10
-651.9808609315726
 20
-318.0140896327532
 30
0.0
 11
-789.9812667328815
 21
-318.0140896327532
 31
0.0
  0
LINE
  5
15B
330
1F
100
AcDbEntity
  8
0-0_通り芯
  6
Continuous
 62
     3
370
    13
100
AcDbLine
 10
-643.9808840259559
 20
-326.0140665383699
 30
0.0
 11
-643.9808840259559
 21
-405.373090173822
 31
0.0
  0
LINE
  5
15C
330
1F
100
AcDbEntity
  8
0-0_通り芯
  6
Continuous
 62
     3
370
    13
100
AcDbLine
 10
-651.9808609315726
 20
-302.0145069812543
 30
0.0
 11
-789.9812667328815
 21
-302.0145069812543
 31
0.0
  0
LINE
  5
15D
330
1F
100
AcDbEntity
  8
0-0_通り芯
  6
Continuous
 62
     3
370
    13
100
AcDbLine
 10
-643.9808840259559
 20
-156.0141242743282
 30
0.0
 11
-643.9808840259559
 21
-294.0144063557261
 31
0.0
  0
LINE
  5
15E
330
1F
100
AcDbEntity
  8
0-0_通り芯
  6
Continuous
 62
     3
370
    13
100
AcDbLine
 10
-641.9810753794189
 20
-156.0141242743282
 30
0.0
 11
-641.9810753794189
 21
-294.0144063557261
 31
0.0
  0
LINE
  5
15F
330
1F
100
AcDbEntity
  8
0-0_通り芯
  6
Continuous
 62
     3
370
    13
100
AcDbLine
 10
-789.9812667328815
 20
-146.0140912823522
 30
0.0
 11
-651.9808609315726
 21
-146.0140912823522
 31
0.0
  0
LINE
  5
160
330
1F
100
AcDbEntity
  8
0-0_通り芯
  6
Continuous
 62
     3
370
    13
100
AcDbLine
 10
-799.981299724858
 20
-156.0141242743282
 30
0.0
 11
-799.981299724858
 21
-294.0144063557261
 31
0.0
  0
LINE
  5
161
330
1F
100
AcDbEntity
  8
0-0_通り芯
  6
Continuous
 62
     3
370
    13
100
AcDbLine
 10
-811.9811413633715
 20
-156.0141242743282
 30
0.0
 11
-811.9811413633715
 21
-294.0144063557261
 31
0.0
  0
LINE
  5
162
330
1F
100
AcDbEntity
  8
0-0_通り芯
  6
Continuous
 62
     3
370
    13
100
AcDbLine
 10
-821.9809269155252
 20
-146.0140912823522
 30
0.0
 11
-975.981039088245
 21
-146.0140912823522
 31
0.0
  0
LINE
  5
163
330
1F
100
AcDbEntity
  8
0-0_通り芯
  6
Continuous
 62
     3
370
    13
100
AcDbLine
 10
-821.9809269155252
 20
-148.0140236488
 30
0.0
 11
-901.3398268310658
 21
-148.0140236488
 31
0.0
  0
LINE
  5
164
330
1F
100
AcDbEntity
  8
0-0_通り芯
  6
Continuous
 62
     3
370
    13
100
AcDbLine
 10
-813.9811974497314
 20
-156.0141242743282
 30
0.0
 11
-813.9811974497314
 21
-294.0144063557261
 31
0.0
  0
LINE
  5
165
330
1F
100
AcDbEntity
  8
0-0_通り芯
  6
Continuous
 62
     3
370
    13
100
AcDbLine
 10
-789.9812667328815
 20
-148.0140236488
 30
0.0
 11
-651.9808609315726
 21
-148.0140236488
 31
0.0
  0
LINE
  5
166
330
1F
100
AcDbEntity
  8
0-0_通り芯
  6
Continuous
 62
     3
370
    13
100
AcDbLine
 10
-797.9812436384982
 20
-156.0141242743282
 30
0.0
 11
-797.9812436384982
 21
-294.0144063557261
 31
0.0
  0
LINE
  5
167
330
1F
100
AcDbEntity
  8
0-0_通り芯
  6
Continuous
 62
     3
370
    13
100
AcDbLine
 10
-370.6222348494357
 20
-405.373090173822
 30
0.0
 11
-295.9812700320793
 21
-480.0140549911782
 31
0.0
  0
LINE
  5
168
330
1F
100
AcDbEntity
  8
0-0_通り芯
  6
Continuous
 62
     3
370
    13
100
AcDbLine
 10
-457.9812353905041
 20
-405.373090173822
 30
0.0
 11
-459.9811677569523
 21
-480.0140549911782
 31
0.0
  0
LINE
  5
169
330
1F
100
AcDbEntity
  8
0-0_通り芯
  6
Continuous
 62
     3
370
    13
100
AcDbLine
 10
-473.9808180420033
 20
-405.373090173822
 30
0.0
 11
-471.9810093954659
 21
-480.0140549911782
 31
0.0
  0
LINE
  5
16A
330
1F
100
AcDbEntity
  8
0-0_通り芯
  6
Continuous
 62
     3
370
    13
100
AcDbLine
 10
-457.9812353905041
 20
-405.373090173822
 30
0.0
 11
-370.6222348494357
 21
-405.373090173822
 31
0.0
  0
LINE
  5
16B
330
1F
100
AcDbEntity
  8
0-0_通り芯
  6
Continuous
 62
     3
370
    13
100
AcDbLine
 10
-627.9811776545455
 20
-405.373090173822
 30
0.0
 11
-629.9812337409054
 21
-480.0140549911782
 31
0.0
  0
LINE
  5
16C
330
1F
100
AcDbEntity
  8
0-0_通り芯
  6
Continuous
 62
     3
370
    13
100
AcDbLine
 10
-627.9811776545455
 20
-405.373090173822
 30
0.0
 11
-473.9808180420033
 21
-405.373090173822
 31
0.0
  0
LINE
  5
16D
330
1F
100
AcDbEntity
  8
0-0_通り芯
  6
Continuous
 62
     3
370
    13
100
AcDbLine
 10
-370.6222348494357
 20
-318.0140896327532
 30
0.0
 11
-295.9812700320793
 21
-316.0141572663053
 31
0.0
  0
LINE
  5
16E
330
1F
100
AcDbEntity
  8
0-0_通り芯
  6
Continuous
 62
     3
370
    13
100
AcDbLine
 10
-295.9812700320793
 20
-304.0143156277918
 30
0.0
 11
-370.6222348494357
 21
-302.0145069812543
 31
0.0
  0
LINE
  5
16F
330
1F
100
AcDbEntity
  8
0-0_通り芯
  6
Continuous
 62
     3
370
    13
100
AcDbLine
 10
-370.6222348494357
 20
-318.0140896327532
 30
0.0
 11
-370.6222348494357
 21
-405.373090173822
 31
0.0
  0
LINE
  5
170
330
1F
100
AcDbEntity
  8
0-0_通り芯
  6
Continuous
 62
     3
370
    13
100
AcDbLine
 10
-370.6222348494357
 20
-148.0140236488
 30
0.0
 11
-295.9812700320793
 21
-146.0140912823522
 31
0.0
  0
LINE
  5
171
330
1F
100
AcDbEntity
  8
0-0_通り芯
  6
Continuous
 62
     3
370
    13
100
AcDbLine
 10
-370.6222348494357
 20
-148.0140236488
 30
0.0
 11
-370.6222348494357
 21
-302.0145069812543
 31
0.0
  0
LINE
  5
172
330
1F
100
AcDbEntity
  8
0-0_通り芯
  6
Continuous
 62
     3
370
    13
100
AcDbLine
 10
-449.9811347649762
 20
-318.0140896327532
 30
0.0
 11
-370.6222348494357
 21
-318.0140896327532
 31
0.0
  0
LINE
  5
173
330
1F
100
AcDbEntity
  8
0-0_通り芯
  6
Continuous
 62
     3
370
    13
100
AcDbLine
 10
-457.9812353905041
 20
-326.0140665383699
 30
0.0
 11
-457.9812353905041
 21
-405.373090173822
 31
0.0
  0
LINE
  5
174
330
1F
100
AcDbEntity
  8
0-0_通り芯
  6
Continuous
 62
     3
370
    13
100
AcDbLine
 10
-473.9808180420033
 20
-326.0140665383699
 30
0.0
 11
-473.9808180420033
 21
-405.373090173822
 31
0.0
  0
LINE
  5
175
330
1F
100
AcDbEntity
  8
0-0_通り芯
  6
Continuous
 62
     3
370
    13
100
AcDbLine
 10
-449.9811347649762
 20
-302.0145069812543
 30
0.0
 11
-370.6222348494357
 21
-302.0145069812543
 31
0.0
  0
LINE
  5
176
330
1F
100
AcDbEntity
  8
0-0_通り芯
  6
Continuous
 62
     3
370
    13
100
AcDbLine
 10
-471.9810093954659
 20
-326.0140665383699
 30
0.0
 11
-471.9810093954659
 21
-480.0140549911782
 31
0.0
  0
LINE
  5
177
330
1F
100
AcDbEntity
  8
0-0_通り芯
  6
Continuous
 62
     3
370
    13
100
AcDbLine
 10
-449.9811347649762
 20
-304.0143156277918
 30
0.0
 11
-295.9812700320793
 21
-304.0143156277918
 31
0.0
  0
LINE
  5
178
330
1F
100
AcDbEntity
  8
0-0_通り芯
  6
Continuous
 62
     3
370
    13
100
AcDbLine
 10
-449.9811347649762
 20
-316.0141572663053
 30
0.0
 11
-295.9812700320793
 21
-316.0141572663053
 31
0.0
  0
LINE
  5
179
330
1F
100
AcDbEntity
  8
0-0_通り芯
  6
Continuous
 62
     3
370
    13
100
AcDbLine
 10
-459.9811677569523
 20
-326.0140665383699
 30
0.0
 11
-459.9811677569523
 21
-480.0140549911782
 31
0.0
  0
LINE
  5
17A
330
1F
100
AcDbEntity
  8
0-0_通り芯
  6
Continuous
 62
     3
370
    13
100
AcDbLine
 10
-619.981200748929
 20
-304.0143156277918
 30
0.0
 11
-481.9810423874426
 21
-304.0143156277918
 31
0.0
  0
LINE
  5
17B
330
1F
100
AcDbEntity
  8
0-0_通り芯
  6
Continuous
 62
     3
370
    13
100
AcDbLine
 10
-619.981200748929
 20
-316.0141572663053
 30
0.0
 11
-481.9810423874426
 21
-316.0141572663053
 31
0.0
  0
LINE
  5
17C
330
1F
100
AcDbEntity
  8
0-0_通り芯
  6
Continuous
 62
     3
370
    13
100
AcDbLine
 10
-629.9812337409054
 20
-326.0140665383699
 30
0.0
 11
-629.9812337409054
 21
-480.0140549911782
 31
0.0
  0
LINE
  5
17D
330
1F
100
AcDbEntity
  8
0-0_通り芯
  6
Continuous
 62
     3
370
    13
100
AcDbLine
 10
-619.981200748929
 20
-318.0140896327532
 30
0.0
 11
-481.9810423874426
 21
-318.0140896327532
 31
0.0
  0
LINE
  5
17E
330
1F
100
AcDbEntity
  8
0-0_通り芯
  6
Continuous
 62
     3
370
    13
100
AcDbLine
 10
-627.9811776545455
 20
-326.0140665383699
 30
0.0
 11
-627.9811776545455
 21
-405.373090173822
 31
0.0
  0
LINE
  5
17F
330
1F
100
AcDbEntity
  8
0-0_通り芯
  6
Continuous
 62
     3
370
    13
100
AcDbLine
 10
-619.981200748929
 20
-302.0145069812543
 30
0.0
 11
-481.9810423874426
 21
-302.0145069812543
 31
0.0
  0
LINE
  5
180
330
1F
100
AcDbEntity
  8
0-0_通り芯
  6
Continuous
 62
     3
370
    13
100
AcDbLine
 10
-627.9811776545455
 20
-156.0141242743282
 30
0.0
 11
-627.9811776545455
 21
-294.0144063557261
 31
0.0
  0
LINE
  5
181
330
1F
100
AcDbEntity
  8
0-0_通り芯
  6
Continuous
 62
     3
370
    13
100
AcDbLine
 10
-629.9812337409054
 20
-156.0141242743282
 30
0.0
 11
-629.9812337409054
 21
-294.0144063557261
 31
0.0
  0
LINE
  5
182
330
1F
100
AcDbEntity
  8
0-0_通り芯
  6
Continuous
 62
     3
370
    13
100
AcDbLine
 10
-481.9810423874426
 20
-146.0140912823522
 30
0.0
 11
-619.981200748929
 21
-146.0140912823522
 31
0.0
  0
LINE
  5
183
330
1F
100
AcDbEntity
  8
0-0_通り芯
  6
Continuous
 62
     3
370
    13
100
AcDbLine
 10
-471.9810093954659
 20
-156.0141242743282
 30
0.0
 11
-471.9810093954659
 21
-294.0144063557261
 31
0.0
  0
LINE
  5
184
330
1F
100
AcDbEntity
  8
0-0_通り芯
  6
Continuous
 62
     3
370
    13
100
AcDbLine
 10
-459.9811677569523
 20
-156.0141242743282
 30
0.0
 11
-459.9811677569523
 21
-294.0144063557261
 31
0.0
  0
LINE
  5
185
330
1F
100
AcDbEntity
  8
0-0_通り芯
  6
Continuous
 62
     3
370
    13
100
AcDbLine
 10
-449.9811347649762
 20
-146.0140912823522
 30
0.0
 11
-295.9812700320793
 21
-146.0140912823522
 31
0.0
  0
LINE
  5
186
330
1F
100
AcDbEntity
  8
0-0_通り芯
  6
Continuous
 62
     3
370
    13
100
AcDbLine
 10
-449.9811347649762
 20
-148.0140236488
 30
0.0
 11
-370.6222348494357
 21
-148.0140236488
 31
0.0
  0
LINE
  5
187
330
1F
100
AcDbEntity
  8
0-0_通り芯
  6
Continuous
 62
     3
370
    13
100
AcDbLine
 10
-457.9812353905041
 20
-156.0141242743282
 30
0.0
 11
-457.9812353905041
 21
-294.0144063557261
 31
0.0
  0
LINE
  5
188
330
1F
100
AcDbEntity
  8
0-0_通り芯
  6
Continuous
 62
     3
370
    13
100
AcDbLine
 10
-481.9810423874426
 20
-148.0140236488
 30
0.0
 11
-619.981200748929
 21
-148.0140236488
 31
0.0
  0
LINE
  5
189
330
1F
100
AcDbEntity
  8
0-0_通り芯
  6
Continuous
 62
     3
370
    13
100
AcDbLine
 10
-473.9808180420033
 20
-156.0141242743282
 30
0.0
 11
-473.9808180420033
 21
-294.0144063557261
 31
0.0
  0
LINE
  5
18A
330
1F
100
AcDbEntity
  8
0-0_通り芯
  6
Continuous
 62
     3
370
    13
100
AcDbLine
 10
-1112.98104568664
 20
-605.0141580911043
 30
0.0
 11
-1112.98104568664
 21
148.0151857974624
 31
0.0
  0
LINE
  5
18B
330
1F
100
AcDbEntity
  8
0-0_通り芯
  6
Continuous
 62
     3
370
    13
100
AcDbLine
 10
-1100.981204048127
 20
-617.0141853094847
 30
0.0
 11
-170.9812287921086
 21
-617.014185309485
 31
0.0
  0
LINE
  5
18C
330
1F
100
AcDbEntity
  8
0-1_ピット
  6
Continuous
 62
     2
370
    13
100
AcDbLine
 10
-105.9811380641738
 20
379.9858130409166
 30
0.0
 11
-105.9811380641738
 21
-660.0142776870186
 31
0.0
  0
LINE
  5
18D
330
1F
100
AcDbEntity
  8
0-1_ピット
  6
Continuous
 62
     2
370
    13
100
AcDbLine
 10
-115.9810473362388
 20
389.9858460328926
 30
0.0
 11
-1155.981138064174
 21
389.9858460328926
 31
0.0
  0
LINE
  5
18E
330
1F
100
AcDbEntity
  8
0-0_通り芯
  6
Continuous
 62
     3
370
    13
100
AcDbLine
 10
-167.431828256319
 20
154.3653576856588
 30
0.0
 11
-341.6016264114079
 21
328.5351558407478
 31
0.0
  0
LINE
  5
18F
330
1F
100
AcDbEntity
  8
0-1_ピット
  6
Continuous
 62
     2
370
    13
100
AcDbLine
 10
-1177.981260134486
 20
-612.0142306734522
 30
0.0
 11
-1177.981260134486
 21
379.9858130409166
 31
0.0
  0
LINE
  5
190
330
1F
100
AcDbEntity
  8
0-1_ピット
  6
Continuous
 62
     2
370
    13
100
AcDbLine
 10
-1183.981180953743
 20
-618.014151492709
 30
0.0
 11
-1177.981260134486
 21
-612.0142306734522
 31
0.0
  0
LINE
  5
191
330
1F
100
AcDbEntity
  8
0-1_ピット
  6
Continuous
 62
     2
370
    13
100
AcDbLine
 10
-87.98112816658059
 20
-660.0142776870186
 30
0.0
 11
-87.98112816658059
 21
-618.0141514927093
 31
0.0
  0
LINE
  5
192
330
1F
100
AcDbEntity
  8
0-1_ピット
  6
Continuous
 62
     2
370
    13
100
AcDbLine
 10
-87.98112816658059
 20
-618.0141514927093
 30
0.0
 11
-93.98117270574912
 21
-612.0141688134968
 31
0.0
  0
LINE
  5
193
330
1F
100
AcDbEntity
  8
0-1_ピット
  6
Continuous
 62
     2
370
    13
100
AcDbLine
 10
-93.98117270574912
 20
-612.0141688134968
 30
0.0
 11
-93.98117270574883
 21
379.9858130409166
 31
0.0
  0
LINE
  5
194
330
1F
100
AcDbEntity
  8
0-1_ピット
  6
Continuous
 62
     2
370
    13
100
AcDbLine
 10
-115.9810473362388
 20
401.9858113913176
 30
0.0
 11
-1155.981138064174
 21
401.9858113913176
 31
0.0
  0
LINE
  5
195
330
1F
100
AcDbEntity
  8
0-1_ピット
  6
Continuous
 62
     2
370
    13
100
AcDbLine
 10
-1183.981180953743
 20
-660.0142776870186
 30
0.0
 11
-1183.981180953743
 21
-618.014151492709
 31
0.0
  0
LINE
  5
196
330
1F
100
AcDbEntity
  8
0-1_ピット
  6
Continuous
 62
     2
370
    13
100
AcDbLine
 10
-1206.981207347324
 20
209.9854996171416
 30
0.0
 11
-1206.981207347324
 21
189.9856810730108
 31
0.0
  0
LINE
  5
197
330
1F
100
AcDbEntity
  8
0-1_ピット
  6
Continuous
 62
     2
370
    13
100
AcDbLine
 10
-1236.98105888343
 20
209.9854996171416
 30
0.0
 11
-1236.98105888343
 21
189.9856810730108
 31
0.0
  0
LINE
  5
198
330
1F
100
AcDbEntity
  8
0-1_ピット
  6
Continuous
 62
     2
370
    13
100
AcDbLine
 10
-1238.981362409613
 20
209.9854996171416
 30
0.0
 11
-1238.981362409613
 21
189.9856810730108
 31
0.0
  0
LINE
  5
199
330
1F
100
AcDbEntity
  8
0-1_ピット
  6
Continuous
 62
     2
370
    13
100
AcDbLine
 10
-1204.981151260964
 20
209.9854996171416
 30
0.0
 11
-1204.981151260964
 21
189.9856810730108
 31
0.0
  0
LINE
  5
19A
330
1F
100
AcDbEntity
  8
0-1_ピット
  6
JWW_CENTER1
 62
     2
370
    13
100
AcDbLine
 10
-1192.624501398211
 20
199.9857140649874
 30
0.0
 11
-1250.358645454376
 21
199.9857140649874
 31
0.0
  0
LINE
  5
19B
330
1F
100
AcDbEntity
  8
0-1_ピット
  6
JWW_CENTER1
 62
     2
370
    13
100
AcDbLine
 10
-1221.981256835289
 20
238.9965816219978
 30
0.0
 11
-1221.981256835289
 21
162.1355867159588
 31
0.0
  0
LINE
  5
19C
330
1F
100
AcDbEntity
  8
0-1_ピット
  6
Continuous
 62
     2
370
    13
100
AcDbLine
 10
-1258.976479597113
 20
255.8675236089061
 30
0.0
 11
-1221.985463312274
 21
292.1038484347088
 31
0.0
  0
LINE
  5
19D
330
1F
100
AcDbEntity
  8
0-1_ピット
  6
Continuous
 62
     2
370
    13
100
AcDbLine
 10
-1247.410647407501
 20
248.811900786377
 30
0.0
 11
-1192.503998204588
 21
259.4695051070062
 31
0.0
  0
LINE
  5
19E
330
1F
100
AcDbEntity
  8
0-1_ピット
  6
Continuous
 62
     2
370
    13
100
AcDbLine
 10
-1193.075584194875
 20
262.4145338760093
 30
0.0
 11
-1247.982233397789
 21
251.7570532752916
 31
0.0
  0
LINE
  5
19F
330
1F
100
AcDbEntity
  8
0-1_ピット
  6
Continuous
 62
     2
370
    13
100
AcDbLine
 10
-1219.985407225914
 20
289.8635282805708
 30
0.0
 11
-1256.877200141876
 21
253.7244473050634
 31
0.0
  0
LINE
  5
1A0
330
1F
100
AcDbEntity
  8
0-1_ピット
  6
Continuous
 62
     2
370
    13
100
AcDbLine
 10
-1258.976479597113
 20
144.1039045210687
 30
0.0
 11
-1221.985463312274
 21
107.8673322554437
 31
0.0
  0
LINE
  5
1A1
330
1F
100
AcDbEntity
  8
0-1_ピット
  6
Continuous
 62
     2
370
    13
100
AcDbLine
 10
-1247.410647407501
 20
151.1594036236875
 30
0.0
 11
-1192.503998204588
 21
140.5016755831463
 31
0.0
  0
LINE
  5
1A2
330
1F
100
AcDbEntity
  8
0-1_ピット
  6
Continuous
 62
     2
370
    13
100
AcDbLine
 10
-1193.075584194875
 20
137.5568942539655
 30
0.0
 11
-1247.982233397789
 21
148.2143748546832
 31
0.0
  0
LINE
  5
1A3
330
1F
100
AcDbEntity
  8
0-1_ピット
  6
Continuous
 62
     2
370
    13
100
AcDbLine
 10
-1219.985407225914
 20
110.1077761294937
 30
0.0
 11
-1256.877200141876
 21
146.2468571049999
 31
0.0
  0
LINE
  5
1A4
330
1F
100
AcDbEntity
  8
0-1_ピット
  6
Continuous
 62
     2
370
    13
100
AcDbLine
 10
-1261.980893923549
 20
231.1418518922676
 30
0.0
 11
-1261.980893923549
 21
168.8294525177957
 31
0.0
  0
LINE
  5
1A5
330
1F
100
AcDbEntity
  8
0-1_ピット
  6
Continuous
 62
     2
370
    13
100
AcDbLine
 10
-1264.981101773
 20
241.5803482499541
 30
0.0
 11
-1264.981101773
 21
158.3910798800213
 31
0.0
  0
LINE
  5
1A6
330
1F
100
AcDbEntity
  8
0-1_ピット
  6
Continuous
 62
     2
370
    13
100
AcDbLine
 10
-1184.70395267566
 20
264.2703325457728
 30
0.0
 11
-1184.70395267566
 21
135.7009718642905
 31
0.0
  0
LINE
  5
1A7
330
1F
100
AcDbEntity
  8
0-1_ピット
  6
Continuous
 62
     2
370
    13
100
AcDbLine
 10
-1206.981207347324
 20
-490.0140879831542
 30
0.0
 11
-1206.981207347324
 21
-470.0141457191125
 31
0.0
  0
LINE
  5
1A8
330
1F
100
AcDbEntity
  8
0-1_ピット
  6
Continuous
 62
     2
370
    13
100
AcDbLine
 10
-1236.98105888343
 20
-490.0140879831542
 30
0.0
 11
-1236.98105888343
 21
-470.0141457191125
 31
0.0
  0
LINE
  5
1A9
330
1F
100
AcDbEntity
  8
0-1_ピット
  6
Continuous
 62
     2
370
    13
100
AcDbLine
 10
-1238.981362409613
 20
-490.0140879831542
 30
0.0
 11
-1238.981362409613
 21
-470.0141457191125
 31
0.0
  0
LINE
  5
1AA
330
1F
100
AcDbEntity
  8
0-1_ピット
  6
Continuous
 62
     2
370
    13
100
AcDbLine
 10
-1204.981151260964
 20
-490.0140879831542
 30
0.0
 11
-1204.981151260964
 21
-470.0141457191125
 31
0.0
  0
LINE
  5
1AB
330
1F
100
AcDbEntity
  8
0-1_ピット
  6
JWW_CENTER1
 62
     2
370
    13
100
AcDbLine
 10
-1192.624501398211
 20
-480.0140549911782
 30
0.0
 11
-1250.358645454376
 21
-480.0140549911782
 31
0.0
  0
LINE
  5
1AC
330
1F
100
AcDbEntity
  8
0-1_ピット
  6
JWW_CENTER1
 62
     2
370
    13
100
AcDbLine
 10
-1221.981256835289
 20
-519.0250462680996
 30
0.0
 11
-1221.981256835289
 21
-442.164175081972
 31
0.0
  0
LINE
  5
1AD
330
1F
100
AcDbEntity
  8
0-1_ピット
  6
Continuous
 62
     2
370
    13
100
AcDbLine
 10
-1258.976479597113
 20
-535.895864535097
 30
0.0
 11
-1221.985463312274
 21
-572.1323130808107
 31
0.0
  0
LINE
  5
1AE
330
1F
100
AcDbEntity
  8
0-1_ピット
  6
Continuous
 62
     2
370
    13
100
AcDbLine
 10
-1247.410647407501
 20
-528.8402417125676
 30
0.0
 11
-1192.503998204588
 21
-539.4979697531082
 31
0.0
  0
LINE
  5
1AF
330
1F
100
AcDbEntity
  8
0-1_ピット
  6
Continuous
 62
     2
370
    13
100
AcDbLine
 10
-1193.075584194875
 20
-542.4428748022001
 30
0.0
 11
-1247.982233397789
 21
-531.7853942014822
 31
0.0
  0
LINE
  5
1B0
330
1F
100
AcDbEntity
  8
0-1_ピット
  6
Continuous
 62
     2
370
    13
100
AcDbLine
 10
-1219.985407225914
 20
-569.8918692067607
 30
0.0
 11
-1256.877200141876
 21
-533.7529119511655
 31
0.0
  0
LINE
  5
1B1
330
1F
100
AcDbEntity
  8
0-1_ピット
  6
Continuous
 62
     2
370
    13
100
AcDbLine
 10
-1258.976479597113
 20
-424.1322454472595
 30
0.0
 11
-1221.985463312274
 21
-387.895796901546
 31
0.0
  0
LINE
  5
1B2
330
1F
100
AcDbEntity
  8
0-1_ピット
  6
Continuous
 62
     2
370
    13
100
AcDbLine
 10
-1247.410647407501
 20
-431.1878682697886
 30
0.0
 11
-1192.503998204588
 21
-420.530140229248
 31
0.0
  0
LINE
  5
1B3
330
1F
100
AcDbEntity
  8
0-1_ピット
  6
Continuous
 62
     2
370
    13
100
AcDbLine
 10
-1193.075584194875
 20
-417.5852351801564
 30
0.0
 11
-1247.982233397789
 21
-428.2427157808741
 31
0.0
  0
LINE
  5
1B4
330
1F
100
AcDbEntity
  8
0-1_ピット
  6
Continuous
 62
     2
370
    13
100
AcDbLine
 10
-1219.985407225914
 20
-390.1362407755954
 30
0.0
 11
-1256.877200141876
 21
-426.2753217511022
 31
0.0
  0
LINE
  5
1B5
330
1F
100
AcDbEntity
  8
0-1_ピット
  6
Continuous
 62
     2
370
    13
100
AcDbLine
 10
-1261.980893923549
 20
-511.1703165383699
 30
0.0
 11
-1261.980893923549
 21
-448.8577934439866
 31
0.0
  0
LINE
  5
1B6
330
1F
100
AcDbEntity
  8
0-1_ピット
  6
Continuous
 62
     2
370
    13
100
AcDbLine
 10
-1264.981101773
 20
-521.608689176144
 30
0.0
 11
-1264.981101773
 21
-438.4194208062121
 31
0.0
  0
LINE
  5
1B7
330
1F
100
AcDbEntity
  8
0-1_ピット
  6
Continuous
 62
     2
370
    13
100
AcDbLine
 10
-1184.70395267566
 20
-544.2986734719636
 30
0.0
 11
-1184.70395267566
 21
-415.7294365103928
 31
0.0
  0
LINE
  5
1B8
330
1F
100
AcDbEntity
  8
0-1_ピット
  6
Continuous
 62
     2
370
    13
100
AcDbLine
 10
-1184.981085277012
 20
127.7402141705625
 30
0.0
 11
-1184.981085277012
 21
-407.7685550967522
 31
0.0
  0
LINE
  5
1B9
330
1F
100
AcDbEntity
  8
0-1_ピット
  6
Continuous
 62
     2
370
    13
100
AcDbLine
 10
-64.98110177299989
 20
-490.0140879831542
 30
0.0
 11
-64.98110177299989
 21
-470.0141457191125
 31
0.0
  0
LINE
  5
1BA
330
1F
100
AcDbEntity
  8
0-1_ピット
  6
Continuous
 62
     2
370
    13
100
AcDbLine
 10
-34.98112651698218
 20
-490.0140879831542
 30
0.0
 11
-34.98112651698218
 21
-470.0141457191125
 31
0.0
  0
LINE
  5
1BB
330
1F
100
AcDbEntity
  8
0-1_ピット
  6
Continuous
 62
     2
370
    13
100
AcDbLine
 10
-32.98094671071109
 20
-490.0140879831542
 30
0.0
 11
-32.98094671071109
 21
-470.0141457191125
 31
0.0
  0
LINE
  5
1BC
330
1F
100
AcDbEntity
  8
0-1_ピット
  6
Continuous
 62
     2
370
    13
100
AcDbLine
 10
-66.98128157927098
 20
-490.0140879831542
 30
0.0
 11
-66.98128157927098
 21
-470.0141457191125
 31
0.0
  0
LINE
  5
1BD
330
1F
100
AcDbEntity
  8
0-1_ピット
  6
JWW_CENTER1
 62
     2
370
    13
100
AcDbLine
 10
-79.33780772211318
 20
-480.0140549911782
 30
0.0
 11
-21.60353994603607
 21
-480.0140549911782
 31
0.0
  0
LINE
  5
1BE
330
1F
100
AcDbEntity
  8
0-1_ピット
  6
JWW_CENTER1
 62
     2
370
    13
100
AcDbLine
 10
-49.9810522850353
 20
-519.0250462680996
 30
0.0
 11
-49.9810522850353
 21
-442.164175081972
 31
0.0
  0
LINE
  5
1BF
330
1F
100
AcDbEntity
  8
0-1_ピット
  6
Continuous
 62
     2
370
    13
100
AcDbLine
 10
-12.98570580329933
 20
-535.895864535097
 30
0.0
 11
-49.97672208813892
 21
-572.1321893608996
 31
0.0
  0
LINE
  5
1C0
330
1F
100
AcDbEntity
  8
0-1_ピット
  6
Continuous
 62
     2
370
    13
100
AcDbLine
 10
-24.55166171282226
 20
-528.8403654324791
 30
0.0
 11
-79.45831091573635
 21
-539.497846033197
 31
0.0
  0
LINE
  5
1C1
330
1F
100
AcDbEntity
  8
0-1_ピット
  6
Continuous
 62
     2
370
    13
100
AcDbLine
 10
-78.88660120553791
 20
-542.4428748022001
 30
0.0
 11
-23.97995200262411
 21
-531.7853942014824
 31
0.0
  0
LINE
  5
1C2
330
1F
100
AcDbEntity
  8
0-1_ピット
  6
Continuous
 62
     2
370
    13
100
AcDbLine
 10
-51.97677817449911
 20
-569.8919929266725
 30
0.0
 11
-15.08498525853607
 21
-533.7529119511657
 31
0.0
  0
LINE
  5
1C3
330
1F
100
AcDbEntity
  8
0-1_ピット
  6
Continuous
 62
     2
370
    13
100
AcDbLine
 10
-12.98570580329933
 20
-424.1322454472595
 30
0.0
 11
-49.97672208813892
 21
-387.8959206214563
 31
0.0
  0
LINE
  5
1C4
330
1F
100
AcDbEntity
  8
0-1_ピット
  6
Continuous
 62
     2
370
    13
100
AcDbLine
 10
-24.55166171282226
 20
-431.1877445498772
 30
0.0
 11
-79.45831091573635
 21
-420.5302639491595
 31
0.0
  0
LINE
  5
1C5
330
1F
100
AcDbEntity
  8
0-1_ピット
  6
Continuous
 62
     2
370
    13
100
AcDbLine
 10
-78.88660120553791
 20
-417.5852351801564
 30
0.0
 11
-23.97995200262411
 21
-428.2427157808741
 31
0.0
  0
LINE
  5
1C6
330
1F
100
AcDbEntity
  8
0-1_ピット
  6
Continuous
 62
     2
370
    13
100
AcDbLine
 10
-51.97677817449911
 20
-390.1361170556845
 30
0.0
 11
-15.08498525853607
 21
-426.2753217511022
 31
0.0
  0
LINE
  5
1C7
330
1F
100
AcDbEntity
  8
0-1_ピット
  6
Continuous
 62
     2
370
    13
100
AcDbLine
 10
-9.981291476863952
 20
-511.1701928184584
 30
0.0
 11
-9.981291476863952
 21
-448.857917163898
 31
0.0
  0
LINE
  5
1C8
330
1F
100
AcDbEntity
  8
0-1_ピット
  6
Continuous
 62
     2
370
    13
100
AcDbLine
 10
-6.981207347324094
 20
-521.608689176144
 30
0.0
 11
-6.981207347324094
 21
-438.4194208062121
 31
0.0
  0
LINE
  5
1C9
330
1F
100
AcDbEntity
  8
0-1_ピット
  6
Continuous
 62
     2
370
    13
100
AcDbLine
 10
-87.25848016457516
 20
-544.2986734719636
 30
0.0
 11
-87.25848016457516
 21
-415.7294365103928
 31
0.0
  0
LINE
  5
1CA
330
1F
100
AcDbEntity
  8
0-1_ピット
  6
Continuous
 62
     2
370
    13
100
AcDbLine
 10
-64.98110177299989
 20
209.9854996171416
 30
0.0
 11
-64.98110177299989
 21
189.9856810730108
 31
0.0
  0
LINE
  5
1CB
330
1F
100
AcDbEntity
  8
0-1_ピット
  6
Continuous
 62
     2
370
    13
100
AcDbLine
 10
-34.98112651698218
 20
209.9854996171416
 30
0.0
 11
-34.98112651698218
 21
189.9856810730108
 31
0.0
  0
LINE
  5
1CC
330
1F
100
AcDbEntity
  8
0-1_ピット
  6
Continuous
 62
     2
370
    13
100
AcDbLine
 10
-32.98094671071109
 20
209.9854996171416
 30
0.0
 11
-32.98094671071109
 21
189.9856810730108
 31
0.0
  0
LINE
  5
1CD
330
1F
100
AcDbEntity
  8
0-1_ピット
  6
Continuous
 62
     2
370
    13
100
AcDbLine
 10
-66.98128157927098
 20
209.9854996171416
 30
0.0
 11
-66.98128157927098
 21
189.9856810730108
 31
0.0
  0
LINE
  5
1CE
330
1F
100
AcDbEntity
  8
0-1_ピット
  6
JWW_CENTER1
 62
     2
370
    13
100
AcDbLine
 10
-79.33780772211318
 20
199.9857140649874
 30
0.0
 11
-21.60353994603607
 21
199.9857140649874
 31
0.0
  0
LINE
  5
1CF
330
1F
100
AcDbEntity
  8
0-1_ピット
  6
JWW_CENTER1
 62
     2
370
    13
100
AcDbLine
 10
-49.9810522850353
 20
238.9965816219978
 30
0.0
 11
-49.9810522850353
 21
162.1355867159588
 31
0.0
  0
LINE
  5
1D0
330
1F
100
AcDbEntity
  8
0-1_ピット
  6
Continuous
 62
     2
370
    13
100
AcDbLine
 10
-12.98570580329933
 20
255.8675236089061
 30
0.0
 11
-49.97672208813892
 21
292.1038484347088
 31
0.0
  0
LINE
  5
1D1
330
1F
100
AcDbEntity
  8
0-1_ピット
  6
Continuous
 62
     2
370
    13
100
AcDbLine
 10
-24.55166171282226
 20
248.811900786377
 30
0.0
 11
-79.45831091573635
 21
259.4695051070062
 31
0.0
  0
LINE
  5
1D2
330
1F
100
AcDbEntity
  8
0-1_ピット
  6
Continuous
 62
     2
370
    13
100
AcDbLine
 10
-78.88660120553791
 20
262.4145338760093
 30
0.0
 11
-23.97995200262411
 21
251.7570532752916
 31
0.0
  0
LINE
  5
1D3
330
1F
100
AcDbEntity
  8
0-1_ピット
  6
Continuous
 62
     2
370
    13
100
AcDbLine
 10
-51.97677817449911
 20
289.8635282805708
 30
0.0
 11
-15.08498525853607
 21
253.7244473050634
 31
0.0
  0
LINE
  5
1D4
330
1F
100
AcDbEntity
  8
0-1_ピット
  6
Continuous
 62
     2
370
    13
100
AcDbLine
 10
-12.98570580329933
 20
144.1039045210687
 30
0.0
 11
-49.97672208813892
 21
107.8673322554437
 31
0.0
  0
LINE
  5
1D5
330
1F
100
AcDbEntity
  8
0-1_ピット
  6
Continuous
 62
     2
370
    13
100
AcDbLine
 10
-24.55166171282226
 20
151.1594036236875
 30
0.0
 11
-79.45831091573635
 21
140.5016755831463
 31
0.0
  0
LINE
  5
1D6
330
1F
100
AcDbEntity
  8
0-1_ピット
  6
Continuous
 62
     2
370
    13
100
AcDbLine
 10
-78.88660120553791
 20
137.5568942539655
 30
0.0
 11
-23.97995200262411
 21
148.2143748546832
 31
0.0
  0
LINE
  5
1D7
330
1F
100
AcDbEntity
  8
0-1_ピット
  6
Continuous
 62
     2
370
    13
100
AcDbLine
 10
-51.97677817449911
 20
110.1077761294937
 30
0.0
 11
-15.08498525853607
 21
146.2468571049999
 31
0.0
  0
LINE
  5
1D8
330
1F
100
AcDbEntity
  8
0-1_ピット
  6
Continuous
 62
     2
370
    13
100
AcDbLine
 10
-9.981291476863952
 20
231.1418518922676
 30
0.0
 11
-9.981291476863952
 21
168.8294525177957
 31
0.0
  0
LINE
  5
1D9
330
1F
100
AcDbEntity
  8
0-1_ピット
  6
Continuous
 62
     2
370
    13
100
AcDbLine
 10
-6.981207347324094
 20
241.5803482499541
 30
0.0
 11
-6.981207347324094
 21
158.3910798800213
 31
0.0
  0
LINE
  5
1DA
330
1F
100
AcDbEntity
  8
0-1_ピット
  6
Continuous
 62
     2
370
    13
100
AcDbLine
 10
-87.25848016457516
 20
264.2703325457728
 30
0.0
 11
-87.25848016457516
 21
135.7009718642905
 31
0.0
  0
LINE
  5
1DB
330
1F
100
AcDbEntity
  8
0-1_ピット
  6
Continuous
 62
     2
370
    13
100
AcDbLine
 10
-86.9811001234012
 20
-407.7684313768412
 30
0.0
 11
-86.9811001234012
 21
127.7402141705625
 31
0.0
  0
LINE
  5
1DC
330
1F
100
AcDbEntity
  8
0-1_ピット
  6
Continuous
 62
     2
370
    13
100
AcDbLine
 10
-86.9811001234012
 20
272.2312139594129
 30
0.0
 11
-86.9811001234012
 21
379.9858130409166
 31
0.0
  0
LINE
  5
1DD
330
1F
100
AcDbEntity
  8
0-1_ピット
  6
Continuous
 62
     2
370
    13
100
AcDbLine
 10
-1184.981085277012
 20
272.2312139594129
 30
0.0
 11
-1184.981085277012
 21
379.9858130409166
 31
0.0
  0
LINE
  5
1DE
330
1F
100
AcDbEntity
  8
0-1_ピット
  6
Continuous
 62
     2
370
    13
100
AcDbLine
 10
-1155.981138064174
 20
-670.0142488190388
 30
0.0
 11
-115.9810473362388
 21
-670.0142488190395
 31
0.0
  0
LINE
  5
1DF
330
1F
100
AcDbEntity
  8
0-1_ピット
  6
Continuous
 62
     2
370
    13
100
AcDbLine
 10
-1155.981138064174
 20
-688.0141968566763
 30
0.0
 11
-115.9810473362388
 21
-688.0141968566767
 31
0.0
  0
LINE
  5
1E0
330
1F
100
AcDbEntity
  8
0-0_通り芯
  6
Continuous
 62
     3
370
    13
100
AcDbLine
 10
-1146.981256835289
 20
-665.0141704630954
 30
0.0
 11
-124.9810522850353
 21
-665.0141704630958
 31
0.0
  0
LINE
  5
1E1
330
1F
100
AcDbEntity
  8
0-1_ピット
  6
Continuous
 62
     2
370
    13
100
AcDbLine
 10
-57.98115291056316
 20
-660.0140921071513
 30
0.0
 11
-57.98115291056316
 21
-584.1791682856251
 31
0.0
  0
LINE
  5
1E2
330
1F
100
AcDbEntity
  8
0-1_ピット
  6
Continuous
 62
     2
370
    13
100
AcDbLine
 10
-57.98115291056316
 20
379.9856893210051
 30
0.0
 11
-57.98115291056316
 21
304.1509510793458
 31
0.0
  0
LINE
  5
1E3
330
1F
100
AcDbEntity
  8
0-1_ピット
  6
Continuous
 62
     2
370
    13
100
AcDbLine
 10
-1213.981032489849
 20
379.9856893210051
 30
0.0
 11
-1213.981032489849
 21
304.1509510793458
 31
0.0
  0
LINE
  5
1E4
330
1F
100
AcDbEntity
  8
0-1_ピット
  6
Continuous
 62
     2
370
    13
100
AcDbLine
 10
-1213.981032489849
 20
-375.8488179768199
 30
0.0
 11
-1213.981032489849
 21
95.82047705062905
 31
0.0
  0
LINE
  5
1E5
330
1F
100
AcDbEntity
  8
0-1_ピット
  6
Continuous
 62
     2
370
    13
100
AcDbLine
 10
-1213.981032489849
 20
-660.0140921071513
 30
0.0
 11
-1213.981032489849
 21
-584.1792920055364
 31
0.0
  0
LINE
  5
1E6
330
1F
100
AcDbEntity
  8
0-1_ピット
  6
Continuous
 62
     2
370
    13
100
AcDbLine
 10
-86.9811001234012
 20
-673.0177352461399
 30
0.0
 11
-86.9811001234012
 21
-552.2596786055149
 31
0.0
  0
LINE
  5
1E7
330
1F
100
AcDbEntity
  8
0-1_ピット
  6
Continuous
 62
     2
370
    13
100
AcDbLine
 10
-1184.981085277012
 20
-673.0177352461399
 30
0.0
 11
-1184.981085277012
 21
-552.2595548856041
 31
0.0
  0
LINE
  5
1E8
330
1F
100
AcDbEntity
  8
0-0_通り芯
  6
Continuous
 62
     3
370
    13
100
AcDbLine
 10
-1104.530480864005
 20
154.3652339657478
 30
0.0
 11
-930.3605589890051
 21
328.5351558407478
 31
0.0
  0
LINE
  5
1E9
330
1F
100
AcDbEntity
  8
0-0_通り芯
  6
Continuous
 62
     3
370
    13
100
AcDbLine
 10
-1096.045274466201
 20
-612.0782557275593
 30
0.0
 11
-175.9171583740345
 21
-612.0782557275593
 31
0.0
  0
LINE
  5
1EA
330
1F
100
AcDbEntity
  8
0-0_通り芯
  6
Continuous
 62
     3
370
    13
100
AcDbLine
 10
-811.9811413633715
 20
199.9857140649874
 30
0.0
 11
-975.981039088245
 21
199.9857140649874
 31
0.0
  0
LINE
  5
1EB
330
1F
100
AcDbEntity
  8
0-0_通り芯
  6
Continuous
 62
     3
370
    13
100
AcDbLine
 10
-975.981039088245
 20
35.98581634011452
 30
0.0
 11
-975.981039088245
 21
199.9857140649874
 31
0.0
  0
LINE
  5
1EC
330
1F
100
AcDbEntity
  8
0-0_通り芯
  6
Continuous
 62
     3
370
    13
100
AcDbLine
 10
-975.981039088245
 20
-134.0142496438386
 30
0.0
 11
-975.981039088245
 21
23.98597470160041
 31
0.0
  0
LINE
  5
1ED
330
1F
100
AcDbEntity
  8
0-0_通り芯
  6
Continuous
 62
     3
370
    13
100
AcDbLine
 10
-975.981039088245
 20
-480.0140549911782
 30
0.0
 11
-975.981039088245
 21
-316.0141572663053
 31
0.0
  0
LINE
  5
1EE
330
1F
100
AcDbEntity
  8
0-0_通り芯
  6
Continuous
 62
     3
370
    13
100
AcDbLine
 10
-975.981039088245
 20
-304.0143156277918
 30
0.0
 11
-975.981039088245
 21
-146.0140912823522
 31
0.0
  0
LINE
  5
1EF
330
1F
100
AcDbEntity
  8
0-0_通り芯
  6
Continuous
 62
     3
370
    13
100
AcDbLine
 10
-811.9811413633715
 20
-480.0140549911782
 30
0.0
 11
-975.981039088245
 21
-480.0140549911782
 31
0.0
  0
LINE
  5
1F0
330
1F
100
AcDbEntity
  8
0-0_通り芯
  6
Continuous
 62
     3
370
    13
100
AcDbLine
 10
-641.9810753794189
 20
-480.0140549911782
 30
0.0
 11
-799.981299724858
 21
-480.0140549911782
 31
0.0
  0
LINE
  5
1F1
330
1F
100
AcDbEntity
  8
0-0_通り芯
  6
Continuous
 62
     3
370
    13
100
AcDbLine
 10
-295.9812700320793
 20
-480.0140549911782
 30
0.0
 11
-459.9811677569523
 21
-480.0140549911782
 31
0.0
  0
LINE
  5
1F2
330
1F
100
AcDbEntity
  8
0-0_通り芯
  6
Continuous
 62
     3
370
    13
100
AcDbLine
 10
-471.9810093954659
 20
-480.0140549911782
 30
0.0
 11
-629.9812337409054
 21
-480.0140549911782
 31
0.0
  0
LINE
  5
1F3
330
1F
100
AcDbEntity
  8
0-0_通り芯
  6
Continuous
 62
     3
370
    13
100
AcDbLine
 10
-295.9812700320793
 20
-480.0140549911782
 30
0.0
 11
-295.9812700320793
 21
-316.0141572663053
 31
0.0
  0
LINE
  5
1F4
330
1F
100
AcDbEntity
  8
0-0_通り芯
  6
Continuous
 62
     3
370
    13
100
AcDbLine
 10
-295.9812700320793
 20
-304.0143156277918
 30
0.0
 11
-295.9812700320793
 21
-146.0140912823522
 31
0.0
  0
LINE
  5
1F5
330
1F
100
AcDbEntity
  8
0-0_通り芯
  6
Continuous
 62
     3
370
    13
100
AcDbLine
 10
-295.9812700320793
 20
-134.0142496438386
 30
0.0
 11
-295.9812700320793
 21
23.98597470160041
 31
0.0
  0
LINE
  5
1F6
330
1F
100
AcDbEntity
  8
0-0_通り芯
  6
Continuous
 62
     3
370
    13
100
AcDbLine
 10
-295.9812700320793
 20
35.98581634011452
 30
0.0
 11
-295.9812700320793
 21
199.9857140649874
 31
0.0
  0
LINE
  5
1F7
330
1F
100
AcDbEntity
  8
0-0_通り芯
  6
Continuous
 62
     3
370
    13
100
AcDbLine
 10
-295.9812700320793
 20
199.9857140649874
 30
0.0
 11
-459.9811677569523
 21
199.9857140649874
 31
0.0
  0
LINE
  5
1F8
330
1F
100
AcDbEntity
  8
0-0_通り芯
  6
Continuous
 62
     3
370
    13
100
AcDbLine
 10
-471.9810093954659
 20
199.9857140649874
 30
0.0
 11
-629.9812337409054
 21
199.9857140649874
 31
0.0
  0
LINE
  5
1F9
330
1F
100
AcDbEntity
  8
0-0_通り芯
  6
Continuous
 62
     3
370
    13
100
AcDbLine
 10
-641.9810753794189
 20
199.9857140649874
 30
0.0
 11
-799.981299724858
 21
199.9857140649874
 31
0.0
  0
LINE
  5
1FA
330
1F
100
AcDbEntity
  8
0-0_通り芯
  6
JWW_CENTER1
 62
     3
370
    13
100
AcDbLine
 10
-1257.874382627096
 20
-140.0141704630954
 30
0.0
 11
-5.193949508430613
 21
-140.0141704630954
 31
0.0
  0
LINE
  5
1FB
330
1F
100
AcDbEntity
  8
0-0_通り芯
  6
JWW_CENTER1
 62
     3
370
    13
100
AcDbLine
 10
-635.9811545601622
 20
-757.2259608056843
 30
0.0
 11
-635.9811545601622
 21
464.4575620115671
 31
0.0
  0
ARC
  5
1FC
330
1F
100
AcDbEntity
  8
0-1_ピット
  6
Continuous
 62
     2
370
    13
100
AcDbCircle
 10
-1155.981138064174
 20
379.9856893210051
 30
0.0
 40
57.99999881435085
100
AcDbArc
 50
90.0
 51
180.0
  0
ARC
  5
1FD
330
1F
100
AcDbEntity
  8
0-1_ピット
  6
Continuous
 62
     2
370
    13
100
AcDbCircle
 10
-1155.981138064174
 20
379.9856893210051
 30
0.0
 40
59.99999690700222
100
AcDbArc
 50
90.0
 51
180.0
  0
ARC
  5
1FE
330
1F
100
AcDbEntity
  8
0-1_ピット
  6
Continuous
 62
     2
370
    13
100
AcDbCircle
 10
-1155.981138064174
 20
379.9858130409166
 30
0.0
 40
9.9999991623131
100
AcDbArc
 50
90.0
 51
180.0
  0
ARC
  5
1FF
330
1F
100
AcDbEntity
  8
0-1_ピット
  6
Continuous
 62
     2
370
    13
100
AcDbCircle
 10
-1155.981138064174
 20
-660.0140921071513
 30
0.0
 40
57.99999881435085
100
AcDbArc
 50
180.0
 51
270.0
  0
ARC
  5
200
330
1F
100
AcDbEntity
  8
0-1_ピット
  6
Continuous
 62
     2
370
    13
100
AcDbCircle
 10
-1155.981138064174
 20
-660.0140921071513
 30
0.0
 40
59.99999690700222
100
AcDbArc
 50
180.0
 51
270.0
  0
ARC
  5
201
330
1F
100
AcDbEntity
  8
0-1_ピット
  6
Continuous
 62
     2
370
    13
100
AcDbCircle
 10
-1155.981138064174
 20
-660.0142776870186
 30
0.0
 40
9.9999991623131
100
AcDbArc
 50
180.0
 51
270.0
  0
ARC
  5
202
330
1F
100
AcDbEntity
  8
0-1_ピット
  6
Continuous
 62
     2
370
    13
100
AcDbCircle
 10
-115.9811710561499
 20
379.9856893210051
 30
0.0
 40
57.99999881435085
100
AcDbArc
 50
0.0
 51
90.0
  0
ARC
  5
203
330
1F
100
AcDbEntity
  8
0-1_ピット
  6
Continuous
 62
     2
370
    13
100
AcDbCircle
 10
-115.9811710561499
 20
379.9856893210051
 30
0.0
 40
59.99999690700222
100
AcDbArc
 50
0.0
 51
90.0
  0
ARC
  5
204
330
1F
100
AcDbEntity
  8
0-1_ピット
  6
Continuous
 62
     2
370
    13
100
AcDbCircle
 10
-115.9811710561501
 20
-660.0140921071513
 30
0.0
 40
57.99999881435085
100
AcDbArc
 50
270.0
 51
0.0
  0
ARC
  5
205
330
1F
100
AcDbEntity
  8
0-1_ピット
  6
Continuous
 62
     2
370
    13
100
AcDbCircle
 10
-115.9811710561501
 20
-660.0140921071513
 30
0.0
 40
59.99999690700222
100
AcDbArc
 50
270.0
 51
0.0
  0
ARC
  5
206
330
1F
100
AcDbEntity
  8
0-1_ピット
  6
Continuous
 62
     2
370
    13
100
AcDbCircle
 10
-115.9810473362388
 20
-660.0142776870186
 30
0.0
 40
9.9999991623131
100
AcDbArc
 50
270.0
 51
0.0
  0
CIRCLE
  5
207
330
1F
100
AcDbEntity
  8
0-0_通り芯
  6
Continuous
 62
     3
370
    13
100
AcDbCircle
 10
-1060.981072080221
 20
284.9857470569646
 30
0.0
 40
41.999998608151
  0
CIRCLE
  5
208
330
1F
100
AcDbEntity
  8
0-0_通り芯
  6
Continuous
 62
     3
370
    13
100
AcDbCircle
 10
-1060.981072080221
 20
284.9857470569646
 30
0.0
 40
43.99999670080237
  0
CIRCLE
  5
209
330
1F
100
AcDbEntity
  8
0-0_通り芯
  6
Continuous
 62
     3
370
    13
100
AcDbCircle
 10
-1060.981072080221
 20
284.9857470569646
 30
0.0
 40
38.99999953605033
  0
ARC
  5
20A
330
1F
100
AcDbEntity
  8
0-0_通り芯
  6
Continuous
 62
     3
370
    13
100
AcDbCircle
 10
-1146.981256835289
 20
370.9858080921208
 30
0.0
 40
13.99999921386306
100
AcDbArc
 50
90.0
 51
180.0
  0
ARC
  5
20B
330
1F
100
AcDbEntity
  8
0-0_通り芯
  6
Continuous
 62
     3
370
    13
100
AcDbCircle
 10
-924.0105108207194
 20
324.9857553049583
 30
0.0
 40
11.99999918808808
100
AcDbArc
 50
90.0
 51
134.9993286132812
  0
ARC
  5
20C
330
1F
100
AcDbEntity
  8
0-0_通り芯
  6
Continuous
 62
     3
370
    13
100
AcDbCircle
 10
-1100.981204048127
 20
148.0151857974624
 30
0.0
 40
11.99999918808808
100
AcDbArc
 50
135.0006713867188
 51
180.0
  0
ARC
  5
20D
330
1F
100
AcDbEntity
  8
0-0_通り芯
  6
Continuous
 62
     3
370
    13
100
AcDbCircle
 10
-821.9809269155252
 20
45.98572561217907
 30
0.0
 40
7.999999619819023
100
AcDbArc
 50
270.0
 51
0.0
  0
ARC
  5
20E
330
1F
100
AcDbEntity
  8
0-0_通り芯
  6
Continuous
 62
     3
370
    13
100
AcDbCircle
 10
-789.9812667328815
 20
45.98572561217907
 30
0.0
 40
7.999999619819023
100
AcDbArc
 50
180.0
 51
270.0
  0
ARC
  5
20F
330
1F
100
AcDbEntity
  8
0-0_通り芯
  6
Continuous
 62
     3
370
    13
100
AcDbCircle
 10
-789.9812667328815
 20
13.98594170962497
 30
0.0
 40
7.999999619819023
100
AcDbArc
 50
90.0
 51
180.0
  0
ARC
  5
210
330
1F
100
AcDbEntity
  8
0-0_通り芯
  6
Continuous
 62
     3
370
    13
100
AcDbCircle
 10
-821.9809269155252
 20
13.98594170962497
 30
0.0
 40
7.999999619819023
100
AcDbArc
 50
0.0
 51
90.0
  0
ARC
  5
211
330
1F
100
AcDbEntity
  8
0-0_通り芯
  6
Continuous
 62
     3
370
    13
100
AcDbCircle
 10
-789.9812667328815
 20
45.98572561217907
 30
0.0
 40
9.9999991623131
100
AcDbArc
 50
180.0
 51
270.0
  0
ARC
  5
212
330
1F
100
AcDbEntity
  8
0-0_通り芯
  6
Continuous
 62
     3
370
    13
100
AcDbCircle
 10
-789.9812667328815
 20
13.98594170962497
 30
0.0
 40
9.9999991623131
100
AcDbArc
 50
90.0
 51
180.0
  0
ARC
  5
213
330
1F
100
AcDbEntity
  8
0-0_通り芯
  6
Continuous
 62
     3
370
    13
100
AcDbCircle
 10
-821.9809269155252
 20
13.98594170962497
 30
0.0
 40
9.9999991623131
100
AcDbArc
 50
0.0
 51
90.0
  0
ARC
  5
214
330
1F
100
AcDbEntity
  8
0-0_通り芯
  6
Continuous
 62
     3
370
    13
100
AcDbCircle
 10
-821.9809269155252
 20
45.98572561217907
 30
0.0
 40
9.9999991623131
100
AcDbArc
 50
270.0
 51
0.0
  0
ARC
  5
215
330
1F
100
AcDbEntity
  8
0-0_通り芯
  6
Continuous
 62
     3
370
    13
100
AcDbCircle
 10
-651.9808609315726
 20
13.98594170962497
 30
0.0
 40
9.9999991623131
100
AcDbArc
 50
0.0
 51
90.0
  0
ARC
  5
216
330
1F
100
AcDbEntity
  8
0-0_通り芯
  6
Continuous
 62
     3
370
    13
100
AcDbCircle
 10
-651.9808609315726
 20
45.98572561217907
 30
0.0
 40
9.9999991623131
100
AcDbArc
 50
270.0
 51
0.0
  0
ARC
  5
217
330
1F
100
AcDbEntity
  8
0-0_通り芯
  6
Continuous
 62
     3
370
    13
100
AcDbCircle
 10
-651.9808609315726
 20
45.98572561217907
 30
0.0
 40
7.999999619819023
100
AcDbArc
 50
270.0
 51
0.0
  0
ARC
  5
218
330
1F
100
AcDbEntity
  8
0-0_通り芯
  6
Continuous
 62
     3
370
    13
100
AcDbCircle
 10
-651.9808609315726
 20
13.98594170962497
 30
0.0
 40
7.999999619819023
100
AcDbArc
 50
0.0
 51
90.0
  0
ARC
  5
219
330
1F
100
AcDbEntity
  8
0-0_通り芯
  6
Continuous
 62
     3
370
    13
100
AcDbCircle
 10
-651.9808609315726
 20
-124.014340371773
 30
0.0
 40
7.999999619819023
100
AcDbArc
 50
270.0
 51
0.0
  0
ARC
  5
21A
330
1F
100
AcDbEntity
  8
0-0_通り芯
  6
Continuous
 62
     3
370
    13
100
AcDbCircle
 10
-651.9808609315726
 20
-124.014340371773
 30
0.0
 40
9.9999991623131
100
AcDbArc
 50
270.0
 51
0.0
  0
ARC
  5
21B
330
1F
100
AcDbEntity
  8
0-0_通り芯
  6
Continuous
 62
     3
370
    13
100
AcDbCircle
 10
-789.9812667328815
 20
-124.014340371773
 30
0.0
 40
9.9999991623131
100
AcDbArc
 50
180.0
 51
270.0
  0
ARC
  5
21C
330
1F
100
AcDbEntity
  8
0-0_通り芯
  6
Continuous
 62
     3
370
    13
100
AcDbCircle
 10
-821.9809269155252
 20
-124.014340371773
 30
0.0
 40
9.9999991623131
100
AcDbArc
 50
270.0
 51
0.0
  0
ARC
  5
21D
330
1F
100
AcDbEntity
  8
0-0_通り芯
  6
Continuous
 62
     3
370
    13
100
AcDbCircle
 10
-821.9809269155252
 20
-124.014340371773
 30
0.0
 40
7.999999619819023
100
AcDbArc
 50
270.0
 51
0.0
  0
ARC
  5
21E
330
1F
100
AcDbEntity
  8
0-0_通り芯
  6
Continuous
 62
     3
370
    13
100
AcDbCircle
 10
-789.9812667328815
 20
-124.014340371773
 30
0.0
 40
7.999999619819023
100
AcDbArc
 50
180.0
 51
270.0
  0
CIRCLE
  5
21F
330
1F
100
AcDbEntity
  8
0-0_通り芯
  6
Continuous
 62
     3
370
    13
100
AcDbCircle
 10
-210.9811133201916
 20
284.9857470569646
 30
0.0
 40
41.999998608151
  0
CIRCLE
  5
220
330
1F
100
AcDbEntity
  8
0-0_通り芯
  6
Continuous
 62
     3
370
    13
100
AcDbCircle
 10
-210.9811133201916
 20
284.9857470569646
 30
0.0
 40
43.99999670080237
  0
CIRCLE
  5
221
330
1F
100
AcDbEntity
  8
0-0_通り芯
  6
Continuous
 62
     3
370
    13
100
AcDbCircle
 10
-210.9811133201916
 20
284.9857470569646
 30
0.0
 40
38.99999953605033
  0
ARC
  5
222
330
1F
100
AcDbEntity
  8
0-0_通り芯
  6
Continuous
 62
     3
370
    13
100
AcDbCircle
 10
-124.9810522850353
 20
370.9858080921208
 30
0.0
 40
13.99999921386306
100
AcDbArc
 50
0.0
 51
90.0
  0
ARC
  5
223
330
1F
100
AcDbEntity
  8
0-0_通り芯
  6
Continuous
 62
     3
370
    13
100
AcDbCircle
 10
-347.9517982996044
 20
324.9857553049583
 30
0.0
 40
11.99999918808808
100
AcDbArc
 50
45.00067138671874
 51
90.0
  0
ARC
  5
224
330
1F
100
AcDbEntity
  8
0-0_通り芯
  6
Continuous
 62
     3
370
    13
100
AcDbCircle
 10
-170.9812287921086
 20
148.0151857974624
 30
0.0
 40
11.99999918808808
100
AcDbArc
 50
0.0
 51
44.99932861328126
  0
ARC
  5
225
330
1F
100
AcDbEntity
  8
0-0_通り芯
  6
Continuous
 62
     3
370
    13
100
AcDbCircle
 10
-449.9811347649762
 20
45.98572561217907
 30
0.0
 40
7.999999619819023
100
AcDbArc
 50
180.0
 51
270.0
  0
ARC
  5
226
330
1F
100
AcDbEntity
  8
0-0_通り芯
  6
Continuous
 62
     3
370
    13
100
AcDbCircle
 10
-481.9810423874426
 20
45.98572561217907
 30
0.0
 40
7.999999619819023
100
AcDbArc
 50
270.0
 51
0.0
  0
ARC
  5
227
330
1F
100
AcDbEntity
  8
0-0_通り芯
  6
Continuous
 62
     3
370
    13
100
AcDbCircle
 10
-481.9810423874426
 20
13.98594170962497
 30
0.0
 40
7.999999619819023
100
AcDbArc
 50
0.0
 51
90.0
  0
ARC
  5
228
330
1F
100
AcDbEntity
  8
0-0_通り芯
  6
Continuous
 62
     3
370
    13
100
AcDbCircle
 10
-449.9811347649762
 20
13.98594170962497
 30
0.0
 40
7.999999619819023
100
AcDbArc
 50
90.0
 51
180.0
  0
ARC
  5
229
330
1F
100
AcDbEntity
  8
0-0_通り芯
  6
Continuous
 62
     3
370
    13
100
AcDbCircle
 10
-481.9810423874426
 20
45.98572561217907
 30
0.0
 40
9.9999991623131
100
AcDbArc
 50
270.0
 51
0.0
  0
ARC
  5
22A
330
1F
100
AcDbEntity
  8
0-0_通り芯
  6
Continuous
 62
     3
370
    13
100
AcDbCircle
 10
-481.9810423874426
 20
13.98594170962497
 30
0.0
 40
9.9999991623131
100
AcDbArc
 50
0.0
 51
90.0
  0
ARC
  5
22B
330
1F
100
AcDbEntity
  8
0-0_通り芯
  6
Continuous
 62
     3
370
    13
100
AcDbCircle
 10
-449.9811347649762
 20
13.98594170962497
 30
0.0
 40
9.9999991623131
100
AcDbArc
 50
90.0
 51
180.0
  0
ARC
  5
22C
330
1F
100
AcDbEntity
  8
0-0_通り芯
  6
Continuous
 62
     3
370
    13
100
AcDbCircle
 10
-449.9811347649762
 20
45.98572561217907
 30
0.0
 40
9.9999991623131
100
AcDbArc
 50
180.0
 51
270.0
  0
ARC
  5
22D
330
1F
100
AcDbEntity
  8
0-0_通り芯
  6
Continuous
 62
     3
370
    13
100
AcDbCircle
 10
-619.981200748929
 20
13.98594170962497
 30
0.0
 40
9.9999991623131
100
AcDbArc
 50
90.0
 51
180.0
  0
ARC
  5
22E
330
1F
100
AcDbEntity
  8
0-0_通り芯
  6
Continuous
 62
     3
370
    13
100
AcDbCircle
 10
-619.981200748929
 20
45.98572561217907
 30
0.0
 40
9.9999991623131
100
AcDbArc
 50
180.0
 51
270.0
  0
ARC
  5
22F
330
1F
100
AcDbEntity
  8
0-0_通り芯
  6
Continuous
 62
     3
370
    13
100
AcDbCircle
 10
-619.981200748929
 20
45.98572561217907
 30
0.0
 40
7.999999619819023
100
AcDbArc
 50
180.0
 51
270.0
  0
ARC
  5
230
330
1F
100
AcDbEntity
  8
0-0_通り芯
  6
Continuous
 62
     3
370
    13
100
AcDbCircle
 10
-619.981200748929
 20
13.98594170962497
 30
0.0
 40
7.999999619819023
100
AcDbArc
 50
90.0
 51
180.0
  0
ARC
  5
231
330
1F
100
AcDbEntity
  8
0-0_通り芯
  6
Continuous
 62
     3
370
    13
100
AcDbCircle
 10
-619.981200748929
 20
-124.014340371773
 30
0.0
 40
7.999999619819023
100
AcDbArc
 50
180.0
 51
270.0
  0
ARC
  5
232
330
1F
100
AcDbEntity
  8
0-0_通り芯
  6
Continuous
 62
     3
370
    13
100
AcDbCircle
 10
-619.981200748929
 20
-124.014340371773
 30
0.0
 40
9.9999991623131
100
AcDbArc
 50
180.0
 51
270.0
  0
ARC
  5
233
330
1F
100
AcDbEntity
  8
0-0_通り芯
  6
Continuous
 62
     3
370
    13
100
AcDbCircle
 10
-481.9810423874426
 20
-124.014340371773
 30
0.0
 40
9.9999991623131
100
AcDbArc
 50
270.0
 51
0.0
  0
ARC
  5
234
330
1F
100
AcDbEntity
  8
0-0_通り芯
  6
Continuous
 62
     3
370
    13
100
AcDbCircle
 10
-449.9811347649762
 20
-124.014340371773
 30
0.0
 40
9.9999991623131
100
AcDbArc
 50
180.0
 51
270.0
  0
ARC
  5
235
330
1F
100
AcDbEntity
  8
0-0_通り芯
  6
Continuous
 62
     3
370
    13
100
AcDbCircle
 10
-449.9811347649762
 20
-124.014340371773
 30
0.0
 40
7.999999619819023
100
AcDbArc
 50
180.0
 51
270.0
  0
ARC
  5
236
330
1F
100
AcDbEntity
  8
0-0_通り芯
  6
Continuous
 62
     3
370
    13
100
AcDbCircle
 10
-481.9810423874426
 20
-124.014340371773
 30
0.0
 40
7.999999619819023
100
AcDbArc
 50
270.0
 51
0.0
  0
ARC
  5
237
330
1F
100
AcDbEntity
  8
0-0_通り芯
  6
Continuous
 62
     3
370
    13
100
AcDbCircle
 10
-1146.981256835289
 20
-651.0142108782666
 30
0.0
 40
13.99999921386306
100
AcDbArc
 50
180.0
 51
270.0
  0
ARC
  5
238
330
1F
100
AcDbEntity
  8
0-0_通り芯
  6
Continuous
 62
     3
370
    13
100
AcDbCircle
 10
-821.9809269155252
 20
-326.0140665383699
 30
0.0
 40
7.999999619819023
100
AcDbArc
 50
0.0
 51
90.0
  0
ARC
  5
239
330
1F
100
AcDbEntity
  8
0-0_通り芯
  6
Continuous
 62
     3
370
    13
100
AcDbCircle
 10
-789.9812667328815
 20
-326.0140665383699
 30
0.0
 40
7.999999619819023
100
AcDbArc
 50
90.0
 51
180.0
  0
ARC
  5
23A
330
1F
100
AcDbEntity
  8
0-0_通り芯
  6
Continuous
 62
     3
370
    13
100
AcDbCircle
 10
-789.9812667328815
 20
-294.0144063557261
 30
0.0
 40
7.999999619819023
100
AcDbArc
 50
180.0
 51
270.0
  0
ARC
  5
23B
330
1F
100
AcDbEntity
  8
0-0_通り芯
  6
Continuous
 62
     3
370
    13
100
AcDbCircle
 10
-821.9809269155252
 20
-294.0144063557261
 30
0.0
 40
7.999999619819023
100
AcDbArc
 50
270.0
 51
0.0
  0
ARC
  5
23C
330
1F
100
AcDbEntity
  8
0-0_通り芯
  6
Continuous
 62
     3
370
    13
100
AcDbCircle
 10
-789.9812667328815
 20
-326.0140665383699
 30
0.0
 40
9.9999991623131
100
AcDbArc
 50
90.0
 51
180.0
  0
ARC
  5
23D
330
1F
100
AcDbEntity
  8
0-0_通り芯
  6
Continuous
 62
     3
370
    13
100
AcDbCircle
 10
-789.9812667328815
 20
-294.0144063557261
 30
0.0
 40
9.9999991623131
100
AcDbArc
 50
180.0
 51
270.0
  0
ARC
  5
23E
330
1F
100
AcDbEntity
  8
0-0_通り芯
  6
Continuous
 62
     3
370
    13
100
AcDbCircle
 10
-821.9809269155252
 20
-294.0144063557261
 30
0.0
 40
9.9999991623131
100
AcDbArc
 50
270.0
 51
0.0
  0
ARC
  5
23F
330
1F
100
AcDbEntity
  8
0-0_通り芯
  6
Continuous
 62
     3
370
    13
100
AcDbCircle
 10
-821.9809269155252
 20
-326.0140665383699
 30
0.0
 40
9.9999991623131
100
AcDbArc
 50
0.0
 51
90.0
  0
ARC
  5
240
330
1F
100
AcDbEntity
  8
0-0_通り芯
  6
Continuous
 62
     3
370
    13
100
AcDbCircle
 10
-651.9808609315726
 20
-294.0144063557261
 30
0.0
 40
9.9999991623131
100
AcDbArc
 50
270.0
 51
0.0
  0
ARC
  5
241
330
1F
100
AcDbEntity
  8
0-0_通り芯
  6
Continuous
 62
     3
370
    13
100
AcDbCircle
 10
-651.9808609315726
 20
-326.0140665383699
 30
0.0
 40
9.9999991623131
100
AcDbArc
 50
0.0
 51
90.0
  0
ARC
  5
242
330
1F
100
AcDbEntity
  8
0-0_通り芯
  6
Continuous
 62
     3
370
    13
100
AcDbCircle
 10
-651.9808609315726
 20
-326.0140665383699
 30
0.0
 40
7.999999619819023
100
AcDbArc
 50
0.0
 51
90.0
  0
ARC
  5
243
330
1F
100
AcDbEntity
  8
0-0_通り芯
  6
Continuous
 62
     3
370
    13
100
AcDbCircle
 10
-651.9808609315726
 20
-294.0144063557261
 30
0.0
 40
7.999999619819023
100
AcDbArc
 50
270.0
 51
0.0
  0
ARC
  5
244
330
1F
100
AcDbEntity
  8
0-0_通り芯
  6
Continuous
 62
     3
370
    13
100
AcDbCircle
 10
-651.9808609315726
 20
-156.0141242743282
 30
0.0
 40
7.999999619819023
100
AcDbArc
 50
0.0
 51
90.0
  0
ARC
  5
245
330
1F
100
AcDbEntity
  8
0-0_通り芯
  6
Continuous
 62
     3
370
    13
100
AcDbCircle
 10
-651.9808609315726
 20
-156.0141242743282
 30
0.0
 40
9.9999991623131
100
AcDbArc
 50
0.0
 51
90.0
  0
ARC
  5
246
330
1F
100
AcDbEntity
  8
0-0_通り芯
  6
Continuous
 62
     3
370
    13
100
AcDbCircle
 10
-789.9812667328815
 20
-156.0141242743282
 30
0.0
 40
9.9999991623131
100
AcDbArc
 50
90.0
 51
180.0
  0
ARC
  5
247
330
1F
100
AcDbEntity
  8
0-0_通り芯
  6
Continuous
 62
     3
370
    13
100
AcDbCircle
 10
-821.9809269155252
 20
-156.0141242743282
 30
0.0
 40
9.9999991623131
100
AcDbArc
 50
0.0
 51
90.0
  0
ARC
  5
248
330
1F
100
AcDbEntity
  8
0-0_通り芯
  6
Continuous
 62
     3
370
    13
100
AcDbCircle
 10
-821.9809269155252
 20
-156.0141242743282
 30
0.0
 40
7.999999619819023
100
AcDbArc
 50
0.0
 51
90.0
  0
ARC
  5
249
330
1F
100
AcDbEntity
  8
0-0_通り芯
  6
Continuous
 62
     3
370
    13
100
AcDbCircle
 10
-789.9812667328815
 20
-156.0141242743282
 30
0.0
 40
7.999999619819023
100
AcDbArc
 50
90.0
 51
180.0
  0
ARC
  5
24A
330
1F
100
AcDbEntity
  8
0-0_通り芯
  6
Continuous
 62
     3
370
    13
100
AcDbCircle
 10
-124.9810522850353
 20
-651.0142108782666
 30
0.0
 40
13.99999921386306
100
AcDbArc
 50
270.0
 51
0.0
  0
ARC
  5
24B
330
1F
100
AcDbEntity
  8
0-0_通り芯
  6
Continuous
 62
     3
370
    13
100
AcDbCircle
 10
-449.9811347649762
 20
-326.0140665383699
 30
0.0
 40
7.999999619819023
100
AcDbArc
 50
90.0
 51
180.0
  0
ARC
  5
24C
330
1F
100
AcDbEntity
  8
0-0_通り芯
  6
Continuous
 62
     3
370
    13
100
AcDbCircle
 10
-481.9810423874426
 20
-326.0140665383699
 30
0.0
 40
7.999999619819023
100
AcDbArc
 50
0.0
 51
90.0
  0
ARC
  5
24D
330
1F
100
AcDbEntity
  8
0-0_通り芯
  6
Continuous
 62
     3
370
    13
100
AcDbCircle
 10
-481.9810423874426
 20
-294.0144063557261
 30
0.0
 40
7.999999619819023
100
AcDbArc
 50
270.0
 51
0.0
  0
ARC
  5
24E
330
1F
100
AcDbEntity
  8
0-0_通り芯
  6
Continuous
 62
     3
370
    13
100
AcDbCircle
 10
-449.9811347649762
 20
-294.0144063557261
 30
0.0
 40
7.999999619819023
100
AcDbArc
 50
180.0
 51
270.0
  0
ARC
  5
24F
330
1F
100
AcDbEntity
  8
0-0_通り芯
  6
Continuous
 62
     3
370
    13
100
AcDbCircle
 10
-481.9810423874426
 20
-326.0140665383699
 30
0.0
 40
9.9999991623131
100
AcDbArc
 50
0.0
 51
90.0
  0
ARC
  5
250
330
1F
100
AcDbEntity
  8
0-0_通り芯
  6
Continuous
 62
     3
370
    13
100
AcDbCircle
 10
-481.9810423874426
 20
-294.0144063557261
 30
0.0
 40
9.9999991623131
100
AcDbArc
 50
270.0
 51
0.0
  0
ARC
  5
251
330
1F
100
AcDbEntity
  8
0-0_通り芯
  6
Continuous
 62
     3
370
    13
100
AcDbCircle
 10
-449.9811347649762
 20
-294.0144063557261
 30
0.0
 40
9.9999991623131
100
AcDbArc
 50
180.0
 51
270.0
  0
ARC
  5
252
330
1F
100
AcDbEntity
  8
0-0_通り芯
  6
Continuous
 62
     3
370
    13
100
AcDbCircle
 10
-449.9811347649762
 20
-326.0140665383699
 30
0.0
 40
9.9999991623131
100
AcDbArc
 50
90.0
 51
180.0
  0
ARC
  5
253
330
1F
100
AcDbEntity
  8
0-0_通り芯
  6
Continuous
 62
     3
370
    13
100
AcDbCircle
 10
-619.981200748929
 20
-294.0144063557261
 30
0.0
 40
9.9999991623131
100
AcDbArc
 50
180.0
 51
270.0
  0
ARC
  5
254
330
1F
100
AcDbEntity
  8
0-0_通り芯
  6
Continuous
 62
     3
370
    13
100
AcDbCircle
 10
-619.981200748929
 20
-326.0140665383699
 30
0.0
 40
9.9999991623131
100
AcDbArc
 50
90.0
 51
180.0
  0
ARC
  5
255
330
1F
100
AcDbEntity
  8
0-0_通り芯
  6
Continuous
 62
     3
370
    13
100
AcDbCircle
 10
-619.981200748929
 20
-326.0140665383699
 30
0.0
 40
7.999999619819023
100
AcDbArc
 50
90.0
 51
180.0
  0
ARC
  5
256
330
1F
100
AcDbEntity
  8
0-0_通り芯
  6
Continuous
 62
     3
370
    13
100
AcDbCircle
 10
-619.981200748929
 20
-294.0144063557261
 30
0.0
 40
7.999999619819023
100
AcDbArc
 50
180.0
 51
270.0
  0
ARC
  5
257
330
1F
100
AcDbEntity
  8
0-0_通り芯
  6
Continuous
 62
     3
370
    13
100
AcDbCircle
 10
-619.981200748929
 20
-156.0141242743282
 30
0.0
 40
7.999999619819023
100
AcDbArc
 50
90.0
 51
180.0
  0
ARC
  5
258
330
1F
100
AcDbEntity
  8
0-0_通り芯
  6
Continuous
 62
     3
370
    13
100
AcDbCircle
 10
-619.981200748929
 20
-156.0141242743282
 30
0.0
 40
9.9999991623131
100
AcDbArc
 50
90.0
 51
180.0
  0
ARC
  5
259
330
1F
100
AcDbEntity
  8
0-0_通り芯
  6
Continuous
 62
     3
370
    13
100
AcDbCircle
 10
-481.9810423874426
 20
-156.0141242743282
 30
0.0
 40
9.9999991623131
100
AcDbArc
 50
0.0
 51
90.0
  0
ARC
  5
25A
330
1F
100
AcDbEntity
  8
0-0_通り芯
  6
Continuous
 62
     3
370
    13
100
AcDbCircle
 10
-449.9811347649762
 20
-156.0141242743282
 30
0.0
 40
9.9999991623131
100
AcDbArc
 50
90.0
 51
180.0
  0
ARC
  5
25B
330
1F
100
AcDbEntity
  8
0-0_通り芯
  6
Continuous
 62
     3
370
    13
100
AcDbCircle
 10
-449.9811347649762
 20
-156.0141242743282
 30
0.0
 40
7.999999619819023
100
AcDbArc
 50
90.0
 51
180.0
  0
ARC
  5
25C
330
1F
100
AcDbEntity
  8
0-0_通り芯
  6
Continuous
 62
     3
370
    13
100
AcDbCircle
 10
-481.9810423874426
 20
-156.0141242743282
 30
0.0
 40
7.999999619819023
100
AcDbArc
 50
0.0
 51
90.0
  0
ARC
  5
25D
330
1F
100
AcDbEntity
  8
0-0_通り芯
  6
Continuous
 62
     3
370
    13
100
AcDbCircle
 10
-1100.981204048127
 20
-605.0141580911043
 30
0.0
 40
11.99999918808808
100
AcDbArc
 50
180.0
 51
270.0
  0
ARC
  5
25E
330
1F
100
AcDbEntity
  8
0-0_通り芯
  6
Continuous
 62
     3
370
    13
100
AcDbCircle
 10
-170.9812287921086
 20
-605.0141580911045
 30
0.0
 40
11.99999918808808
100
AcDbArc
 50
270.0
 51
0.0
  0
ARC
  5
25F
330
1F
100
AcDbEntity
  8
0-1_ピット
  6
Continuous
 62
     2
370
    13
100
AcDbCircle
 10
-115.9810473362388
 20
379.9858130409166
 30
0.0
 40
9.9999991623131
100
AcDbArc
 50
0.0
 51
90.0
  0
ARC
  5
260
330
1F
100
AcDbEntity
  8
0-1_ピット
  6
Continuous
 62
     2
370
    13
100
AcDbCircle
 10
-1155.981138064174
 20
-660.0142776870186
 30
0.0
 40
27.99995783213023
100
AcDbArc
 50
180.0
 51
270.0
  0
ARC
  5
261
330
1F
100
AcDbEntity
  8
0-1_ピット
  6
Continuous
 62
     2
370
    13
100
AcDbCircle
 10
-115.9810473362388
 20
-660.0142776870186
 30
0.0
 40
27.99995783213023
100
AcDbArc
 50
270.0
 51
0.0
  0
ARC
  5
262
330
1F
100
AcDbEntity
  8
0-0_通り芯
  6
Continuous
 62
     3
370
    13
100
AcDbCircle
 10
-350.0869565291232
 20
320.0498257230322
 30
0.0
 40
11.99999918808808
100
AcDbArc
 50
45.00033569335937
 51
90.0
  0
ARC
  5
263
330
1F
100
AcDbEntity
  8
0-0_通り芯
  6
Continuous
 62
     3
370
    13
100
AcDbCircle
 10
-175.9171583740345
 20
145.8800275679437
 30
0.0
 40
11.99999918808808
100
AcDbArc
 50
0.0
 51
44.99966430664062
  0
ARC
  5
264
330
1F
100
AcDbEntity
  8
0-1_ピット
  6
Continuous
 62
     2
370
    13
100
AcDbCircle
 10
-115.9810473362388
 20
379.9858130409166
 30
0.0
 40
21.99999835040119
100
AcDbArc
 50
0.0
 51
90.0
  0
ARC
  5
265
330
1F
100
AcDbEntity
  8
0-1_ピット
  6
Continuous
 62
     2
370
    13
100
AcDbCircle
 10
-1155.981138064174
 20
379.9858130409166
 30
0.0
 40
21.99999835040119
100
AcDbArc
 50
90.0
 51
180.0
  0
ARC
  5
266
330
1F
100
AcDbEntity
  8
0-1_ピット
  6
Continuous
 62
     2
370
    13
100
AcDbCircle
 10
-1221.981256835289
 20
209.9854996171416
 30
0.0
 40
14.99999922675056
100
AcDbArc
 50
0.0
 51
180.0
  0
ARC
  5
267
330
1F
100
AcDbEntity
  8
0-1_ピット
  6
Continuous
 62
     2
370
    13
100
AcDbCircle
 10
-1221.981256835289
 20
209.9854996171416
 30
0.0
 40
16.99999925252554
100
AcDbArc
 50
0.0
 51
180.0
  0
ARC
  5
268
330
1F
100
AcDbEntity
  8
0-1_ピット
  6
Continuous
 62
     2
370
    13
100
AcDbCircle
 10
-1221.981256835289
 20
189.9856810730108
 30
0.0
 40
14.99999922675056
100
AcDbArc
 50
180.0
 51
0.0
  0
ARC
  5
269
330
1F
100
AcDbEntity
  8
0-1_ピット
  6
Continuous
 62
     2
370
    13
100
AcDbCircle
 10
-1221.981256835289
 20
189.9856810730108
 30
0.0
 40
16.99999925252554
100
AcDbArc
 50
180.0
 51
0.0
  0
ARC
  5
26A
330
1F
100
AcDbEntity
  8
0-1_ピット
  6
Continuous
 62
     2
370
    13
100
AcDbCircle
 10
-1194.981118268988
 20
272.2312139594129
 30
0.0
 40
9.9999991623131
100
AcDbArc
 50
280.9848480224609
 51
0.0
  0
ARC
  5
26B
330
1F
100
AcDbEntity
  8
0-1_ピット
  6
Continuous
 62
     2
370
    13
100
AcDbCircle
 10
-1235.981154560162
 20
306.3909000737499
 30
0.0
 40
19.9999983246262
100
AcDbArc
 50
314.4093322753906
 51
0.0
  0
ARC
  5
26C
330
1F
100
AcDbEntity
  8
0-1_ピット
  6
Continuous
 62
     2
370
    13
100
AcDbCircle
 10
-1233.981098473802
 20
304.1509510793458
 30
0.0
 40
19.9999983246262
100
AcDbArc
 50
314.4097290039063
 51
0.0000000000000568
  0
ARC
  5
26D
330
1F
100
AcDbEntity
  8
0-1_ピット
  6
Continuous
 62
     2
370
    13
100
AcDbCircle
 10
-1244.981035789047
 20
241.5803482499541
 30
0.0
 40
19.9999983246262
100
AcDbArc
 50
134.4093322753906
 51
180.0
  0
ARC
  5
26E
330
1F
100
AcDbEntity
  8
0-1_ピット
  6
Continuous
 62
     2
370
    13
100
AcDbCircle
 10
-1194.981118268988
 20
272.2312139594129
 30
0.0
 40
12.99999823441377
100
AcDbArc
 50
280.9848480224609
 51
322.2377319335938
  0
ARC
  5
26F
330
1F
100
AcDbEntity
  8
0-1_ピット
  6
Continuous
 62
     2
370
    13
100
AcDbCircle
 10
-1243.980884025956
 20
231.1418518922676
 30
0.0
 40
17.99999829885122
100
AcDbArc
 50
100.9843139648438
 51
180.0
  0
ARC
  5
270
330
1F
100
AcDbEntity
  8
0-1_ピット
  6
Continuous
 62
     2
370
    13
100
AcDbCircle
 10
-1243.980884025956
 20
231.1418518922676
 30
0.0
 40
21.00000123719912
100
AcDbArc
 50
100.9843139648438
 51
148.974365234375
  0
ARC
  5
271
330
1F
100
AcDbEntity
  8
0-1_ピット
  6
Continuous
 62
     2
370
    13
100
AcDbCircle
 10
-1244.981035789047
 20
241.5803482499541
 30
0.0
 40
16.99999731940192
100
AcDbArc
 50
134.4093322753906
 51
178.7012481689453
  0
ARC
  5
272
330
1F
100
AcDbEntity
  8
0-1_ピット
  6
Continuous
 62
     2
370
    13
100
AcDbCircle
 10
-1194.981118268988
 20
127.7402141705625
 30
0.0
 40
9.9999991623131
100
AcDbArc
 50
0.0
 51
79.01515197753906
  0
ARC
  5
273
330
1F
100
AcDbEntity
  8
0-1_ピット
  6
Continuous
 62
     2
370
    13
100
AcDbCircle
 10
-1235.981154560162
 20
93.58040433631345
 30
0.0
 40
19.9999983246262
100
AcDbArc
 50
0.0
 51
45.59066772460938
  0
ARC
  5
274
330
1F
100
AcDbEntity
  8
0-1_ピット
  6
Continuous
 62
     2
370
    13
100
AcDbCircle
 10
-1233.981098473802
 20
95.82047705062905
 30
0.0
 40
19.9999983246262
100
AcDbArc
 50
0.0
 51
45.59027099609375
  0
ARC
  5
275
330
1F
100
AcDbEntity
  8
0-1_ピット
  6
Continuous
 62
     2
370
    13
100
AcDbCircle
 10
-1244.981035789047
 20
158.3910798800213
 30
0.0
 40
19.9999983246262
100
AcDbArc
 50
180.0
 51
225.5906677246094
  0
ARC
  5
276
330
1F
100
AcDbEntity
  8
0-1_ピット
  6
Continuous
 62
     2
370
    13
100
AcDbCircle
 10
-1194.981118268988
 20
127.7402141705625
 30
0.0
 40
12.99999823441377
100
AcDbArc
 50
37.76226806640624
 51
79.01515197753906
  0
ARC
  5
277
330
1F
100
AcDbEntity
  8
0-1_ピット
  6
Continuous
 62
     2
370
    13
100
AcDbCircle
 10
-1243.980884025956
 20
168.8294525177957
 30
0.0
 40
17.99999829885122
100
AcDbArc
 50
180.0
 51
259.0156860351562
  0
ARC
  5
278
330
1F
100
AcDbEntity
  8
0-1_ピット
  6
Continuous
 62
     2
370
    13
100
AcDbCircle
 10
-1243.980884025956
 20
168.8294525177957
 30
0.0
 40
21.00000123719912
100
AcDbArc
 50
211.025634765625
 51
259.0156860351562
  0
ARC
  5
279
330
1F
100
AcDbEntity
  8
0-1_ピット
  6
Continuous
 62
     2
370
    13
100
AcDbCircle
 10
-1244.981035789047
 20
158.3910798800213
 30
0.0
 40
16.99999731940192
100
AcDbArc
 50
181.2987518310547
 51
225.5906677246094
  0
ARC
  5
27A
330
1F
100
AcDbEntity
  8
0-1_ピット
  6
Continuous
 62
     2
370
    13
100
AcDbCircle
 10
-1221.981256835289
 20
-490.0140879831542
 30
0.0
 40
14.99999922675056
100
AcDbArc
 50
180.0
 51
0.0
  0
ARC
  5
27B
330
1F
100
AcDbEntity
  8
0-1_ピット
  6
Continuous
 62
     2
370
    13
100
AcDbCircle
 10
-1221.981256835289
 20
-490.0140879831542
 30
0.0
 40
16.99999925252554
100
AcDbArc
 50
180.0
 51
0.0
  0
ARC
  5
27C
330
1F
100
AcDbEntity
  8
0-1_ピット
  6
Continuous
 62
     2
370
    13
100
AcDbCircle
 10
-1221.981256835289
 20
-470.0141457191125
 30
0.0
 40
14.99999922675056
100
AcDbArc
 50
0.0
 51
180.0
  0
ARC
  5
27D
330
1F
100
AcDbEntity
  8
0-1_ピット
  6
Continuous
 62
     2
370
    13
100
AcDbCircle
 10
-1221.981256835289
 20
-470.0141457191125
 30
0.0
 40
16.99999925252554
100
AcDbArc
 50
0.0
 51
180.0
  0
ARC
  5
27E
330
1F
100
AcDbEntity
  8
0-1_ピット
  6
Continuous
 62
     2
370
    13
100
AcDbCircle
 10
-1194.981118268988
 20
-552.2595548856041
 30
0.0
 40
9.9999991623131
100
AcDbArc
 50
0.0
 51
79.01515197753906
  0
ARC
  5
27F
330
1F
100
AcDbEntity
  8
0-1_ピット
  6
Continuous
 62
     2
370
    13
100
AcDbCircle
 10
-1235.981154560162
 20
-586.4193647198522
 30
0.0
 40
19.9999983246262
100
AcDbArc
 50
0.0
 51
45.59066772460938
  0
ARC
  5
280
330
1F
100
AcDbEntity
  8
0-1_ピット
  6
Continuous
 62
     2
370
    13
100
AcDbCircle
 10
-1233.981098473802
 20
-584.1792920055364
 30
0.0
 40
19.9999983246262
100
AcDbArc
 50
0.0
 51
45.59027099609375
  0
ARC
  5
281
330
1F
100
AcDbEntity
  8
0-1_ピット
  6
Continuous
 62
     2
370
    13
100
AcDbCircle
 10
-1244.981035789047
 20
-521.608689176144
 30
0.0
 40
19.9999983246262
100
AcDbArc
 50
180.0
 51
225.5906677246094
  0
ARC
  5
282
330
1F
100
AcDbEntity
  8
0-1_ピット
  6
Continuous
 62
     2
370
    13
100
AcDbCircle
 10
-1194.981118268988
 20
-552.2595548856041
 30
0.0
 40
12.99999823441377
100
AcDbArc
 50
37.76226806640624
 51
79.01515197753906
  0
ARC
  5
283
330
1F
100
AcDbEntity
  8
0-1_ピット
  6
Continuous
 62
     2
370
    13
100
AcDbCircle
 10
-1243.980884025956
 20
-511.1703165383699
 30
0.0
 40
17.99999829885122
100
AcDbArc
 50
180.0
 51
259.0156860351562
  0
ARC
  5
284
330
1F
100
AcDbEntity
  8
0-1_ピット
  6
Continuous
 62
     2
370
    13
100
AcDbCircle
 10
-1243.980884025956
 20
-511.1703165383699
 30
0.0
 40
21.00000123719912
100
AcDbArc
 50
211.025634765625
 51
259.0156860351562
  0
ARC
  5
285
330
1F
100
AcDbEntity
  8
0-1_ピット
  6
Continuous
 62
     2
370
    13
100
AcDbCircle
 10
-1244.981035789047
 20
-521.608689176144
 30
0.0
 40
16.99999731940192
100
AcDbArc
 50
181.2987518310547
 51
225.5906677246094
  0
ARC
  5
286
330
1F
100
AcDbEntity
  8
0-1_ピット
  6
Continuous
 62
     2
370
    13
100
AcDbCircle
 10
-1194.981118268988
 20
-407.7685550967522
 30
0.0
 40
9.9999991623131
100
AcDbArc
 50
280.9848480224609
 51
0.0
  0
ARC
  5
287
330
1F
100
AcDbEntity
  8
0-1_ピット
  6
Continuous
 62
     2
370
    13
100
AcDbCircle
 10
-1235.981154560162
 20
-373.6087452625043
 30
0.0
 40
19.9999983246262
100
AcDbArc
 50
314.4093322753906
 51
0.0
  0
ARC
  5
288
330
1F
100
AcDbEntity
  8
0-1_ピット
  6
Continuous
 62
     2
370
    13
100
AcDbCircle
 10
-1233.981098473802
 20
-375.8488179768199
 30
0.0
 40
19.9999983246262
100
AcDbArc
 50
314.4097290039063
 51
0.0000000000000568
  0
ARC
  5
289
330
1F
100
AcDbEntity
  8
0-1_ピット
  6
Continuous
 62
     2
370
    13
100
AcDbCircle
 10
-1244.981035789047
 20
-438.4194208062121
 30
0.0
 40
19.9999983246262
100
AcDbArc
 50
134.4093322753906
 51
180.0
  0
ARC
  5
28A
330
1F
100
AcDbEntity
  8
0-1_ピット
  6
Continuous
 62
     2
370
    13
100
AcDbCircle
 10
-1194.981118268988
 20
-407.7685550967522
 30
0.0
 40
12.99999823441377
100
AcDbArc
 50
280.9848480224609
 51
322.2377319335938
  0
ARC
  5
28B
330
1F
100
AcDbEntity
  8
0-1_ピット
  6
Continuous
 62
     2
370
    13
100
AcDbCircle
 10
-1243.980884025956
 20
-448.8577934439866
 30
0.0
 40
17.99999829885122
100
AcDbArc
 50
100.9843139648438
 51
180.0
  0
ARC
  5
28C
330
1F
100
AcDbEntity
  8
0-1_ピット
  6
Continuous
 62
     2
370
    13
100
AcDbCircle
 10
-1243.980884025956
 20
-448.8577934439866
 30
0.0
 40
21.00000123719912
100
AcDbArc
 50
100.9843139648438
 51
148.974365234375
  0
ARC
  5
28D
330
1F
100
AcDbEntity
  8
0-1_ピット
  6
Continuous
 62
     2
370
    13
100
AcDbCircle
 10
-1244.981035789047
 20
-438.4194208062121
 30
0.0
 40
16.99999731940192
100
AcDbArc
 50
134.4093322753906
 51
178.7012481689453
  0
ARC
  5
28E
330
1F
100
AcDbEntity
  8
0-1_ピット
  6
Continuous
 62
     2
370
    13
100
AcDbCircle
 10
-49.9810522850353
 20
-490.0140879831542
 30
0.0
 40
14.99999922675056
100
AcDbArc
 50
180.0
 51
0.0
  0
ARC
  5
28F
330
1F
100
AcDbEntity
  8
0-1_ピット
  6
Continuous
 62
     2
370
    13
100
AcDbCircle
 10
-49.9810522850353
 20
-490.0140879831542
 30
0.0
 40
16.99999925252554
100
AcDbArc
 50
180.0
 51
0.0
  0
ARC
  5
290
330
1F
100
AcDbEntity
  8
0-1_ピット
  6
Continuous
 62
     2
370
    13
100
AcDbCircle
 10
-49.9810522850353
 20
-470.0141457191125
 30
0.0
 40
14.99999922675056
100
AcDbArc
 50
0.0
 51
180.0
  0
ARC
  5
291
330
1F
100
AcDbEntity
  8
0-1_ピット
  6
Continuous
 62
     2
370
    13
100
AcDbCircle
 10
-49.9810522850353
 20
-470.0141457191125
 30
0.0
 40
16.99999925252554
100
AcDbArc
 50
0.0
 51
180.0
  0
ARC
  5
292
330
1F
100
AcDbEntity
  8
0-1_ピット
  6
Continuous
 62
     2
370
    13
100
AcDbCircle
 10
-76.98106713142434
 20
-552.2596786055149
 30
0.0
 40
9.9999991623131
100
AcDbArc
 50
100.9848480224609
 51
180.0
  0
ARC
  5
293
330
1F
100
AcDbEntity
  8
0-1_ピット
  6
Continuous
 62
     2
370
    13
100
AcDbCircle
 10
-35.98127828007332
 20
-586.4193647198524
 30
0.0
 40
19.9999983246262
100
AcDbArc
 50
134.4093322753906
 51
180.0
  0
ARC
  5
294
330
1F
100
AcDbEntity
  8
0-1_ピット
  6
Continuous
 62
     2
370
    13
100
AcDbCircle
 10
-37.98108692661057
 20
-584.1791682856251
 30
0.0
 40
19.9999983246262
100
AcDbArc
 50
134.4097290039062
 51
180.0
  0
ARC
  5
295
330
1F
100
AcDbEntity
  8
0-1_ピット
  6
Continuous
 62
     2
370
    13
100
AcDbCircle
 10
-26.98139705118816
 20
-521.608689176144
 30
0.0
 40
19.9999983246262
100
AcDbArc
 50
314.4093322753906
 51
0.0000000000000127
  0
ARC
  5
296
330
1F
100
AcDbEntity
  8
0-1_ピット
  6
Continuous
 62
     2
370
    13
100
AcDbCircle
 10
-76.98106713142434
 20
-552.2596786055149
 30
0.0
 40
12.99999823441377
100
AcDbArc
 50
100.9848480224609
 51
142.2377319335938
  0
ARC
  5
297
330
1F
100
AcDbEntity
  8
0-1_ピット
  6
Continuous
 62
     2
370
    13
100
AcDbCircle
 10
-27.98130137445693
 20
-511.1701928184584
 30
0.0
 40
17.99999829885122
100
AcDbArc
 50
280.9843139648438
 51
0.0000000000000254
  0
ARC
  5
298
330
1F
100
AcDbEntity
  8
0-1_ピット
  6
Continuous
 62
     2
370
    13
100
AcDbCircle
 10
-27.98130137445693
 20
-511.1701928184584
 30
0.0
 40
21.00000123719912
100
AcDbArc
 50
280.9843139648438
 51
328.974365234375
  0
ARC
  5
299
330
1F
100
AcDbEntity
  8
0-1_ピット
  6
Continuous
 62
     2
370
    13
100
AcDbCircle
 10
-26.98139705118816
 20
-521.608689176144
 30
0.0
 40
16.99999731940192
100
AcDbArc
 50
314.4093322753906
 51
358.7012481689454
  0
ARC
  5
29A
330
1F
100
AcDbEntity
  8
0-1_ピット
  6
Continuous
 62
     2
370
    13
100
AcDbCircle
 10
-76.98106713142434
 20
-407.7684313768412
 30
0.0
 40
9.9999991623131
100
AcDbArc
 50
180.0
 51
259.0151519775391
  0
ARC
  5
29B
330
1F
100
AcDbEntity
  8
0-1_ピット
  6
Continuous
 62
     2
370
    13
100
AcDbCircle
 10
-35.98127828007332
 20
-373.6087452625043
 30
0.0
 40
19.9999983246262
100
AcDbArc
 50
180.0
 51
225.5906677246094
  0
ARC
  5
29C
330
1F
100
AcDbEntity
  8
0-1_ピット
  6
Continuous
 62
     2
370
    13
100
AcDbCircle
 10
-37.98108692661057
 20
-375.8489416967313
 30
0.0
 40
19.9999983246262
100
AcDbArc
 50
180.0
 51
225.5902709960938
  0
ARC
  5
29D
330
1F
100
AcDbEntity
  8
0-1_ピット
  6
Continuous
 62
     2
370
    13
100
AcDbCircle
 10
-26.98139705118816
 20
-438.4194208062121
 30
0.0
 40
19.9999983246262
100
AcDbArc
 50
0.0
 51
45.59066772460938
  0
ARC
  5
29E
330
1F
100
AcDbEntity
  8
0-1_ピット
  6
Continuous
 62
     2
370
    13
100
AcDbCircle
 10
-76.98106713142434
 20
-407.7684313768412
 30
0.0
 40
12.99999823441377
100
AcDbArc
 50
217.7622680664062
 51
259.0151519775391
  0
ARC
  5
29F
330
1F
100
AcDbEntity
  8
0-1_ピット
  6
Continuous
 62
     2
370
    13
100
AcDbCircle
 10
-27.98130137445693
 20
-448.857917163898
 30
0.0
 40
17.99999829885122
100
AcDbArc
 50
0.0
 51
79.01568603515626
  0
ARC
  5
2A0
330
1F
100
AcDbEntity
  8
0-1_ピット
  6
Continuous
 62
     2
370
    13
100
AcDbCircle
 10
-27.98130137445693
 20
-448.857917163898
 30
0.0
 40
21.00000123719912
100
AcDbArc
 50
31.025634765625
 51
79.01568603515625
  0
ARC
  5
2A1
330
1F
100
AcDbEntity
  8
0-1_ピット
  6
Continuous
 62
     2
370
    13
100
AcDbCircle
 10
-26.98139705118816
 20
-438.4194208062121
 30
0.0
 40
16.99999731940192
100
AcDbArc
 50
1.298751831054688
 51
45.59066772460938
  0
ARC
  5
2A2
330
1F
100
AcDbEntity
  8
0-1_ピット
  6
Continuous
 62
     2
370
    13
100
AcDbCircle
 10
-49.9810522850353
 20
209.9854996171416
 30
0.0
 40
14.99999922675056
100
AcDbArc
 50
0.0
 51
180.0
  0
ARC
  5
2A3
330
1F
100
AcDbEntity
  8
0-1_ピット
  6
Continuous
 62
     2
370
    13
100
AcDbCircle
 10
-49.9810522850353
 20
209.9854996171416
 30
0.0
 40
16.99999925252554
100
AcDbArc
 50
0.0
 51
180.0
  0
ARC
  5
2A4
330
1F
100
AcDbEntity
  8
0-1_ピット
  6
Continuous
 62
     2
370
    13
100
AcDbCircle
 10
-49.9810522850353
 20
189.9856810730108
 30
0.0
 40
14.99999922675056
100
AcDbArc
 50
180.0
 51
0.0
  0
ARC
  5
2A5
330
1F
100
AcDbEntity
  8
0-1_ピット
  6
Continuous
 62
     2
370
    13
100
AcDbCircle
 10
-49.9810522850353
 20
189.9856810730108
 30
0.0
 40
16.99999925252554
100
AcDbArc
 50
180.0
 51
0.0
  0
ARC
  5
2A6
330
1F
100
AcDbEntity
  8
0-1_ピット
  6
Continuous
 62
     2
370
    13
100
AcDbCircle
 10
-76.98106713142434
 20
272.2312139594129
 30
0.0
 40
9.9999991623131
100
AcDbArc
 50
180.0
 51
259.0151519775391
  0
ARC
  5
2A7
330
1F
100
AcDbEntity
  8
0-1_ピット
  6
Continuous
 62
     2
370
    13
100
AcDbCircle
 10
-35.98127828007332
 20
306.3909000737499
 30
0.0
 40
19.9999983246262
100
AcDbArc
 50
180.0
 51
225.5906677246094
  0
ARC
  5
2A8
330
1F
100
AcDbEntity
  8
0-1_ピット
  6
Continuous
 62
     2
370
    13
100
AcDbCircle
 10
-37.98108692661057
 20
304.1509510793458
 30
0.0
 40
19.9999983246262
100
AcDbArc
 50
180.0
 51
225.5902709960938
  0
ARC
  5
2A9
330
1F
100
AcDbEntity
  8
0-1_ピット
  6
Continuous
 62
     2
370
    13
100
AcDbCircle
 10
-26.98139705118816
 20
241.5803482499541
 30
0.0
 40
19.9999983246262
100
AcDbArc
 50
0.0
 51
45.59066772460938
  0
ARC
  5
2AA
330
1F
100
AcDbEntity
  8
0-1_ピット
  6
Continuous
 62
     2
370
    13
100
AcDbCircle
 10
-76.98106713142434
 20
272.2312139594129
 30
0.0
 40
12.99999823441377
100
AcDbArc
 50
217.7622680664062
 51
259.0151519775391
  0
ARC
  5
2AB
330
1F
100
AcDbEntity
  8
0-1_ピット
  6
Continuous
 62
     2
370
    13
100
AcDbCircle
 10
-27.98130137445693
 20
231.1418518922676
 30
0.0
 40
17.99999829885122
100
AcDbArc
 50
0.0
 51
79.01568603515626
  0
ARC
  5
2AC
330
1F
100
AcDbEntity
  8
0-1_ピット
  6
Continuous
 62
     2
370
    13
100
AcDbCircle
 10
-27.98130137445693
 20
231.1418518922676
 30
0.0
 40
21.00000123719912
100
AcDbArc
 50
31.025634765625
 51
79.01568603515625
  0
ARC
  5
2AD
330
1F
100
AcDbEntity
  8
0-1_ピット
  6
Continuous
 62
     2
370
    13
100
AcDbCircle
 10
-26.98139705118816
 20
241.5803482499541
 30
0.0
 40
16.99999731940192
100
AcDbArc
 50
1.298751831054688
 51
45.59066772460938
  0
ARC
  5
2AE
330
1F
100
AcDbEntity
  8
0-1_ピット
  6
Continuous
 62
     2
370
    13
100
AcDbCircle
 10
-76.98106713142434
 20
127.7402141705625
 30
0.0
 40
9.9999991623131
100
AcDbArc
 50
100.9848480224609
 51
180.0
  0
ARC
  5
2AF
330
1F
100
AcDbEntity
  8
0-1_ピット
  6
Continuous
 62
     2
370
    13
100
AcDbCircle
 10
-35.98127828007332
 20
93.58040433631345
 30
0.0
 40
19.9999983246262
100
AcDbArc
 50
134.4093322753906
 51
180.0
  0
ARC
  5
2B0
330
1F
100
AcDbEntity
  8
0-1_ピット
  6
Continuous
 62
     2
370
    13
100
AcDbCircle
 10
-37.98108692661057
 20
95.82047705062905
 30
0.0
 40
19.9999983246262
100
AcDbArc
 50
134.4097290039062
 51
180.0
  0
ARC
  5
2B1
330
1F
100
AcDbEntity
  8
0-1_ピット
  6
Continuous
 62
     2
370
    13
100
AcDbCircle
 10
-26.98139705118816
 20
158.3910798800213
 30
0.0
 40
19.9999983246262
100
AcDbArc
 50
314.4093322753906
 51
0.0000000000000127
  0
ARC
  5
2B2
330
1F
100
AcDbEntity
  8
0-1_ピット
  6
Continuous
 62
     2
370
    13
100
AcDbCircle
 10
-76.98106713142434
 20
127.7402141705625
 30
0.0
 40
12.99999823441377
100
AcDbArc
 50
100.9848480224609
 51
142.2377319335938
  0
ARC
  5
2B3
330
1F
100
AcDbEntity
  8
0-1_ピット
  6
Continuous
 62
     2
370
    13
100
AcDbCircle
 10
-27.98130137445693
 20
168.8294525177957
 30
0.0
 40
17.99999829885122
100
AcDbArc
 50
280.9843139648438
 51
0.0000000000000254
  0
ARC
  5
2B4
330
1F
100
AcDbEntity
  8
0-1_ピット
  6
Continuous
 62
     2
370
    13
100
AcDbCircle
 10
-27.98130137445693
 20
168.8294525177957
 30
0.0
 40
21.00000123719912
100
AcDbArc
 50
280.9843139648438
 51
328.974365234375
  0
ARC
  5
2B5
330
1F
100
AcDbEntity
  8
0-1_ピット
  6
Continuous
 62
     2
370
    13
100
AcDbCircle
 10
-26.98139705118816
 20
158.3910798800213
 30
0.0
 40
16.99999731940192
100
AcDbArc
 50
314.4093322753906
 51
358.7012481689454
  0
ARC
  5
2B6
330
1F
100
AcDbEntity
  8
0-1_ピット
  6
Continuous
 62
     2
370
    13
100
AcDbCircle
 10
-115.9810473362388
 20
379.9858130409166
 30
0.0
 40
28.99999940717543
100
AcDbArc
 50
0.0
 51
90.0
  0
ARC
  5
2B7
330
1F
100
AcDbEntity
  8
0-1_ピット
  6
Continuous
 62
     2
370
    13
100
AcDbCircle
 10
-1155.981138064174
 20
379.9858130409166
 30
0.0
 40
28.99999940717543
100
AcDbArc
 50
90.0
 51
180.0
  0
ARC
  5
2B8
330
1F
100
AcDbEntity
  8
0-1_ピット
  6
Continuous
 62
     2
370
    13
100
AcDbCircle
 10
-108.9810984738022
 20
-673.0177352461399
 30
0.0
 40
21.99999835040119
100
AcDbArc
 50
270.0
 51
0.0
  0
ARC
  5
2B9
330
1F
100
AcDbEntity
  8
0-1_ピット
  6
Continuous
 62
     2
370
    13
100
AcDbCircle
 10
-1162.981210646522
 20
-673.0177352461399
 30
0.0
 40
21.99999835040119
100
AcDbArc
 50
180.0
 51
270.0
  0
ARC
  5
2BA
330
1F
100
AcDbEntity
  8
0-0_通り芯
  6
Continuous
 62
     3
370
    13
100
AcDbCircle
 10
-921.8753525912009
 20
320.0498257230322
 30
0.0
 40
11.99999918808808
100
AcDbArc
 50
90.0
 51
134.9993286132812
  0
ARC
  5
2BB
330
1F
100
AcDbEntity
  8
0-0_通り芯
  6
Continuous
 62
     3
370
    13
100
AcDbCircle
 10
-1096.045274466201
 20
145.8799038480322
 30
0.0
 40
11.99999918808808
100
AcDbArc
 50
135.0006713867188
 51
180.0
  0
ARC
  5
2BC
330
1F
100
AcDbEntity
  8
0-0_通り芯
  6
Continuous
 62
     3
370
    13
100
AcDbCircle
 10
-175.9171583740345
 20
-600.0782285091784
 30
0.0
 40
11.99999918808808
100
AcDbArc
 50
270.0
 51
0.0
  0
ARC
  5
2BD
330
1F
100
AcDbEntity
  8
0-0_通り芯
  6
Continuous
 62
     3
370
    13
100
AcDbCircle
 10
-1096.045274466201
 20
-600.0782285091784
 30
0.0
 40
11.99999918808808
100
AcDbArc
 50
180.0
 51
270.0
  0
LINE
  5
2BE
330
1F
100
AcDbEntity
  8
0-1_ピット
  6
Continuous
 62
     2
370
    13
100
AcDbLine
 10
-55.98122054411473
 20
-373.6087452625043
 30
0.0
 11
-55.98122054411473
 21
93.58040433631345
 31
0.0
  0
LINE
  5
2BF
330
1F
100
AcDbEntity
  8
0-1_ピット
  6
Continuous
 62
     2
370
    13
100
AcDbLine
 10
-57.98115291056316
 20
-375.8489416967313
 30
0.0
 11
-57.98115291056316
 21
95.82047705062905
 31
0.0
  0
LINE
  5
2C0
330
1F
100
AcDbEntity
  8
0-0_通り芯
  6
Continuous
 62
     3
370
    13
100
AcDbLine
 10
-924.0105108207194
 20
336.9858443832942
 30
0.0
 11
-347.9517982996044
 21
336.9858443832942
 31
0.0
  0
LINE
  5
2C1
330
1F
100
AcDbEntity
  8
0-0_通り芯
  6
Continuous
 62
     3
370
    13
100
AcDbLine
 10
-158.9811397137728
 20
148.0151857974624
 30
0.0
 11
-158.9811397137728
 21
-605.0141580911045
 31
0.0
  0
LINE
  5
2C2
330
1F
100
AcDbEntity
  8
0-0_通り芯
  6
Continuous
 62
     3
370
    13
100
AcDbLine
 10
-163.9170692956982
 20
-600.0782285091784
 30
0.0
 11
-163.9170692956982
 21
145.8800275679437
 31
0.0
  0
LINE
  5
2C3
330
1F
100
AcDbEntity
  8
0-4_寸法
  6
Continuous
 62
     7
370
    13
100
AcDbLine
 10
-1221.981256835289
 20
630.166398487496
 30
0.0
 11
-49.98105228503544
 21
630.166398487496
 31
0.0
  0
LINE
  5
2C4
330
1F
100
AcDbEntity
  8
0-4_寸法
  6
Continuous
 62
     7
370
    13
100
AcDbLine
 10
-1221.981256835289
 20
630.166398487496
 30
0.0
 11
-1197.195135300944
 21
633.4295532929974
 31
0.0
  0
LINE
  5
2C5
330
1F
100
AcDbEntity
  8
0-4_寸法
  6
Continuous
 62
     7
370
    13
100
AcDbLine
 10
-1221.981256835289
 20
630.166398487496
 30
0.0
 11
-1197.195135300944
 21
626.9032436819947
 31
0.0
  0
LINE
  5
2C6
330
1F
100
AcDbEntity
  8
0-4_寸法
  6
Continuous
 62
     7
370
    13
100
AcDbLine
 10
-49.98105228503544
 20
630.166398487496
 30
0.0
 11
-74.7671738193807
 21
633.4295532929974
 31
0.0
  0
LINE
  5
2C7
330
1F
100
AcDbEntity
  8
0-4_寸法
  6
Continuous
 62
     7
370
    13
100
AcDbLine
 10
-49.98105228503544
 20
630.166398487496
 30
0.0
 11
-74.7671738193807
 21
626.9032436819947
 31
0.0
  0
LINE
  5
2C8
330
1F
100
AcDbEntity
  8
0-4_寸法
  6
Continuous
 62
     7
370
    13
100
AcDbLine
 10
-1221.981256835289
 20
633.1663984874962
 30
0.0
 11
-1221.981256835289
 21
258.9965816219978
 31
0.0
  0
LINE
  5
2C9
330
1F
100
AcDbEntity
  8
0-4_寸法
  6
Continuous
 62
     7
370
    13
100
AcDbLine
 10
-49.98105228503544
 20
633.1663984874962
 30
0.0
 11
-49.98105228503544
 21
258.9965816219978
 31
0.0
  0
TEXT
  5
2CA
330
1F
100
AcDbEntity
  8
0-4_寸法
  6
Continuous
 62
     2
370
   211
100
AcDbText
 10
-668.4811545601623
 20
641.8063984874963
 30
0.0
 40
30.48
  1
586
 41
1.083333333333333
  7
ＭＳ ゴシック
100
AcDbText
  0
LINE
  5
2CB
330
1F
100
AcDbEntity
  8
0-4_寸法
  6
Continuous
 62
     7
370
    13
100
AcDbLine
 10
-1406.161723510754
 20
-726.0142727382222
 30
0.0
 11
-1406.161723510754
 21
445.9859318120311
 31
0.0
  0
LINE
  5
2CC
330
1F
100
AcDbEntity
  8
0-4_寸法
  6
Continuous
 62
     7
370
    13
100
AcDbLine
 10
-1406.161723510754
 20
-726.0142727382222
 30
0.0
 11
-1409.424878316255
 21
-701.2281512038769
 31
0.0
  0
LINE
  5
2CD
330
1F
100
AcDbEntity
  8
0-4_寸法
  6
Continuous
 62
     7
370
    13
100
AcDbLine
 10
-1406.161723510754
 20
-726.0142727382222
 30
0.0
 11
-1402.898568705252
 21
-701.2281512038769
 31
0.0
  0
LINE
  5
2CE
330
1F
100
AcDbEntity
  8
0-4_寸法
  6
Continuous
 62
     7
370
    13
100
AcDbLine
 10
-1406.161723510754
 20
445.9859318120311
 30
0.0
 11
-1409.424878316255
 21
421.1998102776863
 31
0.0
  0
LINE
  5
2CF
330
1F
100
AcDbEntity
  8
0-4_寸法
  6
Continuous
 62
     7
370
    13
100
AcDbLine
 10
-1406.161723510754
 20
445.9859318120311
 30
0.0
 11
-1402.898568705252
 21
421.1998102776863
 31
0.0
  0
LINE
  5
2D0
330
1F
100
AcDbEntity
  8
0-4_寸法
  6
Continuous
 62
     7
370
    13
100
AcDbLine
 10
-1409.161723510754
 20
-726.0142727382222
 30
0.0
 11
-1034.991906645255
 21
-726.0142727382222
 31
0.0
  0
LINE
  5
2D1
330
1F
100
AcDbEntity
  8
0-4_寸法
  6
Continuous
 62
     7
370
    13
100
AcDbLine
 10
-1409.161723510754
 20
445.9859318120311
 30
0.0
 11
-1034.991906645255
 21
445.9859318120311
 31
0.0
  0
TEXT
  5
2D2
330
1F
100
AcDbEntity
  8
0-4_寸法
  6
Continuous
 62
     2
370
   211
100
AcDbText
 10
-1417.801723510754
 20
-172.5141704630954
 30
0.0
 40
30.48
  1
586
 50
90.0
 41
1.083333333333333
  7
ＭＳ ゴシック
100
AcDbText
  0
LINE
  5
2D3
330
1F
100
AcDbEntity
  8
0-4_寸法
  6
Continuous
 62
     7
370
    13
100
AcDbLine
 10
-1340.233667859736
 20
-480.0140549911782
 30
0.0
 11
-1340.233667859736
 21
199.9857140649874
 31
0.0
  0
LINE
  5
2D4
330
1F
100
AcDbEntity
  8
0-4_寸法
  6
Continuous
 62
     7
370
    13
100
AcDbLine
 10
-1340.233667859736
 20
-480.0140549911782
 30
0.0
 11
-1343.496822665238
 21
-455.2279334568328
 31
0.0
  0
LINE
  5
2D5
330
1F
100
AcDbEntity
  8
0-4_寸法
  6
Continuous
 62
     7
370
    13
100
AcDbLine
 10
-1340.233667859736
 20
-480.0140549911782
 30
0.0
 11
-1336.970513054235
 21
-455.2279334568328
 31
0.0
  0
LINE
  5
2D6
330
1F
100
AcDbEntity
  8
0-4_寸法
  6
Continuous
 62
     7
370
    13
100
AcDbLine
 10
-1340.233667859736
 20
199.9857140649874
 30
0.0
 11
-1343.496822665238
 21
175.199592530642
 31
0.0
  0
LINE
  5
2D7
330
1F
100
AcDbEntity
  8
0-4_寸法
  6
Continuous
 62
     7
370
    13
100
AcDbLine
 10
-1340.233667859736
 20
199.9857140649874
 30
0.0
 11
-1336.970513054235
 21
175.199592530642
 31
0.0
  0
LINE
  5
2D8
330
1F
100
AcDbEntity
  8
0-4_寸法
  6
Continuous
 62
     7
370
    13
100
AcDbLine
 10
-1343.233667859736
 20
-480.0140549911782
 30
0.0
 11
-1270.358645454376
 21
-480.0140549911782
 31
0.0
  0
LINE
  5
2D9
330
1F
100
AcDbEntity
  8
0-4_寸法
  6
Continuous
 62
     7
370
    13
100
AcDbLine
 10
-1343.233667859736
 20
199.9857140649874
 30
0.0
 11
-1270.358645454376
 21
199.9857140649874
 31
0.0
  0
TEXT
  5
2DA
330
1F
100
AcDbEntity
  8
0-4_寸法
  6
Continuous
 62
     2
370
   211
100
AcDbText
 10
-1351.873667859736
 20
-172.5141704630954
 30
0.0
 40
30.48
  1
340
 50
90.0
 41
1.083333333333333
  7
ＭＳ ゴシック
100
AcDbText
  0
TEXT
  5
2DB
330
1F
100
AcDbEntity
  8
0-2_本体（蓋）
  6
Continuous
 62
     2
370
    13
100
AcDbText
 10
146.3784057980012
 20
560.0099081543286
 30
0.0
 40
30.48
  1
キャップ：クロロプレン
 41
1.113636363636364
  7
ＭＳ ゴシック
100
AcDbText
  0
LINE
  5
2DC
330
1F
100
AcDbEntity
  8
0-2_本体（蓋）
  6
Continuous
 62
     7
370
    13
100
AcDbLine
 10
142.4180654527732
 20
541.0556661779776
 30
0.0
 11
652.4798421912641
 21
541.0556661779776
 31
0.0
  0
LINE
  5
2DD
330
1F
100
AcDbEntity
  8
0-4_寸法
  6
Continuous
 62
     7
370
    13
100
AcDbLine
 10
652.4798421912641
 20
541.0556661779776
 30
0.0
 11
797.9545840563104
 21
284.9857470569646
 31
0.0
  0
LINE
  5
2DE
330
1F
100
AcDbEntity
  8
0-4_寸法
  6
Continuous
 62
     7
370
    13
100
AcDbLine
 10
797.9545840563104
 20
284.9857470569646
 30
0.0
 11
788.5485137085086
 21
308.1487745061605
 31
0.0
  0
LINE
  5
2DF
330
1F
100
AcDbEntity
  8
0-4_寸法
  6
Continuous
 62
     7
370
    13
100
AcDbLine
 10
797.9545840563104
 20
284.9857470569646
 30
0.0
 11
782.8739851373925
 21
304.9250433396003
 31
0.0
  0
LINE
  5
2E0
330
1F
100
AcDbEntity
  8
0-4_寸法
  6
Continuous
 62
     7
370
    13
100
AcDbLine
 10
793.9545956035023
 20
374.8563366878562
 30
0.0
 11
784.5484181858502
 21
398.0193022046427
 31
0.0
  0
LINE
  5
2E1
330
1F
100
AcDbEntity
  8
0-4_寸法
  6
Continuous
 62
     7
370
    13
100
AcDbLine
 10
793.9545956035023
 20
374.8563366878562
 30
0.0
 11
778.8738807333591
 21
394.7956561953521
 31
0.0
  0
LINE
  5
2E2
330
1F
100
AcDbEntity
  8
0-4_寸法
  6
Continuous
 62
     7
370
    13
100
AcDbLine
 10
-1112.98104568664
 20
71.63706242870018
 30
0.0
 11
-928.9810844348887
 21
71.63706242870018
 31
0.0
  0
LINE
  5
2E3
330
1F
100
AcDbEntity
  8
0-4_寸法
  6
Continuous
 62
     7
370
    13
100
AcDbLine
 10
-1112.98104568664
 20
71.63706242870018
 30
0.0
 11
-1088.194924152295
 21
74.90021723420145
 31
0.0
  0
LINE
  5
2E4
330
1F
100
AcDbEntity
  8
0-4_寸法
  6
Continuous
 62
     7
370
    13
100
AcDbLine
 10
-1112.98104568664
 20
71.63706242870018
 30
0.0
 11
-1088.194924152295
 21
68.37390762319887
 31
0.0
  0
LINE
  5
2E5
330
1F
100
AcDbEntity
  8
0-4_寸法
  6
Continuous
 62
     7
370
    13
100
AcDbLine
 10
-928.9810844348887
 20
71.63706242870018
 30
0.0
 11
-953.7672059692339
 21
74.90021723420145
 31
0.0
  0
LINE
  5
2E6
330
1F
100
AcDbEntity
  8
0-4_寸法
  6
Continuous
 62
     7
370
    13
100
AcDbLine
 10
-928.9810844348887
 20
71.63706242870018
 30
0.0
 11
-953.7672059692339
 21
68.37390762319887
 31
0.0
  0
LINE
  5
2E7
330
1F
100
AcDbEntity
  8
0-4_寸法
  6
Continuous
 62
     7
370
    13
100
AcDbLine
 10
-928.9810844348887
 20
68.63706242870018
 30
0.0
 11
-928.9810844348887
 21
316.9858443832942
 31
0.0
  0
TEXT
  5
2E8
330
1F
100
AcDbEntity
  8
0-4_寸法
  6
Continuous
 62
     2
370
   211
100
AcDbText
 10
-1042.231065060764
 20
83.27706242870016
 30
0.0
 40
30.48
  1
92
 41
1.0625
  7
ＭＳ ゴシック
100
AcDbText
  0
LINE
  5
2E9
330
1F
100
AcDbEntity
  8
0-4_寸法
  6
Continuous
 62
     7
370
    13
100
AcDbLine
 10
-840.9158410423463
 20
152.9857544974817
 30
0.0
 11
-840.9158410423463
 21
336.9858443832942
 31
0.0
  0
LINE
  5
2EA
330
1F
100
AcDbEntity
  8
0-4_寸法
  6
Continuous
 62
     7
370
    13
100
AcDbLine
 10
-840.9158410423463
 20
152.9857544974817
 30
0.0
 11
-844.1789958478477
 21
177.771876031827
 31
0.0
  0
LINE
  5
2EB
330
1F
100
AcDbEntity
  8
0-4_寸法
  6
Continuous
 62
     7
370
    13
100
AcDbLine
 10
-840.9158410423463
 20
152.9857544974817
 30
0.0
 11
-837.6526862368449
 21
177.771876031827
 31
0.0
  0
LINE
  5
2EC
330
1F
100
AcDbEntity
  8
0-4_寸法
  6
Continuous
 62
     7
370
    13
100
AcDbLine
 10
-840.9158410423463
 20
336.9858443832942
 30
0.0
 11
-844.1789958478477
 21
312.1997228489489
 31
0.0
  0
LINE
  5
2ED
330
1F
100
AcDbEntity
  8
0-4_寸法
  6
Continuous
 62
     7
370
    13
100
AcDbLine
 10
-840.9158410423463
 20
336.9858443832942
 30
0.0
 11
-837.6526862368449
 21
312.1997228489489
 31
0.0
  0
LINE
  5
2EE
330
1F
100
AcDbEntity
  8
0-4_寸法
  6
Continuous
 62
     7
370
    13
100
AcDbLine
 10
-837.9158410423463
 20
152.9857544974817
 30
0.0
 11
-1092.98104568664
 21
152.9857544974817
 31
0.0
  0
TEXT
  5
2EF
330
1F
100
AcDbEntity
  8
0-4_寸法
  6
Continuous
 62
     2
370
   211
100
AcDbText
 10
-852.5558410423462
 20
223.735799440388
 30
0.0
 40
30.48
  1
92
 50
90.0
 41
1.0625
  7
ＭＳ ゴシック
100
AcDbText
  0
LINE
  5
2F0
330
1F
100
AcDbEntity
  8
0-0_通り芯
  6
Continuous
 62
     3
370
    13
100
AcDbLine
 10
-1108.045116104714
 20
-600.0782285091784
 30
0.0
 11
-1108.045116104714
 21
60.41030006767102
 31
0.0
  0
LINE
  5
2F1
330
1F
100
AcDbEntity
  8
0-0_通り芯
  6
Continuous
 62
     3
370
    13
100
AcDbLine
 10
-1108.045116104714
 20
83.5599012093023
 30
0.0
 11
-1108.045116104714
 21
145.8799038480322
 31
0.0
  0
LINE
  5
2F2
330
1F
100
AcDbEntity
  8
0-0_通り芯
  6
Continuous
 62
     3
370
    13
100
AcDbLine
 10
-921.8753525912009
 20
332.0497910814572
 30
0.0
 11
-851.8350849671839
 21
332.0497910814572
 31
0.0
  0
LINE
  5
2F3
330
1F
100
AcDbEntity
  8
0-0_通り芯
  6
Continuous
 62
     3
370
    13
100
AcDbLine
 10
-832.5252194431098
 20
332.0497910814572
 30
0.0
 11
-350.0869565291232
 21
332.0497910814572
 31
0.0
  0
LINE
  5
2F4
330
1F
100
AcDbEntity
  8
0-4_寸法
  6
Continuous
 62
     7
370
    13
100
AcDbLine
 10
793.9545956035023
 20
615.0704796723876
 30
0.0
 11
1013.954702827425
 21
615.0704796723876
 31
0.0
  0
LINE
  5
2F5
330
1F
100
AcDbEntity
  8
0-4_寸法
  6
Continuous
 62
     7
370
    13
100
AcDbLine
 10
793.9545956035023
 20
615.0704796723876
 30
0.0
 11
818.7407171378476
 21
618.3336344778888
 31
0.0
  0
LINE
  5
2F6
330
1F
100
AcDbEntity
  8
0-4_寸法
  6
Continuous
 62
     7
370
    13
100
AcDbLine
 10
793.9545956035023
 20
615.0704796723876
 30
0.0
 11
818.7407171378476
 21
611.8073248668862
 31
0.0
  0
LINE
  5
2F7
330
1F
100
AcDbEntity
  8
0-4_寸法
  6
Continuous
 62
     7
370
    13
100
AcDbLine
 10
1013.954702827425
 20
615.0704796723876
 30
0.0
 11
989.16858129308
 21
618.3336344778888
 31
0.0
  0
LINE
  5
2F8
330
1F
100
AcDbEntity
  8
0-4_寸法
  6
Continuous
 62
     7
370
    13
100
AcDbLine
 10
1013.954702827425
 20
615.0704796723876
 30
0.0
 11
989.16858129308
 21
611.8073248668862
 31
0.0
  0
LINE
  5
2F9
330
1F
100
AcDbEntity
  8
0-4_寸法
  6
Continuous
 62
     7
370
    13
100
AcDbLine
 10
793.9545956035023
 20
618.0704796723875
 30
0.0
 11
793.9545956035023
 21
421.9858113913176
 31
0.0
  0
LINE
  5
2FA
330
1F
100
AcDbEntity
  8
0-4_寸法
  6
Continuous
 62
     7
370
    13
100
AcDbLine
 10
1013.954702827425
 20
618.0704796723875
 30
0.0
 11
1013.954702827425
 21
508.9857767497426
 31
0.0
  0
TEXT
  5
2FB
330
1F
100
AcDbEntity
  8
0-4_寸法
  6
Continuous
 62
     2
370
   211
100
AcDbText
 10
871.4546492154637
 20
626.7104796723876
 30
0.0
 40
30.48
  1
110
 41
1.083333333333333
  7
ＭＳ ゴシック
100
AcDbText
  0
LINE
  5
2FC
330
1F
100
AcDbEntity
  8
0-4_寸法
  6
Continuous
 62
     7
370
    13
100
AcDbLine
 10
793.9545956035021
 20
-546.7567567567567
 30
0.0
 11
1001.575253882269
 21
-546.7567567567567
 31
0.0
  0
LINE
  5
2FD
330
1F
100
AcDbEntity
  8
0-4_寸法
  6
Continuous
 62
     7
370
    13
100
AcDbLine
 10
793.9545956035021
 20
-546.7567567567567
 30
0.0
 11
818.7407171378472
 21
-543.4936019512554
 31
0.0
  0
LINE
  5
2FE
330
1F
100
AcDbEntity
  8
0-4_寸法
  6
Continuous
 62
     7
370
    13
100
AcDbLine
 10
793.9545956035021
 20
-546.7567567567567
 30
0.0
 11
818.7407171378472
 21
-550.019911562258
 31
0.0
  0
LINE
  5
2FF
330
1F
100
AcDbEntity
  8
0-4_寸法
  6
Continuous
 62
     7
370
    13
100
AcDbLine
 10
933.9545626115261
 20
-546.7567567567567
 30
0.0
 11
909.1684410771808
 21
-543.4936019512554
 31
0.0
  0
LINE
  5
300
330
1F
100
AcDbEntity
  8
0-4_寸法
  6
Continuous
 62
     7
370
    13
100
AcDbLine
 10
933.9545626115261
 20
-546.7567567567567
 30
0.0
 11
909.1684410771808
 21
-550.019911562258
 31
0.0
  0
TEXT
  5
301
330
1F
100
AcDbEntity
  8
0-4_寸法
  6
Continuous
 62
     2
370
   211
100
AcDbText
 10
842.7045791075141
 20
-535.1167567567567
 30
0.0
 40
30.48
  1
70
 41
1.0625
  7
ＭＳ ゴシック
100
AcDbText
  0
LINE
  5
302
330
1F
100
AcDbEntity
  8
0-4_寸法
  6
Continuous
 62
     7
370
    13
100
AcDbLine
 10
949.95464014267
 20
-546.7567567567567
 30
0.0
 11
974.7407616770153
 21
-543.4936019512554
 31
0.0
  0
LINE
  5
303
330
1F
100
AcDbEntity
  8
0-4_寸法
  6
Continuous
 62
     7
370
    13
100
AcDbLine
 10
949.95464014267
 20
-546.7567567567567
 30
0.0
 11
974.7407616770153
 21
-550.019911562258
 31
0.0
  0
LINE
  5
304
330
1F
100
AcDbEntity
  8
0-4_寸法
  6
Continuous
 62
     7
370
    13
100
AcDbLine
 10
933.9545440673828
 20
-546.7567567567567
 30
0.0
 11
909.1684225330375
 21
-543.4936019512554
 31
0.0
  0
LINE
  5
305
330
1F
100
AcDbEntity
  8
0-4_寸法
  6
Continuous
 62
     7
370
    13
100
AcDbLine
 10
933.9545440673828
 20
-546.7567567567567
 30
0.0
 11
909.1684225330375
 21
-550.019911562258
 31
0.0
  0
TEXT
  5
306
330
1F
100
AcDbEntity
  8
0-4_寸法
  6
Continuous
 62
     2
370
   211
100
AcDbText
 10
977.3642708315241
 20
-535.1167567567567
 30
0.0
 40
30.48
  1
8
 41
0.9999999999999998
  7
ＭＳ ゴシック
100
AcDbText
  0
LINE
  5
307
330
1F
100
AcDbEntity
  8
0-1_ピット
  6
JWW_DASHED1
 62
     2
370
    13
100
AcDbLine
 10
970.1967725372899
 20
-506.1131191267302
 30
0.0
 11
829.9546153986882
 21
287.985831186503
 31
0.0
  0
LINE
  5
308
330
1F
100
AcDbEntity
  8
0-1_ピット
  6
JWW_DASHED1
 62
     2
370
    13
100
AcDbLine
 10
982.9899597029531
 20
-578.5525104388134
 30
0.0
 11
979.4742278039637
 21
-558.6452367093373
 31
0.0
  0
LINE
  5
309
330
1F
100
AcDbEntity
  8
0-4_寸法
  6
Continuous
 62
     7
370
    13
100
AcDbLine
 10
953.9546285954783
 20
66.87694943933334
 30
0.0
 11
978.7407501298236
 21
70.14010424483462
 31
0.0
  0
LINE
  5
30A
330
1F
100
AcDbEntity
  8
0-4_寸法
  6
Continuous
 62
     7
370
    13
100
AcDbLine
 10
953.9546285954783
 20
66.87694943933334
 30
0.0
 11
978.7407501298236
 21
63.61379463383205
 31
0.0
  0
LINE
  5
30B
330
1F
100
AcDbEntity
  8
0-4_寸法
  6
Continuous
 62
     7
370
    13
100
AcDbLine
 10
933.9545626115261
 20
66.87694943933334
 30
0.0
 11
909.1684410771808
 21
70.14010424483462
 31
0.0
  0
LINE
  5
30C
330
1F
100
AcDbEntity
  8
0-4_寸法
  6
Continuous
 62
     7
370
    13
100
AcDbLine
 10
933.9545626115261
 20
66.87694943933334
 30
0.0
 11
909.1684410771808
 21
63.61379463383205
 31
0.0
  0
TEXT
  5
30D
330
1F
100
AcDbEntity
  8
0-4_寸法
  6
Continuous
 62
     2
370
   211
100
AcDbText
 10
876.9750554675609
 20
78.51694943933333
 30
0.0
 40
30.48
  1
10
 41
1.0625
  7
ＭＳ ゴシック
100
AcDbText
  0
LINE
  5
30E
330
1F
100
AcDbEntity
  8
0-4_寸法
  6
Continuous
 62
     7
370
    13
100
AcDbLine
 10
985.710392742754
 20
66.87694943933334
 30
0.0
 11
875.9865524014228
 21
66.87694943933334
 31
0.0
  0
LINE
  5
30F
330
1F
100
AcDbEntity
  8
0-0_通り芯
  6
Continuous
 62
     3
370
    13
100
AcDbLine
 10
969.9547061266229
 20
127.4509570179009
 30
0.0
 11
969.9547061266229
 21
78.8055744179164
 31
0.0
  0
LINE
  5
310
330
1F
100
AcDbEntity
  8
0-0_通り芯
  6
Continuous
 62
     3
370
    13
100
AcDbLine
 10
969.9547061266229
 20
55.19880967112853
 30
0.0
 11
969.9547061266229
 21
-407.4794216640032
 31
0.0
  0
TEXT
  5
311
330
1F
100
AcDbEntity
  8
F-5ﾚｲﾔ
  6
Continuous
 62
     7
370
    13
100
AcDbText
 10
-806.8619515624999
 20
-1323.293737398041
 30
0.0
 40
22.86
  1
インターロッキングブロック用　鋳鉄目地
 41
1.157894736842105
  7
ＭＳ ゴシック
100
AcDbText
  0
LINE
  5
312
330
1F
100
AcDbEntity
  8
0-4_寸法
  6
Continuous
 62
     7
370
    13
100
AcDbLine
 10
589.8705488906776
 20
734.0924808160396
 30
0.0
 11
793.9545956035023
 21
374.8563366878562
 31
0.0
  0
LINE
  5
313
330
1F
100
AcDbEntity
  8
0-4_寸法
  6
Continuous
 62
     7
370
    13
100
AcDbLine
 10
1112.536838764177
 20
733.4976580355578
 30
0.0
 11
912.678508409205
 21
406.1000350303578
 31
0.0
  0
LINE
  5
314
330
1F
100
AcDbEntity
  8
0-2_本体（蓋）
  6
Continuous
 62
     7
370
    13
100
AcDbLine
 10
589.8705488906776
 20
734.0924808160396
 30
0.0
 11
221.8565174031355
 21
734.0924808160396
 31
0.0
  0
TEXT
  5
315
330
1F
100
AcDbEntity
  8
0-2_本体（蓋）
  6
Continuous
 62
     2
370
    13
100
AcDbText
 10
225.9639854669027
 20
753.0467227923908
 30
0.0
 40
30.48
  1
蓋：ＦＣＤ５００
 41
1.109375
  7
ＭＳ ゴシック
100
AcDbText
  0
TEXT
  5
316
330
1F
100
AcDbEntity
  8
0-2_本体（蓋）
  6
Continuous
 62
     2
370
    13
100
AcDbText
 10
295.8635331469068
 20
690.6963414051443
 30
0.0
 40
30.48
  1
樹脂系塗装
 41
1.1
  7
ＭＳ ゴシック
100
AcDbText
  0
LINE
  5
317
330
1F
100
AcDbEntity
  8
0-2_本体（蓋）
  6
Continuous
 62
     7
370
    13
100
AcDbLine
 10
1444.631268398889
 20
733.4976580355578
 30
0.0
 11
1112.536838764177
 21
733.4976580355578
 31
0.0
  0
TEXT
  5
318
330
1F
100
AcDbEntity
  8
0-2_本体（蓋）
  6
Continuous
 62
     2
370
    13
100
AcDbText
 10
1168.583929861621
 20
690.9737439994514
 30
0.0
 40
30.48
  1
樹脂系塗装
 41
1.1
  7
ＭＳ ゴシック
100
AcDbText
  0
TEXT
  5
319
330
1F
100
AcDbEntity
  8
0-2_本体（蓋）
  6
Continuous
 62
     2
370
    13
100
AcDbText
 10
1125.724902926972
 20
752.4519000119091
 30
0.0
 40
30.48
  1
枠：ＦＣ２００
 41
1.107142857142857
  7
ＭＳ ゴシック
100
AcDbText
  0
LINE
  5
31A
330
1F
100
AcDbEntity
  8
0-1_ピット
  6
Continuous
 62
     2
370
    13
100
AcDbLine
 10
-1155.981138064174
 20
439.985763552952
 30
0.0
 11
-1082.386464288836
 21
439.985763552952
 31
0.0
  0
LINE
  5
31B
330
1F
100
AcDbEntity
  8
0-1_ピット
  6
Continuous
 62
     2
370
    13
100
AcDbLine
 10
-985.9809401123161
 20
430.9858823240671
 30
0.0
 11
-965.9811215681859
 21
430.9858823240671
 31
0.0
  0
LINE
  5
31C
330
1F
100
AcDbEntity
  8
0-1_ピット
  6
Continuous
 62
     2
370
    13
100
AcDbLine
 10
-985.9809401123161
 20
460.9859812999957
 30
0.0
 11
-965.9811215681859
 21
460.9859812999957
 31
0.0
  0
LINE
  5
31D
330
1F
100
AcDbEntity
  8
0-1_ピット
  6
Continuous
 62
     2
370
    13
100
AcDbLine
 10
-985.9809401123161
 20
462.9857899465333
 30
0.0
 11
-965.9811215681859
 21
462.9857899465333
 31
0.0
  0
LINE
  5
31E
330
1F
100
AcDbEntity
  8
0-1_ピット
  6
Continuous
 62
     2
370
    13
100
AcDbLine
 10
-985.9809401123161
 20
428.9857025177957
 30
0.0
 11
-965.9811215681859
 21
428.9857025177957
 31
0.0
  0
LINE
  5
31F
330
1F
100
AcDbEntity
  8
0-1_ピット
  6
JWW_CENTER1
 62
     2
370
    13
100
AcDbLine
 10
-975.9811545601622
 20
416.6291763749541
 30
0.0
 11
-975.9811545601622
 21
474.3635678709416
 31
0.0
  0
LINE
  5
320
330
1F
100
AcDbEntity
  8
0-1_ピット
  6
JWW_CENTER1
 62
     2
370
    13
100
AcDbLine
 10
-1014.992022117172
 20
445.9856843722088
 30
0.0
 11
-938.1310272111335
 21
445.9856843722088
 31
0.0
  0
LINE
  5
321
330
1F
100
AcDbEntity
  8
0-1_ピット
  6
Continuous
 62
     2
370
    13
100
AcDbLine
 10
-1031.862964104081
 20
482.9814020136786
 30
0.0
 11
-1068.099288929884
 21
445.9901382890166
 31
0.0
  0
LINE
  5
322
330
1F
100
AcDbEntity
  8
0-1_ピット
  6
Continuous
 62
     2
370
    13
100
AcDbLine
 10
-1024.80721756164
 20
471.4153223842442
 30
0.0
 11
-1035.464945602181
 21
416.5085494614192
 31
0.0
  0
LINE
  5
323
330
1F
100
AcDbEntity
  8
0-1_ピット
  6
Continuous
 62
     2
370
    13
100
AcDbLine
 10
-1038.409974371184
 20
417.0803828915291
 30
0.0
 11
-1027.752493770466
 21
471.9869083745311
 31
0.0
  0
LINE
  5
324
330
1F
100
AcDbEntity
  8
0-1_ピット
  6
Continuous
 62
     2
370
    13
100
AcDbLine
 10
-1065.858968775745
 20
443.9898347628338
 30
0.0
 11
-1029.719887800238
 21
480.8821225584416
 31
0.0
  0
LINE
  5
325
330
1F
100
AcDbEntity
  8
0-1_ピット
  6
Continuous
 62
     2
370
    13
100
AcDbLine
 10
-920.0993450162434
 20
482.9814020136786
 30
0.0
 11
-883.8627727506184
 21
445.9901382890166
 31
0.0
  0
LINE
  5
326
330
1F
100
AcDbEntity
  8
0-1_ピット
  6
Continuous
 62
     2
370
    13
100
AcDbLine
 10
-927.1548441188617
 20
471.4153223842442
 30
0.0
 11
-916.497116078321
 21
416.5085494614192
 31
0.0
  0
LINE
  5
327
330
1F
100
AcDbEntity
  8
0-1_ピット
  6
Continuous
 62
     2
370
    13
100
AcDbLine
 10
-913.5523347491403
 20
417.0803828915291
 30
0.0
 11
-924.2098153498582
 21
471.9869083745311
 31
0.0
  0
LINE
  5
328
330
1F
100
AcDbEntity
  8
0-1_ピット
  6
Continuous
 62
     2
370
    13
100
AcDbLine
 10
-886.1033403445797
 20
443.9898347628338
 30
0.0
 11
-922.2424213200864
 21
480.8821225584416
 31
0.0
  0
LINE
  5
329
330
1F
100
AcDbEntity
  8
0-1_ピット
  6
Continuous
 62
     2
370
    13
100
AcDbLine
 10
-1007.137292387443
 20
485.9853214604686
 30
0.0
 11
-944.8247692930593
 21
485.9853214604686
 31
0.0
  0
LINE
  5
32A
330
1F
100
AcDbEntity
  8
0-1_ピット
  6
Continuous
 62
     2
370
    13
100
AcDbLine
 10
-1017.575788745129
 20
488.9857767497426
 30
0.0
 11
-934.386520375196
 21
488.9857767497426
 31
0.0
  0
LINE
  5
32B
330
1F
100
AcDbEntity
  8
0-1_ピット
  6
Continuous
 62
     2
370
    13
100
AcDbLine
 10
-1040.265773040948
 20
408.7085039324916
 30
0.0
 11
-911.6965360793768
 21
408.7085039324916
 31
0.0
  0
LINE
  5
32C
330
1F
100
AcDbEntity
  8
0-1_ピット
  6
Continuous
 62
     2
370
    13
100
AcDbLine
 10
-1048.226654454588
 20
408.9858839736655
 30
0.0
 11
-1155.981138064174
 21
408.9858839736655
 31
0.0
  0
LINE
  5
32D
330
1F
100
AcDbEntity
  8
0-1_ピット
  6
Continuous
 62
     2
370
    13
100
AcDbLine
 10
-1155.981138064174
 20
437.9857074665921
 30
0.0
 11
-1080.146391574521
 21
437.9857074665921
 31
0.0
  0
ARC
  5
32E
330
1F
100
AcDbEntity
  8
0-1_ピット
  6
Continuous
 62
     2
370
    13
100
AcDbCircle
 10
-985.9809401123161
 20
445.9856843722088
 30
0.0
 40
14.99999922675056
100
AcDbArc
 50
90.0
 51
270.0
  0
ARC
  5
32F
330
1F
100
AcDbEntity
  8
0-1_ピット
  6
Continuous
 62
     2
370
    13
100
AcDbCircle
 10
-985.9809401123161
 20
445.9856843722088
 30
0.0
 40
16.99999925252554
100
AcDbArc
 50
90.0
 51
270.0
  0
ARC
  5
330
330
1F
100
AcDbEntity
  8
0-1_ピット
  6
Continuous
 62
     2
370
    13
100
AcDbCircle
 10
-965.9811215681859
 20
445.9856843722088
 30
0.0
 40
14.99999922675056
100
AcDbArc
 50
270.0
 51
90.0
  0
ARC
  5
331
330
1F
100
AcDbEntity
  8
0-1_ピット
  6
Continuous
 62
     2
370
    13
100
AcDbCircle
 10
-965.9811215681859
 20
445.9856843722088
 30
0.0
 40
16.99999925252554
100
AcDbArc
 50
270.0
 51
90.0
  0
ARC
  5
332
330
1F
100
AcDbEntity
  8
0-1_ピット
  6
Continuous
 62
     2
370
    13
100
AcDbCircle
 10
-1048.226654454588
 20
418.9857932457312
 30
0.0
 40
9.9999991623131
100
AcDbArc
 50
270.0
 51
349.0151519775391
  0
ARC
  5
333
330
1F
100
AcDbEntity
  8
0-1_ピット
  6
Continuous
 62
     2
370
    13
100
AcDbCircle
 10
-1082.386464288836
 20
459.9858295369046
 30
0.0
 40
19.9999983246262
100
AcDbArc
 50
270.0
 51
315.5906677246094
  0
ARC
  5
334
330
1F
100
AcDbEntity
  8
0-1_ピット
  6
Continuous
 62
     2
370
    13
100
AcDbCircle
 10
-1080.146391574521
 20
457.9860208903676
 30
0.0
 40
19.9999983246262
100
AcDbArc
 50
270.0
 51
315.5902709960938
  0
ARC
  5
335
330
1F
100
AcDbEntity
  8
0-1_ピット
  6
Continuous
 62
     2
370
    13
100
AcDbCircle
 10
-1017.575788745129
 20
468.98571076579
 30
0.0
 40
19.9999983246262
100
AcDbArc
 50
90.0
 51
135.5906677246094
  0
ARC
  5
336
330
1F
100
AcDbEntity
  8
0-1_ピット
  6
Continuous
 62
     2
370
    13
100
AcDbCircle
 10
-1048.226654454588
 20
418.9857932457312
 30
0.0
 40
12.99999823441377
100
AcDbArc
 50
307.7622680664062
 51
349.0151519775391
  0
ARC
  5
337
330
1F
100
AcDbEntity
  8
0-1_ピット
  6
Continuous
 62
     2
370
    13
100
AcDbCircle
 10
-1007.137292387443
 20
467.9855590026995
 30
0.0
 40
17.99999829885122
100
AcDbArc
 50
90.0
 51
169.0156860351562
  0
ARC
  5
338
330
1F
100
AcDbEntity
  8
0-1_ピット
  6
Continuous
 62
     2
370
    13
100
AcDbCircle
 10
-1007.137292387443
 20
467.9855590026995
 30
0.0
 40
21.00000123719912
100
AcDbArc
 50
121.025634765625
 51
169.0156860351562
  0
ARC
  5
339
330
1F
100
AcDbEntity
  8
0-1_ピット
  6
Continuous
 62
     2
370
    13
100
AcDbCircle
 10
-1017.575788745129
 20
468.98571076579
 30
0.0
 40
16.99999731940192
100
AcDbArc
 50
91.29875183105469
 51
135.5906677246094
  0
ARC
  5
33A
330
1F
100
AcDbEntity
  8
0-1_ピット
  6
Continuous
 62
     2
370
    13
100
AcDbCircle
 10
-903.7356546657365
 20
418.9857932457312
 30
0.0
 40
9.9999991623131
100
AcDbArc
 50
190.9848480224609
 51
270.0
  0
ARC
  5
33B
330
1F
100
AcDbEntity
  8
0-1_ピット
  6
Continuous
 62
     2
370
    13
100
AcDbCircle
 10
-869.5758448314882
 20
459.9858295369046
 30
0.0
 40
19.9999983246262
100
AcDbArc
 50
224.4093322753906
 51
270.0
  0
ARC
  5
33C
330
1F
100
AcDbEntity
  8
0-1_ピット
  6
Continuous
 62
     2
370
    13
100
AcDbCircle
 10
-871.815917545804
 20
457.9860208903676
 30
0.0
 40
19.9999983246262
100
AcDbArc
 50
224.4097290039062
 51
270.0
  0
ARC
  5
33D
330
1F
100
AcDbEntity
  8
0-1_ピット
  6
Continuous
 62
     2
370
    13
100
AcDbCircle
 10
-934.386520375196
 20
468.98571076579
 30
0.0
 40
19.9999983246262
100
AcDbArc
 50
44.40933227539063
 51
90.00000000000001
  0
ARC
  5
33E
330
1F
100
AcDbEntity
  8
0-1_ピット
  6
Continuous
 62
     2
370
    13
100
AcDbCircle
 10
-903.7356546657365
 20
418.9857932457312
 30
0.0
 40
12.99999823441377
100
AcDbArc
 50
190.9848480224609
 51
232.2377319335938
  0
ARC
  5
33F
330
1F
100
AcDbEntity
  8
0-1_ピット
  6
Continuous
 62
     2
370
    13
100
AcDbCircle
 10
-944.8247692930593
 20
467.9855590026995
 30
0.0
 40
17.99999829885122
100
AcDbArc
 50
10.98431396484377
 51
90.00000000000003
  0
ARC
  5
340
330
1F
100
AcDbEntity
  8
0-1_ピット
  6
Continuous
 62
     2
370
    13
100
AcDbCircle
 10
-944.8247692930593
 20
467.9855590026995
 30
0.0
 40
21.00000123719912
100
AcDbArc
 50
10.98431396484377
 51
58.97436523437501
  0
ARC
  5
341
330
1F
100
AcDbEntity
  8
0-1_ピット
  6
Continuous
 62
     2
370
    13
100
AcDbCircle
 10
-934.386520375196
 20
468.98571076579
 30
0.0
 40
16.99999731940192
100
AcDbArc
 50
44.40933227539063
 51
88.70124816894531
  0
LINE
  5
342
330
1F
100
AcDbEntity
  8
0-4_寸法
  6
Continuous
 62
     7
370
    13
100
AcDbLine
 10
-975.9811545601622
 20
564.2383428364786
 30
0.0
 11
-951.1950330258169
 21
567.50149764198
 31
0.0
  0
LINE
  5
343
330
1F
100
AcDbEntity
  8
0-4_寸法
  6
Continuous
 62
     7
370
    13
100
AcDbLine
 10
-975.9811545601622
 20
564.2383428364786
 30
0.0
 11
-951.1950330258169
 21
560.9751880309773
 31
0.0
  0
LINE
  5
344
330
1F
100
AcDbEntity
  8
0-4_寸法
  6
Continuous
 62
     7
370
    13
100
AcDbLine
 10
-975.9811545601622
 20
567.2383428364788
 30
0.0
 11
-975.9811545601622
 21
494.3635678709416
 31
0.0
  0
LINE
  5
345
330
1F
100
AcDbEntity
  8
0-1_ピット
  6
Continuous
 62
     2
370
    13
100
AcDbLine
 10
-285.9811215681859
 20
430.9858823240671
 30
0.0
 11
-305.9810638322273
 21
430.9858823240671
 31
0.0
  0
LINE
  5
346
330
1F
100
AcDbEntity
  8
0-1_ピット
  6
Continuous
 62
     2
370
    13
100
AcDbLine
 10
-285.9811215681859
 20
460.9859812999957
 30
0.0
 11
-305.9810638322273
 21
460.9859812999957
 31
0.0
  0
LINE
  5
347
330
1F
100
AcDbEntity
  8
0-1_ピット
  6
Continuous
 62
     2
370
    13
100
AcDbLine
 10
-285.9811215681859
 20
462.9857899465333
 30
0.0
 11
-305.9810638322273
 21
462.9857899465333
 31
0.0
  0
LINE
  5
348
330
1F
100
AcDbEntity
  8
0-1_ピット
  6
Continuous
 62
     2
370
    13
100
AcDbLine
 10
-285.9811215681859
 20
428.9857025177957
 30
0.0
 11
-305.9810638322273
 21
428.9857025177957
 31
0.0
  0
LINE
  5
349
330
1F
100
AcDbEntity
  8
0-1_ピット
  6
JWW_CENTER1
 62
     2
370
    13
100
AcDbLine
 10
-295.9811545601622
 20
416.6291763749541
 30
0.0
 11
-295.9811545601622
 21
474.3635678709416
 31
0.0
  0
LINE
  5
34A
330
1F
100
AcDbEntity
  8
0-1_ピット
  6
JWW_CENTER1
 62
     2
370
    13
100
AcDbLine
 10
-256.9702870031518
 20
445.9856843722088
 30
0.0
 11
-333.8310344693681
 21
445.9856843722088
 31
0.0
  0
LINE
  5
34B
330
1F
100
AcDbEntity
  8
0-1_ピット
  6
Continuous
 62
     2
370
    13
100
AcDbLine
 10
-189.5758448314882
 20
439.985763552952
 30
0.0
 11
-115.9811710561499
 21
439.985763552952
 31
0.0
  0
LINE
  5
34C
330
1F
100
AcDbEntity
  8
0-1_ピット
  6
Continuous
 62
     2
370
    13
100
AcDbLine
 10
-191.8160412657153
 20
437.9857074665921
 30
0.0
 11
-115.9811710561499
 21
437.9857074665921
 31
0.0
  0
LINE
  5
34D
330
1F
100
AcDbEntity
  8
0-1_ピット
  6
Continuous
 62
     2
370
    13
100
AcDbLine
 10
-240.0993450162431
 20
482.9814020136786
 30
0.0
 11
-203.8630201904406
 21
445.9901382890166
 31
0.0
  0
LINE
  5
34E
330
1F
100
AcDbEntity
  8
0-1_ピット
  6
Continuous
 62
     2
370
    13
100
AcDbLine
 10
-247.1548441188615
 20
471.4153223842442
 30
0.0
 11
-236.4973635181435
 21
416.5085494614192
 31
0.0
  0
LINE
  5
34F
330
1F
100
AcDbEntity
  8
0-1_ピット
  6
Continuous
 62
     2
370
    13
100
AcDbLine
 10
-233.5523347491403
 20
417.0803828915291
 30
0.0
 11
-244.2098153498581
 21
471.9869083745311
 31
0.0
  0
LINE
  5
350
330
1F
100
AcDbEntity
  8
0-1_ピット
  6
Continuous
 62
     2
370
    13
100
AcDbLine
 10
-206.1032166246681
 20
443.9898347628338
 30
0.0
 11
-242.2424213200861
 21
480.8821225584416
 31
0.0
  0
LINE
  5
351
330
1F
100
AcDbEntity
  8
0-1_ピット
  6
Continuous
 62
     2
370
    13
100
AcDbLine
 10
-351.862964104081
 20
482.9814020136786
 30
0.0
 11
-388.0992889298835
 21
445.9901382890166
 31
0.0
  0
LINE
  5
352
330
1F
100
AcDbEntity
  8
0-1_ピット
  6
Continuous
 62
     2
370
    13
100
AcDbLine
 10
-344.807465001463
 20
471.4153223842442
 30
0.0
 11
-355.4649456021806
 21
416.5085494614192
 31
0.0
  0
LINE
  5
353
330
1F
100
AcDbEntity
  8
0-1_ピット
  6
Continuous
 62
     2
370
    13
100
AcDbLine
 10
-358.409974371184
 20
417.0803828915291
 30
0.0
 11
-347.7524937704663
 21
471.9869083745311
 31
0.0
  0
LINE
  5
354
330
1F
100
AcDbEntity
  8
0-1_ピット
  6
Continuous
 62
     2
370
    13
100
AcDbLine
 10
-385.8592162155675
 20
443.9898347628338
 30
0.0
 11
-349.7198878002382
 21
480.8821225584416
 31
0.0
  0
LINE
  5
355
330
1F
100
AcDbEntity
  8
0-1_ピット
  6
Continuous
 62
     2
370
    13
100
AcDbLine
 10
-264.8250167328817
 20
485.9853214604686
 30
0.0
 11
-327.1372923874425
 21
485.9853214604686
 31
0.0
  0
LINE
  5
356
330
1F
100
AcDbEntity
  8
0-1_ピット
  6
Continuous
 62
     2
370
    13
100
AcDbLine
 10
-254.386520375196
 20
488.9857767497426
 30
0.0
 11
-337.5757887451283
 21
488.9857767497426
 31
0.0
  0
LINE
  5
357
330
1F
100
AcDbEntity
  8
0-1_ピット
  6
Continuous
 62
     2
370
    13
100
AcDbLine
 10
-231.6965360793767
 20
408.7085039324916
 30
0.0
 11
-360.2657730409476
 21
408.7085039324916
 31
0.0
  0
LINE
  5
358
330
1F
100
AcDbEntity
  8
0-1_ピット
  6
Continuous
 62
     2
370
    13
100
AcDbLine
 10
-223.7355309458252
 20
408.9858839736655
 30
0.0
 11
-115.9810473362388
 21
408.9858839736655
 31
0.0
  0
ARC
  5
359
330
1F
100
AcDbEntity
  8
0-1_ピット
  6
Continuous
 62
     2
370
    13
100
AcDbCircle
 10
-285.9811215681859
 20
445.9856843722088
 30
0.0
 40
14.99999922675056
100
AcDbArc
 50
270.0
 51
90.0
  0
ARC
  5
35A
330
1F
100
AcDbEntity
  8
0-1_ピット
  6
Continuous
 62
     2
370
    13
100
AcDbCircle
 10
-285.9811215681859
 20
445.9856843722088
 30
0.0
 40
16.99999925252554
100
AcDbArc
 50
270.0
 51
90.0
  0
ARC
  5
35B
330
1F
100
AcDbEntity
  8
0-1_ピット
  6
Continuous
 62
     2
370
    13
100
AcDbCircle
 10
-305.9810638322273
 20
445.9856843722088
 30
0.0
 40
14.99999922675056
100
AcDbArc
 50
90.0
 51
270.0
  0
ARC
  5
35C
330
1F
100
AcDbEntity
  8
0-1_ピット
  6
Continuous
 62
     2
370
    13
100
AcDbCircle
 10
-305.9810638322273
 20
445.9856843722088
 30
0.0
 40
16.99999925252554
100
AcDbArc
 50
90.0
 51
270.0
  0
ARC
  5
35D
330
1F
100
AcDbEntity
  8
0-1_ピット
  6
Continuous
 62
     2
370
    13
100
AcDbCircle
 10
-223.7355309458252
 20
418.9857932457312
 30
0.0
 40
9.9999991623131
100
AcDbArc
 50
190.9848480224609
 51
270.0
  0
ARC
  5
35E
330
1F
100
AcDbEntity
  8
0-1_ピット
  6
Continuous
 62
     2
370
    13
100
AcDbCircle
 10
-189.5758448314882
 20
459.9858295369046
 30
0.0
 40
19.9999983246262
100
AcDbArc
 50
224.4093322753906
 51
270.0
  0
ARC
  5
35F
330
1F
100
AcDbEntity
  8
0-1_ピット
  6
Continuous
 62
     2
370
    13
100
AcDbCircle
 10
-191.8160412657153
 20
457.9860208903676
 30
0.0
 40
19.9999983246262
100
AcDbArc
 50
224.4097290039062
 51
270.0
  0
ARC
  5
360
330
1F
100
AcDbEntity
  8
0-1_ピット
  6
Continuous
 62
     2
370
    13
100
AcDbCircle
 10
-254.386520375196
 20
468.98571076579
 30
0.0
 40
19.9999983246262
100
AcDbArc
 50
44.40933227539063
 51
90.00000000000001
  0
ARC
  5
361
330
1F
100
AcDbEntity
  8
0-1_ピット
  6
Continuous
 62
     2
370
    13
100
AcDbCircle
 10
-223.7355309458252
 20
418.9857932457312
 30
0.0
 40
12.99999823441377
100
AcDbArc
 50
190.9848480224609
 51
232.2377319335938
  0
ARC
  5
362
330
1F
100
AcDbEntity
  8
0-1_ピット
  6
Continuous
 62
     2
370
    13
100
AcDbCircle
 10
-264.8250167328817
 20
467.9855590026995
 30
0.0
 40
17.99999829885122
100
AcDbArc
 50
10.98431396484377
 51
90.00000000000003
  0
ARC
  5
363
330
1F
100
AcDbEntity
  8
0-1_ピット
  6
Continuous
 62
     2
370
    13
100
AcDbCircle
 10
-264.8250167328817
 20
467.9855590026995
 30
0.0
 40
21.00000123719912
100
AcDbArc
 50
10.98431396484377
 51
58.97436523437501
  0
ARC
  5
364
330
1F
100
AcDbEntity
  8
0-1_ピット
  6
Continuous
 62
     2
370
    13
100
AcDbCircle
 10
-254.386520375196
 20
468.98571076579
 30
0.0
 40
16.99999731940192
100
AcDbArc
 50
44.40933227539063
 51
88.70124816894531
  0
ARC
  5
365
330
1F
100
AcDbEntity
  8
0-1_ピット
  6
Continuous
 62
     2
370
    13
100
AcDbCircle
 10
-368.226654454588
 20
418.9857932457312
 30
0.0
 40
9.9999991623131
100
AcDbArc
 50
270.0
 51
349.0151519775391
  0
ARC
  5
366
330
1F
100
AcDbEntity
  8
0-1_ピット
  6
Continuous
 62
     2
370
    13
100
AcDbCircle
 10
-402.3864642888361
 20
459.9858295369046
 30
0.0
 40
19.9999983246262
100
AcDbArc
 50
270.0
 51
315.5906677246094
  0
ARC
  5
367
330
1F
100
AcDbEntity
  8
0-1_ピット
  6
Continuous
 62
     2
370
    13
100
AcDbCircle
 10
-400.1462678546091
 20
457.9860208903676
 30
0.0
 40
19.9999983246262
100
AcDbArc
 50
270.0
 51
315.5902709960938
  0
ARC
  5
368
330
1F
100
AcDbEntity
  8
0-1_ピット
  6
Continuous
 62
     2
370
    13
100
AcDbCircle
 10
-337.5757887451283
 20
468.98571076579
 30
0.0
 40
19.9999983246262
100
AcDbArc
 50
90.0
 51
135.5906677246094
  0
ARC
  5
369
330
1F
100
AcDbEntity
  8
0-1_ピット
  6
Continuous
 62
     2
370
    13
100
AcDbCircle
 10
-368.226654454588
 20
418.9857932457312
 30
0.0
 40
12.99999823441377
100
AcDbArc
 50
307.7622680664062
 51
349.0151519775391
  0
ARC
  5
36A
330
1F
100
AcDbEntity
  8
0-1_ピット
  6
Continuous
 62
     2
370
    13
100
AcDbCircle
 10
-327.1372923874425
 20
467.9855590026995
 30
0.0
 40
17.99999829885122
100
AcDbArc
 50
90.0
 51
169.0156860351562
  0
ARC
  5
36B
330
1F
100
AcDbEntity
  8
0-1_ピット
  6
Continuous
 62
     2
370
    13
100
AcDbCircle
 10
-327.1372923874425
 20
467.9855590026995
 30
0.0
 40
21.00000123719912
100
AcDbArc
 50
121.025634765625
 51
169.0156860351562
  0
ARC
  5
36C
330
1F
100
AcDbEntity
  8
0-1_ピット
  6
Continuous
 62
     2
370
    13
100
AcDbCircle
 10
-337.5757887451283
 20
468.98571076579
 30
0.0
 40
16.99999731940192
100
AcDbArc
 50
91.29875183105469
 51
135.5906677246094
  0
LINE
  5
36D
330
1F
100
AcDbEntity
  8
0-4_寸法
  6
Continuous
 62
     7
370
    13
100
AcDbLine
 10
-295.9811545601622
 20
564.2383428364786
 30
0.0
 11
-320.7672760945075
 21
567.50149764198
 31
0.0
  0
LINE
  5
36E
330
1F
100
AcDbEntity
  8
0-4_寸法
  6
Continuous
 62
     7
370
    13
100
AcDbLine
 10
-295.9811545601622
 20
564.2383428364786
 30
0.0
 11
-320.7672760945075
 21
560.9751880309773
 31
0.0
  0
LINE
  5
36F
330
1F
100
AcDbEntity
  8
0-4_寸法
  6
Continuous
 62
     7
370
    13
100
AcDbLine
 10
-295.9811545601622
 20
567.2383428364788
 30
0.0
 11
-295.9811545601622
 21
494.3635678709416
 31
0.0
  0
LINE
  5
370
330
1F
100
AcDbEntity
  8
0-1_ピット
  6
Continuous
 62
     2
370
    13
100
AcDbLine
 10
-402.3864642888361
 20
439.985763552952
 30
0.0
 11
-869.5758448314882
 21
439.985763552952
 31
0.0
  0
LINE
  5
371
330
1F
100
AcDbEntity
  8
0-1_ピット
  6
Continuous
 62
     2
370
    13
100
AcDbLine
 10
-368.226654454588
 20
408.9858839736655
 30
0.0
 11
-903.7356546657365
 21
408.9858839736655
 31
0.0
  0
LINE
  5
372
330
1F
100
AcDbEntity
  8
0-1_ピット
  6
Continuous
 62
     2
370
    13
100
AcDbLine
 10
-400.1462678546091
 20
437.9857074665921
 30
0.0
 11
-871.815917545804
 21
437.9857074665921
 31
0.0
  0
LINE
  5
373
330
1F
100
AcDbEntity
  8
0-4_寸法
  6
Continuous
 62
     7
370
    13
100
AcDbLine
 10
-975.9811545601622
 20
564.2383428364786
 30
0.0
 11
-295.9811545601622
 21
564.2383428364786
 31
0.0
  0
TEXT
  5
374
330
1F
100
AcDbEntity
  8
0-4_寸法
  6
Continuous
 62
     2
370
   211
100
AcDbText
 10
-668.481154560162
 20
575.8783428364789
 30
0.0
 40
30.48
  1
340
 41
1.083333333333333
  7
ＭＳ ゴシック
100
AcDbText
  0
LINE
  5
375
330
1F
100
AcDbEntity
  8
0-1_ピット
  6
Continuous
 62
     2
370
    13
100
AcDbLine
 10
-1155.981138064174
 20
-720.0141044791428
 30
0.0
 11
-1082.386464288836
 21
-720.0141044791428
 31
0.0
  0
LINE
  5
376
330
1F
100
AcDbEntity
  8
0-1_ピット
  6
Continuous
 62
     2
370
    13
100
AcDbLine
 10
-985.9809401123161
 20
-711.0142232502576
 30
0.0
 11
-965.9811215681859
 21
-711.0142232502576
 31
0.0
  0
LINE
  5
377
330
1F
100
AcDbEntity
  8
0-1_ピット
  6
Continuous
 62
     2
370
    13
100
AcDbLine
 10
-985.9809401123161
 20
-741.0141985062753
 30
0.0
 11
-965.9811215681859
 21
-741.0141985062753
 31
0.0
  0
LINE
  5
378
330
1F
100
AcDbEntity
  8
0-1_ピット
  6
Continuous
 62
     2
370
    13
100
AcDbLine
 10
-985.9809401123161
 20
-743.0143164525907
 30
0.0
 11
-965.9811215681859
 21
-743.0143164525907
 31
0.0
  0
LINE
  5
379
330
1F
100
AcDbEntity
  8
0-1_ピット
  6
Continuous
 62
     2
370
    13
100
AcDbLine
 10
-985.9809401123161
 20
-709.014105303942
 30
0.0
 11
-965.9811215681859
 21
-709.014105303942
 31
0.0
  0
LINE
  5
37A
330
1F
100
AcDbEntity
  8
0-1_ピット
  6
JWW_CENTER1
 62
     2
370
    13
100
AcDbLine
 10
-975.9811545601622
 20
-696.6575791611001
 30
0.0
 11
-975.9811545601622
 21
-754.3917850772211
 31
0.0
  0
LINE
  5
37B
330
1F
100
AcDbEntity
  8
0-1_ピット
  6
Continuous
 62
     2
370
    13
100
AcDbLine
 10
-1031.862964104081
 20
-763.0096192199576
 30
0.0
 11
-1068.099288929884
 21
-726.0186029351183
 31
0.0
  0
LINE
  5
37C
330
1F
100
AcDbEntity
  8
0-1_ピット
  6
Continuous
 62
     2
370
    13
100
AcDbLine
 10
-1065.858968775745
 20
-724.0184849888027
 30
0.0
 11
-1029.719887800238
 21
-760.9103397647211
 31
0.0
  0
LINE
  5
37D
330
1F
100
AcDbEntity
  8
0-1_ピット
  6
Continuous
 62
     2
370
    13
100
AcDbLine
 10
-920.0993450162434
 20
-763.0096192199576
 30
0.0
 11
-883.8627727506184
 21
-726.0186029351183
 31
0.0
  0
LINE
  5
37E
330
1F
100
AcDbEntity
  8
0-1_ピット
  6
Continuous
 62
     2
370
    13
100
AcDbLine
 10
-886.1033403445797
 20
-724.0184849888027
 30
0.0
 11
-922.2424213200864
 21
-760.9103397647211
 31
0.0
  0
LINE
  5
37F
330
1F
100
AcDbEntity
  8
0-1_ピット
  6
Continuous
 62
     2
370
    13
100
AcDbLine
 10
-1007.137292387443
 20
-766.0139098264824
 30
0.0
 11
-944.8247692930593
 21
-766.0139098264824
 31
0.0
  0
LINE
  5
380
330
1F
100
AcDbEntity
  8
0-1_ピット
  6
Continuous
 62
     2
370
    13
100
AcDbLine
 10
-1017.575788745129
 20
-769.0141176759332
 30
0.0
 11
-934.386520375196
 21
-769.0141176759332
 31
0.0
  0
LINE
  5
381
330
1F
100
AcDbEntity
  8
0-1_ピット
  6
Continuous
 62
     2
370
    13
100
AcDbLine
 10
-1037.244532806573
 20
-703.1122943743603
 30
0.0
 11
-1027.752493770466
 21
-752.0153730206334
 31
0.0
  0
LINE
  5
382
330
1F
100
AcDbEntity
  8
0-1_ピット
  6
Continuous
 62
     2
370
    13
100
AcDbLine
 10
-914.717528873929
 20
-703.1122943743603
 30
0.0
 11
-924.2098153498582
 21
-752.0153730206334
 31
0.0
  0
LINE
  5
383
330
1F
100
AcDbEntity
  8
0-1_ピット
  6
Continuous
 62
     2
370
    13
100
AcDbLine
 10
-927.1548441188617
 20
-751.4437251703907
 30
0.0
 11
-917.6628050827551
 21
-702.540708384073
 31
0.0
  0
LINE
  5
384
330
1F
100
AcDbEntity
  8
0-1_ピット
  6
Continuous
 62
     2
370
    13
100
AcDbLine
 10
-1024.80721756164
 20
-751.4437251703907
 30
0.0
 11
-1034.299504037569
 21
-702.540708384073
 31
0.0
  0
LINE
  5
385
330
1F
100
AcDbEntity
  8
0-1_ピット
  6
Continuous
 62
     2
370
    13
100
AcDbLine
 10
-1039.100331476336
 20
-694.7404772752787
 30
0.0
 11
-912.8617302041655
 21
-694.7404772752787
 31
0.0
  0
LINE
  5
386
330
1F
100
AcDbEntity
  8
0-1_ピット
  6
Continuous
 62
     2
370
    13
100
AcDbLine
 10
-1155.981138064174
 20
-718.014172112694
 30
0.0
 11
-1080.146391574521
 21
-718.014172112694
 31
0.0
  0
LINE
  5
387
330
1F
100
AcDbEntity
  8
0-1_ピット
  6
JWW_CENTER1
 62
     2
370
    13
100
AcDbLine
 10
-1014.992022117172
 20
-726.0142108782666
 30
0.0
 11
-938.1310272111335
 21
-726.0142108782666
 31
0.0
  0
LINE
  5
388
330
1F
100
AcDbEntity
  8
0-1_ピット
  6
Continuous
 62
     2
370
    13
100
AcDbLine
 10
-1162.981210646522
 20
-695.0177335965416
 30
0.0
 11
-1047.061460329799
 21
-695.0177335965416
 31
0.0
  0
ARC
  5
389
330
1F
100
AcDbEntity
  8
0-1_ピット
  6
Continuous
 62
     2
370
    13
100
AcDbCircle
 10
-985.9809401123161
 20
-726.0142108782666
 30
0.0
 40
14.99999922675056
100
AcDbArc
 50
90.0
 51
270.0
  0
ARC
  5
38A
330
1F
100
AcDbEntity
  8
0-1_ピット
  6
Continuous
 62
     2
370
    13
100
AcDbCircle
 10
-985.9809401123161
 20
-726.0142108782666
 30
0.0
 40
16.99999925252554
100
AcDbArc
 50
90.0
 51
270.0
  0
ARC
  5
38B
330
1F
100
AcDbEntity
  8
0-1_ピット
  6
Continuous
 62
     2
370
    13
100
AcDbCircle
 10
-965.9811215681859
 20
-726.0142108782666
 30
0.0
 40
14.99999922675056
100
AcDbArc
 50
270.0
 51
90.0
  0
ARC
  5
38C
330
1F
100
AcDbEntity
  8
0-1_ピット
  6
Continuous
 62
     2
370
    13
100
AcDbCircle
 10
-965.9811215681859
 20
-726.0142108782666
 30
0.0
 40
16.99999925252554
100
AcDbArc
 50
270.0
 51
90.0
  0
ARC
  5
38D
330
1F
100
AcDbEntity
  8
0-1_ピット
  6
Continuous
 62
     2
370
    13
100
AcDbCircle
 10
-1082.386464288836
 20
-740.0141704630954
 30
0.0
 40
19.9999983246262
100
AcDbArc
 50
44.40933227539063
 51
90.00000000000001
  0
ARC
  5
38E
330
1F
100
AcDbEntity
  8
0-1_ピット
  6
Continuous
 62
     2
370
    13
100
AcDbCircle
 10
-1080.146391574521
 20
-738.014238096647
 30
0.0
 40
19.9999983246262
100
AcDbArc
 50
44.40972900390626
 51
90.00000000000001
  0
ARC
  5
38F
330
1F
100
AcDbEntity
  8
0-1_ピット
  6
Continuous
 62
     2
370
    13
100
AcDbCircle
 10
-1017.575788745129
 20
-749.0140516919805
 30
0.0
 40
19.9999983246262
100
AcDbArc
 50
224.4093322753906
 51
270.0
  0
ARC
  5
390
330
1F
100
AcDbEntity
  8
0-1_ピット
  6
Continuous
 62
     2
370
    13
100
AcDbCircle
 10
-1007.137292387443
 20
-748.0140236488003
 30
0.0
 40
17.99999829885122
100
AcDbArc
 50
190.9843139648438
 51
270.0
  0
ARC
  5
391
330
1F
100
AcDbEntity
  8
0-1_ピット
  6
Continuous
 62
     2
370
    13
100
AcDbCircle
 10
-1007.137292387443
 20
-748.0140236488003
 30
0.0
 40
21.00000123719912
100
AcDbArc
 50
190.9843139648438
 51
238.974365234375
  0
ARC
  5
392
330
1F
100
AcDbEntity
  8
0-1_ピット
  6
Continuous
 62
     2
370
    13
100
AcDbCircle
 10
-1017.575788745129
 20
-749.0140516919805
 30
0.0
 40
16.99999731940192
100
AcDbArc
 50
224.4093322753906
 51
268.7012481689454
  0
ARC
  5
393
330
1F
100
AcDbEntity
  8
0-1_ピット
  6
Continuous
 62
     2
370
    13
100
AcDbCircle
 10
-869.5758448314882
 20
-740.0141704630954
 30
0.0
 40
19.9999983246262
100
AcDbArc
 50
90.0
 51
135.5906677246094
  0
ARC
  5
394
330
1F
100
AcDbEntity
  8
0-1_ピット
  6
Continuous
 62
     2
370
    13
100
AcDbCircle
 10
-871.815917545804
 20
-738.014238096647
 30
0.0
 40
19.9999983246262
100
AcDbArc
 50
90.0
 51
135.5902709960938
  0
ARC
  5
395
330
1F
100
AcDbEntity
  8
0-1_ピット
  6
Continuous
 62
     2
370
    13
100
AcDbCircle
 10
-934.386520375196
 20
-749.0140516919805
 30
0.0
 40
19.9999983246262
100
AcDbArc
 50
270.0
 51
315.5906677246094
  0
ARC
  5
396
330
1F
100
AcDbEntity
  8
0-1_ピット
  6
Continuous
 62
     2
370
    13
100
AcDbCircle
 10
-944.8247692930593
 20
-748.0140236488003
 30
0.0
 40
17.99999829885122
100
AcDbArc
 50
270.0
 51
349.0156860351562
  0
ARC
  5
397
330
1F
100
AcDbEntity
  8
0-1_ピット
  6
Continuous
 62
     2
370
    13
100
AcDbCircle
 10
-944.8247692930593
 20
-748.0140236488003
 30
0.0
 40
21.00000123719912
100
AcDbArc
 50
301.025634765625
 51
349.0156860351562
  0
ARC
  5
398
330
1F
100
AcDbEntity
  8
0-1_ピット
  6
Continuous
 62
     2
370
    13
100
AcDbCircle
 10
-934.386520375196
 20
-749.0140516919805
 30
0.0
 40
16.99999731940192
100
AcDbArc
 50
271.2987518310547
 51
315.5906677246094
  0
ARC
  5
399
330
1F
100
AcDbEntity
  8
0-1_ピット
  6
Continuous
 62
     2
370
    13
100
AcDbCircle
 10
-1047.061460329799
 20
-705.0177665885178
 30
0.0
 40
9.9999991623131
100
AcDbArc
 50
10.98474121093751
 51
90.00000000000001
  0
ARC
  5
39A
330
1F
100
AcDbEntity
  8
0-1_ピット
  6
Continuous
 62
     2
370
    13
100
AcDbCircle
 10
-904.9008487905255
 20
-705.0177665885178
 30
0.0
 40
9.9999991623131
100
AcDbArc
 50
90.0
 51
169.0152587890625
  0
ARC
  5
39B
330
1F
100
AcDbEntity
  8
0-1_ピット
  6
Continuous
 62
     2
370
    13
100
AcDbCircle
 10
-904.9008487905255
 20
-705.0177665885178
 30
0.0
 40
12.99999823441377
100
AcDbArc
 50
127.7622680664062
 51
169.0155029296875
  0
ARC
  5
39C
330
1F
100
AcDbEntity
  8
0-1_ピット
  6
Continuous
 62
     2
370
    13
100
AcDbCircle
 10
-1047.061460329799
 20
-705.0177665885178
 30
0.0
 40
12.99999823441377
100
AcDbArc
 50
10.98449707031252
 51
52.23773193359376
  0
LINE
  5
39D
330
1F
100
AcDbEntity
  8
0-1_ピット
  6
Continuous
 62
     2
370
    13
100
AcDbLine
 10
-115.9811710561501
 20
-720.0141044791428
 30
0.0
 11
-189.5758448314882
 21
-720.0141044791428
 31
0.0
  0
LINE
  5
39E
330
1F
100
AcDbEntity
  8
0-1_ピット
  6
Continuous
 62
     2
370
    13
100
AcDbLine
 10
-285.9811215681859
 20
-711.0142232502576
 30
0.0
 11
-305.9810638322273
 21
-711.0142232502576
 31
0.0
  0
LINE
  5
39F
330
1F
100
AcDbEntity
  8
0-1_ピット
  6
Continuous
 62
     2
370
    13
100
AcDbLine
 10
-285.9811215681859
 20
-741.0141985062753
 30
0.0
 11
-305.9810638322273
 21
-741.0141985062753
 31
0.0
  0
LINE
  5
3A0
330
1F
100
AcDbEntity
  8
0-1_ピット
  6
Continuous
 62
     2
370
    13
100
AcDbLine
 10
-285.9811215681859
 20
-743.014316452591
 30
0.0
 11
-305.9810638322273
 21
-743.014316452591
 31
0.0
  0
LINE
  5
3A1
330
1F
100
AcDbEntity
  8
0-1_ピット
  6
Continuous
 62
     2
370
    13
100
AcDbLine
 10
-285.9811215681859
 20
-709.0141053039423
 30
0.0
 11
-305.9810638322273
 21
-709.0141053039423
 31
0.0
  0
LINE
  5
3A2
330
1F
100
AcDbEntity
  8
0-1_ピット
  6
JWW_CENTER1
 62
     2
370
    13
100
AcDbLine
 10
-295.9811545601622
 20
-696.6575791611001
 30
0.0
 11
-295.9811545601622
 21
-754.3917850772211
 31
0.0
  0
LINE
  5
3A3
330
1F
100
AcDbEntity
  8
0-1_ピット
  6
JWW_CENTER1
 62
     2
370
    13
100
AcDbLine
 10
-256.9702870031518
 20
-726.0142108782666
 30
0.0
 11
-333.8310344693681
 21
-726.0142108782666
 31
0.0
  0
LINE
  5
3A4
330
1F
100
AcDbEntity
  8
0-1_ピット
  6
Continuous
 62
     2
370
    13
100
AcDbLine
 10
-240.0993450162431
 20
-763.0096192199579
 30
0.0
 11
-203.8630201904406
 21
-726.0186029351183
 31
0.0
  0
LINE
  5
3A5
330
1F
100
AcDbEntity
  8
0-1_ピット
  6
Continuous
 62
     2
370
    13
100
AcDbLine
 10
-206.1032166246681
 20
-724.018484988803
 30
0.0
 11
-242.2424213200861
 21
-760.9103397647211
 31
0.0
  0
LINE
  5
3A6
330
1F
100
AcDbEntity
  8
0-1_ピット
  6
Continuous
 62
     2
370
    13
100
AcDbLine
 10
-351.862964104081
 20
-763.0096192199579
 30
0.0
 11
-388.0992889298835
 21
-726.0186029351183
 31
0.0
  0
LINE
  5
3A7
330
1F
100
AcDbEntity
  8
0-1_ピット
  6
Continuous
 62
     2
370
    13
100
AcDbLine
 10
-385.8592162155675
 20
-724.018484988803
 30
0.0
 11
-349.7198878002382
 21
-760.9103397647211
 31
0.0
  0
LINE
  5
3A8
330
1F
100
AcDbEntity
  8
0-1_ピット
  6
Continuous
 62
     2
370
    13
100
AcDbLine
 10
-264.8250167328817
 20
-766.0139098264824
 30
0.0
 11
-327.1372923874425
 21
-766.0139098264824
 31
0.0
  0
LINE
  5
3A9
330
1F
100
AcDbEntity
  8
0-1_ピット
  6
Continuous
 62
     2
370
    13
100
AcDbLine
 10
-254.386520375196
 20
-769.0141176759334
 30
0.0
 11
-337.5757887451283
 21
-769.0141176759334
 31
0.0
  0
LINE
  5
3AA
330
1F
100
AcDbEntity
  8
0-1_ピット
  6
Continuous
 62
     2
370
    13
100
AcDbLine
 10
-234.7176525938403
 20
-703.1122943743603
 30
0.0
 11
-244.2098153498581
 21
-752.0153730206337
 31
0.0
  0
LINE
  5
3AB
330
1F
100
AcDbEntity
  8
0-1_ピット
  6
Continuous
 62
     2
370
    13
100
AcDbLine
 10
-357.2447802463952
 20
-703.1122943743603
 30
0.0
 11
-347.7524937704663
 21
-752.0153730206337
 31
0.0
  0
LINE
  5
3AC
330
1F
100
AcDbEntity
  8
0-1_ピット
  6
Continuous
 62
     2
370
    13
100
AcDbLine
 10
-344.807465001463
 20
-751.4437251703907
 30
0.0
 11
-354.2996277574807
 21
-702.5407083840732
 31
0.0
  0
LINE
  5
3AD
330
1F
100
AcDbEntity
  8
0-1_ピット
  6
Continuous
 62
     2
370
    13
100
AcDbLine
 10
-247.1548441188615
 20
-751.4437251703907
 30
0.0
 11
-237.6626813628435
 21
-702.5407083840732
 31
0.0
  0
LINE
  5
3AE
330
1F
100
AcDbEntity
  8
0-1_ピット
  6
Continuous
 62
     2
370
    13
100
AcDbLine
 10
-232.8617302041654
 20
-694.7404772752787
 30
0.0
 11
-359.1004551962476
 21
-694.7404772752787
 31
0.0
  0
LINE
  5
3AF
330
1F
100
AcDbEntity
  8
0-1_ピット
  6
Continuous
 62
     2
370
    13
100
AcDbLine
 10
-115.9811710561501
 20
-718.014172112694
 30
0.0
 11
-191.8160412657153
 21
-718.014172112694
 31
0.0
  0
LINE
  5
3B0
330
1F
100
AcDbEntity
  8
0-1_ピット
  6
Continuous
 62
     2
370
    13
100
AcDbLine
 10
-108.9810984738022
 20
-695.0177335965416
 30
0.0
 11
-224.9008487905254
 21
-695.0177335965416
 31
0.0
  0
ARC
  5
3B1
330
1F
100
AcDbEntity
  8
0-1_ピット
  6
Continuous
 62
     2
370
    13
100
AcDbCircle
 10
-285.9811215681859
 20
-726.0142108782666
 30
0.0
 40
14.99999922675056
100
AcDbArc
 50
270.0
 51
90.0
  0
ARC
  5
3B2
330
1F
100
AcDbEntity
  8
0-1_ピット
  6
Continuous
 62
     2
370
    13
100
AcDbCircle
 10
-285.9811215681859
 20
-726.0142108782666
 30
0.0
 40
16.99999925252554
100
AcDbArc
 50
270.0
 51
90.0
  0
ARC
  5
3B3
330
1F
100
AcDbEntity
  8
0-1_ピット
  6
Continuous
 62
     2
370
    13
100
AcDbCircle
 10
-305.9810638322273
 20
-726.0142108782666
 30
0.0
 40
14.99999922675056
100
AcDbArc
 50
90.0
 51
270.0
  0
ARC
  5
3B4
330
1F
100
AcDbEntity
  8
0-1_ピット
  6
Continuous
 62
     2
370
    13
100
AcDbCircle
 10
-305.9810638322273
 20
-726.0142108782666
 30
0.0
 40
16.99999925252554
100
AcDbArc
 50
90.0
 51
270.0
  0
ARC
  5
3B5
330
1F
100
AcDbEntity
  8
0-1_ピット
  6
Continuous
 62
     2
370
    13
100
AcDbCircle
 10
-189.5758448314882
 20
-740.0141704630958
 30
0.0
 40
19.9999983246262
100
AcDbArc
 50
90.0
 51
135.5906677246094
  0
ARC
  5
3B6
330
1F
100
AcDbEntity
  8
0-1_ピット
  6
Continuous
 62
     2
370
    13
100
AcDbCircle
 10
-191.8160412657153
 20
-738.014238096647
 30
0.0
 40
19.9999983246262
100
AcDbArc
 50
90.0
 51
135.5902709960938
  0
ARC
  5
3B7
330
1F
100
AcDbEntity
  8
0-1_ピット
  6
Continuous
 62
     2
370
    13
100
AcDbCircle
 10
-254.386520375196
 20
-749.0140516919809
 30
0.0
 40
19.9999983246262
100
AcDbArc
 50
270.0
 51
315.5906677246094
  0
ARC
  5
3B8
330
1F
100
AcDbEntity
  8
0-1_ピット
  6
Continuous
 62
     2
370
    13
100
AcDbCircle
 10
-264.8250167328817
 20
-748.014023648801
 30
0.0
 40
17.99999829885122
100
AcDbArc
 50
270.0
 51
349.0156860351562
  0
ARC
  5
3B9
330
1F
100
AcDbEntity
  8
0-1_ピット
  6
Continuous
 62
     2
370
    13
100
AcDbCircle
 10
-264.8250167328817
 20
-748.014023648801
 30
0.0
 40
21.00000123719912
100
AcDbArc
 50
301.025634765625
 51
349.0156860351562
  0
ARC
  5
3BA
330
1F
100
AcDbEntity
  8
0-1_ピット
  6
Continuous
 62
     2
370
    13
100
AcDbCircle
 10
-254.386520375196
 20
-749.0140516919809
 30
0.0
 40
16.99999731940192
100
AcDbArc
 50
271.2987518310547
 51
315.5906677246094
  0
ARC
  5
3BB
330
1F
100
AcDbEntity
  8
0-1_ピット
  6
Continuous
 62
     2
370
    13
100
AcDbCircle
 10
-402.3864642888361
 20
-740.0141704630958
 30
0.0
 40
19.9999983246262
100
AcDbArc
 50
44.40933227539063
 51
90.00000000000001
  0
ARC
  5
3BC
330
1F
100
AcDbEntity
  8
0-1_ピット
  6
Continuous
 62
     2
370
    13
100
AcDbCircle
 10
-400.1462678546091
 20
-738.014238096647
 30
0.0
 40
19.9999983246262
100
AcDbArc
 50
44.40972900390626
 51
90.00000000000001
  0
ARC
  5
3BD
330
1F
100
AcDbEntity
  8
0-1_ピット
  6
Continuous
 62
     2
370
    13
100
AcDbCircle
 10
-337.5757887451283
 20
-749.0140516919809
 30
0.0
 40
19.9999983246262
100
AcDbArc
 50
224.4093322753906
 51
270.0
  0
ARC
  5
3BE
330
1F
100
AcDbEntity
  8
0-1_ピット
  6
Continuous
 62
     2
370
    13
100
AcDbCircle
 10
-327.1372923874425
 20
-748.014023648801
 30
0.0
 40
17.99999829885122
100
AcDbArc
 50
190.9843139648438
 51
270.0
  0
ARC
  5
3BF
330
1F
100
AcDbEntity
  8
0-1_ピット
  6
Continuous
 62
     2
370
    13
100
AcDbCircle
 10
-327.1372923874425
 20
-748.014023648801
 30
0.0
 40
21.00000123719912
100
AcDbArc
 50
190.9843139648438
 51
238.974365234375
  0
ARC
  5
3C0
330
1F
100
AcDbEntity
  8
0-1_ピット
  6
Continuous
 62
     2
370
    13
100
AcDbCircle
 10
-337.5757887451283
 20
-749.0140516919809
 30
0.0
 40
16.99999731940192
100
AcDbArc
 50
224.4093322753906
 51
268.7012481689454
  0
ARC
  5
3C1
330
1F
100
AcDbEntity
  8
0-1_ピット
  6
Continuous
 62
     2
370
    13
100
AcDbCircle
 10
-224.9008487905254
 20
-705.0177665885178
 30
0.0
 40
9.9999991623131
100
AcDbArc
 50
90.0
 51
169.0152587890625
  0
ARC
  5
3C2
330
1F
100
AcDbEntity
  8
0-1_ピット
  6
Continuous
 62
     2
370
    13
100
AcDbCircle
 10
-367.0614603297992
 20
-705.0177665885178
 30
0.0
 40
9.9999991623131
100
AcDbArc
 50
10.98474121093751
 51
90.00000000000001
  0
ARC
  5
3C3
330
1F
100
AcDbEntity
  8
0-1_ピット
  6
Continuous
 62
     2
370
    13
100
AcDbCircle
 10
-367.0614603297992
 20
-705.0177665885178
 30
0.0
 40
12.99999823441377
100
AcDbArc
 50
10.98449707031252
 51
52.23773193359376
  0
ARC
  5
3C4
330
1F
100
AcDbEntity
  8
0-1_ピット
  6
Continuous
 62
     2
370
    13
100
AcDbCircle
 10
-224.9008487905254
 20
-705.0177665885178
 30
0.0
 40
12.99999823441377
100
AcDbArc
 50
127.7622680664062
 51
169.0155029296875
  0
LINE
  5
3C5
330
1F
100
AcDbEntity
  8
0-1_ピット
  6
Continuous
 62
     2
370
    13
100
AcDbLine
 10
-402.3864642888361
 20
-720.0141044791428
 30
0.0
 11
-869.5758448314882
 21
-720.0141044791428
 31
0.0
  0
LINE
  5
3C6
330
1F
100
AcDbEntity
  8
0-1_ピット
  6
Continuous
 62
     2
370
    13
100
AcDbLine
 10
-367.0614603297992
 20
-695.0177335965416
 30
0.0
 11
-904.9008487905255
 21
-695.0177335965416
 31
0.0
  0
LINE
  5
3C7
330
1F
100
AcDbEntity
  8
0-1_ピット
  6
Continuous
 62
     2
370
    13
100
AcDbLine
 10
-400.1462678546091
 20
-718.014172112694
 30
0.0
 11
-871.815917545804
 21
-718.014172112694
 31
0.0
  0
LINE
  5
3C8
330
1F
100
AcDbEntity
  8
0-4_寸法
  6
Continuous
 62
     7
370
    13
100
AcDbLine
 10
-993.4809441218961
 20
458.9760622211707
 30
0.0
 11
-1135.033410437088
 21
704.1519341991062
 31
0.0
  0
LINE
  5
3C9
330
1F
100
AcDbEntity
  8
0-4_寸法
  6
Continuous
 62
     7
370
    13
100
AcDbLine
 10
-993.4809441218961
 20
458.9760622211707
 30
0.0
 11
-1003.048019284216
 21
482.0730850252249
 31
0.0
  0
LINE
  5
3CA
330
1F
100
AcDbEntity
  8
0-4_寸法
  6
Continuous
 62
     7
370
    13
100
AcDbLine
 10
-993.4809441218961
 20
458.9760622211707
 30
0.0
 11
-1008.699977852893
 21
478.8098486443129
 31
0.0
  0
LINE
  5
3CB
330
1F
100
AcDbEntity
  8
0-4_寸法
  6
Continuous
 62
     7
370
    13
100
AcDbLine
 10
-1438.409479377122
 20
704.1519341991062
 30
0.0
 11
-1135.033410437088
 21
704.1519341991062
 31
0.0
  0
TEXT
  5
3CC
330
1F
100
AcDbEntity
  8
0-4_寸法
  6
Continuous
 62
     2
370
    13
100
AcDbText
 10
-1438.140124634195
 20
717.0473646784135
 30
0.0
 40
30.48
  1
８－１５×２５
 41
1.107142857142858
  7
ＭＳ ゴシック
100
AcDbText
  0
LINE
  5
3CD
330
1F
100
AcDbEntity
  8
0-1_ピット
  6
JWW_DASHED1
 62
     2
370
    13
100
AcDbLine
 10
959.6284237285021
 20
-586.2266090980197
 30
0.0
 11
960.2949113997055
 21
-586.1994063534521
 31
0.0
  0
LINE
  5
3CE
330
1F
100
AcDbEntity
  8
0-0_通り芯
  6
Continuous
 62
     3
370
    13
100
AcDbLine
 10
962.2854325439583
 20
-586.3210073903545
 30
0.0
 11
959.4292033511061
 21
-586.1465202051845
 31
0.0
  0
LINE
  5
3CF
330
1F
100
AcDbEntity
  8
0-0_通り芯
  6
Continuous
 62
     3
370
    13
100
AcDbLine
 10
959.4292033511061
 20
-586.1465202051845
 30
0.0
 11
949.95464014267
 21
-585.5675531304308
 31
0.0
  0
LINE
  5
3D0
330
1F
100
AcDbEntity
  8
0-1_ピット
  6
JWW_DASHED1
 62
     2
370
    13
100
AcDbLine
 10
977.396922939972
 20
-591.5062558679417
 30
0.0
 11
965.9545939539033
 21
-591.9732752588093
 31
0.0
  0
LINE
  5
3D1
330
1F
100
AcDbEntity
  8
0-1_ピット
  6
JWW_DASHED1
 62
     2
370
    13
100
AcDbLine
 10
965.9595427503563
 20
-602.0549633922553
 30
0.0
 11
989.6385667365793
 21
-603.0214860587994
 31
0.0
  0
TEXT
  5
3D2
330
1F
100
AcDbEntity
  8
0-2_本体（蓋）
  6
Continuous
 62
     2
370
    13
100
AcDbText
 10
1143.314686331437
 20
-195.0141704630954
 30
0.0
 40
30.48
  1
□450
 50
90.0
 41
1.1
  7
ＭＳ ゴシック
100
AcDbText
  0
TEXT
  5
3D3
330
1F
100
AcDbEntity
  8
0-2_本体（蓋）
  6
Continuous
 62
     2
370
    13
100
AcDbText
 10
1243.31493377126
 20
-195.0141704630954
 30
0.0
 40
30.48
  1
□580
 50
90.0
 41
1.1
  7
ＭＳ ゴシック
100
AcDbText
  0
TEXT
  5
3D4
330
1F
100
AcDbEntity
  8
0-2_本体（蓋）
  6
Continuous
 62
     2
370
    13
100
AcDbText
 10
643.3148265473371
 20
-195.0141704630954
 30
0.0
 40
30.48
  1
□525
 50
90.0
 41
1.1
  7
ＭＳ ゴシック
100
AcDbText
  0
TEXT
  5
3D5
330
1F
100
AcDbEntity
  8
0-2_本体（蓋）
  6
Continuous
 62
     2
370
    13
100
AcDbText
 10
543.3148265473366
 20
-195.0141704630954
 30
0.0
 40
30.48
  1
□545
 50
90.0
 41
1.1
  7
ＭＳ ゴシック
100
AcDbText
  0
LINE
  5
3D6
330
1F
100
AcDbEntity
  8
0-1_ピット
  6
Continuous
 62
     2
370
    13
100
AcDbLine
 10
965.9595427503563
 20
322.0266224660645
 30
0.0
 11
996.1994085547983
 21
323.2609434309087
 31
0.0
  0
TEXT
  5
3D7
330
1F
100
AcDbEntity
  8
F-5ﾚｲﾔ
  6
Continuous
 62
     7
370
    13
100
AcDbText
 10
-806.8619515624999
 20
-1365.204005208993
 30
0.0
 40
22.86
  1
一般型　充填深さ70mm　カラー舗装用鉄蓋　　ＭＲＨ－Ｓ－４５５５
 41
1.161290322580645
  7
ＭＳ ゴシック
100
AcDbText
  0
ENDSEC
  0
SECTION
  2
OBJECTS
  0
DICTIONARY
  5
C
330
0
100
AcDbDictionary
281
     1
  3
ACAD_GROUP
350
D
  3
ACAD_LAYOUT
350
1A
  3
ACAD_MLEADERSTYLE
350
3D9
  3
ACAD_MLINESTYLE
350
17
  3
ACAD_PLOTSETTINGS
350
19
  3
ACAD_PLOTSTYLENAME
350
E
  3
ACAD_TABLESTYLE
350
3D8
  3
ACAD_VISUALSTYLE
350
2A
  0
DICTIONARY
  5
D
102
{ACAD_REACTORS
330
C
102
}
330
C
100
AcDbDictionary
281
     1
  0
DICTIONARY
  5
1A
102
{ACAD_REACTORS
330
C
102
}
330
C
100
AcDbDictionary
281
     1
  3
Layout1
350
1E
  3
Layout2
350
26
  3
Model
350
22
  0
DICTIONARY
  5
3D9
102
{ACAD_REACTORS
330
C
102
}
330
C
100
AcDbDictionary
281
     1
  0
DICTIONARY
  5
17
102
{ACAD_REACTORS
330
C
102
}
330
C
100
AcDbDictionary
281
     1
  3
Standard
350
18
  0
DICTIONARY
  5
19
102
{ACAD_REACTORS
330
C
102
}
330
C
100
AcDbDictionary
281
     1
  0
ACDBDICTIONARYWDFLT
  5
E
102
{ACAD_REACTORS
330
C
102
}
330
C
100
AcDbDictionary
281
     1
  3
Normal
350
F
100
AcDbDictionaryWithDefault
340
F
  0
DICTIONARY
  5
3D8
102
{ACAD_REACTORS
330
C
102
}
330
C
100
AcDbDictionary
281
     1
  0
DICTIONARY
  5
2A
102
{ACAD_REACTORS
330
C
102
}
330
C
100
AcDbDictionary
281
     1
  3
2dWireframe
350
2F
  3
3D Hidden
350
31
  3
3dWireframe
350
30
  3
Basic
350
32
  3
Brighten
350
36
  3
ColorChange
350
3A
  3
Conceptual
350
34
  3
Dim
350
35
  3
Facepattern
350
39
  3
Flat
350
2B
  3
FlatWithEdges
350
2C
  3
Gouraud
350
2D
  3
GouraudWithEdges
350
2E
  3
Linepattern
350
38
  3
Realistic
350
33
  3
Thicken
350
37
  0
LAYOUT
  5
1E
102
{ACAD_REACTORS
330
1A
102
}
330
1A
100
AcDbPlotSettings
  1

  2
none_device
  4

  6

 40
0.0
 41
0.0
 42
0.0
 43
0.0
 44
0.0
 45
0.0
 46
0.0
 47
0.0
 48
0.0
 49
0.0
140
0.0
141
0.0
142
1.0
143
1.0
 70
   688
 72
     0
 73
     0
 74
     5
  7

 75
    16
 76
     0
 77
     5
 78
   300
147
1.0
148
0.0
149
0.0
100
AcDbLayout
  1
Layout1
 70
     1
 71
     1
 10
0.0
 20
0.0
 11
420.0
 21
297.0
 12
0.0
 22
0.0
 32
0.0
 14
1.000000000000000E+20
 24
1.000000000000000E+20
 34
1.000000000000000E+20
 15
-1.000000000000000E+20
 25
-1.000000000000000E+20
 35
-1.000000000000000E+20
146
0.0
 13
0.0
 23
0.0
 33
0.0
 16
1.0
 26
0.0
 36
0.0
 17
0.0
 27
1.0
 37
0.0
 76
     0
330
1B
  0
LAYOUT
  5
26
102
{ACAD_REACTORS
330
1A
102
}
330
1A
100
AcDbPlotSettings
  1

  2
none_device
  4

  6

 40
0.0
 41
0.0
 42
0.0
 43
0.0
 44
0.0
 45
0.0
 46
0.0
 47
0.0
 48
0.0
 49
0.0
140
0.0
141
0.0
142
1.0
143
1.0
 70
   688
 72
     0
 73
     0
 74
     5
  7

 75
    16
 76
     0
 77
     5
 78
   300
147
1.0
148
0.0
149
0.0
100
AcDbLayout
  1
Layout2
 70
     1
 71
     2
 10
0.0
 20
0.0
 11
0.0
 21
0.0
 12
0.0
 22
0.0
 32
0.0
 14
0.0
 24
0.0
 34
0.0
 15
0.0
 25
0.0
 35
0.0
146
0.0
 13
0.0
 23
0.0
 33
0.0
 16
1.0
 26
0.0
 36
0.0
 17
0.0
 27
1.0
 37
0.0
 76
     0
330
23
  0
LAYOUT
  5
22
102
{ACAD_REACTORS
330
1A
102
}
330
1A
100
AcDbPlotSettings
  1

  2
none_device
  4

  6

 40
0.0
 41
0.0
 42
0.0
 43
0.0
 44
0.0
 45
0.0
 46
0.0
 47
0.0
 48
0.0
 49
0.0
140
0.0
141
0.0
142
1.0
143
1.0
 70
  1712
 72
     0
 73
     0
 74
     0
  7

 75
     0
 76
     0
 77
     5
 78
   300
147
1.0
148
0.0
149
0.0
100
AcDbLayout
  1
Model
 70
     1
 71
     0
 10
-2100.0
 20
-1485.0
 11
2100.0
 21
1485.0
 12
0.0
 22
0.0
 32
0.0
 14
-2100.0
 24
-1485.0
 34
0.0
 15
2100.0
 25
1485.0
 35
0.0
146
0.0
 13
0.0
 23
0.0
 33
0.0
 16
1.0
 26
0.0
 36
0.0
 17
0.0
 27
1.0
 37
0.0
 76
     0
330
1F
331
29
  0
MLINESTYLE
  5
18
102
{ACAD_REACTORS
330
17
102
}
330
17
100
AcDbMlineStyle
  2
Standard
 70
     0
  3

 62
   256
 51
90.0
 52
90.0
 71
     2
 49
0.5
 62
   256
  6
BYLAYER
 49
-0.5
 62
   256
  6
BYLAYER
  0
ACDBPLACEHOLDER
  5
F
102
{ACAD_REACTORS
330
E
102
}
330
E
  0
VISUALSTYLE
  5
2F
102
{ACAD_REACTORS
330
2A
102
}
330
2A
100
AcDbVisualStyle
  2
2dWireframe
 70
     4
 71
     0
 72
     2
 73
     0
 90
        0
 40
-0.6
 41
-30.0
 62
     5
 63
     7
421
 16777215
 74
     1
 91
        4
 64
     7
 65
   257
 75
     1
175
     1
 42
1.0
 92
        0
 66
   257
 43
1.0
 76
     1
 77
     6
 78
     2
 67
     7
 79
     5
170
     0
171
     0
290
     0
174
     0
 93
        1
 44
0.0
173
     0
291
     0
 45
0.0
1001
ACAD
1000
AcDbSavedByObjectVersion
1070
     0
  0
VISUALSTYLE
  5
31
102
{ACAD_REACTORS
330
2A
102
}
330
2A
100
AcDbVisualStyle
  2
3D Hidden
 70
     6
 71
     1
 72
     2
 73
     2
 90
        0
 40
-0.6
 41
-30.0
 62
     5
 63
     7
421
 16777215
 74
     2
 91
        2
 64
     7
 65
   257
 75
     2
175
     1
 42
40.0
 92
        0
 66
   257
 43
1.0
 76
     1
 77
     6
 78
     2
 67
     7
 79
     3
170
     0
171
     0
290
     0
174
     0
 93
        1
 44
0.0
173
     0
291
     0
 45
0.0
1001
ACAD
1000
AcDbSavedByObjectVersion
1070
     0
  0
VISUALSTYLE
  5
30
102
{ACAD_REACTORS
330
2A
102
}
330
2A
100
AcDbVisualStyle
  2
3dWireframe
 70
     5
 71
     0
 72
     2
 73
     0
 90
        0
 40
-0.6
 41
-30.0
 62
     5
 63
     7
421
 16777215
 74
     1
 91
        4
 64
     7
 65
   257
 75
     1
175
     1
 42
1.0
 92
        0
 66
   257
 43
1.0
 76
     1
 77
     6
 78
     2
 67
     7
 79
     5
170
     0
171
     0
290
     0
174
     0
 93
        1
 44
0.0
173
     0
291
     0
 45
0.0
1001
ACAD
1000
AcDbSavedByObjectVersion
1070
     0
  0
VISUALSTYLE
  5
32
102
{ACAD_REACTORS
330
2A
102
}
330
2A
100
AcDbVisualStyle
  2
Basic
 70
     7
 71
     1
 72
     0
 73
     1
 90
        0
 40
-0.6
 41
-30.0
 62
     5
 63
     7
421
 16777215
 74
     0
 91
        4
 64
     7
 65
   257
 75
     1
175
     1
 42
1.0
 92
        8
 66
     7
 43
1.0
 76
     1
 77
     6
 78
     2
 67
     7
 79
     5
170
     0
171
     0
290
     0
174
     0
 93
        1
 44
0.0
173
     0
291
     1
 45
0.0
1001
ACAD
1000
AcDbSavedByObjectVersion
1070
     0
  0
VISUALSTYLE
  5
36
102
{ACAD_REACTORS
330
2A
102
}
330
2A
100
AcDbVisualStyle
  2
Brighten
 70
    12
 71
     2
 72
     2
 73
     0
 90
        0
 40
-0.6
 41
-30.0
 62
     5
 63
     7
421
 16777215
 74
     1
 91
        4
 64
     7
 65
   257
 75
     1
175
     1
 42
1.0
 92
        8
 66
     7
 43
1.0
 76
     1
 77
     6
 78
     2
 67
     7
 79
     5
170
     0
171
     0
290
     0
174
     0
 93
        1
 44
50.0
173
     0
291
     1
 45
0.0
1001
ACAD
1000
AcDbSavedByObjectVersion
1070
     0
  0
VISUALSTYLE
  5
3A
102
{ACAD_REACTORS
330
2A
102
}
330
2A
100
AcDbVisualStyle
  2
ColorChange
 70
    16
 71
     2
 72
     2
 73
     3
 90
        0
 40
-0.6
 41
-30.0
 62
     5
 63
     8
421
  8421504
 74
     1
 91
        4
 64
     7
 65
   257
 75
     1
175
     1
 42
1.0
 92
        8
 66
     8
424
  8421504
 43
1.0
 76
     1
 77
     6
 78
     2
 67
     7
 79
     5
170
     0
171
     0
290
     0
174
     0
 93
        1
 44
0.0
173
     0
291
     1
 45
0.0
1001
ACAD
1000
AcDbSavedByObjectVersion
1070
     0
  0
VISUALSTYLE
  5
34
102
{ACAD_REACTORS
330
2A
102
}
330
2A
100
AcDbVisualStyle
  2
Conceptual
 70
     9
 71
     3
 72
     2
 73
     0
 90
        0
 40
-0.6
 41
-30.0
 62
     5
 63
     7
421
 16777215
 74
     2
 91
        2
 64
     7
 65
   257
 75
     1
175
     1
 42
40.0
 92
        8
 66
     7
 43
1.0
 76
     1
 77
     6
 78
     2
 67
     7
 79
     3
170
     0
171
     0
290
     0
174
     0
 93
        1
 44
0.0
173
     0
291
     0
 45
0.0
1001
ACAD
1000
AcDbSavedByObjectVersion
1070
     0
  0
VISUALSTYLE
  5
35
102
{ACAD_REACTORS
330
2A
102
}
330
2A
100
AcDbVisualStyle
  2
Dim
 70
    11
 71
     2
 72
     2
 73
     0
 90
        0
 40
-0.6
 41
-30.0
 62
     5
 63
     7
421
 16777215
 74
     1
 91
        4
 64
     7
 65
   257
 75
     1
175
     1
 42
1.0
 92
        8
 66
     7
 43
1.0
 76
     1
 77
     6
 78
     2
 67
     7
 79
     5
170
     0
171
     0
290
     0
174
     0
 93
        1
 44
-50.0
173
     0
291
     1
 45
0.0
1001
ACAD
1000
AcDbSavedByObjectVersion
1070
     0
  0
VISUALSTYLE
  5
39
102
{ACAD_REACTORS
330
2A
102
}
330
2A
100
AcDbVisualStyle
  2
Facepattern
 70
    15
 71
     2
 72
     2
 73
     0
 90
        0
 40
-0.6
 41
-30.0
 62
     5
 63
     7
421
 16777215
 74
     1
 91
        4
 64
     7
 65
   257
 75
     1
175
     1
 42
1.0
 92
        8
 66
     7
 43
1.0
 76
     1
 77
     6
 78
     2
 67
     7
 79
     5
170
     0
171
     0
290
     0
174
     0
 93
        1
 44
0.0
173
     0
291
     1
 45
0.0
1001
ACAD
1000
AcDbSavedByObjectVersion
1070
     0
  0
VISUALSTYLE
  5
2B
102
{ACAD_REACTORS
330
2A
102
}
330
2A
100
AcDbVisualStyle
  2
Flat
 70
     0
 71
     2
 72
     1
 73
     1
 90
        2
 40
-0.6
 41
30.0
 62
     5
 63
     7
421
 16777215
 74
     0
 91
        4
 64
     7
 65
   257
 75
     1
175
     1
 42
1.0
 92
        8
 66
     7
 43
1.0
 76
     1
 77
     6
 78
     2
 67
     7
 79
     5
170
     0
171
     0
290
     0
174
     0
 93
       13
 44
0.0
173
     0
291
     1
 45
0.0
1001
ACAD
1000
AcDbSavedByObjectVersion
1070
     0
  0
VISUALSTYLE
  5
2C
102
{ACAD_REACTORS
330
2A
102
}
330
2A
100
AcDbVisualStyle
  2
FlatWithEdges
 70
     1
 71
     2
 72
     1
 73
     1
 90
        2
 40
-0.6
 41
30.0
 62
     5
 63
     7
421
 16777215
 74
     1
 91
        4
 64
     7
 65
   257
 75
     1
175
     1
 42
1.0
 92
        0
 66
   257
 43
1.0
 76
     1
 77
     6
 78
     2
 67
     7
 79
     5
170
     0
171
     0
290
     0
174
     0
 93
       13
 44
0.0
173
     0
291
     1
 45
0.0
1001
ACAD
1000
AcDbSavedByObjectVersion
1070
     0
  0
VISUALSTYLE
  5
2D
102
{ACAD_REACTORS
330
2A
102
}
330
2A
100
AcDbVisualStyle
  2
Gouraud
 70
     2
 71
     2
 72
     2
 73
     1
 90
        2
 40
-0.6
 41
30.0
 62
     5
 63
     7
421
 16777215
 74
     0
 91
        4
 64
     7
 65
   257
 75
     1
175
     1
 42
1.0
 92
        0
 66
     7
 43
1.0
 76
     1
 77
     6
 78
     2
 67
     7
 79
     5
170
     0
171
     0
290
     0
174
     0
 93
       13
 44
0.0
173
     0
291
     1
 45
0.0
1001
ACAD
1000
AcDbSavedByObjectVersion
1070
     0
  0
VISUALSTYLE
  5
2E
102
{ACAD_REACTORS
330
2A
102
}
330
2A
100
AcDbVisualStyle
  2
GouraudWithEdges
 70
     3
 71
     2
 72
     2
 73
     1
 90
        2
 40
-0.6
 41
30.0
 62
     5
 63
     7
421
 16777215
 74
     1
 91
        4
 64
     7
 65
   257
 75
     1
175
     1
 42
1.0
 92
        0
 66
   257
 43
1.0
 76
     1
 77
     6
 78
     2
 67
     7
 79
     5
170
     0
171
     0
290
     0
174
     0
 93
       13
 44
0.0
173
     0
291
     1
 45
0.0
1001
ACAD
1000
AcDbSavedByObjectVersion
1070
     0
  0
VISUALSTYLE
  5
38
102
{ACAD_REACTORS
330
2A
102
}
330
2A
100
AcDbVisualStyle
  2
Linepattern
 70
    14
 71
     2
 72
     2
 73
     0
 90
        0
 40
-0.6
 41
-30.0
 62
     5
 63
     7
421
 16777215
 74
     1
 91
        4
 64
     7
 65
   257
 75
     7
175
     7
 42
1.0
 92
        8
 66
     7
 43
1.0
 76
     1
 77
     6
 78
     2
 67
     7
 79
     5
170
     0
171
     0
290
     0
174
     0
 93
        1
 44
0.0
173
     0
291
     1
 45
0.0
1001
ACAD
1000
AcDbSavedByObjectVersion
1070
     0
  0
VISUALSTYLE
  5
33
102
{ACAD_REACTORS
330
2A
102
}
330
2A
100
AcDbVisualStyle
  2
Realistic
 70
     8
 71
     2
 72
     2
 73
     0
 90
        0
 40
-0.6
 41
-30.0
 62
     5
 63
     7
421
 16777215
 74
     1
 91
        0
 64
     7
 65
   257
 75
     1
175
     1
 42
1.0
 92
        8
 66
     8
424
  7895160
 43
1.0
 76
     1
 77
     6
 78
     2
 67
     7
 79
     5
170
     0
171
     0
290
     0
174
     0
 93
       13
 44
0.0
173
     0
291
     0
 45
0.0
1001
ACAD
1000
AcDbSavedByObjectVersion
1070
     0
  0
VISUALSTYLE
  5
37
102
{ACAD_REACTORS
330
2A
102
}
330
2A
100
AcDbVisualStyle
  2
Thicken
 70
    13
 71
     2
 72
     2
 73
     0
 90
        0
 40
-0.6
 41
-30.0
 62
     5
 63
     7
421
 16777215
 74
     1
 91
        4
 64
     7
 65
   257
 75
     1
175
     1
 42
1.0
 92
       12
 66
     7
 43
1.0
 76
     1
 77
     6
 78
     2
 67
     7
 79
     5
170
     0
171
     0
290
     0
174
     0
 93
        1
 44
0.0
173
     0
291
     1
 45
0.0
1001
ACAD
1000
AcDbSavedByObjectVersion
1070
     0
  0
ENDSEC
  0
EOF
