  0
SECTION
  2
HEADER
  9
$ACADVER
  1
AC1018
  9
$ACADMAINTVER
 70
     0
  9
$DWGCODEPAGE
  3
ANSI_932
  9
$INSBASE
 10
0.0
 20
0.0
 30
0.0
  9
$EXTMIN
 10
-2100.0
 20
-1485.0
 30
0.0
  9
$EXTMAX
 10
2100.0
 20
1485.0
 30
0.0
  9
$LIMMIN
 10
-2100.0
 20
-1485.0
  9
$LIMMAX
 10
2100.0
 20
1485.0
  9
$ORTHOMODE
 70
     0
  9
$REGENMODE
 70
     1
  9
$FILLMODE
 70
     1
  9
$QTEXTMODE
 70
     0
  9
$MIRRTEXT
 70
     1
  9
$LTSCALE
 40
10.0
  9
$ATTMODE
 70
     1
  9
$TEXTSIZE
 40
2.5
  9
$TRACEWID
 40
1.0
  9
$TEXTSTYLE
  7
Standard
  9
$CLAYER
  8
0
  9
$CELTYPE
  6
ByLayer
  9
$CECOLOR
 62
   256
  9
$CELTSCALE
 40
1.0
  9
$DISPSILH
 70
     0
  9
$DIMSCALE
 40
1.0
  9
$DIMASZ
 40
2.5
  9
$DIMEXO
 40
0.625
  9
$DIMDLI
 40
3.75
  9
$DIMRND
 40
0.0
  9
$DIMDLE
 40
0.0
  9
$DIMEXE
 40
1.25
  9
$DIMTP
 40
0.0
  9
$DIMTM
 40
0.0
  9
$DIMTXT
 40
2.5
  9
$DIMCEN
 40
2.5
  9
$DIMTSZ
 40
0.0
  9
$DIMTOL
 70
     0
  9
$DIMLIM
 70
     0
  9
$DIMTIH
 70
     0
  9
$DIMTOH
 70
     0
  9
$DIMSE1
 70
     0
  9
$DIMSE2
 70
     0
  9
$DIMTAD
 70
     1
  9
$DIMZIN
 70
     8
  9
$DIMBLK
  1

  9
$DIMASO
 70
     1
  9
$DIMSHO
 70
     1
  9
$DIMPOST
  1

  9
$DIMAPOST
  1

  9
$DIMALT
 70
     0
  9
$DIMALTD
 70
     3
  9
$DIMALTF
 40
0.03937007874016
  9
$DIMLFAC
 40
1.0
  9
$DIMTOFL
 70
     1
  9
$DIMTVP
 40
0.0
  9
$DIMTIX
 70
     0
  9
$DIMSOXD
 70
     0
  9
$DIMSAH
 70
     0
  9
$DIMBLK1
  1

  9
$DIMBLK2
  1

  9
$DIMSTYLE
  2
ISO-25
  9
$DIMCLRD
 70
     0
  9
$DIMCLRE
 70
     0
  9
$DIMCLRT
 70
     0
  9
$DIMTFAC
 40
1.0
  9
$DIMGAP
 40
0.625
  9
$DIMJUST
 70
     0
  9
$DIMSD1
 70
     0
  9
$DIMSD2
 70
     0
  9
$DIMTOLJ
 70
     0
  9
$DIMTZIN
 70
     8
  9
$DIMALTZ
 70
     0
  9
$DIMALTTZ
 70
     0
  9
$DIMUPT
 70
     0
  9
$DIMDEC
 70
     2
  9
$DIMTDEC
 70
     2
  9
$DIMALTU
 70
     2
  9
$DIMALTTD
 70
     3
  9
$DIMTXSTY
  7
Standard
  9
$DIMAUNIT
 70
     0
  9
$DIMADEC
 70
     0
  9
$DIMALTRND
 40
0.0
  9
$DIMAZIN
 70
     0
  9
$DIMDSEP
 70
    44
  9
$DIMATFIT
 70
     3
  9
$DIMFRAC
 70
     0
  9
$DIMLDRBLK
  1

  9
$DIMLUNIT
 70
     2
  9
$DIMLWD
 70
    -2
  9
$DIMLWE
 70
    -2
  9
$DIMTMOVE
 70
     0
  9
$LUNITS
 70
     2
  9
$LUPREC
 70
     4
  9
$SKETCHINC
 40
1.0
  9
$FILLETRAD
 40
10.0
  9
$AUNITS
 70
     0
  9
$AUPREC
 70
     0
  9
$MENU
  1
.
  9
$ELEVATION
 40
0.0
  9
$PELEVATION
 40
0.0
  9
$THICKNESS
 40
0.0
  9
$LIMCHECK
 70
     0
  9
$CHAMFERA
 40
10.0
  9
$CHAMFERB
 40
10.0
  9
$CHAMFERC
 40
20.0
  9
$CHAMFERD
 40
0.0
  9
$SKPOLY
 70
     0
  9
$TDCREATE
 40
2457549.392624051
  9
$TDUCREATE
 40
2457549.017624051
  9
$TDUPDATE
 40
2457549.392624062
  9
$TDUUPDATE
 40
2457549.017624062
  9
$TDINDWG
 40
0.0000000116
  9
$TDUSRTIMER
 40
0.0000000116
  9
$USRTIMER
 70
     1
  9
$ANGBASE
 50
0.0
  9
$ANGDIR
 70
     0
  9
$PDMODE
 70
     0
  9
$PDSIZE
 40
0.0
  9
$PLINEWID
 40
0.0
  9
$SPLFRAME
 70
     0
  9
$SPLINETYPE
 70
     6
  9
$SPLINESEGS
 70
     8
  9
$HANDSEED
  5
2A2
  9
$SURFTAB1
 70
     6
  9
$SURFTAB2
 70
     6
  9
$SURFTYPE
 70
     6
  9
$SURFU
 70
     6
  9
$SURFV
 70
     6
  9
$UCSBASE
  2

  9
$UCSNAME
  2

  9
$UCSORG
 10
0.0
 20
0.0
 30
0.0
  9
$UCSXDIR
 10
1.0
 20
0.0
 30
0.0
  9
$UCSYDIR
 10
0.0
 20
1.0
 30
0.0
  9
$UCSORTHOREF
  2

  9
$UCSORTHOVIEW
 70
     0
  9
$UCSORGTOP
 10
0.0
 20
0.0
 30
0.0
  9
$UCSORGBOTTOM
 10
0.0
 20
0.0
 30
0.0
  9
$UCSORGLEFT
 10
0.0
 20
0.0
 30
0.0
  9
$UCSORGRIGHT
 10
0.0
 20
0.0
 30
0.0
  9
$UCSORGFRONT
 10
0.0
 20
0.0
 30
0.0
  9
$UCSORGBACK
 10
0.0
 20
0.0
 30
0.0
  9
$PUCSBASE
  2

  9
$PUCSNAME
  2

  9
$PUCSORG
 10
0.0
 20
0.0
 30
0.0
  9
$PUCSXDIR
 10
1.0
 20
0.0
 30
0.0
  9
$PUCSYDIR
 10
0.0
 20
1.0
 30
0.0
  9
$PUCSORTHOREF
  2

  9
$PUCSORTHOVIEW
 70
     0
  9
$PUCSORGTOP
 10
0.0
 20
0.0
 30
0.0
  9
$PUCSORGBOTTOM
 10
0.0
 20
0.0
 30
0.0
  9
$PUCSORGLEFT
 10
0.0
 20
0.0
 30
0.0
  9
$PUCSORGRIGHT
 10
0.0
 20
0.0
 30
0.0
  9
$PUCSORGFRONT
 10
0.0
 20
0.0
 30
0.0
  9
$PUCSORGBACK
 10
0.0
 20
0.0
 30
0.0
  9
$USERI1
 70
     0
  9
$USERI2
 70
     0
  9
$USERI3
 70
     0
  9
$USERI4
 70
     0
  9
$USERI5
 70
     0
  9
$USERR1
 40
0.0
  9
$USERR2
 40
0.0
  9
$USERR3
 40
0.0
  9
$USERR4
 40
0.0
  9
$USERR5
 40
0.0
  9
$WORLDVIEW
 70
     1
  9
$SHADEDGE
 70
     3
  9
$SHADEDIF
 70
    70
  9
$TILEMODE
 70
     1
  9
$MAXACTVP
 70
    64
  9
$PINSBASE
 10
0.0
 20
0.0
 30
0.0
  9
$PLIMCHECK
 70
     0
  9
$PEXTMIN
 10
1.000000000000000E+20
 20
1.000000000000000E+20
 30
1.000000000000000E+20
  9
$PEXTMAX
 10
-1.000000000000000E+20
 20
-1.000000000000000E+20
 30
-1.000000000000000E+20
  9
$PLIMMIN
 10
0.0
 20
0.0
  9
$PLIMMAX
 10
420.0
 20
297.0
  9
$UNITMODE
 70
     0
  9
$VISRETAIN
 70
     1
  9
$PLINEGEN
 70
     0
  9
$PSLTSCALE
 70
     1
  9
$TREEDEPTH
 70
  3020
  9
$CMLSTYLE
  2
Standard
  9
$CMLJUST
 70
     0
  9
$CMLSCALE
 40
20.0
  9
$PROXYGRAPHICS
 70
     1
  9
$MEASUREMENT
 70
     1
  9
$CELWEIGHT
370
    -1
  9
$ENDCAPS
280
     0
  9
$JOINSTYLE
280
     0
  9
$LWDISPLAY
290
     0
  9
$INSUNITS
 70
     4
  9
$HYPERLINKBASE
  1

  9
$STYLESHEET
  1

  9
$XEDIT
290
     1
  9
$CEPSNTYPE
380
     0
  9
$PSTYLEMODE
290
     1
  9
$FINGERPRINTGUID
  2
{D9EFCF1E-BDEF-4529-9DD4-1B329C627E16}
  9
$VERSIONGUID
  2
{FAEB1C32-E019-11D5-929B-00C0DF256EC4}
  9
$EXTNAMES
290
     1
  9
$PSVPSCALE
 40
0.0
  9
$OLESTARTUP
290
     0
  9
$SORTENTS
280
   127
  9
$INDEXCTL
280
     0
  9
$HIDETEXT
280
     1
  9
$XCLIPFRAME
290
     0
  9
$HALOGAP
280
     0
  9
$OBSCOLOR
 70
   257
  9
$OBSLTYPE
280
     0
  9
$INTERSECTIONDISPLAY
280
     0
  9
$INTERSECTIONCOLOR
 70
   257
  9
$DIMASSOC
280
     2
  9
$PROJECTNAME
  1

  0
ENDSEC
  0
SECTION
  2
CLASSES
  0
CLASS
  1
ACDBDICTIONARYWDFLT
  2
AcDbDictionaryWithDefault
  3
ObjectDBX Classes
 90
        0
 91
        4
280
     0
281
     0
  0
CLASS
  1
VISUALSTYLE
  2
AcDbVisualStyle
  3
ObjectDBX Classes
 90
     4095
 91
        4
280
     0
281
     0
  0
ENDSEC
  0
SECTION
  2
TABLES
  0
TABLE
  2
VPORT
  5
8
330
0
100
AcDbSymbolTable
 70
     1
  0
VPORT
  5
29
330
8
100
AcDbSymbolTableRecord
100
AcDbViewportTableRecord
  2
*Active
 70
     0
 10
0.0
 20
0.0
 11
1.0
 21
1.0
 12
0.0
 22
0.0
 13
0.0
 23
0.0
 14
10.0
 24
10.0
 15
10.0
 25
10.0
 16
0.0
 26
0.0
 36
1.0
 17
0.0
 27
0.0
 37
0.0
 40
3267.0
 41
1.414141414141414
 42
50.0
 43
0.0
 44
0.0
 50
0.0
 51
0.0
 71
     0
 72
 10000
 73
     1
 74
     3
 75
     0
 76
     0
 77
     0
 78
     0
281
     0
 65
     1
110
0.0
120
0.0
130
0.0
111
1.0
121
0.0
131
0.0
112
0.0
122
1.0
132
0.0
 79
     0
146
0.0
  0
ENDTAB
  0
TABLE
  2
LTYPE
  5
5
330
0
100
AcDbSymbolTable
 70
     6
  0
LTYPE
  5
14
330
5
100
AcDbSymbolTableRecord
100
AcDbLinetypeTableRecord
  2
ByBlock
 70
     0
  3

 72
    65
 73
     0
 40
0.0
  0
LTYPE
  5
15
330
5
100
AcDbSymbolTableRecord
100
AcDbLinetypeTableRecord
  2
ByLayer
 70
     0
  3

 72
    65
 73
     0
 40
0.0
  0
LTYPE
  5
16
330
5
100
AcDbSymbolTableRecord
100
AcDbLinetypeTableRecord
  2
Continuous
 70
     0
  3
Solid line
 72
    65
 73
     0
 40
0.0
  0
LTYPE
  5
3C
330
5
100
AcDbSymbolTableRecord
100
AcDbLinetypeTableRecord
  2
JWW_CENTER2
 70
     0
  3
-------------  --  -------------
 72
    65
 73
     4
 40
13.54666666666667
 49
11.00666666666667
 74
     0
 49
-0.8466666666666667
 74
     0
 49
0.8466666666666667
 74
     0
 49
-0.8466666666666667
 74
     0
  0
LTYPE
  5
3D
330
5
100
AcDbSymbolTableRecord
100
AcDbLinetypeTableRecord
  2
JWW_DASHED1
 70
     0
  3
-  --  --  --  --  --  --  --  -
 72
    65
 73
     2
 40
1.693333333333333
 49
0.8466666666666667
 74
     0
 49
-0.8466666666666667
 74
     0
  0
LTYPE
  5
3E
330
5
100
AcDbSymbolTableRecord
100
AcDbLinetypeTableRecord
  2
JWW_DASHEDX2
 70
     0
  3
---------------  ---------------
 72
    65
 73
     2
 40
27.09333333333333
 49
25.4
 74
     0
 49
-1.693333333333333
 74
     0
  0
LTYPE
  5
3F
330
5
100
AcDbSymbolTableRecord
100
AcDbLinetypeTableRecord
  2
JWW_CENTERX2
 70
     0
  3
-------------  --  -------------
 72
    65
 73
     4
 40
27.09333333333334
 49
22.01333333333334
 74
     0
 49
-1.693333333333333
 74
     0
 49
1.693333333333333
 74
     0
 49
-1.693333333333333
 74
     0
  0
LTYPE
  5
40
330
5
100
AcDbSymbolTableRecord
100
AcDbLinetypeTableRecord
  2
JWW_DASHED3
 70
     0
  3
---  ------  ------  ------  ---
 72
    65
 73
     2
 40
3.386666666666667
 49
2.54
 74
     0
 49
-0.8466666666666667
 74
     0
  0
ENDTAB
  0
TABLE
  2
LAYER
  5
2
330
0
100
AcDbSymbolTable
 70
     8
  0
LAYER
  5
10
330
2
100
AcDbSymbolTableRecord
100
AcDbLayerTableRecord
  2
0
 70
     0
 62
     7
  6
Continuous
370
    -3
390
F
  0
LAYER
  5
41
330
2
100
AcDbSymbolTableRecord
100
AcDbLayerTableRecord
  2
C-0
 70
     0
 62
     7
  6
Continuous
370
    -3
390
F
  0
LAYER
  5
42
330
2
100
AcDbSymbolTableRecord
100
AcDbLayerTableRecord
  2
F-5ﾚｲﾔ
 70
     0
 62
     7
  6
Continuous
370
    -3
390
F
  0
LAYER
  5
43
330
2
100
AcDbSymbolTableRecord
100
AcDbLayerTableRecord
  2
A-0
 70
     0
 62
     7
  6
Continuous
370
    -3
390
F
  0
LAYER
  5
44
330
2
100
AcDbSymbolTableRecord
100
AcDbLayerTableRecord
  2
A-4
 70
     0
 62
     7
  6
Continuous
370
    -3
390
F
  0
LAYER
  5
45
330
2
100
AcDbSymbolTableRecord
100
AcDbLayerTableRecord
  2
C-4
 70
     0
 62
     7
  6
Continuous
370
    -3
390
F
  0
LAYER
  5
46
330
2
100
AcDbSymbolTableRecord
100
AcDbLayerTableRecord
  2
C-8
 70
     0
 62
     7
  6
Continuous
370
    -3
390
F
  0
LAYER
  5
47
330
2
100
AcDbSymbolTableRecord
100
AcDbLayerTableRecord
  2
C-5
 70
     0
 62
     7
  6
Continuous
370
    -3
390
F
  0
ENDTAB
  0
TABLE
  2
STYLE
  5
3
330
0
100
AcDbSymbolTable
 70
     2
  0
STYLE
  5
11
330
3
100
AcDbSymbolTableRecord
100
AcDbTextStyleTableRecord
  2
Standard
 70
     0
 40
0.0
 41
1.0
 50
0.0
 71
     0
 42
2.5
  3
txt
  4

1001
ACAD
1000

1071
        0
  0
STYLE
  5
3B
330
3
100
AcDbSymbolTableRecord
100
AcDbTextStyleTableRecord
  2
ＭＳ ゴシック
 70
     0
 40
1.0
 41
1.0
 50
0.0
 71
     0
 42
10.0
  3

  4

1001
ACAD
1000
MS Gothic
1071
    32817
  0
ENDTAB
  0
TABLE
  2
VIEW
  5
6
330
0
100
AcDbSymbolTable
 70
     0
  0
ENDTAB
  0
TABLE
  2
UCS
  5
7
330
0
100
AcDbSymbolTable
 70
     0
  0
ENDTAB
  0
TABLE
  2
APPID
  5
9
330
0
100
AcDbSymbolTable
 70
     1
  0
APPID
  5
12
330
9
100
AcDbSymbolTableRecord
100
AcDbRegAppTableRecord
  2
ACAD
 70
     0
  0
ENDTAB
  0
TABLE
  2
DIMSTYLE
  5
A
330
0
100
AcDbSymbolTable
 70
     1
100
AcDbDimStyleTable
  0
DIMSTYLE
105
27
330
A
100
AcDbSymbolTableRecord
100
AcDbDimStyleTableRecord
  2
ISO-25
 70
     0
 41
2.5
 42
0.625
 43
3.75
 44
1.25
 73
     0
 74
     0
 77
     1
 78
     8
140
2.5
141
2.5
143
0.03937007874016
147
0.625
171
     3
172
     1
271
     2
272
     2
274
     3
278
    44
283
     0
284
     8
340
11
  0
ENDTAB
  0
TABLE
  2
BLOCK_RECORD
  5
1
330
0
100
AcDbSymbolTable
 70
     1
  0
BLOCK_RECORD
  5
1F
330
1
100
AcDbSymbolTableRecord
100
AcDbBlockTableRecord
  2
*Model_Space
340
22
  0
BLOCK_RECORD
  5
1B
330
1
100
AcDbSymbolTableRecord
100
AcDbBlockTableRecord
  2
*Paper_Space
340
1E
  0
BLOCK_RECORD
  5
23
330
1
100
AcDbSymbolTableRecord
100
AcDbBlockTableRecord
  2
*Paper_Space0
340
26
  0
ENDTAB
  0
ENDSEC
  0
SECTION
  2
BLOCKS
  0
BLOCK
  5
20
330
1F
100
AcDbEntity
  8
0
100
AcDbBlockBegin
  2
*Model_Space
 70
     0
 10
0.0
 20
0.0
 30
0.0
  3
*Model_Space
  1

  0
ENDBLK
  5
21
330
1F
100
AcDbEntity
  8
0
100
AcDbBlockEnd
  0
BLOCK
  5
1C
330
1B
100
AcDbEntity
 67
     1
  8
0
100
AcDbBlockBegin
  2
*Paper_Space
 70
     0
 10
0.0
 20
0.0
 30
0.0
  3
*Paper_Space
  1

  0
ENDBLK
  5
1D
330
1B
100
AcDbEntity
 67
     1
  8
0
100
AcDbBlockEnd
  0
BLOCK
  5
24
330
23
100
AcDbEntity
  8
0
100
AcDbBlockBegin
  2
*Paper_Space0
 70
     0
 10
0.0
 20
0.0
 30
0.0
  3
*Paper_Space0
  1

  0
ENDBLK
  5
25
330
23
100
AcDbEntity
  8
0
100
AcDbBlockEnd
  0
ENDSEC
  0
SECTION
  2
ENTITIES
  0
LINE
  5
48
330
1F
100
AcDbEntity
  8
C-0
  6
Continuous
 62
     7
370
     9
100
AcDbLine
 10
-1211.499233713211
 20
-200.5375026471771
 30
0.0
 11
-211.4992337132111
 21
-200.5375026471771
 31
0.0
  0
LINE
  5
49
330
1F
100
AcDbEntity
  8
C-0
  6
Continuous
 62
     7
370
     9
100
AcDbLine
 10
359.7614072867887
 20
578.8045173528228
 30
0.0
 11
199.761407286789
 21
681.6448323528232
 31
0.0
  0
LINE
  5
4A
330
1F
100
AcDbEntity
  8
C-0
  6
Continuous
 62
     7
370
     9
100
AcDbLine
 10
-1211.499233713211
 20
799.4624973528231
 30
0.0
 11
-1211.499233713211
 21
-200.5375026471771
 31
0.0
  0
LINE
  5
4B
330
1F
100
AcDbEntity
  8
C-0
  6
Continuous
 62
     7
370
     9
100
AcDbLine
 10
-211.4992337132111
 20
-200.5375026471771
 30
0.0
 11
-211.4992337132111
 21
799.4624973528231
 31
0.0
  0
LINE
  5
4C
330
1F
100
AcDbEntity
  8
C-0
  6
Continuous
 62
     7
370
     9
100
AcDbLine
 10
-211.4992337132111
 20
799.4624973528231
 30
0.0
 11
-1211.499233713211
 21
799.4624973528231
 31
0.0
  0
LINE
  5
4D
330
1F
100
AcDbEntity
  8
C-0
  6
Continuous
 62
     7
370
     9
100
AcDbLine
 10
-918.5573437132111
 20
267.0477603528229
 30
0.0
 11
-998.5573437132111
 21
227.0477603528229
 31
0.0
  0
LINE
  5
4E
330
1F
100
AcDbEntity
  8
C-0
  6
Continuous
 62
     7
370
     9
100
AcDbLine
 10
-918.5573437132111
 20
267.0477603528229
 30
0.0
 11
-803.8679757132113
 21
267.0477603528229
 31
0.0
  0
TEXT
  5
4F
330
1F
100
AcDbEntity
  8
C-0
  6
Continuous
 62
     7
370
     0
100
AcDbText
 10
-923.867975713211
 20
274.1413963528228
 30
0.0
 40
22.86
  1
アオリ止
 41
1.127499999999998
  7
ＭＳ ゴシック
100
AcDbText
  0
LINE
  5
50
330
1F
100
AcDbEntity
  8
C-0
  6
JWW_CENTER2
 62
     7
370
     9
100
AcDbLine
 10
-1069.499233713211
 20
569.0624973528229
 30
0.0
 11
-989.4992337132111
 21
569.0624973528229
 31
0.0
  0
LINE
  5
51
330
1F
100
AcDbEntity
  8
C-0
  6
JWW_CENTER2
 62
     7
370
     9
100
AcDbLine
 10
-981.4992337132112
 20
657.0624973528231
 30
0.0
 11
-981.4992337132112
 21
577.062497352823
 31
0.0
  0
LINE
  5
52
330
1F
100
AcDbEntity
  8
C-0
  6
JWW_DASHED1
 62
     7
370
     9
100
AcDbLine
 10
-1009.499233713211
 20
589.0624973528229
 30
0.0
 11
-1049.499233713211
 21
589.0624973528229
 31
0.0
  0
LINE
  5
53
330
1F
100
AcDbEntity
  8
C-0
  6
JWW_DASHED1
 62
     7
370
     9
100
AcDbLine
 10
-1009.499233713211
 20
549.0624973528229
 30
0.0
 11
-1009.499233713211
 21
589.0624973528229
 31
0.0
  0
LINE
  5
54
330
1F
100
AcDbEntity
  8
C-0
  6
JWW_DASHED1
 62
     7
370
     9
100
AcDbLine
 10
-1049.499233713211
 20
549.0624973528229
 30
0.0
 11
-1009.499233713211
 21
549.0624973528229
 31
0.0
  0
LINE
  5
55
330
1F
100
AcDbEntity
  8
C-0
  6
JWW_DASHED1
 62
     7
370
     9
100
AcDbLine
 10
-1049.499233713211
 20
589.0624973528229
 30
0.0
 11
-1049.499233713211
 21
549.0624973528229
 31
0.0
  0
LINE
  5
56
330
1F
100
AcDbEntity
  8
C-0
  6
JWW_DASHED1
 62
     7
370
     9
100
AcDbLine
 10
-1001.499233713211
 20
597.062497352823
 30
0.0
 11
-1001.499233713211
 21
637.062497352823
 31
0.0
  0
LINE
  5
57
330
1F
100
AcDbEntity
  8
C-0
  6
JWW_DASHED1
 62
     7
370
     9
100
AcDbLine
 10
-961.4992337132112
 20
597.062497352823
 30
0.0
 11
-1001.499233713211
 21
597.062497352823
 31
0.0
  0
LINE
  5
58
330
1F
100
AcDbEntity
  8
C-0
  6
JWW_DASHED1
 62
     7
370
     9
100
AcDbLine
 10
-961.4992337132112
 20
637.062497352823
 30
0.0
 11
-961.4992337132112
 21
597.062497352823
 31
0.0
  0
LINE
  5
59
330
1F
100
AcDbEntity
  8
C-0
  6
JWW_DASHED1
 62
     7
370
     9
100
AcDbLine
 10
-1001.499233713211
 20
637.062497352823
 30
0.0
 11
-961.4992337132112
 21
637.062497352823
 31
0.0
  0
LINE
  5
5A
330
1F
100
AcDbEntity
  8
C-0
  6
JWW_DASHED1
 62
     7
370
     9
100
AcDbLine
 10
-1012.499233713211
 20
614.562497352823
 30
0.0
 11
-1012.499233713211
 21
601.5624973528229
 31
0.0
  0
LINE
  5
5B
330
1F
100
AcDbEntity
  8
C-0
  6
JWW_DASHED1
 62
     7
370
     9
100
AcDbLine
 10
-1012.499233713211
 20
601.5624973528229
 30
0.0
 11
-948.499233713211
 21
614.562497352823
 31
0.0
  0
LINE
  5
5C
330
1F
100
AcDbEntity
  8
C-0
  6
JWW_DASHED1
 62
     7
370
     9
100
AcDbLine
 10
-948.499233713211
 20
614.562497352823
 30
0.0
 11
-1012.499233713211
 21
614.562497352823
 31
0.0
  0
LINE
  5
5D
330
1F
100
AcDbEntity
  8
C-0
  6
JWW_DASHED1
 62
     7
370
     9
100
AcDbLine
 10
-1012.499233713211
 20
614.562497352823
 30
0.0
 11
-948.499233713211
 21
601.5624973528229
 31
0.0
  0
LINE
  5
5E
330
1F
100
AcDbEntity
  8
C-0
  6
JWW_DASHED1
 62
     7
370
     9
100
AcDbLine
 10
-948.499233713211
 20
601.5624973528229
 30
0.0
 11
-1012.499233713211
 21
601.5624973528229
 31
0.0
  0
LINE
  5
5F
330
1F
100
AcDbEntity
  8
C-0
  6
JWW_DASHED1
 62
     7
370
     9
100
AcDbLine
 10
-948.499233713211
 20
614.562497352823
 30
0.0
 11
-948.499233713211
 21
601.5624973528229
 31
0.0
  0
LINE
  5
60
330
1F
100
AcDbEntity
  8
C-0
  6
Continuous
 62
     7
370
     9
100
AcDbLine
 10
-1061.499233713211
 20
649.4624973528231
 30
0.0
 11
-1211.499233713211
 21
799.4624973528231
 31
0.0
  0
LINE
  5
61
330
1F
100
AcDbEntity
  8
C-0
  6
JWW_CENTER2
 62
     7
370
     9
100
AcDbLine
 10
-441.4992337132111
 20
657.0624973528231
 30
0.0
 11
-441.4992337132111
 21
577.062497352823
 31
0.0
  0
LINE
  5
62
330
1F
100
AcDbEntity
  8
C-0
  6
JWW_CENTER2
 62
     7
370
     9
100
AcDbLine
 10
-353.4992337132111
 20
569.0624973528229
 30
0.0
 11
-433.4992337132111
 21
569.0624973528229
 31
0.0
  0
LINE
  5
63
330
1F
100
AcDbEntity
  8
C-0
  6
JWW_DASHED1
 62
     7
370
     9
100
AcDbLine
 10
-413.4992337132111
 20
589.0624973528229
 30
0.0
 11
-373.4992337132111
 21
589.0624973528229
 31
0.0
  0
LINE
  5
64
330
1F
100
AcDbEntity
  8
C-0
  6
JWW_DASHED1
 62
     7
370
     9
100
AcDbLine
 10
-413.4992337132111
 20
549.0624973528229
 30
0.0
 11
-413.4992337132111
 21
589.0624973528229
 31
0.0
  0
LINE
  5
65
330
1F
100
AcDbEntity
  8
C-0
  6
JWW_DASHED1
 62
     7
370
     9
100
AcDbLine
 10
-373.4992337132111
 20
549.0624973528229
 30
0.0
 11
-413.4992337132111
 21
549.0624973528229
 31
0.0
  0
LINE
  5
66
330
1F
100
AcDbEntity
  8
C-0
  6
JWW_DASHED1
 62
     7
370
     9
100
AcDbLine
 10
-373.4992337132111
 20
589.0624973528229
 30
0.0
 11
-373.4992337132111
 21
549.0624973528229
 31
0.0
  0
LINE
  5
67
330
1F
100
AcDbEntity
  8
C-0
  6
JWW_DASHED1
 62
     7
370
     9
100
AcDbLine
 10
-421.4992337132111
 20
597.062497352823
 30
0.0
 11
-421.4992337132111
 21
637.062497352823
 31
0.0
  0
LINE
  5
68
330
1F
100
AcDbEntity
  8
C-0
  6
JWW_DASHED1
 62
     7
370
     9
100
AcDbLine
 10
-461.4992337132111
 20
597.062497352823
 30
0.0
 11
-421.4992337132111
 21
597.062497352823
 31
0.0
  0
LINE
  5
69
330
1F
100
AcDbEntity
  8
C-0
  6
JWW_DASHED1
 62
     7
370
     9
100
AcDbLine
 10
-461.4992337132111
 20
637.062497352823
 30
0.0
 11
-461.4992337132111
 21
597.062497352823
 31
0.0
  0
LINE
  5
6A
330
1F
100
AcDbEntity
  8
C-0
  6
JWW_DASHED1
 62
     7
370
     9
100
AcDbLine
 10
-421.4992337132111
 20
637.062497352823
 30
0.0
 11
-461.4992337132111
 21
637.062497352823
 31
0.0
  0
LINE
  5
6B
330
1F
100
AcDbEntity
  8
C-0
  6
JWW_DASHED1
 62
     7
370
     9
100
AcDbLine
 10
-410.4992337132111
 20
614.562497352823
 30
0.0
 11
-410.4992337132111
 21
601.5624973528229
 31
0.0
  0
LINE
  5
6C
330
1F
100
AcDbEntity
  8
C-0
  6
JWW_DASHED1
 62
     7
370
     9
100
AcDbLine
 10
-410.4992337132111
 20
601.5624973528229
 30
0.0
 11
-474.4992337132111
 21
601.5624973528229
 31
0.0
  0
LINE
  5
6D
330
1F
100
AcDbEntity
  8
C-0
  6
JWW_DASHED1
 62
     7
370
     9
100
AcDbLine
 10
-474.4992337132111
 20
601.5624973528229
 30
0.0
 11
-474.4992337132111
 21
614.562497352823
 31
0.0
  0
LINE
  5
6E
330
1F
100
AcDbEntity
  8
C-0
  6
JWW_DASHED1
 62
     7
370
     9
100
AcDbLine
 10
-474.4992337132111
 20
614.562497352823
 30
0.0
 11
-410.4992337132111
 21
614.562497352823
 31
0.0
  0
LINE
  5
6F
330
1F
100
AcDbEntity
  8
C-0
  6
JWW_DASHED1
 62
     7
370
     9
100
AcDbLine
 10
-410.4992337132111
 20
614.562497352823
 30
0.0
 11
-474.4992337132111
 21
601.5624973528229
 31
0.0
  0
LINE
  5
70
330
1F
100
AcDbEntity
  8
C-0
  6
JWW_DASHED1
 62
     7
370
     9
100
AcDbLine
 10
-474.4992337132111
 20
614.562497352823
 30
0.0
 11
-410.4992337132111
 21
601.5624973528229
 31
0.0
  0
LINE
  5
71
330
1F
100
AcDbEntity
  8
C-0
  6
Continuous
 62
     7
370
     9
100
AcDbLine
 10
-361.4992337132111
 20
649.4624973528231
 30
0.0
 11
-211.4992337132111
 21
799.4624973528231
 31
0.0
  0
LINE
  5
72
330
1F
100
AcDbEntity
  8
C-0
  6
JWW_DASHED1
 62
     7
370
     9
100
AcDbLine
 10
-411.4992337132111
 20
599.0624973528229
 30
0.0
 11
-1011.499233713211
 21
599.0624973528229
 31
0.0
  0
LINE
  5
73
330
1F
100
AcDbEntity
  8
C-0
  6
JWW_DASHED1
 62
     7
370
     9
100
AcDbLine
 10
-697.499233713211
 20
1.462497352822876
 30
0.0
 11
-697.499233713211
 21
29.46249735282288
 31
0.0
  0
LINE
  5
74
330
1F
100
AcDbEntity
  8
C-0
  6
JWW_DASHED1
 62
     7
370
     9
100
AcDbLine
 10
-725.499233713211
 20
29.46249735282288
 30
0.0
 11
-697.499233713211
 21
29.46249735282288
 31
0.0
  0
LINE
  5
75
330
1F
100
AcDbEntity
  8
C-0
  6
JWW_DASHED1
 62
     7
370
     9
100
AcDbLine
 10
-725.499233713211
 20
29.46249735282288
 30
0.0
 11
-725.499233713211
 21
1.462497352822876
 31
0.0
  0
LINE
  5
76
330
1F
100
AcDbEntity
  8
C-0
  6
JWW_DASHED1
 62
     7
370
     9
100
AcDbLine
 10
-725.499233713211
 20
1.462497352822876
 30
0.0
 11
-697.499233713211
 21
1.462497352822876
 31
0.0
  0
LINE
  5
77
330
1F
100
AcDbEntity
  8
C-0
  6
JWW_CENTER2
 62
     7
370
     9
100
AcDbLine
 10
-1069.499233713211
 20
29.06249735282291
 30
0.0
 11
-989.4992337132111
 21
29.06249735282291
 31
0.0
  0
LINE
  5
78
330
1F
100
AcDbEntity
  8
C-0
  6
JWW_CENTER2
 62
     7
370
     9
100
AcDbLine
 10
-981.4992337132112
 20
-58.93750264717711
 30
0.0
 11
-981.4992337132112
 21
21.0624973528229
 31
0.0
  0
LINE
  5
79
330
1F
100
AcDbEntity
  8
C-0
  6
JWW_DASHED1
 62
     7
370
     9
100
AcDbLine
 10
-1009.499233713211
 20
9.062497352822891
 30
0.0
 11
-1049.499233713211
 21
9.062497352822891
 31
0.0
  0
LINE
  5
7A
330
1F
100
AcDbEntity
  8
C-0
  6
JWW_DASHED1
 62
     7
370
     9
100
AcDbLine
 10
-1009.499233713211
 20
49.06249735282289
 30
0.0
 11
-1009.499233713211
 21
9.062497352822891
 31
0.0
  0
LINE
  5
7B
330
1F
100
AcDbEntity
  8
C-0
  6
JWW_DASHED1
 62
     7
370
     9
100
AcDbLine
 10
-1049.499233713211
 20
49.06249735282289
 30
0.0
 11
-1009.499233713211
 21
49.06249735282289
 31
0.0
  0
LINE
  5
7C
330
1F
100
AcDbEntity
  8
C-0
  6
JWW_DASHED1
 62
     7
370
     9
100
AcDbLine
 10
-1049.499233713211
 20
9.062497352822891
 30
0.0
 11
-1049.499233713211
 21
49.06249735282289
 31
0.0
  0
LINE
  5
7D
330
1F
100
AcDbEntity
  8
C-0
  6
JWW_DASHED1
 62
     7
370
     9
100
AcDbLine
 10
-1001.499233713211
 20
1.062497352822911
 30
0.0
 11
-1001.499233713211
 21
-38.93750264717711
 31
0.0
  0
LINE
  5
7E
330
1F
100
AcDbEntity
  8
C-0
  6
JWW_DASHED1
 62
     7
370
     9
100
AcDbLine
 10
-961.4992337132112
 20
1.062497352822911
 30
0.0
 11
-1001.499233713211
 21
1.062497352822911
 31
0.0
  0
LINE
  5
7F
330
1F
100
AcDbEntity
  8
C-0
  6
JWW_DASHED1
 62
     7
370
     9
100
AcDbLine
 10
-961.4992337132112
 20
-38.93750264717711
 30
0.0
 11
-961.4992337132112
 21
1.062497352822911
 31
0.0
  0
LINE
  5
80
330
1F
100
AcDbEntity
  8
C-0
  6
JWW_DASHED1
 62
     7
370
     9
100
AcDbLine
 10
-1001.499233713211
 20
-38.93750264717711
 30
0.0
 11
-961.4992337132112
 21
-38.93750264717711
 31
0.0
  0
LINE
  5
81
330
1F
100
AcDbEntity
  8
C-0
  6
Continuous
 62
     7
370
     9
100
AcDbLine
 10
-1061.499233713211
 20
-50.53750264717715
 30
0.0
 11
-1211.499233713211
 21
-200.5375026471771
 31
0.0
  0
LINE
  5
82
330
1F
100
AcDbEntity
  8
C-0
  6
JWW_CENTER2
 62
     7
370
     9
100
AcDbLine
 10
-353.4992337132111
 20
29.06249735282291
 30
0.0
 11
-433.4992337132111
 21
29.06249735282291
 31
0.0
  0
LINE
  5
83
330
1F
100
AcDbEntity
  8
C-0
  6
JWW_CENTER2
 62
     7
370
     9
100
AcDbLine
 10
-441.4992337132111
 20
-58.93750264717711
 30
0.0
 11
-441.4992337132111
 21
21.0624973528229
 31
0.0
  0
LINE
  5
84
330
1F
100
AcDbEntity
  8
C-0
  6
JWW_DASHED1
 62
     7
370
     9
100
AcDbLine
 10
-413.4992337132111
 20
9.062497352822891
 30
0.0
 11
-373.4992337132111
 21
9.062497352822891
 31
0.0
  0
LINE
  5
85
330
1F
100
AcDbEntity
  8
C-0
  6
JWW_DASHED1
 62
     7
370
     9
100
AcDbLine
 10
-413.4992337132111
 20
49.06249735282289
 30
0.0
 11
-413.4992337132111
 21
9.062497352822891
 31
0.0
  0
LINE
  5
86
330
1F
100
AcDbEntity
  8
C-0
  6
JWW_DASHED1
 62
     7
370
     9
100
AcDbLine
 10
-373.4992337132111
 20
49.06249735282289
 30
0.0
 11
-413.4992337132111
 21
49.06249735282289
 31
0.0
  0
LINE
  5
87
330
1F
100
AcDbEntity
  8
C-0
  6
JWW_DASHED1
 62
     7
370
     9
100
AcDbLine
 10
-373.4992337132111
 20
9.062497352822891
 30
0.0
 11
-373.4992337132111
 21
49.06249735282289
 31
0.0
  0
LINE
  5
88
330
1F
100
AcDbEntity
  8
C-0
  6
JWW_DASHED1
 62
     7
370
     9
100
AcDbLine
 10
-421.4992337132111
 20
1.062497352822911
 30
0.0
 11
-421.4992337132111
 21
-38.93750264717711
 31
0.0
  0
LINE
  5
89
330
1F
100
AcDbEntity
  8
C-0
  6
JWW_DASHED1
 62
     7
370
     9
100
AcDbLine
 10
-461.4992337132111
 20
1.062497352822911
 30
0.0
 11
-421.4992337132111
 21
1.062497352822911
 31
0.0
  0
LINE
  5
8A
330
1F
100
AcDbEntity
  8
C-0
  6
JWW_DASHED1
 62
     7
370
     9
100
AcDbLine
 10
-461.4992337132111
 20
-38.93750264717711
 30
0.0
 11
-461.4992337132111
 21
1.062497352822911
 31
0.0
  0
LINE
  5
8B
330
1F
100
AcDbEntity
  8
C-0
  6
JWW_DASHED1
 62
     7
370
     9
100
AcDbLine
 10
-421.4992337132111
 20
-38.93750264717711
 30
0.0
 11
-461.4992337132111
 21
-38.93750264717711
 31
0.0
  0
LINE
  5
8C
330
1F
100
AcDbEntity
  8
C-0
  6
Continuous
 62
     7
370
     9
100
AcDbLine
 10
-361.4992337132111
 20
-50.53750264717715
 30
0.0
 11
-211.4992337132111
 21
-200.5375026471771
 31
0.0
  0
LINE
  5
8D
330
1F
100
AcDbEntity
  8
C-0
  6
JWW_DASHED1
 62
     7
370
     9
100
AcDbLine
 10
-1011.499233713211
 20
-0.9375026471771086
 30
0.0
 11
-411.4992337132111
 21
-0.9375026471771086
 31
0.0
  0
LINE
  5
8E
330
1F
100
AcDbEntity
  8
C-0
  6
JWW_DASHED1
 62
     7
370
     9
100
AcDbLine
 10
-1011.499233713211
 20
599.0624973528229
 30
0.0
 11
-1011.499233713211
 21
-0.9375026471771086
 31
0.0
  0
LINE
  5
8F
330
1F
100
AcDbEntity
  8
C-0
  6
JWW_DASHED1
 62
     7
370
     9
100
AcDbLine
 10
-411.4992337132111
 20
-0.9375026471771086
 30
0.0
 11
-411.4992337132111
 21
599.0624973528229
 31
0.0
  0
LINE
  5
90
330
1F
100
AcDbEntity
  8
C-0
  6
Continuous
 62
     7
370
     9
100
AcDbLine
 10
-1029.499233713211
 20
617.062497352823
 30
0.0
 11
-1029.499233713211
 21
-18.93750264717712
 31
0.0
  0
LINE
  5
91
330
1F
100
AcDbEntity
  8
C-0
  6
Continuous
 62
     7
370
     9
100
AcDbLine
 10
-1029.499233713211
 20
-18.93750264717712
 30
0.0
 11
-393.4992337132111
 21
-18.93750264717712
 31
0.0
  0
LINE
  5
92
330
1F
100
AcDbEntity
  8
C-0
  6
Continuous
 62
     7
370
     9
100
AcDbLine
 10
-393.4992337132111
 20
-18.93750264717712
 30
0.0
 11
-393.4992337132111
 21
617.062497352823
 31
0.0
  0
LINE
  5
93
330
1F
100
AcDbEntity
  8
C-0
  6
Continuous
 62
     7
370
     9
100
AcDbLine
 10
-393.4992337132111
 20
617.062497352823
 30
0.0
 11
-1029.499233713211
 21
617.062497352823
 31
0.0
  0
LINE
  5
94
330
1F
100
AcDbEntity
  8
C-0
  6
Continuous
 62
     7
370
     9
100
AcDbLine
 10
-393.4992337132111
 20
617.062497352823
 30
0.0
 11
-1029.499233713211
 21
-18.93750264717712
 31
0.0
  0
LINE
  5
95
330
1F
100
AcDbEntity
  8
C-0
  6
Continuous
 62
     7
370
     9
100
AcDbLine
 10
-1029.499233713211
 20
617.062497352823
 30
0.0
 11
-393.4992337132111
 21
-18.93750264717712
 31
0.0
  0
LINE
  5
96
330
1F
100
AcDbEntity
  8
C-0
  6
Continuous
 62
     7
370
     9
100
AcDbLine
 10
-1061.499233713211
 20
649.4624973528231
 30
0.0
 11
-1061.499233713211
 21
-50.53750264717715
 31
0.0
  0
LINE
  5
97
330
1F
100
AcDbEntity
  8
C-0
  6
Continuous
 62
     7
370
     9
100
AcDbLine
 10
-1061.499233713211
 20
-50.53750264717715
 30
0.0
 11
-361.4992337132111
 21
-50.53750264717715
 31
0.0
  0
LINE
  5
98
330
1F
100
AcDbEntity
  8
C-0
  6
Continuous
 62
     7
370
     9
100
AcDbLine
 10
-361.4992337132111
 20
-50.53750264717715
 30
0.0
 11
-361.4992337132111
 21
649.4624973528231
 31
0.0
  0
LINE
  5
99
330
1F
100
AcDbEntity
  8
C-0
  6
Continuous
 62
     7
370
     9
100
AcDbLine
 10
-361.4992337132111
 20
649.4624973528231
 30
0.0
 11
-1061.499233713211
 21
649.4624973528231
 31
0.0
  0
LINE
  5
9A
330
1F
100
AcDbEntity
  8
C-0
  6
JWW_DASHED1
 62
     7
370
     9
100
AcDbLine
 10
-636.499233713211
 20
142.9624973528229
 30
0.0
 11
-786.499233713211
 21
142.9624973528229
 31
0.0
  0
LINE
  5
9B
330
1F
100
AcDbEntity
  8
C-0
  6
JWW_DASHED1
 62
     7
370
     9
100
AcDbLine
 10
-786.499233713211
 20
155.9624973528229
 30
0.0
 11
-636.499233713211
 21
155.9624973528229
 31
0.0
  0
ARC
  5
9C
330
1F
100
AcDbEntity
  8
C-0
  6
JWW_DASHED1
 62
     7
370
     9
100
AcDbCircle
 10
-786.499233713211
 20
149.4624973528229
 30
0.0
 40
6.5
100
AcDbArc
 50
90.0
 51
270.0
  0
ARC
  5
9D
330
1F
100
AcDbEntity
  8
C-0
  6
JWW_DASHED1
 62
     7
370
     9
100
AcDbCircle
 10
-636.499233713211
 20
149.4624973528229
 30
0.0
 40
6.5
100
AcDbArc
 50
270.0
 51
90.0
  0
LINE
  5
9E
330
1F
100
AcDbEntity
  8
C-0
  6
JWW_DASHED1
 62
     7
370
     9
100
AcDbLine
 10
-988.499233713211
 20
209.062497352823
 30
0.0
 11
-986.4992337132112
 21
209.062497352823
 31
0.0
  0
LINE
  5
9F
330
1F
100
AcDbEntity
  8
C-0
  6
JWW_DASHED1
 62
     7
370
     9
100
AcDbLine
 10
-1011.499233713211
 20
94.0624973528229
 30
0.0
 11
-1009.499233713211
 21
94.0624973528229
 31
0.0
  0
LINE
  5
A0
330
1F
100
AcDbEntity
  8
C-0
  6
JWW_DASHED1
 62
     7
370
     9
100
AcDbLine
 10
-1009.499233713211
 20
94.0624973528229
 30
0.0
 11
-1009.499233713211
 21
119.0624973528229
 31
0.0
  0
LINE
  5
A1
330
1F
100
AcDbEntity
  8
C-0
  6
JWW_DASHED1
 62
     7
370
     9
100
AcDbLine
 10
-1009.499233713211
 20
119.0624973528229
 30
0.0
 11
-986.4992337132112
 21
119.0624973528229
 31
0.0
  0
LINE
  5
A2
330
1F
100
AcDbEntity
  8
C-0
  6
JWW_DASHED1
 62
     7
370
     9
100
AcDbLine
 10
-1011.499233713211
 20
121.0624973528229
 30
0.0
 11
-988.499233713211
 21
121.0624973528229
 31
0.0
  0
LINE
  5
A3
330
1F
100
AcDbEntity
  8
C-0
  6
JWW_DASHED1
 62
     7
370
     9
100
AcDbLine
 10
-1011.499233713211
 20
484.062497352823
 30
0.0
 11
-1009.499233713211
 21
484.062497352823
 31
0.0
  0
LINE
  5
A4
330
1F
100
AcDbEntity
  8
C-0
  6
JWW_DASHED1
 62
     7
370
     9
100
AcDbLine
 10
-1009.499233713211
 20
484.062497352823
 30
0.0
 11
-1009.499233713211
 21
459.062497352823
 31
0.0
  0
LINE
  5
A5
330
1F
100
AcDbEntity
  8
C-0
  6
JWW_DASHED1
 62
     7
370
     9
100
AcDbLine
 10
-1009.499233713211
 20
459.062497352823
 30
0.0
 11
-986.4992337132112
 21
459.062497352823
 31
0.0
  0
LINE
  5
A6
330
1F
100
AcDbEntity
  8
C-0
  6
JWW_DASHED1
 62
     7
370
     9
100
AcDbLine
 10
-1011.499233713211
 20
457.062497352823
 30
0.0
 11
-988.499233713211
 21
457.062497352823
 31
0.0
  0
LINE
  5
A7
330
1F
100
AcDbEntity
  8
C-0
  6
JWW_DASHED1
 62
     7
370
     9
100
AcDbLine
 10
-988.499233713211
 20
457.062497352823
 30
0.0
 11
-988.499233713211
 21
121.0624973528229
 31
0.0
  0
LINE
  5
A8
330
1F
100
AcDbEntity
  8
C-0
  6
JWW_DASHED1
 62
     7
370
     9
100
AcDbLine
 10
-986.4992337132112
 20
119.0624973528229
 30
0.0
 11
-986.4992337132112
 21
459.062497352823
 31
0.0
  0
LINE
  5
A9
330
1F
100
AcDbEntity
  8
C-0
  6
JWW_DASHED1
 62
     7
370
     9
100
AcDbLine
 10
-988.499233713211
 20
159.0624973528229
 30
0.0
 11
-986.4992337132112
 21
159.0624973528229
 31
0.0
  0
LINE
  5
AA
330
1F
100
AcDbEntity
  8
C-0
  6
Continuous
 62
     7
370
     9
100
AcDbLine
 10
905.3331322867891
 20
-0.9375026471771086
 30
0.0
 11
329.333132286789
 21
-0.9375026471771086
 31
0.0
  0
LINE
  5
AB
330
1F
100
AcDbEntity
  8
C-0
  6
Continuous
 62
     7
370
     9
100
AcDbLine
 10
563.0944142867891
 20
-25.93750264717711
 30
0.0
 11
663.0944142867891
 21
-125.9375026471771
 31
0.0
  0
LINE
  5
AC
330
1F
100
AcDbEntity
  8
C-0
  6
Continuous
 62
     7
370
     9
100
AcDbLine
 10
520.6680072867891
 20
-25.93750264717711
 30
0.0
 11
620.6680072867891
 21
-125.9375026471771
 31
0.0
  0
LINE
  5
AD
330
1F
100
AcDbEntity
  8
C-0
  6
Continuous
 62
     7
370
     9
100
AcDbLine
 10
478.2416002867892
 20
-25.93750264717711
 30
0.0
 11
578.2416002867892
 21
-125.9375026471771
 31
0.0
  0
LINE
  5
AE
330
1F
100
AcDbEntity
  8
C-0
  6
Continuous
 62
     7
370
     9
100
AcDbLine
 10
845.9371262867892
 20
-25.93750264717711
 30
0.0
 11
880.3331322867891
 21
-60.33350864717717
 31
0.0
  0
LINE
  5
AF
330
1F
100
AcDbEntity
  8
C-0
  6
Continuous
 62
     7
370
     9
100
AcDbLine
 10
803.510720286789
 20
-25.93750264717711
 30
0.0
 11
880.3331322867891
 21
-102.7599156471772
 31
0.0
  0
LINE
  5
B0
330
1F
100
AcDbEntity
  8
C-0
  6
Continuous
 62
     7
370
     9
100
AcDbLine
 10
761.0843132867892
 20
-25.93750264717711
 30
0.0
 11
880.3331322867891
 21
-145.1863226471771
 31
0.0
  0
LINE
  5
B1
330
1F
100
AcDbEntity
  8
C-0
  6
Continuous
 62
     7
370
     9
100
AcDbLine
 10
780.3331322867891
 20
-243.1762206471772
 30
0.0
 11
880.3331322867891
 21
-343.1762206471772
 31
0.0
  0
LINE
  5
B2
330
1F
100
AcDbEntity
  8
C-0
  6
Continuous
 62
     7
370
     9
100
AcDbLine
 10
780.3331322867891
 20
-285.6026276471771
 30
0.0
 11
880.3331322867891
 21
-385.6026276471771
 31
0.0
  0
LINE
  5
B3
330
1F
100
AcDbEntity
  8
C-0
  6
Continuous
 62
     7
370
     9
100
AcDbLine
 10
780.3331322867891
 20
-328.0290346471771
 30
0.0
 11
880.3331322867891
 21
-428.0290346471771
 31
0.0
  0
LINE
  5
B4
330
1F
100
AcDbEntity
  8
C-0
  6
Continuous
 62
     7
370
     9
100
AcDbLine
 10
293.5155052867891
 20
44.38001935282286
 30
0.0
 11
397.758075286789
 21
121.2981393528229
 31
0.0
  0
LINE
  5
B5
330
1F
100
AcDbEntity
  8
C-0
  6
Continuous
 62
     7
370
     9
100
AcDbLine
 10
905.3331322867891
 20
-432.6647756471771
 30
0.0
 11
905.3331322867891
 21
-0.9375026471771086
 31
0.0
  0
LINE
  5
B6
330
1F
100
AcDbEntity
  8
C-0
  6
Continuous
 62
     7
370
     9
100
AcDbLine
 10
880.3331322867891
 20
-432.6647756471771
 30
0.0
 11
880.3331322867891
 21
-25.93750264717711
 31
0.0
  0
LINE
  5
B7
330
1F
100
AcDbEntity
  8
C-0
  6
Continuous
 62
     7
370
     9
100
AcDbLine
 10
780.3331322867891
 20
-432.6647756471771
 30
0.0
 11
780.3331322867891
 21
-125.9375026471771
 31
0.0
  0
LINE
  5
B8
330
1F
100
AcDbEntity
  8
C-0
  6
Continuous
 62
     7
370
     9
100
AcDbLine
 10
705.3331322867892
 20
-432.6647756471771
 30
0.0
 11
705.3331322867892
 21
-188.6375026471771
 31
0.0
  0
TEXT
  5
B9
330
1F
100
AcDbEntity
  8
C-0
  6
Continuous
 62
     7
370
     0
100
AcDbText
 10
400.5814972867888
 20
128.5566643528228
 30
0.0
 40
22.86
  1
掛金具
 41
1.113333333333338
  7
ＭＳ ゴシック
100
AcDbText
  0
TEXT
  5
BA
330
1F
100
AcDbEntity
  8
C-0
  6
Continuous
 62
     7
370
     0
100
AcDbText
 10
401.5550372867888
 20
89.34179135282282
 30
0.0
 40
22.86
  1
南京錠(別途)
 41
1.155833333333337
  7
ＭＳ ゴシック
100
AcDbText
  0
LINE
  5
BB
330
1F
100
AcDbEntity
  8
C-0
  6
Continuous
 62
     7
370
     9
100
AcDbLine
 10
905.3331322867891
 20
599.0624973528229
 30
0.0
 11
329.333132286789
 21
599.0624973528229
 31
0.0
  0
LINE
  5
BC
330
1F
100
AcDbEntity
  8
C-0
  6
Continuous
 62
     7
370
     9
100
AcDbLine
 10
780.3331322867891
 20
988.1946293528232
 30
0.0
 11
880.3331322867891
 21
888.1946293528232
 31
0.0
  0
LINE
  5
BD
330
1F
100
AcDbEntity
  8
C-0
  6
Continuous
 62
     7
370
     9
100
AcDbLine
 10
780.3331322867891
 20
945.7682223528232
 30
0.0
 11
880.3331322867891
 21
845.7682223528229
 31
0.0
  0
LINE
  5
BE
330
1F
100
AcDbEntity
  8
C-0
  6
Continuous
 62
     7
370
     9
100
AcDbLine
 10
780.3331322867891
 20
903.3418153528228
 30
0.0
 11
880.3331322867891
 21
803.3418153528228
 31
0.0
  0
LINE
  5
BF
330
1F
100
AcDbEntity
  8
C-0
  6
Continuous
 62
     7
370
     9
100
AcDbLine
 10
761.6225512867888
 20
724.062497352823
 30
0.0
 11
861.6225512867888
 21
624.0624973528229
 31
0.0
  0
LINE
  5
C0
330
1F
100
AcDbEntity
  8
C-0
  6
Continuous
 62
     7
370
     9
100
AcDbLine
 10
719.1961452867888
 20
724.062497352823
 30
0.0
 11
819.1961452867888
 21
624.0624973528229
 31
0.0
  0
LINE
  5
C1
330
1F
100
AcDbEntity
  8
C-0
  6
Continuous
 62
     7
370
     9
100
AcDbLine
 10
676.769738286789
 20
724.062497352823
 30
0.0
 11
776.7697382867889
 21
624.0624973528229
 31
0.0
  0
LINE
  5
C2
330
1F
100
AcDbEntity
  8
C-0
  6
Continuous
 62
     7
370
     9
100
AcDbLine
 10
478.7798392867892
 20
724.062497352823
 30
0.0
 11
578.7798392867892
 21
624.0624973528229
 31
0.0
  0
LINE
  5
C3
330
1F
100
AcDbEntity
  8
C-0
  6
Continuous
 62
     7
370
     9
100
AcDbLine
 10
436.3534322867892
 20
724.062497352823
 30
0.0
 11
536.3534322867894
 21
624.0624973528229
 31
0.0
  0
LINE
  5
C4
330
1F
100
AcDbEntity
  8
C-0
  6
Continuous
 62
     7
370
     9
100
AcDbLine
 10
295.333132286789
 20
756.6477603528232
 30
0.0
 11
340.9820042867888
 21
727.3068583528232
 31
0.0
  0
LINE
  5
C5
330
1F
100
AcDbEntity
  8
C-0
  6
Continuous
 62
     7
370
     9
100
AcDbLine
 10
705.3331322867892
 20
1101.477234352823
 30
0.0
 11
705.3331322867892
 21
786.7624973528233
 31
0.0
  0
LINE
  5
C6
330
1F
100
AcDbEntity
  8
C-0
  6
Continuous
 62
     7
370
     9
100
AcDbLine
 10
780.3331322867891
 20
1101.477234352823
 30
0.0
 11
780.3331322867891
 21
724.062497352823
 31
0.0
  0
LINE
  5
C7
330
1F
100
AcDbEntity
  8
C-0
  6
Continuous
 62
     7
370
     9
100
AcDbLine
 10
880.3331322867891
 20
1101.477234352823
 30
0.0
 11
880.3331322867891
 21
624.0624973528229
 31
0.0
  0
LINE
  5
C8
330
1F
100
AcDbEntity
  8
C-0
  6
Continuous
 62
     7
370
     9
100
AcDbLine
 10
905.3331322867891
 20
1101.477234352823
 30
0.0
 11
905.3331322867891
 21
599.0624973528229
 31
0.0
  0
LINE
  5
C9
330
1F
100
AcDbEntity
  8
C-0
  6
Continuous
 62
     7
370
     9
100
AcDbLine
 10
53.52831728678879
 20
756.6477603528232
 30
0.0
 11
295.333132286789
 21
756.6477603528232
 31
0.0
  0
LINE
  5
CA
330
1F
100
AcDbEntity
  8
C-0
  6
Continuous
 62
     7
370
     9
100
AcDbLine
 10
76.46275528678878
 20
681.6448323528232
 30
0.0
 11
199.761407286789
 21
681.6448323528232
 31
0.0
  0
TEXT
  5
CB
330
1F
100
AcDbEntity
  8
C-0
  6
Continuous
 62
     7
370
     0
100
AcDbText
 10
75.03629328678899
 20
686.733923352823
 30
0.0
 40
22.86
  1
後付金物
 41
1.1275
  7
ＭＳ ゴシック
100
AcDbText
  0
LINE
  5
CC
330
1F
100
AcDbEntity
  8
C-0
  6
Continuous
 62
     7
370
     9
100
AcDbLine
 10
393.9270252867888
 20
724.062497352823
 30
0.0
 11
493.927025286789
 21
624.0624973528229
 31
0.0
  0
TEXT
  5
CD
330
1F
100
AcDbEntity
  8
F-5ﾚｲﾔ
  6
Continuous
 62
     2
370
     0
100
AcDbText
 10
-790.0002886797931
 20
-1347.468295749974
 30
0.0
 40
30.48
  1
ステンレス製　屋上点検口蓋　角型　ＭＲＳ－ＭＡ
 41
1.119565217391304
  7
ＭＳ ゴシック
100
AcDbText
  0
LINE
  5
CE
330
1F
100
AcDbEntity
  8
C-0
  6
Continuous
 62
     7
370
     9
100
AcDbLine
 10
397.758075286789
 20
121.2981393528229
 30
0.0
 11
617.5761394664987
 21
121.2981393528229
 31
0.0
  0
LINE
  5
CF
330
1F
100
AcDbEntity
  8
A-0
  6
Continuous
 62
     7
370
     9
100
AcDbLine
 10
-511.4992337132112
 20
-614.1985386390933
 30
0.0
 11
-431.4992337132111
 21
-614.1985386390933
 31
0.0
  0
LINE
  5
D0
330
1F
100
AcDbEntity
  8
A-0
  6
Continuous
 62
     7
370
     9
100
AcDbLine
 10
-431.4992337132111
 20
-614.1985386390933
 30
0.0
 11
-431.4992337132111
 21
-774.1985386390934
 31
0.0
  0
LINE
  5
D1
330
1F
100
AcDbEntity
  8
A-0
  6
Continuous
 62
     7
370
     9
100
AcDbLine
 10
-431.4992337132111
 20
-774.1985386390934
 30
0.0
 11
-511.4992337132112
 21
-774.1985386390934
 31
0.0
  0
LINE
  5
D2
330
1F
100
AcDbEntity
  8
A-0
  6
Continuous
 62
     7
370
     9
100
AcDbLine
 10
-511.4992337132112
 20
-774.1985386390934
 30
0.0
 11
-511.4992337132112
 21
-614.1985386390933
 31
0.0
  0
LINE
  5
D3
330
1F
100
AcDbEntity
  8
A-0
  6
Continuous
 62
     7
370
     9
100
AcDbLine
 10
-511.4992337132112
 20
-618.1985386390933
 30
0.0
 11
-431.4992337132111
 21
-618.1985386390933
 31
0.0
  0
LINE
  5
D4
330
1F
100
AcDbEntity
  8
A-0
  6
Continuous
 62
     7
370
     9
100
AcDbLine
 10
-511.4992337132112
 20
-569.1338836390933
 30
0.0
 11
-511.4992337132112
 21
-489.1338836390933
 31
0.0
  0
LINE
  5
D5
330
1F
100
AcDbEntity
  8
A-0
  6
Continuous
 62
     7
370
     9
100
AcDbLine
 10
-511.4992337132112
 20
-489.1338836390933
 30
0.0
 11
-431.4992337132111
 21
-489.1338836390933
 31
0.0
  0
LINE
  5
D6
330
1F
100
AcDbEntity
  8
A-0
  6
Continuous
 62
     7
370
     9
100
AcDbLine
 10
-431.4992337132111
 20
-489.1338836390933
 30
0.0
 11
-431.4992337132111
 21
-569.1338836390933
 31
0.0
  0
LINE
  5
D7
330
1F
100
AcDbEntity
  8
A-0
  6
Continuous
 62
     7
370
     9
100
AcDbLine
 10
-431.4992337132111
 20
-569.1338836390933
 30
0.0
 11
-511.4992337132112
 21
-569.1338836390933
 31
0.0
  0
LINE
  5
D8
330
1F
100
AcDbEntity
  8
A-0
  6
JWW_DASHED1
 62
     7
370
     9
100
AcDbLine
 10
-511.4992337132112
 20
-493.1338836390933
 30
0.0
 11
-431.4992337132111
 21
-493.1338836390933
 31
0.0
  0
ARC
  5
D9
330
1F
100
AcDbEntity
  8
A-0
  6
Continuous
 62
     7
370
     9
100
AcDbCircle
 10
-471.4992337132111
 20
-541.1338836390933
 30
0.0
 40
10.0
100
AcDbArc
 50
180.0
 51
270.0
  0
LINE
  5
DA
330
1F
100
AcDbEntity
  8
A-0
  6
Continuous
 62
     7
370
     9
100
AcDbLine
 10
-481.4992337132111
 20
-541.1338836390933
 30
0.0
 11
-481.4992337132111
 21
-517.1338836390933
 31
0.0
  0
ARC
  5
DB
330
1F
100
AcDbEntity
  8
A-0
  6
Continuous
 62
     7
370
     9
100
AcDbCircle
 10
-471.4992337132111
 20
-517.1338836390933
 30
0.0
 40
10.0
100
AcDbArc
 50
90.0
 51
180.0
  0
ARC
  5
DC
330
1F
100
AcDbEntity
  8
A-0
  6
Continuous
 62
     7
370
     9
100
AcDbCircle
 10
-471.4992337132111
 20
-541.1338836390933
 30
0.0
 40
10.0
100
AcDbArc
 50
270.0
 51
0.0
  0
LINE
  5
DD
330
1F
100
AcDbEntity
  8
A-0
  6
Continuous
 62
     7
370
     9
100
AcDbLine
 10
-461.4992337132111
 20
-517.1338836390933
 30
0.0
 11
-461.4992337132111
 21
-541.1338836390933
 31
0.0
  0
ARC
  5
DE
330
1F
100
AcDbEntity
  8
A-0
  6
Continuous
 62
     7
370
     9
100
AcDbCircle
 10
-471.4992337132111
 20
-517.1338836390933
 30
0.0
 40
10.0
100
AcDbArc
 50
0.0
 51
90.0
  0
LINE
  5
DF
330
1F
100
AcDbEntity
  8
A-0
  6
JWW_CENTER2
 62
     7
370
     9
100
AcDbLine
 10
-488.7998807132111
 20
-529.1338836390933
 30
0.0
 11
-455.3085007132111
 21
-529.1338836390933
 31
0.0
  0
LINE
  5
E0
330
1F
100
AcDbEntity
  8
A-0
  6
JWW_CENTER2
 62
     7
370
     9
100
AcDbLine
 10
-471.4992337132111
 20
-500.3623316390932
 30
0.0
 11
-471.4992337132111
 21
-557.8407796390933
 31
0.0
  0
LINE
  5
E1
330
1F
100
AcDbEntity
  8
A-0
  6
JWW_CENTER2
 62
     7
370
     9
100
AcDbLine
 10
-496.9464317132113
 20
-734.1985386390934
 30
0.0
 11
-444.899017713211
 21
-734.1985386390934
 31
0.0
  0
LINE
  5
E2
330
1F
100
AcDbEntity
  8
A-0
  6
JWW_CENTER2
 62
     7
370
     9
100
AcDbLine
 10
-471.4992337132111
 20
-719.8666416390934
 30
0.0
 11
-471.4992337132111
 21
-749.7373316390931
 31
0.0
  0
ARC
  5
E3
330
1F
100
AcDbEntity
  8
A-0
  6
Continuous
 62
     7
370
     9
100
AcDbCircle
 10
-479.4992337132111
 20
-734.1985386390934
 30
0.0
 40
12.0
100
AcDbArc
 50
90.0
 51
180.0
  0
ARC
  5
E4
330
1F
100
AcDbEntity
  8
A-0
  6
Continuous
 62
     7
370
     9
100
AcDbCircle
 10
-479.4992337132111
 20
-734.1985386390934
 30
0.0
 40
12.0
100
AcDbArc
 50
180.0
 51
270.0
  0
LINE
  5
E5
330
1F
100
AcDbEntity
  8
A-0
  6
Continuous
 62
     7
370
     9
100
AcDbLine
 10
-479.4992337132111
 20
-746.1985386390934
 30
0.0
 11
-463.4992337132111
 21
-746.1985386390934
 31
0.0
  0
ARC
  5
E6
330
1F
100
AcDbEntity
  8
A-0
  6
Continuous
 62
     7
370
     9
100
AcDbCircle
 10
-463.4992337132111
 20
-734.1985386390934
 30
0.0
 40
12.0
100
AcDbArc
 50
270.0
 51
0.0
  0
LINE
  5
E7
330
1F
100
AcDbEntity
  8
A-0
  6
Continuous
 62
     7
370
     9
100
AcDbLine
 10
-463.4992337132111
 20
-722.1985386390934
 30
0.0
 11
-479.4992337132111
 21
-722.1985386390934
 31
0.0
  0
ARC
  5
E8
330
1F
100
AcDbEntity
  8
A-0
  6
Continuous
 62
     7
370
     9
100
AcDbCircle
 10
-463.4992337132111
 20
-734.1985386390934
 30
0.0
 40
12.0
100
AcDbArc
 50
0.0
 51
90.0
  0
LINE
  5
E9
330
1F
100
AcDbEntity
  8
A-0
  6
Continuous
 62
     7
370
     9
100
AcDbLine
 10
-471.4992337132111
 20
-734.1985386390934
 30
0.0
 11
-551.4992337132112
 21
-789.7427196390934
 31
0.0
  0
LINE
  5
EA
330
1F
100
AcDbEntity
  8
A-0
  6
Continuous
 62
     7
370
     9
100
AcDbLine
 10
-471.4992337132111
 20
-529.1338836390933
 30
0.0
 11
-541.4992337132112
 21
-569.7427196390933
 31
0.0
  0
TEXT
  5
EB
330
1F
100
AcDbEntity
  8
A-0
  6
Continuous
 62
     7
370
     0
100
AcDbText
 10
-864.6300017285864
 20
-558.5127196390932
 30
0.0
 40
22.86
  1
本体取付穴：10×22
 41
1.160555555555556
  7
ＭＳ ゴシック
100
AcDbText
  0
TEXT
  5
EC
330
1F
100
AcDbEntity
  8
A-0
  6
Continuous
 62
     7
370
     0
100
AcDbText
 10
-878.7489253907489
 20
-778.5127196390932
 30
0.0
 40
22.86
  1
ｱﾝｶｰ取付穴：12×20
 41
1.160555555555556
  7
ＭＳ ゴシック
100
AcDbText
  0
LINE
  5
ED
330
1F
100
AcDbEntity
  8
A-0
  6
Continuous
 62
     7
370
     9
100
AcDbLine
 10
-551.4992337132112
 20
-789.7427196390934
 30
0.0
 11
-880.9118165900768
 21
-789.7427196390934
 31
0.0
  0
LINE
  5
EE
330
1F
100
AcDbEntity
  8
A-0
  6
Continuous
 62
     7
370
     9
100
AcDbLine
 10
-541.4992337132112
 20
-569.7427196390933
 30
0.0
 11
-871.20505657234
 21
-569.7427196390933
 31
0.0
  0
LINE
  5
EF
330
1F
100
AcDbEntity
  8
A-4
  6
Continuous
 62
     7
370
     9
100
AcDbLine
 10
-511.4992337132112
 20
-376.272381952004
 30
0.0
 11
-431.4992337132111
 21
-376.272381952004
 31
0.0
  0
LWPOLYLINE
  5
F0
330
1F
100
AcDbEntity
  8
A-4
  6
Continuous
 62
     7
370
     9
100
AcDbPolyline
 90
        4
 70
     1
 43
1.0
 10
-510.9992337132113
 20
-376.272381952004
 42
0.4142135623731
 10
-511.4992337132112
 20
-375.772381952004
 42
0.4142135623731
 10
-511.9992337132112
 20
-376.272381952004
 42
0.4142135623731
 10
-511.4992337132112
 20
-376.772381952004
 42
0.4142135623731
  0
LWPOLYLINE
  5
F1
330
1F
100
AcDbEntity
  8
A-4
  6
Continuous
 62
     7
370
     9
100
AcDbPolyline
 90
        4
 70
     1
 43
1.0
 10
-430.9992337132111
 20
-376.272381952004
 42
0.4142135623731
 10
-431.4992337132111
 20
-375.772381952004
 42
0.4142135623731
 10
-431.9992337132111
 20
-376.272381952004
 42
0.4142135623731
 10
-431.4992337132111
 20
-376.772381952004
 42
0.4142135623731
  0
LINE
  5
F2
330
1F
100
AcDbEntity
  8
A-4
  6
Continuous
 62
     7
370
     9
100
AcDbLine
 10
-511.4992337132112
 20
-373.272381952004
 30
0.0
 11
-511.4992337132112
 21
-469.1338836390933
 31
0.0
  0
LINE
  5
F3
330
1F
100
AcDbEntity
  8
A-4
  6
Continuous
 62
     7
370
     9
100
AcDbLine
 10
-431.4992337132111
 20
-373.272381952004
 30
0.0
 11
-431.4992337132111
 21
-469.1338836390933
 31
0.0
  0
TEXT
  5
F4
330
1F
100
AcDbEntity
  8
A-4
  6
Continuous
 62
     2
370
     0
100
AcDbText
 10
-492.7492337132111
 20
-364.632381952004
 30
0.0
 40
30.48
  1
40
 41
1.0625
  7
ＭＳ ゴシック
100
AcDbText
  0
LWPOLYLINE
  5
F5
330
1F
100
AcDbEntity
  8
A-4
  6
Continuous
 62
     7
370
     9
100
AcDbPolyline
 90
        4
 70
     1
 43
1.0
 10
-510.9992337132113
 20
-435.087874576762
 42
0.4142135623731
 10
-511.4992337132112
 20
-434.5878745767621
 42
0.4142135623731
 10
-511.9992337132112
 20
-435.087874576762
 42
0.4142135623731
 10
-511.4992337132112
 20
-435.587874576762
 42
0.4142135623731
  0
LWPOLYLINE
  5
F6
330
1F
100
AcDbEntity
  8
A-4
  6
Continuous
 62
     7
370
     9
100
AcDbPolyline
 90
        4
 70
     1
 43
1.0
 10
-470.9992337132111
 20
-435.087874576762
 42
0.4142135623731
 10
-471.4992337132111
 20
-434.5878745767621
 42
0.4142135623731
 10
-471.9992337132111
 20
-435.087874576762
 42
0.4142135623731
 10
-471.4992337132111
 20
-435.587874576762
 42
0.4142135623731
  0
LINE
  5
F7
330
1F
100
AcDbEntity
  8
A-4
  6
Continuous
 62
     7
370
     9
100
AcDbLine
 10
-471.4992337132111
 20
-432.0878745767621
 30
0.0
 11
-471.4992337132111
 21
-480.3623316390932
 31
0.0
  0
LWPOLYLINE
  5
F8
330
1F
100
AcDbEntity
  8
A-4
  6
Continuous
 62
     7
370
     9
100
AcDbPolyline
 90
        4
 70
     1
 43
1.0
 10
-430.9992337132111
 20
-435.087874576762
 42
0.4142135623731
 10
-431.4992337132111
 20
-434.5878745767621
 42
0.4142135623731
 10
-431.9992337132111
 20
-435.087874576762
 42
0.4142135623731
 10
-431.4992337132111
 20
-435.587874576762
 42
0.4142135623731
  0
TEXT
  5
F9
330
1F
100
AcDbEntity
  8
A-4
  6
Continuous
 62
     2
370
     0
100
AcDbText
 10
-561.2659630329763
 20
-423.447874576762
 30
0.0
 40
30.48
  1
20
 41
1.0625
  7
ＭＳ ゴシック
100
AcDbText
  0
TEXT
  5
FA
330
1F
100
AcDbEntity
  8
A-4
  6
Continuous
 62
     2
370
     0
100
AcDbText
 10
-417.7353322131205
 20
-423.447874576762
 30
0.0
 40
30.48
  1
20
 41
1.0625
  7
ＭＳ ゴシック
100
AcDbText
  0
LINE
  5
FB
330
1F
100
AcDbEntity
  8
A-4
  6
Continuous
 62
     7
370
     9
100
AcDbLine
 10
-564.1677518728559
 20
-435.087874576762
 30
0.0
 11
-471.4992337132111
 21
-435.087874576762
 31
0.0
  0
LINE
  5
FC
330
1F
100
AcDbEntity
  8
A-4
  6
Continuous
 62
     7
370
     9
100
AcDbLine
 10
-471.4992337132111
 20
-435.087874576762
 30
0.0
 11
-366.1230833858434
 21
-435.087874576762
 31
0.0
  0
LINE
  5
FD
330
1F
100
AcDbEntity
  8
A-0
  6
Continuous
 62
     7
370
     9
100
AcDbLine
 10
-332.6233830172438
 20
-614.1985386390933
 30
0.0
 11
-252.6233830172438
 21
-614.1985386390933
 31
0.0
  0
LINE
  5
FE
330
1F
100
AcDbEntity
  8
A-0
  6
Continuous
 62
     7
370
     9
100
AcDbLine
 10
-252.6233830172438
 20
-614.1985386390933
 30
0.0
 11
-252.6233830172438
 21
-774.1985386390934
 31
0.0
  0
LINE
  5
FF
330
1F
100
AcDbEntity
  8
A-0
  6
Continuous
 62
     7
370
     9
100
AcDbLine
 10
-332.6233830172438
 20
-614.1985386390933
 30
0.0
 11
-332.6233830172438
 21
-618.1985386390933
 31
0.0
  0
LINE
  5
100
330
1F
100
AcDbEntity
  8
A-0
  6
Continuous
 62
     7
370
     9
100
AcDbLine
 10
-332.6233830172438
 20
-618.1985386390933
 30
0.0
 11
-256.6233830172438
 21
-618.1985386390933
 31
0.0
  0
LINE
  5
101
330
1F
100
AcDbEntity
  8
A-0
  6
Continuous
 62
     7
370
     9
100
AcDbLine
 10
-256.6233830172438
 20
-618.1985386390933
 30
0.0
 11
-256.6233830172438
 21
-774.1985386390934
 31
0.0
  0
LINE
  5
102
330
1F
100
AcDbEntity
  8
A-0
  6
Continuous
 62
     7
370
     9
100
AcDbLine
 10
-256.6233830172438
 20
-774.1985386390934
 30
0.0
 11
-252.6233830172438
 21
-774.1985386390934
 31
0.0
  0
LINE
  5
103
330
1F
100
AcDbEntity
  8
A-0
  6
JWW_DASHED1
 62
     7
370
     9
100
AcDbLine
 10
-314.6233830172438
 20
-614.1985386390933
 30
0.0
 11
-314.6233830172438
 21
-618.1985386390933
 31
0.0
  0
LINE
  5
104
330
1F
100
AcDbEntity
  8
A-0
  6
JWW_DASHED1
 62
     7
370
     9
100
AcDbLine
 10
-270.6233830172437
 20
-614.1985386390933
 30
0.0
 11
-270.6233830172437
 21
-618.1985386390933
 31
0.0
  0
LINE
  5
105
330
1F
100
AcDbEntity
  8
A-0
  6
JWW_CENTER2
 62
     7
370
     9
100
AcDbLine
 10
-292.6233830172438
 20
-596.5369006390932
 30
0.0
 11
-292.6233830172438
 21
-635.4593146390932
 31
0.0
  0
LINE
  5
106
330
1F
100
AcDbEntity
  8
A-0
  6
JWW_CENTER2
 62
     7
370
     9
100
AcDbLine
 10
-275.6567880172437
 20
-734.1985386390934
 30
0.0
 11
-231.3033400172438
 21
-734.1985386390934
 31
0.0
  0
LINE
  5
107
330
1F
100
AcDbEntity
  8
A-0
  6
JWW_DASHED1
 62
     7
370
     9
100
AcDbLine
 10
-256.6233830172438
 20
-722.1985386390934
 30
0.0
 11
-252.6233830172438
 21
-722.1985386390934
 31
0.0
  0
LINE
  5
108
330
1F
100
AcDbEntity
  8
A-0
  6
JWW_DASHED1
 62
     7
370
     9
100
AcDbLine
 10
-256.6233830172438
 20
-746.1985386390934
 30
0.0
 11
-252.6233830172438
 21
-746.1985386390934
 31
0.0
  0
LINE
  5
109
330
1F
100
AcDbEntity
  8
A-4
  6
Continuous
 62
     7
370
     9
100
AcDbLine
 10
-332.623383017244
 20
-501.337036952004
 30
0.0
 11
-252.6233830172438
 21
-501.337036952004
 31
0.0
  0
LWPOLYLINE
  5
10A
330
1F
100
AcDbEntity
  8
A-4
  6
Continuous
 62
     7
370
     9
100
AcDbPolyline
 90
        4
 70
     1
 43
1.0
 10
-332.123383017244
 20
-501.337036952004
 42
0.4142135623731
 10
-332.623383017244
 20
-500.837036952004
 42
0.4142135623731
 10
-333.123383017244
 20
-501.337036952004
 42
0.4142135623731
 10
-332.623383017244
 20
-501.837036952004
 42
0.4142135623731
  0
LWPOLYLINE
  5
10B
330
1F
100
AcDbEntity
  8
A-4
  6
Continuous
 62
     7
370
     9
100
AcDbPolyline
 90
        4
 70
     1
 43
1.0
 10
-252.1233830172438
 20
-501.337036952004
 42
0.4142135623731
 10
-252.6233830172438
 20
-500.837036952004
 42
0.4142135623731
 10
-253.1233830172438
 20
-501.337036952004
 42
0.4142135623731
 10
-252.6233830172438
 20
-501.837036952004
 42
0.4142135623731
  0
LINE
  5
10C
330
1F
100
AcDbEntity
  8
A-4
  6
Continuous
 62
     7
370
     9
100
AcDbLine
 10
-332.623383017244
 20
-498.337036952004
 30
0.0
 11
-332.623383017244
 21
-594.1985386390933
 31
0.0
  0
LINE
  5
10D
330
1F
100
AcDbEntity
  8
A-4
  6
Continuous
 62
     7
370
     9
100
AcDbLine
 10
-252.6233830172438
 20
-498.337036952004
 30
0.0
 11
-252.6233830172438
 21
-594.1985386390933
 31
0.0
  0
TEXT
  5
10E
330
1F
100
AcDbEntity
  8
A-4
  6
Continuous
 62
     2
370
     0
100
AcDbText
 10
-313.8733830172439
 20
-489.6970369520041
 30
0.0
 40
30.48
  1
40
 41
1.0625
  7
ＭＳ ゴシック
100
AcDbText
  0
LWPOLYLINE
  5
10F
330
1F
100
AcDbEntity
  8
A-4
  6
Continuous
 62
     7
370
     9
100
AcDbPolyline
 90
        4
 70
     1
 43
1.0
 10
-332.123383017244
 20
-560.1525295767622
 42
0.4142135623731
 10
-332.623383017244
 20
-559.6525295767622
 42
0.4142135623731
 10
-333.123383017244
 20
-560.1525295767622
 42
0.4142135623731
 10
-332.623383017244
 20
-560.652529576762
 42
0.4142135623731
  0
LWPOLYLINE
  5
110
330
1F
100
AcDbEntity
  8
A-4
  6
Continuous
 62
     7
370
     9
100
AcDbPolyline
 90
        4
 70
     1
 43
1.0
 10
-292.1233830172438
 20
-560.1525295767622
 42
0.4142135623731
 10
-292.6233830172438
 20
-559.6525295767622
 42
0.4142135623731
 10
-293.1233830172438
 20
-560.1525295767622
 42
0.4142135623731
 10
-292.6233830172438
 20
-560.652529576762
 42
0.4142135623731
  0
LWPOLYLINE
  5
111
330
1F
100
AcDbEntity
  8
A-4
  6
Continuous
 62
     7
370
     9
100
AcDbPolyline
 90
        4
 70
     1
 43
1.0
 10
-252.1233830172438
 20
-560.1525295767622
 42
0.4142135623731
 10
-252.6233830172438
 20
-559.6525295767622
 42
0.4142135623731
 10
-253.1233830172438
 20
-560.1525295767622
 42
0.4142135623731
 10
-252.6233830172438
 20
-560.652529576762
 42
0.4142135623731
  0
TEXT
  5
112
330
1F
100
AcDbEntity
  8
A-4
  6
Continuous
 62
     2
370
     0
100
AcDbText
 10
-382.3901123370091
 20
-548.5125295767621
 30
0.0
 40
30.48
  1
20
 41
1.0625
  7
ＭＳ ゴシック
100
AcDbText
  0
TEXT
  5
113
330
1F
100
AcDbEntity
  8
A-4
  6
Continuous
 62
     2
370
     0
100
AcDbText
 10
-238.8594815171532
 20
-548.5125295767621
 30
0.0
 40
30.48
  1
20
 41
1.0625
  7
ＭＳ ゴシック
100
AcDbText
  0
LINE
  5
114
330
1F
100
AcDbEntity
  8
A-4
  6
Continuous
 62
     7
370
     9
100
AcDbLine
 10
-385.2919011768887
 20
-560.1525295767622
 30
0.0
 11
-292.6233830172438
 21
-560.1525295767622
 31
0.0
  0
LINE
  5
115
330
1F
100
AcDbEntity
  8
A-4
  6
Continuous
 62
     7
370
     9
100
AcDbLine
 10
-292.6233830172438
 20
-560.1525295767622
 30
0.0
 11
-187.2472326898761
 21
-560.1525295767622
 31
0.0
  0
LINE
  5
116
330
1F
100
AcDbEntity
  8
A-4
  6
Continuous
 62
     7
370
     9
100
AcDbLine
 10
-292.6233830172438
 20
-557.1525295767622
 30
0.0
 11
-292.6233830172438
 21
-594.1985386390933
 31
0.0
  0
LINE
  5
117
330
1F
100
AcDbEntity
  8
A-4
  6
Continuous
 62
     7
370
     9
100
AcDbLine
 10
-111.046008886616
 20
-774.1985386390934
 30
0.0
 11
-111.046008886616
 21
-614.1985386390933
 31
0.0
  0
LWPOLYLINE
  5
118
330
1F
100
AcDbEntity
  8
A-4
  6
Continuous
 62
     7
370
     9
100
AcDbPolyline
 90
        4
 70
     1
 43
1.0
 10
-110.546008886616
 20
-774.1985386390934
 42
0.4142135623731
 10
-111.046008886616
 20
-773.6985386390934
 42
0.4142135623731
 10
-111.546008886616
 20
-774.1985386390934
 42
0.4142135623731
 10
-111.046008886616
 20
-774.6985386390934
 42
0.4142135623731
  0
LWPOLYLINE
  5
119
330
1F
100
AcDbEntity
  8
A-4
  6
Continuous
 62
     7
370
     9
100
AcDbPolyline
 90
        4
 70
     1
 43
1.0
 10
-110.546008886616
 20
-614.1985386390933
 42
0.4142135623731
 10
-111.046008886616
 20
-613.6985386390934
 42
0.4142135623731
 10
-111.546008886616
 20
-614.1985386390933
 42
0.4142135623731
 10
-111.046008886616
 20
-614.6985386390933
 42
0.4142135623731
  0
LINE
  5
11A
330
1F
100
AcDbEntity
  8
A-4
  6
Continuous
 62
     7
370
     9
100
AcDbLine
 10
-108.046008886616
 20
-774.1985386390934
 30
0.0
 11
-232.6233830172438
 21
-774.1985386390934
 31
0.0
  0
LINE
  5
11B
330
1F
100
AcDbEntity
  8
A-4
  6
Continuous
 62
     7
370
     9
100
AcDbLine
 10
-108.046008886616
 20
-614.1985386390933
 30
0.0
 11
-232.6233830172438
 21
-614.1985386390933
 31
0.0
  0
TEXT
  5
11C
330
1F
100
AcDbEntity
  8
A-4
  6
Continuous
 62
     2
370
     0
100
AcDbText
 10
-122.686008886616
 20
-715.4485386390934
 30
0.0
 40
30.48
  1
80
 50
90.0
 41
1.0625
  7
ＭＳ ゴシック
100
AcDbText
  0
LWPOLYLINE
  5
11D
330
1F
100
AcDbEntity
  8
A-4
  6
Continuous
 62
     7
370
     9
100
AcDbPolyline
 90
        4
 70
     1
 43
1.0
 10
-170.0115951161155
 20
-774.1985386390934
 42
0.4142135623731
 10
-170.5115951161155
 20
-773.6985386390934
 42
0.4142135623731
 10
-171.0115951161155
 20
-774.1985386390934
 42
0.4142135623731
 10
-170.5115951161155
 20
-774.6985386390934
 42
0.4142135623731
  0
LWPOLYLINE
  5
11E
330
1F
100
AcDbEntity
  8
A-4
  6
Continuous
 62
     7
370
     9
100
AcDbPolyline
 90
        4
 70
     1
 43
1.0
 10
-170.0115951161155
 20
-734.1985386390934
 42
0.4142135623731
 10
-170.5115951161155
 20
-733.6985386390934
 42
0.4142135623731
 10
-171.0115951161155
 20
-734.1985386390934
 42
0.4142135623731
 10
-170.5115951161155
 20
-734.6985386390934
 42
0.4142135623731
  0
LINE
  5
11F
330
1F
100
AcDbEntity
  8
A-4
  6
Continuous
 62
     7
370
     9
100
AcDbLine
 10
-167.5115951161155
 20
-734.1985386390934
 30
0.0
 11
-211.3033400172438
 21
-734.1985386390934
 31
0.0
  0
LINE
  5
120
330
1F
100
AcDbEntity
  8
A-4
  6
Continuous
 62
     7
370
     9
100
AcDbLine
 10
-170.5115951161155
 20
-734.1985386390934
 30
0.0
 11
-170.5115951161155
 21
-614.1985386390933
 31
0.0
  0
LWPOLYLINE
  5
121
330
1F
100
AcDbEntity
  8
A-4
  6
Continuous
 62
     7
370
     9
100
AcDbPolyline
 90
        4
 70
     1
 43
1.0
 10
-170.0115951161155
 20
-614.1985386390933
 42
0.4142135623731
 10
-170.5115951161155
 20
-613.6985386390934
 42
0.4142135623731
 10
-171.0115951161155
 20
-614.1985386390933
 42
0.4142135623731
 10
-170.5115951161155
 20
-614.6985386390933
 42
0.4142135623731
  0
TEXT
  5
122
330
1F
100
AcDbEntity
  8
A-4
  6
Continuous
 62
     2
370
     0
100
AcDbText
 10
-182.1515951161155
 20
-695.4485386390934
 30
0.0
 40
30.48
  1
60
 50
90.0
 41
1.0625
  7
ＭＳ ゴシック
100
AcDbText
  0
TEXT
  5
123
330
1F
100
AcDbEntity
  8
A-4
  6
Continuous
 62
     2
370
     0
100
AcDbText
 10
-182.1515951161155
 20
-823.2830401906799
 30
0.0
 40
30.48
  1
20
 50
90.0
 41
1.0625
  7
ＭＳ ゴシック
100
AcDbText
  0
LINE
  5
124
330
1F
100
AcDbEntity
  8
A-4
  6
Continuous
 62
     7
370
     9
100
AcDbLine
 10
-170.5115951161155
 20
-831.4514586813015
 30
0.0
 11
-170.5115951161155
 21
-734.1985386390934
 31
0.0
  0
LWPOLYLINE
  5
125
330
1F
100
AcDbEntity
  8
A-4
  6
Continuous
 62
     7
370
     9
100
AcDbPolyline
 90
        4
 70
     1
 43
1.0
 10
-256.1233830172438
 20
-873.1538192256529
 42
0.4142135623731
 10
-256.6233830172438
 20
-872.653819225653
 42
0.4142135623731
 10
-257.1233830172438
 20
-873.1538192256529
 42
0.4142135623731
 10
-256.6233830172438
 20
-873.6538192256529
 42
0.4142135623731
  0
LWPOLYLINE
  5
126
330
1F
100
AcDbEntity
  8
A-4
  6
Continuous
 62
     7
370
     9
100
AcDbPolyline
 90
        4
 70
     1
 43
1.0
 10
-252.1233830172438
 20
-873.1538192256529
 42
0.4142135623731
 10
-252.6233830172438
 20
-872.653819225653
 42
0.4142135623731
 10
-253.1233830172438
 20
-873.1538192256529
 42
0.4142135623731
 10
-252.6233830172438
 20
-873.6538192256529
 42
0.4142135623731
  0
LINE
  5
127
330
1F
100
AcDbEntity
  8
A-4
  6
Continuous
 62
     7
370
     9
100
AcDbLine
 10
-256.6233830172438
 20
-876.1538192256529
 30
0.0
 11
-256.6233830172438
 21
-794.1985386390934
 31
0.0
  0
LINE
  5
128
330
1F
100
AcDbEntity
  8
A-4
  6
Continuous
 62
     7
370
     9
100
AcDbLine
 10
-252.6233830172438
 20
-876.1538192256529
 30
0.0
 11
-252.6233830172438
 21
-794.1985386390934
 31
0.0
  0
TEXT
  5
129
330
1F
100
AcDbEntity
  8
A-4
  6
Continuous
 62
     2
370
     0
100
AcDbText
 10
-285.4323321431072
 20
-861.513819225653
 30
0.0
 40
30.48
  1
2
 41
0.9999999999999998
  7
ＭＳ ゴシック
100
AcDbText
  0
LINE
  5
12A
330
1F
100
AcDbEntity
  8
A-4
  6
Continuous
 62
     7
370
     9
100
AcDbLine
 10
-288.6633121162586
 20
-873.1538192256529
 30
0.0
 11
-252.6233830172438
 21
-873.1538192256529
 31
0.0
  0
LWPOLYLINE
  5
12B
330
1F
100
AcDbEntity
  8
C-4
  6
Continuous
 62
     7
370
     9
100
AcDbPolyline
 90
        4
 70
     1
 43
1.0
 10
265.833132286789
 20
-410.1216831197928
 42
0.4142135623731
 10
265.333132286789
 20
-409.6216831197928
 42
0.4142135623731
 10
264.833132286789
 20
-410.1216831197928
 42
0.4142135623731
 10
265.333132286789
 20
-410.6216831197928
 42
0.4142135623731
  0
LWPOLYLINE
  5
12C
330
1F
100
AcDbEntity
  8
C-4
  6
Continuous
 62
     7
370
     9
100
AcDbPolyline
 90
        4
 70
     1
 43
1.0
 10
275.833132286789
 20
-410.1216831197928
 42
0.4142135623731
 10
275.333132286789
 20
-409.6216831197928
 42
0.4142135623731
 10
274.833132286789
 20
-410.1216831197928
 42
0.4142135623731
 10
275.333132286789
 20
-410.6216831197928
 42
0.4142135623731
  0
LINE
  5
12D
330
1F
100
AcDbEntity
  8
C-4
  6
Continuous
 62
     7
370
     9
100
AcDbLine
 10
275.333132286789
 20
-410.1216831197928
 30
0.0
 11
320.333132286789
 21
-410.1216831197928
 31
0.0
  0
LWPOLYLINE
  5
12E
330
1F
100
AcDbEntity
  8
C-4
  6
Continuous
 62
     7
370
     9
100
AcDbPolyline
 90
        4
 70
     1
 43
1.0
 10
320.833132286789
 20
-410.1216831197928
 42
0.4142135623731
 10
320.333132286789
 20
-409.6216831197928
 42
0.4142135623731
 10
319.833132286789
 20
-410.1216831197928
 42
0.4142135623731
 10
320.333132286789
 20
-410.6216831197928
 42
0.4142135623731
  0
TEXT
  5
12F
330
1F
100
AcDbEntity
  8
C-4
  6
Continuous
 62
     7
370
     0
100
AcDbText
 10
281.583132286789
 20
-399.8916831197928
 30
0.0
 40
22.86
  1
45
 41
1.083333333333333
  7
ＭＳ ゴシック
100
AcDbText
  0
LINE
  5
130
330
1F
100
AcDbEntity
  8
C-4
  6
Continuous
 62
     7
370
     9
100
AcDbLine
 10
320.333132286789
 20
-410.1216831197928
 30
0.0
 11
325.333132286789
 21
-410.1216831197928
 31
0.0
  0
LWPOLYLINE
  5
131
330
1F
100
AcDbEntity
  8
C-4
  6
Continuous
 62
     7
370
     9
100
AcDbPolyline
 90
        4
 70
     1
 43
1.0
 10
325.833132286789
 20
-410.1216831197928
 42
0.4142135623731
 10
325.333132286789
 20
-409.6216831197928
 42
0.4142135623731
 10
324.833132286789
 20
-410.1216831197928
 42
0.4142135623731
 10
325.333132286789
 20
-410.6216831197928
 42
0.4142135623731
  0
LINE
  5
132
330
1F
100
AcDbEntity
  8
C-4
  6
Continuous
 62
     7
370
     9
100
AcDbLine
 10
325.333132286789
 20
-410.1216831197928
 30
0.0
 11
355.3331322867891
 21
-410.1216831197928
 31
0.0
  0
LWPOLYLINE
  5
133
330
1F
100
AcDbEntity
  8
C-4
  6
Continuous
 62
     7
370
     9
100
AcDbPolyline
 90
        4
 70
     1
 43
1.0
 10
355.833132286789
 20
-410.1216831197928
 42
0.4142135623731
 10
355.3331322867891
 20
-409.6216831197928
 42
0.4142135623731
 10
354.8331322867891
 20
-410.1216831197928
 42
0.4142135623731
 10
355.3331322867891
 20
-410.6216831197928
 42
0.4142135623731
  0
LINE
  5
134
330
1F
100
AcDbEntity
  8
C-4
  6
Continuous
 62
     7
370
     9
100
AcDbLine
 10
355.3331322867891
 20
-410.1216831197928
 30
0.0
 11
405.3331322867891
 21
-410.1216831197928
 31
0.0
  0
LWPOLYLINE
  5
135
330
1F
100
AcDbEntity
  8
C-4
  6
Continuous
 62
     7
370
     9
100
AcDbPolyline
 90
        4
 70
     1
 43
1.0
 10
405.833132286789
 20
-410.1216831197928
 42
0.4142135623731
 10
405.3331322867891
 20
-409.6216831197928
 42
0.4142135623731
 10
404.8331322867891
 20
-410.1216831197928
 42
0.4142135623731
 10
405.3331322867891
 20
-410.6216831197928
 42
0.4142135623731
  0
TEXT
  5
136
330
1F
100
AcDbEntity
  8
C-4
  6
Continuous
 62
     7
370
     0
100
AcDbText
 10
364.0831322867891
 20
-399.8916831197928
 30
0.0
 40
22.86
  1
50
 41
1.083333333333333
  7
ＭＳ ゴシック
100
AcDbText
  0
TEXT
  5
137
330
1F
100
AcDbEntity
  8
C-4
  6
Continuous
 62
     7
370
     0
100
AcDbText
 10
223.0672455981411
 20
-399.8916831197928
 30
0.0
 40
22.86
  1
10
 41
1.083333333333333
  7
ＭＳ ゴシック
100
AcDbText
  0
LINE
  5
138
330
1F
100
AcDbEntity
  8
C-4
  6
Continuous
 62
     7
370
     9
100
AcDbLine
 10
275.333132286789
 20
-413.1216831197928
 30
0.0
 11
275.333132286789
 21
-40.10137926205985
 31
0.0
  0
LINE
  5
139
330
1F
100
AcDbEntity
  8
C-4
  6
Continuous
 62
     7
370
     9
100
AcDbLine
 10
265.333132286789
 20
-413.1216831197928
 30
0.0
 11
265.333132286789
 21
4.39907582440668
 31
0.0
  0
LINE
  5
13A
330
1F
100
AcDbEntity
  8
C-4
  6
Continuous
 62
     7
370
     9
100
AcDbLine
 10
320.333132286789
 20
-413.1216831197928
 30
0.0
 11
320.333132286789
 21
-40.10137926205985
 31
0.0
  0
LINE
  5
13B
330
1F
100
AcDbEntity
  8
C-4
  6
Continuous
 62
     7
370
     9
100
AcDbLine
 10
325.333132286789
 20
-413.1216831197928
 30
0.0
 11
325.333132286789
 21
-156.6925715886019
 31
0.0
  0
LINE
  5
13C
330
1F
100
AcDbEntity
  8
C-4
  6
Continuous
 62
     7
370
     9
100
AcDbLine
 10
355.3331322867891
 20
-413.1216831197928
 30
0.0
 11
355.3331322867891
 21
-215.4331723027375
 31
0.0
  0
LINE
  5
13D
330
1F
100
AcDbEntity
  8
C-4
  6
Continuous
 62
     7
370
     9
100
AcDbLine
 10
405.3331322867891
 20
-413.1216831197928
 30
0.0
 11
405.3331322867891
 21
-215.4331723027375
 31
0.0
  0
LINE
  5
13E
330
1F
100
AcDbEntity
  8
C-4
  6
Continuous
 62
     7
370
     9
100
AcDbLine
 10
745.8339776760047
 20
-0.9375026471771086
 30
0.0
 11
745.8339776760047
 21
599.0624973528229
 31
0.0
  0
LWPOLYLINE
  5
13F
330
1F
100
AcDbEntity
  8
C-4
  6
Continuous
 62
     7
370
     9
100
AcDbPolyline
 90
        4
 70
     1
 43
1.0
 10
746.3339776760047
 20
-0.9375026471771086
 42
0.4142135623731
 10
745.8339776760047
 20
-0.4375026471771086
 42
0.4142135623731
 10
745.3339776760048
 20
-0.9375026471771086
 42
0.4142135623731
 10
745.8339776760047
 20
-1.437502647177109
 42
0.4142135623731
  0
LWPOLYLINE
  5
140
330
1F
100
AcDbEntity
  8
C-4
  6
Continuous
 62
     7
370
     9
100
AcDbPolyline
 90
        4
 70
     1
 43
1.0
 10
746.3339776760047
 20
599.0624973528229
 42
0.4142135623731
 10
745.8339776760047
 20
599.5624973528229
 42
0.4142135623731
 10
745.3339776760048
 20
599.0624973528229
 42
0.4142135623731
 10
745.8339776760047
 20
598.5624973528229
 42
0.4142135623731
  0
TEXT
  5
141
330
1F
100
AcDbEntity
  8
C-4
  6
Continuous
 62
     2
370
     0
100
AcDbText
 10
734.1939776760048
 20
266.5624973528229
 30
0.0
 40
30.48
  1
600
 50
90.0
 41
1.083333333333333
  7
ＭＳ ゴシック
100
AcDbText
  0
LINE
  5
142
330
1F
100
AcDbEntity
  8
C-4
  6
Continuous
 62
     7
370
     9
100
AcDbLine
 10
-1011.499233713211
 20
707.4631379962194
 30
0.0
 11
-411.4992337132111
 21
707.4631379962194
 31
0.0
  0
LWPOLYLINE
  5
143
330
1F
100
AcDbEntity
  8
C-4
  6
Continuous
 62
     7
370
     9
100
AcDbPolyline
 90
        4
 70
     1
 43
1.0
 10
-1010.999233713211
 20
707.4631379962194
 42
0.4142135623731
 10
-1011.499233713211
 20
707.9631379962194
 42
0.4142135623731
 10
-1011.999233713211
 20
707.4631379962194
 42
0.4142135623731
 10
-1011.499233713211
 20
706.9631379962195
 42
0.4142135623731
  0
LWPOLYLINE
  5
144
330
1F
100
AcDbEntity
  8
C-4
  6
Continuous
 62
     7
370
     9
100
AcDbPolyline
 90
        4
 70
     1
 43
1.0
 10
-410.9992337132111
 20
707.4631379962194
 42
0.4142135623731
 10
-411.4992337132111
 20
707.9631379962194
 42
0.4142135623731
 10
-411.9992337132111
 20
707.4631379962194
 42
0.4142135623731
 10
-411.4992337132111
 20
706.9631379962195
 42
0.4142135623731
  0
LINE
  5
145
330
1F
100
AcDbEntity
  8
C-4
  6
Continuous
 62
     7
370
     9
100
AcDbLine
 10
-1011.499233713211
 20
710.4631379962194
 30
0.0
 11
-1011.499233713211
 21
619.0624973528229
 31
0.0
  0
LINE
  5
146
330
1F
100
AcDbEntity
  8
C-4
  6
Continuous
 62
     7
370
     9
100
AcDbLine
 10
-411.4992337132111
 20
710.4631379962194
 30
0.0
 11
-411.4992337132111
 21
619.0624973528229
 31
0.0
  0
TEXT
  5
147
330
1F
100
AcDbEntity
  8
C-4
  6
Continuous
 62
     2
370
     0
100
AcDbText
 10
-743.9992337132111
 20
719.1031379962194
 30
0.0
 40
30.48
  1
600
 41
1.083333333333333
  7
ＭＳ ゴシック
100
AcDbText
  0
LINE
  5
148
330
1F
100
AcDbEntity
  8
C-4
  6
Continuous
 62
     7
370
     9
100
AcDbLine
 10
-1029.499233713211
 20
908.8404396835401
 30
0.0
 11
-393.4992337132111
 21
908.8404396835401
 31
0.0
  0
LWPOLYLINE
  5
149
330
1F
100
AcDbEntity
  8
C-4
  6
Continuous
 62
     7
370
     9
100
AcDbPolyline
 90
        4
 70
     1
 43
1.0
 10
-1028.999233713211
 20
908.8404396835401
 42
0.4142135623731
 10
-1029.499233713211
 20
909.34043968354
 42
0.4142135623731
 10
-1029.999233713211
 20
908.8404396835401
 42
0.4142135623731
 10
-1029.499233713211
 20
908.3404396835401
 42
0.4142135623731
  0
LWPOLYLINE
  5
14A
330
1F
100
AcDbEntity
  8
C-4
  6
Continuous
 62
     7
370
     9
100
AcDbPolyline
 90
        4
 70
     1
 43
1.0
 10
-392.9992337132111
 20
908.8404396835401
 42
0.4142135623731
 10
-393.4992337132111
 20
909.34043968354
 42
0.4142135623731
 10
-393.9992337132111
 20
908.8404396835401
 42
0.4142135623731
 10
-393.4992337132111
 20
908.3404396835401
 42
0.4142135623731
  0
LINE
  5
14B
330
1F
100
AcDbEntity
  8
C-4
  6
Continuous
 62
     7
370
     9
100
AcDbLine
 10
-1029.499233713211
 20
911.84043968354
 30
0.0
 11
-1029.499233713211
 21
637.062497352823
 31
0.0
  0
LINE
  5
14C
330
1F
100
AcDbEntity
  8
C-4
  6
Continuous
 62
     7
370
     9
100
AcDbLine
 10
-393.4992337132111
 20
911.84043968354
 30
0.0
 11
-393.4992337132111
 21
637.062497352823
 31
0.0
  0
LINE
  5
14D
330
1F
100
AcDbEntity
  8
C-4
  6
Continuous
 62
     7
370
     9
100
AcDbLine
 10
-1061.499233713211
 20
978.1670517398309
 30
0.0
 11
-361.4992337132111
 21
978.1670517398309
 31
0.0
  0
LWPOLYLINE
  5
14E
330
1F
100
AcDbEntity
  8
C-4
  6
Continuous
 62
     7
370
     9
100
AcDbPolyline
 90
        4
 70
     1
 43
1.0
 10
-1060.999233713211
 20
978.1670517398309
 42
0.4142135623731
 10
-1061.499233713211
 20
978.6670517398308
 42
0.4142135623731
 10
-1061.999233713211
 20
978.1670517398309
 42
0.4142135623731
 10
-1061.499233713211
 20
977.6670517398309
 42
0.4142135623731
  0
LWPOLYLINE
  5
14F
330
1F
100
AcDbEntity
  8
C-4
  6
Continuous
 62
     7
370
     9
100
AcDbPolyline
 90
        4
 70
     1
 43
1.0
 10
-360.9992337132111
 20
978.1670517398309
 42
0.4142135623731
 10
-361.4992337132111
 20
978.6670517398308
 42
0.4142135623731
 10
-361.9992337132111
 20
978.1670517398309
 42
0.4142135623731
 10
-361.4992337132111
 20
977.6670517398309
 42
0.4142135623731
  0
LINE
  5
150
330
1F
100
AcDbEntity
  8
C-4
  6
Continuous
 62
     7
370
     9
100
AcDbLine
 10
-1061.499233713211
 20
981.1670517398308
 30
0.0
 11
-1061.499233713211
 21
669.4624973528231
 31
0.0
  0
LINE
  5
151
330
1F
100
AcDbEntity
  8
C-4
  6
Continuous
 62
     7
370
     9
100
AcDbLine
 10
-361.4992337132111
 20
981.1670517398308
 30
0.0
 11
-361.4992337132111
 21
669.4624973528231
 31
0.0
  0
TEXT
  5
152
330
1F
100
AcDbEntity
  8
C-4
  6
Continuous
 62
     2
370
     0
100
AcDbText
 10
-743.9992337132111
 20
989.8070517398307
 30
0.0
 40
30.48
  1
700
 41
1.083333333333333
  7
ＭＳ ゴシック
100
AcDbText
  0
LINE
  5
153
330
1F
100
AcDbEntity
  8
C-4
  6
Continuous
 62
     7
370
     9
100
AcDbLine
 10
-1211.499233713211
 20
1042.541762934958
 30
0.0
 11
-211.4992337132111
 21
1042.541762934958
 31
0.0
  0
LWPOLYLINE
  5
154
330
1F
100
AcDbEntity
  8
C-4
  6
Continuous
 62
     7
370
     9
100
AcDbPolyline
 90
        4
 70
     1
 43
1.0
 10
-1210.999233713211
 20
1042.541762934958
 42
0.4142135623731
 10
-1211.499233713211
 20
1043.041762934958
 42
0.4142135623731
 10
-1211.999233713211
 20
1042.541762934958
 42
0.4142135623731
 10
-1211.499233713211
 20
1042.041762934958
 42
0.4142135623731
  0
LWPOLYLINE
  5
155
330
1F
100
AcDbEntity
  8
C-4
  6
Continuous
 62
     7
370
     9
100
AcDbPolyline
 90
        4
 70
     1
 43
1.0
 10
-210.9992337132111
 20
1042.541762934958
 42
0.4142135623731
 10
-211.4992337132111
 20
1043.041762934958
 42
0.4142135623731
 10
-211.9992337132111
 20
1042.541762934958
 42
0.4142135623731
 10
-211.4992337132111
 20
1042.041762934958
 42
0.4142135623731
  0
LINE
  5
156
330
1F
100
AcDbEntity
  8
C-4
  6
Continuous
 62
     7
370
     9
100
AcDbLine
 10
-1211.499233713211
 20
1045.541762934958
 30
0.0
 11
-1211.499233713211
 21
819.4624973528231
 31
0.0
  0
LINE
  5
157
330
1F
100
AcDbEntity
  8
C-4
  6
Continuous
 62
     7
370
     9
100
AcDbLine
 10
-211.4992337132111
 20
1045.541762934958
 30
0.0
 11
-211.4992337132111
 21
819.4624973528231
 31
0.0
  0
TEXT
  5
158
330
1F
100
AcDbEntity
  8
C-4
  6
Continuous
 62
     2
370
     0
100
AcDbText
 10
-755.2492337132111
 20
1054.181762934958
 30
0.0
 40
30.48
  1
1000
 41
1.09375
  7
ＭＳ ゴシック
100
AcDbText
  0
TEXT
  5
159
330
1F
100
AcDbEntity
  8
C-4
  6
Continuous
 62
     2
370
     0
100
AcDbText
 10
-743.9992337132111
 20
920.48043968354
 30
0.0
 40
30.48
  1
635
 41
1.083333333333333
  7
ＭＳ ゴシック
100
AcDbText
  0
LINE
  5
15A
330
1F
100
AcDbEntity
  8
C-4
  6
Continuous
 62
     7
370
     9
100
AcDbLine
 10
-1320.877176043928
 20
-18.53750264717704
 30
0.0
 11
-1320.877176043928
 21
617.462497352823
 31
0.0
  0
LWPOLYLINE
  5
15B
330
1F
100
AcDbEntity
  8
C-4
  6
Continuous
 62
     7
370
     9
100
AcDbPolyline
 90
        4
 70
     1
 43
1.0
 10
-1320.377176043928
 20
-18.53750264717704
 42
0.4142135623731
 10
-1320.877176043928
 20
-18.03750264717704
 42
0.4142135623731
 10
-1321.377176043928
 20
-18.53750264717704
 42
0.4142135623731
 10
-1320.877176043928
 20
-19.03750264717704
 42
0.4142135623731
  0
LWPOLYLINE
  5
15C
330
1F
100
AcDbEntity
  8
C-4
  6
Continuous
 62
     7
370
     9
100
AcDbPolyline
 90
        4
 70
     1
 43
1.0
 10
-1320.377176043928
 20
617.462497352823
 42
0.4142135623731
 10
-1320.877176043928
 20
617.962497352823
 42
0.4142135623731
 10
-1321.377176043928
 20
617.462497352823
 42
0.4142135623731
 10
-1320.877176043928
 20
616.9624973528231
 42
0.4142135623731
  0
LINE
  5
15D
330
1F
100
AcDbEntity
  8
C-4
  6
Continuous
 62
     7
370
     9
100
AcDbLine
 10
-1390.203788100219
 20
-50.53750264717706
 30
0.0
 11
-1390.203788100219
 21
649.4624973528231
 31
0.0
  0
LWPOLYLINE
  5
15E
330
1F
100
AcDbEntity
  8
C-4
  6
Continuous
 62
     7
370
     9
100
AcDbPolyline
 90
        4
 70
     1
 43
1.0
 10
-1389.703788100219
 20
-50.53750264717706
 42
0.4142135623731
 10
-1390.203788100219
 20
-50.03750264717706
 42
0.4142135623731
 10
-1390.703788100219
 20
-50.53750264717706
 42
0.4142135623731
 10
-1390.203788100219
 20
-51.03750264717706
 42
0.4142135623731
  0
LWPOLYLINE
  5
15F
330
1F
100
AcDbEntity
  8
C-4
  6
Continuous
 62
     7
370
     9
100
AcDbPolyline
 90
        4
 70
     1
 43
1.0
 10
-1389.703788100219
 20
649.4624973528231
 42
0.4142135623731
 10
-1390.203788100219
 20
649.962497352823
 42
0.4142135623731
 10
-1390.703788100219
 20
649.4624973528231
 42
0.4142135623731
 10
-1390.203788100219
 20
648.9624973528231
 42
0.4142135623731
  0
TEXT
  5
160
330
1F
100
AcDbEntity
  8
C-4
  6
Continuous
 62
     2
370
     0
100
AcDbText
 10
-1401.843788100219
 20
266.9624973528231
 30
0.0
 40
30.48
  1
700
 50
90.0
 41
1.083333333333333
  7
ＭＳ ゴシック
100
AcDbText
  0
LINE
  5
161
330
1F
100
AcDbEntity
  8
C-4
  6
Continuous
 62
     7
370
     9
100
AcDbLine
 10
-1454.578499295346
 20
-200.5375026471771
 30
0.0
 11
-1454.578499295346
 21
799.4624973528231
 31
0.0
  0
LWPOLYLINE
  5
162
330
1F
100
AcDbEntity
  8
C-4
  6
Continuous
 62
     7
370
     9
100
AcDbPolyline
 90
        4
 70
     1
 43
1.0
 10
-1454.078499295346
 20
-200.5375026471771
 42
0.4142135623731
 10
-1454.578499295346
 20
-200.0375026471771
 42
0.4142135623731
 10
-1455.078499295346
 20
-200.5375026471771
 42
0.4142135623731
 10
-1454.578499295346
 20
-201.0375026471771
 42
0.4142135623731
  0
LWPOLYLINE
  5
163
330
1F
100
AcDbEntity
  8
C-4
  6
Continuous
 62
     7
370
     9
100
AcDbPolyline
 90
        4
 70
     1
 43
1.0
 10
-1454.078499295346
 20
799.4624973528231
 42
0.4142135623731
 10
-1454.578499295346
 20
799.962497352823
 42
0.4142135623731
 10
-1455.078499295346
 20
799.4624973528231
 42
0.4142135623731
 10
-1454.578499295346
 20
798.9624973528231
 42
0.4142135623731
  0
LINE
  5
164
330
1F
100
AcDbEntity
  8
C-4
  6
Continuous
 62
     7
370
     9
100
AcDbLine
 10
-1457.578499295346
 20
-200.5375026471771
 30
0.0
 11
-1231.499233713211
 21
-200.5375026471771
 31
0.0
  0
LINE
  5
165
330
1F
100
AcDbEntity
  8
C-4
  6
Continuous
 62
     7
370
     9
100
AcDbLine
 10
-1457.578499295346
 20
799.4624973528231
 30
0.0
 11
-1231.499233713211
 21
799.4624973528231
 31
0.0
  0
TEXT
  5
166
330
1F
100
AcDbEntity
  8
C-4
  6
Continuous
 62
     2
370
     0
100
AcDbText
 10
-1466.218499295346
 20
255.7124973528231
 30
0.0
 40
30.48
  1
1000
 50
90.0
 41
1.09375
  7
ＭＳ ゴシック
100
AcDbText
  0
TEXT
  5
167
330
1F
100
AcDbEntity
  8
C-4
  6
Continuous
 62
     2
370
     0
100
AcDbText
 10
-1332.517176043928
 20
266.9624973528231
 30
0.0
 40
30.48
  1
635
 50
90.0
 41
1.083333333333333
  7
ＭＳ ゴシック
100
AcDbText
  0
LINE
  5
168
330
1F
100
AcDbEntity
  8
C-4
  6
Continuous
 62
     7
370
     9
100
AcDbLine
 10
-1393.203788100219
 20
649.4624973528231
 30
0.0
 11
-1081.499233713211
 21
649.4624973528231
 31
0.0
  0
LINE
  5
169
330
1F
100
AcDbEntity
  8
C-4
  6
Continuous
 62
     7
370
     9
100
AcDbLine
 10
-1323.877176043928
 20
617.462497352823
 30
0.0
 11
-1049.099233713211
 21
617.462497352823
 31
0.0
  0
LINE
  5
16A
330
1F
100
AcDbEntity
  8
C-4
  6
Continuous
 62
     7
370
     9
100
AcDbLine
 10
-1323.877176043928
 20
-18.53750264717704
 30
0.0
 11
-1049.099233713211
 21
-18.53750264717704
 31
0.0
  0
LINE
  5
16B
330
1F
100
AcDbEntity
  8
C-4
  6
Continuous
 62
     7
370
     9
100
AcDbLine
 10
-1393.203788100219
 20
-50.53750264717706
 30
0.0
 11
-1081.499233713211
 21
-50.53750264717706
 31
0.0
  0
LINE
  5
16C
330
1F
100
AcDbEntity
  8
C-4
  6
Continuous
 62
     7
370
     9
100
AcDbLine
 10
-1119.499874356608
 20
-0.5375026471770639
 30
0.0
 11
-1119.499874356608
 21
599.4624973528231
 31
0.0
  0
TEXT
  5
16D
330
1F
100
AcDbEntity
  8
C-4
  6
Continuous
 62
     2
370
     0
100
AcDbText
 10
-1131.139874356608
 20
266.9624973528231
 30
0.0
 40
30.48
  1
600
 50
90.0
 41
1.083333333333333
  7
ＭＳ ゴシック
100
AcDbText
  0
LWPOLYLINE
  5
16E
330
1F
100
AcDbEntity
  8
C-4
  6
Continuous
 62
     7
370
     9
100
AcDbPolyline
 90
        4
 70
     1
 43
1.0
 10
-1118.999874356608
 20
-0.5375026471770639
 42
0.4142135623731
 10
-1119.499874356608
 20
-0.0375026471770638
 42
0.4142135623731
 10
-1119.999874356608
 20
-0.5375026471770639
 42
0.4142135623731
 10
-1119.499874356608
 20
-1.037502647177064
 42
0.4142135623731
  0
LINE
  5
16F
330
1F
100
AcDbEntity
  8
C-4
  6
Continuous
 62
     7
370
     9
100
AcDbLine
 10
-1122.499874356608
 20
-0.5375026471770639
 30
0.0
 11
-1031.099233713211
 21
-0.5375026471770639
 31
0.0
  0
LWPOLYLINE
  5
170
330
1F
100
AcDbEntity
  8
C-4
  6
Continuous
 62
     7
370
     9
100
AcDbPolyline
 90
        4
 70
     1
 43
1.0
 10
-1118.999874356608
 20
599.4624973528231
 42
0.4142135623731
 10
-1119.499874356608
 20
599.962497352823
 42
0.4142135623731
 10
-1119.999874356608
 20
599.4624973528231
 42
0.4142135623731
 10
-1119.499874356608
 20
598.9624973528231
 42
0.4142135623731
  0
LINE
  5
171
330
1F
100
AcDbEntity
  8
C-4
  6
Continuous
 62
     7
370
     9
100
AcDbLine
 10
-1122.499874356608
 20
599.4624973528231
 30
0.0
 11
-1031.099233713211
 21
599.4624973528231
 31
0.0
  0
LINE
  5
172
330
1F
100
AcDbEntity
  8
C-4
  6
Continuous
 62
     7
370
     9
100
AcDbLine
 10
-981.4992337132112
 20
-140.6410417979416
 30
0.0
 11
-441.4992337132111
 21
-140.6410417979416
 31
0.0
  0
LWPOLYLINE
  5
173
330
1F
100
AcDbEntity
  8
C-4
  6
Continuous
 62
     7
370
     9
100
AcDbPolyline
 90
        4
 70
     1
 43
1.0
 10
-980.9992337132112
 20
-140.6410417979416
 42
0.4142135623731
 10
-981.4992337132112
 20
-140.1410417979416
 42
0.4142135623731
 10
-981.9992337132112
 20
-140.6410417979416
 42
0.4142135623731
 10
-981.4992337132112
 20
-141.1410417979416
 42
0.4142135623731
  0
LWPOLYLINE
  5
174
330
1F
100
AcDbEntity
  8
C-4
  6
Continuous
 62
     7
370
     9
100
AcDbPolyline
 90
        4
 70
     1
 43
1.0
 10
-440.9992337132111
 20
-140.6410417979416
 42
0.4142135623731
 10
-441.4992337132111
 20
-140.1410417979416
 42
0.4142135623731
 10
-441.9992337132111
 20
-140.6410417979416
 42
0.4142135623731
 10
-441.4992337132111
 20
-141.1410417979416
 42
0.4142135623731
  0
LINE
  5
175
330
1F
100
AcDbEntity
  8
C-4
  6
Continuous
 62
     7
370
     9
100
AcDbLine
 10
-981.4992337132112
 20
-143.6410417979416
 30
0.0
 11
-981.4992337132112
 21
-78.93750264717711
 31
0.0
  0
LINE
  5
176
330
1F
100
AcDbEntity
  8
C-4
  6
Continuous
 62
     7
370
     9
100
AcDbLine
 10
-441.4992337132111
 20
-143.6410417979416
 30
0.0
 11
-441.4992337132111
 21
-78.93750264717711
 31
0.0
  0
TEXT
  5
177
330
1F
100
AcDbEntity
  8
C-4
  6
Continuous
 62
     2
370
     0
100
AcDbText
 10
-743.9992337132111
 20
-129.0010417979416
 30
0.0
 40
30.48
  1
540
 41
1.083333333333333
  7
ＭＳ ゴシック
100
AcDbText
  0
LINE
  5
178
330
1F
100
AcDbEntity
  8
C-4
  6
Continuous
 62
     7
370
     9
100
AcDbLine
 10
-261.2157109850872
 20
29.06249735282291
 30
0.0
 11
-261.2157109850872
 21
569.0624973528229
 31
0.0
  0
LWPOLYLINE
  5
179
330
1F
100
AcDbEntity
  8
C-4
  6
Continuous
 62
     7
370
     9
100
AcDbPolyline
 90
        4
 70
     1
 43
1.0
 10
-260.7157109850872
 20
29.06249735282291
 42
0.4142135623731
 10
-261.2157109850872
 20
29.56249735282291
 42
0.4142135623731
 10
-261.7157109850872
 20
29.06249735282291
 42
0.4142135623731
 10
-261.2157109850872
 20
28.56249735282291
 42
0.4142135623731
  0
LWPOLYLINE
  5
17A
330
1F
100
AcDbEntity
  8
C-4
  6
Continuous
 62
     7
370
     9
100
AcDbPolyline
 90
        4
 70
     1
 43
1.0
 10
-260.7157109850872
 20
569.0624973528229
 42
0.4142135623731
 10
-261.2157109850872
 20
569.5624973528229
 42
0.4142135623731
 10
-261.7157109850872
 20
569.0624973528229
 42
0.4142135623731
 10
-261.2157109850872
 20
568.562497352823
 42
0.4142135623731
  0
LINE
  5
17B
330
1F
100
AcDbEntity
  8
C-4
  6
Continuous
 62
     7
370
     9
100
AcDbLine
 10
-258.2157109850872
 20
29.06249735282291
 30
0.0
 11
-333.4992337132111
 21
29.06249735282291
 31
0.0
  0
LINE
  5
17C
330
1F
100
AcDbEntity
  8
C-4
  6
Continuous
 62
     7
370
     9
100
AcDbLine
 10
-258.2157109850872
 20
569.0624973528229
 30
0.0
 11
-333.4992337132111
 21
569.0624973528229
 31
0.0
  0
TEXT
  5
17D
330
1F
100
AcDbEntity
  8
C-4
  6
Continuous
 62
     2
370
     0
100
AcDbText
 10
-272.8557109850872
 20
266.5624973528229
 30
0.0
 40
30.48
  1
540
 50
90.0
 41
1.083333333333333
  7
ＭＳ ゴシック
100
AcDbText
  0
LINE
  5
17E
330
1F
100
AcDbEntity
  8
C-0
  6
Continuous
 62
     7
370
     9
100
AcDbLine
 10
275.3182072867889
 20
-18.93750264717681
 30
0.0
 11
320.3331322867891
 21
-18.93750264717681
 31
0.0
  0
LINE
  5
17F
330
1F
100
AcDbEntity
  8
C-0
  6
Continuous
 62
     7
370
     9
100
AcDbLine
 10
355.3331322867891
 20
-200.5375026471771
 30
0.0
 11
325.3331322867891
 21
-50.53750264717706
 31
0.0
  0
LINE
  5
180
330
1F
100
AcDbEntity
  8
C-0
  6
Continuous
 62
     7
370
     9
100
AcDbLine
 10
405.3331322867891
 20
-200.5375026471771
 30
0.0
 11
355.3331322867891
 21
-200.5375026471771
 31
0.0
  0
LINE
  5
181
330
1F
100
AcDbEntity
  8
C-0
  6
Continuous
 62
     7
370
     9
100
AcDbLine
 10
357.6786812867891
 20
-200.5375026471771
 30
0.0
 11
355.3331322867891
 21
-200.5375026471771
 31
0.0
  0
LINE
  5
182
330
1F
100
AcDbEntity
  8
C-0
  6
Continuous
 62
     7
370
     9
100
AcDbLine
 10
355.3331322867891
 20
-200.5375026471771
 30
0.0
 11
402.7264652867891
 21
-200.5375026471771
 31
0.0
  0
LINE
  5
183
330
1F
100
AcDbEntity
  8
C-0
  6
Continuous
 62
     7
370
     9
100
AcDbLine
 10
277.0509422867891
 20
32.56249735282324
 30
0.0
 11
277.0509422867891
 21
-10.93750264717698
 31
0.0
  0
LINE
  5
184
330
1F
100
AcDbEntity
  8
C-0
  6
Continuous
 62
     7
370
     9
100
AcDbLine
 10
299.3979572867891
 20
57.56249735282324
 30
0.0
 11
274.465121286789
 21
57.56249735282324
 31
0.0
  0
LINE
  5
185
330
1F
100
AcDbEntity
  8
C-0
  6
Continuous
 62
     7
370
     9
100
AcDbLine
 10
301.397957286789
 20
2.062497352823129
 30
0.0
 11
321.3979572867891
 21
2.062497352823129
 31
0.0
  0
CIRCLE
  5
186
330
1F
100
AcDbEntity
  8
C-0
  6
Continuous
 62
     7
370
     9
100
AcDbCircle
 10
311.397957286789
 20
19.06249735282302
 30
0.0
 40
5.0
  0
ARC
  5
187
330
1F
100
AcDbEntity
  8
C-0
  6
Continuous
 62
     7
370
     9
100
AcDbCircle
 10
311.397957286789
 20
16.56249735282302
 30
0.0
 40
12.5
100
AcDbArc
 50
36.869898
 51
143.130102
  0
CIRCLE
  5
188
330
1F
100
AcDbEntity
  8
C-0
  6
Continuous
 62
     7
370
     9
100
AcDbCircle
 10
290.3979572867889
 20
45.06249735282324
 30
0.0
 40
7.5
  0
CIRCLE
  5
189
330
1F
100
AcDbEntity
  8
C-0
  6
Continuous
 62
     7
370
     9
100
AcDbCircle
 10
290.3979572867889
 20
45.06249735282324
 30
0.0
 40
6.5
  0
LINE
  5
18A
330
1F
100
AcDbEntity
  8
C-0
  6
Continuous
 62
     7
370
     9
100
AcDbLine
 10
275.3979572867889
 20
32.56249735282324
 30
0.0
 11
299.3979572867891
 21
32.56249735282324
 31
0.0
  0
ARC
  5
18B
330
1F
100
AcDbEntity
  8
C-0
  6
Continuous
 62
     7
370
     9
100
AcDbCircle
 10
281.866707286789
 20
45.06249735282324
 30
0.0
 40
21.53125
100
AcDbArc
 50
324.510657
 51
35.48934299999999
  0
LINE
  5
18C
330
1F
100
AcDbEntity
  8
C-0
  6
Continuous
 62
     7
370
     9
100
AcDbLine
 10
295.3979572867889
 20
8.062497352823073
 30
0.0
 11
340.3979572867889
 21
8.062497352823073
 31
0.0
  0
LINE
  5
18D
330
1F
100
AcDbEntity
  8
C-0
  6
Continuous
 62
     7
370
     9
100
AcDbLine
 10
340.3979572867889
 20
8.062497352823073
 30
0.0
 11
340.3979572867889
 21
11.06249735282319
 31
0.0
  0
LINE
  5
18E
330
1F
100
AcDbEntity
  8
C-0
  6
Continuous
 62
     7
370
     9
100
AcDbLine
 10
298.0198202867887
 20
11.06249735282319
 30
0.0
 11
340.3979572867889
 21
11.06249735282319
 31
0.0
  0
LINE
  5
18F
330
1F
100
AcDbEntity
  8
C-0
  6
Continuous
 62
     7
370
     9
100
AcDbLine
 10
295.3979572867889
 20
8.062497352823073
 30
0.0
 11
292.0871462867892
 21
32.56249735282324
 31
0.0
  0
LINE
  5
190
330
1F
100
AcDbEntity
  8
C-0
  6
Continuous
 62
     7
370
     9
100
AcDbLine
 10
295.1144142867889
 20
32.56249735282324
 30
0.0
 11
298.0198202867887
 21
11.06249735282319
 31
0.0
  0
LINE
  5
191
330
1F
100
AcDbEntity
  8
C-0
  6
Continuous
 62
     7
370
     9
100
AcDbLine
 10
301.397957286789
 20
-0.9375026471769843
 30
0.0
 11
301.397957286789
 21
8.062497352823073
 31
0.0
  0
LINE
  5
192
330
1F
100
AcDbEntity
  8
C-0
  6
Continuous
 62
     7
370
     9
100
AcDbLine
 10
301.397957286789
 20
11.06249735282319
 30
0.0
 11
301.397957286789
 21
24.06249735282302
 31
0.0
  0
LINE
  5
193
330
1F
100
AcDbEntity
  8
C-0
  6
Continuous
 62
     7
370
     9
100
AcDbLine
 10
321.3979572867891
 20
24.06249735282302
 30
0.0
 11
321.3979572867891
 21
11.06249735282319
 31
0.0
  0
LINE
  5
194
330
1F
100
AcDbEntity
  8
C-0
  6
Continuous
 62
     7
370
     9
100
AcDbLine
 10
321.3979572867891
 20
8.062497352823073
 30
0.0
 11
321.3979572867891
 21
-0.9375026471769843
 31
0.0
  0
LINE
  5
195
330
1F
100
AcDbEntity
  8
C-0
  6
Continuous
 62
     7
370
     9
100
AcDbLine
 10
275.3979572867889
 20
32.56249735282324
 30
0.0
 11
275.3979572867889
 21
57.56249735282324
 31
0.0
  0
LINE
  5
196
330
1F
100
AcDbEntity
  8
C-0
  6
Continuous
 62
     7
370
     9
100
AcDbLine
 10
355.3331322867891
 20
799.4624973528232
 30
0.0
 11
325.3331322867891
 21
649.4624973528232
 31
0.0
  0
LINE
  5
197
330
1F
100
AcDbEntity
  8
C-0
  6
Continuous
 62
     7
370
     9
100
AcDbLine
 10
405.3331322867891
 20
799.4624973528232
 30
0.0
 11
355.3331322867891
 21
799.4624973528232
 31
0.0
  0
LINE
  5
198
330
1F
100
AcDbEntity
  8
C-0
  6
Continuous
 62
     7
370
     9
100
AcDbLine
 10
357.6786812867891
 20
799.4624973528232
 30
0.0
 11
355.3331322867891
 21
799.4624973528232
 31
0.0
  0
LINE
  5
199
330
1F
100
AcDbEntity
  8
C-0
  6
Continuous
 62
     7
370
     9
100
AcDbLine
 10
355.3331322867891
 20
799.4624973528232
 30
0.0
 11
402.7264652867891
 21
799.4624973528232
 31
0.0
  0
LINE
  5
19A
330
1F
100
AcDbEntity
  8
C-0
  6
Continuous
 62
     7
370
     9
100
AcDbLine
 10
275.3182072867889
 20
-18.93750264717681
 30
0.0
 11
265.333132286789
 21
298.6624973528231
 31
0.0
  0
ARC
  5
19B
330
1F
100
AcDbEntity
  8
C-0
  6
Continuous
 62
     7
370
     9
100
AcDbCircle
 10
305.0509422867891
 20
214.062497352823
 30
0.0
 40
5.0
100
AcDbArc
 50
270.000024
 51
13.81822400000001
  0
ARC
  5
19C
330
1F
100
AcDbEntity
  8
C-0
  6
JWW_DASHEDX2
 62
     7
370
     9
100
AcDbCircle
 10
298.9076402867887
 20
145.1854923528231
 30
0.0
 40
18.125
100
AcDbArc
 50
227.999457
 51
315.205095
  0
LINE
  5
19D
330
1F
100
AcDbEntity
  8
C-0
  6
JWW_DASHEDX2
 62
     7
370
     9
100
AcDbLine
 10
282.0509422867891
 20
300.761193352823
 30
0.0
 11
286.7795202867889
 21
131.7161073528231
 31
0.0
  0
LINE
  5
19E
330
1F
100
AcDbEntity
  8
C-0
  6
JWW_DASHEDX2
 62
     7
370
     9
100
AcDbLine
 10
311.7697452867889
 20
132.415141352823
 30
0.0
 11
309.547069286789
 21
211.8750693528233
 31
0.0
  0
LINE
  5
19F
330
1F
100
AcDbEntity
  8
C-0
  6
JWW_DASHEDX2
 62
     7
370
     9
100
AcDbLine
 10
309.3942512867891
 20
217.338271352823
 30
0.0
 11
306.8194732867888
 21
309.3857143528231
 31
0.0
  0
LINE
  5
1A0
330
1F
100
AcDbEntity
  8
C-0
  6
JWW_DASHEDX2
 62
     7
370
     9
100
AcDbLine
 10
306.2380812867888
 20
330.1702713528232
 30
0.0
 11
303.7727312867889
 21
418.3057243528231
 31
0.0
  0
ARC
  5
1A1
330
1F
100
AcDbEntity
  8
C-0
  6
JWW_DASHEDX2
 62
     7
370
     9
100
AcDbCircle
 10
291.644611286789
 20
404.8363393528231
 30
0.0
 40
18.125
100
AcDbArc
 50
47.999457
 51
121.958568
  0
ARC
  5
1A2
330
1F
100
AcDbEntity
  8
C-0
  6
Continuous
 62
     7
370
     9
100
AcDbCircle
 10
291.644611286789
 20
404.8363393528231
 30
0.0
 40
18.125
100
AcDbArc
 50
121.958568
 51
135.205095
  0
LINE
  5
1A3
330
1F
100
AcDbEntity
  8
C-0
  6
Continuous
 62
     7
370
     9
100
AcDbLine
 10
306.8194732867888
 20
309.3857143528231
 30
0.0
 11
306.2380812867888
 21
330.1702713528232
 31
0.0
  0
LINE
  5
1A4
330
1F
100
AcDbEntity
  8
C-0
  6
Continuous
 62
     7
370
     9
100
AcDbLine
 10
309.547069286789
 20
211.8750693528233
 30
0.0
 11
309.3942512867891
 21
217.338271352823
 31
0.0
  0
LINE
  5
1A5
330
1F
100
AcDbEntity
  8
C-0
  6
Continuous
 62
     7
370
     9
100
AcDbLine
 10
278.7825062867888
 20
417.6066903528232
 30
0.0
 11
282.0509422867891
 21
300.761193352823
 31
0.0
  0
CIRCLE
  5
1A6
330
1F
100
AcDbEntity
  8
C-0
  6
JWW_DASHEDX2
 62
     7
370
     9
100
AcDbCircle
 10
291.501309286789
 20
409.9593353528229
 30
0.0
 40
5.0
  0
ARC
  5
1A7
330
1F
100
AcDbEntity
  8
C-0
  6
JWW_DASHEDX2
 62
     7
370
     9
100
AcDbCircle
 10
289.0030362867889
 20
410.0522523528232
 30
0.0
 40
12.5
100
AcDbArc
 50
304.739898
 51
51.00010199999998
  0
LINE
  5
1A8
330
1F
100
AcDbEntity
  8
C-0
  6
JWW_DASHEDX2
 62
     7
370
     9
100
AcDbLine
 10
296.1261852867889
 20
399.7804093528231
 30
0.0
 11
282.0509422867891
 21
400.3039053528229
 31
0.0
  0
LINE
  5
1A9
330
1F
100
AcDbEntity
  8
C-0
  6
JWW_DASHEDX2
 62
     7
370
     9
100
AcDbLine
 10
282.0509422867891
 20
420.3177333528231
 30
0.0
 11
296.8695242867891
 21
419.7665913528232
 31
0.0
  0
LINE
  5
1AA
330
1F
100
AcDbEntity
  8
C-0
  6
Continuous
 62
     7
370
     9
100
AcDbLine
 10
277.0509422867891
 20
400.4898683528231
 30
0.0
 11
277.0509422867891
 21
205.5624973528231
 31
0.0
  0
LINE
  5
1AB
330
1F
100
AcDbEntity
  8
C-0
  6
Continuous
 62
     7
370
     9
100
AcDbLine
 10
274.8847242867889
 20
420.5842643528231
 30
0.0
 11
274.141385286789
 21
400.598082352823
 31
0.0
  0
CIRCLE
  5
1AC
330
1F
100
AcDbEntity
  8
C-0
  6
Continuous
 62
     7
370
     9
100
AcDbCircle
 10
299.0509422867892
 20
140.062496352823
 30
0.0
 40
5.0
  0
LINE
  5
1AD
330
1F
100
AcDbEntity
  8
C-0
  6
Continuous
 62
     7
370
     9
100
AcDbLine
 10
277.0509422867891
 20
192.5624973528232
 30
0.0
 11
277.0509422867891
 21
57.56249735282324
 31
0.0
  0
ARC
  5
1AE
330
1F
100
AcDbEntity
  8
C-0
  6
Continuous
 62
     7
370
     9
100
AcDbCircle
 10
298.0509422867891
 20
388.0624973528231
 30
0.0
 40
6.000000000000001
100
AcDbArc
 50
0.0
 51
180.0
  0
ARC
  5
1AF
330
1F
100
AcDbEntity
  8
C-0
  6
Continuous
 62
     7
370
     9
100
AcDbCircle
 10
298.0509422867891
 20
140.0624973528232
 30
0.0
 40
6.000000000000001
100
AcDbArc
 50
180.0
 51
0.0
  0
LINE
  5
1B0
330
1F
100
AcDbEntity
  8
C-0
  6
Continuous
 62
     7
370
     9
100
AcDbLine
 10
304.0509422867892
 20
388.0624973528231
 30
0.0
 11
304.0509422867892
 21
339.062497352823
 31
0.0
  0
LINE
  5
1B1
330
1F
100
AcDbEntity
  8
C-0
  6
Continuous
 62
     7
370
     9
100
AcDbLine
 10
305.0509422867891
 20
209.062497352823
 30
0.0
 11
304.0509422867892
 21
209.062497352823
 31
0.0
  0
LINE
  5
1B2
330
1F
100
AcDbEntity
  8
C-0
  6
Continuous
 62
     7
370
     9
100
AcDbLine
 10
304.0509422867892
 20
239.062497352823
 30
0.0
 11
309.9062342867888
 21
215.2567093528231
 31
0.0
  0
LINE
  5
1B3
330
1F
100
AcDbEntity
  8
C-0
  6
Continuous
 62
     7
370
     9
100
AcDbLine
 10
304.0509422867892
 20
339.062497352823
 30
0.0
 11
309.9062342867888
 21
315.2567093528231
 31
0.0
  0
ARC
  5
1B4
330
1F
100
AcDbEntity
  8
C-0
  6
Continuous
 62
     7
370
     9
100
AcDbCircle
 10
305.0509422867891
 20
314.062497352823
 30
0.0
 40
5.0
100
AcDbArc
 50
270.0
 51
13.81822400000001
  0
LINE
  5
1B5
330
1F
100
AcDbEntity
  8
C-0
  6
Continuous
 62
     7
370
     9
100
AcDbLine
 10
304.0509422867892
 20
309.062497352823
 30
0.0
 11
304.0509422867892
 21
239.062497352823
 31
0.0
  0
LINE
  5
1B6
330
1F
100
AcDbEntity
  8
C-0
  6
Continuous
 62
     7
370
     9
100
AcDbLine
 10
305.0509422867891
 20
309.062497352823
 30
0.0
 11
304.0509422867892
 21
309.062497352823
 31
0.0
  0
LINE
  5
1B7
330
1F
100
AcDbEntity
  8
C-0
  6
Continuous
 62
     7
370
     9
100
AcDbLine
 10
292.0509422867891
 20
140.0624973528232
 30
0.0
 11
292.0509422867891
 21
192.5624973528232
 31
0.0
  0
LINE
  5
1B8
330
1F
100
AcDbEntity
  8
C-0
  6
Continuous
 62
     7
370
     9
100
AcDbLine
 10
292.0509422867891
 20
205.5624973528231
 30
0.0
 11
292.0509422867891
 21
388.0624973528231
 31
0.0
  0
LINE
  5
1B9
330
1F
100
AcDbEntity
  8
C-0
  6
Continuous
 62
     7
370
     9
100
AcDbLine
 10
304.0509422867892
 20
209.062497352823
 30
0.0
 11
304.0509422867892
 21
205.5624973528231
 31
0.0
  0
LINE
  5
1BA
330
1F
100
AcDbEntity
  8
C-0
  6
Continuous
 62
     7
370
     9
100
AcDbLine
 10
304.0509422867892
 20
192.5624973528232
 30
0.0
 11
304.0509422867892
 21
140.0624973528232
 31
0.0
  0
ARC
  5
1BB
330
1F
100
AcDbEntity
  8
C-0
  6
Continuous
 62
     7
370
     9
100
AcDbCircle
 10
346.0509422867892
 20
199.062497352823
 30
0.0
 40
6.5
100
AcDbArc
 50
270.0
 51
90.0
  0
LINE
  5
1BC
330
1F
100
AcDbEntity
  8
C-0
  6
Continuous
 62
     7
370
     9
100
AcDbLine
 10
277.0509422867891
 20
609.062497352823
 30
0.0
 11
277.0509422867891
 21
420.5036963528229
 31
0.0
  0
ARC
  5
1BD
330
1F
100
AcDbEntity
  8
C-0
  6
JWW_DASHEDX2
 62
     7
370
     9
100
AcDbCircle
 10
305.0509422867891
 20
214.062497352823
 30
0.0
 40
5.0
100
AcDbArc
 50
13.818224
 51
270.000024
  0
LINE
  5
1BE
330
1F
100
AcDbEntity
  8
C-0
  6
Continuous
 62
     7
370
     9
100
AcDbLine
 10
282.0509422867891
 20
484.062497352823
 30
0.0
 11
322.0509422867892
 21
484.062497352823
 31
0.0
  0
LINE
  5
1BF
330
1F
100
AcDbEntity
  8
C-0
  6
Continuous
 62
     7
370
     9
100
AcDbLine
 10
282.0509422867891
 20
459.062497352823
 30
0.0
 11
322.0509422867892
 21
459.062497352823
 31
0.0
  0
LINE
  5
1C0
330
1F
100
AcDbEntity
  8
C-0
  6
Continuous
 62
     7
370
     9
100
AcDbLine
 10
282.0509422867891
 20
205.5624973528231
 30
0.0
 11
282.0509422867891
 21
484.062497352823
 31
0.0
  0
LINE
  5
1C1
330
1F
100
AcDbEntity
  8
C-0
  6
Continuous
 62
     7
370
     9
100
AcDbLine
 10
322.0509422867892
 20
484.062497352823
 30
0.0
 11
322.0509422867892
 21
205.5624973528231
 31
0.0
  0
LINE
  5
1C2
330
1F
100
AcDbEntity
  8
C-0
  6
Continuous
 62
     7
370
     9
100
AcDbLine
 10
282.0509422867891
 20
94.06249735282302
 30
0.0
 11
282.0509422867891
 21
192.5624973528232
 31
0.0
  0
LINE
  5
1C3
330
1F
100
AcDbEntity
  8
C-0
  6
Continuous
 62
     7
370
     9
100
AcDbLine
 10
322.0509422867892
 20
192.5624973528232
 30
0.0
 11
322.0509422867892
 21
94.06249735282302
 31
0.0
  0
LINE
  5
1C4
330
1F
100
AcDbEntity
  8
C-0
  6
Continuous
 62
     7
370
     9
100
AcDbLine
 10
282.0509422867891
 20
119.062497352823
 30
0.0
 11
322.0509422867892
 21
119.062497352823
 31
0.0
  0
LINE
  5
1C5
330
1F
100
AcDbEntity
  8
C-0
  6
Continuous
 62
     7
370
     9
100
AcDbLine
 10
322.0509422867892
 20
94.06249735282302
 30
0.0
 11
282.0509422867891
 21
94.06249735282302
 31
0.0
  0
LINE
  5
1C6
330
1F
100
AcDbEntity
  8
C-0
  6
JWW_CENTERX2
 62
     7
370
     9
100
AcDbLine
 10
175.6058202867891
 20
473.6303783528231
 30
0.0
 11
163.661715286789
 21
457.5886093528231
 31
0.0
  0
LINE
  5
1C7
330
1F
100
AcDbEntity
  8
C-0
  6
JWW_CENTERX2
 62
     7
370
     9
100
AcDbLine
 10
161.255882286789
 20
459.3799033528231
 30
0.0
 11
173.199122286789
 21
475.4223163528232
 31
0.0
  0
LINE
  5
1C8
330
1F
100
AcDbEntity
  8
C-0
  6
JWW_CENTERX2
 62
     7
370
     9
100
AcDbLine
 10
181.3076612867889
 20
444.4500933528232
 30
0.0
 11
161.255882286789
 21
459.3799033528231
 31
0.0
  0
LINE
  5
1C9
330
1F
100
AcDbEntity
  8
C-0
  6
JWW_CENTERX2
 62
     7
370
     9
100
AcDbLine
 10
173.199122286789
 20
475.4223163528232
 30
0.0
 11
193.2517662867889
 21
460.4918623528232
 31
0.0
  0
ARC
  5
1CA
330
1F
100
AcDbEntity
  8
C-0
  6
JWW_CENTERX2
 62
     7
370
     9
100
AcDbCircle
 10
181.264050286789
 20
456.9500173528232
 30
0.0
 40
12.5
100
AcDbArc
 50
270.1998980000001
 51
16.46010200000004
  0
CIRCLE
  5
1CB
330
1F
100
AcDbEntity
  8
C-0
  6
JWW_CENTERX2
 62
     7
370
     9
100
AcDbCircle
 10
183.269271286789
 20
455.457004352823
 30
0.0
 40
5.0
  0
LINE
  5
1CC
330
1F
100
AcDbEntity
  8
C-0
  6
JWW_CENTERX2
 62
     7
370
     9
100
AcDbLine
 10
288.4070912867889
 20
634.023648352823
 30
0.0
 11
98.37867928678898
 21
378.773465352823
 31
0.0
  0
LINE
  5
1CD
330
1F
100
AcDbEntity
  8
C-0
  6
JWW_CENTERX2
 62
     7
370
     9
100
AcDbLine
 10
288.4070912867889
 20
634.023648352823
 30
0.0
 11
319.592668286789
 21
612.5663443528231
 31
0.0
  0
LINE
  5
1CE
330
1F
100
AcDbEntity
  8
C-0
  6
JWW_CENTERX2
 62
     7
370
     9
100
AcDbLine
 10
-40.91489671321108
 20
88.61251335282304
 30
0.0
 11
319.592668286789
 21
612.5663443528231
 31
0.0
  0
LINE
  5
1CF
330
1F
100
AcDbEntity
  8
C-0
  6
JWW_CENTERX2
 62
     7
370
     9
100
AcDbLine
 10
-72.10040971321098
 20
110.0697723528231
 30
0.0
 11
98.37867928678898
 21
378.773465352823
 31
0.0
  0
LINE
  5
1D0
330
1F
100
AcDbEntity
  8
C-0
  6
JWW_CENTERX2
 62
     7
370
     9
100
AcDbLine
 10
-72.10040971321098
 20
110.0697723528231
 30
0.0
 11
-40.91489671321108
 21
88.61251335282304
 31
0.0
  0
ARC
  5
1D1
330
1F
100
AcDbEntity
  8
C-0
  6
JWW_CENTERX2
 62
     7
370
     9
100
AcDbCircle
 10
303.308676286789
 20
218.930035352823
 30
0.0
 40
18.124999
100
AcDbArc
 50
253.344171
 51
340.549811
  0
LINE
  5
1D2
330
1F
100
AcDbEntity
  8
C-0
  6
JWW_CENTERX2
 62
     7
370
     9
100
AcDbLine
 10
168.5071732867891
 20
456.5153683528231
 30
0.0
 11
298.1136522867887
 21
201.5654933528231
 31
0.0
  0
LINE
  5
1D3
330
1F
100
AcDbEntity
  8
C-0
  6
JWW_CENTERX2
 62
     7
370
     9
100
AcDbLine
 10
190.7928262867889
 20
467.8445173528229
 30
0.0
 11
320.3993052867888
 21
212.8946423528231
 31
0.0
  0
ARC
  5
1D4
330
1F
100
AcDbEntity
  8
C-0
  6
JWW_CENTERX2
 62
     7
370
     9
100
AcDbCircle
 10
185.6600672867889
 20
450.659275352823
 30
0.0
 40
18.124999
100
AcDbArc
 50
73.944171
 51
161.149811
  0
LINE
  5
1D5
330
1F
100
AcDbEntity
  8
C-0
  6
Continuous
 62
     7
370
     9
100
AcDbLine
 10
275.388035286789
 20
617.0624973528231
 30
0.0
 11
320.3331322867891
 21
617.0624973528231
 31
0.0
  0
LINE
  5
1D6
330
1F
100
AcDbEntity
  8
C-0
  6
Continuous
 62
     7
370
     9
100
AcDbLine
 10
356.5628382867891
 20
797.9624973528229
 30
0.0
 11
326.8331322867891
 21
649.3139683528233
 31
0.0
  0
LINE
  5
1D7
330
1F
100
AcDbEntity
  8
C-0
  6
Continuous
 62
     7
370
     9
100
AcDbLine
 10
405.3331322867891
 20
799.4624973528232
 30
0.0
 11
406.8331322867891
 21
799.4624973528232
 31
0.0
  0
LINE
  5
1D8
330
1F
100
AcDbEntity
  8
C-0
  6
Continuous
 62
     7
370
     9
100
AcDbLine
 10
406.8331322867891
 20
797.9624973528229
 30
0.0
 11
356.5628382867891
 21
797.9624973528229
 31
0.0
  0
LINE
  5
1D9
330
1F
100
AcDbEntity
  8
C-0
  6
Continuous
 62
     7
370
     9
100
AcDbLine
 10
406.8331322867891
 20
799.4624973528232
 30
0.0
 11
406.8331322867891
 21
797.9624973528229
 31
0.0
  0
LINE
  5
1DA
330
1F
100
AcDbEntity
  8
C-0
  6
Continuous
 62
     7
370
     9
100
AcDbLine
 10
356.5628382867891
 20
-199.037502647177
 30
0.0
 11
326.8331322867891
 21
-50.38897364717712
 31
0.0
  0
LINE
  5
1DB
330
1F
100
AcDbEntity
  8
C-0
  6
Continuous
 62
     7
370
     9
100
AcDbLine
 10
405.3331322867891
 20
-199.037502647177
 30
0.0
 11
356.5628382867891
 21
-199.037502647177
 31
0.0
  0
LINE
  5
1DC
330
1F
100
AcDbEntity
  8
C-0
  6
Continuous
 62
     7
370
     9
100
AcDbLine
 10
405.3331322867891
 20
-200.5375026471771
 30
0.0
 11
405.3331322867891
 21
-199.037502647177
 31
0.0
  0
LINE
  5
1DD
330
1F
100
AcDbEntity
  8
C-0
  6
Continuous
 62
     7
370
     9
100
AcDbLine
 10
326.8331322867891
 20
-0.9375026471769843
 30
0.0
 11
326.8331322867891
 21
8.062497352823073
 31
0.0
  0
LINE
  5
1DE
330
1F
100
AcDbEntity
  8
C-0
  6
Continuous
 62
     7
370
     9
100
AcDbLine
 10
326.8331322867891
 20
11.06249735282319
 30
0.0
 11
326.8331322867891
 21
192.5624973528232
 31
0.0
  0
LINE
  5
1DF
330
1F
100
AcDbEntity
  8
C-0
  6
Continuous
 62
     7
370
     9
100
AcDbLine
 10
326.8331322867891
 20
205.5624973528231
 30
0.0
 11
326.8331322867891
 21
599.062497352823
 31
0.0
  0
LINE
  5
1E0
330
1F
100
AcDbEntity
  8
C-0
  6
Continuous
 62
     7
370
     9
100
AcDbLine
 10
326.8331322867891
 20
649.3139683528233
 30
0.0
 11
326.8331322867891
 21
599.062497352823
 31
0.0
  0
LINE
  5
1E1
330
1F
100
AcDbEntity
  8
C-0
  6
JWW_CENTERX2
 62
     7
370
     9
100
AcDbLine
 10
386.8331322867891
 20
49.06249735282302
 30
0.0
 11
386.8331322867891
 21
-50.93750264717698
 31
0.0
  0
LINE
  5
1E2
330
1F
100
AcDbEntity
  8
C-0
  6
JWW_DASHEDX2
 62
     7
370
     9
100
AcDbLine
 10
389.8331322867891
 20
-0.9375026471769843
 30
0.0
 11
391.8331322867891
 21
-50.93750264717698
 31
0.0
  0
LINE
  5
1E3
330
1F
100
AcDbEntity
  8
C-0
  6
JWW_DASHEDX2
 62
     7
370
     9
100
AcDbLine
 10
381.8331322867891
 20
-50.93750264717698
 30
0.0
 11
383.833132286789
 21
-0.9375026471769843
 31
0.0
  0
LINE
  5
1E4
330
1F
100
AcDbEntity
  8
C-0
  6
Continuous
 62
     7
370
     9
100
AcDbLine
 10
336.333132286789
 20
-14.93750264717704
 30
0.0
 11
336.333132286789
 21
-22.93750264717687
 31
0.0
  0
ARC
  5
1E5
330
1F
100
AcDbEntity
  8
C-0
  6
Continuous
 62
     7
370
     9
100
AcDbCircle
 10
328.6851422867892
 20
-15.68750264717693
 30
0.0
 40
7.64799
100
AcDbArc
 50
334.8526110000001
 51
25.14739200000006
  0
LINE
  5
1E6
330
1F
100
AcDbEntity
  8
C-0
  6
Continuous
 62
     7
370
     9
100
AcDbLine
 10
329.8331322867891
 20
-12.43750264717704
 30
0.0
 11
335.6082372867888
 21
-12.43750264717704
 31
0.0
  0
ARC
  5
1E7
330
1F
100
AcDbEntity
  8
C-0
  6
Continuous
 62
     7
370
     9
100
AcDbCircle
 10
328.7282532867891
 20
-22.18750264717698
 30
0.0
 40
7.608987000000002
100
AcDbArc
 50
334.714664
 51
25.28533899999996
  0
LINE
  5
1E8
330
1F
100
AcDbEntity
  8
C-0
  6
Continuous
 62
     7
370
     9
100
AcDbLine
 10
329.8331322867891
 20
-18.93750264717681
 30
0.0
 11
335.6082372867888
 21
-18.93750264717681
 31
0.0
  0
LINE
  5
1E9
330
1F
100
AcDbEntity
  8
C-0
  6
Continuous
 62
     7
370
     9
100
AcDbLine
 10
329.8331322867891
 20
-25.43750264717687
 30
0.0
 11
335.6082382867891
 21
-25.43750264717687
 31
0.0
  0
LINE
  5
1EA
330
1F
100
AcDbEntity
  8
C-0
  6
Continuous
 62
     7
370
     9
100
AcDbLine
 10
329.8331322867891
 20
-26.93750264717693
 30
0.0
 11
328.833132286789
 21
-26.93750264717693
 31
0.0
  0
LINE
  5
1EB
330
1F
100
AcDbEntity
  8
C-0
  6
Continuous
 62
     7
370
     9
100
AcDbLine
 10
329.8331322867891
 20
-10.93750264717698
 30
0.0
 11
329.8331322867891
 21
-26.93750264717693
 31
0.0
  0
LINE
  5
1EC
330
1F
100
AcDbEntity
  8
C-0
  6
Continuous
 62
     7
370
     9
100
AcDbLine
 10
328.833132286789
 20
-10.93750264717698
 30
0.0
 11
329.8331322867891
 21
-10.93750264717698
 31
0.0
  0
LINE
  5
1ED
330
1F
100
AcDbEntity
  8
C-0
  6
Continuous
 62
     7
370
     9
100
AcDbLine
 10
342.8331322867891
 20
-21.93750264717693
 30
0.0
 11
341.8331322867891
 21
-22.93750264717687
 31
0.0
  0
LINE
  5
1EE
330
1F
100
AcDbEntity
  8
C-0
  6
Continuous
 62
     7
370
     9
100
AcDbLine
 10
336.333132286789
 20
-22.93750264717687
 30
0.0
 11
341.8331322867891
 21
-22.93750264717687
 31
0.0
  0
LINE
  5
1EF
330
1F
100
AcDbEntity
  8
C-0
  6
Continuous
 62
     7
370
     9
100
AcDbLine
 10
342.8331322867891
 20
-15.93750264717698
 30
0.0
 11
342.8331322867891
 21
-21.93750264717693
 31
0.0
  0
LINE
  5
1F0
330
1F
100
AcDbEntity
  8
C-0
  6
Continuous
 62
     7
370
     9
100
AcDbLine
 10
341.8331322867891
 20
-14.93750264717704
 30
0.0
 11
342.8331322867891
 21
-15.93750264717698
 31
0.0
  0
LINE
  5
1F1
330
1F
100
AcDbEntity
  8
C-0
  6
Continuous
 62
     7
370
     9
100
AcDbLine
 10
336.333132286789
 20
-14.93750264717704
 30
0.0
 11
341.8331322867891
 21
-14.93750264717704
 31
0.0
  0
LINE
  5
1F2
330
1F
100
AcDbEntity
  8
C-0
  6
Continuous
 62
     7
370
     9
100
AcDbLine
 10
342.8331322867891
 20
-21.93750264717693
 30
0.0
 11
336.333132286789
 21
-21.93750264717693
 31
0.0
  0
LINE
  5
1F3
330
1F
100
AcDbEntity
  8
C-0
  6
Continuous
 62
     7
370
     9
100
AcDbLine
 10
336.333132286789
 20
-15.93750264717698
 30
0.0
 11
342.8331322867891
 21
-15.93750264717698
 31
0.0
  0
LINE
  5
1F4
330
1F
100
AcDbEntity
  8
C-0
  6
Continuous
 62
     7
370
     9
100
AcDbLine
 10
341.8331322867891
 20
-14.93750264717704
 30
0.0
 11
341.8331322867891
 21
-22.93750264717687
 31
0.0
  0
LINE
  5
1F5
330
1F
100
AcDbEntity
  8
C-0
  6
Continuous
 62
     7
370
     9
100
AcDbLine
 10
328.833132286789
 20
49.06249735282302
 30
0.0
 11
328.833132286789
 21
11.06249735282319
 31
0.0
  0
LINE
  5
1F6
330
1F
100
AcDbEntity
  8
C-0
  6
Continuous
 62
     7
370
     9
100
AcDbLine
 10
406.8331322867891
 20
9.062497352823016
 30
0.0
 11
339.897957286789
 21
9.062497352823016
 31
0.0
  0
LINE
  5
1F7
330
1F
100
AcDbEntity
  8
C-0
  6
Continuous
 62
     7
370
     9
100
AcDbLine
 10
329.8331322867891
 20
21.06249735282319
 30
0.0
 11
328.833132286789
 21
21.06249735282319
 31
0.0
  0
LINE
  5
1F8
330
1F
100
AcDbEntity
  8
C-0
  6
Continuous
 62
     7
370
     9
100
AcDbLine
 10
329.8331322867891
 20
37.06249735282313
 30
0.0
 11
329.8331322867891
 21
21.06249735282319
 31
0.0
  0
LINE
  5
1F9
330
1F
100
AcDbEntity
  8
C-0
  6
Continuous
 62
     7
370
     9
100
AcDbLine
 10
328.833132286789
 20
37.06249735282313
 30
0.0
 11
329.8331322867891
 21
37.06249735282313
 31
0.0
  0
LINE
  5
1FA
330
1F
100
AcDbEntity
  8
C-0
  6
Continuous
 62
     7
370
     9
100
AcDbLine
 10
342.8331322867891
 20
26.06249735282319
 30
0.0
 11
341.8331322867891
 21
25.06249735282296
 31
0.0
  0
LINE
  5
1FB
330
1F
100
AcDbEntity
  8
C-0
  6
Continuous
 62
     7
370
     9
100
AcDbLine
 10
336.333132286789
 20
25.06249735282296
 30
0.0
 11
341.8331322867891
 21
25.06249735282296
 31
0.0
  0
LINE
  5
1FC
330
1F
100
AcDbEntity
  8
C-0
  6
Continuous
 62
     7
370
     9
100
AcDbLine
 10
342.8331322867891
 20
32.06249735282313
 30
0.0
 11
342.8331322867891
 21
26.06249735282319
 31
0.0
  0
LINE
  5
1FD
330
1F
100
AcDbEntity
  8
C-0
  6
Continuous
 62
     7
370
     9
100
AcDbLine
 10
341.8331322867891
 20
33.06249735282307
 30
0.0
 11
342.8331322867891
 21
32.06249735282313
 31
0.0
  0
LINE
  5
1FE
330
1F
100
AcDbEntity
  8
C-0
  6
Continuous
 62
     7
370
     9
100
AcDbLine
 10
336.333132286789
 20
33.06249735282307
 30
0.0
 11
341.8331322867891
 21
33.06249735282307
 31
0.0
  0
LINE
  5
1FF
330
1F
100
AcDbEntity
  8
C-0
  6
Continuous
 62
     7
370
     9
100
AcDbLine
 10
342.8331322867891
 20
26.06249735282319
 30
0.0
 11
336.333132286789
 21
26.06249735282319
 31
0.0
  0
LINE
  5
200
330
1F
100
AcDbEntity
  8
C-0
  6
Continuous
 62
     7
370
     9
100
AcDbLine
 10
336.333132286789
 20
32.06249735282313
 30
0.0
 11
342.8331322867891
 21
32.06249735282313
 31
0.0
  0
LINE
  5
201
330
1F
100
AcDbEntity
  8
C-0
  6
Continuous
 62
     7
370
     9
100
AcDbLine
 10
341.8331322867891
 20
33.06249735282307
 30
0.0
 11
341.8331322867891
 21
25.06249735282296
 31
0.0
  0
ARC
  5
202
330
1F
100
AcDbEntity
  8
C-0
  6
Continuous
 62
     7
370
     9
100
AcDbCircle
 10
326.2566262867892
 20
29.06249835282324
 30
0.0
 40
10.076506
100
AcDbArc
 50
338.134537
 51
21.86545600000004
  0
ARC
  5
203
330
1F
100
AcDbEntity
  8
C-0
  6
Continuous
 62
     7
370
     9
100
AcDbCircle
 10
333.542171286789
 20
23.43333235282302
 30
0.0
 40
2.790961
100
AcDbArc
 50
317.754481
 51
42.24553300000002
  0
LINE
  5
204
330
1F
100
AcDbEntity
  8
C-0
  6
Continuous
 62
     7
370
     9
100
AcDbLine
 10
335.6082382867891
 20
21.556944352823
 30
0.0
 11
329.8331322867891
 21
21.556944352823
 31
0.0
  0
LINE
  5
205
330
1F
100
AcDbEntity
  8
C-0
  6
Continuous
 62
     7
370
     9
100
AcDbLine
 10
336.333132286789
 20
34.69051335282302
 30
0.0
 11
336.333132286789
 21
23.43448135282301
 31
0.0
  0
LINE
  5
206
330
1F
100
AcDbEntity
  8
C-0
  6
Continuous
 62
     7
370
     9
100
AcDbLine
 10
335.6082382867891
 20
25.30972035282304
 30
0.0
 11
329.8331322867891
 21
25.30972035282304
 31
0.0
  0
ARC
  5
207
330
1F
100
AcDbEntity
  8
C-0
  6
Continuous
 62
     7
370
     9
100
AcDbCircle
 10
333.542171286789
 20
34.69166235282302
 30
0.0
 40
2.790961
100
AcDbArc
 50
317.754467
 51
42.24551899999996
  0
LINE
  5
208
330
1F
100
AcDbEntity
  8
C-0
  6
Continuous
 62
     7
370
     9
100
AcDbLine
 10
335.6082382867891
 20
32.815274352823
 30
0.0
 11
329.8331322867891
 21
32.815274352823
 31
0.0
  0
LINE
  5
209
330
1F
100
AcDbEntity
  8
C-0
  6
Continuous
 62
     7
370
     9
100
AcDbLine
 10
329.8331322867891
 20
36.56805135282298
 30
0.0
 11
335.6082382867891
 21
36.56805135282298
 31
0.0
  0
ARC
  5
20A
330
1F
100
AcDbEntity
  8
C-0
  6
Continuous
 62
     7
370
     9
100
AcDbCircle
 10
386.8331322867891
 20
23.06249735282307
 30
0.0
 40
4.0
100
AcDbArc
 50
194.477512
 51
345.522488
  0
ARC
  5
20B
330
1F
100
AcDbEntity
  8
C-0
  6
Continuous
 62
     7
370
     9
100
AcDbCircle
 10
386.8331322867891
 20
35.06249735282324
 30
0.0
 40
4.0
100
AcDbArc
 50
14.477512
 51
165.522488
  0
LINE
  5
20C
330
1F
100
AcDbEntity
  8
C-0
  6
JWW_CENTERX2
 62
     7
370
     9
100
AcDbLine
 10
416.8331322867891
 20
29.06249735282302
 30
0.0
 11
316.8331322867891
 21
29.06249735282302
 31
0.0
  0
LINE
  5
20D
330
1F
100
AcDbEntity
  8
C-0
  6
Continuous
 62
     7
370
     9
100
AcDbLine
 10
406.8331322867891
 20
49.06249735282302
 30
0.0
 11
406.8331322867891
 21
9.062497352823016
 31
0.0
  0
LINE
  5
20E
330
1F
100
AcDbEntity
  8
C-0
  6
Continuous
 62
     7
370
     9
100
AcDbLine
 10
326.8331322867891
 20
49.06249735282302
 30
0.0
 11
406.8331322867891
 21
49.06249735282302
 31
0.0
  0
ARC
  5
20F
330
1F
100
AcDbEntity
  8
C-0
  6
Continuous
 62
     7
370
     9
100
AcDbCircle
 10
328.833132286789
 20
-0.9375026471769843
 30
0.0
 40
2.0
100
AcDbArc
 50
90.0
 51
180.0
  0
LINE
  5
210
330
1F
100
AcDbEntity
  8
C-0
  6
Continuous
 62
     7
370
     9
100
AcDbLine
 10
328.833132286789
 20
1.062497352823186
 30
0.0
 11
406.8331322867891
 21
1.062497352823186
 31
0.0
  0
LINE
  5
211
330
1F
100
AcDbEntity
  8
C-0
  6
Continuous
 62
     7
370
     9
100
AcDbLine
 10
406.8331322867891
 20
1.062497352823186
 30
0.0
 11
406.8331322867891
 21
-0.9375026471769843
 31
0.0
  0
LINE
  5
212
330
1F
100
AcDbEntity
  8
C-0
  6
Continuous
 62
     7
370
     9
100
AcDbLine
 10
328.833132286789
 20
-38.93750264717681
 30
0.0
 11
328.833132286789
 21
-0.9375026471769843
 31
0.0
  0
LINE
  5
213
330
1F
100
AcDbEntity
  8
C-0
  6
Continuous
 62
     7
370
     9
100
AcDbLine
 10
326.8331322867891
 20
-38.93750264717681
 30
0.0
 11
328.833132286789
 21
-38.93750264717681
 31
0.0
  0
LINE
  5
214
330
1F
100
AcDbEntity
  8
C-0
  6
JWW_CENTERX2
 62
     7
370
     9
100
AcDbLine
 10
386.8331322867891
 20
549.062497352823
 30
0.0
 11
386.8331322867891
 21
649.062497352823
 31
0.0
  0
LINE
  5
215
330
1F
100
AcDbEntity
  8
C-0
  6
JWW_DASHEDX2
 62
     7
370
     9
100
AcDbLine
 10
389.8331322867891
 20
599.062497352823
 30
0.0
 11
391.8331322867891
 21
649.062497352823
 31
0.0
  0
LINE
  5
216
330
1F
100
AcDbEntity
  8
C-0
  6
JWW_DASHEDX2
 62
     7
370
     9
100
AcDbLine
 10
381.8331322867891
 20
649.062497352823
 30
0.0
 11
383.833132286789
 21
599.062497352823
 31
0.0
  0
LINE
  5
217
330
1F
100
AcDbEntity
  8
C-0
  6
Continuous
 62
     7
370
     9
100
AcDbLine
 10
336.333132286789
 20
613.0624973528234
 30
0.0
 11
336.333132286789
 21
621.0624973528229
 31
0.0
  0
ARC
  5
218
330
1F
100
AcDbEntity
  8
C-0
  6
Continuous
 62
     7
370
     9
100
AcDbCircle
 10
328.6851422867892
 20
613.8124973528232
 30
0.0
 40
7.64799
100
AcDbArc
 50
334.852608
 51
25.14738899999997
  0
LINE
  5
219
330
1F
100
AcDbEntity
  8
C-0
  6
Continuous
 62
     7
370
     9
100
AcDbLine
 10
329.8331322867891
 20
610.5624973528234
 30
0.0
 11
335.6082372867888
 21
610.5624973528234
 31
0.0
  0
ARC
  5
21A
330
1F
100
AcDbEntity
  8
C-0
  6
Continuous
 62
     7
370
     9
100
AcDbCircle
 10
328.7282532867891
 20
620.312497352823
 30
0.0
 40
7.608987000000002
100
AcDbArc
 50
334.714661
 51
25.28533599999998
  0
LINE
  5
21B
330
1F
100
AcDbEntity
  8
C-0
  6
Continuous
 62
     7
370
     9
100
AcDbLine
 10
329.8331322867891
 20
617.0624973528231
 30
0.0
 11
335.6082372867888
 21
617.0624973528231
 31
0.0
  0
LINE
  5
21C
330
1F
100
AcDbEntity
  8
C-0
  6
Continuous
 62
     7
370
     9
100
AcDbLine
 10
329.8331322867891
 20
623.5624973528229
 30
0.0
 11
335.6082382867891
 21
623.5624973528229
 31
0.0
  0
LINE
  5
21D
330
1F
100
AcDbEntity
  8
C-0
  6
Continuous
 62
     7
370
     9
100
AcDbLine
 10
329.8331322867891
 20
625.0624973528232
 30
0.0
 11
328.833132286789
 21
625.0624973528232
 31
0.0
  0
LINE
  5
21E
330
1F
100
AcDbEntity
  8
C-0
  6
Continuous
 62
     7
370
     9
100
AcDbLine
 10
329.8331322867891
 20
609.062497352823
 30
0.0
 11
329.8331322867891
 21
625.0624973528232
 31
0.0
  0
LINE
  5
21F
330
1F
100
AcDbEntity
  8
C-0
  6
Continuous
 62
     7
370
     9
100
AcDbLine
 10
328.833132286789
 20
609.062497352823
 30
0.0
 11
329.8331322867891
 21
609.062497352823
 31
0.0
  0
LINE
  5
220
330
1F
100
AcDbEntity
  8
C-0
  6
Continuous
 62
     7
370
     9
100
AcDbLine
 10
342.8331322867891
 20
620.0624973528232
 30
0.0
 11
341.8331322867891
 21
621.0624973528229
 31
0.0
  0
LINE
  5
221
330
1F
100
AcDbEntity
  8
C-0
  6
Continuous
 62
     7
370
     9
100
AcDbLine
 10
336.333132286789
 20
621.0624973528229
 30
0.0
 11
341.8331322867891
 21
621.0624973528229
 31
0.0
  0
LINE
  5
222
330
1F
100
AcDbEntity
  8
C-0
  6
Continuous
 62
     7
370
     9
100
AcDbLine
 10
342.8331322867891
 20
614.062497352823
 30
0.0
 11
342.8331322867891
 21
620.0624973528232
 31
0.0
  0
LINE
  5
223
330
1F
100
AcDbEntity
  8
C-0
  6
Continuous
 62
     7
370
     9
100
AcDbLine
 10
341.8331322867891
 20
613.0624973528234
 30
0.0
 11
342.8331322867891
 21
614.062497352823
 31
0.0
  0
LINE
  5
224
330
1F
100
AcDbEntity
  8
C-0
  6
Continuous
 62
     7
370
     9
100
AcDbLine
 10
336.333132286789
 20
613.0624973528234
 30
0.0
 11
341.8331322867891
 21
613.0624973528234
 31
0.0
  0
LINE
  5
225
330
1F
100
AcDbEntity
  8
C-0
  6
Continuous
 62
     7
370
     9
100
AcDbLine
 10
342.8331322867891
 20
620.0624973528232
 30
0.0
 11
336.333132286789
 21
620.0624973528232
 31
0.0
  0
LINE
  5
226
330
1F
100
AcDbEntity
  8
C-0
  6
Continuous
 62
     7
370
     9
100
AcDbLine
 10
336.333132286789
 20
614.062497352823
 30
0.0
 11
342.8331322867891
 21
614.062497352823
 31
0.0
  0
LINE
  5
227
330
1F
100
AcDbEntity
  8
C-0
  6
Continuous
 62
     7
370
     9
100
AcDbLine
 10
341.8331322867891
 20
613.0624973528234
 30
0.0
 11
341.8331322867891
 21
621.0624973528229
 31
0.0
  0
ARC
  5
228
330
1F
100
AcDbEntity
  8
C-0
  6
Continuous
 62
     7
370
     9
100
AcDbCircle
 10
328.833132286789
 20
599.062497352823
 30
0.0
 40
2.0
100
AcDbArc
 50
180.0
 51
270.0
  0
LINE
  5
229
330
1F
100
AcDbEntity
  8
C-0
  6
Continuous
 62
     7
370
     9
100
AcDbLine
 10
328.833132286789
 20
597.0624973528231
 30
0.0
 11
406.8331322867891
 21
597.0624973528231
 31
0.0
  0
LINE
  5
22A
330
1F
100
AcDbEntity
  8
C-0
  6
Continuous
 62
     7
370
     9
100
AcDbLine
 10
406.8331322867891
 20
597.0624973528231
 30
0.0
 11
406.8331322867891
 21
599.062497352823
 31
0.0
  0
LINE
  5
22B
330
1F
100
AcDbEntity
  8
C-0
  6
Continuous
 62
     7
370
     9
100
AcDbLine
 10
328.833132286789
 20
637.0624973528231
 30
0.0
 11
328.833132286789
 21
599.062497352823
 31
0.0
  0
LINE
  5
22C
330
1F
100
AcDbEntity
  8
C-0
  6
Continuous
 62
     7
370
     9
100
AcDbLine
 10
326.8331322867891
 20
637.0624973528231
 30
0.0
 11
328.833132286789
 21
637.0624973528231
 31
0.0
  0
LINE
  5
22D
330
1F
100
AcDbEntity
  8
C-0
  6
Continuous
 62
     7
370
     9
100
AcDbLine
 10
329.8331322867891
 20
577.0624973528231
 30
0.0
 11
328.833132286789
 21
577.0624973528231
 31
0.0
  0
LINE
  5
22E
330
1F
100
AcDbEntity
  8
C-0
  6
Continuous
 62
     7
370
     9
100
AcDbLine
 10
329.8331322867891
 20
561.0624973528229
 30
0.0
 11
329.8331322867891
 21
577.0624973528231
 31
0.0
  0
LINE
  5
22F
330
1F
100
AcDbEntity
  8
C-0
  6
Continuous
 62
     7
370
     9
100
AcDbLine
 10
328.833132286789
 20
561.0624973528229
 30
0.0
 11
329.8331322867891
 21
561.0624973528229
 31
0.0
  0
LINE
  5
230
330
1F
100
AcDbEntity
  8
C-0
  6
Continuous
 62
     7
370
     9
100
AcDbLine
 10
342.8331322867891
 20
572.0624973528231
 30
0.0
 11
341.8331322867891
 21
573.0624973528234
 31
0.0
  0
LINE
  5
231
330
1F
100
AcDbEntity
  8
C-0
  6
Continuous
 62
     7
370
     9
100
AcDbLine
 10
336.333132286789
 20
573.0624973528234
 30
0.0
 11
341.8331322867891
 21
573.0624973528234
 31
0.0
  0
LINE
  5
232
330
1F
100
AcDbEntity
  8
C-0
  6
Continuous
 62
     7
370
     9
100
AcDbLine
 10
342.8331322867891
 20
566.0624973528229
 30
0.0
 11
342.8331322867891
 21
572.0624973528231
 31
0.0
  0
LINE
  5
233
330
1F
100
AcDbEntity
  8
C-0
  6
Continuous
 62
     7
370
     9
100
AcDbLine
 10
341.8331322867891
 20
565.0624973528232
 30
0.0
 11
342.8331322867891
 21
566.0624973528229
 31
0.0
  0
LINE
  5
234
330
1F
100
AcDbEntity
  8
C-0
  6
Continuous
 62
     7
370
     9
100
AcDbLine
 10
336.333132286789
 20
565.0624973528232
 30
0.0
 11
341.8331322867891
 21
565.0624973528232
 31
0.0
  0
LINE
  5
235
330
1F
100
AcDbEntity
  8
C-0
  6
Continuous
 62
     7
370
     9
100
AcDbLine
 10
342.8331322867891
 20
572.0624973528231
 30
0.0
 11
336.333132286789
 21
572.0624973528231
 31
0.0
  0
LINE
  5
236
330
1F
100
AcDbEntity
  8
C-0
  6
Continuous
 62
     7
370
     9
100
AcDbLine
 10
336.333132286789
 20
566.0624973528229
 30
0.0
 11
342.8331322867891
 21
566.0624973528229
 31
0.0
  0
LINE
  5
237
330
1F
100
AcDbEntity
  8
C-0
  6
Continuous
 62
     7
370
     9
100
AcDbLine
 10
341.8331322867891
 20
565.0624973528232
 30
0.0
 11
341.8331322867891
 21
573.0624973528234
 31
0.0
  0
ARC
  5
238
330
1F
100
AcDbEntity
  8
C-0
  6
Continuous
 62
     7
370
     9
100
AcDbCircle
 10
326.2566262867892
 20
569.0624963528228
 30
0.0
 40
10.076506
100
AcDbArc
 50
338.134544
 51
21.86546299999999
  0
ARC
  5
239
330
1F
100
AcDbEntity
  8
C-0
  6
Continuous
 62
     7
370
     9
100
AcDbCircle
 10
333.542171286789
 20
574.6916623528233
 30
0.0
 40
2.790961
100
AcDbArc
 50
317.754467
 51
42.24551899999996
  0
LINE
  5
23A
330
1F
100
AcDbEntity
  8
C-0
  6
Continuous
 62
     7
370
     9
100
AcDbLine
 10
335.6082382867891
 20
576.568051352823
 30
0.0
 11
329.8331322867891
 21
576.568051352823
 31
0.0
  0
LINE
  5
23B
330
1F
100
AcDbEntity
  8
C-0
  6
Continuous
 62
     7
370
     9
100
AcDbLine
 10
336.333132286789
 20
563.434481352823
 30
0.0
 11
336.333132286789
 21
574.690513352823
 31
0.0
  0
LINE
  5
23C
330
1F
100
AcDbEntity
  8
C-0
  6
Continuous
 62
     7
370
     9
100
AcDbLine
 10
335.6082382867891
 20
572.8152743528233
 30
0.0
 11
329.8331322867891
 21
572.8152743528233
 31
0.0
  0
ARC
  5
23D
330
1F
100
AcDbEntity
  8
C-0
  6
Continuous
 62
     7
370
     9
100
AcDbCircle
 10
333.542171286789
 20
563.4333323528233
 30
0.0
 40
2.790961
100
AcDbArc
 50
317.754481
 51
42.24553300000002
  0
LINE
  5
23E
330
1F
100
AcDbEntity
  8
C-0
  6
Continuous
 62
     7
370
     9
100
AcDbLine
 10
335.6082382867891
 20
565.3097203528228
 30
0.0
 11
329.8331322867891
 21
565.3097203528228
 31
0.0
  0
LINE
  5
23F
330
1F
100
AcDbEntity
  8
C-0
  6
Continuous
 62
     7
370
     9
100
AcDbLine
 10
329.8331322867891
 20
561.5569443528233
 30
0.0
 11
335.6082382867891
 21
561.5569443528233
 31
0.0
  0
ARC
  5
240
330
1F
100
AcDbEntity
  8
C-0
  6
Continuous
 62
     7
370
     9
100
AcDbCircle
 10
386.8331322867891
 20
575.0624973528232
 30
0.0
 40
4.0
100
AcDbArc
 50
14.477512
 51
165.522488
  0
ARC
  5
241
330
1F
100
AcDbEntity
  8
C-0
  6
Continuous
 62
     7
370
     9
100
AcDbCircle
 10
386.8331322867891
 20
563.0624973528234
 30
0.0
 40
4.0
100
AcDbArc
 50
194.477512
 51
345.522488
  0
LINE
  5
242
330
1F
100
AcDbEntity
  8
C-0
  6
JWW_CENTERX2
 62
     7
370
     9
100
AcDbLine
 10
416.8331322867891
 20
569.062497352823
 30
0.0
 11
316.8331322867891
 21
569.062497352823
 31
0.0
  0
LINE
  5
243
330
1F
100
AcDbEntity
  8
C-0
  6
Continuous
 62
     7
370
     9
100
AcDbLine
 10
328.833132286789
 20
549.062497352823
 30
0.0
 11
328.833132286789
 21
589.062497352823
 31
0.0
  0
LINE
  5
244
330
1F
100
AcDbEntity
  8
C-0
  6
Continuous
 62
     7
370
     9
100
AcDbLine
 10
406.8331322867891
 20
589.062497352823
 30
0.0
 11
326.8331322867891
 21
589.062497352823
 31
0.0
  0
LINE
  5
245
330
1F
100
AcDbEntity
  8
C-0
  6
Continuous
 62
     7
370
     9
100
AcDbLine
 10
406.8331322867891
 20
549.062497352823
 30
0.0
 11
406.8331322867891
 21
589.062497352823
 31
0.0
  0
LINE
  5
246
330
1F
100
AcDbEntity
  8
C-0
  6
Continuous
 62
     7
370
     9
100
AcDbLine
 10
326.8331322867891
 20
549.062497352823
 30
0.0
 11
406.8331322867891
 21
549.062497352823
 31
0.0
  0
LINE
  5
247
330
1F
100
AcDbEntity
  8
C-0
  6
Continuous
 62
     7
370
     9
100
AcDbLine
 10
328.833132286789
 20
-0.9375026471769843
 30
0.0
 11
406.8331322867891
 21
-0.9375026471769843
 31
0.0
  0
LINE
  5
248
330
1F
100
AcDbEntity
  8
C-0
  6
Continuous
 62
     7
370
     9
100
AcDbLine
 10
326.8331322867891
 20
-0.9375026471769843
 30
0.0
 11
277.0509422867891
 21
-0.9375026471769843
 31
0.0
  0
LINE
  5
249
330
1F
100
AcDbEntity
  8
C-0
  6
Continuous
 62
     7
370
     9
100
AcDbLine
 10
326.8331322867891
 20
-50.38897364717712
 30
0.0
 11
326.8331322867891
 21
-0.9375026471769843
 31
0.0
  0
LINE
  5
24A
330
1F
100
AcDbEntity
  8
C-0
  6
Continuous
 62
     7
370
     9
100
AcDbLine
 10
328.833132286789
 20
599.062497352823
 30
0.0
 11
407.3331322867891
 21
599.062497352823
 31
0.0
  0
LINE
  5
24B
330
1F
100
AcDbEntity
  8
C-0
  6
Continuous
 62
     7
370
     9
100
AcDbLine
 10
326.8331322867891
 20
599.062497352823
 30
0.0
 11
277.0509422867891
 21
599.062497352823
 31
0.0
  0
LINE
  5
24C
330
1F
100
AcDbEntity
  8
C-0
  6
Continuous
 62
     7
370
     9
100
AcDbLine
 10
325.3331322867891
 20
-50.93750264717698
 30
0.0
 11
325.3331322867891
 21
-2.437502647177041
 31
0.0
  0
LINE
  5
24D
330
1F
100
AcDbEntity
  8
C-0
  6
Continuous
 62
     7
370
     9
100
AcDbLine
 10
325.3331322867891
 20
-2.437502647177041
 30
0.0
 11
278.5509422867892
 21
-2.437502647177041
 31
0.0
  0
LINE
  5
24E
330
1F
100
AcDbEntity
  8
C-0
  6
Continuous
 62
     7
370
     9
100
AcDbLine
 10
278.5509422867892
 20
-2.437502647177041
 30
0.0
 11
278.5509422867892
 21
-10.93750264717698
 31
0.0
  0
LINE
  5
24F
330
1F
100
AcDbEntity
  8
C-0
  6
Continuous
 62
     7
370
     9
100
AcDbLine
 10
277.0509422867891
 20
-10.93750264717698
 30
0.0
 11
278.5509422867892
 21
-10.93750264717698
 31
0.0
  0
LINE
  5
250
330
1F
100
AcDbEntity
  8
C-0
  6
Continuous
 62
     7
370
     9
100
AcDbLine
 10
266.832391286789
 20
298.7096323528232
 30
0.0
 11
276.7717892867888
 21
-17.43750264717704
 31
0.0
  0
LINE
  5
251
330
1F
100
AcDbEntity
  8
C-0
  6
Continuous
 62
     7
370
     9
100
AcDbLine
 10
276.7717892867888
 20
-17.43750264717704
 30
0.0
 11
320.3331322867891
 21
-17.43750264717704
 31
0.0
  0
LINE
  5
252
330
1F
100
AcDbEntity
  8
C-0
  6
Continuous
 62
     7
370
     9
100
AcDbLine
 10
320.3331322867891
 20
-17.43750264717704
 30
0.0
 11
320.3331322867891
 21
-18.93750264717681
 31
0.0
  0
LINE
  5
253
330
1F
100
AcDbEntity
  8
C-0
  6
Continuous
 62
     7
370
     9
100
AcDbLine
 10
265.333132286789
 20
298.6624973528231
 30
0.0
 11
275.346140286789
 21
617.0761363528231
 31
0.0
  0
LINE
  5
254
330
1F
100
AcDbEntity
  8
C-0
  6
Continuous
 62
     7
370
     9
100
AcDbLine
 10
266.832391286789
 20
298.6153513528231
 30
0.0
 11
276.7992832867891
 21
615.5624973528234
 31
0.0
  0
LINE
  5
255
330
1F
100
AcDbEntity
  8
C-0
  6
Continuous
 62
     7
370
     9
100
AcDbLine
 10
276.7992832867891
 20
615.5624973528234
 30
0.0
 11
320.3331322867891
 21
615.5624973528234
 31
0.0
  0
LINE
  5
256
330
1F
100
AcDbEntity
  8
C-0
  6
Continuous
 62
     7
370
     9
100
AcDbLine
 10
320.3331322867891
 20
615.5624973528234
 30
0.0
 11
320.3331322867891
 21
617.0624973528231
 31
0.0
  0
LINE
  5
257
330
1F
100
AcDbEntity
  8
C-0
  6
Continuous
 62
     7
370
     9
100
AcDbLine
 10
285.0331322867889
 20
612.262497352823
 30
0.0
 11
285.0331322867889
 21
615.5624973528234
 31
0.0
  0
LINE
  5
258
330
1F
100
AcDbEntity
  8
C-0
  6
Continuous
 62
     7
370
     9
100
AcDbLine
 10
278.5509422867892
 20
609.062497352823
 30
0.0
 11
278.5509422867892
 21
600.5624973528234
 31
0.0
  0
LINE
  5
259
330
1F
100
AcDbEntity
  8
C-0
  6
Continuous
 62
     7
370
     9
100
AcDbLine
 10
278.5509422867892
 20
600.5624973528234
 30
0.0
 11
325.3331322867891
 21
600.5624973528234
 31
0.0
  0
LINE
  5
25A
330
1F
100
AcDbEntity
  8
C-0
  6
Continuous
 62
     7
370
     9
100
AcDbLine
 10
325.3331322867891
 20
649.4624973528232
 30
0.0
 11
325.3331322867891
 21
600.5624973528234
 31
0.0
  0
LINE
  5
25B
330
1F
100
AcDbEntity
  8
C-0
  6
Continuous
 62
     7
370
     9
100
AcDbLine
 10
277.0509422867891
 20
609.062497352823
 30
0.0
 11
278.5509422867892
 21
609.062497352823
 31
0.0
  0
LINE
  5
25C
330
1F
100
AcDbEntity
  8
C-0
  6
Continuous
 62
     7
370
     9
100
AcDbLine
 10
285.0331322867889
 20
600.6731563528228
 30
0.0
 11
285.0331322867889
 21
603.9731563528233
 31
0.0
  0
CIRCLE
  5
25D
330
1F
100
AcDbEntity
  8
C-0
  6
Continuous
 62
     7
370
     9
100
AcDbCircle
 10
304.2536592867889
 20
608.1231563528229
 30
0.0
 40
4.139341
  0
CIRCLE
  5
25E
330
1F
100
AcDbEntity
  8
C-0
  6
Continuous
 62
     7
370
     9
100
AcDbCircle
 10
304.2536592867889
 20
608.1231563528229
 30
0.0
 40
7.439341000000002
  0
LINE
  5
25F
330
1F
100
AcDbEntity
  8
C-0
  6
Continuous
 62
     7
370
     9
100
AcDbLine
 10
285.0331322867889
 20
612.262497352823
 30
0.0
 11
298.0722632867889
 21
612.262497352823
 31
0.0
  0
LINE
  5
260
330
1F
100
AcDbEntity
  8
C-0
  6
Continuous
 62
     7
370
     9
100
AcDbLine
 10
298.0794142867892
 20
603.9731563528233
 30
0.0
 11
285.0331322867889
 21
603.9731563528233
 31
0.0
  0
LINE
  5
261
330
1F
100
AcDbEntity
  8
C-0
  6
Continuous
 62
     7
370
     9
100
AcDbLine
 10
270.6736672867889
 20
420.7408843528231
 30
0.0
 11
282.0509422867891
 21
420.3177333528231
 31
0.0
  0
LINE
  5
262
330
1F
100
AcDbEntity
  8
C-0
  6
Continuous
 62
     7
370
     9
100
AcDbLine
 10
282.0509422867891
 20
400.3039053528229
 30
0.0
 11
270.0464482867889
 21
400.7503843528232
 31
0.0
  0
LINE
  5
263
330
1F
100
AcDbEntity
  8
C-0
  6
Continuous
 62
     7
370
     9
100
AcDbLine
 10
346.0509422867892
 20
205.5624973528231
 30
0.0
 11
269.764904286789
 21
205.5624973528231
 31
0.0
  0
LINE
  5
264
330
1F
100
AcDbEntity
  8
C-0
  6
Continuous
 62
     7
370
     9
100
AcDbLine
 10
270.1814212867889
 20
192.5624973528232
 30
0.0
 11
346.0509422867892
 21
192.5624973528232
 31
0.0
  0
LINE
  5
265
330
1F
100
AcDbEntity
  8
C-0
  6
JWW_DASHEDX2
 62
     7
370
     9
100
AcDbLine
 10
378.833132286789
 20
597.0624973528231
 30
0.0
 11
378.833132286789
 21
596.0624973528229
 31
0.0
  0
LINE
  5
266
330
1F
100
AcDbEntity
  8
C-0
  6
JWW_DASHEDX2
 62
     7
370
     9
100
AcDbLine
 10
378.833132286789
 20
596.0624973528229
 30
0.0
 11
394.8331322867891
 21
596.0624973528229
 31
0.0
  0
LINE
  5
267
330
1F
100
AcDbEntity
  8
C-0
  6
JWW_DASHEDX2
 62
     7
370
     9
100
AcDbLine
 10
394.8331322867891
 20
596.0624973528229
 30
0.0
 11
394.8331322867891
 21
597.0624973528231
 31
0.0
  0
ARC
  5
268
330
1F
100
AcDbEntity
  8
C-0
  6
JWW_DASHEDX2
 62
     7
370
     9
100
AcDbCircle
 10
391.1632592867887
 20
593.3958273528231
 30
0.0
 40
2.333331
100
AcDbArc
 50
231.786751
 51
308.21326
  0
ARC
  5
269
330
1F
100
AcDbEntity
  8
C-0
  6
JWW_DASHEDX2
 62
     7
370
     9
100
AcDbCircle
 10
386.8331332867889
 20
599.6458343528229
 30
0.0
 40
8.583337
100
AcDbArc
 50
250.347144
 51
289.652846
  0
LINE
  5
26A
330
1F
100
AcDbEntity
  8
C-0
  6
JWW_DASHEDX2
 62
     7
370
     9
100
AcDbLine
 10
381.059630286789
 20
591.5624983528232
 30
0.0
 11
381.059630286789
 21
596.0624973528229
 31
0.0
  0
ARC
  5
26B
330
1F
100
AcDbEntity
  8
C-0
  6
JWW_DASHEDX2
 62
     7
370
     9
100
AcDbCircle
 10
382.5030062867887
 20
593.3958283528233
 30
0.0
 40
2.333331
100
AcDbArc
 50
231.786738
 51
308.213236
  0
LINE
  5
26C
330
1F
100
AcDbEntity
  8
C-0
  6
JWW_DASHEDX2
 62
     7
370
     9
100
AcDbLine
 10
383.9463812867891
 20
596.0624973528229
 30
0.0
 11
383.9463812867891
 21
591.562497352823
 31
0.0
  0
LINE
  5
26D
330
1F
100
AcDbEntity
  8
C-0
  6
JWW_DASHEDX2
 62
     7
370
     9
100
AcDbLine
 10
389.719884286789
 20
596.0624973528229
 30
0.0
 11
389.719884286789
 21
591.562497352823
 31
0.0
  0
LINE
  5
26E
330
1F
100
AcDbEntity
  8
C-0
  6
JWW_DASHEDX2
 62
     7
370
     9
100
AcDbLine
 10
392.6066352867889
 20
596.0624973528229
 30
0.0
 11
392.6066352867889
 21
591.562497352823
 31
0.0
  0
LINE
  5
26F
330
1F
100
AcDbEntity
  8
C-0
  6
JWW_DASHEDX2
 62
     7
370
     9
100
AcDbLine
 10
391.1651852867891
 20
591.0624973528229
 30
0.0
 11
382.5019652867888
 21
591.0624973528229
 31
0.0
  0
CIRCLE
  5
270
330
1F
100
AcDbEntity
  8
C-0
  6
JWW_DASHEDX2
 62
     7
370
     9
100
AcDbCircle
 10
386.8331322867891
 20
569.062497352823
 30
0.0
 40
8.0
  0
LINE
  5
271
330
1F
100
AcDbEntity
  8
C-0
  6
JWW_DASHEDX2
 62
     7
370
     9
100
AcDbLine
 10
383.9463812867891
 20
564.062497352823
 30
0.0
 11
389.719884286789
 21
564.062497352823
 31
0.0
  0
LINE
  5
272
330
1F
100
AcDbEntity
  8
C-0
  6
JWW_DASHEDX2
 62
     7
370
     9
100
AcDbLine
 10
381.059630286789
 20
569.062497352823
 30
0.0
 11
383.9463812867891
 21
564.062497352823
 31
0.0
  0
LINE
  5
273
330
1F
100
AcDbEntity
  8
C-0
  6
JWW_DASHEDX2
 62
     7
370
     9
100
AcDbLine
 10
383.9463812867891
 20
574.062497352823
 30
0.0
 11
381.059630286789
 21
569.062497352823
 31
0.0
  0
LINE
  5
274
330
1F
100
AcDbEntity
  8
C-0
  6
JWW_DASHEDX2
 62
     7
370
     9
100
AcDbLine
 10
389.719884286789
 20
574.062497352823
 30
0.0
 11
383.9463812867891
 21
574.062497352823
 31
0.0
  0
LINE
  5
275
330
1F
100
AcDbEntity
  8
C-0
  6
JWW_DASHEDX2
 62
     7
370
     9
100
AcDbLine
 10
392.6066352867889
 20
569.062497352823
 30
0.0
 11
389.719884286789
 21
574.062497352823
 31
0.0
  0
LINE
  5
276
330
1F
100
AcDbEntity
  8
C-0
  6
JWW_DASHEDX2
 62
     7
370
     9
100
AcDbLine
 10
389.719884286789
 20
564.062497352823
 30
0.0
 11
392.6066352867889
 21
569.062497352823
 31
0.0
  0
CIRCLE
  5
277
330
1F
100
AcDbEntity
  8
C-0
  6
JWW_DASHEDX2
 62
     7
370
     9
100
AcDbCircle
 10
386.8331322867891
 20
569.062497352823
 30
0.0
 40
5.0
  0
CIRCLE
  5
278
330
1F
100
AcDbEntity
  8
C-0
  6
JWW_DASHEDX2
 62
     7
370
     9
100
AcDbCircle
 10
386.8331322867891
 20
569.062497352823
 30
0.0
 40
3.0
  0
CIRCLE
  5
279
330
1F
100
AcDbEntity
  8
C-0
  6
JWW_DASHEDX2
 62
     7
370
     9
100
AcDbCircle
 10
386.8331322867891
 20
569.062497352823
 30
0.0
 40
2.0
  0
LINE
  5
27A
330
1F
100
AcDbEntity
  8
C-0
  6
JWW_DASHEDX2
 62
     7
370
     9
100
AcDbLine
 10
378.833132286789
 20
1.062497352823186
 30
0.0
 11
378.833132286789
 21
2.062497352823129
 31
0.0
  0
LINE
  5
27B
330
1F
100
AcDbEntity
  8
C-0
  6
JWW_DASHEDX2
 62
     7
370
     9
100
AcDbLine
 10
378.833132286789
 20
2.062497352823129
 30
0.0
 11
394.8331322867891
 21
2.062497352823129
 31
0.0
  0
LINE
  5
27C
330
1F
100
AcDbEntity
  8
C-0
  6
JWW_DASHEDX2
 62
     7
370
     9
100
AcDbLine
 10
394.8331322867891
 20
2.062497352823129
 30
0.0
 11
394.8331322867891
 21
1.062497352823186
 31
0.0
  0
ARC
  5
27D
330
1F
100
AcDbEntity
  8
C-0
  6
JWW_DASHEDX2
 62
     7
370
     9
100
AcDbCircle
 10
391.1632592867887
 20
4.729167352822969
 30
0.0
 40
2.333331
100
AcDbArc
 50
51.78674
 51
128.213249
  0
ARC
  5
27E
330
1F
100
AcDbEntity
  8
C-0
  6
JWW_DASHEDX2
 62
     7
370
     9
100
AcDbCircle
 10
386.8331332867889
 20
-1.520839647176899
 30
0.0
 40
8.583337
100
AcDbArc
 50
70.347154
 51
109.652856
  0
LINE
  5
27F
330
1F
100
AcDbEntity
  8
C-0
  6
JWW_DASHEDX2
 62
     7
370
     9
100
AcDbLine
 10
381.059630286789
 20
6.562496352823075
 30
0.0
 11
381.059630286789
 21
2.062497352823129
 31
0.0
  0
ARC
  5
280
330
1F
100
AcDbEntity
  8
C-0
  6
JWW_DASHEDX2
 62
     7
370
     9
100
AcDbCircle
 10
382.5030062867887
 20
4.729166352823029
 30
0.0
 40
2.333331
100
AcDbArc
 50
51.786764
 51
128.213262
  0
LINE
  5
281
330
1F
100
AcDbEntity
  8
C-0
  6
JWW_DASHEDX2
 62
     7
370
     9
100
AcDbLine
 10
383.9463812867891
 20
2.062497352823129
 30
0.0
 11
383.9463812867891
 21
6.562497352823016
 31
0.0
  0
LINE
  5
282
330
1F
100
AcDbEntity
  8
C-0
  6
JWW_DASHEDX2
 62
     7
370
     9
100
AcDbLine
 10
389.719884286789
 20
2.062497352823129
 30
0.0
 11
389.719884286789
 21
6.562497352823016
 31
0.0
  0
LINE
  5
283
330
1F
100
AcDbEntity
  8
C-0
  6
JWW_DASHEDX2
 62
     7
370
     9
100
AcDbLine
 10
392.6066352867889
 20
2.062497352823129
 30
0.0
 11
392.6066352867889
 21
6.562497352823016
 31
0.0
  0
LINE
  5
284
330
1F
100
AcDbEntity
  8
C-0
  6
JWW_DASHEDX2
 62
     7
370
     9
100
AcDbLine
 10
391.1651852867891
 20
7.062497352823129
 30
0.0
 11
382.5019652867888
 21
7.062497352823129
 31
0.0
  0
CIRCLE
  5
285
330
1F
100
AcDbEntity
  8
C-0
  6
JWW_DASHEDX2
 62
     7
370
     9
100
AcDbCircle
 10
386.8331322867891
 20
29.06249735282302
 30
0.0
 40
8.0
  0
LINE
  5
286
330
1F
100
AcDbEntity
  8
C-0
  6
JWW_DASHEDX2
 62
     7
370
     9
100
AcDbLine
 10
383.9463812867891
 20
34.06249735282302
 30
0.0
 11
389.719884286789
 21
34.06249735282302
 31
0.0
  0
LINE
  5
287
330
1F
100
AcDbEntity
  8
C-0
  6
JWW_DASHEDX2
 62
     7
370
     9
100
AcDbLine
 10
381.059630286789
 20
29.06249735282302
 30
0.0
 11
383.9463812867891
 21
34.06249735282302
 31
0.0
  0
LINE
  5
288
330
1F
100
AcDbEntity
  8
C-0
  6
JWW_DASHEDX2
 62
     7
370
     9
100
AcDbLine
 10
383.9463812867891
 20
24.06249735282302
 30
0.0
 11
381.059630286789
 21
29.06249735282302
 31
0.0
  0
LINE
  5
289
330
1F
100
AcDbEntity
  8
C-0
  6
JWW_DASHEDX2
 62
     7
370
     9
100
AcDbLine
 10
389.719884286789
 20
24.06249735282302
 30
0.0
 11
383.9463812867891
 21
24.06249735282302
 31
0.0
  0
LINE
  5
28A
330
1F
100
AcDbEntity
  8
C-0
  6
JWW_DASHEDX2
 62
     7
370
     9
100
AcDbLine
 10
392.6066352867889
 20
29.06249735282302
 30
0.0
 11
389.719884286789
 21
24.06249735282302
 31
0.0
  0
LINE
  5
28B
330
1F
100
AcDbEntity
  8
C-0
  6
JWW_DASHEDX2
 62
     7
370
     9
100
AcDbLine
 10
389.719884286789
 20
34.06249735282302
 30
0.0
 11
392.6066352867889
 21
29.06249735282302
 31
0.0
  0
CIRCLE
  5
28C
330
1F
100
AcDbEntity
  8
C-0
  6
JWW_DASHEDX2
 62
     7
370
     9
100
AcDbCircle
 10
386.8331322867891
 20
29.06249735282302
 30
0.0
 40
5.0
  0
CIRCLE
  5
28D
330
1F
100
AcDbEntity
  8
C-0
  6
JWW_DASHEDX2
 62
     7
370
     9
100
AcDbCircle
 10
386.8331322867891
 20
29.06249735282302
 30
0.0
 40
3.0
  0
CIRCLE
  5
28E
330
1F
100
AcDbEntity
  8
C-0
  6
JWW_DASHEDX2
 62
     7
370
     9
100
AcDbCircle
 10
386.8331322867891
 20
29.06249735282302
 30
0.0
 40
2.0
  0
LINE
  5
28F
330
1F
100
AcDbEntity
  8
C-8
  6
JWW_DASHED3
 62
     7
370
     9
100
AcDbLine
 10
-212.9992337132111
 20
797.9624973528229
 30
0.0
 11
-1209.999233713211
 21
797.9624973528229
 31
0.0
  0
LINE
  5
290
330
1F
100
AcDbEntity
  8
C-8
  6
JWW_DASHED3
 62
     7
370
     9
100
AcDbLine
 10
-212.9992337132111
 20
-199.037502647177
 30
0.0
 11
-212.9992337132111
 21
797.9624973528229
 31
0.0
  0
LINE
  5
291
330
1F
100
AcDbEntity
  8
C-8
  6
JWW_DASHED3
 62
     7
370
     9
100
AcDbLine
 10
-1209.999233713211
 20
797.9624973528229
 30
0.0
 11
-1209.999233713211
 21
-199.037502647177
 31
0.0
  0
LINE
  5
292
330
1F
100
AcDbEntity
  8
C-8
  6
JWW_DASHED3
 62
     7
370
     9
100
AcDbLine
 10
-1209.999233713211
 20
-199.037502647177
 30
0.0
 11
-212.9992337132111
 21
-199.037502647177
 31
0.0
  0
LINE
  5
293
330
1F
100
AcDbEntity
  8
C-4
  6
Continuous
 62
     7
370
     9
100
AcDbLine
 10
223.8827046273114
 20
-410.1216831197928
 30
0.0
 11
275.333132286789
 21
-410.1216831197928
 31
0.0
  0
TEXT
  5
294
330
1F
100
AcDbEntity
  8
C-4
  6
Continuous
 62
     7
370
     0
100
AcDbText
 10
327.3200438184529
 20
-442.3646046521851
 30
0.0
 40
22.86
  1
30
 41
1.083333333333333
  7
ＭＳ ゴシック
100
AcDbText
  0
TEXT
  5
295
330
1F
100
AcDbEntity
  8
C-4
  6
Continuous
 62
     7
370
     0
100
AcDbText
 10
301.2596255463457
 20
-454.1538414895669
 30
0.0
 40
22.86
  1
5
  7
ＭＳ ゴシック
100
AcDbText
  0
TEXT
  5
296
330
1F
100
AcDbEntity
  8
C-0
  6
Continuous
 62
     7
370
     0
100
AcDbText
 10
58.52831728678888
 20
760.8777603528232
 30
0.0
 40
22.86
  1
Ｐ 1.5(SUS304)
 41
1.157857142857143
  7
ＭＳ ゴシック
100
AcDbText
  0
TEXT
  5
297
330
1F
100
AcDbEntity
  8
C-5
  6
Continuous
 62
     7
370
     9
100
AcDbText
 10
65.79785772772762
 20
757.7931826305722
 30
0.0
 40
22.86
  1
Ｌ
 41
1.0
  7
ＭＳ ゴシック
100
AcDbText
  0
LINE
  5
298
330
1F
100
AcDbEntity
  8
C-0
  6
Continuous
 62
     7
370
     9
100
AcDbLine
 10
705.3331322867892
 20
786.7624973528233
 30
0.0
 11
354.32283827172
 21
786.7624973528233
 31
0.0
  0
LINE
  5
299
330
1F
100
AcDbEntity
  8
C-0
  6
Continuous
 62
     7
370
     9
100
AcDbLine
 10
780.3331322867891
 20
724.062497352823
 30
0.0
 11
354.3228382717201
 21
724.062497352823
 31
0.0
  0
LINE
  5
29A
330
1F
100
AcDbEntity
  8
C-0
  6
Continuous
 62
     7
370
     9
100
AcDbLine
 10
354.3228382717201
 20
724.062497352823
 30
0.0
 11
354.3228382717201
 21
624.0624973528229
 31
0.0
  0
LINE
  5
29B
330
1F
100
AcDbEntity
  8
C-0
  6
Continuous
 62
     7
370
     9
100
AcDbLine
 10
880.3331322867891
 20
624.0624973528229
 30
0.0
 11
354.3228382717201
 21
624.0624973528229
 31
0.0
  0
LINE
  5
29C
330
1F
100
AcDbEntity
  8
C-0
  6
Continuous
 62
     7
370
     9
100
AcDbLine
 10
705.3331322867892
 20
-188.6375026471771
 30
0.0
 11
354.4828382727963
 21
-188.6375026471771
 31
0.0
  0
LINE
  5
29D
330
1F
100
AcDbEntity
  8
C-0
  6
Continuous
 62
     7
370
     9
100
AcDbLine
 10
880.3331322867891
 20
-25.93750264717711
 30
0.0
 11
354.4828382727964
 21
-25.93750264717711
 31
0.0
  0
LINE
  5
29E
330
1F
100
AcDbEntity
  8
C-0
  6
Continuous
 62
     7
370
     9
100
AcDbLine
 10
354.4828382727964
 20
-125.9375026471771
 30
0.0
 11
354.4828382727964
 21
-25.93750264717711
 31
0.0
  0
LINE
  5
29F
330
1F
100
AcDbEntity
  8
C-0
  6
Continuous
 62
     7
370
     9
100
AcDbLine
 10
780.3331322867891
 20
-125.9375026471771
 30
0.0
 11
354.4828382727964
 21
-125.9375026471771
 31
0.0
  0
ENDSEC
  0
SECTION
  2
OBJECTS
  0
DICTIONARY
  5
C
330
0
100
AcDbDictionary
281
     1
  3
ACAD_GROUP
350
D
  3
ACAD_LAYOUT
350
1A
  3
ACAD_MLEADERSTYLE
350
2A1
  3
ACAD_MLINESTYLE
350
17
  3
ACAD_PLOTSETTINGS
350
19
  3
ACAD_PLOTSTYLENAME
350
E
  3
ACAD_TABLESTYLE
350
2A0
  3
ACAD_VISUALSTYLE
350
2A
  0
DICTIONARY
  5
D
102
{ACAD_REACTORS
330
C
102
}
330
C
100
AcDbDictionary
281
     1
  0
DICTIONARY
  5
1A
102
{ACAD_REACTORS
330
C
102
}
330
C
100
AcDbDictionary
281
     1
  3
Layout1
350
1E
  3
Layout2
350
26
  3
Model
350
22
  0
DICTIONARY
  5
2A1
102
{ACAD_REACTORS
330
C
102
}
330
C
100
AcDbDictionary
281
     1
  0
DICTIONARY
  5
17
102
{ACAD_REACTORS
330
C
102
}
330
C
100
AcDbDictionary
281
     1
  3
Standard
350
18
  0
DICTIONARY
  5
19
102
{ACAD_REACTORS
330
C
102
}
330
C
100
AcDbDictionary
281
     1
  0
ACDBDICTIONARYWDFLT
  5
E
102
{ACAD_REACTORS
330
C
102
}
330
C
100
AcDbDictionary
281
     1
  3
Normal
350
F
100
AcDbDictionaryWithDefault
340
F
  0
DICTIONARY
  5
2A0
102
{ACAD_REACTORS
330
C
102
}
330
C
100
AcDbDictionary
281
     1
  0
DICTIONARY
  5
2A
102
{ACAD_REACTORS
330
C
102
}
330
C
100
AcDbDictionary
281
     1
  3
2dWireframe
350
2F
  3
3D Hidden
350
31
  3
3dWireframe
350
30
  3
Basic
350
32
  3
Brighten
350
36
  3
ColorChange
350
3A
  3
Conceptual
350
34
  3
Dim
350
35
  3
Facepattern
350
39
  3
Flat
350
2B
  3
FlatWithEdges
350
2C
  3
Gouraud
350
2D
  3
GouraudWithEdges
350
2E
  3
Linepattern
350
38
  3
Realistic
350
33
  3
Thicken
350
37
  0
LAYOUT
  5
1E
102
{ACAD_REACTORS
330
1A
102
}
330
1A
100
AcDbPlotSettings
  1

  2
none_device
  4

  6

 40
0.0
 41
0.0
 42
0.0
 43
0.0
 44
0.0
 45
0.0
 46
0.0
 47
0.0
 48
0.0
 49
0.0
140
0.0
141
0.0
142
1.0
143
1.0
 70
   688
 72
     0
 73
     0
 74
     5
  7

 75
    16
 76
     0
 77
     5
 78
   300
147
1.0
148
0.0
149
0.0
100
AcDbLayout
  1
Layout1
 70
     1
 71
     1
 10
0.0
 20
0.0
 11
420.0
 21
297.0
 12
0.0
 22
0.0
 32
0.0
 14
1.000000000000000E+20
 24
1.000000000000000E+20
 34
1.000000000000000E+20
 15
-1.000000000000000E+20
 25
-1.000000000000000E+20
 35
-1.000000000000000E+20
146
0.0
 13
0.0
 23
0.0
 33
0.0
 16
1.0
 26
0.0
 36
0.0
 17
0.0
 27
1.0
 37
0.0
 76
     0
330
1B
  0
LAYOUT
  5
26
102
{ACAD_REACTORS
330
1A
102
}
330
1A
100
AcDbPlotSettings
  1

  2
none_device
  4

  6

 40
0.0
 41
0.0
 42
0.0
 43
0.0
 44
0.0
 45
0.0
 46
0.0
 47
0.0
 48
0.0
 49
0.0
140
0.0
141
0.0
142
1.0
143
1.0
 70
   688
 72
     0
 73
     0
 74
     5
  7

 75
    16
 76
     0
 77
     5
 78
   300
147
1.0
148
0.0
149
0.0
100
AcDbLayout
  1
Layout2
 70
     1
 71
     2
 10
0.0
 20
0.0
 11
0.0
 21
0.0
 12
0.0
 22
0.0
 32
0.0
 14
0.0
 24
0.0
 34
0.0
 15
0.0
 25
0.0
 35
0.0
146
0.0
 13
0.0
 23
0.0
 33
0.0
 16
1.0
 26
0.0
 36
0.0
 17
0.0
 27
1.0
 37
0.0
 76
     0
330
23
  0
LAYOUT
  5
22
102
{ACAD_REACTORS
330
1A
102
}
330
1A
100
AcDbPlotSettings
  1

  2
none_device
  4

  6

 40
0.0
 41
0.0
 42
0.0
 43
0.0
 44
0.0
 45
0.0
 46
0.0
 47
0.0
 48
0.0
 49
0.0
140
0.0
141
0.0
142
1.0
143
1.0
 70
  1712
 72
     0
 73
     0
 74
     0
  7

 75
     0
 76
     0
 77
     5
 78
   300
147
1.0
148
0.0
149
0.0
100
AcDbLayout
  1
Model
 70
     1
 71
     0
 10
-2100.0
 20
-1485.0
 11
2100.0
 21
1485.0
 12
0.0
 22
0.0
 32
0.0
 14
-2100.0
 24
-1485.0
 34
0.0
 15
2100.0
 25
1485.0
 35
0.0
146
0.0
 13
0.0
 23
0.0
 33
0.0
 16
1.0
 26
0.0
 36
0.0
 17
0.0
 27
1.0
 37
0.0
 76
     0
330
1F
331
29
  0
MLINESTYLE
  5
18
102
{ACAD_REACTORS
330
17
102
}
330
17
100
AcDbMlineStyle
  2
Standard
 70
     0
  3

 62
   256
 51
90.0
 52
90.0
 71
     2
 49
0.5
 62
   256
  6
BYLAYER
 49
-0.5
 62
   256
  6
BYLAYER
  0
ACDBPLACEHOLDER
  5
F
102
{ACAD_REACTORS
330
E
102
}
330
E
  0
VISUALSTYLE
  5
2F
102
{ACAD_REACTORS
330
2A
102
}
330
2A
100
AcDbVisualStyle
  2
2dWireframe
 70
     4
 71
     0
 72
     2
 73
     0
 90
        0
 40
-0.6
 41
-30.0
 62
     5
 63
     7
421
 16777215
 74
     1
 91
        4
 64
     7
 65
   257
 75
     1
175
     1
 42
1.0
 92
        0
 66
   257
 43
1.0
 76
     1
 77
     6
 78
     2
 67
     7
 79
     5
170
     0
171
     0
290
     0
174
     0
 93
        1
 44
0.0
173
     0
291
     0
 45
0.0
1001
ACAD
1000
AcDbSavedByObjectVersion
1070
     0
  0
VISUALSTYLE
  5
31
102
{ACAD_REACTORS
330
2A
102
}
330
2A
100
AcDbVisualStyle
  2
3D Hidden
 70
     6
 71
     1
 72
     2
 73
     2
 90
        0
 40
-0.6
 41
-30.0
 62
     5
 63
     7
421
 16777215
 74
     2
 91
        2
 64
     7
 65
   257
 75
     2
175
     1
 42
40.0
 92
        0
 66
   257
 43
1.0
 76
     1
 77
     6
 78
     2
 67
     7
 79
     3
170
     0
171
     0
290
     0
174
     0
 93
        1
 44
0.0
173
     0
291
     0
 45
0.0
1001
ACAD
1000
AcDbSavedByObjectVersion
1070
     0
  0
VISUALSTYLE
  5
30
102
{ACAD_REACTORS
330
2A
102
}
330
2A
100
AcDbVisualStyle
  2
3dWireframe
 70
     5
 71
     0
 72
     2
 73
     0
 90
        0
 40
-0.6
 41
-30.0
 62
     5
 63
     7
421
 16777215
 74
     1
 91
        4
 64
     7
 65
   257
 75
     1
175
     1
 42
1.0
 92
        0
 66
   257
 43
1.0
 76
     1
 77
     6
 78
     2
 67
     7
 79
     5
170
     0
171
     0
290
     0
174
     0
 93
        1
 44
0.0
173
     0
291
     0
 45
0.0
1001
ACAD
1000
AcDbSavedByObjectVersion
1070
     0
  0
VISUALSTYLE
  5
32
102
{ACAD_REACTORS
330
2A
102
}
330
2A
100
AcDbVisualStyle
  2
Basic
 70
     7
 71
     1
 72
     0
 73
     1
 90
        0
 40
-0.6
 41
-30.0
 62
     5
 63
     7
421
 16777215
 74
     0
 91
        4
 64
     7
 65
   257
 75
     1
175
     1
 42
1.0
 92
        8
 66
     7
 43
1.0
 76
     1
 77
     6
 78
     2
 67
     7
 79
     5
170
     0
171
     0
290
     0
174
     0
 93
        1
 44
0.0
173
     0
291
     1
 45
0.0
1001
ACAD
1000
AcDbSavedByObjectVersion
1070
     0
  0
VISUALSTYLE
  5
36
102
{ACAD_REACTORS
330
2A
102
}
330
2A
100
AcDbVisualStyle
  2
Brighten
 70
    12
 71
     2
 72
     2
 73
     0
 90
        0
 40
-0.6
 41
-30.0
 62
     5
 63
     7
421
 16777215
 74
     1
 91
        4
 64
     7
 65
   257
 75
     1
175
     1
 42
1.0
 92
        8
 66
     7
 43
1.0
 76
     1
 77
     6
 78
     2
 67
     7
 79
     5
170
     0
171
     0
290
     0
174
     0
 93
        1
 44
50.0
173
     0
291
     1
 45
0.0
1001
ACAD
1000
AcDbSavedByObjectVersion
1070
     0
  0
VISUALSTYLE
  5
3A
102
{ACAD_REACTORS
330
2A
102
}
330
2A
100
AcDbVisualStyle
  2
ColorChange
 70
    16
 71
     2
 72
     2
 73
     3
 90
        0
 40
-0.6
 41
-30.0
 62
     5
 63
     8
421
  8421504
 74
     1
 91
        4
 64
     7
 65
   257
 75
     1
175
     1
 42
1.0
 92
        8
 66
     8
424
  8421504
 43
1.0
 76
     1
 77
     6
 78
     2
 67
     7
 79
     5
170
     0
171
     0
290
     0
174
     0
 93
        1
 44
0.0
173
     0
291
     1
 45
0.0
1001
ACAD
1000
AcDbSavedByObjectVersion
1070
     0
  0
VISUALSTYLE
  5
34
102
{ACAD_REACTORS
330
2A
102
}
330
2A
100
AcDbVisualStyle
  2
Conceptual
 70
     9
 71
     3
 72
     2
 73
     0
 90
        0
 40
-0.6
 41
-30.0
 62
     5
 63
     7
421
 16777215
 74
     2
 91
        2
 64
     7
 65
   257
 75
     1
175
     1
 42
40.0
 92
        8
 66
     7
 43
1.0
 76
     1
 77
     6
 78
     2
 67
     7
 79
     3
170
     0
171
     0
290
     0
174
     0
 93
        1
 44
0.0
173
     0
291
     0
 45
0.0
1001
ACAD
1000
AcDbSavedByObjectVersion
1070
     0
  0
VISUALSTYLE
  5
35
102
{ACAD_REACTORS
330
2A
102
}
330
2A
100
AcDbVisualStyle
  2
Dim
 70
    11
 71
     2
 72
     2
 73
     0
 90
        0
 40
-0.6
 41
-30.0
 62
     5
 63
     7
421
 16777215
 74
     1
 91
        4
 64
     7
 65
   257
 75
     1
175
     1
 42
1.0
 92
        8
 66
     7
 43
1.0
 76
     1
 77
     6
 78
     2
 67
     7
 79
     5
170
     0
171
     0
290
     0
174
     0
 93
        1
 44
-50.0
173
     0
291
     1
 45
0.0
1001
ACAD
1000
AcDbSavedByObjectVersion
1070
     0
  0
VISUALSTYLE
  5
39
102
{ACAD_REACTORS
330
2A
102
}
330
2A
100
AcDbVisualStyle
  2
Facepattern
 70
    15
 71
     2
 72
     2
 73
     0
 90
        0
 40
-0.6
 41
-30.0
 62
     5
 63
     7
421
 16777215
 74
     1
 91
        4
 64
     7
 65
   257
 75
     1
175
     1
 42
1.0
 92
        8
 66
     7
 43
1.0
 76
     1
 77
     6
 78
     2
 67
     7
 79
     5
170
     0
171
     0
290
     0
174
     0
 93
        1
 44
0.0
173
     0
291
     1
 45
0.0
1001
ACAD
1000
AcDbSavedByObjectVersion
1070
     0
  0
VISUALSTYLE
  5
2B
102
{ACAD_REACTORS
330
2A
102
}
330
2A
100
AcDbVisualStyle
  2
Flat
 70
     0
 71
     2
 72
     1
 73
     1
 90
        2
 40
-0.6
 41
30.0
 62
     5
 63
     7
421
 16777215
 74
     0
 91
        4
 64
     7
 65
   257
 75
     1
175
     1
 42
1.0
 92
        8
 66
     7
 43
1.0
 76
     1
 77
     6
 78
     2
 67
     7
 79
     5
170
     0
171
     0
290
     0
174
     0
 93
       13
 44
0.0
173
     0
291
     1
 45
0.0
1001
ACAD
1000
AcDbSavedByObjectVersion
1070
     0
  0
VISUALSTYLE
  5
2C
102
{ACAD_REACTORS
330
2A
102
}
330
2A
100
AcDbVisualStyle
  2
FlatWithEdges
 70
     1
 71
     2
 72
     1
 73
     1
 90
        2
 40
-0.6
 41
30.0
 62
     5
 63
     7
421
 16777215
 74
     1
 91
        4
 64
     7
 65
   257
 75
     1
175
     1
 42
1.0
 92
        0
 66
   257
 43
1.0
 76
     1
 77
     6
 78
     2
 67
     7
 79
     5
170
     0
171
     0
290
     0
174
     0
 93
       13
 44
0.0
173
     0
291
     1
 45
0.0
1001
ACAD
1000
AcDbSavedByObjectVersion
1070
     0
  0
VISUALSTYLE
  5
2D
102
{ACAD_REACTORS
330
2A
102
}
330
2A
100
AcDbVisualStyle
  2
Gouraud
 70
     2
 71
     2
 72
     2
 73
     1
 90
        2
 40
-0.6
 41
30.0
 62
     5
 63
     7
421
 16777215
 74
     0
 91
        4
 64
     7
 65
   257
 75
     1
175
     1
 42
1.0
 92
        0
 66
     7
 43
1.0
 76
     1
 77
     6
 78
     2
 67
     7
 79
     5
170
     0
171
     0
290
     0
174
     0
 93
       13
 44
0.0
173
     0
291
     1
 45
0.0
1001
ACAD
1000
AcDbSavedByObjectVersion
1070
     0
  0
VISUALSTYLE
  5
2E
102
{ACAD_REACTORS
330
2A
102
}
330
2A
100
AcDbVisualStyle
  2
GouraudWithEdges
 70
     3
 71
     2
 72
     2
 73
     1
 90
        2
 40
-0.6
 41
30.0
 62
     5
 63
     7
421
 16777215
 74
     1
 91
        4
 64
     7
 65
   257
 75
     1
175
     1
 42
1.0
 92
        0
 66
   257
 43
1.0
 76
     1
 77
     6
 78
     2
 67
     7
 79
     5
170
     0
171
     0
290
     0
174
     0
 93
       13
 44
0.0
173
     0
291
     1
 45
0.0
1001
ACAD
1000
AcDbSavedByObjectVersion
1070
     0
  0
VISUALSTYLE
  5
38
102
{ACAD_REACTORS
330
2A
102
}
330
2A
100
AcDbVisualStyle
  2
Linepattern
 70
    14
 71
     2
 72
     2
 73
     0
 90
        0
 40
-0.6
 41
-30.0
 62
     5
 63
     7
421
 16777215
 74
     1
 91
        4
 64
     7
 65
   257
 75
     7
175
     7
 42
1.0
 92
        8
 66
     7
 43
1.0
 76
     1
 77
     6
 78
     2
 67
     7
 79
     5
170
     0
171
     0
290
     0
174
     0
 93
        1
 44
0.0
173
     0
291
     1
 45
0.0
1001
ACAD
1000
AcDbSavedByObjectVersion
1070
     0
  0
VISUALSTYLE
  5
33
102
{ACAD_REACTORS
330
2A
102
}
330
2A
100
AcDbVisualStyle
  2
Realistic
 70
     8
 71
     2
 72
     2
 73
     0
 90
        0
 40
-0.6
 41
-30.0
 62
     5
 63
     7
421
 16777215
 74
     1
 91
        0
 64
     7
 65
   257
 75
     1
175
     1
 42
1.0
 92
        8
 66
     8
424
  7895160
 43
1.0
 76
     1
 77
     6
 78
     2
 67
     7
 79
     5
170
     0
171
     0
290
     0
174
     0
 93
       13
 44
0.0
173
     0
291
     0
 45
0.0
1001
ACAD
1000
AcDbSavedByObjectVersion
1070
     0
  0
VISUALSTYLE
  5
37
102
{ACAD_REACTORS
330
2A
102
}
330
2A
100
AcDbVisualStyle
  2
Thicken
 70
    13
 71
     2
 72
     2
 73
     0
 90
        0
 40
-0.6
 41
-30.0
 62
     5
 63
     7
421
 16777215
 74
     1
 91
        4
 64
     7
 65
   257
 75
     1
175
     1
 42
1.0
 92
       12
 66
     7
 43
1.0
 76
     1
 77
     6
 78
     2
 67
     7
 79
     5
170
     0
171
     0
290
     0
174
     0
 93
        1
 44
0.0
173
     0
291
     1
 45
0.0
1001
ACAD
1000
AcDbSavedByObjectVersion
1070
     0
  0
ENDSEC
  0
EOF
