  0
SECTION
  2
HEADER
  9
$ACADVER
  1
AC1027
  9
$ACADMAINTVER
 70
   105
  9
$DWGCODEPAGE
  3
ANSI_932
  9
$REQUIREDVERSIONS
160
                 0
  9
$INSBASE
 10
0.0
 20
0.0
 30
0.0
  9
$EXTMIN
 10
-1050.0
 20
-742.5
 30
0.0
  9
$EXTMAX
 10
1050.0
 20
742.5
 30
0.0
  9
$LIMMIN
 10
-1050.0
 20
-742.5
  9
$LIMMAX
 10
1050.0
 20
742.5
  9
$ORTHOMODE
 70
     0
  9
$REGENMODE
 70
     1
  9
$FILLMODE
 70
     1
  9
$QTEXTMODE
 70
     0
  9
$MIRRTEXT
 70
     1
  9
$LTSCALE
 40
5.0
  9
$ATTMODE
 70
     1
  9
$TEXTSIZE
 40
2.5
  9
$TRACEWID
 40
1.0
  9
$TEXTSTYLE
  7
Standard
  9
$CLAYER
  8
0
  9
$CELTYPE
  6
ByLayer
  9
$CECOLOR
 62
   256
  9
$CELTSCALE
 40
1.0
  9
$DISPSILH
 70
     0
  9
$DIMSCALE
 40
1.0
  9
$DIMASZ
 40
2.5
  9
$DIMEXO
 40
0.625
  9
$DIMDLI
 40
3.75
  9
$DIMRND
 40
0.0
  9
$DIMDLE
 40
0.0
  9
$DIMEXE
 40
1.25
  9
$DIMTP
 40
0.0
  9
$DIMTM
 40
0.0
  9
$DIMTXT
 40
2.5
  9
$DIMCEN
 40
2.5
  9
$DIMTSZ
 40
0.0
  9
$DIMTOL
 70
     0
  9
$DIMLIM
 70
     0
  9
$DIMTIH
 70
     0
  9
$DIMTOH
 70
     0
  9
$DIMSE1
 70
     0
  9
$DIMSE2
 70
     0
  9
$DIMTAD
 70
     1
  9
$DIMZIN
 70
     8
  9
$DIMBLK
  1

  9
$DIMASO
 70
     1
  9
$DIMSHO
 70
     1
  9
$DIMPOST
  1

  9
$DIMAPOST
  1

  9
$DIMALT
 70
     0
  9
$DIMALTD
 70
     3
  9
$DIMALTF
 40
0.03937007874016
  9
$DIMLFAC
 40
1.0
  9
$DIMTOFL
 70
     1
  9
$DIMTVP
 40
0.0
  9
$DIMTIX
 70
     0
  9
$DIMSOXD
 70
     0
  9
$DIMSAH
 70
     0
  9
$DIMBLK1
  1

  9
$DIMBLK2
  1

  9
$DIMSTYLE
  2
ISO-25
  9
$DIMCLRD
 70
     0
  9
$DIMCLRE
 70
     0
  9
$DIMCLRT
 70
     0
  9
$DIMTFAC
 40
1.0
  9
$DIMGAP
 40
0.625
  9
$DIMJUST
 70
     0
  9
$DIMSD1
 70
     0
  9
$DIMSD2
 70
     0
  9
$DIMTOLJ
 70
     0
  9
$DIMTZIN
 70
     8
  9
$DIMALTZ
 70
     0
  9
$DIMALTTZ
 70
     0
  9
$DIMUPT
 70
     0
  9
$DIMDEC
 70
     2
  9
$DIMTDEC
 70
     2
  9
$DIMALTU
 70
     2
  9
$DIMALTTD
 70
     3
  9
$DIMTXSTY
  7
Standard
  9
$DIMAUNIT
 70
     0
  9
$DIMADEC
 70
     0
  9
$DIMALTRND
 40
0.0
  9
$DIMAZIN
 70
     0
  9
$DIMDSEP
 70
    44
  9
$DIMATFIT
 70
     3
  9
$DIMFRAC
 70
     0
  9
$DIMLDRBLK
  1

  9
$DIMLUNIT
 70
     2
  9
$DIMLWD
 70
    -2
  9
$DIMLWE
 70
    -2
  9
$DIMTMOVE
 70
     0
  9
$DIMFXL
 40
1.0
  9
$DIMFXLON
 70
     0
  9
$DIMJOGANG
 40
0.7853981633974483
  9
$DIMTFILL
 70
     0
  9
$DIMTFILLCLR
 70
     0
  9
$DIMARCSYM
 70
     0
  9
$DIMLTYPE
  6

  9
$DIMLTEX1
  6

  9
$DIMLTEX2
  6

  9
$DIMTXTDIRECTION
 70
     0
  9
$LUNITS
 70
     2
  9
$LUPREC
 70
     4
  9
$SKETCHINC
 40
1.0
  9
$FILLETRAD
 40
10.0
  9
$AUNITS
 70
     0
  9
$AUPREC
 70
     0
  9
$MENU
  1
.
  9
$ELEVATION
 40
0.0
  9
$PELEVATION
 40
0.0
  9
$THICKNESS
 40
0.0
  9
$LIMCHECK
 70
     0
  9
$CHAMFERA
 40
0.0
  9
$CHAMFERB
 40
0.0
  9
$CHAMFERC
 40
0.0
  9
$CHAMFERD
 40
0.0
  9
$SKPOLY
 70
     0
  9
$TDCREATE
 40
2460495.419582627
  9
$TDUCREATE
 40
2460495.044582627
  9
$TDUPDATE
 40
2460495.419582766
  9
$TDUUPDATE
 40
2460495.044582766
  9
$TDINDWG
 40
0.0000000116
  9
$TDUSRTIMER
 40
0.0000000116
  9
$USRTIMER
 70
     1
  9
$ANGBASE
 50
0.0
  9
$ANGDIR
 70
     0
  9
$PDMODE
 70
     0
  9
$PDSIZE
 40
0.0
  9
$PLINEWID
 40
0.0
  9
$SPLFRAME
 70
     0
  9
$SPLINETYPE
 70
     6
  9
$SPLINESEGS
 70
     8
  9
$HANDSEED
  5
52E
  9
$SURFTAB1
 70
     6
  9
$SURFTAB2
 70
     6
  9
$SURFTYPE
 70
     6
  9
$SURFU
 70
     6
  9
$SURFV
 70
     6
  9
$UCSBASE
  2

  9
$UCSNAME
  2

  9
$UCSORG
 10
0.0
 20
0.0
 30
0.0
  9
$UCSXDIR
 10
1.0
 20
0.0
 30
0.0
  9
$UCSYDIR
 10
0.0
 20
1.0
 30
0.0
  9
$UCSORTHOREF
  2

  9
$UCSORTHOVIEW
 70
     0
  9
$UCSORGTOP
 10
0.0
 20
0.0
 30
0.0
  9
$UCSORGBOTTOM
 10
0.0
 20
0.0
 30
0.0
  9
$UCSORGLEFT
 10
0.0
 20
0.0
 30
0.0
  9
$UCSORGRIGHT
 10
0.0
 20
0.0
 30
0.0
  9
$UCSORGFRONT
 10
0.0
 20
0.0
 30
0.0
  9
$UCSORGBACK
 10
0.0
 20
0.0
 30
0.0
  9
$PUCSBASE
  2

  9
$PUCSNAME
  2

  9
$PUCSORG
 10
0.0
 20
0.0
 30
0.0
  9
$PUCSXDIR
 10
1.0
 20
0.0
 30
0.0
  9
$PUCSYDIR
 10
0.0
 20
1.0
 30
0.0
  9
$PUCSORTHOREF
  2

  9
$PUCSORTHOVIEW
 70
     0
  9
$PUCSORGTOP
 10
0.0
 20
0.0
 30
0.0
  9
$PUCSORGBOTTOM
 10
0.0
 20
0.0
 30
0.0
  9
$PUCSORGLEFT
 10
0.0
 20
0.0
 30
0.0
  9
$PUCSORGRIGHT
 10
0.0
 20
0.0
 30
0.0
  9
$PUCSORGFRONT
 10
0.0
 20
0.0
 30
0.0
  9
$PUCSORGBACK
 10
0.0
 20
0.0
 30
0.0
  9
$USERI1
 70
     0
  9
$USERI2
 70
     0
  9
$USERI3
 70
     0
  9
$USERI4
 70
     0
  9
$USERI5
 70
     0
  9
$USERR1
 40
0.0
  9
$USERR2
 40
0.0
  9
$USERR3
 40
0.0
  9
$USERR4
 40
0.0
  9
$USERR5
 40
0.0
  9
$WORLDVIEW
 70
     1
  9
$SHADEDGE
 70
     3
  9
$SHADEDIF
 70
    70
  9
$TILEMODE
 70
     1
  9
$MAXACTVP
 70
    64
  9
$PINSBASE
 10
0.0
 20
0.0
 30
0.0
  9
$PLIMCHECK
 70
     0
  9
$PEXTMIN
 10
1.000000000000000E+20
 20
1.000000000000000E+20
 30
1.000000000000000E+20
  9
$PEXTMAX
 10
-1.000000000000000E+20
 20
-1.000000000000000E+20
 30
-1.000000000000000E+20
  9
$PLIMMIN
 10
0.0
 20
0.0
  9
$PLIMMAX
 10
420.0
 20
297.0
  9
$UNITMODE
 70
     0
  9
$VISRETAIN
 70
     1
  9
$PLINEGEN
 70
     0
  9
$PSLTSCALE
 70
     1
  9
$TREEDEPTH
 70
  3020
  9
$CMLSTYLE
  2
Standard
  9
$CMLJUST
 70
     0
  9
$CMLSCALE
 40
20.0
  9
$PROXYGRAPHICS
 70
     1
  9
$MEASUREMENT
 70
     1
  9
$CELWEIGHT
370
    -1
  9
$ENDCAPS
280
     0
  9
$JOINSTYLE
280
     0
  9
$LWDISPLAY
290
     0
  9
$INSUNITS
 70
     4
  9
$HYPERLINKBASE
  1

  9
$STYLESHEET
  1

  9
$XEDIT
290
     1
  9
$CEPSNTYPE
380
     0
  9
$PSTYLEMODE
290
     1
  9
$FINGERPRINTGUID
  2
{CA86E002-3BFF-4C28-B59B-F3F64C6373D1}
  9
$VERSIONGUID
  2
{FAEB1C32-E019-11D5-929B-00C0DF256EC4}
  9
$EXTNAMES
290
     1
  9
$PSVPSCALE
 40
0.0
  9
$OLESTARTUP
290
     0
  9
$SORTENTS
280
   127
  9
$INDEXCTL
280
     0
  9
$HIDETEXT
280
     1
  9
$XCLIPFRAME
280
     2
  9
$HALOGAP
280
     0
  9
$OBSCOLOR
 70
   257
  9
$OBSLTYPE
280
     0
  9
$INTERSECTIONDISPLAY
280
     0
  9
$INTERSECTIONCOLOR
 70
   257
  9
$DIMASSOC
280
     2
  9
$PROJECTNAME
  1

  9
$CAMERADISPLAY
290
     0
  9
$LENSLENGTH
 40
50.0
  9
$CAMERAHEIGHT
 40
0.0
  9
$STEPSPERSEC
 40
2.0
  9
$STEPSIZE
 40
6.0
  9
$3DDWFPREC
 40
2.0
  9
$PSOLWIDTH
 40
5.0
  9
$PSOLHEIGHT
 40
80.0
  9
$LOFTANG1
 40
1.570796326794897
  9
$LOFTANG2
 40
1.570796326794897
  9
$LOFTMAG1
 40
0.0
  9
$LOFTMAG2
 40
0.0
  9
$LOFTPARAM
 70
     7
  9
$LOFTNORMALS
280
     1
  9
$LATITUDE
 40
37.795
  9
$LONGITUDE
 40
-122.394
  9
$NORTHDIRECTION
 40
0.0
  9
$TIMEZONE
 70
 -8000
  9
$LIGHTGLYPHDISPLAY
280
     1
  9
$TILEMODELIGHTSYNCH
280
     1
  9
$CMATERIAL
347
44
  9
$SOLIDHIST
280
     0
  9
$SHOWHIST
280
     1
  9
$DWFFRAME
280
     2
  9
$DGNFRAME
280
     2
  9
$REALWORLDSCALE
290
     1
  9
$INTERFERECOLOR
 62
   256
  9
$CSHADOW
280
     0
  9
$SHADOWPLANELOCATION
 40
0.0
  0
ENDSEC
  0
SECTION
  2
CLASSES
  0
CLASS
  1
ACDBDICTIONARYWDFLT
  2
AcDbDictionaryWithDefault
  3
ObjectDBX Classes
 90
        0
 91
        4
280
     0
281
     0
  0
CLASS
  1
VISUALSTYLE
  2
AcDbVisualStyle
  3
ObjectDBX Classes
 90
     4095
 91
        4
280
     0
281
     0
  0
CLASS
  1
MATERIAL
  2
AcDbMaterial
  3
ObjectDBX Classes
 90
     1153
 91
        4
280
     0
281
     0
  0
CLASS
  1
SCALE
  2
AcDbScale
  3
ObjectDBX Classes
 90
     1153
 91
        4
280
     0
281
     0
  0
CLASS
  1
TABLESTYLE
  2
AcDbTableStyle
  3
ObjectDBX Classes
 90
     4095
 91
        4
280
     0
281
     0
  0
CLASS
  1
MLEADERSTYLE
  2
AcDbMLeaderStyle
  3
ACDB_MLEADERSTYLE_CLASS
 90
     4095
 91
        4
280
     0
281
     0
  0
CLASS
  1
SUN
  2
AcDbSun
  3
SCENEOE
 90
     1153
 91
        4
280
     0
281
     0
  0
CLASS
  1
DICTIONARYVAR
  2
AcDbDictionaryVar
  3
ObjectDBX Classes
 90
        0
 91
        4
280
     0
281
     0
  0
CLASS
  1
CELLSTYLEMAP
  2
AcDbCellStyleMap
  3
ObjectDBX Classes
 90
     1152
 91
        4
280
     0
281
     0
  0
ENDSEC
  0
SECTION
  2
TABLES
  0
TABLE
  2
VPORT
  5
8
330
0
100
AcDbSymbolTable
 70
     1
  0
VPORT
  5
29
330
8
100
AcDbSymbolTableRecord
100
AcDbViewportTableRecord
  2
*Active
 70
     0
 10
0.0
 20
0.0
 11
1.0
 21
1.0
 12
0.0
 22
0.0
 13
0.0
 23
0.0
 14
10.0
 24
10.0
 15
10.0
 25
10.0
 16
0.0
 26
0.0
 36
1.0
 17
0.0
 27
0.0
 37
0.0
 40
1633.5
 41
1.414141414141414
 42
50.0
 43
0.0
 44
0.0
 50
0.0
 51
0.0
 71
     0
 72
 10000
 73
     1
 74
     3
 75
     0
 76
     0
 77
     0
 78
     0
281
     0
 65
     1
110
0.0
120
0.0
130
0.0
111
1.0
121
0.0
131
0.0
112
0.0
122
1.0
132
0.0
 79
     0
146
0.0
348
2F
 60
     3
 61
     5
292
     1
282
     1
141
0.0
142
0.0
 63
   250
361
6D
  0
ENDTAB
  0
TABLE
  2
LTYPE
  5
5
330
0
100
AcDbSymbolTable
 70
     4
  0
LTYPE
  5
14
330
5
100
AcDbSymbolTableRecord
100
AcDbLinetypeTableRecord
  2
ByBlock
 70
     0
  3

 72
    65
 73
     0
 40
0.0
  0
LTYPE
  5
15
330
5
100
AcDbSymbolTableRecord
100
AcDbLinetypeTableRecord
  2
ByLayer
 70
     0
  3

 72
    65
 73
     0
 40
0.0
  0
LTYPE
  5
16
330
5
100
AcDbSymbolTableRecord
100
AcDbLinetypeTableRecord
  2
Continuous
 70
     0
  3
Solid line
 72
    65
 73
     0
 40
0.0
  0
LTYPE
  5
6F
330
5
100
AcDbSymbolTableRecord
100
AcDbLinetypeTableRecord
  2
JWW_CENTER1
 70
     0
  3
-----  --  ----------  --  -----
 72
    65
 73
     4
 40
6.773333333333333
 49
4.233333333333333
 74
     0
 49
-0.8466666666666667
 74
     0
 49
0.8466666666666667
 74
     0
 49
-0.8466666666666667
 74
     0
  0
LTYPE
  5
70
330
5
100
AcDbSymbolTableRecord
100
AcDbLinetypeTableRecord
  2
JWW_DASHED3
 70
     0
  3
---  ------  ------  ------  ---
 72
    65
 73
     2
 40
3.386666666666667
 49
2.54
 74
     0
 49
-0.8466666666666667
 74
     0
  0
LTYPE
  5
71
330
5
100
AcDbSymbolTableRecord
100
AcDbLinetypeTableRecord
  2
JWW_CENTER2
 70
     0
  3
-------------  --  -------------
 72
    65
 73
     4
 40
13.54666666666667
 49
11.00666666666667
 74
     0
 49
-0.8466666666666667
 74
     0
 49
0.8466666666666667
 74
     0
 49
-0.8466666666666667
 74
     0
  0
ENDTAB
  0
TABLE
  2
LAYER
  5
2
330
0
100
AcDbSymbolTable
 70
    11
  0
LAYER
  5
10
330
2
100
AcDbSymbolTableRecord
100
AcDbLayerTableRecord
  2
0
 70
     0
 62
     7
  6
Continuous
370
    -3
390
F
347
46
348
0
  0
LAYER
  5
72
330
2
100
AcDbSymbolTableRecord
100
AcDbLayerTableRecord
  2
D-2
 70
     0
 62
     7
  6
Continuous
370
    -3
390
F
347
46
348
0
  0
LAYER
  5
73
330
2
100
AcDbSymbolTableRecord
100
AcDbLayerTableRecord
  2
D-1
 70
     0
 62
     7
  6
Continuous
370
    -3
390
F
347
46
348
0
  0
LAYER
  5
74
330
2
100
AcDbSymbolTableRecord
100
AcDbLayerTableRecord
  2
D-6
 70
     0
 62
     7
  6
Continuous
370
    -3
390
F
347
46
348
0
  0
LAYER
  5
75
330
2
100
AcDbSymbolTableRecord
100
AcDbLayerTableRecord
  2
D-4
 70
     0
 62
     7
  6
Continuous
370
    -3
390
F
347
46
348
0
  0
LAYER
  5
76
330
2
100
AcDbSymbolTableRecord
100
AcDbLayerTableRecord
  2
0-2
 70
     0
 62
     7
  6
Continuous
370
    -3
390
F
347
46
348
0
  0
LAYER
  5
77
330
2
100
AcDbSymbolTableRecord
100
AcDbLayerTableRecord
  2
0-1
 70
     0
 62
     7
  6
Continuous
370
    -3
390
F
347
46
348
0
  0
LAYER
  5
78
330
2
100
AcDbSymbolTableRecord
100
AcDbLayerTableRecord
  2
0-4
 70
     0
 62
     7
  6
Continuous
370
    -3
390
F
347
46
348
0
  0
LAYER
  5
79
330
2
100
AcDbSymbolTableRecord
100
AcDbLayerTableRecord
  2
D-5
 70
     0
 62
     7
  6
Continuous
370
    -3
390
F
347
46
348
0
  0
LAYER
  5
7A
330
2
100
AcDbSymbolTableRecord
100
AcDbLayerTableRecord
  2
D-0
 70
     0
 62
     7
  6
Continuous
370
    -3
390
F
347
46
348
0
  0
LAYER
  5
7B
330
2
100
AcDbSymbolTableRecord
100
AcDbLayerTableRecord
  2
F-5
 70
     0
 62
     7
  6
Continuous
370
    -3
390
F
347
46
348
0
  0
ENDTAB
  0
TABLE
  2
STYLE
  5
3
330
0
100
AcDbSymbolTable
 70
     2
  0
STYLE
  5
11
330
3
100
AcDbSymbolTableRecord
100
AcDbTextStyleTableRecord
  2
Standard
 70
     0
 40
0.0
 41
1.0
 50
0.0
 71
     0
 42
2.5
  3
txt
  4

  0
STYLE
  5
6E
330
3
100
AcDbSymbolTableRecord
100
AcDbTextStyleTableRecord
  2
ＭＳ ゴシック
 70
     0
 40
1.0
 41
1.0
 50
0.0
 71
     0
 42
2.5
  3

  4

1001
ACAD
1000
MS Gothic
1071
    32817
  0
ENDTAB
  0
TABLE
  2
VIEW
  5
6
330
0
100
AcDbSymbolTable
 70
     0
  0
ENDTAB
  0
TABLE
  2
UCS
  5
7
330
0
100
AcDbSymbolTable
 70
     0
  0
ENDTAB
  0
TABLE
  2
APPID
  5
9
330
0
100
AcDbSymbolTable
 70
     1
  0
APPID
  5
12
330
9
100
AcDbSymbolTableRecord
100
AcDbRegAppTableRecord
  2
ACAD
 70
     0
  0
ENDTAB
  0
TABLE
  2
DIMSTYLE
  5
A
330
0
100
AcDbSymbolTable
 70
     1
100
AcDbDimStyleTable
  0
DIMSTYLE
105
27
330
A
100
AcDbSymbolTableRecord
100
AcDbDimStyleTableRecord
  2
ISO-25
 70
     0
 41
2.5
 42
0.625
 43
3.75
 44
1.25
 73
     0
 74
     0
 77
     1
 78
     8
140
2.5
141
2.5
143
0.03937007874016
147
0.625
171
     3
172
     1
178
     0
271
     2
272
     2
274
     3
278
    44
283
     0
284
     8
340
11
  0
ENDTAB
  0
TABLE
  2
BLOCK_RECORD
  5
1
330
0
100
AcDbSymbolTable
 70
     1
  0
BLOCK_RECORD
  5
1F
330
1
100
AcDbSymbolTableRecord
100
AcDbBlockTableRecord
  2
*Model_Space
340
22
 70
     0
280
     1
281
     0
  0
BLOCK_RECORD
  5
1B
330
1
100
AcDbSymbolTableRecord
100
AcDbBlockTableRecord
  2
*Paper_Space
340
1E
 70
     0
280
     1
281
     0
  0
BLOCK_RECORD
  5
23
330
1
100
AcDbSymbolTableRecord
100
AcDbBlockTableRecord
  2
*Paper_Space0
340
26
 70
     0
280
     1
281
     0
  0
ENDTAB
  0
ENDSEC
  0
SECTION
  2
BLOCKS
  0
BLOCK
  5
20
330
1F
100
AcDbEntity
  8
0
100
AcDbBlockBegin
  2
*Model_Space
 70
     0
 10
0.0
 20
0.0
 30
0.0
  3
*Model_Space
  1

  0
ENDBLK
  5
21
330
1F
100
AcDbEntity
  8
0
100
AcDbBlockEnd
  0
BLOCK
  5
1C
330
1B
100
AcDbEntity
 67
     1
  8
0
100
AcDbBlockBegin
  2
*Paper_Space
 70
     0
 10
0.0
 20
0.0
 30
0.0
  3
*Paper_Space
  1

  0
ENDBLK
  5
1D
330
1B
100
AcDbEntity
 67
     1
  8
0
100
AcDbBlockEnd
  0
BLOCK
  5
24
330
23
100
AcDbEntity
  8
0
100
AcDbBlockBegin
  2
*Paper_Space0
 70
     0
 10
0.0
 20
0.0
 30
0.0
  3
*Paper_Space0
  1

  0
ENDBLK
  5
25
330
23
100
AcDbEntity
  8
0
100
AcDbBlockEnd
  0
ENDSEC
  0
SECTION
  2
ENTITIES
  0
LINE
  5
7C
330
1F
100
AcDbEntity
  8
D-2
  6
Continuous
 62
     3
370
     9
100
AcDbLine
 10
250.7826109190245
 20
267.0456922376479
 30
0.0
 11
225.7826521589951
 21
267.0456922376479
 31
0.0
  0
LINE
  5
7D
330
1F
100
AcDbEntity
  8
D-2
  6
Continuous
 62
     3
370
     9
100
AcDbLine
 10
244.5326521589951
 20
258.7956773912584
 30
0.0
 11
232.0326109190245
 21
258.7956773912584
 31
0.0
  0
LINE
  5
7E
330
1F
100
AcDbEntity
  8
D-2
  6
Continuous
 62
     3
370
     9
100
AcDbLine
 10
227.0325944230363
 20
263.7956938872466
 30
0.0
 11
227.0325944230363
 21
267.0456922376479
 31
0.0
  0
LINE
  5
7F
330
1F
100
AcDbEntity
  8
D-2
  6
Continuous
 62
     3
370
     9
100
AcDbLine
 10
249.5326686549831
 20
263.7956938872466
 30
0.0
 11
249.5326686549831
 21
267.0456922376479
 31
0.0
  0
LINE
  5
80
330
1F
100
AcDbEntity
  8
D-2
  6
Continuous
 62
     3
370
     9
100
AcDbLine
 10
225.7826521589951
 20
267.0456922376479
 30
0.0
 11
225.7826521589951
 21
269.5456386256864
 31
0.0
  0
LINE
  5
81
330
1F
100
AcDbEntity
  8
D-2
  6
Continuous
 62
     3
370
     9
100
AcDbLine
 10
250.7826109190245
 20
267.0456922376479
 30
0.0
 11
250.7826109190245
 21
269.5456386256864
 31
0.0
  0
LINE
  5
82
330
1F
100
AcDbEntity
  8
D-2
  6
Continuous
 62
     3
370
     9
100
AcDbLine
 10
-9.406796017208592
 20
338.5456559464739
 30
0.0
 11
-1.906771273226298
 21
346.0456806904562
 31
0.0
  0
LINE
  5
83
330
1F
100
AcDbEntity
  8
D-2
  6
Continuous
 62
     3
370
     9
100
AcDbLine
 10
15.59316274282097
 20
338.5456559464739
 30
0.0
 11
23.09318748680326
 21
346.0456806904562
 31
0.0
  0
LINE
  5
84
330
1F
100
AcDbEntity
  8
D-2
  6
Continuous
 62
     3
370
     9
100
AcDbLine
 10
213.2826109190246
 20
341.0455404745567
 30
0.0
 11
213.2826109190246
 21
346.0456806904562
 31
0.0
  0
LINE
  5
85
330
1F
100
AcDbEntity
  8
D-2
  6
JWW_CENTER1
 62
     3
370
     9
100
AcDbLine
 10
290.78274288693
 20
261.1424585290858
 30
0.0
 11
290.78274288693
 21
355.3167559649494
 31
0.0
  0
LINE
  5
86
330
1F
100
AcDbEntity
  8
D-2
  6
Continuous
 62
     3
370
     9
100
AcDbLine
 10
213.7826868005702
 20
273.5456889384503
 30
0.0
 11
213.7826868005702
 21
332.2956971864443
 31
0.0
  0
LINE
  5
87
330
1F
100
AcDbEntity
  8
D-2
  6
Continuous
 62
     3
370
     9
100
AcDbLine
 10
363.7828105204815
 20
269.5456386256864
 30
0.0
 11
217.7827989732897
 21
269.5456386256864
 31
0.0
  0
LINE
  5
88
330
1F
100
AcDbEntity
  8
D-2
  6
JWW_CENTER1
 62
     3
370
     9
100
AcDbLine
 10
238.2828171188768
 20
254.9912282582876
 30
0.0
 11
238.2828171188768
 21
286.2889635240709
 31
0.0
  0
LINE
  5
89
330
1F
100
AcDbEntity
  8
D-2
  6
Continuous
 62
     3
370
     9
100
AcDbLine
 10
368.2826274150128
 20
341.0455404745567
 30
0.0
 11
368.2826274150128
 21
346.0456806904562
 31
0.0
  0
LINE
  5
8A
330
1F
100
AcDbEntity
  8
D-2
  6
Continuous
 62
     3
370
     9
100
AcDbLine
 10
520.7827593829182
 20
346.0456806904562
 30
0.0
 11
-62.75080088022591
 21
346.0456806904562
 31
0.0
  0
LINE
  5
8B
330
1F
100
AcDbEntity
  8
D-2
  6
Continuous
 62
     3
370
     9
100
AcDbLine
 10
503.2825779270482
 20
332.2956971864443
 30
0.0
 11
-62.75080088022591
 21
332.2956971864443
 31
0.0
  0
LINE
  5
8C
330
1F
100
AcDbEntity
  8
D-1
  6
Continuous
 62
     2
370
     9
100
AcDbLine
 10
523.2826439110011
 20
346.0456806904562
 30
0.0
 11
523.2826439110011
 21
223.5455858385241
 31
0.0
  0
LINE
  5
8D
330
1F
100
AcDbEntity
  8
D-1
  6
Continuous
 62
     2
370
     9
100
AcDbLine
 10
529.5327263909419
 20
278.3311751082136
 30
0.0
 11
523.2826439110011
 21
272.0812163481841
 31
0.0
  0
LINE
  5
8E
330
1F
100
AcDbEntity
  8
D-1
  6
Continuous
 62
     2
370
     9
100
AcDbLine
 10
529.5327263909419
 20
288.7601450327281
 30
0.0
 11
529.5327263909419
 21
278.3311751082136
 31
0.0
  0
LINE
  5
8F
330
1F
100
AcDbEntity
  8
D-2
  6
JWW_CENTER1
 62
     3
370
     9
100
AcDbLine
 10
343.2827923748945
 20
254.9912282582876
 30
0.0
 11
343.2827923748945
 21
286.2889635240709
 31
0.0
  0
LINE
  5
90
330
1F
100
AcDbEntity
  8
D-2
  6
Continuous
 62
     3
370
     9
100
AcDbLine
 10
330.7826274150128
 20
267.0456922376479
 30
0.0
 11
330.7826274150128
 21
269.5456386256864
 31
0.0
  0
LINE
  5
91
330
1F
100
AcDbEntity
  8
D-2
  6
Continuous
 62
     3
370
     9
100
AcDbLine
 10
355.7825861750422
 20
267.0456922376479
 30
0.0
 11
355.7825861750422
 21
269.5456386256864
 31
0.0
  0
LINE
  5
92
330
1F
100
AcDbEntity
  8
D-1
  6
Continuous
 62
     2
370
     9
100
AcDbLine
 10
523.2826439110011
 20
295.0101656527133
 30
0.0
 11
529.5327263909419
 21
288.7601450327281
 31
0.0
  0
LINE
  5
93
330
1F
100
AcDbEntity
  8
D-1
  6
Continuous
 62
     2
370
     9
100
AcDbLine
 10
525.782652158995
 20
271.0456188305005
 30
0.0
 11
525.782652158995
 21
221.0456394504857
 31
0.0
  0
LINE
  5
94
330
1F
100
AcDbEntity
  8
D-1
  6
Continuous
 62
     2
370
     9
100
AcDbLine
 10
573.1644089157519
 20
206.7956419248839
 30
0.0
 11
608.2828006228885
 21
206.7956419248839
 31
0.0
  0
LINE
  5
95
330
1F
100
AcDbEntity
  8
D-1
  6
Continuous
 62
     2
370
     9
100
AcDbLine
 10
531.5327824773016
 20
248.4273302232897
 30
0.0
 11
573.1644089157519
 21
206.7956419248839
 31
0.0
  0
LINE
  5
96
330
1F
100
AcDbEntity
  8
D-1
  6
Continuous
 62
     2
370
     9
100
AcDbLine
 10
531.5327824773016
 20
268.6639486776817
 30
0.0
 11
531.5327824773016
 21
248.4273302232897
 31
0.0
  0
LINE
  5
97
330
1F
100
AcDbEntity
  8
D-1
  6
Continuous
 62
     2
370
     9
100
AcDbLine
 10
531.5327824773016
 20
311.045565218539
 30
0.0
 11
531.5327824773016
 21
298.4273714632602
 31
0.0
  0
LINE
  5
98
330
1F
100
AcDbEntity
  8
D-1
  6
Continuous
 62
     2
370
     9
100
AcDbLine
 10
608.2828006228885
 20
201.0456971864443
 30
0.0
 11
608.2828006228885
 21
206.7956419248839
 31
0.0
  0
LINE
  5
99
330
1F
100
AcDbEntity
  8
D-1
  6
Continuous
 62
     2
370
     9
100
AcDbLine
 10
570.7828006228885
 20
201.0456971864443
 30
0.0
 11
608.2828006228885
 21
201.0456971864443
 31
0.0
  0
LINE
  5
9A
330
1F
100
AcDbEntity
  8
D-1
  6
Continuous
 62
     2
370
     9
100
AcDbLine
 10
525.782652158995
 20
246.045660070471
 30
0.0
 11
570.7828006228885
 21
201.0456971864443
 31
0.0
  0
LINE
  5
9B
330
1F
100
AcDbEntity
  8
D-1
  6
Continuous
 62
     2
370
     9
100
AcDbLine
 10
532.0326109190245
 20
277.2956394504857
 30
0.0
 11
525.782652158995
 21
271.0456188305005
 31
0.0
  0
LINE
  5
9C
330
1F
100
AcDbEntity
  8
D-1
  6
Continuous
 62
     2
370
     9
100
AcDbLine
 10
532.0326109190245
 20
289.7956188305005
 30
0.0
 11
532.0326109190245
 21
277.2956394504857
 31
0.0
  0
LINE
  5
9D
330
1F
100
AcDbEntity
  8
D-1
  6
Continuous
 62
     2
370
     9
100
AcDbLine
 10
525.782652158995
 20
296.0456394504857
 30
0.0
 11
532.0326109190245
 21
289.7956188305005
 31
0.0
  0
LINE
  5
9E
330
1F
100
AcDbEntity
  8
D-1
  6
Continuous
 62
     2
370
     9
100
AcDbLine
 10
525.782652158995
 20
343.5455487225508
 30
0.0
 11
525.782652158995
 21
296.0456394504857
 31
0.0
  0
LINE
  5
9F
330
1F
100
AcDbEntity
  8
D-1
  6
Continuous
 62
     2
370
     9
100
AcDbLine
 10
531.5327824773016
 20
311.045565218539
 30
0.0
 11
525.782652158995
 21
311.045565218539
 31
0.0
  0
LINE
  5
A0
330
1F
100
AcDbEntity
  8
D-1
  6
JWW_CENTER1
 62
     2
370
     9
100
AcDbLine
 10
515.8666249868033
 20
283.5456600704709
 30
0.0
 11
569.2753972233953
 21
283.5456600704709
 31
0.0
  0
LINE
  5
A1
330
1F
100
AcDbEntity
  8
D-6
  6
Continuous
 62
     6
370
     5
100
AcDbLine
 10
540.7825779270481
 20
171.045660070471
 30
0.0
 11
540.7825779270481
 21
34.29519653320312
 31
0.0
  0
LINE
  5
A2
330
1F
100
AcDbEntity
  8
D-6
  6
Continuous
 62
     6
370
     5
100
AcDbLine
 10
578.2825779270481
 20
233.1854083086994
 30
0.0
 11
600.782652158995
 21
233.1854083086994
 31
0.0
  0
LINE
  5
A3
330
1F
100
AcDbEntity
  8
D-1
  6
Continuous
 62
     2
370
     9
100
AcDbLine
 10
494.5326109190245
 20
234.4874985153611
 30
0.0
 11
501.0908796980576
 21
241.0455817145271
 31
0.0
  0
LINE
  5
A4
330
1F
100
AcDbEntity
  8
D-1
  6
Continuous
 62
     2
370
     9
100
AcDbLine
 10
511.8751732078761
 20
223.5455858385241
 30
0.0
 11
522.0325779270481
 21
233.7032998574747
 31
0.0
  0
LINE
  5
A5
330
1F
100
AcDbEntity
  8
D-1
  6
Continuous
 62
     2
370
     9
100
AcDbLine
 10
494.5326109190245
 20
227.4164725638725
 30
0.0
 11
508.1619675095018
 21
241.0455817145271
 31
0.0
  0
LINE
  5
A6
330
1F
100
AcDbEntity
  8
D-2
  6
Continuous
 62
     3
370
     9
100
AcDbLine
 10
503.2825779270482
 20
346.0456806904562
 30
0.0
 11
503.2825779270482
 21
332.2956971864443
 31
0.0
  0
LINE
  5
A7
330
1F
100
AcDbEntity
  8
D-2
  6
Continuous
 62
     3
370
     9
100
AcDbLine
 10
503.2825779270482
 20
338.5456559464739
 30
0.0
 11
-62.75080088022591
 21
338.5456559464739
 31
0.0
  0
LINE
  5
A8
330
1F
100
AcDbEntity
  8
D-2
  6
Continuous
 62
     3
370
     9
100
AcDbLine
 10
465.7825779270482
 20
329.795565218539
 30
0.0
 11
465.7825779270482
 21
332.2956971864443
 31
0.0
  0
LINE
  5
A9
330
1F
100
AcDbEntity
  8
D-2
  6
Continuous
 62
     3
370
     9
100
AcDbLine
 10
505.7827098949537
 20
243.5456518224768
 30
0.0
 11
505.7827098949537
 21
253.5456229544975
 31
0.0
  0
LINE
  5
AA
330
1F
100
AcDbEntity
  8
D-2
  6
Continuous
 62
     3
370
     9
100
AcDbLine
 10
518.282751134924
 20
243.5456518224768
 30
0.0
 11
505.7827098949537
 21
243.5456518224768
 31
0.0
  0
LINE
  5
AB
330
1F
100
AcDbEntity
  8
D-2
  6
Continuous
 62
     3
370
     9
100
AcDbLine
 10
518.282751134924
 20
243.5456518224768
 30
0.0
 11
518.282751134924
 21
343.5455487225508
 31
0.0
  0
LINE
  5
AC
330
1F
100
AcDbEntity
  8
D-2
  6
Continuous
 62
     3
370
     9
100
AcDbLine
 10
505.7827098949537
 20
343.5455487225508
 30
0.0
 11
518.282751134924
 21
343.5455487225508
 31
0.0
  0
LINE
  5
AD
330
1F
100
AcDbEntity
  8
D-2
  6
Continuous
 62
     3
370
     9
100
AcDbLine
 10
505.7827098949537
 20
329.795565218539
 30
0.0
 11
505.7827098949537
 21
343.5455487225508
 31
0.0
  0
LINE
  5
AE
330
1F
100
AcDbEntity
  8
D-1
  6
Continuous
 62
     2
370
     9
100
AcDbLine
 10
494.5326109190245
 20
241.0455817145271
 30
0.0
 11
494.5326109190245
 21
223.5455858385241
 31
0.0
  0
LINE
  5
AF
330
1F
100
AcDbEntity
  8
D-2
  6
Continuous
 62
     3
370
     9
100
AcDbLine
 10
465.7825779270482
 20
329.795565218539
 30
0.0
 11
505.7827098949537
 21
329.795565218539
 31
0.0
  0
LINE
  5
B0
330
1F
100
AcDbEntity
  8
D-2
  6
Continuous
 62
     3
370
     9
100
AcDbLine
 10
503.2825779270482
 20
253.5456229544975
 30
0.0
 11
505.7827098949537
 21
253.5456229544975
 31
0.0
  0
LINE
  5
B1
330
1F
100
AcDbEntity
  8
D-1
  6
Continuous
 62
     2
370
     9
100
AcDbLine
 10
493.2827923748945
 20
233.5456806904561
 30
0.0
 11
490.7826604069891
 21
233.5456806904561
 31
0.0
  0
LINE
  5
B2
330
1F
100
AcDbEntity
  8
D-1
  6
Continuous
 62
     2
370
     9
100
AcDbLine
 10
540.7825779270481
 20
333.5456394504857
 30
0.0
 11
538.2826933989654
 21
333.5456394504857
 31
0.0
  0
LINE
  5
B3
330
1F
100
AcDbEntity
  8
D-1
  6
Continuous
 62
     2
370
     9
100
AcDbLine
 10
493.2827923748945
 20
233.5456806904561
 30
0.0
 11
493.2827923748945
 21
223.5455858385241
 31
0.0
  0
LINE
  5
B4
330
1F
100
AcDbEntity
  8
D-1
  6
Continuous
 62
     2
370
     9
100
AcDbLine
 10
538.2826933989654
 20
343.5455487225508
 30
0.0
 11
538.2826933989654
 21
333.5456394504857
 31
0.0
  0
LINE
  5
B5
330
1F
100
AcDbEntity
  8
D-1
  6
Continuous
 62
     2
370
     9
100
AcDbLine
 10
523.2826439110011
 20
223.5455858385241
 30
0.0
 11
493.2827923748945
 21
223.5455858385241
 31
0.0
  0
LINE
  5
B6
330
1F
100
AcDbEntity
  8
D-1
  6
Continuous
 62
     2
370
     9
100
AcDbLine
 10
538.2826933989654
 20
343.5455487225508
 30
0.0
 11
525.782652158995
 21
343.5455487225508
 31
0.0
  0
LINE
  5
B7
330
1F
100
AcDbEntity
  8
D-1
  6
Continuous
 62
     2
370
     9
100
AcDbLine
 10
540.7825779270481
 20
346.0456806904562
 30
0.0
 11
540.7825779270481
 21
333.5456394504857
 31
0.0
  0
LINE
  5
B8
330
1F
100
AcDbEntity
  8
D-1
  6
Continuous
 62
     2
370
     9
100
AcDbLine
 10
525.782652158995
 20
221.0456394504857
 30
0.0
 11
490.7826604069891
 21
221.0456394504857
 31
0.0
  0
LINE
  5
B9
330
1F
100
AcDbEntity
  8
D-2
  6
Continuous
 62
     3
370
     9
100
AcDbLine
 10
332.0328171188768
 20
263.7956938872466
 30
0.0
 11
332.0328171188768
 21
267.0456922376479
 31
0.0
  0
LINE
  5
BA
330
1F
100
AcDbEntity
  8
D-2
  6
Continuous
 62
     3
370
     9
100
AcDbLine
 10
40.59324522276185
 20
338.5456559464739
 30
0.0
 11
48.09314624683282
 21
346.0456806904562
 31
0.0
  0
LINE
  5
BB
330
1F
100
AcDbEntity
  8
D-2
  6
Continuous
 62
     3
370
     9
100
AcDbLine
 10
65.59320398279141
 20
338.5456559464739
 30
0.0
 11
73.09335244668503
 21
346.0456806904562
 31
0.0
  0
LINE
  5
BC
330
1F
100
AcDbEntity
  8
D-2
  6
Continuous
 62
     3
370
     9
100
AcDbLine
 10
90.59316274282097
 20
338.5456559464739
 30
0.0
 11
98.09318748680326
 21
346.0456806904562
 31
0.0
  0
LINE
  5
BD
330
1F
100
AcDbEntity
  8
D-2
  6
Continuous
 62
     3
370
     9
100
AcDbLine
 10
115.5933689426732
 20
338.5456559464739
 30
0.0
 11
123.0931462468328
 21
346.0456806904562
 31
0.0
  0
LINE
  5
BE
330
1F
100
AcDbEntity
  8
D-2
  6
Continuous
 62
     3
370
     9
100
AcDbLine
 10
140.5932039827914
 20
338.5456559464739
 30
0.0
 11
148.093352446685
 21
346.0456806904562
 31
0.0
  0
LINE
  5
BF
330
1F
100
AcDbEntity
  8
D-2
  6
Continuous
 62
     3
370
     9
100
AcDbLine
 10
165.593162742821
 20
338.5456559464739
 30
0.0
 11
173.0933112067146
 21
346.0456806904562
 31
0.0
  0
LINE
  5
C0
330
1F
100
AcDbEntity
  8
D-2
  6
Continuous
 62
     3
370
     9
100
AcDbLine
 10
190.5933689426732
 20
338.5456559464739
 30
0.0
 11
198.0931462468328
 21
346.0456806904562
 31
0.0
  0
LINE
  5
C1
330
1F
100
AcDbEntity
  8
D-2
  6
Continuous
 62
     3
370
     9
100
AcDbLine
 10
368.2826274150128
 20
341.2350793786952
 30
0.0
 11
373.0932287267737
 21
346.0456806904562
 31
0.0
  0
LINE
  5
C2
330
1F
100
AcDbEntity
  8
D-2
  6
Continuous
 62
     3
370
     9
100
AcDbLine
 10
390.5932864627323
 20
338.5456559464739
 30
0.0
 11
398.0931874868034
 21
346.0456806904562
 31
0.0
  0
LINE
  5
C3
330
1F
100
AcDbEntity
  8
D-2
  6
Continuous
 62
     3
370
     9
100
AcDbLine
 10
415.593245222762
 20
338.5456559464739
 30
0.0
 11
423.0931462468328
 21
346.0456806904562
 31
0.0
  0
LINE
  5
C4
330
1F
100
AcDbEntity
  8
D-2
  6
Continuous
 62
     3
370
     9
100
AcDbLine
 10
440.5933277027029
 20
338.5456559464739
 30
0.0
 11
448.0933524466852
 21
346.0456806904562
 31
0.0
  0
LINE
  5
C5
330
1F
100
AcDbEntity
  8
D-2
  6
Continuous
 62
     3
370
     9
100
AcDbLine
 10
465.5932864627323
 20
338.5456559464739
 30
0.0
 11
473.0931874868034
 21
346.0456806904562
 31
0.0
  0
LINE
  5
C6
330
1F
100
AcDbEntity
  8
D-2
  6
Continuous
 62
     3
370
     9
100
AcDbLine
 10
490.593245222762
 20
338.5456559464739
 30
0.0
 11
498.0931462468328
 21
346.0456806904562
 31
0.0
  0
LINE
  5
C7
330
1F
100
AcDbEntity
  8
D-2
  6
Continuous
 62
     3
370
     9
100
AcDbLine
 10
354.5326439110011
 20
263.7956938872466
 30
0.0
 11
354.5326439110011
 21
267.0456922376479
 31
0.0
  0
LINE
  5
C8
330
1F
100
AcDbEntity
  8
D-2
  6
Continuous
 62
     3
370
     9
100
AcDbLine
 10
337.0325861750422
 20
258.7956773912584
 30
0.0
 11
349.5326274150128
 21
258.7956773912584
 31
0.0
  0
LINE
  5
C9
330
1F
100
AcDbEntity
  8
D-2
  6
Continuous
 62
     3
370
     9
100
AcDbLine
 10
367.7827989732899
 20
338.5456559464739
 30
0.0
 11
367.7827989732899
 21
341.0455404745567
 31
0.0
  0
LINE
  5
CA
330
1F
100
AcDbEntity
  8
D-2
  6
Continuous
 62
     3
370
     9
100
AcDbLine
 10
213.7826868005702
 20
338.5456559464739
 30
0.0
 11
213.7826868005702
 21
341.0455404745567
 31
0.0
  0
LINE
  5
CB
330
1F
100
AcDbEntity
  8
D-2
  6
Continuous
 62
     3
370
     9
100
AcDbLine
 10
368.2826274150128
 20
341.0455404745567
 30
0.0
 11
213.2826109190246
 21
341.0455404745567
 31
0.0
  0
LINE
  5
CC
330
1F
100
AcDbEntity
  8
D-2
  6
Continuous
 62
     3
370
     9
100
AcDbLine
 10
330.7826274150128
 20
267.0456922376479
 30
0.0
 11
355.7825861750422
 21
267.0456922376479
 31
0.0
  0
LINE
  5
CD
330
1F
100
AcDbEntity
  8
D-2
  6
Continuous
 62
     3
370
     9
100
AcDbLine
 10
367.7827989732899
 20
273.5456889384503
 30
0.0
 11
367.7827989732899
 21
332.2956971864443
 31
0.0
  0
LINE
  5
CE
330
1F
100
AcDbEntity
  8
D-1
  6
Continuous
 62
     2
370
     9
100
AcDbLine
 10
497.7331213048987
 20
223.5455858385241
 30
0.0
 11
515.233055320946
 21
241.0455817145271
 31
0.0
  0
LINE
  5
CF
330
1F
100
AcDbEntity
  8
D-2
  6
Continuous
 62
     3
370
     9
100
AcDbLine
 10
2.562734243032168
 20
-282.805740768845
 30
0.0
 11
21.56277218380495
 21
-282.805740768845
 31
0.0
  0
LINE
  5
D0
330
1F
100
AcDbEntity
  8
D-2
  6
Continuous
 62
     3
370
     9
100
AcDbLine
 10
30.56277713260144
 20
-329.8057597392313
 30
0.0
 11
99.56273259343334
 21
-329.8057597392313
 31
0.0
  0
LINE
  5
D1
330
1F
100
AcDbEntity
  8
D-2
  6
Continuous
 62
     3
370
     9
100
AcDbLine
 10
27.56269300306172
 20
-326.8057374696473
 30
0.0
 11
27.56269300306172
 21
-288.8057234480574
 31
0.0
  0
LINE
  5
D2
330
1F
100
AcDbEntity
  8
D-2
  6
Continuous
 62
     3
370
     9
100
AcDbLine
 10
102.5626930030617
 20
-326.8057374696473
 30
0.0
 11
102.5626930030617
 21
-288.8057234480574
 31
0.0
  0
LINE
  5
D3
330
1F
100
AcDbEntity
  8
D-2
  6
Continuous
 62
     3
370
     9
100
AcDbLine
 10
108.5628612621412
 20
-282.805740768845
 30
0.0
 11
127.5626517630913
 21
-282.805740768845
 31
0.0
  0
LINE
  5
D4
330
1F
100
AcDbEntity
  8
D-2
  6
Continuous
 62
     3
370
     9
100
AcDbLine
 10
2.562734243032168
 20
-285.8057321084511
 30
0.0
 11
21.56277218380495
 21
-285.8057321084511
 31
0.0
  0
LINE
  5
D5
330
1F
100
AcDbEntity
  8
D-2
  6
Continuous
 62
     3
370
     9
100
AcDbLine
 10
24.56273259343334
 20
-326.8057374696473
 30
0.0
 11
24.56273259343334
 21
-288.8057234480574
 31
0.0
  0
LINE
  5
D6
330
1F
100
AcDbEntity
  8
D-2
  6
Continuous
 62
     3
370
     9
100
AcDbLine
 10
30.56277713260144
 20
-332.8057201488598
 30
0.0
 11
99.56273259343334
 21
-332.8057201488598
 31
0.0
  0
LINE
  5
D7
330
1F
100
AcDbEntity
  8
D-2
  6
Continuous
 62
     3
370
     9
100
AcDbLine
 10
105.5629008525128
 20
-326.8057374696473
 30
0.0
 11
105.5629008525128
 21
-288.8057234480574
 31
0.0
  0
LINE
  5
D8
330
1F
100
AcDbEntity
  8
D-2
  6
Continuous
 62
     3
370
     9
100
AcDbLine
 10
108.5628612621412
 20
-285.8057321084511
 30
0.0
 11
127.5626517630913
 21
-285.8057321084511
 31
0.0
  0
LINE
  5
D9
330
1F
100
AcDbEntity
  8
D-2
  6
Continuous
 62
     3
370
     9
100
AcDbLine
 10
2.562734243032168
 20
-282.805740768845
 30
0.0
 11
2.562734243032168
 21
-285.8057321084511
 31
0.0
  0
LINE
  5
DA
330
1F
100
AcDbEntity
  8
D-2
  6
Continuous
 62
     3
370
     9
100
AcDbLine
 10
127.5626517630913
 20
-282.805740768845
 30
0.0
 11
127.5626517630913
 21
-285.8057321084511
 31
0.0
  0
LINE
  5
DB
330
1F
100
AcDbEntity
  8
D-4
  6
Continuous
 62
     7
370
     9
100
AcDbLine
 10
-33.52809596706081
 20
-426.3933068352776
 30
0.0
 11
241.8685913085938
 21
-426.3933068352776
 31
0.0
  0
LINE
  5
DC
330
1F
100
AcDbEntity
  8
D-4
  6
Continuous
 62
     7
370
     9
100
AcDbLine
 10
109.6105214711783
 20
28.59158490155195
 30
0.0
 11
384.1519329998945
 21
28.59158490155195
 31
0.0
  0
LINE
  5
DD
330
1F
100
AcDbEntity
  8
D-2
  6
Continuous
 62
     3
370
     9
100
AcDbLine
 10
-34.40675477723815
 20
338.5456559464739
 30
0.0
 11
-26.90666817330026
 21
346.0456806904562
 31
0.0
  0
LINE
  5
DE
330
1F
100
AcDbEntity
  8
D-2
  6
Continuous
 62
     3
370
     9
100
AcDbLine
 10
-59.40665167731197
 20
338.5456559464739
 30
0.0
 11
-51.90662693332982
 21
346.0456806904562
 31
0.0
  0
LINE
  5
DF
330
1F
100
AcDbEntity
  8
D-1
  6
Continuous
 62
     2
370
     9
100
AcDbLine
 10
490.7826604069891
 20
233.5456806904561
 30
0.0
 11
490.7826604069891
 21
221.0456394504857
 31
0.0
  0
LINE
  5
E0
330
1F
100
AcDbEntity
  8
D-1
  6
Continuous
 62
     2
370
     9
100
AcDbLine
 10
540.7825779270481
 20
346.0456806904562
 30
0.0
 11
523.2826439110011
 21
346.0456806904562
 31
0.0
  0
LINE
  5
E1
330
1F
100
AcDbEntity
  8
D-6
  6
Continuous
 62
     6
370
     5
100
AcDbLine
 10
578.2825779270481
 20
171.045660070471
 30
0.0
 11
578.2825779270481
 21
201.0456971864443
 31
0.0
  0
LINE
  5
E2
330
1F
100
AcDbEntity
  8
D-6
  6
Continuous
 62
     6
370
     5
100
AcDbLine
 10
578.2825779270481
 20
206.7956419248839
 30
0.0
 11
578.2825779270481
 21
233.1854083086994
 31
0.0
  0
LINE
  5
E3
330
1F
100
AcDbEntity
  8
D-6
  6
Continuous
 62
     6
370
     5
100
AcDbLine
 10
600.782652158995
 20
171.045660070471
 30
0.0
 11
600.782652158995
 21
201.0456971864443
 31
0.0
  0
LINE
  5
E4
330
1F
100
AcDbEntity
  8
D-6
  6
Continuous
 62
     6
370
     5
100
AcDbLine
 10
600.782652158995
 20
206.7956419248839
 30
0.0
 11
600.782652158995
 21
233.1854083086994
 31
0.0
  0
LINE
  5
E5
330
1F
100
AcDbEntity
  8
D-6
  6
JWW_DASHED3
 62
     6
370
     5
100
AcDbLine
 10
600.7828995988177
 20
118.6886926599452
 30
0.0
 11
600.7828995988177
 21
171.045660070471
 31
0.0
  0
LINE
  5
E6
330
1F
100
AcDbEntity
  8
D-6
  6
JWW_DASHED3
 62
     6
370
     5
100
AcDbLine
 10
578.2825779270481
 20
118.6886926599452
 30
0.0
 11
578.2825779270481
 21
171.045660070471
 31
0.0
  0
LINE
  5
E7
330
1F
100
AcDbEntity
  8
D-6
  6
Continuous
 62
     6
370
     5
100
AcDbLine
 10
719.5912541569891
 20
101.1486115326753
 30
0.0
 11
652.7380865973396
 21
34.29525839315886
 31
0.0
  0
LINE
  5
E8
330
1F
100
AcDbEntity
  8
D-6
  6
Continuous
 62
     6
370
     5
100
AcDbLine
 10
719.5912541569891
 20
93.49863825617618
 30
0.0
 11
660.38818359375
 21
34.29525839315886
 31
0.0
  0
LINE
  5
E9
330
1F
100
AcDbEntity
  8
D-6
  6
Continuous
 62
     6
370
     5
100
AcDbLine
 10
719.5912541569891
 20
108.7984610892632
 30
0.0
 11
645.0882370407519
 21
34.29525839315886
 31
0.0
  0
LINE
  5
EA
330
1F
100
AcDbEntity
  8
D-6
  6
Continuous
 62
     6
370
     5
100
AcDbLine
 10
719.5912541569891
 20
171.045660070471
 30
0.0
 11
540.7825779270481
 21
171.045660070471
 31
0.0
  0
LINE
  5
EB
330
1F
100
AcDbEntity
  8
D-6
  6
JWW_CENTER2
 62
     6
370
     5
100
AcDbLine
 10
589.5328006228885
 20
118.6886926599452
 30
0.0
 11
589.5328006228885
 21
241.7046376821158
 31
0.0
  0
LINE
  5
EC
330
1F
100
AcDbEntity
  8
D-1
  6
Continuous
 62
     2
370
     9
100
AcDbLine
 10
544.844673775338
 20
293.670650172878
 30
0.0
 11
537.7826175174198
 21
293.670650172878
 31
0.0
  0
LINE
  5
ED
330
1F
100
AcDbEntity
  8
D-1
  6
Continuous
 62
     2
370
     9
100
AcDbLine
 10
544.844673775338
 20
273.4206699680638
 30
0.0
 11
537.7826175174198
 21
273.4206699680638
 31
0.0
  0
LINE
  5
EE
330
1F
100
AcDbEntity
  8
D-1
  6
Continuous
 62
     2
370
     9
100
AcDbLine
 10
537.7826175174198
 20
293.670650172878
 30
0.0
 11
537.7826175174198
 21
273.4206699680638
 31
0.0
  0
LINE
  5
EF
330
1F
100
AcDbEntity
  8
D-1
  6
Continuous
 62
     2
370
     9
100
AcDbLine
 10
544.844673775338
 20
288.6189187539591
 30
0.0
 11
537.7826175174198
 21
288.6189187539591
 31
0.0
  0
LINE
  5
F0
330
1F
100
AcDbEntity
  8
D-1
  6
Continuous
 62
     2
370
     9
100
AcDbLine
 10
544.844673775338
 20
278.4723395270271
 30
0.0
 11
537.7826175174198
 21
278.4723395270271
 31
0.0
  0
LINE
  5
F1
330
1F
100
AcDbEntity
  8
D-1
  6
Continuous
 62
     2
370
     9
100
AcDbLine
 10
545.7828418628592
 20
291.1447844634185
 30
0.0
 11
545.7828418628592
 21
275.9465356775233
 31
0.0
  0
LINE
  5
F2
330
1F
100
AcDbEntity
  8
D-1
  6
Continuous
 62
     2
370
     9
100
AcDbLine
 10
557.0326933989654
 20
287.5981057656779
 30
0.0
 11
545.7828418628592
 21
287.5981057656779
 31
0.0
  0
LINE
  5
F3
330
1F
100
AcDbEntity
  8
D-1
  6
Continuous
 62
     2
370
     9
100
AcDbLine
 10
557.0326933989654
 20
279.4930906553527
 30
0.0
 11
545.7828418628592
 21
279.4930906553527
 31
0.0
  0
LINE
  5
F4
330
1F
100
AcDbEntity
  8
D-1
  6
Continuous
 62
     2
370
     9
100
AcDbLine
 10
556.0852463180956
 20
288.5456765664591
 30
0.0
 11
556.0852463180956
 21
278.5455817145271
 31
0.0
  0
LINE
  5
F5
330
1F
100
AcDbEntity
  8
D-1
  6
Continuous
 62
     2
370
     9
100
AcDbLine
 10
556.0852463180956
 20
288.5456765664591
 30
0.0
 11
545.7828418628592
 21
288.5456765664591
 31
0.0
  0
LINE
  5
F6
330
1F
100
AcDbEntity
  8
D-1
  6
Continuous
 62
     2
370
     9
100
AcDbLine
 10
557.0326933989654
 20
287.5981057656779
 30
0.0
 11
556.0852463180956
 21
288.5456765664591
 31
0.0
  0
LINE
  5
F7
330
1F
100
AcDbEntity
  8
D-1
  6
Continuous
 62
     2
370
     9
100
AcDbLine
 10
545.7828418628592
 20
278.5455817145271
 30
0.0
 11
556.0852463180956
 21
278.5455817145271
 31
0.0
  0
LINE
  5
F8
330
1F
100
AcDbEntity
  8
D-1
  6
Continuous
 62
     2
370
     9
100
AcDbLine
 10
557.0326933989654
 20
279.4930906553527
 30
0.0
 11
556.0852463180956
 21
278.5455817145271
 31
0.0
  0
LINE
  5
F9
330
1F
100
AcDbEntity
  8
D-1
  6
Continuous
 62
     2
370
     9
100
AcDbLine
 10
557.0326933989654
 20
287.5981057656779
 30
0.0
 11
557.0326933989654
 21
279.4930906553527
 31
0.0
  0
LINE
  5
FA
330
1F
100
AcDbEntity
  8
D-1
  6
Continuous
 62
     2
370
     9
100
AcDbLine
 10
531.5327824773016
 20
298.4273714632602
 30
0.0
 11
537.7826175174198
 21
292.1772889833193
 31
0.0
  0
LINE
  5
FB
330
1F
100
AcDbEntity
  8
D-1
  6
Continuous
 62
     2
370
     9
100
AcDbLine
 10
537.7826175174198
 20
274.9139692976668
 30
0.0
 11
531.5327824773016
 21
268.6639486776817
 31
0.0
  0
LINE
  5
FC
330
1F
100
AcDbEntity
  8
D-1
  6
Continuous
 62
     2
370
     9
100
AcDbLine
 10
504.8039616765203
 20
223.5455858385241
 30
0.0
 11
522.0325779270481
 21
240.774202089052
 31
0.0
  0
LINE
  5
FD
330
1F
100
AcDbEntity
  8
D-1
  6
Continuous
 62
     2
370
     9
100
AcDbLine
 10
522.0325779270481
 20
241.0455817145271
 30
0.0
 11
522.0325779270481
 21
223.5455858385241
 31
0.0
  0
LINE
  5
FE
330
1F
100
AcDbEntity
  8
D-1
  6
Continuous
 62
     2
370
     9
100
AcDbLine
 10
522.0325779270481
 20
241.0455817145271
 30
0.0
 11
494.5326109190245
 21
241.0455817145271
 31
0.0
  0
LINE
  5
FF
330
1F
100
AcDbEntity
  8
D-2
  6
Continuous
 62
     3
370
     9
100
AcDbLine
 10
520.7827593829182
 20
346.0456806904562
 30
0.0
 11
520.7827593829182
 21
241.0455817145271
 31
0.0
  0
LINE
  5
100
330
1F
100
AcDbEntity
  8
D-2
  6
Continuous
 62
     3
370
     9
100
AcDbLine
 10
503.2825779270482
 20
241.0455817145271
 30
0.0
 11
520.7827593829182
 21
241.0455817145271
 31
0.0
  0
LINE
  5
101
330
1F
100
AcDbEntity
  8
D-2
  6
Continuous
 62
     3
370
     9
100
AcDbLine
 10
503.2825779270482
 20
241.0455817145271
 30
0.0
 11
503.2825779270482
 21
253.5456229544975
 31
0.0
  0
LINE
  5
102
330
1F
100
AcDbEntity
  8
D-6
  6
Continuous
 62
     6
370
     5
100
AcDbLine
 10
490.7826604069891
 20
221.0456394504857
 30
0.0
 11
490.7826604069891
 21
34.29519653320312
 31
0.0
  0
LINE
  5
103
330
1F
100
AcDbEntity
  8
D-2
  6
JWW_CENTER1
 62
     3
370
     9
100
AcDbLine
 10
40.78266040698907
 20
348.2169651340794
 30
0.0
 11
40.78266040698907
 21
272.0214596310178
 31
0.0
  0
LINE
  5
104
330
1F
100
AcDbEntity
  8
0-2
  6
Continuous
 62
     3
370
     9
100
AcDbLine
 10
-440.2269930452914
 20
-31.16773038297083
 30
0.0
 11
-503.827007396801
 21
-31.16773038297083
 31
0.0
  0
LINE
  5
105
330
1F
100
AcDbEntity
  8
0-2
  6
Continuous
 62
     3
370
     9
100
AcDbLine
 10
-429.2269938700907
 20
-78.76779092324739
 30
0.0
 11
-436.6269910657728
 21
-78.76779092324739
 31
0.0
  0
LINE
  5
106
330
1F
100
AcDbEntity
  8
0-2
  6
JWW_CENTER1
 62
     3
370
     9
100
AcDbLine
 10
-419.3554440060177
 20
-55.16778481973176
 30
0.0
 11
-526.9825497189083
 21
-55.16778481973176
 31
0.0
  0
LINE
  5
107
330
1F
100
AcDbEntity
  8
0-2
  6
Continuous
 62
     3
370
     9
100
AcDbLine
 10
-436.6269910657728
 20
-78.76779092324739
 30
0.0
 11
-436.6269910657728
 21
-50.47880018079596
 31
0.0
  0
LINE
  5
108
330
1F
100
AcDbEntity
  8
0-2
  6
Continuous
 62
     3
370
     9
100
AcDbLine
 10
-429.2269938700907
 20
-78.76779092324739
 30
0.0
 11
-429.2269938700907
 21
-42.16785327808267
 31
0.0
  0
LINE
  5
109
330
1F
100
AcDbEntity
  8
0-2
  6
Continuous
 62
     3
370
     9
100
AcDbLine
 10
-443.3837065825591
 20
-44.52669710726354
 30
0.0
 11
-472.027031151024
 21
-48.16771223738385
 31
0.0
  0
LINE
  5
10A
330
1F
100
AcDbEntity
  8
0-2
  6
JWW_CENTER1
 62
     3
370
     9
100
AcDbLine
 10
-472.027031151024
 20
-88.20749643686653
 30
0.0
 11
-472.027031151024
 21
-21.72357095254426
 31
0.0
  0
LINE
  5
10B
330
1F
100
AcDbEntity
  8
0-2
  6
Continuous
 62
     3
370
     9
100
AcDbLine
 10
-477.0270476470122
 20
-43.42107411977409
 30
0.0
 11
-477.0270476470122
 21
-42.16785327808267
 31
0.0
  0
LINE
  5
10C
330
1F
100
AcDbEntity
  8
0-2
  6
Continuous
 62
     3
370
     9
100
AcDbLine
 10
-500.6704175794447
 20
-44.52669710726354
 30
0.0
 11
-472.027031151024
 21
-48.16771223738385
 31
0.0
  0
LINE
  5
10D
330
1F
100
AcDbEntity
  8
0-2
  6
Continuous
 62
     3
370
     9
100
AcDbLine
 10
-514.8270065720017
 20
-78.76779092324739
 30
0.0
 11
-514.8270065720017
 21
-42.16785327808267
 31
0.0
  0
LINE
  5
10E
330
1F
100
AcDbEntity
  8
0-2
  6
Continuous
 62
     3
370
     9
100
AcDbLine
 10
-507.4270712362753
 20
-78.76779092324739
 30
0.0
 11
-507.4270712362753
 21
-50.47880018079596
 31
0.0
  0
LINE
  5
10F
330
1F
100
AcDbEntity
  8
0-2
  6
Continuous
 62
     3
370
     9
100
AcDbLine
 10
-514.8270065720017
 20
-78.76779092324739
 30
0.0
 11
-507.4270712362753
 21
-78.76779092324739
 31
0.0
  0
LINE
  5
110
330
1F
100
AcDbEntity
  8
0-2
  6
Continuous
 62
     3
370
     9
100
AcDbLine
 10
-429.9270629882812
 20
-78.06772180505703
 30
0.0
 11
-429.9270629882812
 21
-42.16785327808267
 31
0.0
  0
LINE
  5
111
330
1F
100
AcDbEntity
  8
0-2
  6
Continuous
 62
     3
370
     9
100
AcDbLine
 10
-429.9270629882812
 20
-78.06772180505703
 30
0.0
 11
-435.9270456674936
 21
-78.06772180505703
 31
0.0
  0
LINE
  5
112
330
1F
100
AcDbEntity
  8
0-2
  6
Continuous
 62
     3
370
     9
100
AcDbLine
 10
-435.9270456674936
 20
-78.06772180505703
 30
0.0
 11
-435.9270456674936
 21
-50.47880018079596
 31
0.0
  0
LINE
  5
113
330
1F
100
AcDbEntity
  8
0-2
  6
Continuous
 62
     3
370
     9
100
AcDbLine
 10
-443.4718570193729
 20
-43.83231910499362
 30
0.0
 11
-472.027031151024
 21
-47.46213758313971
 31
0.0
  0
LINE
  5
114
330
1F
100
AcDbEntity
  8
0-2
  6
Continuous
 62
     3
370
     9
100
AcDbLine
 10
-500.5821434227196
 20
-43.83231910499362
 30
0.0
 11
-472.027031151024
 21
-47.46213758313971
 31
0.0
  0
LINE
  5
115
330
1F
100
AcDbEntity
  8
0-2
  6
Continuous
 62
     3
370
     9
100
AcDbLine
 10
-473.2506829339104
 20
-41.03414587072422
 30
0.0
 11
-473.5225574390308
 21
-40.94574799408775
 31
0.0
  0
LINE
  5
116
330
1F
100
AcDbEntity
  8
0-2
  6
Continuous
 62
     3
370
     9
100
AcDbLine
 10
-473.6832696038323
 20
-42.36561955632382
 30
0.0
 11
-473.955267828864
 21
-42.27734539959883
 31
0.0
  0
LINE
  5
117
330
1F
100
AcDbEntity
  8
0-2
  6
Continuous
 62
     3
370
     9
100
AcDbLine
 10
-473.4832763671875
 20
-42.98118797508437
 30
0.0
 11
-473.651411726668
 21
-43.21254420924831
 31
0.0
  0
LINE
  5
118
330
1F
100
AcDbEntity
  8
0-2
  6
Continuous
 62
     3
370
     9
100
AcDbLine
 10
-472.3506205790751
 20
-43.80417282516888
 30
0.0
 11
-472.5187559385557
 21
-44.03546719937708
 31
0.0
  0
LINE
  5
119
330
1F
100
AcDbEntity
  8
0-2
  6
Continuous
 62
     3
370
     9
100
AcDbLine
 10
-472.7270384092589
 20
-40.65370714342265
 30
0.0
 11
-472.7270384092589
 21
-40.36766670845651
 31
0.0
  0
LINE
  5
11A
330
1F
100
AcDbEntity
  8
0-2
  6
Continuous
 62
     3
370
     9
100
AcDbLine
 10
-470.8034412280933
 20
-41.03414587072422
 30
0.0
 11
-470.5314430030617
 21
-40.94574799408775
 31
0.0
  0
LINE
  5
11B
330
1F
100
AcDbEntity
  8
0-2
  6
Continuous
 62
     3
370
     9
100
AcDbLine
 10
-508.1270784945101
 20
-78.06772180505703
 30
0.0
 11
-508.1270784945101
 21
-50.47880018079596
 31
0.0
  0
LINE
  5
11C
330
1F
100
AcDbEntity
  8
0-2
  6
Continuous
 62
     3
370
     9
100
AcDbLine
 10
-514.1269374538113
 20
-78.06772180505703
 30
0.0
 11
-508.1270784945101
 21
-78.06772180505703
 31
0.0
  0
LINE
  5
11D
330
1F
100
AcDbEntity
  8
0-2
  6
Continuous
 62
     3
370
     9
100
AcDbLine
 10
-471.3270857527449
 20
-40.65370714342265
 30
0.0
 11
-471.3270857527449
 21
-40.36766670845651
 31
0.0
  0
LINE
  5
11E
330
1F
100
AcDbEntity
  8
0-1
  6
JWW_DASHED3
 62
     2
370
     9
100
AcDbLine
 10
-267.0270352750211
 20
-135.16780131572
 30
0.0
 11
-677.0269960970493
 21
-135.16780131572
 31
0.0
  0
LINE
  5
11F
330
1F
100
AcDbEntity
  8
0-1
  6
JWW_DASHED3
 62
     2
370
     9
100
AcDbLine
 10
-267.0270352750211
 20
274.8322522962417
 30
0.0
 11
-267.0270352750211
 21
-135.16780131572
 31
0.0
  0
LINE
  5
120
330
1F
100
AcDbEntity
  8
0-1
  6
JWW_DASHED3
 62
     2
370
     9
100
AcDbLine
 10
-267.0270352750211
 20
274.8322522962417
 30
0.0
 11
-677.0269960970493
 21
274.8322522962417
 31
0.0
  0
LINE
  5
121
330
1F
100
AcDbEntity
  8
0-2
  6
Continuous
 62
     3
370
     9
100
AcDbLine
 10
-470.3708545581714
 20
-42.36561955632382
 30
0.0
 11
-470.0988563331398
 21
-42.27734539959883
 31
0.0
  0
LINE
  5
122
330
1F
100
AcDbEntity
  8
0-2
  6
Continuous
 62
     3
370
     9
100
AcDbLine
 10
-470.5707240749049
 20
-42.98118797508437
 30
0.0
 11
-470.40265057538
 21
-43.21254420924831
 31
0.0
  0
LINE
  5
123
330
1F
100
AcDbEntity
  8
0-2
  6
Continuous
 62
     3
370
     9
100
AcDbLine
 10
-471.7033798630172
 20
-43.80417282516888
 30
0.0
 11
-471.5353063634924
 21
-44.03546719937708
 31
0.0
  0
LINE
  5
124
330
1F
100
AcDbEntity
  8
0-2
  6
Continuous
 62
     3
370
     9
100
AcDbLine
 10
-514.1269374538113
 20
-78.06772180505703
 30
0.0
 11
-514.1269374538113
 21
-42.16785327808267
 31
0.0
  0
LINE
  5
125
330
1F
100
AcDbEntity
  8
0-2
  6
Continuous
 62
     3
370
     9
100
AcDbLine
 10
-440.2269930452914
 20
-31.86779950116133
 30
0.0
 11
-503.827007396801
 21
-31.86779950116133
 31
0.0
  0
LINE
  5
126
330
1F
100
AcDbEntity
  8
0-1
  6
JWW_DASHED3
 62
     2
370
     9
100
AcDbLine
 10
-677.0269960970493
 20
-135.16780131572
 30
0.0
 11
-677.0269960970493
 21
274.8322522962417
 31
0.0
  0
LINE
  5
127
330
1F
100
AcDbEntity
  8
0-2
  6
Continuous
 62
     3
370
     9
100
AcDbLine
 10
-467.0270765149916
 20
-43.42107411977409
 30
0.0
 11
-467.0270765149916
 21
-42.16785327808267
 31
0.0
  0
LINE
  5
128
330
1F
100
AcDbEntity
  8
0-2
  6
Continuous
 62
     3
370
     9
100
AcDbLine
 10
-467.0270765149916
 20
183.0855251002957
 30
0.0
 11
-467.0270765149916
 21
181.8323042586043
 31
0.0
  0
LINE
  5
129
330
1F
100
AcDbEntity
  8
0-2
  6
Continuous
 62
     3
370
     9
100
AcDbLine
 10
-440.2269930452914
 20
171.532250481683
 30
0.0
 11
-503.827007396801
 21
171.532250481683
 31
0.0
  0
LINE
  5
12A
330
1F
100
AcDbEntity
  8
0-2
  6
Continuous
 62
     3
370
     9
100
AcDbLine
 10
-514.1269374538113
 20
217.7322346455342
 30
0.0
 11
-514.1269374538113
 21
181.8323042586043
 31
0.0
  0
LINE
  5
12B
330
1F
100
AcDbEntity
  8
0-2
  6
Continuous
 62
     3
370
     9
100
AcDbLine
 10
-471.7033798630172
 20
183.4686238056905
 30
0.0
 11
-471.5353063634924
 21
183.6999800398543
 31
0.0
  0
LINE
  5
12C
330
1F
100
AcDbEntity
  8
0-2
  6
Continuous
 62
     3
370
     9
100
AcDbLine
 10
-470.5707240749049
 20
182.645638955606
 30
0.0
 11
-470.40265057538
 21
182.8769951897699
 31
0.0
  0
LINE
  5
12D
330
1F
100
AcDbEntity
  8
0-2
  6
Continuous
 62
     3
370
     9
100
AcDbLine
 10
-470.3708545581714
 20
182.0300705368454
 30
0.0
 11
-470.0988563331398
 21
181.9417963801205
 31
0.0
  0
LINE
  5
12E
330
1F
100
AcDbEntity
  8
0-2
  6
Continuous
 62
     3
370
     9
100
AcDbLine
 10
-471.3270857527449
 20
180.3182199839
 30
0.0
 11
-471.3270857527449
 21
180.0321176889781
 31
0.0
  0
LINE
  5
12F
330
1F
100
AcDbEntity
  8
0-2
  6
Continuous
 62
     3
370
     9
100
AcDbLine
 10
-514.1269374538113
 20
217.7322346455342
 30
0.0
 11
-508.1270784945101
 21
217.7322346455342
 31
0.0
  0
LINE
  5
130
330
1F
100
AcDbEntity
  8
0-2
  6
Continuous
 62
     3
370
     9
100
AcDbLine
 10
-508.1270784945101
 20
217.7322346455342
 30
0.0
 11
-508.1270784945101
 21
190.1432511613176
 31
0.0
  0
LINE
  5
131
330
1F
100
AcDbEntity
  8
0-2
  6
Continuous
 62
     3
370
     9
100
AcDbLine
 10
-470.8034412280933
 20
180.6985349912901
 30
0.0
 11
-470.5314430030617
 21
180.6103226945207
 31
0.0
  0
LINE
  5
132
330
1F
100
AcDbEntity
  8
0-2
  6
Continuous
 62
     3
370
     9
100
AcDbLine
 10
-472.7270384092589
 20
180.3182199839
 30
0.0
 11
-472.7270384092589
 21
180.0321176889781
 31
0.0
  0
LINE
  5
133
330
1F
100
AcDbEntity
  8
0-2
  6
Continuous
 62
     3
370
     9
100
AcDbLine
 10
-472.3506205790751
 20
183.4686238056905
 30
0.0
 11
-472.5187559385557
 21
183.6999800398543
 31
0.0
  0
LINE
  5
134
330
1F
100
AcDbEntity
  8
0-2
  6
Continuous
 62
     3
370
     9
100
AcDbLine
 10
-473.4832763671875
 20
182.645638955606
 30
0.0
 11
-473.651411726668
 21
182.8769951897699
 31
0.0
  0
LINE
  5
135
330
1F
100
AcDbEntity
  8
0-2
  6
Continuous
 62
     3
370
     9
100
AcDbLine
 10
-473.6832696038323
 20
182.0300705368454
 30
0.0
 11
-473.955267828864
 21
181.9417963801205
 31
0.0
  0
LINE
  5
136
330
1F
100
AcDbEntity
  8
0-2
  6
Continuous
 62
     3
370
     9
100
AcDbLine
 10
-473.2506829339104
 20
180.6985349912901
 30
0.0
 11
-473.5225574390308
 21
180.6103226945207
 31
0.0
  0
LINE
  5
137
330
1F
100
AcDbEntity
  8
0-2
  6
Continuous
 62
     3
370
     9
100
AcDbLine
 10
-500.5821434227196
 20
183.4967082255596
 30
0.0
 11
-472.027031151024
 21
187.1265267037057
 31
0.0
  0
LINE
  5
138
330
1F
100
AcDbEntity
  8
0-2
  6
Continuous
 62
     3
370
     9
100
AcDbLine
 10
-443.4718570193729
 20
183.4967082255596
 30
0.0
 11
-472.027031151024
 21
187.1265267037057
 31
0.0
  0
LINE
  5
139
330
1F
100
AcDbEntity
  8
0-2
  6
JWW_DASHED3
 62
     3
370
     9
100
AcDbLine
 10
-662.0270084690403
 20
94.83221518026824
 30
0.0
 11
-662.0270084690403
 21
44.83229766020912
 31
0.0
  0
LINE
  5
13A
330
1F
100
AcDbEntity
  8
0-2
  6
JWW_DASHED3
 62
     3
370
     9
100
AcDbLine
 10
-282.0270847629855
 20
94.83221518026824
 30
0.0
 11
-282.0270847629855
 21
44.83229766020912
 31
0.0
  0
LINE
  5
13B
330
1F
100
AcDbEntity
  8
0-2
  6
JWW_DASHED3
 62
     3
370
     9
100
AcDbLine
 10
-282.0270847629855
 20
54.83220693227409
 30
0.0
 11
-662.0270084690403
 21
54.83220693227409
 31
0.0
  0
LINE
  5
13C
330
1F
100
AcDbEntity
  8
0-2
  6
JWW_DASHED3
 62
     3
370
     9
100
AcDbLine
 10
-282.0270847629855
 20
44.83229766020912
 30
0.0
 11
-662.0270084690403
 21
44.83229766020912
 31
0.0
  0
LINE
  5
13D
330
1F
100
AcDbEntity
  8
0-2
  6
JWW_DASHED3
 62
     3
370
     9
100
AcDbLine
 10
-282.0270847629855
 20
84.8321821882918
 30
0.0
 11
-662.0270084690403
 21
84.8321821882918
 31
0.0
  0
LINE
  5
13E
330
1F
100
AcDbEntity
  8
0-2
  6
JWW_DASHED3
 62
     3
370
     9
100
AcDbLine
 10
-282.0270847629855
 20
94.83221518026824
 30
0.0
 11
-662.0270084690403
 21
94.83221518026824
 31
0.0
  0
LINE
  5
13F
330
1F
100
AcDbEntity
  8
0-2
  6
Continuous
 62
     3
370
     9
100
AcDbLine
 10
-255.0270699165962
 20
286.8321557947108
 30
0.0
 11
-262.0270187790329
 21
279.8322687922298
 31
0.0
  0
LINE
  5
140
330
1F
100
AcDbEntity
  8
0-1
  6
Continuous
 62
     2
370
     9
100
AcDbLine
 10
-247.0270311510241
 20
294.8321327003273
 30
0.0
 11
-254.027103733372
 21
287.832307557802
 31
0.0
  0
LINE
  5
141
330
1F
100
AcDbEntity
  8
0-2
  6
Continuous
 62
     3
370
     9
100
AcDbLine
 10
-689.0270233154297
 20
286.8321557947108
 30
0.0
 11
-682.0270125930374
 21
279.8322687922298
 31
0.0
  0
LINE
  5
142
330
1F
100
AcDbEntity
  8
0-1
  6
Continuous
 62
     2
370
     9
100
AcDbLine
 10
-697.0270002210463
 20
294.8321327003273
 30
0.0
 11
-690.0270204286318
 21
287.832307557802
 31
0.0
  0
LINE
  5
143
330
1F
100
AcDbEntity
  8
0-2
  6
Continuous
 62
     3
370
     9
100
AcDbLine
 10
-262.0270187790329
 20
279.8322687922298
 30
0.0
 11
-262.0270187790329
 21
-140.1678178117081
 31
0.0
  0
LINE
  5
144
330
1F
100
AcDbEntity
  8
0-2
  6
Continuous
 62
     3
370
     9
100
AcDbLine
 10
-262.0270187790329
 20
279.8322687922298
 30
0.0
 11
-682.0270125930374
 21
279.8322687922298
 31
0.0
  0
LINE
  5
145
330
1F
100
AcDbEntity
  8
0-2
  6
Continuous
 62
     3
370
     9
100
AcDbLine
 10
-682.0270125930374
 20
-140.1678178117081
 30
0.0
 11
-682.0270125930374
 21
279.8322687922298
 31
0.0
  0
LINE
  5
146
330
1F
100
AcDbEntity
  8
0-2
  6
Continuous
 62
     3
370
     9
100
AcDbLine
 10
-255.0270699165962
 20
286.8321557947108
 30
0.0
 11
-255.0270699165962
 21
-147.1678285341005
 31
0.0
  0
LINE
  5
147
330
1F
100
AcDbEntity
  8
0-2
  6
Continuous
 62
     3
370
     9
100
AcDbLine
 10
-255.0270699165962
 20
286.8321557947108
 30
0.0
 11
-689.0270233154297
 21
286.8321557947108
 31
0.0
  0
LINE
  5
148
330
1F
100
AcDbEntity
  8
0-2
  6
Continuous
 62
     3
370
     9
100
AcDbLine
 10
-689.0270233154297
 20
-147.1678285341005
 30
0.0
 11
-689.0270233154297
 21
286.8321557947108
 31
0.0
  0
LINE
  5
149
330
1F
100
AcDbEntity
  8
0-1
  6
Continuous
 62
     2
370
     9
100
AcDbLine
 10
-254.027103733372
 20
287.832307557802
 30
0.0
 11
-254.027103733372
 21
-148.1678565772804
 31
0.0
  0
LINE
  5
14A
330
1F
100
AcDbEntity
  8
0-1
  6
Continuous
 62
     2
370
     9
100
AcDbLine
 10
-254.027103733372
 20
287.832307557802
 30
0.0
 11
-690.0270204286318
 21
287.832307557802
 31
0.0
  0
LINE
  5
14B
330
1F
100
AcDbEntity
  8
0-1
  6
Continuous
 62
     2
370
     9
100
AcDbLine
 10
-690.0270204286318
 20
-148.1678565772804
 30
0.0
 11
-690.0270204286318
 21
287.832307557802
 31
0.0
  0
LINE
  5
14C
330
1F
100
AcDbEntity
  8
0-1
  6
Continuous
 62
     2
370
     9
100
AcDbLine
 10
-247.0270311510241
 20
-155.1677435797614
 30
0.0
 11
-697.0270002210463
 21
-155.1677435797614
 31
0.0
  0
LINE
  5
14D
330
1F
100
AcDbEntity
  8
0-1
  6
Continuous
 62
     2
370
     9
100
AcDbLine
 10
-247.0270311510241
 20
294.8321327003273
 30
0.0
 11
-247.0270311510241
 21
-155.1677435797614
 31
0.0
  0
LINE
  5
14E
330
1F
100
AcDbEntity
  8
0-1
  6
Continuous
 62
     2
370
     9
100
AcDbLine
 10
-247.0270311510241
 20
294.8321327003273
 30
0.0
 11
-697.0270002210463
 21
294.8321327003273
 31
0.0
  0
LINE
  5
14F
330
1F
100
AcDbEntity
  8
0-1
  6
Continuous
 62
     2
370
     9
100
AcDbLine
 10
-697.0270002210463
 20
-155.1677435797614
 30
0.0
 11
-697.0270002210463
 21
294.8321327003273
 31
0.0
  0
LINE
  5
150
330
1F
100
AcDbEntity
  8
0-1
  6
Continuous
 62
     2
370
     9
100
AcDbLine
 10
-254.027103733372
 20
-148.1678565772804
 30
0.0
 11
-690.0270204286318
 21
-148.1678565772804
 31
0.0
  0
LINE
  5
151
330
1F
100
AcDbEntity
  8
0-2
  6
Continuous
 62
     3
370
     9
100
AcDbLine
 10
-255.0270699165962
 20
-147.1678285341005
 30
0.0
 11
-689.0270233154297
 21
-147.1678285341005
 31
0.0
  0
LINE
  5
152
330
1F
100
AcDbEntity
  8
0-2
  6
Continuous
 62
     3
370
     9
100
AcDbLine
 10
-262.0270187790329
 20
-140.1678178117081
 30
0.0
 11
-682.0270125930374
 21
-140.1678178117081
 31
0.0
  0
LINE
  5
153
330
1F
100
AcDbEntity
  8
0-1
  6
Continuous
 62
     2
370
     9
100
AcDbLine
 10
-697.0270002210463
 20
-155.1677435797614
 30
0.0
 11
-690.0270204286318
 21
-148.1678565772804
 31
0.0
  0
LINE
  5
154
330
1F
100
AcDbEntity
  8
0-2
  6
Continuous
 62
     3
370
     9
100
AcDbLine
 10
-689.0270233154297
 20
-147.1678285341005
 30
0.0
 11
-682.0270125930374
 21
-140.1678178117081
 31
0.0
  0
LINE
  5
155
330
1F
100
AcDbEntity
  8
0-1
  6
Continuous
 62
     2
370
     9
100
AcDbLine
 10
-247.0270311510241
 20
-155.1677435797614
 30
0.0
 11
-254.027103733372
 21
-148.1678565772804
 31
0.0
  0
LINE
  5
156
330
1F
100
AcDbEntity
  8
0-2
  6
Continuous
 62
     3
370
     9
100
AcDbLine
 10
-255.0270699165962
 20
-147.1678285341005
 30
0.0
 11
-262.0270187790329
 21
-140.1678178117081
 31
0.0
  0
LINE
  5
157
330
1F
100
AcDbEntity
  8
0-1
  6
Continuous
 62
     2
370
     9
100
AcDbLine
 10
-549.5270084690403
 20
294.8321327003273
 30
0.0
 11
-549.5270084690403
 21
321.8323331265838
 31
0.0
  0
LINE
  5
158
330
1F
100
AcDbEntity
  8
0-1
  6
Continuous
 62
     2
370
     9
100
AcDbLine
 10
-569.5269816630595
 20
294.8321327003273
 30
0.0
 11
-569.5269816630595
 21
321.8323331265838
 31
0.0
  0
LINE
  5
159
330
1F
100
AcDbEntity
  8
0-1
  6
Continuous
 62
     2
370
     9
100
AcDbLine
 10
-569.5269816630595
 20
321.8323331265838
 30
0.0
 11
-549.5270084690403
 21
321.8323331265838
 31
0.0
  0
LINE
  5
15A
330
1F
100
AcDbEntity
  8
0-1
  6
Continuous
 62
     2
370
     9
100
AcDbLine
 10
-569.5269816630595
 20
306.8321599187078
 30
0.0
 11
-549.5270084690403
 21
306.8321599187078
 31
0.0
  0
LINE
  5
15B
330
1F
100
AcDbEntity
  8
0-2
  6
Continuous
 62
     3
370
     9
100
AcDbLine
 10
-435.9270456674936
 20
217.7322346455342
 30
0.0
 11
-435.9270456674936
 21
190.1432511613176
 31
0.0
  0
LINE
  5
15C
330
1F
100
AcDbEntity
  8
0-2
  6
Continuous
 62
     3
370
     9
100
AcDbLine
 10
-429.9270629882812
 20
217.7322346455342
 30
0.0
 11
-435.9270456674936
 21
217.7322346455342
 31
0.0
  0
LINE
  5
15D
330
1F
100
AcDbEntity
  8
0-2
  6
Continuous
 62
     3
370
     9
100
AcDbLine
 10
-429.9270629882812
 20
217.7322346455342
 30
0.0
 11
-429.9270629882812
 21
181.8323042586043
 31
0.0
  0
LINE
  5
15E
330
1F
100
AcDbEntity
  8
0-2
  6
Continuous
 62
     3
370
     9
100
AcDbLine
 10
-514.8270065720017
 20
218.432241903769
 30
0.0
 11
-507.4270712362753
 21
218.432241903769
 31
0.0
  0
LINE
  5
15F
330
1F
100
AcDbEntity
  8
0-2
  6
Continuous
 62
     3
370
     9
100
AcDbLine
 10
-507.4270712362753
 20
218.432241903769
 30
0.0
 11
-507.4270712362753
 21
190.1432511613176
 31
0.0
  0
LINE
  5
160
330
1F
100
AcDbEntity
  8
0-2
  6
Continuous
 62
     3
370
     9
100
AcDbLine
 10
-514.8270065720017
 20
218.432241903769
 30
0.0
 11
-514.8270065720017
 21
181.8323042586043
 31
0.0
  0
LINE
  5
161
330
1F
100
AcDbEntity
  8
0-2
  6
Continuous
 62
     3
370
     9
100
AcDbLine
 10
-500.6704175794447
 20
184.1911480877852
 30
0.0
 11
-472.027031151024
 21
187.8321632179055
 31
0.0
  0
LINE
  5
162
330
1F
100
AcDbEntity
  8
0-2
  6
Continuous
 62
     3
370
     9
100
AcDbLine
 10
-477.0270476470122
 20
183.0855251002957
 30
0.0
 11
-477.0270476470122
 21
181.8323042586043
 31
0.0
  0
LINE
  5
163
330
1F
100
AcDbEntity
  8
0-2
  6
JWW_CENTER1
 62
     3
370
     9
100
AcDbLine
 10
-472.027031151024
 20
227.8719474173882
 30
0.0
 11
-472.027031151024
 21
161.3880837930216
 31
0.0
  0
LINE
  5
164
330
1F
100
AcDbEntity
  8
0-2
  6
Continuous
 62
     3
370
     9
100
AcDbLine
 10
-443.3837065825591
 20
184.1911480877852
 30
0.0
 11
-472.027031151024
 21
187.8321632179055
 31
0.0
  0
LINE
  5
165
330
1F
100
AcDbEntity
  8
0-2
  6
Continuous
 62
     3
370
     9
100
AcDbLine
 10
-429.2269938700907
 20
218.432241903769
 30
0.0
 11
-429.2269938700907
 21
181.8323042586043
 31
0.0
  0
LINE
  5
166
330
1F
100
AcDbEntity
  8
0-2
  6
Continuous
 62
     3
370
     9
100
AcDbLine
 10
-436.6269910657728
 20
218.432241903769
 30
0.0
 11
-436.6269910657728
 21
190.1432511613176
 31
0.0
  0
LINE
  5
167
330
1F
100
AcDbEntity
  8
0-2
  6
JWW_CENTER1
 62
     3
370
     9
100
AcDbLine
 10
-419.3554440060177
 20
194.8322358002534
 30
0.0
 11
-526.9825497189083
 21
194.8322358002534
 31
0.0
  0
LINE
  5
168
330
1F
100
AcDbEntity
  8
0-2
  6
Continuous
 62
     3
370
     9
100
AcDbLine
 10
-429.2269938700907
 20
218.432241903769
 30
0.0
 11
-436.6269910657728
 21
218.432241903769
 31
0.0
  0
LINE
  5
169
330
1F
100
AcDbEntity
  8
0-2
  6
Continuous
 62
     3
370
     9
100
AcDbLine
 10
-440.2269930452914
 20
170.8321813634925
 30
0.0
 11
-503.827007396801
 21
170.8321813634925
 31
0.0
  0
LINE
  5
16A
330
1F
100
AcDbEntity
  8
0-2
  6
Continuous
 62
     3
370
     9
100
AcDbLine
 10
-523.0270385742188
 20
-86.16784997888516
 30
0.0
 11
-523.0270385742188
 21
-24.16784338048984
 31
0.0
  0
LINE
  5
16B
330
1F
100
AcDbEntity
  8
0-2
  6
Continuous
 62
     3
370
     9
100
AcDbLine
 10
-421.0270237278294
 20
-24.16784338048984
 30
0.0
 11
-523.0270385742188
 21
-24.16784338048984
 31
0.0
  0
LINE
  5
16C
330
1F
100
AcDbEntity
  8
0-2
  6
Continuous
 62
     3
370
     9
100
AcDbLine
 10
-421.0270237278294
 20
-86.16784997888516
 30
0.0
 11
-421.0270237278294
 21
-24.16784338048984
 31
0.0
  0
LINE
  5
16D
330
1F
100
AcDbEntity
  8
0-2
  6
Continuous
 62
     3
370
     9
100
AcDbLine
 10
-421.0270237278294
 20
-86.16784997888516
 30
0.0
 11
-523.0270385742188
 21
-86.16784997888516
 31
0.0
  0
LINE
  5
16E
330
1F
100
AcDbEntity
  8
0-2
  6
Continuous
 62
     3
370
     9
100
AcDbLine
 10
-421.0270237278294
 20
225.832239099451
 30
0.0
 11
-421.0270237278294
 21
163.8322943610115
 31
0.0
  0
LINE
  5
16F
330
1F
100
AcDbEntity
  8
0-2
  6
Continuous
 62
     3
370
     9
100
AcDbLine
 10
-421.0270237278294
 20
225.832239099451
 30
0.0
 11
-523.0270385742188
 21
225.832239099451
 31
0.0
  0
LINE
  5
170
330
1F
100
AcDbEntity
  8
0-2
  6
Continuous
 62
     3
370
     9
100
AcDbLine
 10
-523.0270385742188
 20
225.832239099451
 30
0.0
 11
-523.0270385742188
 21
163.8322943610115
 31
0.0
  0
LINE
  5
171
330
1F
100
AcDbEntity
  8
0-2
  6
Continuous
 62
     3
370
     9
100
AcDbLine
 10
-421.0270237278294
 20
163.8322943610115
 30
0.0
 11
-523.0270385742188
 21
163.8322943610115
 31
0.0
  0
LINE
  5
172
330
1F
100
AcDbEntity
  8
0-4
  6
Continuous
 62
     7
370
     9
100
AcDbLine
 10
-677.0269960970493
 20
356.14877236856
 30
0.0
 11
-267.0270352750211
 21
356.14877236856
 31
0.0
  0
LINE
  5
173
330
1F
100
AcDbEntity
  8
0-4
  6
Continuous
 62
     7
370
     9
100
AcDbLine
 10
-677.0269960970493
 20
300.0525562183277
 30
0.0
 11
-677.0269960970493
 21
357.6487525733742
 31
0.0
  0
LINE
  5
174
330
1F
100
AcDbEntity
  8
0-4
  6
Continuous
 62
     7
370
     9
100
AcDbLine
 10
-267.0270352750211
 20
300.0525562183277
 30
0.0
 11
-267.0270352750211
 21
357.6487525733742
 31
0.0
  0
LINE
  5
175
330
1F
100
AcDbEntity
  8
0-4
  6
Continuous
 62
     7
370
     9
100
AcDbLine
 10
-689.0270233154297
 20
393.2451980178421
 30
0.0
 11
-255.0270699165962
 21
393.2451980178421
 31
0.0
  0
LINE
  5
176
330
1F
100
AcDbEntity
  8
0-4
  6
Continuous
 62
     7
370
     9
100
AcDbLine
 10
-689.0270233154297
 20
300.0525562183277
 30
0.0
 11
-689.0270233154297
 21
394.7451782226562
 31
0.0
  0
LINE
  5
177
330
1F
100
AcDbEntity
  8
0-4
  6
Continuous
 62
     7
370
     9
100
AcDbLine
 10
-255.0270699165962
 20
300.0525562183277
 30
0.0
 11
-255.0270699165962
 21
394.7451782226562
 31
0.0
  0
LINE
  5
178
330
1F
100
AcDbEntity
  8
0-4
  6
Continuous
 62
     7
370
     9
100
AcDbLine
 10
-697.0270002210463
 20
429.3414719040329
 30
0.0
 11
-247.0270311510241
 21
429.3414719040329
 31
0.0
  0
LINE
  5
179
330
1F
100
AcDbEntity
  8
0-4
  6
Continuous
 62
     7
370
     9
100
AcDbLine
 10
-697.0270002210463
 20
300.0525562183277
 30
0.0
 11
-697.0270002210463
 21
430.8414521088471
 31
0.0
  0
LINE
  5
17A
330
1F
100
AcDbEntity
  8
0-4
  6
Continuous
 62
     7
370
     9
100
AcDbLine
 10
-247.0270311510241
 20
300.0525562183277
 30
0.0
 11
-247.0270311510241
 21
430.8414521088471
 31
0.0
  0
LINE
  5
17B
330
1F
100
AcDbEntity
  8
0-4
  6
Continuous
 62
     7
370
     9
100
AcDbLine
 10
-753.0537785710516
 20
-135.16780131572
 30
0.0
 11
-753.0537785710516
 21
274.8322522962417
 31
0.0
  0
LINE
  5
17C
330
1F
100
AcDbEntity
  8
0-4
  6
Continuous
 62
     7
370
     9
100
AcDbLine
 10
-702.5186177846547
 20
-135.16780131572
 30
0.0
 11
-754.5537587758656
 21
-135.16780131572
 31
0.0
  0
LINE
  5
17D
330
1F
100
AcDbEntity
  8
0-4
  6
Continuous
 62
     7
370
     9
100
AcDbLine
 10
-702.5186177846547
 20
274.8322522962417
 30
0.0
 11
-754.5537587758656
 21
274.8322522962417
 31
0.0
  0
LINE
  5
17E
330
1F
100
AcDbEntity
  8
0-4
  6
Continuous
 62
     7
370
     9
100
AcDbLine
 10
-794.5647007710224
 20
-147.1678285341005
 30
0.0
 11
-794.5647007710224
 21
286.8321557947108
 31
0.0
  0
LINE
  5
17F
330
1F
100
AcDbEntity
  8
0-4
  6
Continuous
 62
     7
370
     9
100
AcDbLine
 10
-702.5186177846547
 20
-147.1678285341005
 30
0.0
 11
-796.0647119058144
 21
-147.1678285341005
 31
0.0
  0
LINE
  5
180
330
1F
100
AcDbEntity
  8
0-4
  6
Continuous
 62
     7
370
     9
100
AcDbLine
 10
-702.5186177846547
 20
286.8321557947108
 30
0.0
 11
-796.0647119058144
 21
286.8321557947108
 31
0.0
  0
LINE
  5
181
330
1F
100
AcDbEntity
  8
0-4
  6
Continuous
 62
     7
370
     9
100
AcDbLine
 10
-827.0515699644346
 20
-155.1677435797614
 30
0.0
 11
-827.0515699644346
 21
294.8321327003273
 31
0.0
  0
LINE
  5
182
330
1F
100
AcDbEntity
  8
0-4
  6
Continuous
 62
     7
370
     9
100
AcDbLine
 10
-702.5186177846547
 20
-155.1677435797614
 30
0.0
 11
-828.5515965642156
 21
-155.1677435797614
 31
0.0
  0
LINE
  5
183
330
1F
100
AcDbEntity
  8
0-4
  6
Continuous
 62
     7
370
     9
100
AcDbLine
 10
-702.5186177846547
 20
294.8321327003273
 30
0.0
 11
-828.5515965642156
 21
294.8321327003273
 31
0.0
  0
LINE
  5
184
330
1F
100
AcDbEntity
  8
0-4
  6
Continuous
 62
     7
370
     9
100
AcDbLine
 10
-595.6757416596283
 20
-284.8975351694468
 30
0.0
 11
-337.8670769768792
 21
-284.8975351694468
 31
0.0
  0
LINE
  5
185
330
1F
100
AcDbEntity
  8
0-2
  6
JWW_CENTER2
 62
     3
370
     9
100
AcDbLine
 10
-669.8440036258182
 20
69.83225642023868
 30
0.0
 11
-274.1416106352935
 21
69.83225642023868
 31
0.0
  0
LINE
  5
186
330
1F
100
AcDbEntity
  8
0-1
  6
Continuous
 62
     2
370
     9
100
AcDbLine
 10
-562.5666541022223
 20
296.8324980864654
 30
0.0
 11
-556.4873360298775
 21
296.8324980864654
 31
0.0
  0
LINE
  5
187
330
1F
100
AcDbEntity
  8
0-1
  6
Continuous
 62
     2
370
     9
100
AcDbLine
 10
-561.1479888091217
 20
301.3323149809966
 30
0.0
 11
-561.1479888091217
 21
296.8324980864654
 31
0.0
  0
LINE
  5
188
330
1F
100
AcDbEntity
  8
0-1
  6
Continuous
 62
     2
370
     9
100
AcDbLine
 10
-557.9060013229782
 20
301.3323149809966
 30
0.0
 11
-557.9060013229782
 21
296.8324980864654
 31
0.0
  0
LINE
  5
189
330
1F
100
AcDbEntity
  8
0-1
  6
Continuous
 62
     2
370
     9
100
AcDbLine
 10
-561.5270356874207
 20
300.9532371727197
 30
0.0
 11
-557.5269853746569
 21
300.9532371727197
 31
0.0
  0
LINE
  5
18A
330
1F
100
AcDbEntity
  8
0-1
  6
Continuous
 62
     2
370
     9
100
AcDbLine
 10
-561.5270356874207
 20
300.9532371727197
 30
0.0
 11
-561.5270356874207
 21
296.8321269267315
 31
0.0
  0
LINE
  5
18B
330
1F
100
AcDbEntity
  8
0-1
  6
Continuous
 62
     2
370
     9
100
AcDbLine
 10
-557.5269853746569
 20
296.8321269267315
 30
0.0
 11
-557.5269853746569
 21
300.9532371727197
 31
0.0
  0
LINE
  5
18C
330
1F
100
AcDbEntity
  8
0-1
  6
Continuous
 62
     2
370
     9
100
AcDbLine
 10
-557.9060013229782
 20
301.3323149809966
 30
0.0
 11
-557.5269853746569
 21
300.9532371727197
 31
0.0
  0
LINE
  5
18D
330
1F
100
AcDbEntity
  8
0-1
  6
Continuous
 62
     2
370
     9
100
AcDbLine
 10
-561.1479888091217
 20
301.3323149809966
 30
0.0
 11
-557.9060013229782
 21
301.3323149809966
 31
0.0
  0
LINE
  5
18E
330
1F
100
AcDbEntity
  8
0-1
  6
Continuous
 62
     2
370
     9
100
AcDbLine
 10
-563.5769818280194
 20
296.456760715794
 30
0.0
 11
-563.5769818280194
 21
294.8321327003273
 31
0.0
  0
LINE
  5
18F
330
1F
100
AcDbEntity
  8
0-1
  6
Continuous
 62
     2
370
     9
100
AcDbLine
 10
-561.5562954464474
 20
296.456760715794
 30
0.0
 11
-561.5562954464474
 21
294.8321327003273
 31
0.0
  0
LINE
  5
190
330
1F
100
AcDbEntity
  8
0-1
  6
Continuous
 62
     2
370
     9
100
AcDbLine
 10
-557.4976946856524
 20
296.456760715794
 30
0.0
 11
-557.4976946856524
 21
294.8321327003273
 31
0.0
  0
LINE
  5
191
330
1F
100
AcDbEntity
  8
0-1
  6
Continuous
 62
     2
370
     9
100
AcDbLine
 10
-555.4769773741026
 20
296.456760715794
 30
0.0
 11
-555.4769773741026
 21
294.8321327003273
 31
0.0
  0
LINE
  5
192
330
1F
100
AcDbEntity
  8
0-1
  6
Continuous
 62
     2
370
     9
100
AcDbLine
 10
-561.1479888091217
 20
301.3323149809966
 30
0.0
 11
-561.5269738274651
 21
300.9532371727197
 31
0.0
  0
LINE
  5
193
330
1F
100
AcDbEntity
  8
0-1
  6
JWW_CENTER1
 62
     2
370
     9
100
AcDbLine
 10
-559.526979601061
 20
292.8159930254963
 30
0.0
 11
-559.526979601061
 21
329.1517268000423
 31
0.0
  0
LINE
  5
194
330
1F
100
AcDbEntity
  8
0-1
  6
Continuous
 62
     2
370
     9
100
AcDbLine
 10
-394.5270229030299
 20
294.8321327003273
 30
0.0
 11
-394.5270229030299
 21
321.8323331265838
 31
0.0
  0
LINE
  5
195
330
1F
100
AcDbEntity
  8
0-1
  6
Continuous
 62
     2
370
     9
100
AcDbLine
 10
-374.5269569190772
 20
294.8321327003273
 30
0.0
 11
-374.5269569190772
 21
321.8323331265838
 31
0.0
  0
LINE
  5
196
330
1F
100
AcDbEntity
  8
0-1
  6
Continuous
 62
     2
370
     9
100
AcDbLine
 10
-374.5269569190772
 20
321.8323331265838
 30
0.0
 11
-394.5270229030299
 21
321.8323331265838
 31
0.0
  0
LINE
  5
197
330
1F
100
AcDbEntity
  8
0-1
  6
Continuous
 62
     2
370
     9
100
AcDbLine
 10
-374.5269569190772
 20
306.8321599187078
 30
0.0
 11
-394.5270229030299
 21
306.8321599187078
 31
0.0
  0
LINE
  5
198
330
1F
100
AcDbEntity
  8
0-1
  6
Continuous
 62
     2
370
     9
100
AcDbLine
 10
-381.4873772698479
 20
296.8324980864654
 30
0.0
 11
-387.5667262721706
 21
296.8324980864654
 31
0.0
  0
LINE
  5
199
330
1F
100
AcDbEntity
  8
0-1
  6
Continuous
 62
     2
370
     9
100
AcDbLine
 10
-382.9060734929265
 20
301.3323149809966
 30
0.0
 11
-382.9060734929265
 21
296.8324980864654
 31
0.0
  0
LINE
  5
19A
330
1F
100
AcDbEntity
  8
0-1
  6
Continuous
 62
     2
370
     9
100
AcDbLine
 10
-386.1480300490921
 20
301.3323149809966
 30
0.0
 11
-386.1480300490921
 21
296.8324980864654
 31
0.0
  0
LINE
  5
19B
330
1F
100
AcDbEntity
  8
0-1
  6
Continuous
 62
     2
370
     9
100
AcDbLine
 10
-382.5269956846495
 20
300.9532371727197
 30
0.0
 11
-386.5269841374577
 21
300.9532371727197
 31
0.0
  0
LINE
  5
19C
330
1F
100
AcDbEntity
  8
0-1
  6
Continuous
 62
     2
370
     9
100
AcDbLine
 10
-382.5269956846495
 20
300.9532371727197
 30
0.0
 11
-382.5269956846495
 21
296.8321269267315
 31
0.0
  0
LINE
  5
19D
330
1F
100
AcDbEntity
  8
0-1
  6
Continuous
 62
     2
370
     9
100
AcDbLine
 10
-386.5269841374577
 20
296.8321269267315
 30
0.0
 11
-386.5269841374577
 21
300.9532371727197
 31
0.0
  0
LINE
  5
19E
330
1F
100
AcDbEntity
  8
0-1
  6
Continuous
 62
     2
370
     9
100
AcDbLine
 10
-386.1480300490921
 20
301.3323149809966
 30
0.0
 11
-386.5269841374577
 21
300.9532371727197
 31
0.0
  0
LINE
  5
19F
330
1F
100
AcDbEntity
  8
0-1
  6
Continuous
 62
     2
370
     9
100
AcDbLine
 10
-382.9060734929265
 20
301.3323149809966
 30
0.0
 11
-386.1480300490921
 21
301.3323149809966
 31
0.0
  0
LINE
  5
1A0
330
1F
100
AcDbEntity
  8
0-1
  6
Continuous
 62
     2
370
     9
100
AcDbLine
 10
-380.4770804740286
 20
296.456760715794
 30
0.0
 11
-380.4770804740286
 21
294.8321327003273
 31
0.0
  0
LINE
  5
1A1
330
1F
100
AcDbEntity
  8
0-1
  6
Continuous
 62
     2
370
     9
100
AcDbLine
 10
-382.4977359256229
 20
296.456760715794
 30
0.0
 11
-382.4977359256229
 21
294.8321327003273
 31
0.0
  0
LINE
  5
1A2
330
1F
100
AcDbEntity
  8
0-1
  6
Continuous
 62
     2
370
     9
100
AcDbLine
 10
-386.5562438964844
 20
296.456760715794
 30
0.0
 11
-386.5562438964844
 21
294.8321327003273
 31
0.0
  0
LINE
  5
1A3
330
1F
100
AcDbEntity
  8
0-1
  6
Continuous
 62
     2
370
     9
100
AcDbLine
 10
-388.5770230679898
 20
296.456760715794
 30
0.0
 11
-388.5770230679898
 21
294.8321327003273
 31
0.0
  0
LINE
  5
1A4
330
1F
100
AcDbEntity
  8
0-1
  6
Continuous
 62
     2
370
     9
100
AcDbLine
 10
-382.9060734929265
 20
301.3323149809966
 30
0.0
 11
-382.5269956846495
 21
300.9532371727197
 31
0.0
  0
LINE
  5
1A5
330
1F
100
AcDbEntity
  8
0-1
  6
JWW_CENTER1
 62
     2
370
     9
100
AcDbLine
 10
-384.5270517710093
 20
292.8159930254963
 30
0.0
 11
-384.5270517710093
 21
329.1517268000423
 31
0.0
  0
LINE
  5
1A6
330
1F
100
AcDbEntity
  8
0-1
  6
Continuous
 62
     2
370
     9
100
AcDbLine
 10
-697.0270620810018
 20
-7.66781368771106
 30
0.0
 11
-724.027107857369
 21
-7.66781368771106
 31
0.0
  0
LINE
  5
1A7
330
1F
100
AcDbEntity
  8
0-1
  6
Continuous
 62
     2
370
     9
100
AcDbLine
 10
-697.0270620810018
 20
-27.66769409179688
 30
0.0
 11
-724.027107857369
 21
-27.66769409179688
 31
0.0
  0
LINE
  5
1A8
330
1F
100
AcDbEntity
  8
0-1
  6
Continuous
 62
     2
370
     9
100
AcDbLine
 10
-724.027107857369
 20
-27.66769409179688
 30
0.0
 11
-724.027107857369
 21
-7.66781368771106
 31
0.0
  0
LINE
  5
1A9
330
1F
100
AcDbEntity
  8
0-1
  6
Continuous
 62
     2
370
     9
100
AcDbLine
 10
-709.0270274394267
 20
-27.66769409179688
 30
0.0
 11
-709.0270274394267
 21
-7.66781368771106
 31
0.0
  0
LINE
  5
1AA
330
1F
100
AcDbEntity
  8
0-1
  6
Continuous
 62
     2
370
     9
100
AcDbLine
 10
-699.0271181673618
 20
-20.7073974609375
 30
0.0
 11
-699.0271181673618
 21
-14.62811031857044
 31
0.0
  0
LINE
  5
1AB
330
1F
100
AcDbEntity
  8
0-1
  6
Continuous
 62
     2
370
     9
100
AcDbLine
 10
-703.5270897117821
 20
-19.28882495777017
 30
0.0
 11
-699.0271181673618
 21
-19.28882495777017
 31
0.0
  0
LINE
  5
1AC
330
1F
100
AcDbEntity
  8
0-1
  6
Continuous
 62
     2
370
     9
100
AcDbLine
 10
-703.5270897117821
 20
-16.04668282173776
 30
0.0
 11
-699.0271181673618
 21
-16.04668282173776
 31
0.0
  0
LINE
  5
1AD
330
1F
100
AcDbEntity
  8
0-1
  6
Continuous
 62
     2
370
     9
100
AcDbLine
 10
-703.1479809735272
 20
-19.66777904613593
 30
0.0
 11
-703.1479809735272
 21
-15.667728733372
 31
0.0
  0
LINE
  5
1AE
330
1F
100
AcDbEntity
  8
0-1
  6
Continuous
 62
     2
370
     9
100
AcDbLine
 10
-703.1479809735272
 20
-19.66777904613593
 30
0.0
 11
-699.0270253774281
 21
-19.66777904613593
 31
0.0
  0
LINE
  5
1AF
330
1F
100
AcDbEntity
  8
0-1
  6
Continuous
 62
     2
370
     9
100
AcDbLine
 10
-699.0270253774281
 20
-15.667728733372
 30
0.0
 11
-703.1481356234165
 21
-15.667728733372
 31
0.0
  0
LINE
  5
1B0
330
1F
100
AcDbEntity
  8
0-1
  6
Continuous
 62
     2
370
     9
100
AcDbLine
 10
-703.5270897117821
 20
-16.04668282173776
 30
0.0
 11
-703.1481356234165
 21
-15.667728733372
 31
0.0
  0
LINE
  5
1B1
330
1F
100
AcDbEntity
  8
0-1
  6
Continuous
 62
     2
370
     9
100
AcDbLine
 10
-703.5270897117821
 20
-19.28882495777017
 30
0.0
 11
-703.5270897117821
 21
-16.04668282173776
 31
0.0
  0
LINE
  5
1B2
330
1F
100
AcDbEntity
  8
0-1
  6
Continuous
 62
     2
370
     9
100
AcDbLine
 10
-698.6517519564243
 20
-21.71775611671237
 30
0.0
 11
-697.0270620810018
 21
-21.71775611671237
 31
0.0
  0
LINE
  5
1B3
330
1F
100
AcDbEntity
  8
0-1
  6
Continuous
 62
     2
370
     9
100
AcDbLine
 10
-698.6517519564243
 20
-19.69703880516249
 30
0.0
 11
-697.0270620810018
 21
-19.69703880516249
 31
0.0
  0
LINE
  5
1B4
330
1F
100
AcDbEntity
  8
0-1
  6
Continuous
 62
     2
370
     9
100
AcDbLine
 10
-698.6517519564243
 20
-15.63840711438971
 30
0.0
 11
-697.0270620810018
 21
-15.63840711438971
 31
0.0
  0
LINE
  5
1B5
330
1F
100
AcDbEntity
  8
0-1
  6
Continuous
 62
     2
370
     9
100
AcDbLine
 10
-698.6517519564243
 20
-13.61775166279557
 30
0.0
 11
-697.0270620810018
 21
-13.61775166279557
 31
0.0
  0
LINE
  5
1B6
330
1F
100
AcDbEntity
  8
0-1
  6
Continuous
 62
     2
370
     9
100
AcDbLine
 10
-703.5270897117821
 20
-19.28882495777017
 30
0.0
 11
-703.1481356234165
 21
-19.66777904613593
 31
0.0
  0
LINE
  5
1B7
330
1F
100
AcDbEntity
  8
0-1
  6
JWW_CENTER1
 62
     2
370
     9
100
AcDbLine
 10
-695.0109533361488
 20
-17.66778481973176
 30
0.0
 11
-731.3465015308277
 21
-17.66778481973176
 31
0.0
  0
LINE
  5
1B8
330
1F
100
AcDbEntity
  8
0-1
  6
Continuous
 62
     2
370
     9
100
AcDbLine
 10
-697.0270620810018
 20
147.3322028082771
 30
0.0
 11
-724.027107857369
 21
147.3322028082771
 31
0.0
  0
LINE
  5
1B9
330
1F
100
AcDbEntity
  8
0-1
  6
Continuous
 62
     2
370
     9
100
AcDbLine
 10
-697.0270620810018
 20
167.3323306521854
 30
0.0
 11
-724.027107857369
 21
167.3323306521854
 31
0.0
  0
LINE
  5
1BA
330
1F
100
AcDbEntity
  8
0-1
  6
Continuous
 62
     2
370
     9
100
AcDbLine
 10
-724.027107857369
 20
167.3323306521854
 30
0.0
 11
-724.027107857369
 21
147.3322028082771
 31
0.0
  0
LINE
  5
1BB
330
1F
100
AcDbEntity
  8
0-1
  6
Continuous
 62
     2
370
     9
100
AcDbLine
 10
-709.0270274394267
 20
167.3323306521854
 30
0.0
 11
-709.0270274394267
 21
147.3322028082771
 31
0.0
  0
LINE
  5
1BC
330
1F
100
AcDbEntity
  8
0-1
  6
Continuous
 62
     2
370
     9
100
AcDbLine
 10
-699.0271181673618
 20
160.3718484414591
 30
0.0
 11
-699.0271181673618
 21
154.2924994391365
 31
0.0
  0
LINE
  5
1BD
330
1F
100
AcDbEntity
  8
0-1
  6
Continuous
 62
     2
370
     9
100
AcDbLine
 10
-703.5270897117821
 20
158.9532759382918
 30
0.0
 11
-699.0271181673618
 21
158.9532759382918
 31
0.0
  0
LINE
  5
1BE
330
1F
100
AcDbEntity
  8
0-1
  6
Continuous
 62
     2
370
     9
100
AcDbLine
 10
-703.5270897117821
 20
155.7112575221707
 30
0.0
 11
-699.0271181673618
 21
155.7112575221707
 31
0.0
  0
LINE
  5
1BF
330
1F
100
AcDbEntity
  8
0-1
  6
Continuous
 62
     2
370
     9
100
AcDbLine
 10
-703.1479809735272
 20
159.3323537465689
 30
0.0
 11
-703.1479809735272
 21
155.3321797138936
 31
0.0
  0
LINE
  5
1C0
330
1F
100
AcDbEntity
  8
0-1
  6
Continuous
 62
     2
370
     9
100
AcDbLine
 10
-703.1479809735272
 20
159.3323537465689
 30
0.0
 11
-699.0270253774281
 21
159.3323537465689
 31
0.0
  0
LINE
  5
1C1
330
1F
100
AcDbEntity
  8
0-1
  6
Continuous
 62
     2
370
     9
100
AcDbLine
 10
-699.0270253774281
 20
155.3321797138936
 30
0.0
 11
-703.1481356234165
 21
155.3321797138936
 31
0.0
  0
LINE
  5
1C2
330
1F
100
AcDbEntity
  8
0-1
  6
Continuous
 62
     2
370
     9
100
AcDbLine
 10
-703.5270897117821
 20
155.7112575221707
 30
0.0
 11
-703.1481356234165
 21
155.3321797138936
 31
0.0
  0
LINE
  5
1C3
330
1F
100
AcDbEntity
  8
0-1
  6
Continuous
 62
     2
370
     9
100
AcDbLine
 10
-703.5270897117821
 20
158.9532759382918
 30
0.0
 11
-703.5270897117821
 21
155.7112575221707
 31
0.0
  0
LINE
  5
1C4
330
1F
100
AcDbEntity
  8
0-1
  6
Continuous
 62
     2
370
     9
100
AcDbLine
 10
-698.6517519564243
 20
161.3821452372784
 30
0.0
 11
-697.0270620810018
 21
161.3821452372784
 31
0.0
  0
LINE
  5
1C5
330
1F
100
AcDbEntity
  8
0-1
  6
Continuous
 62
     2
370
     9
100
AcDbLine
 10
-698.6517519564243
 20
159.3614897856841
 30
0.0
 11
-697.0270620810018
 21
159.3614897856841
 31
0.0
  0
LINE
  5
1C6
330
1F
100
AcDbEntity
  8
0-1
  6
Continuous
 62
     2
370
     9
100
AcDbLine
 10
-698.6517519564243
 20
155.3030436747784
 30
0.0
 11
-697.0270620810018
 21
155.3030436747784
 31
0.0
  0
LINE
  5
1C7
330
1F
100
AcDbEntity
  8
0-1
  6
Continuous
 62
     2
370
     9
100
AcDbLine
 10
-698.6517519564243
 20
153.2821407833616
 30
0.0
 11
-697.0270620810018
 21
153.2821407833616
 31
0.0
  0
LINE
  5
1C8
330
1F
100
AcDbEntity
  8
0-1
  6
Continuous
 62
     2
370
     9
100
AcDbLine
 10
-703.5270897117821
 20
158.9532759382918
 30
0.0
 11
-703.1481356234165
 21
159.3322300266576
 31
0.0
  0
LINE
  5
1C9
330
1F
100
AcDbEntity
  8
0-1
  6
JWW_CENTER1
 62
     2
370
     9
100
AcDbLine
 10
-695.0109533361488
 20
157.3322976602091
 30
0.0
 11
-731.3465015308277
 21
157.3322976602091
 31
0.0
  0
LINE
  5
1CA
330
1F
100
AcDbEntity
  8
0-1
  6
Continuous
 62
     2
370
     9
100
AcDbLine
 10
-394.5271466229412
 20
-155.1677435797614
 30
0.0
 11
-394.5271466229412
 21
-182.1678202861064
 31
0.0
  0
LINE
  5
1CB
330
1F
100
AcDbEntity
  8
0-1
  6
Continuous
 62
     2
370
     9
100
AcDbLine
 10
-374.5270806389885
 20
-155.1677435797614
 30
0.0
 11
-374.5270806389885
 21
-182.1678202861064
 31
0.0
  0
LINE
  5
1CC
330
1F
100
AcDbEntity
  8
0-1
  6
Continuous
 62
     2
370
     9
100
AcDbLine
 10
-374.5270806389885
 20
-182.1678202861064
 30
0.0
 11
-394.5271466229412
 21
-182.1678202861064
 31
0.0
  0
LINE
  5
1CD
330
1F
100
AcDbEntity
  8
0-1
  6
Continuous
 62
     2
370
     9
100
AcDbLine
 10
-374.5270806389885
 20
-167.1677707981419
 30
0.0
 11
-394.5271466229412
 21
-167.1677707981419
 31
0.0
  0
LINE
  5
1CE
330
1F
100
AcDbEntity
  8
0-1
  6
Continuous
 62
     2
370
     9
100
AcDbLine
 10
-381.4875009897593
 20
-157.1677996661211
 30
0.0
 11
-387.5668499920819
 21
-157.1677996661211
 31
0.0
  0
LINE
  5
1CF
330
1F
100
AcDbEntity
  8
0-1
  6
Continuous
 62
     2
370
     9
100
AcDbLine
 10
-382.9061353528822
 20
-161.6678021405194
 30
0.0
 11
-382.9061353528822
 21
-157.1677996661211
 31
0.0
  0
LINE
  5
1D0
330
1F
100
AcDbEntity
  8
0-1
  6
Continuous
 62
     2
370
     9
100
AcDbLine
 10
-386.1481537690034
 20
-161.6678021405194
 30
0.0
 11
-386.1481537690034
 21
-157.1677996661211
 31
0.0
  0
LINE
  5
1D1
330
1F
100
AcDbEntity
  8
0-1
  6
Continuous
 62
     2
370
     9
100
AcDbLine
 10
-382.5271194045608
 20
-161.2887243322424
 30
0.0
 11
-386.527107857369
 21
-161.2887243322424
 31
0.0
  0
LINE
  5
1D2
330
1F
100
AcDbEntity
  8
0-1
  6
Continuous
 62
     2
370
     9
100
AcDbLine
 10
-382.5271194045608
 20
-161.2887243322424
 30
0.0
 11
-382.5271194045608
 21
-157.1676759462098
 31
0.0
  0
LINE
  5
1D3
330
1F
100
AcDbEntity
  8
0-1
  6
Continuous
 62
     2
370
     9
100
AcDbLine
 10
-386.527107857369
 20
-157.1676759462098
 30
0.0
 11
-386.527107857369
 21
-161.2888480521537
 31
0.0
  0
LINE
  5
1D4
330
1F
100
AcDbEntity
  8
0-1
  6
Continuous
 62
     2
370
     9
100
AcDbLine
 10
-386.1481537690034
 20
-161.6678021405194
 30
0.0
 11
-386.527107857369
 21
-161.2888480521537
 31
0.0
  0
LINE
  5
1D5
330
1F
100
AcDbEntity
  8
0-1
  6
Continuous
 62
     2
370
     9
100
AcDbLine
 10
-382.9061353528822
 20
-161.6678021405194
 30
0.0
 11
-386.1481537690034
 21
-161.6678021405194
 31
0.0
  0
LINE
  5
1D6
330
1F
100
AcDbEntity
  8
0-1
  6
Continuous
 62
     2
370
     9
100
AcDbLine
 10
-380.47720419394
 20
-156.7924334551836
 30
0.0
 11
-380.47720419394
 21
-155.1677435797614
 31
0.0
  0
LINE
  5
1D7
330
1F
100
AcDbEntity
  8
0-1
  6
Continuous
 62
     2
370
     9
100
AcDbLine
 10
-382.4978596455341
 20
-156.7924334551836
 30
0.0
 11
-382.4978596455341
 21
-155.1677435797614
 31
0.0
  0
LINE
  5
1D8
330
1F
100
AcDbEntity
  8
0-1
  6
Continuous
 62
     2
370
     9
100
AcDbLine
 10
-386.5563676163957
 20
-156.7924334551836
 30
0.0
 11
-386.5563676163957
 21
-155.1677435797614
 31
0.0
  0
LINE
  5
1D9
330
1F
100
AcDbEntity
  8
0-1
  6
Continuous
 62
     2
370
     9
100
AcDbLine
 10
-388.5770849279454
 20
-156.7924334551836
 30
0.0
 11
-388.5770849279454
 21
-155.1677435797614
 31
0.0
  0
LINE
  5
1DA
330
1F
100
AcDbEntity
  8
0-1
  6
Continuous
 62
     2
370
     9
100
AcDbLine
 10
-382.9061353528822
 20
-161.6678021405194
 30
0.0
 11
-382.5271194045608
 21
-161.2888480521537
 31
0.0
  0
LINE
  5
1DB
330
1F
100
AcDbEntity
  8
0-1
  6
JWW_CENTER1
 62
     2
370
     9
100
AcDbLine
 10
-384.5271754909206
 20
-153.1516657648859
 30
0.0
 11
-384.5271754909206
 21
-189.487213959565
 31
0.0
  0
LINE
  5
1DC
330
1F
100
AcDbEntity
  8
0-1
  6
Continuous
 62
     2
370
     9
100
AcDbLine
 10
-549.5270703289959
 20
-155.1677435797614
 30
0.0
 11
-549.5270703289959
 21
-182.1678202861064
 31
0.0
  0
LINE
  5
1DD
330
1F
100
AcDbEntity
  8
0-1
  6
Continuous
 62
     2
370
     9
100
AcDbLine
 10
-569.5271672429265
 20
-155.1677435797614
 30
0.0
 11
-569.5271672429265
 21
-182.1678202861064
 31
0.0
  0
LINE
  5
1DE
330
1F
100
AcDbEntity
  8
0-1
  6
Continuous
 62
     2
370
     9
100
AcDbLine
 10
-569.5271672429265
 20
-182.1678202861064
 30
0.0
 11
-549.5270703289959
 21
-182.1678202861064
 31
0.0
  0
LINE
  5
1DF
330
1F
100
AcDbEntity
  8
0-1
  6
Continuous
 62
     2
370
     9
100
AcDbLine
 10
-569.5271672429265
 20
-167.1677707981419
 30
0.0
 11
-549.5270703289959
 21
-167.1677707981419
 31
0.0
  0
LINE
  5
1E0
330
1F
100
AcDbEntity
  8
0-1
  6
Continuous
 62
     2
370
     9
100
AcDbLine
 10
-562.5667778221336
 20
-157.1677996661211
 30
0.0
 11
-556.487428819811
 21
-157.1677996661211
 31
0.0
  0
LINE
  5
1E1
330
1F
100
AcDbEntity
  8
0-1
  6
Continuous
 62
     2
370
     9
100
AcDbLine
 10
-561.1480815990551
 20
-161.6678021405194
 30
0.0
 11
-561.1480815990551
 21
-157.1677996661211
 31
0.0
  0
LINE
  5
1E2
330
1F
100
AcDbEntity
  8
0-1
  6
Continuous
 62
     2
370
     9
100
AcDbLine
 10
-557.9061250428895
 20
-161.6678021405194
 30
0.0
 11
-557.9061250428895
 21
-157.1677996661211
 31
0.0
  0
LINE
  5
1E3
330
1F
100
AcDbEntity
  8
0-1
  6
Continuous
 62
     2
370
     9
100
AcDbLine
 10
-561.5271594073321
 20
-161.2887243322424
 30
0.0
 11
-557.527140024546
 21
-161.2887243322424
 31
0.0
  0
LINE
  5
1E4
330
1F
100
AcDbEntity
  8
0-1
  6
Continuous
 62
     2
370
     9
100
AcDbLine
 10
-561.5271594073321
 20
-161.2887243322424
 30
0.0
 11
-561.5271594073321
 21
-157.1676759462098
 31
0.0
  0
LINE
  5
1E5
330
1F
100
AcDbEntity
  8
0-1
  6
Continuous
 62
     2
370
     9
100
AcDbLine
 10
-557.527140024546
 20
-157.1676759462098
 30
0.0
 11
-557.527140024546
 21
-161.2888480521537
 31
0.0
  0
LINE
  5
1E6
330
1F
100
AcDbEntity
  8
0-1
  6
Continuous
 62
     2
370
     9
100
AcDbLine
 10
-557.9061250428895
 20
-161.6678021405194
 30
0.0
 11
-557.527140024546
 21
-161.2888480521537
 31
0.0
  0
LINE
  5
1E7
330
1F
100
AcDbEntity
  8
0-1
  6
Continuous
 62
     2
370
     9
100
AcDbLine
 10
-561.1480815990551
 20
-161.6678021405194
 30
0.0
 11
-557.9061250428895
 21
-161.6678021405194
 31
0.0
  0
LINE
  5
1E8
330
1F
100
AcDbEntity
  8
0-1
  6
Continuous
 62
     2
370
     9
100
AcDbLine
 10
-563.5770746179528
 20
-156.7924334551836
 30
0.0
 11
-563.5770746179528
 21
-155.1677435797614
 31
0.0
  0
LINE
  5
1E9
330
1F
100
AcDbEntity
  8
0-1
  6
Continuous
 62
     2
370
     9
100
AcDbLine
 10
-561.5564191663588
 20
-156.7924334551836
 30
0.0
 11
-561.5564191663588
 21
-155.1677435797614
 31
0.0
  0
LINE
  5
1EA
330
1F
100
AcDbEntity
  8
0-1
  6
Continuous
 62
     2
370
     9
100
AcDbLine
 10
-557.4978802655194
 20
-156.7924334551836
 30
0.0
 11
-557.4978802655194
 21
-155.1677435797614
 31
0.0
  0
LINE
  5
1EB
330
1F
100
AcDbEntity
  8
0-1
  6
Continuous
 62
     2
370
     9
100
AcDbLine
 10
-555.4771320239918
 20
-156.7924334551836
 30
0.0
 11
-555.4771320239918
 21
-155.1677435797614
 31
0.0
  0
LINE
  5
1EC
330
1F
100
AcDbEntity
  8
0-1
  6
Continuous
 62
     2
370
     9
100
AcDbLine
 10
-561.1480815990551
 20
-161.6678021405194
 30
0.0
 11
-561.5270975473765
 21
-161.2888480521537
 31
0.0
  0
LINE
  5
1ED
330
1F
100
AcDbEntity
  8
0-1
  6
JWW_CENTER1
 62
     2
370
     9
100
AcDbLine
 10
-559.5271033209723
 20
-153.1516657648859
 30
0.0
 11
-559.5271033209723
 21
-189.487213959565
 31
0.0
  0
LINE
  5
1EE
330
1F
100
AcDbEntity
  8
0-1
  6
Continuous
 62
     2
370
     9
100
AcDbLine
 10
-247.027216730891
 20
147.3322028082771
 30
0.0
 11
-220.0272018845017
 21
147.3322028082771
 31
0.0
  0
LINE
  5
1EF
330
1F
100
AcDbEntity
  8
0-1
  6
Continuous
 62
     2
370
     9
100
AcDbLine
 10
-247.027216730891
 20
167.3321450723185
 30
0.0
 11
-220.0272018845017
 21
167.3321450723185
 31
0.0
  0
LINE
  5
1F0
330
1F
100
AcDbEntity
  8
0-1
  6
Continuous
 62
     2
370
     9
100
AcDbLine
 10
-220.0272018845017
 20
167.3321450723185
 30
0.0
 11
-220.0272018845017
 21
147.3322028082771
 31
0.0
  0
LINE
  5
1F1
330
1F
100
AcDbEntity
  8
0-1
  6
Continuous
 62
     2
370
     9
100
AcDbLine
 10
-235.0271895125105
 20
167.3321450723185
 30
0.0
 11
-235.0271895125105
 21
147.3322028082771
 31
0.0
  0
LINE
  5
1F2
330
1F
100
AcDbEntity
  8
0-1
  6
Continuous
 62
     2
370
     9
100
AcDbLine
 10
-245.0271606445312
 20
160.3718484414591
 30
0.0
 11
-245.0271606445312
 21
154.2925612990921
 31
0.0
  0
LINE
  5
1F3
330
1F
100
AcDbEntity
  8
0-1
  6
Continuous
 62
     2
370
     9
100
AcDbLine
 10
-240.5272200300887
 20
158.9532759382918
 30
0.0
 11
-245.0271606445312
 21
158.9532759382918
 31
0.0
  0
LINE
  5
1F4
330
1F
100
AcDbEntity
  8
0-1
  6
Continuous
 62
     2
370
     9
100
AcDbLine
 10
-240.5272200300887
 20
155.711195662215
 30
0.0
 11
-245.0271606445312
 21
155.711195662215
 31
0.0
  0
LINE
  5
1F5
330
1F
100
AcDbEntity
  8
0-1
  6
Continuous
 62
     2
370
     9
100
AcDbLine
 10
-240.9062978383656
 20
159.3322300266576
 30
0.0
 11
-240.9062978383656
 21
155.3321797138936
 31
0.0
  0
LINE
  5
1F6
330
1F
100
AcDbEntity
  8
0-1
  6
Continuous
 62
     2
370
     9
100
AcDbLine
 10
-240.9062978383656
 20
159.3322300266576
 30
0.0
 11
-245.0272225044868
 21
159.3322300266576
 31
0.0
  0
LINE
  5
1F7
330
1F
100
AcDbEntity
  8
0-1
  6
Continuous
 62
     2
370
     9
100
AcDbLine
 10
-245.0272225044868
 20
155.3321797138936
 30
0.0
 11
-240.9061122584987
 21
155.3321797138936
 31
0.0
  0
LINE
  5
1F8
330
1F
100
AcDbEntity
  8
0-1
  6
Continuous
 62
     2
370
     9
100
AcDbLine
 10
-240.5272200300887
 20
155.711195662215
 30
0.0
 11
-240.9061122584987
 21
155.3321797138936
 31
0.0
  0
LINE
  5
1F9
330
1F
100
AcDbEntity
  8
0-1
  6
Continuous
 62
     2
370
     9
100
AcDbLine
 10
-240.5272200300887
 20
158.9532759382918
 30
0.0
 11
-240.5272200300887
 21
155.711195662215
 31
0.0
  0
LINE
  5
1FA
330
1F
100
AcDbEntity
  8
0-1
  6
Continuous
 62
     2
370
     9
100
AcDbLine
 10
-245.402464995513
 20
161.382207097234
 30
0.0
 11
-247.027216730891
 21
161.382207097234
 31
0.0
  0
LINE
  5
1FB
330
1F
100
AcDbEntity
  8
0-1
  6
Continuous
 62
     2
370
     9
100
AcDbLine
 10
-245.402464995513
 20
159.3614897856841
 30
0.0
 11
-247.027216730891
 21
159.3614897856841
 31
0.0
  0
LINE
  5
1FC
330
1F
100
AcDbEntity
  8
0-1
  6
Continuous
 62
     2
370
     9
100
AcDbLine
 10
-245.402464995513
 20
155.3028580949113
 30
0.0
 11
-247.027216730891
 21
155.3028580949113
 31
0.0
  0
LINE
  5
1FD
330
1F
100
AcDbEntity
  8
0-1
  6
Continuous
 62
     2
370
     9
100
AcDbLine
 10
-245.402464995513
 20
153.2821407833616
 30
0.0
 11
-247.027216730891
 21
153.2821407833616
 31
0.0
  0
LINE
  5
1FE
330
1F
100
AcDbEntity
  8
0-1
  6
Continuous
 62
     2
370
     9
100
AcDbLine
 10
-240.5272200300887
 20
158.9532759382918
 30
0.0
 11
-240.9061122584987
 21
159.3322300266576
 31
0.0
  0
LINE
  5
1FF
330
1F
100
AcDbEntity
  8
0-1
  6
JWW_CENTER1
 62
     2
370
     9
100
AcDbLine
 10
-249.0433564057221
 20
157.3322976602091
 30
0.0
 11
-212.707808211043
 21
157.3322976602091
 31
0.0
  0
LINE
  5
200
330
1F
100
AcDbEntity
  8
0-1
  6
Continuous
 62
     2
370
     9
100
AcDbLine
 10
-247.027216730891
 20
-7.66781368771106
 30
0.0
 11
-220.0272018845017
 21
-7.66781368771106
 31
0.0
  0
LINE
  5
201
330
1F
100
AcDbEntity
  8
0-1
  6
Continuous
 62
     2
370
     9
100
AcDbLine
 10
-247.027216730891
 20
-27.6678796716638
 30
0.0
 11
-220.0272018845017
 21
-27.6678796716638
 31
0.0
  0
LINE
  5
202
330
1F
100
AcDbEntity
  8
0-1
  6
Continuous
 62
     2
370
     9
100
AcDbLine
 10
-220.0272018845017
 20
-27.6678796716638
 30
0.0
 11
-220.0272018845017
 21
-7.66781368771106
 31
0.0
  0
LINE
  5
203
330
1F
100
AcDbEntity
  8
0-1
  6
Continuous
 62
     2
370
     9
100
AcDbLine
 10
-235.0271895125105
 20
-27.6678796716638
 30
0.0
 11
-235.0271895125105
 21
-7.66781368771106
 31
0.0
  0
LINE
  5
204
330
1F
100
AcDbEntity
  8
0-1
  6
Continuous
 62
     2
370
     9
100
AcDbLine
 10
-245.0271606445312
 20
-20.7073974609375
 30
0.0
 11
-245.0271606445312
 21
-14.62804845861484
 31
0.0
  0
LINE
  5
205
330
1F
100
AcDbEntity
  8
0-1
  6
Continuous
 62
     2
370
     9
100
AcDbLine
 10
-240.5272200300887
 20
-19.28882495777017
 30
0.0
 11
-245.0271606445312
 21
-19.28882495777017
 31
0.0
  0
LINE
  5
206
330
1F
100
AcDbEntity
  8
0-1
  6
Continuous
 62
     2
370
     9
100
AcDbLine
 10
-240.5272200300887
 20
-16.04680654164909
 30
0.0
 11
-245.0271606445312
 21
-16.04680654164909
 31
0.0
  0
LINE
  5
207
330
1F
100
AcDbEntity
  8
0-1
  6
Continuous
 62
     2
370
     9
100
AcDbLine
 10
-240.9062978383656
 20
-19.66784090609167
 30
0.0
 11
-240.9062978383656
 21
-15.667728733372
 31
0.0
  0
LINE
  5
208
330
1F
100
AcDbEntity
  8
0-1
  6
Continuous
 62
     2
370
     9
100
AcDbLine
 10
-240.9062978383656
 20
-19.66784090609167
 30
0.0
 11
-245.0272225044868
 21
-19.66784090609167
 31
0.0
  0
LINE
  5
209
330
1F
100
AcDbEntity
  8
0-1
  6
Continuous
 62
     2
370
     9
100
AcDbLine
 10
-245.0272225044868
 20
-15.667728733372
 30
0.0
 11
-240.9061122584987
 21
-15.667728733372
 31
0.0
  0
LINE
  5
20A
330
1F
100
AcDbEntity
  8
0-1
  6
Continuous
 62
     2
370
     9
100
AcDbLine
 10
-240.5272200300887
 20
-16.04680654164909
 30
0.0
 11
-240.9061122584987
 21
-15.667728733372
 31
0.0
  0
LINE
  5
20B
330
1F
100
AcDbEntity
  8
0-1
  6
Continuous
 62
     2
370
     9
100
AcDbLine
 10
-240.5272200300887
 20
-19.28882495777017
 30
0.0
 11
-240.5272200300887
 21
-16.04680654164909
 31
0.0
  0
LINE
  5
20C
330
1F
100
AcDbEntity
  8
0-1
  6
Continuous
 62
     2
370
     9
100
AcDbLine
 10
-245.402464995513
 20
-21.71763239680104
 30
0.0
 11
-247.027216730891
 21
-21.71763239680104
 31
0.0
  0
LINE
  5
20D
330
1F
100
AcDbEntity
  8
0-1
  6
Continuous
 62
     2
370
     9
100
AcDbLine
 10
-245.402464995513
 20
-19.69703880516249
 30
0.0
 11
-247.027216730891
 21
-19.69703880516249
 31
0.0
  0
LINE
  5
20E
330
1F
100
AcDbEntity
  8
0-1
  6
Continuous
 62
     2
370
     9
100
AcDbLine
 10
-245.402464995513
 20
-15.63853083430104
 30
0.0
 11
-247.027216730891
 21
-15.63853083430104
 31
0.0
  0
LINE
  5
20F
330
1F
100
AcDbEntity
  8
0-1
  6
Continuous
 62
     2
370
     9
100
AcDbLine
 10
-245.402464995513
 20
-13.61775166279557
 30
0.0
 11
-247.027216730891
 21
-13.61775166279557
 31
0.0
  0
LINE
  5
210
330
1F
100
AcDbEntity
  8
0-1
  6
Continuous
 62
     2
370
     9
100
AcDbLine
 10
-240.5272200300887
 20
-19.28882495777017
 30
0.0
 11
-240.9061122584987
 21
-19.66777904613593
 31
0.0
  0
LINE
  5
211
330
1F
100
AcDbEntity
  8
0-1
  6
JWW_CENTER1
 62
     2
370
     9
100
AcDbLine
 10
-249.0433564057221
 20
-17.66778481973176
 30
0.0
 11
-212.707808211043
 21
-17.66778481973176
 31
0.0
  0
LINE
  5
212
330
1F
100
AcDbEntity
  8
D-2
  6
Continuous
 62
     3
370
     9
100
AcDbLine
 10
472.4800316063136
 20
-205.3931406381967
 30
0.0
 11
631.4800365551099
 21
-205.3931406381967
 31
0.0
  0
LINE
  5
213
330
1F
100
AcDbEntity
  8
D-2
  6
Continuous
 62
     3
370
     9
100
AcDbLine
 10
444.9800645982899
 20
-324.3931373389992
 30
0.0
 11
463.4800266575169
 21
-324.3931373389992
 31
0.0
  0
LINE
  5
214
330
1F
100
AcDbEntity
  8
D-2
  6
JWW_CENTER1
 62
     3
370
     9
100
AcDbLine
 10
420.3011590081294
 20
-265.3932148701435
 30
0.0
 11
689.3688305004224
 21
-265.3932148701435
 31
0.0
  0
LINE
  5
215
330
1F
100
AcDbEntity
  8
D-2
  6
Continuous
 62
     3
370
     9
100
AcDbLine
 10
463.4800266575169
 20
-324.3931373389992
 30
0.0
 11
463.4800266575169
 21
-253.6706295528927
 31
0.0
  0
LINE
  5
216
330
1F
100
AcDbEntity
  8
D-2
  6
Continuous
 62
     3
370
     9
100
AcDbLine
 10
444.9800645982899
 20
-324.3931373389992
 30
0.0
 11
444.9800645982899
 21
-232.8932313661317
 31
0.0
  0
LINE
  5
217
330
1F
100
AcDbEntity
  8
D-2
  6
Continuous
 62
     3
370
     9
100
AcDbLine
 10
480.3716298696159
 20
-238.7903409390836
 30
0.0
 11
551.9800959406672
 21
-247.8931571341849
 31
0.0
  0
LINE
  5
218
330
1F
100
AcDbEntity
  8
D-2
  6
JWW_CENTER1
 62
     3
370
     9
100
AcDbLine
 10
551.9800959406672
 20
-347.9925867029138
 30
0.0
 11
551.9800959406672
 21
-181.7826802021748
 31
0.0
  0
LINE
  5
219
330
1F
100
AcDbEntity
  8
D-2
  6
Continuous
 62
     3
370
     9
100
AcDbLine
 10
564.4800134607266
 20
-236.0263144003378
 30
0.0
 11
564.4800134607266
 21
-232.8932313661317
 31
0.0
  0
LINE
  5
21A
330
1F
100
AcDbEntity
  8
D-2
  6
Continuous
 62
     3
370
     9
100
AcDbLine
 10
623.5884382918075
 20
-238.7903409390836
 30
0.0
 11
551.9800959406672
 21
-247.8931571341849
 31
0.0
  0
LINE
  5
21B
330
1F
100
AcDbEntity
  8
D-2
  6
Continuous
 62
     3
370
     9
100
AcDbLine
 10
658.9801272830448
 20
-324.3931373389992
 30
0.0
 11
658.9801272830448
 21
-232.8932313661317
 31
0.0
  0
LINE
  5
21C
330
1F
100
AcDbEntity
  8
D-2
  6
Continuous
 62
     3
370
     9
100
AcDbLine
 10
640.4800415039062
 20
-324.3931373389992
 30
0.0
 11
640.4800415039062
 21
-253.6706295528927
 31
0.0
  0
LINE
  5
21D
330
1F
100
AcDbEntity
  8
D-2
  6
Continuous
 62
     3
370
     9
100
AcDbLine
 10
658.9801272830448
 20
-324.3931373389992
 30
0.0
 11
640.4800415039062
 21
-324.3931373389992
 31
0.0
  0
LINE
  5
21E
330
1F
100
AcDbEntity
  8
D-2
  6
Continuous
 62
     3
370
     9
100
AcDbLine
 10
446.7300827438768
 20
-322.6432429133234
 30
0.0
 11
446.7300827438768
 21
-232.8932313661317
 31
0.0
  0
LINE
  5
21F
330
1F
100
AcDbEntity
  8
D-2
  6
Continuous
 62
     3
370
     9
100
AcDbLine
 10
446.7300827438768
 20
-322.6432429133234
 30
0.0
 11
461.7301322318414
 21
-322.6432429133234
 31
0.0
  0
LINE
  5
220
330
1F
100
AcDbEntity
  8
D-2
  6
Continuous
 62
     3
370
     9
100
AcDbLine
 10
461.7301322318414
 20
-322.6432429133234
 30
0.0
 11
461.7301322318414
 21
-253.6706295528927
 31
0.0
  0
LINE
  5
221
330
1F
100
AcDbEntity
  8
D-2
  6
Continuous
 62
     3
370
     9
100
AcDbLine
 10
480.5922224714951
 20
-237.0543031434755
 30
0.0
 11
551.9800959406672
 21
-246.1291586386191
 31
0.0
  0
LINE
  5
222
330
1F
100
AcDbEntity
  8
D-2
  6
Continuous
 62
     3
370
     9
100
AcDbLine
 10
623.3678456899283
 20
-237.0543031434755
 30
0.0
 11
551.9800959406672
 21
-246.1291586386191
 31
0.0
  0
LINE
  5
223
330
1F
100
AcDbEntity
  8
D-2
  6
Continuous
 62
     3
370
     9
100
AcDbLine
 10
555.0390707479943
 20
-230.0591793575802
 30
0.0
 11
555.7190353805956
 21
-229.8382155959671
 31
0.0
  0
LINE
  5
224
330
1F
100
AcDbEntity
  8
D-2
  6
Continuous
 62
     3
370
     9
100
AcDbLine
 10
556.1207539326438
 20
-233.3878635715794
 30
0.0
 11
556.8005948453335
 21
-233.1670235298776
 31
0.0
  0
LINE
  5
225
330
1F
100
AcDbEntity
  8
D-2
  6
Continuous
 62
     3
370
     9
100
AcDbLine
 10
555.6206780510981
 20
-234.9266918285473
 30
0.0
 11
556.0408308699325
 21
-235.5050824139569
 31
0.0
  0
LINE
  5
226
330
1F
100
AcDbEntity
  8
D-2
  6
Continuous
 62
     3
370
     9
100
AcDbLine
 10
552.7889767208615
 20
-236.9840302338471
 30
0.0
 11
553.2093769795188
 21
-237.5624208192567
 31
0.0
  0
LINE
  5
227
330
1F
100
AcDbEntity
  8
D-2
  6
Continuous
 62
     3
370
     9
100
AcDbLine
 10
553.7301140862544
 20
-229.1081443992821
 30
0.0
 11
553.7301140862544
 21
-228.3931670317779
 31
0.0
  0
LINE
  5
228
330
1F
100
AcDbEntity
  8
D-2
  6
Continuous
 62
     3
370
     9
100
AcDbLine
 10
548.9211211333404
 20
-230.0591793575802
 30
0.0
 11
548.2410327808279
 21
-229.8382155959671
 31
0.0
  0
LINE
  5
229
330
1F
100
AcDbEntity
  8
D-2
  6
Continuous
 62
     3
370
     9
100
AcDbLine
 10
642.2300596494932
 20
-322.6432429133234
 30
0.0
 11
642.2300596494932
 21
-253.6706295528927
 31
0.0
  0
LINE
  5
22A
330
1F
100
AcDbEntity
  8
D-2
  6
Continuous
 62
     3
370
     9
100
AcDbLine
 10
657.2301091374578
 20
-322.6432429133234
 30
0.0
 11
642.2300596494932
 21
-322.6432429133234
 31
0.0
  0
LINE
  5
22B
330
1F
100
AcDbEntity
  8
D-2
  6
Continuous
 62
     3
370
     9
100
AcDbLine
 10
550.2300777950802
 20
-229.1081443992821
 30
0.0
 11
550.2300777950802
 21
-228.3931670317779
 31
0.0
  0
LINE
  5
22C
330
1F
100
AcDbEntity
  8
D-2
  6
Continuous
 62
     3
370
     9
100
AcDbLine
 10
547.8394379486908
 20
-233.3878635715794
 30
0.0
 11
547.1594733160896
 21
-233.1670235298776
 31
0.0
  0
LINE
  5
22D
330
1F
100
AcDbEntity
  8
D-2
  6
Continuous
 62
     3
370
     9
100
AcDbLine
 10
548.3393901103252
 20
-234.9266918285473
 30
0.0
 11
547.9192372914908
 21
-235.5050824139569
 31
0.0
  0
LINE
  5
22E
330
1F
100
AcDbEntity
  8
D-2
  6
Continuous
 62
     3
370
     9
100
AcDbLine
 10
551.1710914405617
 20
-236.9840302338471
 30
0.0
 11
550.7508149018158
 21
-237.5624208192567
 31
0.0
  0
LINE
  5
22F
330
1F
100
AcDbEntity
  8
D-2
  6
Continuous
 62
     3
370
     9
100
AcDbLine
 10
657.2301091374578
 20
-322.6432429133234
 30
0.0
 11
657.2301091374578
 21
-232.8932313661317
 31
0.0
  0
LINE
  5
230
330
1F
100
AcDbEntity
  8
D-2
  6
Continuous
 62
     3
370
     9
100
AcDbLine
 10
472.4800316063136
 20
-207.1431587837838
 30
0.0
 11
631.4800365551099
 21
-207.1431587837838
 31
0.0
  0
LINE
  5
231
330
1F
100
AcDbEntity
  8
D-2
  6
Continuous
 62
     3
370
     9
100
AcDbLine
 10
539.4800547006969
 20
-236.0263144003378
 30
0.0
 11
539.4800547006969
 21
-232.8932313661317
 31
0.0
  0
LINE
  5
232
330
1F
100
AcDbEntity
  8
D-2
  6
Continuous
 62
     3
370
     9
100
AcDbLine
 10
424.4800464527029
 20
-342.8932231181376
 30
0.0
 11
424.4800464527029
 21
-187.8932066221495
 31
0.0
  0
LINE
  5
233
330
1F
100
AcDbEntity
  8
D-2
  6
Continuous
 62
     3
370
     9
100
AcDbLine
 10
424.4800464527029
 20
-342.8932231181376
 30
0.0
 11
679.4800217087206
 21
-342.8932231181376
 31
0.0
  0
LINE
  5
234
330
1F
100
AcDbEntity
  8
D-2
  6
Continuous
 62
     3
370
     9
100
AcDbLine
 10
424.4800464527029
 20
-187.8932066221495
 30
0.0
 11
679.4800217087206
 21
-187.8932066221495
 31
0.0
  0
LINE
  5
235
330
1F
100
AcDbEntity
  8
D-2
  6
Continuous
 62
     3
370
     9
100
AcDbLine
 10
679.4800217087206
 20
-342.8932231181376
 30
0.0
 11
679.4800217087206
 21
-187.8932066221495
 31
0.0
  0
LINE
  5
236
330
1F
100
AcDbEntity
  8
D-4
  6
Continuous
 62
     7
370
     9
100
AcDbLine
 10
421.4901073558912
 20
-411.0181076462204
 30
0.0
 11
676.2813671215162
 21
-411.0181076462204
 31
0.0
  0
LINE
  5
237
330
1F
100
AcDbEntity
  8
D-4
  6
Continuous
 62
     7
370
     9
100
AcDbLine
 10
424.4800464527029
 20
-133.5123670423353
 30
0.0
 11
679.4800217087206
 21
-133.5123670423353
 31
0.0
  0
LINE
  5
238
330
1F
100
AcDbEntity
  8
D-4
  6
Continuous
 62
     7
370
     9
100
AcDbLine
 10
424.4800464527029
 20
-181.1961241026182
 30
0.0
 11
424.4800464527029
 21
-132.0123868375211
 31
0.0
  0
LINE
  5
239
330
1F
100
AcDbEntity
  8
D-4
  6
Continuous
 62
     7
370
     9
100
AcDbLine
 10
679.4800217087206
 20
-181.1961241026182
 30
0.0
 11
679.4800217087206
 21
-132.0123868375211
 31
0.0
  0
LINE
  5
23A
330
1F
100
AcDbEntity
  8
D-4
  6
Continuous
 62
     7
370
     9
100
AcDbLine
 10
734.3043971706081
 20
-342.8932231181376
 30
0.0
 11
734.3043971706081
 21
-187.8932066221495
 31
0.0
  0
LINE
  5
23B
330
1F
100
AcDbEntity
  8
D-4
  6
Continuous
 62
     7
370
     9
100
AcDbLine
 10
687.8432402739654
 20
-342.8932231181376
 30
0.0
 11
735.8043773754224
 21
-342.8932231181376
 31
0.0
  0
LINE
  5
23C
330
1F
100
AcDbEntity
  8
D-4
  6
Continuous
 62
     7
370
     9
100
AcDbLine
 10
687.8432402739654
 20
-187.8932066221495
 30
0.0
 11
735.8043773754224
 21
-187.8932066221495
 31
0.0
  0
LINE
  5
23D
330
1F
100
AcDbEntity
  8
D-4
  6
Continuous
 62
     7
370
     9
100
AcDbLine
 10
27.56281672297305
 20
-252.7205534239073
 30
0.0
 11
102.5626930030617
 21
-252.7205534239073
 31
0.0
  0
LINE
  5
23E
330
1F
100
AcDbEntity
  8
D-4
  6
Continuous
 62
     7
370
     9
100
AcDbLine
 10
27.56281672297305
 20
-275.4971416576489
 30
0.0
 11
27.56281672297305
 21
-251.2205422891152
 31
0.0
  0
LINE
  5
23F
330
1F
100
AcDbEntity
  8
D-4
  6
Continuous
 62
     7
370
     9
100
AcDbLine
 10
102.5626930030617
 20
-275.4971416576489
 30
0.0
 11
102.5626930030617
 21
-251.2205422891152
 31
0.0
  0
LINE
  5
240
330
1F
100
AcDbEntity
  8
D-4
  6
Continuous
 62
     7
370
     9
100
AcDbLine
 10
2.562734243032168
 20
-224.2498181317303
 30
0.0
 11
127.5626517630913
 21
-224.2498181317303
 31
0.0
  0
LINE
  5
241
330
1F
100
AcDbEntity
  8
D-4
  6
Continuous
 62
     7
370
     9
100
AcDbLine
 10
2.562734243032168
 20
-275.4971416576489
 30
0.0
 11
2.562734243032168
 21
-222.7498069969383
 31
0.0
  0
LINE
  5
242
330
1F
100
AcDbEntity
  8
D-4
  6
Continuous
 62
     7
370
     9
100
AcDbLine
 10
127.5626517630913
 20
-275.4971416576489
 30
0.0
 11
127.5626517630913
 21
-222.7498069969383
 31
0.0
  0
LINE
  5
243
330
1F
100
AcDbEntity
  8
D-4
  6
Continuous
 62
     7
370
     9
100
AcDbLine
 10
167.8339777766048
 20
-285.8057321084511
 30
0.0
 11
167.8339777766048
 21
-241.9749842463312
 31
0.0
  0
LINE
  5
244
330
1F
100
AcDbEntity
  8
D-4
  6
Continuous
 62
     7
370
     9
100
AcDbLine
 10
142.7797059755068
 20
-285.8057321084511
 30
0.0
 11
169.333957981419
 21
-285.8057321084511
 31
0.0
  0
LINE
  5
245
330
1F
100
AcDbEntity
  8
D-4
  6
Continuous
 62
     7
370
     9
100
AcDbLine
 10
142.7797059755068
 20
-282.805740768845
 30
0.0
 11
198.9434731973185
 21
-282.805740768845
 31
0.0
  0
LINE
  5
246
330
1F
100
AcDbEntity
  8
D-4
  6
Continuous
 62
     7
370
     9
100
AcDbLine
 10
197.4434929925043
 20
-332.8057510788376
 30
0.0
 11
197.4434929925043
 21
-282.805740768845
 31
0.0
  0
LINE
  5
247
330
1F
100
AcDbEntity
  8
D-4
  6
Continuous
 62
     7
370
     9
100
AcDbLine
 10
114.3090325432856
 20
-332.8057510788376
 30
0.0
 11
198.9434731973185
 21
-332.8057510788376
 31
0.0
  0
LINE
  5
248
330
1F
100
AcDbEntity
  8
D-4
  6
Continuous
 62
     7
370
     9
100
AcDbLine
 10
-88.90846871040964
 20
99.45952544341225
 30
0.0
 11
608.2826769029773
 21
99.45952544341225
 31
0.0
  0
LINE
  5
249
330
1F
100
AcDbEntity
  8
D-4
  6
Continuous
 62
     7
370
     9
100
AcDbLine
 10
663.4222906989021
 20
201.0459446262669
 30
0.0
 11
663.4222906989021
 21
346.0456806904562
 31
0.0
  0
LINE
  5
24A
330
1F
100
AcDbEntity
  8
D-4
  6
Continuous
 62
     7
370
     9
100
AcDbLine
 10
617.1467136692356
 20
201.0459446262669
 30
0.0
 11
664.9222709037165
 21
201.0459446262669
 31
0.0
  0
LINE
  5
24B
330
1F
100
AcDbEntity
  8
D-4
  6
Continuous
 62
     7
370
     9
100
AcDbLine
 10
213.2827346389359
 20
421.1889483477619
 30
0.0
 11
368.282751134924
 21
421.1889483477619
 31
0.0
  0
LINE
  5
24C
330
1F
100
AcDbEntity
  8
D-4
  6
Continuous
 62
     7
370
     9
100
AcDbLine
 10
213.2827346389359
 20
353.8370658255913
 30
0.0
 11
213.2827346389359
 21
422.688928552576
 31
0.0
  0
LINE
  5
24D
330
1F
100
AcDbEntity
  8
D-4
  6
Continuous
 62
     7
370
     9
100
AcDbLine
 10
368.282751134924
 20
353.8370658255913
 30
0.0
 11
368.282751134924
 21
422.688928552576
 31
0.0
  0
LINE
  5
24E
330
1F
100
AcDbEntity
  8
D-4
  6
Continuous
 62
     7
370
     9
100
AcDbLine
 10
483.4565858583193
 20
421.1889483477619
 30
0.0
 11
556.3029933620144
 21
421.1889483477619
 31
0.0
  0
LINE
  5
24F
330
1F
100
AcDbEntity
  8
D-4
  6
Continuous
 62
     7
370
     9
100
AcDbLine
 10
503.2827016469597
 20
353.8370658255913
 30
0.0
 11
503.2827016469597
 21
422.688928552576
 31
0.0
  0
LINE
  5
250
330
1F
100
AcDbEntity
  8
D-4
  6
Continuous
 62
     7
370
     9
100
AcDbLine
 10
520.7827593829182
 20
353.8370658255913
 30
0.0
 11
520.7827593829182
 21
422.688928552576
 31
0.0
  0
LINE
  5
251
330
1F
100
AcDbEntity
  8
D-4
  6
Continuous
 62
     7
370
     9
100
AcDbLine
 10
523.2827676309123
 20
353.8370658255913
 30
0.0
 11
523.2827676309123
 21
422.688928552576
 31
0.0
  0
LINE
  5
252
330
1F
100
AcDbEntity
  8
D-4
  6
Continuous
 62
     7
370
     9
100
AcDbLine
 10
540.7827016469596
 20
353.8370658255913
 30
0.0
 11
540.7827016469596
 21
523.8010055954392
 31
0.0
  0
LINE
  5
253
330
1F
100
AcDbEntity
  8
D-4
  6
Continuous
 62
     7
370
     9
100
AcDbLine
 10
290.78274288693
 20
475.7714513830237
 30
0.0
 11
540.7827016469596
 21
475.7714513830237
 31
0.0
  0
LINE
  5
254
330
1F
100
AcDbEntity
  8
D-4
  6
Continuous
 62
     7
370
     9
100
AcDbLine
 10
-88.90846871040964
 20
522.301025390625
 30
0.0
 11
540.7827016469596
 21
522.301025390625
 31
0.0
  0
LINE
  5
255
330
1F
100
AcDbEntity
  8
D-4
  6
Continuous
 62
     7
370
     9
100
AcDbLine
 10
290.78274288693
 20
364.9547844964105
 30
0.0
 11
290.78274288693
 21
409.7844469225084
 31
0.0
  0
LINE
  5
256
330
1F
100
AcDbEntity
  8
D-4
  6
Continuous
 62
     7
370
     9
100
AcDbLine
 10
525.7827758789062
 20
215.5654659786741
 30
0.0
 11
525.7827758789062
 21
97.95954523859805
 31
0.0
  0
LINE
  5
257
330
1F
100
AcDbEntity
  8
D-4
  6
Continuous
 62
     7
370
     9
100
AcDbLine
 10
534.311036805849
 20
221.045763170397
 30
0.0
 11
664.9222709037165
 21
221.045763170397
 31
0.0
  0
LINE
  5
258
330
1F
100
AcDbEntity
  8
D-4
  6
Continuous
 62
     7
370
     9
100
AcDbLine
 10
290.78274288693
 20
451.9172627217062
 30
0.0
 11
290.78274288693
 21
477.2714315878379
 31
0.0
  0
LINE
  5
259
330
1F
100
AcDbEntity
  8
D-4
  6
Continuous
 62
     7
370
     9
100
AcDbLine
 10
608.2826769029773
 20
195.3055881809544
 30
0.0
 11
608.2826769029773
 21
97.95954523859805
 31
0.0
  0
LINE
  5
25A
330
1F
100
AcDbEntity
  8
D-6
  6
Continuous
 62
     6
370
     5
100
AcDbLine
 10
719.5912541569891
 20
346.0454332506334
 30
0.0
 11
540.7827016469596
 21
346.0454332506334
 31
0.0
  0
LINE
  5
25B
330
1F
100
AcDbEntity
  8
D-4
  6
Continuous
 62
     7
370
     9
100
AcDbLine
 10
-87.43607804581927
 20
294.8347926784207
 30
0.0
 11
-87.43607804581927
 21
362.835214975718
 31
0.0
  0
LINE
  5
25C
330
1F
100
AcDbEntity
  8
D-4
  6
Continuous
 62
     7
370
     9
100
AcDbLine
 10
-68.69981095597552
 20
332.2956971864443
 30
0.0
 11
-88.93605825063332
 21
332.2956971864443
 31
0.0
  0
LINE
  5
25D
330
1F
100
AcDbEntity
  8
D-4
  6
Continuous
 62
     7
370
     9
100
AcDbLine
 10
-68.69981095597552
 20
338.5456559464739
 30
0.0
 11
-88.93605825063332
 21
338.5456559464739
 31
0.0
  0
LINE
  5
25E
330
1F
100
AcDbEntity
  8
D-4
  6
Continuous
 62
     7
370
     9
100
AcDbLine
 10
-68.69981095597552
 20
346.0456806904562
 30
0.0
 11
-88.93605825063332
 21
346.0456806904562
 31
0.0
  0
LINE
  5
25F
330
1F
100
AcDbEntity
  8
D-6
  6
Continuous
 62
     6
370
     5
100
AcDbLine
 10
652.5560946077915
 20
171.045660070471
 30
0.0
 11
577.6615039722342
 21
96.15106943491341
 31
0.0
  0
LINE
  5
260
330
1F
100
AcDbEntity
  8
D-6
  6
Continuous
 62
     6
370
     5
100
AcDbLine
 10
576.4015403953761
 20
94.89110585805534
 30
0.0
 11
540.7825779270481
 21
59.2721433897276
 31
0.0
  0
LINE
  5
261
330
1F
100
AcDbEntity
  8
D-6
  6
Continuous
 62
     6
370
     5
100
AcDbLine
 10
644.9063687711148
 20
171.045660070471
 30
0.0
 11
577.6615039722342
 21
103.8009189915013
 31
0.0
  0
LINE
  5
262
330
1F
100
AcDbEntity
  8
D-6
  6
Continuous
 62
     6
370
     5
100
AcDbLine
 10
568.751690838788
 20
94.89110585805534
 30
0.0
 11
540.7825779270481
 21
66.92205480627109
 31
0.0
  0
LINE
  5
263
330
1F
100
AcDbEntity
  8
D-6
  6
Continuous
 62
     6
370
     5
100
AcDbLine
 10
637.2565192145271
 20
171.045660070471
 30
0.0
 11
577.6615039722342
 21
111.4508304080448
 31
0.0
  0
LINE
  5
264
330
1F
100
AcDbEntity
  8
D-6
  6
Continuous
 62
     6
370
     5
100
AcDbLine
 10
561.1017175622891
 20
94.89110585805534
 30
0.0
 11
540.7825779270481
 21
74.57196622281472
 31
0.0
  0
LINE
  5
265
330
1F
100
AcDbEntity
  8
D-6
  6
Continuous
 62
     6
370
     5
100
AcDbLine
 10
540.7825779270481
 20
338.735071130701
 30
0.0
 11
548.0931874868033
 21
346.0455569705448
 31
0.0
  0
LINE
  5
266
330
1F
100
AcDbEntity
  8
D-6
  6
Continuous
 62
     6
370
     5
100
AcDbLine
 10
565.5931215028505
 20
338.5456559464739
 30
0.0
 11
573.0931462468328
 21
346.0455569705448
 31
0.0
  0
LINE
  5
267
330
1F
100
AcDbEntity
  8
D-6
  6
Continuous
 62
     6
370
     5
100
AcDbLine
 10
590.5932039827915
 20
338.5456559464739
 30
0.0
 11
598.0932287267738
 21
346.0455569705448
 31
0.0
  0
LINE
  5
268
330
1F
100
AcDbEntity
  8
D-6
  6
Continuous
 62
     6
370
     5
100
AcDbLine
 10
615.593162742821
 20
338.5456559464739
 30
0.0
 11
623.0931874868033
 21
346.0455569705448
 31
0.0
  0
LINE
  5
269
330
1F
100
AcDbEntity
  8
D-6
  6
Continuous
 62
     6
370
     5
100
AcDbLine
 10
640.5931215028505
 20
338.5456559464739
 30
0.0
 11
648.0931462468328
 21
346.0455569705448
 31
0.0
  0
LINE
  5
26A
330
1F
100
AcDbEntity
  8
D-6
  6
Continuous
 62
     6
370
     5
100
AcDbLine
 10
665.5932039827915
 20
338.5456559464739
 30
0.0
 11
673.0932287267738
 21
346.0455569705448
 31
0.0
  0
LINE
  5
26B
330
1F
100
AcDbEntity
  8
D-6
  6
Continuous
 62
     6
370
     5
100
AcDbLine
 10
690.593162742821
 20
338.5456559464739
 30
0.0
 11
697.0326604069891
 21
344.9850298907306
 31
0.0
  0
LINE
  5
26C
330
1F
100
AcDbEntity
  8
D-6
  6
Continuous
 62
     6
370
     5
100
AcDbLine
 10
719.5912541569891
 20
338.5456559464739
 30
0.0
 11
540.7825779270481
 21
338.5456559464739
 31
0.0
  0
LINE
  5
26D
330
1F
100
AcDbEntity
  8
D-2
  6
Continuous
 62
     3
370
     9
100
AcDbLine
 10
-21.71742207295182
 20
282.2957178064296
 30
0.0
 11
-2.717384132179035
 21
282.2957178064296
 31
0.0
  0
LINE
  5
26E
330
1F
100
AcDbEntity
  8
D-2
  6
Continuous
 62
     3
370
     9
100
AcDbLine
 10
6.282620816617452
 20
329.2957367768159
 30
0.0
 11
75.28257627744935
 21
329.2957367768159
 31
0.0
  0
LINE
  5
26F
330
1F
100
AcDbEntity
  8
D-2
  6
Continuous
 62
     3
370
     9
100
AcDbLine
 10
3.282536687077737
 20
326.2957763671875
 30
0.0
 11
3.282536687077737
 21
288.2957004856419
 31
0.0
  0
LINE
  5
270
330
1F
100
AcDbEntity
  8
D-2
  6
Continuous
 62
     3
370
     9
100
AcDbLine
 10
78.28253668707774
 20
326.2957763671875
 30
0.0
 11
78.28253668707774
 21
288.2957004856419
 31
0.0
  0
LINE
  5
271
330
1F
100
AcDbEntity
  8
D-2
  6
Continuous
 62
     3
370
     9
100
AcDbLine
 10
84.28270494615717
 20
282.2957178064296
 30
0.0
 11
103.2824954471073
 21
282.2957178064296
 31
0.0
  0
LINE
  5
272
330
1F
100
AcDbEntity
  8
D-2
  6
Continuous
 62
     3
370
     9
100
AcDbLine
 10
-21.71742207295182
 20
285.2956782160579
 30
0.0
 11
-2.717384132179035
 21
285.2956782160579
 31
0.0
  0
LINE
  5
273
330
1F
100
AcDbEntity
  8
D-2
  6
Continuous
 62
     3
370
     9
100
AcDbLine
 10
0.2825762774493512
 20
326.2957763671875
 30
0.0
 11
0.2825762774493512
 21
288.2957004856419
 31
0.0
  0
LINE
  5
274
330
1F
100
AcDbEntity
  8
D-2
  6
Continuous
 62
     3
370
     9
100
AcDbLine
 10
81.28274453652878
 20
326.2957763671875
 30
0.0
 11
81.28274453652878
 21
288.2957004856419
 31
0.0
  0
LINE
  5
275
330
1F
100
AcDbEntity
  8
D-2
  6
Continuous
 62
     3
370
     9
100
AcDbLine
 10
84.28270494615717
 20
285.2956782160579
 30
0.0
 11
103.2824954471073
 21
285.2956782160579
 31
0.0
  0
LINE
  5
276
330
1F
100
AcDbEntity
  8
D-2
  6
Continuous
 62
     3
370
     9
100
AcDbLine
 10
-21.71742207295182
 20
282.2957178064296
 30
0.0
 11
-21.71742207295182
 21
285.2956782160579
 31
0.0
  0
LINE
  5
277
330
1F
100
AcDbEntity
  8
D-2
  6
Continuous
 62
     3
370
     9
100
AcDbLine
 10
103.2824954471073
 20
282.2957178064296
 30
0.0
 11
103.2824954471073
 21
285.2956782160579
 31
0.0
  0
ARC
  5
278
330
1F
100
AcDbEntity
  8
D-2
  6
Continuous
 62
     3
370
     9
100
AcDbCircle
 10
244.5326521589951
 20
263.7956938872466
 30
0.0
 40
5.000000064437454
100
AcDbArc
 50
270.0
 51
0.0
  0
ARC
  5
279
330
1F
100
AcDbEntity
  8
D-2
  6
Continuous
 62
     3
370
     9
100
AcDbCircle
 10
232.0326109190245
 20
263.7956938872466
 30
0.0
 40
5.000000064437454
100
AcDbArc
 50
180.0
 51
270.0
  0
ARC
  5
27A
330
1F
100
AcDbEntity
  8
D-2
  6
Continuous
 62
     3
370
     9
100
AcDbCircle
 10
217.7827989732897
 20
273.5456889384503
 30
0.0
 40
3.999999809909511
100
AcDbArc
 50
180.0
 51
270.0
  0
ARC
  5
27B
330
1F
100
AcDbEntity
  8
D-2
  6
Continuous
 62
     3
370
     9
100
AcDbCircle
 10
349.5326274150128
 20
263.7956938872466
 30
0.0
 40
5.000000064437454
100
AcDbArc
 50
270.0
 51
0.0
  0
ARC
  5
27C
330
1F
100
AcDbEntity
  8
D-2
  6
Continuous
 62
     3
370
     9
100
AcDbCircle
 10
337.0325861750422
 20
263.7956938872466
 30
0.0
 40
5.000000064437454
100
AcDbArc
 50
180.0
 51
270.0
  0
ARC
  5
27D
330
1F
100
AcDbEntity
  8
D-2
  6
Continuous
 62
     3
370
     9
100
AcDbCircle
 10
363.7828105204815
 20
273.5456889384503
 30
0.0
 40
3.999999809909511
100
AcDbArc
 50
270.0
 51
0.0
  0
ARC
  5
27E
330
1F
100
AcDbEntity
  8
D-2
  6
Continuous
 62
     3
370
     9
100
AcDbCircle
 10
21.56277218380495
 20
-288.8057234480574
 30
0.0
 40
2.999999797022021
100
AcDbArc
 50
0.0
 51
90.0
  0
ARC
  5
27F
330
1F
100
AcDbEntity
  8
D-2
  6
Continuous
 62
     3
370
     9
100
AcDbCircle
 10
30.56277713260144
 20
-326.8057374696473
 30
0.0
 40
2.999999797022021
100
AcDbArc
 50
180.0
 51
270.0
  0
ARC
  5
280
330
1F
100
AcDbEntity
  8
D-2
  6
Continuous
 62
     3
370
     9
100
AcDbCircle
 10
99.56273259343334
 20
-326.8057374696473
 30
0.0
 40
2.999999797022021
100
AcDbArc
 50
270.0
 51
0.0
  0
ARC
  5
281
330
1F
100
AcDbEntity
  8
D-2
  6
Continuous
 62
     3
370
     9
100
AcDbCircle
 10
108.5628612621412
 20
-288.8057234480574
 30
0.0
 40
2.999999797022021
100
AcDbArc
 50
90.0
 51
180.0
  0
ARC
  5
282
330
1F
100
AcDbEntity
  8
D-2
  6
Continuous
 62
     3
370
     9
100
AcDbCircle
 10
21.56277218380495
 20
-288.8057234480574
 30
0.0
 40
5.999999594044041
100
AcDbArc
 50
0.0
 51
90.0
  0
ARC
  5
283
330
1F
100
AcDbEntity
  8
D-2
  6
Continuous
 62
     3
370
     9
100
AcDbCircle
 10
30.56277713260144
 20
-326.8057374696473
 30
0.0
 40
5.999999594044041
100
AcDbArc
 50
180.0
 51
270.0
  0
ARC
  5
284
330
1F
100
AcDbEntity
  8
D-2
  6
Continuous
 62
     3
370
     9
100
AcDbCircle
 10
99.56273259343334
 20
-326.8057374696473
 30
0.0
 40
5.999999594044041
100
AcDbArc
 50
270.0
 51
0.0
  0
ARC
  5
285
330
1F
100
AcDbEntity
  8
D-2
  6
Continuous
 62
     3
370
     9
100
AcDbCircle
 10
108.5628612621412
 20
-288.8057234480574
 30
0.0
 40
5.999999594044041
100
AcDbArc
 50
90.0
 51
180.0
  0
ARC
  5
286
330
1F
100
AcDbEntity
  8
D-1
  6
Continuous
 62
     2
370
     9
100
AcDbCircle
 10
541.9136253563136
 20
291.1447844634185
 30
0.0
 40
3.869156338073112
100
AcDbArc
 50
319.2452850341797
 51
40.75453186035159
  0
ARC
  5
287
330
1F
100
AcDbEntity
  8
D-1
  6
Continuous
 62
     2
370
     9
100
AcDbCircle
 10
541.9136253563136
 20
275.9465356775233
 30
0.0
 40
3.869135315353806
100
AcDbArc
 50
319.2448577880859
 51
40.75514221191403
  0
ARC
  5
288
330
1F
100
AcDbEntity
  8
D-1
  6
Continuous
 62
     2
370
     9
100
AcDbCircle
 10
531.5976117108321
 20
283.5456600704709
 30
0.0
 40
14.18523595139787
100
AcDbArc
 50
339.0444793701172
 51
20.95552062988286
  0
ARC
  5
289
330
1F
100
AcDbEntity
  8
0-2
  6
Continuous
 62
     3
370
     9
100
AcDbCircle
 10
-440.2269930452914
 20
-42.16785327808267
 30
0.0
 40
11.0000001417624
100
AcDbArc
 50
4.000930786132812
 51
90.0
  0
ARC
  5
28A
330
1F
100
AcDbEntity
  8
0-2
  6
Continuous
 62
     3
370
     9
100
AcDbCircle
 10
-442.6270356049408
 20
-50.47880018079596
 30
0.0
 40
5.999999594044041
100
AcDbArc
 50
0.0
 51
97.2445068359375
  0
CIRCLE
  5
28B
330
1F
100
AcDbEntity
  8
0-2
  6
Continuous
 62
     3
370
     9
100
AcDbCircle
 10
-472.027031151024
 20
-42.16785327808267
 30
0.0
 40
3.999999809909511
  0
ARC
  5
28C
330
1F
100
AcDbEntity
  8
0-2
  6
Continuous
 62
     3
370
     9
100
AcDbCircle
 10
-501.4269648371516
 20
-50.47880018079596
 30
0.0
 40
5.999999594044041
100
AcDbArc
 50
82.75547790527344
 51
180.0
  0
ARC
  5
28D
330
1F
100
AcDbEntity
  8
0-2
  6
Continuous
 62
     3
370
     9
100
AcDbCircle
 10
-503.827007396801
 20
-42.16785327808267
 30
0.0
 40
11.0000001417624
100
AcDbArc
 50
90.0
 51
180.0
  0
ARC
  5
28E
330
1F
100
AcDbEntity
  8
0-2
  6
Continuous
 62
     3
370
     9
100
AcDbCircle
 10
-472.027031151024
 20
-42.16785327808267
 30
0.0
 40
5.000000064437454
100
AcDbArc
 50
0.0
 51
180.0
  0
ARC
  5
28F
330
1F
100
AcDbEntity
  8
0-2
  6
Continuous
 62
     3
370
     9
100
AcDbCircle
 10
-442.6270356049408
 20
-50.47880018079596
 30
0.0
 40
6.700000086346188
100
AcDbArc
 50
2.685073852539062
 51
97.2445068359375
  0
ARC
  5
290
330
1F
100
AcDbEntity
  8
0-2
  6
Continuous
 62
     3
370
     9
100
AcDbCircle
 10
-473.1270248825485
 20
-40.65370714342265
 30
0.0
 40
0.4000000051549963
100
AcDbArc
 50
252.0
 51
359.999984741211
  0
ARC
  5
291
330
1F
100
AcDbEntity
  8
0-2
  6
Continuous
 62
     3
370
     9
100
AcDbCircle
 10
-472.027031151024
 20
-40.36766670845651
 30
0.0
 40
0.6999999486111307
100
AcDbArc
 50
90.0
 51
180.0
  0
ARC
  5
292
330
1F
100
AcDbEntity
  8
0-2
  6
Continuous
 62
     3
370
     9
100
AcDbCircle
 10
-473.0850219726562
 20
-43.62403663429049
 30
0.0
 40
0.6999999486111307
100
AcDbArc
 50
144.0
 51
324.0
  0
ARC
  5
293
330
1F
100
AcDbEntity
  8
0-2
  6
Continuous
 62
     3
370
     9
100
AcDbCircle
 10
-473.7389435639252
 20
-41.61160855679896
 30
0.0
 40
0.6999999486111307
100
AcDbArc
 50
71.99998474121094
 51
252.0
  0
ARC
  5
294
330
1F
100
AcDbEntity
  8
0-2
  6
Continuous
 62
     3
370
     9
100
AcDbCircle
 10
-473.8069276551942
 20
-42.74605828362539
 30
0.0
 40
0.4000000051549963
100
AcDbArc
 50
324.0
 51
71.99998474121094
  0
ARC
  5
295
330
1F
100
AcDbEntity
  8
0-2
  6
Continuous
 62
     3
370
     9
100
AcDbCircle
 10
-472.027031151024
 20
-40.36766670845651
 30
0.0
 40
0.6999999486111307
100
AcDbArc
 50
0.0
 51
90.0
  0
ARC
  5
296
330
1F
100
AcDbEntity
  8
0-2
  6
Continuous
 62
     3
370
     9
100
AcDbCircle
 10
-501.4269648371516
 20
-50.47880018079596
 30
0.0
 40
6.700000086346188
100
AcDbArc
 50
82.75547790527344
 51
179.9999847412109
  0
ARC
  5
297
330
1F
100
AcDbEntity
  8
0-2
  6
Continuous
 62
     3
370
     9
100
AcDbCircle
 10
-470.3151187381229
 20
-41.61160855679896
 30
0.0
 40
0.6999999486111307
100
AcDbArc
 50
288.0
 51
18.0
  0
ARC
  5
298
330
1F
100
AcDbEntity
  8
0-2
  6
Continuous
 62
     3
370
     9
100
AcDbCircle
 10
-470.3151187381229
 20
-41.61160855679896
 30
0.0
 40
0.6999999486111307
100
AcDbArc
 50
18.0
 51
108.0
  0
ARC
  5
299
330
1F
100
AcDbEntity
  8
0-2
  6
Continuous
 62
     3
370
     9
100
AcDbCircle
 10
-470.9269755595438
 20
-40.65370714342265
 30
0.0
 40
0.4000000051549963
100
AcDbArc
 50
180.0
 51
287.9999847412109
  0
ARC
  5
29A
330
1F
100
AcDbEntity
  8
0-2
  6
Continuous
 62
     3
370
     9
100
AcDbCircle
 10
-470.2471965068095
 20
-42.74605828362539
 30
0.0
 40
0.4000000051549963
100
AcDbArc
 50
108.0
 51
215.999984741211
  0
ARC
  5
29B
330
1F
100
AcDbEntity
  8
0-2
  6
Continuous
 62
     3
370
     9
100
AcDbCircle
 10
-470.9690403293919
 20
-43.62403663429049
 30
0.0
 40
0.6999999486111307
100
AcDbArc
 50
216.0
 51
36.0
  0
ARC
  5
29C
330
1F
100
AcDbEntity
  8
0-2
  6
Continuous
 62
     3
370
     9
100
AcDbCircle
 10
-472.027031151024
 20
-44.03917879671667
 30
0.0
 40
0.4000000051549963
100
AcDbArc
 50
36.0
 51
143.999984741211
  0
ARC
  5
29D
330
1F
100
AcDbEntity
  8
0-2
  6
Continuous
 62
     3
370
     9
100
AcDbCircle
 10
-503.827007396801
 20
-42.16785327808267
 30
0.0
 40
10.30000061602206
100
AcDbArc
 50
89.99998474121092
 51
179.9999847412109
  0
ARC
  5
29E
330
1F
100
AcDbEntity
  8
0-2
  6
Continuous
 62
     3
370
     9
100
AcDbCircle
 10
-440.2269930452914
 20
-42.16785327808267
 30
0.0
 40
10.30000061602206
100
AcDbArc
 50
2.138015747070313
 51
89.99998474121092
  0
ARC
  5
29F
330
1F
100
AcDbEntity
  8
0-2
  6
Continuous
 62
     3
370
     9
100
AcDbCircle
 10
-464.0269923854518
 20
-43.42107411977409
 30
0.0
 40
2.999999797022021
100
AcDbArc
 50
180.0
 51
277.2445068359375
  0
ARC
  5
2A0
330
1F
100
AcDbEntity
  8
0-2
  6
Continuous
 62
     3
370
     9
100
AcDbCircle
 10
-480.0270080566406
 20
-43.42107411977409
 30
0.0
 40
2.999999797022021
100
AcDbArc
 50
262.7554779052734
 51
0.0000000000000127
  0
ARC
  5
2A1
330
1F
100
AcDbEntity
  8
0-2
  6
Continuous
 62
     3
370
     9
100
AcDbCircle
 10
-480.0270080566406
 20
183.0855251002957
 30
0.0
 40
2.999999797022021
100
AcDbArc
 50
0.0
 51
97.2445068359375
  0
ARC
  5
2A2
330
1F
100
AcDbEntity
  8
0-2
  6
Continuous
 62
     3
370
     9
100
AcDbCircle
 10
-464.0269923854518
 20
183.0855251002957
 30
0.0
 40
2.999999797022021
100
AcDbArc
 50
82.75547790527344
 51
180.0
  0
ARC
  5
2A3
330
1F
100
AcDbEntity
  8
0-2
  6
Continuous
 62
     3
370
     9
100
AcDbCircle
 10
-440.2269930452914
 20
181.8323042586043
 30
0.0
 40
10.30000061602206
100
AcDbArc
 50
270.0
 51
359.999984741211
  0
ARC
  5
2A4
330
1F
100
AcDbEntity
  8
0-2
  6
Continuous
 62
     3
370
     9
100
AcDbCircle
 10
-503.827007396801
 20
181.8323042586043
 30
0.0
 40
10.30000061602206
100
AcDbArc
 50
180.0
 51
270.0
  0
ARC
  5
2A5
330
1F
100
AcDbEntity
  8
0-2
  6
Continuous
 62
     3
370
     9
100
AcDbCircle
 10
-472.027031151024
 20
183.7036297772383
 30
0.0
 40
0.4000000051549963
100
AcDbArc
 50
216.0
 51
324.0
  0
ARC
  5
2A6
330
1F
100
AcDbEntity
  8
0-2
  6
Continuous
 62
     3
370
     9
100
AcDbCircle
 10
-470.9690403293919
 20
183.2884876148121
 30
0.0
 40
0.6999999486111307
100
AcDbArc
 50
53.99998474121094
 51
144.0
  0
ARC
  5
2A7
330
1F
100
AcDbEntity
  8
0-2
  6
Continuous
 62
     3
370
     9
100
AcDbCircle
 10
-470.9690403293919
 20
183.2884876148121
 30
0.0
 40
0.6999999486111307
100
AcDbArc
 50
324.0
 51
54.0
  0
ARC
  5
2A8
330
1F
100
AcDbEntity
  8
0-2
  6
Continuous
 62
     3
370
     9
100
AcDbCircle
 10
-470.2471965068095
 20
182.4105711241026
 30
0.0
 40
0.4000000051549963
100
AcDbArc
 50
144.0
 51
252.0
  0
ARC
  5
2A9
330
1F
100
AcDbEntity
  8
0-2
  6
Continuous
 62
     3
370
     9
100
AcDbCircle
 10
-470.9269755595438
 20
180.3182199839
 30
0.0
 40
0.4000000051549963
100
AcDbArc
 50
72.0
 51
180.0
  0
ARC
  5
2AA
330
1F
100
AcDbEntity
  8
0-2
  6
Continuous
 62
     3
370
     9
100
AcDbCircle
 10
-470.3151187381229
 20
181.2760595373206
 30
0.0
 40
0.6999999486111307
100
AcDbArc
 50
252.0
 51
72.0
  0
ARC
  5
2AB
330
1F
100
AcDbEntity
  8
0-2
  6
Continuous
 62
     3
370
     9
100
AcDbCircle
 10
-501.4269648371516
 20
190.1432511613176
 30
0.0
 40
6.700000086346188
100
AcDbArc
 50
180.0
 51
277.2445068359375
  0
ARC
  5
2AC
330
1F
100
AcDbEntity
  8
0-2
  6
Continuous
 62
     3
370
     9
100
AcDbCircle
 10
-472.027031151024
 20
180.0321176889781
 30
0.0
 40
0.6999999486111307
100
AcDbArc
 50
180.0
 51
0.0
  0
ARC
  5
2AD
330
1F
100
AcDbEntity
  8
0-2
  6
Continuous
 62
     3
370
     9
100
AcDbCircle
 10
-473.8069276551942
 20
182.4105711241026
 30
0.0
 40
0.4000000051549963
100
AcDbArc
 50
288.0
 51
36.0
  0
ARC
  5
2AE
330
1F
100
AcDbEntity
  8
0-2
  6
Continuous
 62
     3
370
     9
100
AcDbCircle
 10
-473.7389435639252
 20
181.2760595373206
 30
0.0
 40
0.6999999486111307
100
AcDbArc
 50
108.0
 51
288.0
  0
ARC
  5
2AF
330
1F
100
AcDbEntity
  8
0-2
  6
Continuous
 62
     3
370
     9
100
AcDbCircle
 10
-473.0850219726562
 20
183.2884876148121
 30
0.0
 40
0.6999999486111307
100
AcDbArc
 50
36.0
 51
216.0
  0
ARC
  5
2B0
330
1F
100
AcDbEntity
  8
0-2
  6
Continuous
 62
     3
370
     9
100
AcDbCircle
 10
-473.1270248825485
 20
180.3182199839
 30
0.0
 40
0.4000000051549963
100
AcDbArc
 50
1.146835327148438
 51
108.0
  0
ARC
  5
2B1
330
1F
100
AcDbEntity
  8
0-2
  6
Continuous
 62
     3
370
     9
100
AcDbCircle
 10
-442.6270356049408
 20
190.1432511613176
 30
0.0
 40
6.700000086346188
100
AcDbArc
 50
262.7554779052734
 51
359.999984741211
  0
ARC
  5
2B2
330
1F
100
AcDbEntity
  8
0-2
  6
Continuous
 62
     3
370
     9
100
AcDbCircle
 10
-472.027031151024
 20
181.8323042586043
 30
0.0
 40
5.000000064437454
100
AcDbArc
 50
179.9999847412109
 51
0.0
  0
ARC
  5
2B3
330
1F
100
AcDbEntity
  8
0-2
  6
Continuous
 62
     3
370
     9
100
AcDbCircle
 10
-503.827007396801
 20
181.8323042586043
 30
0.0
 40
11.0000001417624
100
AcDbArc
 50
180.0
 51
270.0
  0
ARC
  5
2B4
330
1F
100
AcDbEntity
  8
0-2
  6
Continuous
 62
     3
370
     9
100
AcDbCircle
 10
-501.4269648371516
 20
190.1432511613176
 30
0.0
 40
5.999999594044041
100
AcDbArc
 50
180.0
 51
277.2445068359375
  0
CIRCLE
  5
2B5
330
1F
100
AcDbEntity
  8
0-2
  6
Continuous
 62
     3
370
     9
100
AcDbCircle
 10
-472.027031151024
 20
181.8323042586043
 30
0.0
 40
3.999999809909511
  0
ARC
  5
2B6
330
1F
100
AcDbEntity
  8
0-2
  6
Continuous
 62
     3
370
     9
100
AcDbCircle
 10
-442.6270356049408
 20
190.1432511613176
 30
0.0
 40
5.999999594044041
100
AcDbArc
 50
262.7554779052734
 51
0.0000000000000127
  0
ARC
  5
2B7
330
1F
100
AcDbEntity
  8
0-2
  6
Continuous
 62
     3
370
     9
100
AcDbCircle
 10
-440.2269930452914
 20
181.8323042586043
 30
0.0
 40
11.0000001417624
100
AcDbArc
 50
270.0
 51
0.0
  0
ARC
  5
2B8
330
1F
100
AcDbEntity
  8
0-1
  6
Continuous
 62
     2
370
     9
100
AcDbCircle
 10
-562.5666541022223
 20
295.2844526961043
 30
0.0
 40
1.547662631885426
100
AcDbArc
 50
49.24528503417969
 51
130.7545318603516
  0
ARC
  5
2B9
330
1F
100
AcDbEntity
  8
0-1
  6
Continuous
 62
     2
370
     9
100
AcDbCircle
 10
-556.4873360298775
 20
295.2844526961043
 30
0.0
 40
1.547654053649387
100
AcDbArc
 50
49.24485778808594
 51
130.7551422119141
  0
ARC
  5
2BA
330
1F
100
AcDbEntity
  8
0-1
  6
Continuous
 62
     2
370
     9
100
AcDbCircle
 10
-559.526979601061
 20
291.1581462138409
 30
0.0
 40
5.674094767183871
100
AcDbArc
 50
69.04447937011719
 51
110.9555206298828
  0
ARC
  5
2BB
330
1F
100
AcDbEntity
  8
0-1
  6
Continuous
 62
     2
370
     9
100
AcDbCircle
 10
-381.4873772698479
 20
295.2844526961043
 30
0.0
 40
1.547662631885426
100
AcDbArc
 50
49.24546813964844
 51
130.7547149658203
  0
ARC
  5
2BC
330
1F
100
AcDbEntity
  8
0-1
  6
Continuous
 62
     2
370
     9
100
AcDbCircle
 10
-387.5667262721706
 20
295.2844526961043
 30
0.0
 40
1.547654053649387
100
AcDbArc
 50
49.24485778808594
 51
130.7551422119141
  0
ARC
  5
2BD
330
1F
100
AcDbEntity
  8
0-1
  6
Continuous
 62
     2
370
     9
100
AcDbCircle
 10
-384.5270517710093
 20
291.1581462138409
 30
0.0
 40
5.674094767183871
100
AcDbArc
 50
69.04447937011719
 51
110.9555206298828
  0
ARC
  5
2BE
330
1F
100
AcDbEntity
  8
0-1
  6
Continuous
 62
     2
370
     9
100
AcDbCircle
 10
-697.4794130067568
 20
-20.7073974609375
 30
0.0
 40
1.547662631885426
100
AcDbArc
 50
139.2452850341797
 51
220.7545318603516
  0
ARC
  5
2BF
330
1F
100
AcDbEntity
  8
0-1
  6
Continuous
 62
     2
370
     9
100
AcDbCircle
 10
-697.4794130067568
 20
-14.62811031857044
 30
0.0
 40
1.547654053649387
100
AcDbArc
 50
139.2448577880859
 51
220.7551422119141
  0
ARC
  5
2C0
330
1F
100
AcDbEntity
  8
0-1
  6
Continuous
 62
     2
370
     9
100
AcDbCircle
 10
-693.3529518746042
 20
-17.66778481973176
 30
0.0
 40
5.674094767183871
100
AcDbArc
 50
159.0444793701172
 51
200.9555206298828
  0
ARC
  5
2C1
330
1F
100
AcDbEntity
  8
0-1
  6
Continuous
 62
     2
370
     9
100
AcDbCircle
 10
-697.4794130067568
 20
160.3718484414591
 30
0.0
 40
1.547662631885426
100
AcDbArc
 50
139.2454681396484
 51
220.7547149658203
  0
ARC
  5
2C2
330
1F
100
AcDbEntity
  8
0-1
  6
Continuous
 62
     2
370
     9
100
AcDbCircle
 10
-697.4794130067568
 20
154.2924994391365
 30
0.0
 40
1.547654053649387
100
AcDbArc
 50
139.2448577880859
 51
220.7551422119141
  0
ARC
  5
2C3
330
1F
100
AcDbEntity
  8
0-1
  6
Continuous
 62
     2
370
     9
100
AcDbCircle
 10
-693.3529518746042
 20
157.3322976602091
 30
0.0
 40
5.674094767183871
100
AcDbArc
 50
159.0444793701172
 51
200.9555206298828
  0
ARC
  5
2C4
330
1F
100
AcDbEntity
  8
0-1
  6
Continuous
 62
     2
370
     9
100
AcDbCircle
 10
-381.4875009897593
 20
-155.6200635755384
 30
0.0
 40
1.547662631885426
100
AcDbArc
 50
229.2452850341797
 51
310.7545318603516
  0
ARC
  5
2C5
330
1F
100
AcDbEntity
  8
0-1
  6
Continuous
 62
     2
370
     9
100
AcDbCircle
 10
-387.5668499920819
 20
-155.6200635755384
 30
0.0
 40
1.547654053649387
100
AcDbArc
 50
229.2448577880859
 51
310.7551422119141
  0
ARC
  5
2C6
330
1F
100
AcDbEntity
  8
0-1
  6
Continuous
 62
     2
370
     9
100
AcDbCircle
 10
-384.5271754909206
 20
-151.4936952333192
 30
0.0
 40
5.674094767183871
100
AcDbArc
 50
249.0444793701172
 51
290.9555206298828
  0
ARC
  5
2C7
330
1F
100
AcDbEntity
  8
0-1
  6
Continuous
 62
     2
370
     9
100
AcDbCircle
 10
-562.5667778221336
 20
-155.6200635755384
 30
0.0
 40
1.547662631885426
100
AcDbArc
 50
229.2454681396485
 51
310.7547149658204
  0
ARC
  5
2C8
330
1F
100
AcDbEntity
  8
0-1
  6
Continuous
 62
     2
370
     9
100
AcDbCircle
 10
-556.487428819811
 20
-155.6200635755384
 30
0.0
 40
1.547654053649387
100
AcDbArc
 50
229.2448577880859
 51
310.7551422119141
  0
ARC
  5
2C9
330
1F
100
AcDbEntity
  8
0-1
  6
Continuous
 62
     2
370
     9
100
AcDbCircle
 10
-559.5271033209723
 20
-151.4936952333192
 30
0.0
 40
5.674094767183871
100
AcDbArc
 50
249.0444793701172
 51
290.9555206298828
  0
ARC
  5
2CA
330
1F
100
AcDbEntity
  8
0-1
  6
Continuous
 62
     2
370
     9
100
AcDbCircle
 10
-246.5748967351139
 20
160.3718484414591
 30
0.0
 40
1.547662631885426
100
AcDbArc
 50
319.2452850341797
 51
40.75453186035159
  0
ARC
  5
2CB
330
1F
100
AcDbEntity
  8
0-1
  6
Continuous
 62
     2
370
     9
100
AcDbCircle
 10
-246.5748967351139
 20
154.2925612990921
 30
0.0
 40
1.547654053649387
100
AcDbArc
 50
319.2448577880859
 51
40.75514221191403
  0
ARC
  5
2CC
330
1F
100
AcDbEntity
  8
0-1
  6
Continuous
 62
     2
370
     9
100
AcDbCircle
 10
-250.7013269372888
 20
157.3322976602091
 30
0.0
 40
5.674094767183871
100
AcDbArc
 50
339.0444793701172
 51
20.95552062988286
  0
ARC
  5
2CD
330
1F
100
AcDbEntity
  8
0-1
  6
Continuous
 62
     2
370
     9
100
AcDbCircle
 10
-246.5748967351139
 20
-20.7073974609375
 30
0.0
 40
1.547662631885426
100
AcDbArc
 50
319.2454681396485
 51
40.75471496582035
  0
ARC
  5
2CE
330
1F
100
AcDbEntity
  8
0-1
  6
Continuous
 62
     2
370
     9
100
AcDbCircle
 10
-246.5748967351139
 20
-14.62804845861484
 30
0.0
 40
1.547654053649387
100
AcDbArc
 50
319.2448577880859
 51
40.75514221191403
  0
ARC
  5
2CF
330
1F
100
AcDbEntity
  8
0-1
  6
Continuous
 62
     2
370
     9
100
AcDbCircle
 10
-250.7013269372888
 20
-17.66778481973176
 30
0.0
 40
5.674094767183871
100
AcDbArc
 50
339.0444793701172
 51
20.95552062988286
  0
ARC
  5
2D0
330
1F
100
AcDbEntity
  8
D-2
  6
Continuous
 62
     3
370
     9
100
AcDbCircle
 10
472.4800316063136
 20
-232.8932313661317
 30
0.0
 40
27.49999793800148
100
AcDbArc
 50
90.0
 51
180.0
  0
ARC
  5
2D1
330
1F
100
AcDbEntity
  8
D-2
  6
Continuous
 62
     3
370
     9
100
AcDbCircle
 10
478.4800761454815
 20
-253.6706295528927
 30
0.0
 40
14.99999922675056
100
AcDbArc
 50
82.75547790527344
 51
180.0
  0
CIRCLE
  5
2D2
330
1F
100
AcDbEntity
  8
D-2
  6
Continuous
 62
     3
370
     9
100
AcDbCircle
 10
551.9800959406672
 20
-232.8932313661317
 30
0.0
 40
9.9999991623131
  0
ARC
  5
2D3
330
1F
100
AcDbEntity
  8
D-2
  6
Continuous
 62
     3
370
     9
100
AcDbCircle
 10
625.4801157358531
 20
-253.6706295528927
 30
0.0
 40
14.99999922675056
100
AcDbArc
 50
7.016464233398438
 51
97.2445068359375
  0
ARC
  5
2D4
330
1F
100
AcDbEntity
  8
D-2
  6
Continuous
 62
     3
370
     9
100
AcDbCircle
 10
631.4800365551099
 20
-232.8932313661317
 30
0.0
 40
27.49999793800148
100
AcDbArc
 50
4.395706176757812
 51
90.00000000000001
  0
ARC
  5
2D5
330
1F
100
AcDbEntity
  8
D-2
  6
Continuous
 62
     3
370
     9
100
AcDbCircle
 10
551.9800959406672
 20
-232.8932313661317
 30
0.0
 40
12.50000064437454
100
AcDbArc
 50
359.999984741211
 51
180.0
  0
ARC
  5
2D6
330
1F
100
AcDbEntity
  8
D-2
  6
Continuous
 62
     3
370
     9
100
AcDbCircle
 10
478.4800761454815
 20
-253.6706295528927
 30
0.0
 40
16.74999997422502
100
AcDbArc
 50
82.75547790527344
 51
179.9999847412109
  0
ARC
  5
2D7
330
1F
100
AcDbEntity
  8
D-2
  6
Continuous
 62
     3
370
     9
100
AcDbCircle
 10
554.7300184095229
 20
-229.1081443992821
 30
0.0
 40
0.9999999524773778
100
AcDbArc
 50
180.0
 51
288.0
  0
ARC
  5
2D8
330
1F
100
AcDbEntity
  8
D-2
  6
Continuous
 62
     3
370
     9
100
AcDbCircle
 10
551.9800959406672
 20
-228.3931670317779
 30
0.0
 40
1.749999901732883
100
AcDbArc
 50
0.0
 51
90.0
  0
ARC
  5
2D9
330
1F
100
AcDbEntity
  8
D-2
  6
Continuous
 62
     3
370
     9
100
AcDbCircle
 10
554.6251039247255
 20
-236.5336897566512
 30
0.0
 40
1.749999901732883
100
AcDbArc
 50
216.0
 51
36.0
  0
ARC
  5
2DA
330
1F
100
AcDbEntity
  8
D-2
  6
Continuous
 62
     3
370
     9
100
AcDbCircle
 10
556.2598151129646
 20
-231.5026195629223
 30
0.0
 40
1.749999901732883
100
AcDbArc
 50
17.99998474121094
 51
108.0
  0
ARC
  5
2DB
330
1F
100
AcDbEntity
  8
D-2
  6
Continuous
 62
     3
370
     9
100
AcDbCircle
 10
556.2598151129646
 20
-231.5026195629223
 30
0.0
 40
1.749999901732883
100
AcDbArc
 50
288.0
 51
18.0
  0
ARC
  5
2DC
330
1F
100
AcDbEntity
  8
D-2
  6
Continuous
 62
     3
370
     9
100
AcDbCircle
 10
556.4296825512037
 20
-234.3388985298776
 30
0.0
 40
0.9999999524773778
100
AcDbArc
 50
108.0
 51
216.0
  0
ARC
  5
2DD
330
1F
100
AcDbEntity
  8
D-2
  6
Continuous
 62
     3
370
     9
100
AcDbCircle
 10
551.9800959406672
 20
-228.3931670317779
 30
0.0
 40
1.749999901732883
100
AcDbArc
 50
89.99998474121092
 51
180.0
  0
ARC
  5
2DE
330
1F
100
AcDbEntity
  8
D-2
  6
Continuous
 62
     3
370
     9
100
AcDbCircle
 10
625.4801157358531
 20
-253.6706295528927
 30
0.0
 40
16.74999997422502
100
AcDbArc
 50
2.834869384765625
 51
97.24450683593751
  0
ARC
  5
2DF
330
1F
100
AcDbEntity
  8
D-2
  6
Continuous
 62
     3
370
     9
100
AcDbCircle
 10
547.7002530484585
 20
-231.5026195629223
 30
0.0
 40
1.749999901732883
100
AcDbArc
 50
71.99998474121094
 51
252.0
  0
ARC
  5
2E0
330
1F
100
AcDbEntity
  8
D-2
  6
Continuous
 62
     3
370
     9
100
AcDbCircle
 10
549.2300497519005
 20
-229.1081443992821
 30
0.0
 40
0.9999999524773778
100
AcDbArc
 50
252.0
 51
0.0
  0
ARC
  5
2E1
330
1F
100
AcDbEntity
  8
D-2
  6
Continuous
 62
     3
370
     9
100
AcDbCircle
 10
547.530509330131
 20
-234.3388985298776
 30
0.0
 40
0.9999999524773778
100
AcDbArc
 50
324.0
 51
72.0
  0
ARC
  5
2E2
330
1F
100
AcDbEntity
  8
D-2
  6
Continuous
 62
     3
370
     9
100
AcDbCircle
 10
549.3350879566092
 20
-236.5336897566512
 30
0.0
 40
1.749999901732883
100
AcDbArc
 50
144.0
 51
324.0
  0
ARC
  5
2E3
330
1F
100
AcDbEntity
  8
D-2
  6
Continuous
 62
     3
370
     9
100
AcDbCircle
 10
551.9800959406672
 20
-237.5716998126055
 30
0.0
 40
0.9999999524773778
100
AcDbArc
 50
36.0
 51
144.0
  0
ARC
  5
2E4
330
1F
100
AcDbEntity
  8
D-2
  6
Continuous
 62
     3
370
     9
100
AcDbCircle
 10
631.4800365551099
 20
-232.8932313661317
 30
0.0
 40
25.74999912365063
100
AcDbArc
 50
2.2451171875
 51
90.0
  0
ARC
  5
2E5
330
1F
100
AcDbEntity
  8
D-2
  6
Continuous
 62
     3
370
     9
100
AcDbCircle
 10
472.4800316063136
 20
-232.8932313661317
 30
0.0
 40
25.74999912365063
100
AcDbArc
 50
90.0
 51
179.9999847412109
  0
ARC
  5
2E6
330
1F
100
AcDbEntity
  8
D-2
  6
Continuous
 62
     3
370
     9
100
AcDbCircle
 10
531.9800299567146
 20
-236.0263144003378
 30
0.0
 40
7.499999613375278
100
AcDbArc
 50
262.7554779052734
 51
0.0000000000000127
  0
ARC
  5
2E7
330
1F
100
AcDbEntity
  8
D-2
  6
Continuous
 62
     3
370
     9
100
AcDbCircle
 10
571.9800382047085
 20
-236.0263144003378
 30
0.0
 40
7.499999613375278
100
AcDbArc
 50
180.0
 51
277.2445068359375
  0
ARC
  5
2E8
330
1F
100
AcDbEntity
  8
D-2
  6
Continuous
 62
     3
370
     9
100
AcDbCircle
 10
-2.717384132179035
 20
288.2957004856419
 30
0.0
 40
2.999999797022021
100
AcDbArc
 50
270.0
 51
0.0
  0
ARC
  5
2E9
330
1F
100
AcDbEntity
  8
D-2
  6
Continuous
 62
     3
370
     9
100
AcDbCircle
 10
6.282620816617452
 20
326.2957763671875
 30
0.0
 40
2.999999797022021
100
AcDbArc
 50
90.0
 51
180.0
  0
ARC
  5
2EA
330
1F
100
AcDbEntity
  8
D-2
  6
Continuous
 62
     3
370
     9
100
AcDbCircle
 10
75.28257627744935
 20
326.2957763671875
 30
0.0
 40
2.999999797022021
100
AcDbArc
 50
0.0
 51
90.0
  0
ARC
  5
2EB
330
1F
100
AcDbEntity
  8
D-2
  6
Continuous
 62
     3
370
     9
100
AcDbCircle
 10
84.28270494615717
 20
288.2957004856419
 30
0.0
 40
2.999999797022021
100
AcDbArc
 50
180.0
 51
270.0
  0
ARC
  5
2EC
330
1F
100
AcDbEntity
  8
D-2
  6
Continuous
 62
     3
370
     9
100
AcDbCircle
 10
-2.717384132179035
 20
288.2957004856419
 30
0.0
 40
5.999999594044041
100
AcDbArc
 50
270.0
 51
0.0
  0
ARC
  5
2ED
330
1F
100
AcDbEntity
  8
D-2
  6
Continuous
 62
     3
370
     9
100
AcDbCircle
 10
6.282620816617452
 20
326.2957763671875
 30
0.0
 40
5.999999594044041
100
AcDbArc
 50
90.0
 51
180.0
  0
ARC
  5
2EE
330
1F
100
AcDbEntity
  8
D-2
  6
Continuous
 62
     3
370
     9
100
AcDbCircle
 10
75.28257627744935
 20
326.2957763671875
 30
0.0
 40
5.999999594044041
100
AcDbArc
 50
0.0
 51
90.0
  0
ARC
  5
2EF
330
1F
100
AcDbEntity
  8
D-2
  6
Continuous
 62
     3
370
     9
100
AcDbCircle
 10
84.28270494615717
 20
288.2957004856419
 30
0.0
 40
5.999999594044041
100
AcDbArc
 50
180.0
 51
270.0
  0
TEXT
  5
2F0
330
1F
100
AcDbEntity
  8
D-4
  6
Continuous
 62
     2
370
     9
100
AcDbText
 10
125.354655497783
 20
35.24529379354949
 30
0.0
 40
15.24
  1
断面詳細図　Ｓ＝１：２
 41
1.113636363636364
  7
ＭＳ ゴシック
100
AcDbText
  0
TEXT
  5
2F1
330
1F
100
AcDbEntity
  8
D-4
  6
Continuous
 62
     2
370
     9
100
AcDbText
 10
-25.86861893937396
 20
-421.0163564980996
 30
0.0
 40
15.24
  1
補強材詳細図　Ｓ＝１：２
 41
1.114583333333333
  7
ＭＳ ゴシック
100
AcDbText
  0
TEXT
  5
2F2
330
1F
100
AcDbEntity
  8
0-4
  6
Continuous
 62
     2
370
     9
100
AcDbText
 10
-488.2770715403348
 20
361.4687806165352
 30
0.0
 40
15.24
  1
410
 50
359.9995637764703
 41
1.083333333333333
  7
ＭＳ ゴシック
100
AcDbText
  0
TEXT
  5
2F3
330
1F
100
AcDbEntity
  8
0-4
  6
Continuous
 62
     2
370
     9
100
AcDbText
 10
-488.2771144806827
 20
398.5650825457803
 30
0.0
 40
15.24
  1
434
 50
0.0004362235297269
 41
1.083333333333333
  7
ＭＳ ゴシック
100
AcDbText
  0
TEXT
  5
2F4
330
1F
100
AcDbEntity
  8
0-4
  6
Continuous
 62
     2
370
     9
100
AcDbText
 10
-488.2770930109797
 20
434.6616038719384
 30
0.0
 40
15.24
  1
450
 41
1.083333333333333
  7
ＭＳ ゴシック
100
AcDbText
  0
TEXT
  5
2F5
330
1F
100
AcDbEntity
  8
0-4
  6
Continuous
 62
     2
370
     9
100
AcDbText
 10
-758.3737868190457
 20
53.58213270032728
 30
0.0
 40
15.24
  1
410
 50
90.0
 41
1.083333333333333
  7
ＭＳ ゴシック
100
AcDbText
  0
TEXT
  5
2F6
330
1F
100
AcDbEntity
  8
0-4
  6
Continuous
 62
     2
370
     9
100
AcDbText
 10
-799.8847244840055
 20
53.58213270032728
 30
0.0
 40
15.24
  1
434
 50
90.0
 41
1.083333333333333
  7
ＭＳ ゴシック
100
AcDbText
  0
TEXT
  5
2F7
330
1F
100
AcDbEntity
  8
0-4
  6
Continuous
 62
     2
370
     9
100
AcDbText
 10
-832.3715782124287
 20
53.58213270032728
 30
0.0
 40
15.24
  1
450
 50
90.0
 41
1.083333333333333
  7
ＭＳ ゴシック
100
AcDbText
  0
TEXT
  5
2F8
330
1F
100
AcDbEntity
  8
0-4
  6
Continuous
 62
     2
370
     9
100
AcDbText
 10
-589.2714557132205
 20
-275.6220776367188
 30
0.0
 40
15.24
  1
平面詳細図　Ｓ＝１：５
 41
1.113636363636364
  7
ＭＳ ゴシック
100
AcDbText
  0
TEXT
  5
2F9
330
1F
100
AcDbEntity
  8
D-4
  6
Continuous
 62
     2
370
     9
100
AcDbText
 10
429.4800959406673
 20
-403.1724811285895
 30
0.0
 40
15.24
  1
把手詳細図　Ｓ＝１：２
 41
1.113636363636364
  7
ＭＳ ゴシック
100
AcDbText
  0
TEXT
  5
2FA
330
1F
100
AcDbEntity
  8
D-4
  6
Continuous
 62
     2
370
     9
100
AcDbText
 10
535.7299829559607
 20
-128.1922350744189
 30
0.0
 40
15.24
  1
102
 50
359.9997818882351
 41
1.083333333333334
  7
ＭＳ ゴシック
100
AcDbText
  0
TEXT
  5
2FB
330
1F
100
AcDbEntity
  8
D-4
  6
Continuous
 62
     2
370
     9
100
AcDbText
 10
728.984388922614
 20
-276.0181530101879
 30
0.0
 40
15.24
  1
62
 50
90.0
 41
1.0625
  7
ＭＳ ゴシック
100
AcDbText
  0
TEXT
  5
2FC
330
1F
100
AcDbEntity
  8
D-4
  6
Continuous
 62
     2
370
     9
100
AcDbText
 10
54.43775486301739
 20
-247.4005451759132
 30
0.0
 40
15.24
  1
30
 41
1.0625
  7
ＭＳ ゴシック
100
AcDbText
  0
TEXT
  5
2FD
330
1F
100
AcDbEntity
  8
D-4
  6
Continuous
 62
     2
370
     9
100
AcDbText
 10
54.43775486301739
 20
-218.9297789537584
 30
0.0
 40
15.24
  1
50
 41
1.0625
  7
ＭＳ ゴシック
100
AcDbText
  0
TEXT
  5
2FE
330
1F
100
AcDbEntity
  8
D-4
  6
Continuous
 62
     2
370
     9
100
AcDbText
 10
162.5139695286107
 20
-273.5258432336756
 30
0.0
 40
15.24
  1
1.2
 50
90.0
 41
1.083333333333333
  7
ＭＳ ゴシック
100
AcDbText
  0
TEXT
  5
2FF
330
1F
100
AcDbEntity
  8
D-4
  6
Continuous
 62
     2
370
     9
100
AcDbText
 10
192.1234847445102
 20
-318.4307304588524
 30
0.0
 40
15.24
  1
20
 50
90.0
 41
1.0625
  7
ＭＳ ゴシック
100
AcDbText
  0
TEXT
  5
300
330
1F
100
AcDbEntity
  8
D-4
  6
Continuous
 62
     2
370
     9
100
AcDbText
 10
497.6577800029034
 20
104.7794099714949
 30
0.0
 40
15.24
  1
14
 41
1.0625
  7
ＭＳ ゴシック
100
AcDbText
  0
TEXT
  5
301
330
1F
100
AcDbEntity
  8
D-4
  6
Continuous
 62
     2
370
     9
100
AcDbText
 10
556.4077882508975
 20
104.7794099714949
 30
0.0
 40
15.24
  1
33
 41
1.0625
  7
ＭＳ ゴシック
100
AcDbText
  0
TEXT
  5
302
330
1F
100
AcDbEntity
  8
D-4
  6
Continuous
 62
     2
370
     9
100
AcDbText
 10
658.1022824509081
 20
206.0456992484428
 30
0.0
 40
15.24
  1
8
 50
90.0
 41
0.9999999999999998
  7
ＭＳ ゴシック
100
AcDbText
  0
TEXT
  5
303
330
1F
100
AcDbEntity
  8
D-4
  6
Continuous
 62
     2
370
     9
100
AcDbText
 10
658.1022824509081
 20
272.9207837903822
 30
0.0
 40
15.24
  1
50
 50
90.0
 41
1.0625
  7
ＭＳ ゴシック
100
AcDbText
  0
TEXT
  5
304
330
1F
100
AcDbEntity
  8
D-4
  6
Continuous
 62
     2
370
     9
100
AcDbText
 10
280.1576810269744
 20
426.5088328758447
 30
0.0
 40
15.24
  1
62
 41
1.0625
  7
ＭＳ ゴシック
100
AcDbText
  0
TEXT
  5
305
330
1F
100
AcDbEntity
  8
D-4
  6
Continuous
 62
     2
370
     9
100
AcDbText
 10
487.5449268237965
 20
426.5088328758447
 30
0.0
 40
15.24
  1
7
 41
0.9999999999999998
  7
ＭＳ ゴシック
100
AcDbText
  0
TEXT
  5
306
330
1F
100
AcDbEntity
  8
D-4
  6
Continuous
 62
     2
370
     9
100
AcDbText
 10
517.0328253668708
 20
426.5088328758447
 30
0.0
 40
15.24
  1
1
 41
0.9999999999999998
  7
ＭＳ ゴシック
100
AcDbText
  0
TEXT
  5
307
330
1F
100
AcDbEntity
  8
D-4
  6
Continuous
 62
     2
370
     9
100
AcDbText
 10
545.1531240102407
 20
426.5088328758447
 30
0.0
 40
15.24
  1
7
 41
0.9999999999999998
  7
ＭＳ ゴシック
100
AcDbText
  0
TEXT
  5
308
330
1F
100
AcDbEntity
  8
D-4
  6
Continuous
 62
     2
370
     9
100
AcDbText
 10
399.532681877634
 20
481.0915833509102
 30
0.0
 40
15.24
  1
100
 50
359.9995637764703
 41
1.083333333333333
  7
ＭＳ ゴシック
100
AcDbText
  0
TEXT
  5
309
330
1F
100
AcDbEntity
  8
D-4
  6
Continuous
 62
     2
370
     9
100
AcDbText
 10
-85.05274592219166
 20
527.6211573585305
 30
0.0
 40
15.24
  1
450
 41
1.083333333333333
  7
ＭＳ ゴシック
100
AcDbText
  0
TEXT
  5
30A
330
1F
100
AcDbEntity
  8
D-4
  6
Continuous
 62
     2
370
     9
100
AcDbText
 10
-88.49946966655708
 20
104.7794099714431
 30
0.0
 40
15.24
  1
410
 50
0.0002181117648666
 41
1.083333333333333
  7
ＭＳ ゴシック
100
AcDbText
  0
TEXT
  5
30B
330
1F
100
AcDbEntity
  8
D-5
  6
Continuous
 62
     7
370
     9
100
AcDbText
 10
647.7860857989339
 20
363.709799144848
 30
0.0
 40
11.43
  1
電気亜鉛めっき
 41
1.142857142857143
  7
ＭＳ ゴシック
100
AcDbText
  0
TEXT
  5
30C
330
1F
100
AcDbEntity
  8
D-4
  6
Continuous
 62
     2
370
     9
100
AcDbText
 10
-92.75608629381327
 20
293.9343509158574
 30
0.0
 40
15.24
  1
2.5
 50
90.0
 41
1.083333333333333
  7
ＭＳ ゴシック
100
AcDbText
  0
TEXT
  5
30D
330
1F
100
AcDbEntity
  8
D-4
  6
Continuous
 62
     2
370
     9
100
AcDbText
 10
-92.75608629381327
 20
351.5320566538219
 30
0.0
 40
15.24
  1
3
 50
90.0
 41
0.9999999999999998
  7
ＭＳ ゴシック
100
AcDbText
  0
LWPOLYLINE
  5
30E
330
1F
100
AcDbEntity
  8
0-4
  6
Continuous
 62
     7
370
     9
100
AcDbPolyline
 90
        4
 70
     1
 43
1.0
 10
-676.5269960970493
 20
356.14877236856
 42
0.4142135623731
 10
-677.0269960970493
 20
356.64877236856
 42
0.4142135623731
 10
-677.5269960970492
 20
356.14877236856
 42
0.4142135623731
 10
-677.0269960970493
 20
355.6487723685601
 42
0.4142135623731
  0
LWPOLYLINE
  5
30F
330
1F
100
AcDbEntity
  8
0-4
  6
Continuous
 62
     7
370
     9
100
AcDbPolyline
 90
        4
 70
     1
 43
1.0
 10
-266.5270352750211
 20
356.14877236856
 42
0.4142135623731
 10
-267.0270352750211
 20
356.64877236856
 42
0.4142135623731
 10
-267.5270352750211
 20
356.14877236856
 42
0.4142135623731
 10
-267.0270352750211
 20
355.6487723685601
 42
0.4142135623731
  0
LWPOLYLINE
  5
310
330
1F
100
AcDbEntity
  8
0-4
  6
Continuous
 62
     7
370
     9
100
AcDbPolyline
 90
        4
 70
     1
 43
1.0
 10
-688.5270233154297
 20
393.2451980178421
 42
0.4142135623731
 10
-689.0270233154297
 20
393.745198017842
 42
0.4142135623731
 10
-689.5270233154297
 20
393.2451980178421
 42
0.4142135623731
 10
-689.0270233154297
 20
392.7451980178421
 42
0.4142135623731
  0
LWPOLYLINE
  5
311
330
1F
100
AcDbEntity
  8
0-4
  6
Continuous
 62
     7
370
     9
100
AcDbPolyline
 90
        4
 70
     1
 43
1.0
 10
-254.5270699165962
 20
393.2451980178421
 42
0.4142135623731
 10
-255.0270699165962
 20
393.745198017842
 42
0.4142135623731
 10
-255.5270699165962
 20
393.2451980178421
 42
0.4142135623731
 10
-255.0270699165962
 20
392.7451980178421
 42
0.4142135623731
  0
LWPOLYLINE
  5
312
330
1F
100
AcDbEntity
  8
0-4
  6
Continuous
 62
     7
370
     9
100
AcDbPolyline
 90
        4
 70
     1
 43
1.0
 10
-696.5270002210463
 20
429.3414719040329
 42
0.4142135623731
 10
-697.0270002210463
 20
429.8414719040329
 42
0.4142135623731
 10
-697.5270002210461
 20
429.3414719040329
 42
0.4142135623731
 10
-697.0270002210463
 20
428.841471904033
 42
0.4142135623731
  0
LWPOLYLINE
  5
313
330
1F
100
AcDbEntity
  8
0-4
  6
Continuous
 62
     7
370
     9
100
AcDbPolyline
 90
        4
 70
     1
 43
1.0
 10
-246.5270311510241
 20
429.3414719040329
 42
0.4142135623731
 10
-247.0270311510241
 20
429.8414719040329
 42
0.4142135623731
 10
-247.5270311510241
 20
429.3414719040329
 42
0.4142135623731
 10
-247.0270311510241
 20
428.841471904033
 42
0.4142135623731
  0
LWPOLYLINE
  5
314
330
1F
100
AcDbEntity
  8
0-4
  6
Continuous
 62
     7
370
     9
100
AcDbPolyline
 90
        4
 70
     1
 43
1.0
 10
-752.5537785710516
 20
-135.16780131572
 42
0.4142135623731
 10
-753.0537785710516
 20
-134.66780131572
 42
0.4142135623731
 10
-753.5537785710516
 20
-135.16780131572
 42
0.4142135623731
 10
-753.0537785710516
 20
-135.66780131572
 42
0.4142135623731
  0
LWPOLYLINE
  5
315
330
1F
100
AcDbEntity
  8
0-4
  6
Continuous
 62
     7
370
     9
100
AcDbPolyline
 90
        4
 70
     1
 43
1.0
 10
-752.5537785710516
 20
274.8322522962417
 42
0.4142135623731
 10
-753.0537785710516
 20
275.3322522962417
 42
0.4142135623731
 10
-753.5537785710516
 20
274.8322522962417
 42
0.4142135623731
 10
-753.0537785710516
 20
274.3322522962417
 42
0.4142135623731
  0
LWPOLYLINE
  5
316
330
1F
100
AcDbEntity
  8
0-4
  6
Continuous
 62
     7
370
     9
100
AcDbPolyline
 90
        4
 70
     1
 43
1.0
 10
-794.0647007710224
 20
-147.1678285341005
 42
0.4142135623731
 10
-794.5647007710224
 20
-146.6678285341004
 42
0.4142135623731
 10
-795.0647007710223
 20
-147.1678285341005
 42
0.4142135623731
 10
-794.5647007710224
 20
-147.6678285341005
 42
0.4142135623731
  0
LWPOLYLINE
  5
317
330
1F
100
AcDbEntity
  8
0-4
  6
Continuous
 62
     7
370
     9
100
AcDbPolyline
 90
        4
 70
     1
 43
1.0
 10
-794.0647007710224
 20
286.8321557947108
 42
0.4142135623731
 10
-794.5647007710224
 20
287.3321557947108
 42
0.4142135623731
 10
-795.0647007710223
 20
286.8321557947108
 42
0.4142135623731
 10
-794.5647007710224
 20
286.3321557947108
 42
0.4142135623731
  0
LWPOLYLINE
  5
318
330
1F
100
AcDbEntity
  8
0-4
  6
Continuous
 62
     7
370
     9
100
AcDbPolyline
 90
        4
 70
     1
 43
1.0
 10
-826.5515699644346
 20
-155.1677435797614
 42
0.4142135623731
 10
-827.0515699644346
 20
-154.6677435797614
 42
0.4142135623731
 10
-827.5515699644346
 20
-155.1677435797614
 42
0.4142135623731
 10
-827.0515699644346
 20
-155.6677435797614
 42
0.4142135623731
  0
LWPOLYLINE
  5
319
330
1F
100
AcDbEntity
  8
0-4
  6
Continuous
 62
     7
370
     9
100
AcDbPolyline
 90
        4
 70
     1
 43
1.0
 10
-826.5515699644346
 20
294.8321327003273
 42
0.4142135623731
 10
-827.0515699644346
 20
295.3321327003273
 42
0.4142135623731
 10
-827.5515699644346
 20
294.8321327003273
 42
0.4142135623731
 10
-827.0515699644346
 20
294.3321327003273
 42
0.4142135623731
  0
LWPOLYLINE
  5
31A
330
1F
100
AcDbEntity
  8
D-4
  6
Continuous
 62
     7
370
     9
100
AcDbPolyline
 90
        4
 70
     1
 43
1.0
 10
424.9800464527028
 20
-133.5123670423353
 42
0.4142135623731
 10
424.4800464527029
 20
-133.0123670423353
 42
0.4142135623731
 10
423.9800464527029
 20
-133.5123670423353
 42
0.4142135623731
 10
424.4800464527029
 20
-134.0123670423353
 42
0.4142135623731
  0
LWPOLYLINE
  5
31B
330
1F
100
AcDbEntity
  8
D-4
  6
Continuous
 62
     7
370
     9
100
AcDbPolyline
 90
        4
 70
     1
 43
1.0
 10
679.9800217087205
 20
-133.5123670423353
 42
0.4142135623731
 10
679.4800217087206
 20
-133.0123670423353
 42
0.4142135623731
 10
678.9800217087206
 20
-133.5123670423353
 42
0.4142135623731
 10
679.4800217087206
 20
-134.0123670423353
 42
0.4142135623731
  0
LWPOLYLINE
  5
31C
330
1F
100
AcDbEntity
  8
D-4
  6
Continuous
 62
     7
370
     9
100
AcDbPolyline
 90
        4
 70
     1
 43
1.0
 10
734.804397170608
 20
-342.8932231181376
 42
0.4142135623731
 10
734.3043971706081
 20
-342.3932231181377
 42
0.4142135623731
 10
733.8043971706081
 20
-342.8932231181376
 42
0.4142135623731
 10
734.3043971706081
 20
-343.3932231181376
 42
0.4142135623731
  0
LWPOLYLINE
  5
31D
330
1F
100
AcDbEntity
  8
D-4
  6
Continuous
 62
     7
370
     9
100
AcDbPolyline
 90
        4
 70
     1
 43
1.0
 10
734.804397170608
 20
-187.8932066221495
 42
0.4142135623731
 10
734.3043971706081
 20
-187.3932066221495
 42
0.4142135623731
 10
733.8043971706081
 20
-187.8932066221495
 42
0.4142135623731
 10
734.3043971706081
 20
-188.3932066221495
 42
0.4142135623731
  0
LWPOLYLINE
  5
31E
330
1F
100
AcDbEntity
  8
D-4
  6
Continuous
 62
     7
370
     9
100
AcDbPolyline
 90
        4
 70
     1
 43
1.0
 10
28.06281672297305
 20
-252.7205534239073
 42
0.4142135623731
 10
27.56281672297305
 20
-252.2205534239073
 42
0.4142135623731
 10
27.06281672297305
 20
-252.7205534239073
 42
0.4142135623731
 10
27.56281672297305
 20
-253.2205534239073
 42
0.4142135623731
  0
LWPOLYLINE
  5
31F
330
1F
100
AcDbEntity
  8
D-4
  6
Continuous
 62
     7
370
     9
100
AcDbPolyline
 90
        4
 70
     1
 43
1.0
 10
103.0626930030617
 20
-252.7205534239073
 42
0.4142135623731
 10
102.5626930030617
 20
-252.2205534239073
 42
0.4142135623731
 10
102.0626930030617
 20
-252.7205534239073
 42
0.4142135623731
 10
102.5626930030617
 20
-253.2205534239073
 42
0.4142135623731
  0
LWPOLYLINE
  5
320
330
1F
100
AcDbEntity
  8
D-4
  6
Continuous
 62
     7
370
     9
100
AcDbPolyline
 90
        4
 70
     1
 43
1.0
 10
3.062734243032168
 20
-224.2498181317303
 42
0.4142135623731
 10
2.562734243032168
 20
-223.7498181317303
 42
0.4142135623731
 10
2.062734243032168
 20
-224.2498181317303
 42
0.4142135623731
 10
2.562734243032168
 20
-224.7498181317303
 42
0.4142135623731
  0
LWPOLYLINE
  5
321
330
1F
100
AcDbEntity
  8
D-4
  6
Continuous
 62
     7
370
     9
100
AcDbPolyline
 90
        4
 70
     1
 43
1.0
 10
128.0626517630913
 20
-224.2498181317303
 42
0.4142135623731
 10
127.5626517630913
 20
-223.7498181317303
 42
0.4142135623731
 10
127.0626517630913
 20
-224.2498181317303
 42
0.4142135623731
 10
127.5626517630913
 20
-224.7498181317303
 42
0.4142135623731
  0
LWPOLYLINE
  5
322
330
1F
100
AcDbEntity
  8
D-4
  6
Continuous
 62
     7
370
     9
100
AcDbPolyline
 90
        4
 70
     1
 43
1.0
 10
168.3339777766048
 20
-285.8057321084511
 42
0.4142135623731
 10
167.8339777766048
 20
-285.3057321084511
 42
0.4142135623731
 10
167.3339777766048
 20
-285.8057321084511
 42
0.4142135623731
 10
167.8339777766048
 20
-286.3057321084512
 42
0.4142135623731
  0
LWPOLYLINE
  5
323
330
1F
100
AcDbEntity
  8
D-4
  6
Continuous
 62
     7
370
     9
100
AcDbPolyline
 90
        4
 70
     1
 43
1.0
 10
168.3339777766048
 20
-282.805740768845
 42
0.4142135623731
 10
167.8339777766048
 20
-282.305740768845
 42
0.4142135623731
 10
167.3339777766048
 20
-282.805740768845
 42
0.4142135623731
 10
167.8339777766048
 20
-283.305740768845
 42
0.4142135623731
  0
LWPOLYLINE
  5
324
330
1F
100
AcDbEntity
  8
D-4
  6
Continuous
 62
     7
370
     9
100
AcDbPolyline
 90
        4
 70
     1
 43
1.0
 10
197.9434929925043
 20
-332.8057510788376
 42
0.4142135623731
 10
197.4434929925043
 20
-332.3057510788377
 42
0.4142135623731
 10
196.9434929925043
 20
-332.8057510788376
 42
0.4142135623731
 10
197.4434929925043
 20
-333.3057510788376
 42
0.4142135623731
  0
LWPOLYLINE
  5
325
330
1F
100
AcDbEntity
  8
D-4
  6
Continuous
 62
     7
370
     9
100
AcDbPolyline
 90
        4
 70
     1
 43
1.0
 10
197.9434929925043
 20
-282.805740768845
 42
0.4142135623731
 10
197.4434929925043
 20
-282.305740768845
 42
0.4142135623731
 10
196.9434929925043
 20
-282.805740768845
 42
0.4142135623731
 10
197.4434929925043
 20
-283.305740768845
 42
0.4142135623731
  0
LWPOLYLINE
  5
326
330
1F
100
AcDbEntity
  8
D-4
  6
Continuous
 62
     7
370
     9
100
AcDbPolyline
 90
        4
 70
     1
 43
1.0
 10
491.2826604069891
 20
99.45952544341225
 42
0.4142135623731
 10
490.7826604069891
 20
99.95952544341225
 42
0.4142135623731
 10
490.2826604069891
 20
99.45952544341225
 42
0.4142135623731
 10
490.7826604069891
 20
98.95952544341225
 42
0.4142135623731
  0
LWPOLYLINE
  5
327
330
1F
100
AcDbEntity
  8
D-4
  6
Continuous
 62
     7
370
     9
100
AcDbPolyline
 90
        4
 70
     1
 43
1.0
 10
526.2827758789062
 20
99.45952544341225
 42
0.4142135623731
 10
525.7827758789062
 20
99.95952544341225
 42
0.4142135623731
 10
525.2827758789062
 20
99.45952544341225
 42
0.4142135623731
 10
525.7827758789062
 20
98.95952544341225
 42
0.4142135623731
  0
LWPOLYLINE
  5
328
330
1F
100
AcDbEntity
  8
D-4
  6
Continuous
 62
     7
370
     9
100
AcDbPolyline
 90
        4
 70
     1
 43
1.0
 10
608.7826769029773
 20
99.45952544341225
 42
0.4142135623731
 10
608.2826769029773
 20
99.95952544341225
 42
0.4142135623731
 10
607.7826769029774
 20
99.45952544341225
 42
0.4142135623731
 10
608.2826769029773
 20
98.95952544341225
 42
0.4142135623731
  0
LWPOLYLINE
  5
329
330
1F
100
AcDbEntity
  8
D-4
  6
Continuous
 62
     7
370
     9
100
AcDbPolyline
 90
        4
 70
     1
 43
1.0
 10
663.9222906989021
 20
201.0459446262669
 42
0.4142135623731
 10
663.4222906989021
 20
201.5459446262669
 42
0.4142135623731
 10
662.9222906989021
 20
201.0459446262669
 42
0.4142135623731
 10
663.4222906989021
 20
200.5459446262669
 42
0.4142135623731
  0
LWPOLYLINE
  5
32A
330
1F
100
AcDbEntity
  8
D-4
  6
Continuous
 62
     7
370
     9
100
AcDbPolyline
 90
        4
 70
     1
 43
1.0
 10
663.9222906989021
 20
221.045763170397
 42
0.4142135623731
 10
663.4222906989021
 20
221.545763170397
 42
0.4142135623731
 10
662.9222906989021
 20
221.045763170397
 42
0.4142135623731
 10
663.4222906989021
 20
220.545763170397
 42
0.4142135623731
  0
LWPOLYLINE
  5
32B
330
1F
100
AcDbEntity
  8
D-4
  6
Continuous
 62
     7
370
     9
100
AcDbPolyline
 90
        4
 70
     1
 43
1.0
 10
663.9222906989021
 20
346.0456806904562
 42
0.4142135623731
 10
663.4222906989021
 20
346.5456806904561
 42
0.4142135623731
 10
662.9222906989021
 20
346.0456806904562
 42
0.4142135623731
 10
663.4222906989021
 20
345.5456806904562
 42
0.4142135623731
  0
LWPOLYLINE
  5
32C
330
1F
100
AcDbEntity
  8
D-4
  6
Continuous
 62
     7
370
     9
100
AcDbPolyline
 90
        4
 70
     1
 43
1.0
 10
213.7827346389359
 20
421.1889483477619
 42
0.4142135623731
 10
213.2827346389359
 20
421.6889483477618
 42
0.4142135623731
 10
212.7827346389359
 20
421.1889483477619
 42
0.4142135623731
 10
213.2827346389359
 20
420.6889483477619
 42
0.4142135623731
  0
LWPOLYLINE
  5
32D
330
1F
100
AcDbEntity
  8
D-4
  6
Continuous
 62
     7
370
     9
100
AcDbPolyline
 90
        4
 70
     1
 43
1.0
 10
368.782751134924
 20
421.1889483477619
 42
0.4142135623731
 10
368.282751134924
 20
421.6889483477618
 42
0.4142135623731
 10
367.782751134924
 20
421.1889483477619
 42
0.4142135623731
 10
368.282751134924
 20
420.6889483477619
 42
0.4142135623731
  0
LWPOLYLINE
  5
32E
330
1F
100
AcDbEntity
  8
D-4
  6
Continuous
 62
     7
370
     9
100
AcDbPolyline
 90
        4
 70
     1
 43
1.0
 10
503.7827016469596
 20
421.1889483477619
 42
0.4142135623731
 10
503.2827016469597
 20
421.6889483477618
 42
0.4142135623731
 10
502.7827016469597
 20
421.1889483477619
 42
0.4142135623731
 10
503.2827016469597
 20
420.6889483477619
 42
0.4142135623731
  0
LWPOLYLINE
  5
32F
330
1F
100
AcDbEntity
  8
D-4
  6
Continuous
 62
     7
370
     9
100
AcDbPolyline
 90
        4
 70
     1
 43
1.0
 10
521.2827593829182
 20
421.1889483477619
 42
0.4142135623731
 10
520.7827593829182
 20
421.6889483477618
 42
0.4142135623731
 10
520.2827593829182
 20
421.1889483477619
 42
0.4142135623731
 10
520.7827593829182
 20
420.6889483477619
 42
0.4142135623731
  0
LWPOLYLINE
  5
330
330
1F
100
AcDbEntity
  8
D-4
  6
Continuous
 62
     7
370
     9
100
AcDbPolyline
 90
        4
 70
     1
 43
1.0
 10
523.7827676309122
 20
421.1889483477619
 42
0.4142135623731
 10
523.2827676309123
 20
421.6889483477618
 42
0.4142135623731
 10
522.7827676309123
 20
421.1889483477619
 42
0.4142135623731
 10
523.2827676309123
 20
420.6889483477619
 42
0.4142135623731
  0
LWPOLYLINE
  5
331
330
1F
100
AcDbEntity
  8
D-4
  6
Continuous
 62
     7
370
     9
100
AcDbPolyline
 90
        4
 70
     1
 43
1.0
 10
541.2827016469596
 20
421.1889483477619
 42
0.4142135623731
 10
540.7827016469596
 20
421.6889483477618
 42
0.4142135623731
 10
540.2827016469597
 20
421.1889483477619
 42
0.4142135623731
 10
540.7827016469596
 20
420.6889483477619
 42
0.4142135623731
  0
LWPOLYLINE
  5
332
330
1F
100
AcDbEntity
  8
D-4
  6
Continuous
 62
     7
370
     9
100
AcDbPolyline
 90
        4
 70
     1
 43
1.0
 10
291.28274288693
 20
475.7714513830237
 42
0.4142135623731
 10
290.78274288693
 20
476.2714513830236
 42
0.4142135623731
 10
290.28274288693
 20
475.7714513830237
 42
0.4142135623731
 10
290.78274288693
 20
475.2714513830238
 42
0.4142135623731
  0
LWPOLYLINE
  5
333
330
1F
100
AcDbEntity
  8
D-4
  6
Continuous
 62
     7
370
     9
100
AcDbPolyline
 90
        4
 70
     1
 43
1.0
 10
541.2827016469596
 20
475.7714513830237
 42
0.4142135623731
 10
540.7827016469596
 20
476.2714513830236
 42
0.4142135623731
 10
540.2827016469597
 20
475.7714513830237
 42
0.4142135623731
 10
540.7827016469596
 20
475.2714513830238
 42
0.4142135623731
  0
LWPOLYLINE
  5
334
330
1F
100
AcDbEntity
  8
D-4
  6
Continuous
 62
     7
370
     9
100
AcDbPolyline
 90
        4
 70
     1
 43
1.0
 10
541.2827016469596
 20
522.301025390625
 42
0.4142135623731
 10
540.7827016469596
 20
522.801025390625
 42
0.4142135623731
 10
540.2827016469597
 20
522.301025390625
 42
0.4142135623731
 10
540.7827016469596
 20
521.801025390625
 42
0.4142135623731
  0
LWPOLYLINE
  5
335
330
1F
100
AcDbEntity
  8
D-4
  6
Continuous
 62
     7
370
     9
100
AcDbPolyline
 90
        4
 70
     1
 43
1.0
 10
-86.93607804581927
 20
332.2956971864443
 42
0.4142135623731
 10
-87.43607804581927
 20
332.7956971864443
 42
0.4142135623731
 10
-87.93607804581927
 20
332.2956971864443
 42
0.4142135623731
 10
-87.43607804581927
 20
331.7956971864443
 42
0.4142135623731
  0
LWPOLYLINE
  5
336
330
1F
100
AcDbEntity
  8
D-4
  6
Continuous
 62
     7
370
     9
100
AcDbPolyline
 90
        4
 70
     1
 43
1.0
 10
-86.93607804581927
 20
338.5456559464739
 42
0.4142135623731
 10
-87.43607804581927
 20
339.0456559464738
 42
0.4142135623731
 10
-87.93607804581927
 20
338.5456559464739
 42
0.4142135623731
 10
-87.43607804581927
 20
338.0456559464739
 42
0.4142135623731
  0
LWPOLYLINE
  5
337
330
1F
100
AcDbEntity
  8
D-4
  6
Continuous
 62
     7
370
     9
100
AcDbPolyline
 90
        4
 70
     1
 43
1.0
 10
-86.93607804581927
 20
346.0456806904562
 42
0.4142135623731
 10
-87.43607804581927
 20
346.5456806904561
 42
0.4142135623731
 10
-87.93607804581927
 20
346.0456806904562
 42
0.4142135623731
 10
-87.43607804581927
 20
345.5456806904562
 42
0.4142135623731
  0
LINE
  5
338
330
1F
100
AcDbEntity
  8
D-0
  6
Continuous
 62
     7
370
     9
100
AcDbLine
 10
611.3918711487307
 20
330.0821173173463
 30
0.0
 11
611.3918711487307
 21
330.8322584611452
 31
0.0
  0
LINE
  5
339
330
1F
100
AcDbEntity
  8
D-0
  6
Continuous
 62
     7
370
     9
100
AcDbLine
 10
611.3918711487307
 20
330.8322584611452
 30
0.0
 11
612.1417643372073
 21
330.8322584611452
 31
0.0
  0
LINE
  5
33A
330
1F
100
AcDbEntity
  8
D-0
  6
Continuous
 62
     7
370
     9
100
AcDbLine
 10
612.1417643372073
 20
330.8322584611452
 30
0.0
 11
612.1417643372073
 21
330.0821173173463
 31
0.0
  0
LINE
  5
33B
330
1F
100
AcDbEntity
  8
D-0
  6
Continuous
 62
     7
370
     9
100
AcDbLine
 10
612.1417643372073
 20
330.0821173173463
 30
0.0
 11
611.3918711487307
 21
330.0821173173463
 31
0.0
  0
LINE
  5
33C
330
1F
100
AcDbEntity
  8
D-0
  6
Continuous
 62
     7
370
     9
100
AcDbLine
 10
646.2473589160322
 20
328.0114942816651
 30
0.0
 11
646.2473589160322
 21
328.761635425464
 31
0.0
  0
LINE
  5
33D
330
1F
100
AcDbEntity
  8
D-0
  6
Continuous
 62
     7
370
     9
100
AcDbLine
 10
646.2473589160322
 20
328.761635425464
 30
0.0
 11
646.9972521045088
 21
328.761635425464
 31
0.0
  0
LINE
  5
33E
330
1F
100
AcDbEntity
  8
D-0
  6
Continuous
 62
     7
370
     9
100
AcDbLine
 10
646.9972521045088
 20
328.761635425464
 30
0.0
 11
646.9972521045088
 21
328.0114942816651
 31
0.0
  0
LINE
  5
33F
330
1F
100
AcDbEntity
  8
D-0
  6
Continuous
 62
     7
370
     9
100
AcDbLine
 10
646.9972521045088
 20
328.0114942816651
 30
0.0
 11
646.2473589160322
 21
328.0114942816651
 31
0.0
  0
LINE
  5
340
330
1F
100
AcDbEntity
  8
D-0
  6
Continuous
 62
     7
370
     9
100
AcDbLine
 10
634.5138283805048
 20
272.449776157551
 30
0.0
 11
634.5138283805048
 21
273.1999173013498
 31
0.0
  0
LINE
  5
341
330
1F
100
AcDbEntity
  8
D-0
  6
Continuous
 62
     7
370
     9
100
AcDbLine
 10
634.5138283805048
 20
273.1999173013498
 30
0.0
 11
635.2637215689814
 21
273.1999173013498
 31
0.0
  0
LINE
  5
342
330
1F
100
AcDbEntity
  8
D-0
  6
Continuous
 62
     7
370
     9
100
AcDbLine
 10
635.2637215689814
 20
273.1999173013498
 30
0.0
 11
635.2637215689814
 21
272.449776157551
 31
0.0
  0
LINE
  5
343
330
1F
100
AcDbEntity
  8
D-0
  6
Continuous
 62
     7
370
     9
100
AcDbLine
 10
635.2637215689814
 20
272.449776157551
 30
0.0
 11
634.5138283805048
 21
272.449776157551
 31
0.0
  0
LINE
  5
344
330
1F
100
AcDbEntity
  8
D-0
  6
Continuous
 62
     7
370
     9
100
AcDbLine
 10
606.5604173988077
 20
275.5557107110728
 30
0.0
 11
606.5604173988077
 21
276.3058518548717
 31
0.0
  0
LINE
  5
345
330
1F
100
AcDbEntity
  8
D-0
  6
Continuous
 62
     7
370
     9
100
AcDbLine
 10
606.5604173988077
 20
276.3058518548717
 30
0.0
 11
607.3103105872842
 21
276.3058518548717
 31
0.0
  0
LINE
  5
346
330
1F
100
AcDbEntity
  8
D-0
  6
Continuous
 62
     7
370
     9
100
AcDbLine
 10
607.3103105872842
 20
276.3058518548717
 30
0.0
 11
607.3103105872842
 21
275.5557107110728
 31
0.0
  0
LINE
  5
347
330
1F
100
AcDbEntity
  8
D-0
  6
Continuous
 62
     7
370
     9
100
AcDbLine
 10
607.3103105872842
 20
275.5557107110728
 30
0.0
 11
606.5604173988077
 21
275.5557107110728
 31
0.0
  0
LINE
  5
348
330
1F
100
AcDbEntity
  8
D-0
  6
Continuous
 62
     7
370
     9
100
AcDbLine
 10
609.3787654195962
 20
313.4020984188028
 30
0.0
 11
609.3787654195962
 21
314.1522395626017
 31
0.0
  0
LINE
  5
349
330
1F
100
AcDbEntity
  8
D-0
  6
Continuous
 62
     7
370
     9
100
AcDbLine
 10
609.3787654195962
 20
314.1522395626017
 30
0.0
 11
610.1286586080728
 21
314.1522395626017
 31
0.0
  0
LINE
  5
34A
330
1F
100
AcDbEntity
  8
D-0
  6
Continuous
 62
     7
370
     9
100
AcDbLine
 10
610.1286586080728
 20
314.1522395626017
 30
0.0
 11
610.1286586080728
 21
313.4020984188028
 31
0.0
  0
LINE
  5
34B
330
1F
100
AcDbEntity
  8
D-0
  6
Continuous
 62
     7
370
     9
100
AcDbLine
 10
610.1286586080728
 20
313.4020984188028
 30
0.0
 11
609.3787654195962
 21
313.4020984188028
 31
0.0
  0
LINE
  5
34C
330
1F
100
AcDbEntity
  8
D-0
  6
Continuous
 62
     7
370
     9
100
AcDbLine
 10
601.0962732768711
 20
297.354769892273
 30
0.0
 11
601.0962732768711
 21
298.1049110360718
 31
0.0
  0
LINE
  5
34D
330
1F
100
AcDbEntity
  8
D-0
  6
Continuous
 62
     7
370
     9
100
AcDbLine
 10
601.0962732768711
 20
298.1049110360718
 30
0.0
 11
601.8461664653477
 21
298.1049110360718
 31
0.0
  0
LINE
  5
34E
330
1F
100
AcDbEntity
  8
D-0
  6
Continuous
 62
     7
370
     9
100
AcDbLine
 10
601.8461664653477
 20
298.1049110360718
 30
0.0
 11
601.8461664653477
 21
297.354769892273
 31
0.0
  0
LINE
  5
34F
330
1F
100
AcDbEntity
  8
D-0
  6
Continuous
 62
     7
370
     9
100
AcDbLine
 10
601.8461664653477
 20
297.354769892273
 30
0.0
 11
601.0962732768711
 21
297.354769892273
 31
0.0
  0
LINE
  5
350
330
1F
100
AcDbEntity
  8
D-0
  6
Continuous
 62
     7
370
     9
100
AcDbLine
 10
626.9790612228869
 20
287.0016547138666
 30
0.0
 11
626.9790612228869
 21
287.7517958576655
 31
0.0
  0
LINE
  5
351
330
1F
100
AcDbEntity
  8
D-0
  6
Continuous
 62
     7
370
     9
100
AcDbLine
 10
626.9790612228869
 20
287.7517958576655
 30
0.0
 11
627.7289544113635
 21
287.7517958576655
 31
0.0
  0
LINE
  5
352
330
1F
100
AcDbEntity
  8
D-0
  6
Continuous
 62
     7
370
     9
100
AcDbLine
 10
627.7289544113635
 20
287.7517958576655
 30
0.0
 11
627.7289544113635
 21
287.0016547138666
 31
0.0
  0
LINE
  5
353
330
1F
100
AcDbEntity
  8
D-0
  6
Continuous
 62
     7
370
     9
100
AcDbLine
 10
627.7289544113635
 20
287.0016547138666
 30
0.0
 11
626.9790612228869
 21
287.0016547138666
 31
0.0
  0
LINE
  5
354
330
1F
100
AcDbEntity
  8
D-0
  6
Continuous
 62
     7
370
     9
100
AcDbLine
 10
638.367487919134
 20
303.0489832403965
 30
0.0
 11
638.367487919134
 21
303.7991243841953
 31
0.0
  0
LINE
  5
355
330
1F
100
AcDbEntity
  8
D-0
  6
Continuous
 62
     7
370
     9
100
AcDbLine
 10
638.367487919134
 20
303.7991243841953
 30
0.0
 11
639.1173811076105
 21
303.7991243841953
 31
0.0
  0
LINE
  5
356
330
1F
100
AcDbEntity
  8
D-0
  6
Continuous
 62
     7
370
     9
100
AcDbLine
 10
639.1173811076105
 20
303.7991243841953
 30
0.0
 11
639.1173811076105
 21
303.0489832403965
 31
0.0
  0
LINE
  5
357
330
1F
100
AcDbEntity
  8
D-0
  6
Continuous
 62
     7
370
     9
100
AcDbLine
 10
639.1173811076105
 20
303.0489832403965
 30
0.0
 11
638.367487919134
 21
303.0489832403965
 31
0.0
  0
LINE
  5
358
330
1F
100
AcDbEntity
  8
D-0
  6
Continuous
 62
     7
370
     9
100
AcDbLine
 10
629.5673400174885
 20
317.0256887312451
 30
0.0
 11
629.5673400174885
 21
317.7758298750439
 31
0.0
  0
LINE
  5
359
330
1F
100
AcDbEntity
  8
D-0
  6
Continuous
 62
     7
370
     9
100
AcDbLine
 10
629.5673400174885
 20
317.7758298750439
 30
0.0
 11
630.3172332059651
 21
317.7758298750439
 31
0.0
  0
LINE
  5
35A
330
1F
100
AcDbEntity
  8
D-0
  6
Continuous
 62
     7
370
     9
100
AcDbLine
 10
630.3172332059651
 20
317.7758298750439
 30
0.0
 11
630.3172332059651
 21
317.0256887312451
 31
0.0
  0
LINE
  5
35B
330
1F
100
AcDbEntity
  8
D-0
  6
Continuous
 62
     7
370
     9
100
AcDbLine
 10
630.3172332059651
 20
317.0256887312451
 30
0.0
 11
629.5673400174885
 21
317.0256887312451
 31
0.0
  0
LINE
  5
35C
330
1F
100
AcDbEntity
  8
D-0
  6
Continuous
 62
     7
370
     9
100
AcDbLine
 10
616.1082902855603
 20
299.9430486868745
 30
0.0
 11
616.1082902855603
 21
300.6931898306734
 31
0.0
  0
LINE
  5
35D
330
1F
100
AcDbEntity
  8
D-0
  6
Continuous
 62
     7
370
     9
100
AcDbLine
 10
616.1082902855603
 20
300.6931898306734
 30
0.0
 11
616.8581834740369
 21
300.6931898306734
 31
0.0
  0
LINE
  5
35E
330
1F
100
AcDbEntity
  8
D-0
  6
Continuous
 62
     7
370
     9
100
AcDbLine
 10
616.8581834740369
 20
300.6931898306734
 30
0.0
 11
616.8581834740369
 21
299.9430486868745
 31
0.0
  0
LINE
  5
35F
330
1F
100
AcDbEntity
  8
D-0
  6
Continuous
 62
     7
370
     9
100
AcDbLine
 10
616.8581834740369
 20
299.9430486868745
 30
0.0
 11
616.1082902855603
 21
299.9430486868745
 31
0.0
  0
LINE
  5
360
330
1F
100
AcDbEntity
  8
D-0
  6
Continuous
 62
     7
370
     9
100
AcDbLine
 10
628.5320284996479
 20
335.1436402934561
 30
0.0
 11
628.5320284996479
 21
335.893781437255
 31
0.0
  0
LINE
  5
361
330
1F
100
AcDbEntity
  8
D-0
  6
Continuous
 62
     7
370
     9
100
AcDbLine
 10
628.5320284996479
 20
335.893781437255
 30
0.0
 11
629.2819216881245
 21
335.893781437255
 31
0.0
  0
LINE
  5
362
330
1F
100
AcDbEntity
  8
D-0
  6
Continuous
 62
     7
370
     9
100
AcDbLine
 10
629.2819216881245
 20
335.893781437255
 30
0.0
 11
629.2819216881245
 21
335.1436402934561
 31
0.0
  0
LINE
  5
363
330
1F
100
AcDbEntity
  8
D-0
  6
Continuous
 62
     7
370
     9
100
AcDbLine
 10
629.2819216881245
 20
335.1436402934561
 30
0.0
 11
628.5320284996479
 21
335.1436402934561
 31
0.0
  0
LINE
  5
364
330
1F
100
AcDbEntity
  8
D-0
  6
Continuous
 62
     7
370
     9
100
AcDbLine
 10
686.8833359912771
 20
325.6820433665237
 30
0.0
 11
686.8833359912771
 21
326.4321845103225
 31
0.0
  0
LINE
  5
365
330
1F
100
AcDbEntity
  8
D-0
  6
Continuous
 62
     7
370
     9
100
AcDbLine
 10
686.8833359912771
 20
326.4321845103225
 30
0.0
 11
687.6332291797537
 21
326.4321845103225
 31
0.0
  0
LINE
  5
366
330
1F
100
AcDbEntity
  8
D-0
  6
Continuous
 62
     7
370
     9
100
AcDbLine
 10
687.6332291797537
 20
326.4321845103225
 30
0.0
 11
687.6332291797537
 21
325.6820433665237
 31
0.0
  0
LINE
  5
367
330
1F
100
AcDbEntity
  8
D-0
  6
Continuous
 62
     7
370
     9
100
AcDbLine
 10
687.6332291797537
 20
325.6820433665237
 30
0.0
 11
686.8833359912771
 21
325.6820433665237
 31
0.0
  0
LINE
  5
368
330
1F
100
AcDbEntity
  8
D-0
  6
Continuous
 62
     7
370
     9
100
AcDbLine
 10
721.7388237585785
 20
323.6114203308423
 30
0.0
 11
721.7388237585785
 21
324.3615614746412
 31
0.0
  0
LINE
  5
369
330
1F
100
AcDbEntity
  8
D-0
  6
Continuous
 62
     7
370
     9
100
AcDbLine
 10
721.7388237585785
 20
324.3615614746412
 30
0.0
 11
722.4887169470551
 21
324.3615614746412
 31
0.0
  0
LINE
  5
36A
330
1F
100
AcDbEntity
  8
D-0
  6
Continuous
 62
     7
370
     9
100
AcDbLine
 10
722.4887169470551
 20
324.3615614746412
 30
0.0
 11
722.4887169470551
 21
323.6114203308423
 31
0.0
  0
LINE
  5
36B
330
1F
100
AcDbEntity
  8
D-0
  6
Continuous
 62
     7
370
     9
100
AcDbLine
 10
722.4887169470551
 20
323.6114203308423
 30
0.0
 11
721.7388237585785
 21
323.6114203308423
 31
0.0
  0
LINE
  5
36C
330
1F
100
AcDbEntity
  8
D-0
  6
Continuous
 62
     7
370
     9
100
AcDbLine
 10
710.0052932230512
 20
268.0497022067282
 30
0.0
 11
710.0052932230512
 21
268.7998433505271
 31
0.0
  0
LINE
  5
36D
330
1F
100
AcDbEntity
  8
D-0
  6
Continuous
 62
     7
370
     9
100
AcDbLine
 10
710.0052932230512
 20
268.7998433505271
 30
0.0
 11
710.7551864115278
 21
268.7998433505271
 31
0.0
  0
LINE
  5
36E
330
1F
100
AcDbEntity
  8
D-0
  6
Continuous
 62
     7
370
     9
100
AcDbLine
 10
710.7551864115278
 20
268.7998433505271
 30
0.0
 11
710.7551864115278
 21
268.0497022067282
 31
0.0
  0
LINE
  5
36F
330
1F
100
AcDbEntity
  8
D-0
  6
Continuous
 62
     7
370
     9
100
AcDbLine
 10
710.7551864115278
 20
268.0497022067282
 30
0.0
 11
710.0052932230512
 21
268.0497022067282
 31
0.0
  0
LINE
  5
370
330
1F
100
AcDbEntity
  8
D-0
  6
Continuous
 62
     7
370
     9
100
AcDbLine
 10
682.0518822413542
 20
271.1556367602501
 30
0.0
 11
682.0518822413542
 21
271.9057779040489
 31
0.0
  0
LINE
  5
371
330
1F
100
AcDbEntity
  8
D-0
  6
Continuous
 62
     7
370
     9
100
AcDbLine
 10
682.0518822413542
 20
271.9057779040489
 30
0.0
 11
682.8017754298307
 21
271.9057779040489
 31
0.0
  0
LINE
  5
372
330
1F
100
AcDbEntity
  8
D-0
  6
Continuous
 62
     7
370
     9
100
AcDbLine
 10
682.8017754298307
 20
271.9057779040489
 30
0.0
 11
682.8017754298307
 21
271.1556367602501
 31
0.0
  0
LINE
  5
373
330
1F
100
AcDbEntity
  8
D-0
  6
Continuous
 62
     7
370
     9
100
AcDbLine
 10
682.8017754298307
 20
271.1556367602501
 30
0.0
 11
682.0518822413542
 21
271.1556367602501
 31
0.0
  0
LINE
  5
374
330
1F
100
AcDbEntity
  8
D-0
  6
Continuous
 62
     7
370
     9
100
AcDbLine
 10
684.8702302621426
 20
309.0020244679801
 30
0.0
 11
684.8702302621426
 21
309.7521656117789
 31
0.0
  0
LINE
  5
375
330
1F
100
AcDbEntity
  8
D-0
  6
Continuous
 62
     7
370
     9
100
AcDbLine
 10
684.8702302621426
 20
309.7521656117789
 30
0.0
 11
685.6201234506192
 21
309.7521656117789
 31
0.0
  0
LINE
  5
376
330
1F
100
AcDbEntity
  8
D-0
  6
Continuous
 62
     7
370
     9
100
AcDbLine
 10
685.6201234506192
 20
309.7521656117789
 30
0.0
 11
685.6201234506192
 21
309.0020244679801
 31
0.0
  0
LINE
  5
377
330
1F
100
AcDbEntity
  8
D-0
  6
Continuous
 62
     7
370
     9
100
AcDbLine
 10
685.6201234506192
 20
309.0020244679801
 30
0.0
 11
684.8702302621426
 21
309.0020244679801
 31
0.0
  0
LINE
  5
378
330
1F
100
AcDbEntity
  8
D-0
  6
Continuous
 62
     7
370
     9
100
AcDbLine
 10
676.5877381194175
 20
292.9546959414503
 30
0.0
 11
676.5877381194175
 21
293.7048370852491
 31
0.0
  0
LINE
  5
379
330
1F
100
AcDbEntity
  8
D-0
  6
Continuous
 62
     7
370
     9
100
AcDbLine
 10
676.5877381194175
 20
293.7048370852491
 30
0.0
 11
677.3376313078941
 21
293.7048370852491
 31
0.0
  0
LINE
  5
37A
330
1F
100
AcDbEntity
  8
D-0
  6
Continuous
 62
     7
370
     9
100
AcDbLine
 10
677.3376313078941
 20
293.7048370852491
 30
0.0
 11
677.3376313078941
 21
292.9546959414503
 31
0.0
  0
LINE
  5
37B
330
1F
100
AcDbEntity
  8
D-0
  6
Continuous
 62
     7
370
     9
100
AcDbLine
 10
677.3376313078941
 20
292.9546959414503
 30
0.0
 11
676.5877381194175
 21
292.9546959414503
 31
0.0
  0
LINE
  5
37C
330
1F
100
AcDbEntity
  8
D-0
  6
Continuous
 62
     7
370
     9
100
AcDbLine
 10
702.4705260654333
 20
282.6015807630439
 30
0.0
 11
702.4705260654333
 21
283.3517219068427
 31
0.0
  0
LINE
  5
37D
330
1F
100
AcDbEntity
  8
D-0
  6
Continuous
 62
     7
370
     9
100
AcDbLine
 10
702.4705260654333
 20
283.3517219068427
 30
0.0
 11
703.2204192539099
 21
283.3517219068427
 31
0.0
  0
LINE
  5
37E
330
1F
100
AcDbEntity
  8
D-0
  6
Continuous
 62
     7
370
     9
100
AcDbLine
 10
703.2204192539099
 20
283.3517219068427
 30
0.0
 11
703.2204192539099
 21
282.6015807630439
 31
0.0
  0
LINE
  5
37F
330
1F
100
AcDbEntity
  8
D-0
  6
Continuous
 62
     7
370
     9
100
AcDbLine
 10
703.2204192539099
 20
282.6015807630439
 30
0.0
 11
702.4705260654333
 21
282.6015807630439
 31
0.0
  0
LINE
  5
380
330
1F
100
AcDbEntity
  8
D-0
  6
Continuous
 62
     7
370
     9
100
AcDbLine
 10
713.8589527616805
 20
298.6489092895737
 30
0.0
 11
713.8589527616805
 21
299.3990504333726
 31
0.0
  0
LINE
  5
381
330
1F
100
AcDbEntity
  8
D-0
  6
Continuous
 62
     7
370
     9
100
AcDbLine
 10
713.8589527616805
 20
299.3990504333726
 30
0.0
 11
714.608845950157
 21
299.3990504333726
 31
0.0
  0
LINE
  5
382
330
1F
100
AcDbEntity
  8
D-0
  6
Continuous
 62
     7
370
     9
100
AcDbLine
 10
714.608845950157
 20
299.3990504333726
 30
0.0
 11
714.608845950157
 21
298.6489092895737
 31
0.0
  0
LINE
  5
383
330
1F
100
AcDbEntity
  8
D-0
  6
Continuous
 62
     7
370
     9
100
AcDbLine
 10
714.608845950157
 20
298.6489092895737
 30
0.0
 11
713.8589527616805
 21
298.6489092895737
 31
0.0
  0
LINE
  5
384
330
1F
100
AcDbEntity
  8
D-0
  6
Continuous
 62
     7
370
     9
100
AcDbLine
 10
705.0588048600349
 20
312.6256147804224
 30
0.0
 11
705.0588048600349
 21
313.3757559242212
 31
0.0
  0
LINE
  5
385
330
1F
100
AcDbEntity
  8
D-0
  6
Continuous
 62
     7
370
     9
100
AcDbLine
 10
705.0588048600349
 20
313.3757559242212
 30
0.0
 11
705.8086980485115
 21
313.3757559242212
 31
0.0
  0
LINE
  5
386
330
1F
100
AcDbEntity
  8
D-0
  6
Continuous
 62
     7
370
     9
100
AcDbLine
 10
705.8086980485115
 20
313.3757559242212
 30
0.0
 11
705.8086980485115
 21
312.6256147804224
 31
0.0
  0
LINE
  5
387
330
1F
100
AcDbEntity
  8
D-0
  6
Continuous
 62
     7
370
     9
100
AcDbLine
 10
705.8086980485115
 20
312.6256147804224
 30
0.0
 11
705.0588048600349
 21
312.6256147804224
 31
0.0
  0
LINE
  5
388
330
1F
100
AcDbEntity
  8
D-0
  6
Continuous
 62
     7
370
     9
100
AcDbLine
 10
691.5997551281067
 20
295.5429747360518
 30
0.0
 11
691.5997551281067
 21
296.2931158798506
 31
0.0
  0
LINE
  5
389
330
1F
100
AcDbEntity
  8
D-0
  6
Continuous
 62
     7
370
     9
100
AcDbLine
 10
691.5997551281067
 20
296.2931158798506
 30
0.0
 11
692.3496483165833
 21
296.2931158798506
 31
0.0
  0
LINE
  5
38A
330
1F
100
AcDbEntity
  8
D-0
  6
Continuous
 62
     7
370
     9
100
AcDbLine
 10
692.3496483165833
 20
296.2931158798506
 30
0.0
 11
692.3496483165833
 21
295.5429747360518
 31
0.0
  0
LINE
  5
38B
330
1F
100
AcDbEntity
  8
D-0
  6
Continuous
 62
     7
370
     9
100
AcDbLine
 10
692.3496483165833
 20
295.5429747360518
 30
0.0
 11
691.5997551281067
 21
295.5429747360518
 31
0.0
  0
LINE
  5
38C
330
1F
100
AcDbEntity
  8
D-0
  6
Continuous
 62
     7
370
     9
100
AcDbLine
 10
704.0234933421943
 20
330.7435663426335
 30
0.0
 11
704.0234933421943
 21
331.4937074864323
 31
0.0
  0
LINE
  5
38D
330
1F
100
AcDbEntity
  8
D-0
  6
Continuous
 62
     7
370
     9
100
AcDbLine
 10
704.0234933421943
 20
331.4937074864323
 30
0.0
 11
704.7733865306709
 21
331.4937074864323
 31
0.0
  0
LINE
  5
38E
330
1F
100
AcDbEntity
  8
D-0
  6
Continuous
 62
     7
370
     9
100
AcDbLine
 10
704.7733865306709
 20
331.4937074864323
 30
0.0
 11
704.7733865306709
 21
330.7435663426335
 31
0.0
  0
LINE
  5
38F
330
1F
100
AcDbEntity
  8
D-0
  6
Continuous
 62
     7
370
     9
100
AcDbLine
 10
704.7733865306709
 20
330.7435663426335
 30
0.0
 11
704.0234933421943
 21
330.7435663426335
 31
0.0
  0
LINE
  5
390
330
1F
100
AcDbEntity
  8
D-0
  6
Continuous
 62
     7
370
     9
100
AcDbLine
 10
691.0245820626398
 20
233.539318278707
 30
0.0
 11
691.0245820626398
 21
234.2894594225058
 31
0.0
  0
LINE
  5
391
330
1F
100
AcDbEntity
  8
D-0
  6
Continuous
 62
     7
370
     9
100
AcDbLine
 10
691.0245820626398
 20
234.2894594225058
 30
0.0
 11
691.7744752511163
 21
234.2894594225058
 31
0.0
  0
LINE
  5
392
330
1F
100
AcDbEntity
  8
D-0
  6
Continuous
 62
     7
370
     9
100
AcDbLine
 10
691.7744752511163
 20
234.2894594225058
 30
0.0
 11
691.7744752511163
 21
233.539318278707
 31
0.0
  0
LINE
  5
393
330
1F
100
AcDbEntity
  8
D-0
  6
Continuous
 62
     7
370
     9
100
AcDbLine
 10
691.7744752511163
 20
233.539318278707
 30
0.0
 11
691.0245820626398
 21
233.539318278707
 31
0.0
  0
LINE
  5
394
330
1F
100
AcDbEntity
  8
D-0
  6
Continuous
 62
     7
370
     9
100
AcDbLine
 10
725.8800698299411
 20
231.4686952430257
 30
0.0
 11
725.8800698299411
 21
232.2188363868246
 31
0.0
  0
LINE
  5
395
330
1F
100
AcDbEntity
  8
D-0
  6
Continuous
 62
     7
370
     9
100
AcDbLine
 10
725.8800698299411
 20
232.2188363868246
 30
0.0
 11
726.6299630184177
 21
232.2188363868246
 31
0.0
  0
LINE
  5
396
330
1F
100
AcDbEntity
  8
D-0
  6
Continuous
 62
     7
370
     9
100
AcDbLine
 10
726.6299630184177
 20
232.2188363868246
 30
0.0
 11
726.6299630184177
 21
231.4686952430257
 31
0.0
  0
LINE
  5
397
330
1F
100
AcDbEntity
  8
D-0
  6
Continuous
 62
     7
370
     9
100
AcDbLine
 10
726.6299630184177
 20
231.4686952430257
 30
0.0
 11
725.8800698299411
 21
231.4686952430257
 31
0.0
  0
LINE
  5
398
330
1F
100
AcDbEntity
  8
D-0
  6
Continuous
 62
     7
370
     9
100
AcDbLine
 10
714.1465392944139
 20
175.9069771189116
 30
0.0
 11
714.1465392944139
 21
176.6571182627104
 31
0.0
  0
LINE
  5
399
330
1F
100
AcDbEntity
  8
D-0
  6
Continuous
 62
     7
370
     9
100
AcDbLine
 10
714.1465392944139
 20
176.6571182627104
 30
0.0
 11
714.8964324828904
 21
176.6571182627104
 31
0.0
  0
LINE
  5
39A
330
1F
100
AcDbEntity
  8
D-0
  6
Continuous
 62
     7
370
     9
100
AcDbLine
 10
714.8964324828904
 20
176.6571182627104
 30
0.0
 11
714.8964324828904
 21
175.9069771189116
 31
0.0
  0
LINE
  5
39B
330
1F
100
AcDbEntity
  8
D-0
  6
Continuous
 62
     7
370
     9
100
AcDbLine
 10
714.8964324828904
 20
175.9069771189116
 30
0.0
 11
714.1465392944139
 21
175.9069771189116
 31
0.0
  0
LINE
  5
39C
330
1F
100
AcDbEntity
  8
D-0
  6
Continuous
 62
     7
370
     9
100
AcDbLine
 10
686.1931283127167
 20
179.0129116724335
 30
0.0
 11
686.1931283127167
 21
179.7630528162323
 31
0.0
  0
LINE
  5
39D
330
1F
100
AcDbEntity
  8
D-0
  6
Continuous
 62
     7
370
     9
100
AcDbLine
 10
686.1931283127167
 20
179.7630528162323
 30
0.0
 11
686.9430215011932
 21
179.7630528162323
 31
0.0
  0
LINE
  5
39E
330
1F
100
AcDbEntity
  8
D-0
  6
Continuous
 62
     7
370
     9
100
AcDbLine
 10
686.9430215011932
 20
179.7630528162323
 30
0.0
 11
686.9430215011932
 21
179.0129116724335
 31
0.0
  0
LINE
  5
39F
330
1F
100
AcDbEntity
  8
D-0
  6
Continuous
 62
     7
370
     9
100
AcDbLine
 10
686.9430215011932
 20
179.0129116724335
 30
0.0
 11
686.1931283127167
 21
179.0129116724335
 31
0.0
  0
LINE
  5
3A0
330
1F
100
AcDbEntity
  8
D-0
  6
Continuous
 62
     7
370
     9
100
AcDbLine
 10
689.0114763335052
 20
216.8592993801635
 30
0.0
 11
689.0114763335052
 21
217.6094405239623
 31
0.0
  0
LINE
  5
3A1
330
1F
100
AcDbEntity
  8
D-0
  6
Continuous
 62
     7
370
     9
100
AcDbLine
 10
689.0114763335052
 20
217.6094405239623
 30
0.0
 11
689.7613695219818
 21
217.6094405239623
 31
0.0
  0
LINE
  5
3A2
330
1F
100
AcDbEntity
  8
D-0
  6
Continuous
 62
     7
370
     9
100
AcDbLine
 10
689.7613695219818
 20
217.6094405239623
 30
0.0
 11
689.7613695219818
 21
216.8592993801635
 31
0.0
  0
LINE
  5
3A3
330
1F
100
AcDbEntity
  8
D-0
  6
Continuous
 62
     7
370
     9
100
AcDbLine
 10
689.7613695219818
 20
216.8592993801635
 30
0.0
 11
689.0114763335052
 21
216.8592993801635
 31
0.0
  0
LINE
  5
3A4
330
1F
100
AcDbEntity
  8
D-0
  6
Continuous
 62
     7
370
     9
100
AcDbLine
 10
680.7289841907801
 20
200.8119708536336
 30
0.0
 11
680.7289841907801
 21
201.5621119974325
 31
0.0
  0
LINE
  5
3A5
330
1F
100
AcDbEntity
  8
D-0
  6
Continuous
 62
     7
370
     9
100
AcDbLine
 10
680.7289841907801
 20
201.5621119974325
 30
0.0
 11
681.4788773792567
 21
201.5621119974325
 31
0.0
  0
LINE
  5
3A6
330
1F
100
AcDbEntity
  8
D-0
  6
Continuous
 62
     7
370
     9
100
AcDbLine
 10
681.4788773792567
 20
201.5621119974325
 30
0.0
 11
681.4788773792567
 21
200.8119708536336
 31
0.0
  0
LINE
  5
3A7
330
1F
100
AcDbEntity
  8
D-0
  6
Continuous
 62
     7
370
     9
100
AcDbLine
 10
681.4788773792567
 20
200.8119708536336
 30
0.0
 11
680.7289841907801
 21
200.8119708536336
 31
0.0
  0
LINE
  5
3A8
330
1F
100
AcDbEntity
  8
D-0
  6
Continuous
 62
     7
370
     9
100
AcDbLine
 10
706.6117721367959
 20
190.4588556752273
 30
0.0
 11
706.6117721367959
 21
191.2089968190261
 31
0.0
  0
LINE
  5
3A9
330
1F
100
AcDbEntity
  8
D-0
  6
Continuous
 62
     7
370
     9
100
AcDbLine
 10
706.6117721367959
 20
191.2089968190261
 30
0.0
 11
707.3616653252725
 21
191.2089968190261
 31
0.0
  0
LINE
  5
3AA
330
1F
100
AcDbEntity
  8
D-0
  6
Continuous
 62
     7
370
     9
100
AcDbLine
 10
707.3616653252725
 20
191.2089968190261
 30
0.0
 11
707.3616653252725
 21
190.4588556752273
 31
0.0
  0
LINE
  5
3AB
330
1F
100
AcDbEntity
  8
D-0
  6
Continuous
 62
     7
370
     9
100
AcDbLine
 10
707.3616653252725
 20
190.4588556752273
 30
0.0
 11
706.6117721367959
 21
190.4588556752273
 31
0.0
  0
LINE
  5
3AC
330
1F
100
AcDbEntity
  8
D-0
  6
Continuous
 62
     7
370
     9
100
AcDbLine
 10
718.000198833043
 20
206.5061842017571
 30
0.0
 11
718.000198833043
 21
207.2563253455559
 31
0.0
  0
LINE
  5
3AD
330
1F
100
AcDbEntity
  8
D-0
  6
Continuous
 62
     7
370
     9
100
AcDbLine
 10
718.000198833043
 20
207.2563253455559
 30
0.0
 11
718.7500920215195
 21
207.2563253455559
 31
0.0
  0
LINE
  5
3AE
330
1F
100
AcDbEntity
  8
D-0
  6
Continuous
 62
     7
370
     9
100
AcDbLine
 10
718.7500920215195
 20
207.2563253455559
 30
0.0
 11
718.7500920215195
 21
206.5061842017571
 31
0.0
  0
LINE
  5
3AF
330
1F
100
AcDbEntity
  8
D-0
  6
Continuous
 62
     7
370
     9
100
AcDbLine
 10
718.7500920215195
 20
206.5061842017571
 30
0.0
 11
718.000198833043
 21
206.5061842017571
 31
0.0
  0
LINE
  5
3B0
330
1F
100
AcDbEntity
  8
D-0
  6
Continuous
 62
     7
370
     9
100
AcDbLine
 10
709.2000509313975
 20
220.4828896926057
 30
0.0
 11
709.2000509313975
 21
221.2330308364046
 31
0.0
  0
LINE
  5
3B1
330
1F
100
AcDbEntity
  8
D-0
  6
Continuous
 62
     7
370
     9
100
AcDbLine
 10
709.2000509313975
 20
221.2330308364046
 30
0.0
 11
709.9499441198741
 21
221.2330308364046
 31
0.0
  0
LINE
  5
3B2
330
1F
100
AcDbEntity
  8
D-0
  6
Continuous
 62
     7
370
     9
100
AcDbLine
 10
709.9499441198741
 20
221.2330308364046
 30
0.0
 11
709.9499441198741
 21
220.4828896926057
 31
0.0
  0
LINE
  5
3B3
330
1F
100
AcDbEntity
  8
D-0
  6
Continuous
 62
     7
370
     9
100
AcDbLine
 10
709.9499441198741
 20
220.4828896926057
 30
0.0
 11
709.2000509313975
 21
220.4828896926057
 31
0.0
  0
LINE
  5
3B4
330
1F
100
AcDbEntity
  8
D-0
  6
Continuous
 62
     7
370
     9
100
AcDbLine
 10
695.7410011994693
 20
203.4002496482352
 30
0.0
 11
695.7410011994693
 21
204.150390792034
 31
0.0
  0
LINE
  5
3B5
330
1F
100
AcDbEntity
  8
D-0
  6
Continuous
 62
     7
370
     9
100
AcDbLine
 10
695.7410011994693
 20
204.150390792034
 30
0.0
 11
696.4908943879459
 21
204.150390792034
 31
0.0
  0
LINE
  5
3B6
330
1F
100
AcDbEntity
  8
D-0
  6
Continuous
 62
     7
370
     9
100
AcDbLine
 10
696.4908943879459
 20
204.150390792034
 30
0.0
 11
696.4908943879459
 21
203.4002496482352
 31
0.0
  0
LINE
  5
3B7
330
1F
100
AcDbEntity
  8
D-0
  6
Continuous
 62
     7
370
     9
100
AcDbLine
 10
696.4908943879459
 20
203.4002496482352
 30
0.0
 11
695.7410011994693
 21
203.4002496482352
 31
0.0
  0
LINE
  5
3B8
330
1F
100
AcDbEntity
  8
D-0
  6
Continuous
 62
     7
370
     9
100
AcDbLine
 10
708.164739413557
 20
238.6008412548168
 30
0.0
 11
708.164739413557
 21
239.3509823986157
 31
0.0
  0
LINE
  5
3B9
330
1F
100
AcDbEntity
  8
D-0
  6
Continuous
 62
     7
370
     9
100
AcDbLine
 10
708.164739413557
 20
239.3509823986157
 30
0.0
 11
708.9146326020335
 21
239.3509823986157
 31
0.0
  0
LINE
  5
3BA
330
1F
100
AcDbEntity
  8
D-0
  6
Continuous
 62
     7
370
     9
100
AcDbLine
 10
708.9146326020335
 20
239.3509823986157
 30
0.0
 11
708.9146326020335
 21
238.6008412548168
 31
0.0
  0
LINE
  5
3BB
330
1F
100
AcDbEntity
  8
D-0
  6
Continuous
 62
     7
370
     9
100
AcDbLine
 10
708.9146326020335
 20
238.6008412548168
 30
0.0
 11
708.164739413557
 21
238.6008412548168
 31
0.0
  0
LINE
  5
3BC
330
1F
100
AcDbEntity
  8
D-0
  6
Continuous
 62
     7
370
     9
100
AcDbLine
 10
504.0645771325848
 20
212.315432162974
 30
0.0
 11
504.0645771325848
 21
213.0655733067728
 31
0.0
  0
LINE
  5
3BD
330
1F
100
AcDbEntity
  8
D-0
  6
Continuous
 62
     7
370
     9
100
AcDbLine
 10
504.0645771325848
 20
213.0655733067728
 30
0.0
 11
504.8144703210614
 21
213.0655733067728
 31
0.0
  0
LINE
  5
3BE
330
1F
100
AcDbEntity
  8
D-0
  6
Continuous
 62
     7
370
     9
100
AcDbLine
 10
504.8144703210614
 20
213.0655733067728
 30
0.0
 11
504.8144703210614
 21
212.315432162974
 31
0.0
  0
LINE
  5
3BF
330
1F
100
AcDbEntity
  8
D-0
  6
Continuous
 62
     7
370
     9
100
AcDbLine
 10
504.8144703210614
 20
212.315432162974
 30
0.0
 11
504.0645771325848
 21
212.315432162974
 31
0.0
  0
LINE
  5
3C0
330
1F
100
AcDbEntity
  8
D-0
  6
Continuous
 62
     7
370
     9
100
AcDbLine
 10
538.9200648998863
 20
210.2448091272927
 30
0.0
 11
538.9200648998863
 21
210.9949502710915
 31
0.0
  0
LINE
  5
3C1
330
1F
100
AcDbEntity
  8
D-0
  6
Continuous
 62
     7
370
     9
100
AcDbLine
 10
538.9200648998863
 20
210.9949502710915
 30
0.0
 11
539.6699580883628
 21
210.9949502710915
 31
0.0
  0
LINE
  5
3C2
330
1F
100
AcDbEntity
  8
D-0
  6
Continuous
 62
     7
370
     9
100
AcDbLine
 10
539.6699580883628
 20
210.9949502710915
 30
0.0
 11
539.6699580883628
 21
210.2448091272927
 31
0.0
  0
LINE
  5
3C3
330
1F
100
AcDbEntity
  8
D-0
  6
Continuous
 62
     7
370
     9
100
AcDbLine
 10
539.6699580883628
 20
210.2448091272927
 30
0.0
 11
538.9200648998863
 21
210.2448091272927
 31
0.0
  0
LINE
  5
3C4
330
1F
100
AcDbEntity
  8
D-0
  6
Continuous
 62
     7
370
     9
100
AcDbLine
 10
527.186534364359
 20
154.6830910031786
 30
0.0
 11
527.186534364359
 21
155.4332321469774
 31
0.0
  0
LINE
  5
3C5
330
1F
100
AcDbEntity
  8
D-0
  6
Continuous
 62
     7
370
     9
100
AcDbLine
 10
527.186534364359
 20
155.4332321469774
 30
0.0
 11
527.9364275528355
 21
155.4332321469774
 31
0.0
  0
LINE
  5
3C6
330
1F
100
AcDbEntity
  8
D-0
  6
Continuous
 62
     7
370
     9
100
AcDbLine
 10
527.9364275528355
 20
155.4332321469774
 30
0.0
 11
527.9364275528355
 21
154.6830910031786
 31
0.0
  0
LINE
  5
3C7
330
1F
100
AcDbEntity
  8
D-0
  6
Continuous
 62
     7
370
     9
100
AcDbLine
 10
527.9364275528355
 20
154.6830910031786
 30
0.0
 11
527.186534364359
 21
154.6830910031786
 31
0.0
  0
LINE
  5
3C8
330
1F
100
AcDbEntity
  8
D-0
  6
Continuous
 62
     7
370
     9
100
AcDbLine
 10
499.2331233826618
 20
157.7890255567005
 30
0.0
 11
499.2331233826618
 21
158.5391667004993
 31
0.0
  0
LINE
  5
3C9
330
1F
100
AcDbEntity
  8
D-0
  6
Continuous
 62
     7
370
     9
100
AcDbLine
 10
499.2331233826618
 20
158.5391667004993
 30
0.0
 11
499.9830165711384
 21
158.5391667004993
 31
0.0
  0
LINE
  5
3CA
330
1F
100
AcDbEntity
  8
D-0
  6
Continuous
 62
     7
370
     9
100
AcDbLine
 10
499.9830165711384
 20
158.5391667004993
 30
0.0
 11
499.9830165711384
 21
157.7890255567005
 31
0.0
  0
LINE
  5
3CB
330
1F
100
AcDbEntity
  8
D-0
  6
Continuous
 62
     7
370
     9
100
AcDbLine
 10
499.9830165711384
 20
157.7890255567005
 30
0.0
 11
499.2331233826618
 21
157.7890255567005
 31
0.0
  0
LINE
  5
3CC
330
1F
100
AcDbEntity
  8
D-0
  6
Continuous
 62
     7
370
     9
100
AcDbLine
 10
502.0514714034503
 20
195.6354132644305
 30
0.0
 11
502.0514714034503
 21
196.3855544082293
 31
0.0
  0
LINE
  5
3CD
330
1F
100
AcDbEntity
  8
D-0
  6
Continuous
 62
     7
370
     9
100
AcDbLine
 10
502.0514714034503
 20
196.3855544082293
 30
0.0
 11
502.8013645919268
 21
196.3855544082293
 31
0.0
  0
LINE
  5
3CE
330
1F
100
AcDbEntity
  8
D-0
  6
Continuous
 62
     7
370
     9
100
AcDbLine
 10
502.8013645919268
 20
196.3855544082293
 30
0.0
 11
502.8013645919268
 21
195.6354132644305
 31
0.0
  0
LINE
  5
3CF
330
1F
100
AcDbEntity
  8
D-0
  6
Continuous
 62
     7
370
     9
100
AcDbLine
 10
502.8013645919268
 20
195.6354132644305
 30
0.0
 11
502.0514714034503
 21
195.6354132644305
 31
0.0
  0
LINE
  5
3D0
330
1F
100
AcDbEntity
  8
D-0
  6
Continuous
 62
     7
370
     9
100
AcDbLine
 10
493.7689792607252
 20
179.5880847379006
 30
0.0
 11
493.7689792607252
 21
180.3382258816994
 31
0.0
  0
LINE
  5
3D1
330
1F
100
AcDbEntity
  8
D-0
  6
Continuous
 62
     7
370
     9
100
AcDbLine
 10
493.7689792607252
 20
180.3382258816994
 30
0.0
 11
494.5188724492018
 21
180.3382258816994
 31
0.0
  0
LINE
  5
3D2
330
1F
100
AcDbEntity
  8
D-0
  6
Continuous
 62
     7
370
     9
100
AcDbLine
 10
494.5188724492018
 20
180.3382258816994
 30
0.0
 11
494.5188724492018
 21
179.5880847379006
 31
0.0
  0
LINE
  5
3D3
330
1F
100
AcDbEntity
  8
D-0
  6
Continuous
 62
     7
370
     9
100
AcDbLine
 10
494.5188724492018
 20
179.5880847379006
 30
0.0
 11
493.7689792607252
 21
179.5880847379006
 31
0.0
  0
LINE
  5
3D4
330
1F
100
AcDbEntity
  8
D-0
  6
Continuous
 62
     7
370
     9
100
AcDbLine
 10
519.651767206741
 20
169.2349695594942
 30
0.0
 11
519.651767206741
 21
169.9851107032931
 31
0.0
  0
LINE
  5
3D5
330
1F
100
AcDbEntity
  8
D-0
  6
Continuous
 62
     7
370
     9
100
AcDbLine
 10
519.651767206741
 20
169.9851107032931
 30
0.0
 11
520.4016603952176
 21
169.9851107032931
 31
0.0
  0
LINE
  5
3D6
330
1F
100
AcDbEntity
  8
D-0
  6
Continuous
 62
     7
370
     9
100
AcDbLine
 10
520.4016603952176
 20
169.9851107032931
 30
0.0
 11
520.4016603952176
 21
169.2349695594942
 31
0.0
  0
LINE
  5
3D7
330
1F
100
AcDbEntity
  8
D-0
  6
Continuous
 62
     7
370
     9
100
AcDbLine
 10
520.4016603952176
 20
169.2349695594942
 30
0.0
 11
519.651767206741
 21
169.2349695594942
 31
0.0
  0
LINE
  5
3D8
330
1F
100
AcDbEntity
  8
D-0
  6
Continuous
 62
     7
370
     9
100
AcDbLine
 10
531.0401939029881
 20
185.2822980860241
 30
0.0
 11
531.0401939029881
 21
186.0324392298229
 31
0.0
  0
LINE
  5
3D9
330
1F
100
AcDbEntity
  8
D-0
  6
Continuous
 62
     7
370
     9
100
AcDbLine
 10
531.0401939029881
 20
186.0324392298229
 30
0.0
 11
531.7900870914647
 21
186.0324392298229
 31
0.0
  0
LINE
  5
3DA
330
1F
100
AcDbEntity
  8
D-0
  6
Continuous
 62
     7
370
     9
100
AcDbLine
 10
531.7900870914647
 20
186.0324392298229
 30
0.0
 11
531.7900870914647
 21
185.2822980860241
 31
0.0
  0
LINE
  5
3DB
330
1F
100
AcDbEntity
  8
D-0
  6
Continuous
 62
     7
370
     9
100
AcDbLine
 10
531.7900870914647
 20
185.2822980860241
 30
0.0
 11
531.0401939029881
 21
185.2822980860241
 31
0.0
  0
LINE
  5
3DC
330
1F
100
AcDbEntity
  8
D-0
  6
Continuous
 62
     7
370
     9
100
AcDbLine
 10
522.2400460013425
 20
199.2590035768727
 30
0.0
 11
522.2400460013425
 21
200.0091447206715
 31
0.0
  0
LINE
  5
3DD
330
1F
100
AcDbEntity
  8
D-0
  6
Continuous
 62
     7
370
     9
100
AcDbLine
 10
522.2400460013425
 20
200.0091447206715
 30
0.0
 11
522.9899391898191
 21
200.0091447206715
 31
0.0
  0
LINE
  5
3DE
330
1F
100
AcDbEntity
  8
D-0
  6
Continuous
 62
     7
370
     9
100
AcDbLine
 10
522.9899391898191
 20
200.0091447206715
 30
0.0
 11
522.9899391898191
 21
199.2590035768727
 31
0.0
  0
LINE
  5
3DF
330
1F
100
AcDbEntity
  8
D-0
  6
Continuous
 62
     7
370
     9
100
AcDbLine
 10
522.9899391898191
 20
199.2590035768727
 30
0.0
 11
522.2400460013425
 21
199.2590035768727
 31
0.0
  0
LINE
  5
3E0
330
1F
100
AcDbEntity
  8
D-0
  6
Continuous
 62
     7
370
     9
100
AcDbLine
 10
508.7809962694144
 20
182.1763635325022
 30
0.0
 11
508.7809962694144
 21
182.926504676301
 31
0.0
  0
LINE
  5
3E1
330
1F
100
AcDbEntity
  8
D-0
  6
Continuous
 62
     7
370
     9
100
AcDbLine
 10
508.7809962694144
 20
182.926504676301
 30
0.0
 11
509.530889457891
 21
182.926504676301
 31
0.0
  0
LINE
  5
3E2
330
1F
100
AcDbEntity
  8
D-0
  6
Continuous
 62
     7
370
     9
100
AcDbLine
 10
509.530889457891
 20
182.926504676301
 30
0.0
 11
509.530889457891
 21
182.1763635325022
 31
0.0
  0
LINE
  5
3E3
330
1F
100
AcDbEntity
  8
D-0
  6
Continuous
 62
     7
370
     9
100
AcDbLine
 10
509.530889457891
 20
182.1763635325022
 30
0.0
 11
508.7809962694144
 21
182.1763635325022
 31
0.0
  0
LINE
  5
3E4
330
1F
100
AcDbEntity
  8
D-0
  6
Continuous
 62
     7
370
     9
100
AcDbLine
 10
521.2047344835021
 20
217.3769551390838
 30
0.0
 11
521.2047344835021
 21
218.1270962828826
 31
0.0
  0
LINE
  5
3E5
330
1F
100
AcDbEntity
  8
D-0
  6
Continuous
 62
     7
370
     9
100
AcDbLine
 10
521.2047344835021
 20
218.1270962828826
 30
0.0
 11
521.9546276719786
 21
218.1270962828826
 31
0.0
  0
LINE
  5
3E6
330
1F
100
AcDbEntity
  8
D-0
  6
Continuous
 62
     7
370
     9
100
AcDbLine
 10
521.9546276719786
 20
218.1270962828826
 30
0.0
 11
521.9546276719786
 21
217.3769551390838
 31
0.0
  0
LINE
  5
3E7
330
1F
100
AcDbEntity
  8
D-0
  6
Continuous
 62
     7
370
     9
100
AcDbLine
 10
521.9546276719786
 20
217.3769551390838
 30
0.0
 11
521.2047344835021
 21
217.3769551390838
 31
0.0
  0
LINE
  5
3E8
330
1F
100
AcDbEntity
  8
D-0
  6
Continuous
 62
     7
370
     9
100
AcDbLine
 10
503.5469213736645
 20
89.45846537921854
 30
0.0
 11
503.5469213736645
 21
90.20860652301737
 31
0.0
  0
LINE
  5
3E9
330
1F
100
AcDbEntity
  8
D-0
  6
Continuous
 62
     7
370
     9
100
AcDbLine
 10
503.5469213736645
 20
90.20860652301737
 30
0.0
 11
504.2968145621411
 21
90.20860652301737
 31
0.0
  0
LINE
  5
3EA
330
1F
100
AcDbEntity
  8
D-0
  6
Continuous
 62
     7
370
     9
100
AcDbLine
 10
504.2968145621411
 20
90.20860652301737
 30
0.0
 11
504.2968145621411
 21
89.45846537921854
 31
0.0
  0
LINE
  5
3EB
330
1F
100
AcDbEntity
  8
D-0
  6
Continuous
 62
     7
370
     9
100
AcDbLine
 10
504.2968145621411
 20
89.45846537921854
 30
0.0
 11
503.5469213736645
 21
89.45846537921854
 31
0.0
  0
LINE
  5
3EC
330
1F
100
AcDbEntity
  8
D-0
  6
Continuous
 62
     7
370
     9
100
AcDbLine
 10
538.402409140966
 20
87.38784234353724
 30
0.0
 11
538.402409140966
 21
88.13798348733607
 31
0.0
  0
LINE
  5
3ED
330
1F
100
AcDbEntity
  8
D-0
  6
Continuous
 62
     7
370
     9
100
AcDbLine
 10
538.402409140966
 20
88.13798348733607
 30
0.0
 11
539.1523023294426
 21
88.13798348733607
 31
0.0
  0
LINE
  5
3EE
330
1F
100
AcDbEntity
  8
D-0
  6
Continuous
 62
     7
370
     9
100
AcDbLine
 10
539.1523023294426
 20
88.13798348733607
 30
0.0
 11
539.1523023294426
 21
87.38784234353724
 31
0.0
  0
LINE
  5
3EF
330
1F
100
AcDbEntity
  8
D-0
  6
Continuous
 62
     7
370
     9
100
AcDbLine
 10
539.1523023294426
 20
87.38784234353724
 30
0.0
 11
538.402409140966
 21
87.38784234353724
 31
0.0
  0
LINE
  5
3F0
330
1F
100
AcDbEntity
  8
D-0
  6
Continuous
 62
     7
370
     9
100
AcDbLine
 10
498.7154676237415
 20
34.93205877294501
 30
0.0
 11
498.7154676237415
 21
35.68219991674384
 31
0.0
  0
LINE
  5
3F1
330
1F
100
AcDbEntity
  8
D-0
  6
Continuous
 62
     7
370
     9
100
AcDbLine
 10
498.7154676237415
 20
35.68219991674384
 30
0.0
 11
499.4653608122181
 21
35.68219991674384
 31
0.0
  0
LINE
  5
3F2
330
1F
100
AcDbEntity
  8
D-0
  6
Continuous
 62
     7
370
     9
100
AcDbLine
 10
499.4653608122181
 20
35.68219991674384
 30
0.0
 11
499.4653608122181
 21
34.93205877294501
 31
0.0
  0
LINE
  5
3F3
330
1F
100
AcDbEntity
  8
D-0
  6
Continuous
 62
     7
370
     9
100
AcDbLine
 10
499.4653608122181
 20
34.93205877294501
 30
0.0
 11
498.7154676237415
 21
34.93205877294501
 31
0.0
  0
LINE
  5
3F4
330
1F
100
AcDbEntity
  8
D-0
  6
Continuous
 62
     7
370
     9
100
AcDbLine
 10
501.53381564453
 20
72.77844648067502
 30
0.0
 11
501.53381564453
 21
73.52858762447384
 31
0.0
  0
LINE
  5
3F5
330
1F
100
AcDbEntity
  8
D-0
  6
Continuous
 62
     7
370
     9
100
AcDbLine
 10
501.53381564453
 20
73.52858762447384
 30
0.0
 11
502.2837088330066
 21
73.52858762447384
 31
0.0
  0
LINE
  5
3F6
330
1F
100
AcDbEntity
  8
D-0
  6
Continuous
 62
     7
370
     9
100
AcDbLine
 10
502.2837088330066
 20
73.52858762447384
 30
0.0
 11
502.2837088330066
 21
72.77844648067502
 31
0.0
  0
LINE
  5
3F7
330
1F
100
AcDbEntity
  8
D-0
  6
Continuous
 62
     7
370
     9
100
AcDbLine
 10
502.2837088330066
 20
72.77844648067502
 30
0.0
 11
501.53381564453
 21
72.77844648067502
 31
0.0
  0
LINE
  5
3F8
330
1F
100
AcDbEntity
  8
D-0
  6
Continuous
 62
     7
370
     9
100
AcDbLine
 10
493.251323501805
 20
56.73111795414515
 30
0.0
 11
493.251323501805
 21
57.48125909794398
 31
0.0
  0
LINE
  5
3F9
330
1F
100
AcDbEntity
  8
D-0
  6
Continuous
 62
     7
370
     9
100
AcDbLine
 10
493.251323501805
 20
57.48125909794398
 30
0.0
 11
494.0012166902815
 21
57.48125909794398
 31
0.0
  0
LINE
  5
3FA
330
1F
100
AcDbEntity
  8
D-0
  6
Continuous
 62
     7
370
     9
100
AcDbLine
 10
494.0012166902815
 20
57.48125909794398
 30
0.0
 11
494.0012166902815
 21
56.73111795414515
 31
0.0
  0
LINE
  5
3FB
330
1F
100
AcDbEntity
  8
D-0
  6
Continuous
 62
     7
370
     9
100
AcDbLine
 10
494.0012166902815
 20
56.73111795414515
 30
0.0
 11
493.251323501805
 21
56.73111795414515
 31
0.0
  0
LINE
  5
3FC
330
1F
100
AcDbEntity
  8
D-0
  6
Continuous
 62
     7
370
     9
100
AcDbLine
 10
519.1341114478207
 20
46.37800277573879
 30
0.0
 11
519.1341114478207
 21
47.12814391953762
 31
0.0
  0
LINE
  5
3FD
330
1F
100
AcDbEntity
  8
D-0
  6
Continuous
 62
     7
370
     9
100
AcDbLine
 10
519.1341114478207
 20
47.12814391953762
 30
0.0
 11
519.8840046362973
 21
47.12814391953762
 31
0.0
  0
LINE
  5
3FE
330
1F
100
AcDbEntity
  8
D-0
  6
Continuous
 62
     7
370
     9
100
AcDbLine
 10
519.8840046362973
 20
47.12814391953762
 30
0.0
 11
519.8840046362973
 21
46.37800277573879
 31
0.0
  0
LINE
  5
3FF
330
1F
100
AcDbEntity
  8
D-0
  6
Continuous
 62
     7
370
     9
100
AcDbLine
 10
519.8840046362973
 20
46.37800277573879
 30
0.0
 11
519.1341114478207
 21
46.37800277573879
 31
0.0
  0
LINE
  5
400
330
1F
100
AcDbEntity
  8
D-0
  6
Continuous
 62
     7
370
     9
100
AcDbLine
 10
530.5225381440678
 20
62.42533130226862
 30
0.0
 11
530.5225381440678
 21
63.17547244606745
 31
0.0
  0
LINE
  5
401
330
1F
100
AcDbEntity
  8
D-0
  6
Continuous
 62
     7
370
     9
100
AcDbLine
 10
530.5225381440678
 20
63.17547244606745
 30
0.0
 11
531.2724313325443
 21
63.17547244606745
 31
0.0
  0
LINE
  5
402
330
1F
100
AcDbEntity
  8
D-0
  6
Continuous
 62
     7
370
     9
100
AcDbLine
 10
531.2724313325443
 20
63.17547244606745
 30
0.0
 11
531.2724313325443
 21
62.42533130226862
 31
0.0
  0
LINE
  5
403
330
1F
100
AcDbEntity
  8
D-0
  6
Continuous
 62
     7
370
     9
100
AcDbLine
 10
531.2724313325443
 20
62.42533130226862
 30
0.0
 11
530.5225381440678
 21
62.42533130226862
 31
0.0
  0
LINE
  5
404
330
1F
100
AcDbEntity
  8
D-0
  6
Continuous
 62
     7
370
     9
100
AcDbLine
 10
521.7223902424223
 20
76.40203679311726
 30
0.0
 11
521.7223902424223
 21
77.15217793691609
 31
0.0
  0
LINE
  5
405
330
1F
100
AcDbEntity
  8
D-0
  6
Continuous
 62
     7
370
     9
100
AcDbLine
 10
521.7223902424223
 20
77.15217793691609
 30
0.0
 11
522.4722834308989
 21
77.15217793691609
 31
0.0
  0
LINE
  5
406
330
1F
100
AcDbEntity
  8
D-0
  6
Continuous
 62
     7
370
     9
100
AcDbLine
 10
522.4722834308989
 20
77.15217793691609
 30
0.0
 11
522.4722834308989
 21
76.40203679311726
 31
0.0
  0
LINE
  5
407
330
1F
100
AcDbEntity
  8
D-0
  6
Continuous
 62
     7
370
     9
100
AcDbLine
 10
522.4722834308989
 20
76.40203679311726
 30
0.0
 11
521.7223902424223
 21
76.40203679311726
 31
0.0
  0
LINE
  5
408
330
1F
100
AcDbEntity
  8
D-0
  6
Continuous
 62
     7
370
     9
100
AcDbLine
 10
508.2633405104941
 20
59.31939674874671
 30
0.0
 11
508.2633405104941
 21
60.06953789254554
 31
0.0
  0
LINE
  5
409
330
1F
100
AcDbEntity
  8
D-0
  6
Continuous
 62
     7
370
     9
100
AcDbLine
 10
508.2633405104941
 20
60.06953789254554
 30
0.0
 11
509.0132336989707
 21
60.06953789254554
 31
0.0
  0
LINE
  5
40A
330
1F
100
AcDbEntity
  8
D-0
  6
Continuous
 62
     7
370
     9
100
AcDbLine
 10
509.0132336989707
 20
60.06953789254554
 30
0.0
 11
509.0132336989707
 21
59.31939674874671
 31
0.0
  0
LINE
  5
40B
330
1F
100
AcDbEntity
  8
D-0
  6
Continuous
 62
     7
370
     9
100
AcDbLine
 10
509.0132336989707
 20
59.31939674874671
 30
0.0
 11
508.2633405104941
 21
59.31939674874671
 31
0.0
  0
LINE
  5
40C
330
1F
100
AcDbEntity
  8
D-0
  6
Continuous
 62
     7
370
     9
100
AcDbLine
 10
520.6870787245817
 20
94.51998835532835
 30
0.0
 11
520.6870787245817
 21
95.27012949912718
 31
0.0
  0
LINE
  5
40D
330
1F
100
AcDbEntity
  8
D-0
  6
Continuous
 62
     7
370
     9
100
AcDbLine
 10
520.6870787245817
 20
95.27012949912718
 30
0.0
 11
521.4369719130583
 21
95.27012949912718
 31
0.0
  0
LINE
  5
40E
330
1F
100
AcDbEntity
  8
D-0
  6
Continuous
 62
     7
370
     9
100
AcDbLine
 10
521.4369719130583
 20
95.27012949912718
 30
0.0
 11
521.4369719130583
 21
94.51998835532835
 31
0.0
  0
LINE
  5
40F
330
1F
100
AcDbEntity
  8
D-0
  6
Continuous
 62
     7
370
     9
100
AcDbLine
 10
521.4369719130583
 20
94.51998835532835
 30
0.0
 11
520.6870787245817
 21
94.51998835532835
 31
0.0
  0
LINE
  5
410
330
1F
100
AcDbEntity
  8
D-0
  6
Continuous
 62
     7
370
     9
100
AcDbLine
 10
528.6584545273492
 20
35.92553952238794
 30
0.0
 11
528.6584545273492
 21
36.67568066618677
 31
0.0
  0
LINE
  5
411
330
1F
100
AcDbEntity
  8
D-0
  6
Continuous
 62
     7
370
     9
100
AcDbLine
 10
528.6584545273492
 20
36.67568066618677
 30
0.0
 11
529.4083477158258
 21
36.67568066618677
 31
0.0
  0
LINE
  5
412
330
1F
100
AcDbEntity
  8
D-0
  6
Continuous
 62
     7
370
     9
100
AcDbLine
 10
529.4083477158258
 20
36.67568066618677
 30
0.0
 11
529.4083477158258
 21
35.92553952238794
 31
0.0
  0
LINE
  5
413
330
1F
100
AcDbEntity
  8
D-0
  6
Continuous
 62
     7
370
     9
100
AcDbLine
 10
529.4083477158258
 20
35.92553952238794
 30
0.0
 11
528.6584545273492
 21
35.92553952238794
 31
0.0
  0
LINE
  5
414
330
1F
100
AcDbEntity
  8
D-0
  6
Continuous
 62
     7
370
     9
100
AcDbLine
 10
534.7552890212997
 20
50.53493538525026
 30
0.0
 11
534.7552890212997
 21
51.28507652904909
 31
0.0
  0
LINE
  5
415
330
1F
100
AcDbEntity
  8
D-0
  6
Continuous
 62
     7
370
     9
100
AcDbLine
 10
534.7552890212997
 20
51.28507652904909
 30
0.0
 11
535.5051822097763
 21
51.28507652904909
 31
0.0
  0
LINE
  5
416
330
1F
100
AcDbEntity
  8
D-0
  6
Continuous
 62
     7
370
     9
100
AcDbLine
 10
535.5051822097763
 20
51.28507652904909
 30
0.0
 11
535.5051822097763
 21
50.53493538525026
 31
0.0
  0
LINE
  5
417
330
1F
100
AcDbEntity
  8
D-0
  6
Continuous
 62
     7
370
     9
100
AcDbLine
 10
535.5051822097763
 20
50.53493538525026
 30
0.0
 11
534.7552890212997
 21
50.53493538525026
 31
0.0
  0
LINE
  5
418
330
1F
100
AcDbEntity
  8
D-0
  6
Continuous
 62
     7
370
     9
100
AcDbLine
 10
494.953312890982
 20
94.70822681311739
 30
0.0
 11
494.953312890982
 21
95.45836795691622
 31
0.0
  0
LINE
  5
419
330
1F
100
AcDbEntity
  8
D-0
  6
Continuous
 62
     7
370
     9
100
AcDbLine
 10
494.953312890982
 20
95.45836795691622
 30
0.0
 11
495.7032060794585
 21
95.45836795691622
 31
0.0
  0
LINE
  5
41A
330
1F
100
AcDbEntity
  8
D-0
  6
Continuous
 62
     7
370
     9
100
AcDbLine
 10
495.7032060794585
 20
95.45836795691622
 30
0.0
 11
495.7032060794585
 21
94.70822681311739
 31
0.0
  0
LINE
  5
41B
330
1F
100
AcDbEntity
  8
D-0
  6
Continuous
 62
     7
370
     9
100
AcDbLine
 10
495.7032060794585
 20
94.70822681311739
 30
0.0
 11
494.953312890982
 21
94.70822681311739
 31
0.0
  0
LINE
  5
41C
330
1F
100
AcDbEntity
  8
D-0
  6
Continuous
 62
     7
370
     9
100
AcDbLine
 10
510.2529164324047
 20
140.4920028242922
 30
0.0
 11
510.2529164324047
 21
141.242143968091
 31
0.0
  0
LINE
  5
41D
330
1F
100
AcDbEntity
  8
D-0
  6
Continuous
 62
     7
370
     9
100
AcDbLine
 10
510.2529164324047
 20
141.242143968091
 30
0.0
 11
511.0028096208813
 21
141.242143968091
 31
0.0
  0
LINE
  5
41E
330
1F
100
AcDbEntity
  8
D-0
  6
Continuous
 62
     7
370
     9
100
AcDbLine
 10
511.0028096208813
 20
141.242143968091
 30
0.0
 11
511.0028096208813
 21
140.4920028242922
 31
0.0
  0
LINE
  5
41F
330
1F
100
AcDbEntity
  8
D-0
  6
Continuous
 62
     7
370
     9
100
AcDbLine
 10
511.0028096208813
 20
140.4920028242922
 30
0.0
 11
510.2529164324047
 21
140.4920028242922
 31
0.0
  0
LINE
  5
420
330
1F
100
AcDbEntity
  8
D-0
  6
Continuous
 62
     7
370
     9
100
AcDbLine
 10
496.103659021916
 20
129.7937838066056
 30
0.0
 11
496.103659021916
 21
130.5439249504045
 31
0.0
  0
LINE
  5
421
330
1F
100
AcDbEntity
  8
D-0
  6
Continuous
 62
     7
370
     9
100
AcDbLine
 10
496.103659021916
 20
130.5439249504045
 30
0.0
 11
496.8535522103926
 21
130.5439249504045
 31
0.0
  0
LINE
  5
422
330
1F
100
AcDbEntity
  8
D-0
  6
Continuous
 62
     7
370
     9
100
AcDbLine
 10
496.8535522103926
 20
130.5439249504045
 30
0.0
 11
496.8535522103926
 21
129.7937838066056
 31
0.0
  0
LINE
  5
423
330
1F
100
AcDbEntity
  8
D-0
  6
Continuous
 62
     7
370
     9
100
AcDbLine
 10
496.8535522103926
 20
129.7937838066056
 30
0.0
 11
496.103659021916
 21
129.7937838066056
 31
0.0
  0
LINE
  5
424
330
1F
100
AcDbEntity
  8
D-0
  6
Continuous
 62
     7
370
     9
100
AcDbLine
 10
515.7745778608881
 20
125.6525377352431
 30
0.0
 11
515.7745778608881
 21
126.4026788790419
 31
0.0
  0
LINE
  5
425
330
1F
100
AcDbEntity
  8
D-0
  6
Continuous
 62
     7
370
     9
100
AcDbLine
 10
515.7745778608881
 20
126.4026788790419
 30
0.0
 11
516.5244710493647
 21
126.4026788790419
 31
0.0
  0
LINE
  5
426
330
1F
100
AcDbEntity
  8
D-0
  6
Continuous
 62
     7
370
     9
100
AcDbLine
 10
516.5244710493647
 20
126.4026788790419
 30
0.0
 11
516.5244710493647
 21
125.6525377352431
 31
0.0
  0
LINE
  5
427
330
1F
100
AcDbEntity
  8
D-0
  6
Continuous
 62
     7
370
     9
100
AcDbLine
 10
516.5244710493647
 20
125.6525377352431
 30
0.0
 11
515.7745778608881
 21
125.6525377352431
 31
0.0
  0
LINE
  5
428
330
1F
100
AcDbEntity
  8
D-0
  6
Continuous
 62
     7
370
     9
100
AcDbLine
 10
528.5434199142559
 20
112.1934880033148
 30
0.0
 11
528.5434199142559
 21
112.9436291471136
 31
0.0
  0
LINE
  5
429
330
1F
100
AcDbEntity
  8
D-0
  6
Continuous
 62
     7
370
     9
100
AcDbLine
 10
528.5434199142559
 20
112.9436291471136
 30
0.0
 11
529.2933131027324
 21
112.9436291471136
 31
0.0
  0
LINE
  5
42A
330
1F
100
AcDbEntity
  8
D-0
  6
Continuous
 62
     7
370
     9
100
AcDbLine
 10
529.2933131027324
 20
112.9436291471136
 30
0.0
 11
529.2933131027324
 21
112.1934880033148
 31
0.0
  0
LINE
  5
42B
330
1F
100
AcDbEntity
  8
D-0
  6
Continuous
 62
     7
370
     9
100
AcDbLine
 10
529.2933131027324
 20
112.1934880033148
 30
0.0
 11
528.5434199142559
 21
112.1934880033148
 31
0.0
  0
LINE
  5
42C
330
1F
100
AcDbEntity
  8
D-0
  6
Continuous
 62
     7
370
     9
100
AcDbLine
 10
533.374873664179
 20
128.758472288765
 30
0.0
 11
533.374873664179
 21
129.5086134325638
 31
0.0
  0
LINE
  5
42D
330
1F
100
AcDbEntity
  8
D-0
  6
Continuous
 62
     7
370
     9
100
AcDbLine
 10
533.374873664179
 20
129.5086134325638
 30
0.0
 11
534.1247668526555
 21
129.5086134325638
 31
0.0
  0
LINE
  5
42E
330
1F
100
AcDbEntity
  8
D-0
  6
Continuous
 62
     7
370
     9
100
AcDbLine
 10
534.1247668526555
 20
129.5086134325638
 30
0.0
 11
534.1247668526555
 21
128.758472288765
 31
0.0
  0
LINE
  5
42F
330
1F
100
AcDbEntity
  8
D-0
  6
Continuous
 62
     7
370
     9
100
AcDbLine
 10
534.1247668526555
 20
128.758472288765
 30
0.0
 11
533.374873664179
 21
128.758472288765
 31
0.0
  0
LINE
  5
430
330
1F
100
AcDbEntity
  8
D-0
  6
Continuous
 62
     7
370
     9
100
AcDbLine
 10
534.7552890212999
 20
143.2528335385339
 30
0.0
 11
534.7552890212999
 21
144.0029746823327
 31
0.0
  0
LINE
  5
431
330
1F
100
AcDbEntity
  8
D-0
  6
Continuous
 62
     7
370
     9
100
AcDbLine
 10
534.7552890212999
 20
144.0029746823327
 30
0.0
 11
535.5051822097764
 21
144.0029746823327
 31
0.0
  0
LINE
  5
432
330
1F
100
AcDbEntity
  8
D-0
  6
Continuous
 62
     7
370
     9
100
AcDbLine
 10
535.5051822097764
 20
144.0029746823327
 30
0.0
 11
535.5051822097764
 21
143.2528335385339
 31
0.0
  0
LINE
  5
433
330
1F
100
AcDbEntity
  8
D-0
  6
Continuous
 62
     7
370
     9
100
AcDbLine
 10
535.5051822097764
 20
143.2528335385339
 30
0.0
 11
534.7552890212999
 21
143.2528335385339
 31
0.0
  0
LINE
  5
434
330
1F
100
AcDbEntity
  8
D-0
  6
Continuous
 62
     7
370
     9
100
AcDbLine
 10
537.5161197355415
 20
173.9670752344728
 30
0.0
 11
537.5161197355415
 21
174.7172163782716
 31
0.0
  0
LINE
  5
435
330
1F
100
AcDbEntity
  8
D-0
  6
Continuous
 62
     7
370
     9
100
AcDbLine
 10
537.5161197355415
 20
174.7172163782716
 30
0.0
 11
538.266012924018
 21
174.7172163782716
 31
0.0
  0
LINE
  5
436
330
1F
100
AcDbEntity
  8
D-0
  6
Continuous
 62
     7
370
     9
100
AcDbLine
 10
538.266012924018
 20
174.7172163782716
 30
0.0
 11
538.266012924018
 21
173.9670752344728
 31
0.0
  0
LINE
  5
437
330
1F
100
AcDbEntity
  8
D-0
  6
Continuous
 62
     7
370
     9
100
AcDbLine
 10
538.266012924018
 20
173.9670752344728
 30
0.0
 11
537.5161197355415
 21
173.9670752344728
 31
0.0
  0
LINE
  5
438
330
1F
100
AcDbEntity
  8
D-0
  6
Continuous
 62
     7
370
     9
100
AcDbLine
 10
551.5791011862102
 20
177.1592857478147
 30
0.0
 11
551.5791011862102
 21
177.9094268916135
 31
0.0
  0
LINE
  5
439
330
1F
100
AcDbEntity
  8
D-0
  6
Continuous
 62
     7
370
     9
100
AcDbLine
 10
551.5791011862102
 20
177.9094268916135
 30
0.0
 11
552.3289943746868
 21
177.9094268916135
 31
0.0
  0
LINE
  5
43A
330
1F
100
AcDbEntity
  8
D-0
  6
Continuous
 62
     7
370
     9
100
AcDbLine
 10
552.3289943746868
 20
177.9094268916135
 30
0.0
 11
552.3289943746868
 21
177.1592857478147
 31
0.0
  0
LINE
  5
43B
330
1F
100
AcDbEntity
  8
D-0
  6
Continuous
 62
     7
370
     9
100
AcDbLine
 10
552.3289943746868
 20
177.1592857478147
 30
0.0
 11
551.5791011862102
 21
177.1592857478147
 31
0.0
  0
LINE
  5
43C
330
1F
100
AcDbEntity
  8
D-0
  6
Continuous
 62
     7
370
     9
100
AcDbLine
 10
573.6657469001437
 20
177.1592857478147
 30
0.0
 11
573.6657469001437
 21
177.9094268916135
 31
0.0
  0
LINE
  5
43D
330
1F
100
AcDbEntity
  8
D-0
  6
Continuous
 62
     7
370
     9
100
AcDbLine
 10
573.6657469001437
 20
177.9094268916135
 30
0.0
 11
574.4156400886203
 21
177.9094268916135
 31
0.0
  0
LINE
  5
43E
330
1F
100
AcDbEntity
  8
D-0
  6
Continuous
 62
     7
370
     9
100
AcDbLine
 10
574.4156400886203
 20
177.9094268916135
 30
0.0
 11
574.4156400886203
 21
177.1592857478147
 31
0.0
  0
LINE
  5
43F
330
1F
100
AcDbEntity
  8
D-0
  6
Continuous
 62
     7
370
     9
100
AcDbLine
 10
574.4156400886203
 20
177.1592857478147
 30
0.0
 11
573.6657469001437
 21
177.1592857478147
 31
0.0
  0
LINE
  5
440
330
1F
100
AcDbEntity
  8
D-0
  6
Continuous
 62
     7
370
     9
100
AcDbLine
 10
570.5598123466218
 20
192.6889585154242
 30
0.0
 11
570.5598123466218
 21
193.4390996592231
 31
0.0
  0
LINE
  5
441
330
1F
100
AcDbEntity
  8
D-0
  6
Continuous
 62
     7
370
     9
100
AcDbLine
 10
570.5598123466218
 20
193.4390996592231
 30
0.0
 11
571.3097055350984
 21
193.4390996592231
 31
0.0
  0
LINE
  5
442
330
1F
100
AcDbEntity
  8
D-0
  6
Continuous
 62
     7
370
     9
100
AcDbLine
 10
571.3097055350984
 20
193.4390996592231
 30
0.0
 11
571.3097055350984
 21
192.6889585154242
 31
0.0
  0
LINE
  5
443
330
1F
100
AcDbEntity
  8
D-0
  6
Continuous
 62
     7
370
     9
100
AcDbLine
 10
571.3097055350984
 20
192.6889585154242
 30
0.0
 11
570.5598123466218
 21
192.6889585154242
 31
0.0
  0
LINE
  5
444
330
1F
100
AcDbEntity
  8
D-0
  6
Continuous
 62
     7
370
     9
100
AcDbLine
 10
558.1360741325342
 20
190.9634393190231
 30
0.0
 11
558.1360741325342
 21
191.713580462822
 31
0.0
  0
LINE
  5
445
330
1F
100
AcDbEntity
  8
D-0
  6
Continuous
 62
     7
370
     9
100
AcDbLine
 10
558.1360741325342
 20
191.713580462822
 30
0.0
 11
558.8859673210108
 21
191.713580462822
 31
0.0
  0
LINE
  5
446
330
1F
100
AcDbEntity
  8
D-0
  6
Continuous
 62
     7
370
     9
100
AcDbLine
 10
558.8859673210108
 20
191.713580462822
 30
0.0
 11
558.8859673210108
 21
190.9634393190231
 31
0.0
  0
LINE
  5
447
330
1F
100
AcDbEntity
  8
D-0
  6
Continuous
 62
     7
370
     9
100
AcDbLine
 10
558.8859673210108
 20
190.9634393190231
 30
0.0
 11
558.1360741325342
 21
190.9634393190231
 31
0.0
  0
LINE
  5
448
330
1F
100
AcDbEntity
  8
D-0
  6
Continuous
 62
     7
370
     9
100
AcDbLine
 10
547.4378551148476
 20
195.7948930689462
 30
0.0
 11
547.4378551148476
 21
196.545034212745
 31
0.0
  0
LINE
  5
449
330
1F
100
AcDbEntity
  8
D-0
  6
Continuous
 62
     7
370
     9
100
AcDbLine
 10
547.4378551148476
 20
196.545034212745
 30
0.0
 11
548.1877483033242
 21
196.545034212745
 31
0.0
  0
LINE
  5
44A
330
1F
100
AcDbEntity
  8
D-0
  6
Continuous
 62
     7
370
     9
100
AcDbLine
 10
548.1877483033242
 20
196.545034212745
 30
0.0
 11
548.1877483033242
 21
195.7948930689462
 31
0.0
  0
LINE
  5
44B
330
1F
100
AcDbEntity
  8
D-0
  6
Continuous
 62
     7
370
     9
100
AcDbLine
 10
548.1877483033242
 20
195.7948930689462
 30
0.0
 11
547.4378551148476
 21
195.7948930689462
 31
0.0
  0
LINE
  5
44C
330
1F
100
AcDbEntity
  8
D-0
  6
Continuous
 62
     7
370
     9
100
AcDbLine
 10
553.9948280611716
 20
205.8029044080723
 30
0.0
 11
553.9948280611716
 21
206.5530455518711
 31
0.0
  0
LINE
  5
44D
330
1F
100
AcDbEntity
  8
D-0
  6
Continuous
 62
     7
370
     9
100
AcDbLine
 10
553.9948280611716
 20
206.5530455518711
 30
0.0
 11
554.7447212496481
 21
206.5530455518711
 31
0.0
  0
LINE
  5
44E
330
1F
100
AcDbEntity
  8
D-0
  6
Continuous
 62
     7
370
     9
100
AcDbLine
 10
554.7447212496481
 20
206.5530455518711
 30
0.0
 11
554.7447212496481
 21
205.8029044080723
 31
0.0
  0
LINE
  5
44F
330
1F
100
AcDbEntity
  8
D-0
  6
Continuous
 62
     7
370
     9
100
AcDbLine
 10
554.7447212496481
 20
205.8029044080723
 30
0.0
 11
553.9948280611716
 21
205.8029044080723
 31
0.0
  0
LINE
  5
450
330
1F
100
AcDbEntity
  8
D-0
  6
Continuous
 62
     7
370
     9
100
AcDbLine
 10
533.6337015436392
 20
229.6150693184069
 30
0.0
 11
533.6337015436392
 21
230.3652104622057
 31
0.0
  0
LINE
  5
451
330
1F
100
AcDbEntity
  8
D-0
  6
Continuous
 62
     7
370
     9
100
AcDbLine
 10
533.6337015436392
 20
230.3652104622057
 30
0.0
 11
534.3835947321157
 21
230.3652104622057
 31
0.0
  0
LINE
  5
452
330
1F
100
AcDbEntity
  8
D-0
  6
Continuous
 62
     7
370
     9
100
AcDbLine
 10
534.3835947321157
 20
230.3652104622057
 30
0.0
 11
534.3835947321157
 21
229.6150693184069
 31
0.0
  0
LINE
  5
453
330
1F
100
AcDbEntity
  8
D-0
  6
Continuous
 62
     7
370
     9
100
AcDbLine
 10
534.3835947321157
 20
229.6150693184069
 30
0.0
 11
533.6337015436392
 21
229.6150693184069
 31
0.0
  0
LINE
  5
454
330
1F
100
AcDbEntity
  8
D-0
  6
Continuous
 62
     7
370
     9
100
AcDbLine
 10
618.4429700467512
 20
189.2379201226221
 30
0.0
 11
618.4429700467512
 21
189.9880612664209
 31
0.0
  0
LINE
  5
455
330
1F
100
AcDbEntity
  8
D-0
  6
Continuous
 62
     7
370
     9
100
AcDbLine
 10
618.4429700467512
 20
189.9880612664209
 30
0.0
 11
619.1928632352277
 21
189.9880612664209
 31
0.0
  0
LINE
  5
456
330
1F
100
AcDbEntity
  8
D-0
  6
Continuous
 62
     7
370
     9
100
AcDbLine
 10
619.1928632352277
 20
189.9880612664209
 30
0.0
 11
619.1928632352277
 21
189.2379201226221
 31
0.0
  0
LINE
  5
457
330
1F
100
AcDbEntity
  8
D-0
  6
Continuous
 62
     7
370
     9
100
AcDbLine
 10
619.1928632352277
 20
189.2379201226221
 30
0.0
 11
618.4429700467512
 21
189.2379201226221
 31
0.0
  0
LINE
  5
458
330
1F
100
AcDbEntity
  8
D-0
  6
Continuous
 62
     7
370
     9
100
AcDbLine
 10
653.6435616533328
 20
189.7555758815424
 30
0.0
 11
653.6435616533328
 21
190.5057170253413
 31
0.0
  0
LINE
  5
459
330
1F
100
AcDbEntity
  8
D-0
  6
Continuous
 62
     7
370
     9
100
AcDbLine
 10
653.6435616533328
 20
190.5057170253413
 30
0.0
 11
654.3934548418093
 21
190.5057170253413
 31
0.0
  0
LINE
  5
45A
330
1F
100
AcDbEntity
  8
D-0
  6
Continuous
 62
     7
370
     9
100
AcDbLine
 10
654.3934548418093
 20
190.5057170253413
 30
0.0
 11
654.3934548418093
 21
189.7555758815424
 31
0.0
  0
LINE
  5
45B
330
1F
100
AcDbEntity
  8
D-0
  6
Continuous
 62
     7
370
     9
100
AcDbLine
 10
654.3934548418093
 20
189.7555758815424
 30
0.0
 11
653.6435616533328
 21
189.7555758815424
 31
0.0
  0
LINE
  5
45C
330
1F
100
AcDbEntity
  8
D-0
  6
Continuous
 62
     7
370
     9
100
AcDbLine
 10
632.4196755375998
 20
179.4024607031361
 30
0.0
 11
632.4196755375998
 21
180.1526018469349
 31
0.0
  0
LINE
  5
45D
330
1F
100
AcDbEntity
  8
D-0
  6
Continuous
 62
     7
370
     9
100
AcDbLine
 10
632.4196755375998
 20
180.1526018469349
 30
0.0
 11
633.1695687260764
 21
180.1526018469349
 31
0.0
  0
LINE
  5
45E
330
1F
100
AcDbEntity
  8
D-0
  6
Continuous
 62
     7
370
     9
100
AcDbLine
 10
633.1695687260764
 20
180.1526018469349
 30
0.0
 11
633.1695687260764
 21
179.4024607031361
 31
0.0
  0
LINE
  5
45F
330
1F
100
AcDbEntity
  8
D-0
  6
Continuous
 62
     7
370
     9
100
AcDbLine
 10
633.1695687260764
 20
179.4024607031361
 30
0.0
 11
632.4196755375998
 21
179.4024607031361
 31
0.0
  0
LINE
  5
460
330
1F
100
AcDbEntity
  8
D-0
  6
Continuous
 62
     7
370
     9
100
AcDbLine
 10
661.9260537960579
 20
179.4024607031361
 30
0.0
 11
661.9260537960579
 21
180.1526018469349
 31
0.0
  0
LINE
  5
461
330
1F
100
AcDbEntity
  8
D-0
  6
Continuous
 62
     7
370
     9
100
AcDbLine
 10
661.9260537960579
 20
180.1526018469349
 30
0.0
 11
662.6759469845344
 21
180.1526018469349
 31
0.0
  0
LINE
  5
462
330
1F
100
AcDbEntity
  8
D-0
  6
Continuous
 62
     7
370
     9
100
AcDbLine
 10
662.6759469845344
 20
180.1526018469349
 30
0.0
 11
662.6759469845344
 21
179.4024607031361
 31
0.0
  0
LINE
  5
463
330
1F
100
AcDbEntity
  8
D-0
  6
Continuous
 62
     7
370
     9
100
AcDbLine
 10
662.6759469845344
 20
179.4024607031361
 30
0.0
 11
661.9260537960579
 21
179.4024607031361
 31
0.0
  0
LINE
  5
464
330
1F
100
AcDbEntity
  8
D-0
  6
Continuous
 62
     7
370
     9
100
AcDbLine
 10
632.6785034170599
 20
213.567740791877
 30
0.0
 11
632.6785034170599
 21
214.3178819356759
 31
0.0
  0
LINE
  5
465
330
1F
100
AcDbEntity
  8
D-0
  6
Continuous
 62
     7
370
     9
100
AcDbLine
 10
632.6785034170599
 20
214.3178819356759
 30
0.0
 11
633.4283966055365
 21
214.3178819356759
 31
0.0
  0
LINE
  5
466
330
1F
100
AcDbEntity
  8
D-0
  6
Continuous
 62
     7
370
     9
100
AcDbLine
 10
633.4283966055365
 20
214.3178819356759
 30
0.0
 11
633.4283966055365
 21
213.567740791877
 31
0.0
  0
LINE
  5
467
330
1F
100
AcDbEntity
  8
D-0
  6
Continuous
 62
     7
370
     9
100
AcDbLine
 10
633.4283966055365
 20
213.567740791877
 30
0.0
 11
632.6785034170599
 21
213.567740791877
 31
0.0
  0
LINE
  5
468
330
1F
100
AcDbEntity
  8
D-0
  6
Continuous
 62
     7
370
     9
100
AcDbLine
 10
614.5605518548488
 20
213.567740791877
 30
0.0
 11
614.5605518548488
 21
214.3178819356759
 31
0.0
  0
LINE
  5
469
330
1F
100
AcDbEntity
  8
D-0
  6
Continuous
 62
     7
370
     9
100
AcDbLine
 10
614.5605518548488
 20
214.3178819356759
 30
0.0
 11
615.3104450433253
 21
214.3178819356759
 31
0.0
  0
LINE
  5
46A
330
1F
100
AcDbEntity
  8
D-0
  6
Continuous
 62
     7
370
     9
100
AcDbLine
 10
615.3104450433253
 20
214.3178819356759
 30
0.0
 11
615.3104450433253
 21
213.567740791877
 31
0.0
  0
LINE
  5
46B
330
1F
100
AcDbEntity
  8
D-0
  6
Continuous
 62
     7
370
     9
100
AcDbLine
 10
615.3104450433253
 20
213.567740791877
 30
0.0
 11
614.5605518548488
 21
213.567740791877
 31
0.0
  0
LINE
  5
46C
330
1F
100
AcDbEntity
  8
D-0
  6
Continuous
 62
     7
370
     9
100
AcDbLine
 10
678.232210202048
 20
250.83895543414
 30
0.0
 11
678.232210202048
 21
251.5890965779388
 31
0.0
  0
LINE
  5
46D
330
1F
100
AcDbEntity
  8
D-0
  6
Continuous
 62
     7
370
     9
100
AcDbLine
 10
678.232210202048
 20
251.5890965779388
 30
0.0
 11
678.9821033905246
 21
251.5890965779388
 31
0.0
  0
LINE
  5
46E
330
1F
100
AcDbEntity
  8
D-0
  6
Continuous
 62
     7
370
     9
100
AcDbLine
 10
678.9821033905246
 20
251.5890965779388
 30
0.0
 11
678.9821033905246
 21
250.83895543414
 31
0.0
  0
LINE
  5
46F
330
1F
100
AcDbEntity
  8
D-0
  6
Continuous
 62
     7
370
     9
100
AcDbLine
 10
678.9821033905246
 20
250.83895543414
 30
0.0
 11
678.232210202048
 21
250.83895543414
 31
0.0
  0
LINE
  5
470
330
1F
100
AcDbEntity
  8
D-0
  6
Continuous
 62
     7
370
     9
100
AcDbLine
 10
673.573308371765
 20
229.6150693184069
 30
0.0
 11
673.573308371765
 21
230.3652104622057
 31
0.0
  0
LINE
  5
471
330
1F
100
AcDbEntity
  8
D-0
  6
Continuous
 62
     7
370
     9
100
AcDbLine
 10
673.573308371765
 20
230.3652104622057
 30
0.0
 11
674.3232015602416
 21
230.3652104622057
 31
0.0
  0
LINE
  5
472
330
1F
100
AcDbEntity
  8
D-0
  6
Continuous
 62
     7
370
     9
100
AcDbLine
 10
674.3232015602416
 20
230.3652104622057
 30
0.0
 11
674.3232015602416
 21
229.6150693184069
 31
0.0
  0
LINE
  5
473
330
1F
100
AcDbEntity
  8
D-0
  6
Continuous
 62
     7
370
     9
100
AcDbLine
 10
674.3232015602416
 20
229.6150693184069
 30
0.0
 11
673.573308371765
 21
229.6150693184069
 31
0.0
  0
LINE
  5
474
330
1F
100
AcDbEntity
  8
D-0
  6
Continuous
 62
     7
370
     9
100
AcDbLine
 10
697.3854732820997
 20
253.4272342287415
 30
0.0
 11
697.3854732820997
 21
254.1773753725403
 31
0.0
  0
LINE
  5
475
330
1F
100
AcDbEntity
  8
D-0
  6
Continuous
 62
     7
370
     9
100
AcDbLine
 10
697.3854732820997
 20
254.1773753725403
 30
0.0
 11
698.1353664705763
 21
254.1773753725403
 31
0.0
  0
LINE
  5
476
330
1F
100
AcDbEntity
  8
D-0
  6
Continuous
 62
     7
370
     9
100
AcDbLine
 10
698.1353664705763
 20
254.1773753725403
 30
0.0
 11
698.1353664705763
 21
253.4272342287415
 31
0.0
  0
LINE
  5
477
330
1F
100
AcDbEntity
  8
D-0
  6
Continuous
 62
     7
370
     9
100
AcDbLine
 10
698.1353664705763
 20
253.4272342287415
 30
0.0
 11
697.3854732820997
 21
253.4272342287415
 31
0.0
  0
LINE
  5
478
330
1F
100
AcDbEntity
  8
D-0
  6
Continuous
 62
     7
370
     9
100
AcDbLine
 10
718.6093593978328
 20
251.8742669519806
 30
0.0
 11
718.6093593978328
 21
252.6244080957794
 31
0.0
  0
LINE
  5
479
330
1F
100
AcDbEntity
  8
D-0
  6
Continuous
 62
     7
370
     9
100
AcDbLine
 10
718.6093593978328
 20
252.6244080957794
 30
0.0
 11
719.3592525863094
 21
252.6244080957794
 31
0.0
  0
LINE
  5
47A
330
1F
100
AcDbEntity
  8
D-0
  6
Continuous
 62
     7
370
     9
100
AcDbLine
 10
719.3592525863094
 20
252.6244080957794
 30
0.0
 11
719.3592525863094
 21
251.8742669519806
 31
0.0
  0
LINE
  5
47B
330
1F
100
AcDbEntity
  8
D-0
  6
Continuous
 62
     7
370
     9
100
AcDbLine
 10
719.3592525863094
 20
251.8742669519806
 30
0.0
 11
718.6093593978328
 21
251.8742669519806
 31
0.0
  0
LINE
  5
47C
330
1F
100
AcDbEntity
  8
D-0
  6
Continuous
 62
     7
370
     9
100
AcDbLine
 10
655.5847707492841
 20
259.8979312152455
 30
0.0
 11
655.5847707492841
 21
260.6480723590444
 31
0.0
  0
LINE
  5
47D
330
1F
100
AcDbEntity
  8
D-0
  6
Continuous
 62
     7
370
     9
100
AcDbLine
 10
655.5847707492841
 20
260.6480723590444
 30
0.0
 11
656.3346639377606
 21
260.6480723590444
 31
0.0
  0
LINE
  5
47E
330
1F
100
AcDbEntity
  8
D-0
  6
Continuous
 62
     7
370
     9
100
AcDbLine
 10
656.3346639377606
 20
260.6480723590444
 30
0.0
 11
656.3346639377606
 21
259.8979312152455
 31
0.0
  0
LINE
  5
47F
330
1F
100
AcDbEntity
  8
D-0
  6
Continuous
 62
     7
370
     9
100
AcDbLine
 10
656.3346639377606
 20
259.8979312152455
 30
0.0
 11
655.5847707492841
 21
259.8979312152455
 31
0.0
  0
LINE
  5
480
330
1F
100
AcDbEntity
  8
D-0
  6
Continuous
 62
     7
370
     9
100
AcDbLine
 10
636.9491634281526
 20
257.3096524206439
 30
0.0
 11
636.9491634281526
 21
258.0597935644428
 31
0.0
  0
LINE
  5
481
330
1F
100
AcDbEntity
  8
D-0
  6
Continuous
 62
     7
370
     9
100
AcDbLine
 10
636.9491634281526
 20
258.0597935644428
 30
0.0
 11
637.6990566166292
 21
258.0597935644428
 31
0.0
  0
LINE
  5
482
330
1F
100
AcDbEntity
  8
D-0
  6
Continuous
 62
     7
370
     9
100
AcDbLine
 10
637.6990566166292
 20
258.0597935644428
 30
0.0
 11
637.6990566166292
 21
257.3096524206439
 31
0.0
  0
LINE
  5
483
330
1F
100
AcDbEntity
  8
D-0
  6
Continuous
 62
     7
370
     9
100
AcDbLine
 10
637.6990566166292
 20
257.3096524206439
 30
0.0
 11
636.9491634281526
 21
257.3096524206439
 31
0.0
  0
LINE
  5
484
330
1F
100
AcDbEntity
  8
D-0
  6
Continuous
 62
     7
370
     9
100
AcDbLine
 10
651.4435246779215
 20
242.2976354119547
 30
0.0
 11
651.4435246779215
 21
243.0477765557536
 31
0.0
  0
LINE
  5
485
330
1F
100
AcDbEntity
  8
D-0
  6
Continuous
 62
     7
370
     9
100
AcDbLine
 10
651.4435246779215
 20
243.0477765557536
 30
0.0
 11
652.193417866398
 21
243.0477765557536
 31
0.0
  0
LINE
  5
486
330
1F
100
AcDbEntity
  8
D-0
  6
Continuous
 62
     7
370
     9
100
AcDbLine
 10
652.193417866398
 20
243.0477765557536
 30
0.0
 11
652.193417866398
 21
242.2976354119547
 31
0.0
  0
LINE
  5
487
330
1F
100
AcDbEntity
  8
D-0
  6
Continuous
 62
     7
370
     9
100
AcDbLine
 10
652.193417866398
 20
242.2976354119547
 30
0.0
 11
651.4435246779215
 21
242.2976354119547
 31
0.0
  0
LINE
  5
488
330
1F
100
AcDbEntity
  8
D-0
  6
Continuous
 62
     7
370
     9
100
AcDbLine
 10
646.2669670887182
 20
225.2149953675842
 30
0.0
 11
646.2669670887182
 21
225.9651365113831
 31
0.0
  0
LINE
  5
489
330
1F
100
AcDbEntity
  8
D-0
  6
Continuous
 62
     7
370
     9
100
AcDbLine
 10
646.2669670887182
 20
225.9651365113831
 30
0.0
 11
647.0168602771947
 21
225.9651365113831
 31
0.0
  0
LINE
  5
48A
330
1F
100
AcDbEntity
  8
D-0
  6
Continuous
 62
     7
370
     9
100
AcDbLine
 10
647.0168602771947
 20
225.9651365113831
 30
0.0
 11
647.0168602771947
 21
225.2149953675842
 31
0.0
  0
LINE
  5
48B
330
1F
100
AcDbEntity
  8
D-0
  6
Continuous
 62
     7
370
     9
100
AcDbLine
 10
647.0168602771947
 20
225.2149953675842
 30
0.0
 11
646.2669670887182
 21
225.2149953675842
 31
0.0
  0
LINE
  5
48C
330
1F
100
AcDbEntity
  8
D-0
  6
Continuous
 62
     7
370
     9
100
AcDbLine
 10
620.9018349016227
 20
229.3562414389468
 30
0.0
 11
620.9018349016227
 21
230.1063825827456
 31
0.0
  0
LINE
  5
48D
330
1F
100
AcDbEntity
  8
D-0
  6
Continuous
 62
     7
370
     9
100
AcDbLine
 10
620.9018349016227
 20
230.1063825827456
 30
0.0
 11
621.6517280900993
 21
230.1063825827456
 31
0.0
  0
LINE
  5
48E
330
1F
100
AcDbEntity
  8
D-0
  6
Continuous
 62
     7
370
     9
100
AcDbLine
 10
621.6517280900993
 20
230.1063825827456
 30
0.0
 11
621.6517280900993
 21
229.3562414389468
 31
0.0
  0
LINE
  5
48F
330
1F
100
AcDbEntity
  8
D-0
  6
Continuous
 62
     7
370
     9
100
AcDbLine
 10
621.6517280900993
 20
229.3562414389468
 30
0.0
 11
620.9018349016227
 21
229.3562414389468
 31
0.0
  0
LINE
  5
490
330
1F
100
AcDbEntity
  8
D-0
  6
Continuous
 62
     7
370
     9
100
AcDbLine
 10
627.6313597675868
 20
240.2270123762734
 30
0.0
 11
627.6313597675868
 21
240.9771535200723
 31
0.0
  0
LINE
  5
491
330
1F
100
AcDbEntity
  8
D-0
  6
Continuous
 62
     7
370
     9
100
AcDbLine
 10
627.6313597675868
 20
240.9771535200723
 30
0.0
 11
628.3812529560633
 21
240.9771535200723
 31
0.0
  0
LINE
  5
492
330
1F
100
AcDbEntity
  8
D-0
  6
Continuous
 62
     7
370
     9
100
AcDbLine
 10
628.3812529560633
 20
240.9771535200723
 30
0.0
 11
628.3812529560633
 21
240.2270123762734
 31
0.0
  0
LINE
  5
493
330
1F
100
AcDbEntity
  8
D-0
  6
Continuous
 62
     7
370
     9
100
AcDbLine
 10
628.3812529560633
 20
240.2270123762734
 30
0.0
 11
627.6313597675868
 21
240.2270123762734
 31
0.0
  0
LINE
  5
494
330
1F
100
AcDbEntity
  8
D-0
  6
Continuous
 62
     7
370
     9
100
AcDbLine
 10
615.2076215534992
 20
254.203717867122
 30
0.0
 11
615.2076215534992
 21
254.9538590109208
 31
0.0
  0
LINE
  5
495
330
1F
100
AcDbEntity
  8
D-0
  6
Continuous
 62
     7
370
     9
100
AcDbLine
 10
615.2076215534992
 20
254.9538590109208
 30
0.0
 11
615.9575147419757
 21
254.9538590109208
 31
0.0
  0
LINE
  5
496
330
1F
100
AcDbEntity
  8
D-0
  6
Continuous
 62
     7
370
     9
100
AcDbLine
 10
615.9575147419757
 20
254.9538590109208
 30
0.0
 11
615.9575147419757
 21
254.203717867122
 31
0.0
  0
LINE
  5
497
330
1F
100
AcDbEntity
  8
D-0
  6
Continuous
 62
     7
370
     9
100
AcDbLine
 10
615.9575147419757
 20
254.203717867122
 30
0.0
 11
615.2076215534992
 21
254.203717867122
 31
0.0
  0
LINE
  5
498
330
1F
100
AcDbEntity
  8
D-0
  6
Continuous
 62
     7
370
     9
100
AcDbLine
 10
602.7838833394115
 20
252.6507505903611
 30
0.0
 11
602.7838833394115
 21
253.4008917341599
 31
0.0
  0
LINE
  5
499
330
1F
100
AcDbEntity
  8
D-0
  6
Continuous
 62
     7
370
     9
100
AcDbLine
 10
602.7838833394115
 20
253.4008917341599
 30
0.0
 11
603.5337765278881
 21
253.4008917341599
 31
0.0
  0
LINE
  5
49A
330
1F
100
AcDbEntity
  8
D-0
  6
Continuous
 62
     7
370
     9
100
AcDbLine
 10
603.5337765278881
 20
253.4008917341599
 30
0.0
 11
603.5337765278881
 21
252.6507505903611
 31
0.0
  0
LINE
  5
49B
330
1F
100
AcDbEntity
  8
D-0
  6
Continuous
 62
     7
370
     9
100
AcDbLine
 10
603.5337765278881
 20
252.6507505903611
 30
0.0
 11
602.7838833394115
 21
252.6507505903611
 31
0.0
  0
LINE
  5
49C
330
1F
100
AcDbEntity
  8
D-0
  6
Continuous
 62
     7
370
     9
100
AcDbLine
 10
578.9717184290769
 20
250.0624717957595
 30
0.0
 11
578.9717184290769
 21
250.8126129395583
 31
0.0
  0
LINE
  5
49D
330
1F
100
AcDbEntity
  8
D-0
  6
Continuous
 62
     7
370
     9
100
AcDbLine
 10
578.9717184290769
 20
250.8126129395583
 30
0.0
 11
579.7216116175534
 21
250.8126129395583
 31
0.0
  0
LINE
  5
49E
330
1F
100
AcDbEntity
  8
D-0
  6
Continuous
 62
     7
370
     9
100
AcDbLine
 10
579.7216116175534
 20
250.8126129395583
 30
0.0
 11
579.7216116175534
 21
250.0624717957595
 31
0.0
  0
LINE
  5
49F
330
1F
100
AcDbEntity
  8
D-0
  6
Continuous
 62
     7
370
     9
100
AcDbLine
 10
579.7216116175534
 20
250.0624717957595
 30
0.0
 11
578.9717184290769
 21
250.0624717957595
 31
0.0
  0
LINE
  5
4A0
330
1F
100
AcDbEntity
  8
D-0
  6
Continuous
 62
     7
370
     9
100
AcDbLine
 10
570.1715705274315
 20
228.3209299211061
 30
0.0
 11
570.1715705274315
 21
229.071071064905
 31
0.0
  0
LINE
  5
4A1
330
1F
100
AcDbEntity
  8
D-0
  6
Continuous
 62
     7
370
     9
100
AcDbLine
 10
570.1715705274315
 20
229.071071064905
 30
0.0
 11
570.9214637159081
 21
229.071071064905
 31
0.0
  0
LINE
  5
4A2
330
1F
100
AcDbEntity
  8
D-0
  6
Continuous
 62
     7
370
     9
100
AcDbLine
 10
570.9214637159081
 20
229.071071064905
 30
0.0
 11
570.9214637159081
 21
228.3209299211061
 31
0.0
  0
LINE
  5
4A3
330
1F
100
AcDbEntity
  8
D-0
  6
Continuous
 62
     7
370
     9
100
AcDbLine
 10
570.9214637159081
 20
228.3209299211061
 30
0.0
 11
570.1715705274315
 21
228.3209299211061
 31
0.0
  0
LINE
  5
4A4
330
1F
100
AcDbEntity
  8
D-0
  6
Continuous
 62
     7
370
     9
100
AcDbLine
 10
561.3714226257861
 20
240.2270123762734
 30
0.0
 11
561.3714226257861
 21
240.9771535200723
 31
0.0
  0
LINE
  5
4A5
330
1F
100
AcDbEntity
  8
D-0
  6
Continuous
 62
     7
370
     9
100
AcDbLine
 10
561.3714226257861
 20
240.9771535200723
 30
0.0
 11
562.1213158142626
 21
240.9771535200723
 31
0.0
  0
LINE
  5
4A6
330
1F
100
AcDbEntity
  8
D-0
  6
Continuous
 62
     7
370
     9
100
AcDbLine
 10
562.1213158142626
 20
240.9771535200723
 30
0.0
 11
562.1213158142626
 21
240.2270123762734
 31
0.0
  0
LINE
  5
4A7
330
1F
100
AcDbEntity
  8
D-0
  6
Continuous
 62
     7
370
     9
100
AcDbLine
 10
562.1213158142626
 20
240.2270123762734
 30
0.0
 11
561.3714226257861
 21
240.2270123762734
 31
0.0
  0
LINE
  5
4A8
330
1F
100
AcDbEntity
  8
D-0
  6
Continuous
 62
     7
370
     9
100
AcDbLine
 10
571.7245378041924
 20
244.8859142065563
 30
0.0
 11
571.7245378041924
 21
245.6360553503552
 31
0.0
  0
LINE
  5
4A9
330
1F
100
AcDbEntity
  8
D-0
  6
Continuous
 62
     7
370
     9
100
AcDbLine
 10
571.7245378041924
 20
245.6360553503552
 30
0.0
 11
572.474430992669
 21
245.6360553503552
 31
0.0
  0
LINE
  5
4AA
330
1F
100
AcDbEntity
  8
D-0
  6
Continuous
 62
     7
370
     9
100
AcDbLine
 10
572.474430992669
 20
245.6360553503552
 30
0.0
 11
572.474430992669
 21
244.8859142065563
 31
0.0
  0
LINE
  5
4AB
330
1F
100
AcDbEntity
  8
D-0
  6
Continuous
 62
     7
370
     9
100
AcDbLine
 10
572.474430992669
 20
244.8859142065563
 30
0.0
 11
571.7245378041924
 21
244.8859142065563
 31
0.0
  0
LINE
  5
4AC
330
1F
100
AcDbEntity
  8
D-0
  6
Continuous
 62
     7
370
     9
100
AcDbLine
 10
574.8304723577144
 20
262.4862100098471
 30
0.0
 11
574.8304723577144
 21
263.236351153646
 31
0.0
  0
LINE
  5
4AD
330
1F
100
AcDbEntity
  8
D-0
  6
Continuous
 62
     7
370
     9
100
AcDbLine
 10
574.8304723577144
 20
263.236351153646
 30
0.0
 11
575.5803655461909
 21
263.236351153646
 31
0.0
  0
LINE
  5
4AE
330
1F
100
AcDbEntity
  8
D-0
  6
Continuous
 62
     7
370
     9
100
AcDbLine
 10
575.5803655461909
 20
263.236351153646
 30
0.0
 11
575.5803655461909
 21
262.4862100098471
 31
0.0
  0
LINE
  5
4AF
330
1F
100
AcDbEntity
  8
D-0
  6
Continuous
 62
     7
370
     9
100
AcDbLine
 10
575.5803655461909
 20
262.4862100098471
 30
0.0
 11
574.8304723577144
 21
262.4862100098471
 31
0.0
  0
LINE
  5
4B0
330
1F
100
AcDbEntity
  8
D-0
  6
Continuous
 62
     7
370
     9
100
AcDbLine
 10
585.7012432950411
 20
278.0158827774567
 30
0.0
 11
585.7012432950411
 21
278.7660239212555
 31
0.0
  0
LINE
  5
4B1
330
1F
100
AcDbEntity
  8
D-0
  6
Continuous
 62
     7
370
     9
100
AcDbLine
 10
585.7012432950411
 20
278.7660239212555
 30
0.0
 11
586.4511364835176
 21
278.7660239212555
 31
0.0
  0
LINE
  5
4B2
330
1F
100
AcDbEntity
  8
D-0
  6
Continuous
 62
     7
370
     9
100
AcDbLine
 10
586.4511364835176
 20
278.7660239212555
 30
0.0
 11
586.4511364835176
 21
278.0158827774567
 31
0.0
  0
LINE
  5
4B3
330
1F
100
AcDbEntity
  8
D-0
  6
Continuous
 62
     7
370
     9
100
AcDbLine
 10
586.4511364835176
 20
278.0158827774567
 30
0.0
 11
585.7012432950411
 21
278.0158827774567
 31
0.0
  0
LINE
  5
4B4
330
1F
100
AcDbEntity
  8
D-0
  6
Continuous
 62
     7
370
     9
100
AcDbLine
 10
591.3954566431646
 20
264.5568330455284
 30
0.0
 11
591.3954566431646
 21
265.3069741893273
 31
0.0
  0
LINE
  5
4B5
330
1F
100
AcDbEntity
  8
D-0
  6
Continuous
 62
     7
370
     9
100
AcDbLine
 10
591.3954566431646
 20
265.3069741893273
 30
0.0
 11
592.1453498316412
 21
265.3069741893273
 31
0.0
  0
LINE
  5
4B6
330
1F
100
AcDbEntity
  8
D-0
  6
Continuous
 62
     7
370
     9
100
AcDbLine
 10
592.1453498316412
 20
265.3069741893273
 30
0.0
 11
592.1453498316412
 21
264.5568330455284
 31
0.0
  0
LINE
  5
4B7
330
1F
100
AcDbEntity
  8
D-0
  6
Continuous
 62
     7
370
     9
100
AcDbLine
 10
592.1453498316412
 20
264.5568330455284
 30
0.0
 11
591.3954566431646
 21
264.5568330455284
 31
0.0
  0
LINE
  5
4B8
330
1F
100
AcDbEntity
  8
D-0
  6
Continuous
 62
     7
370
     9
100
AcDbLine
 10
544.3750585412356
 20
248.5095045189985
 30
0.0
 11
544.3750585412356
 21
249.2596456627974
 31
0.0
  0
LINE
  5
4B9
330
1F
100
AcDbEntity
  8
D-0
  6
Continuous
 62
     7
370
     9
100
AcDbLine
 10
544.3750585412356
 20
249.2596456627974
 30
0.0
 11
545.1249517297122
 21
249.2596456627974
 31
0.0
  0
LINE
  5
4BA
330
1F
100
AcDbEntity
  8
D-0
  6
Continuous
 62
     7
370
     9
100
AcDbLine
 10
545.1249517297122
 20
249.2596456627974
 30
0.0
 11
545.1249517297122
 21
248.5095045189985
 31
0.0
  0
LINE
  5
4BB
330
1F
100
AcDbEntity
  8
D-0
  6
Continuous
 62
     7
370
     9
100
AcDbLine
 10
545.1249517297122
 20
248.5095045189985
 30
0.0
 11
544.3750585412356
 21
248.5095045189985
 31
0.0
  0
LINE
  5
4BC
330
1F
100
AcDbEntity
  8
D-0
  6
Continuous
 62
     7
370
     9
100
AcDbLine
 10
539.3135355651259
 20
260.7031735068994
 30
0.0
 11
539.3135355651259
 21
261.4533146506982
 31
0.0
  0
LINE
  5
4BD
330
1F
100
AcDbEntity
  8
D-0
  6
Continuous
 62
     7
370
     9
100
AcDbLine
 10
539.3135355651259
 20
261.4533146506982
 30
0.0
 11
540.0634287536025
 21
261.4533146506982
 31
0.0
  0
LINE
  5
4BE
330
1F
100
AcDbEntity
  8
D-0
  6
Continuous
 62
     7
370
     9
100
AcDbLine
 10
540.0634287536025
 20
261.4533146506982
 30
0.0
 11
540.0634287536025
 21
260.7031735068994
 31
0.0
  0
LINE
  5
4BF
330
1F
100
AcDbEntity
  8
D-0
  6
Continuous
 62
     7
370
     9
100
AcDbLine
 10
540.0634287536025
 20
260.7031735068994
 30
0.0
 11
539.3135355651259
 21
260.7031735068994
 31
0.0
  0
LINE
  5
4C0
330
1F
100
AcDbEntity
  8
D-0
  6
Continuous
 62
     7
370
     9
100
AcDbLine
 10
554.4981044934552
 20
268.295457971064
 30
0.0
 11
554.4981044934552
 21
269.0455991148629
 31
0.0
  0
LINE
  5
4C1
330
1F
100
AcDbEntity
  8
D-0
  6
Continuous
 62
     7
370
     9
100
AcDbLine
 10
554.4981044934552
 20
269.0455991148629
 30
0.0
 11
555.2479976819318
 21
269.0455991148629
 31
0.0
  0
LINE
  5
4C2
330
1F
100
AcDbEntity
  8
D-0
  6
Continuous
 62
     7
370
     9
100
AcDbLine
 10
555.2479976819318
 20
269.0455991148629
 30
0.0
 11
555.2479976819318
 21
268.295457971064
 31
0.0
  0
LINE
  5
4C3
330
1F
100
AcDbEntity
  8
D-0
  6
Continuous
 62
     7
370
     9
100
AcDbLine
 10
555.2479976819318
 20
268.295457971064
 30
0.0
 11
554.4981044934552
 21
268.295457971064
 31
0.0
  0
LINE
  5
4C4
330
1F
100
AcDbEntity
  8
D-0
  6
Continuous
 62
     7
370
     9
100
AcDbLine
 10
551.5072045530268
 20
260.7031735068994
 30
0.0
 11
551.5072045530268
 21
261.4533146506982
 31
0.0
  0
LINE
  5
4C5
330
1F
100
AcDbEntity
  8
D-0
  6
Continuous
 62
     7
370
     9
100
AcDbLine
 10
551.5072045530268
 20
261.4533146506982
 30
0.0
 11
552.2570977415033
 21
261.4533146506982
 31
0.0
  0
LINE
  5
4C6
330
1F
100
AcDbEntity
  8
D-0
  6
Continuous
 62
     7
370
     9
100
AcDbLine
 10
552.2570977415033
 20
261.4533146506982
 30
0.0
 11
552.2570977415033
 21
260.7031735068994
 31
0.0
  0
LINE
  5
4C7
330
1F
100
AcDbEntity
  8
D-0
  6
Continuous
 62
     7
370
     9
100
AcDbLine
 10
552.2570977415033
 20
260.7031735068994
 30
0.0
 11
551.5072045530268
 21
260.7031735068994
 31
0.0
  0
LINE
  5
4C8
330
1F
100
AcDbEntity
  8
D-0
  6
Continuous
 62
     7
370
     9
100
AcDbLine
 10
558.1216948058974
 20
294.9834882087338
 30
0.0
 11
558.1216948058974
 21
295.7336293525326
 31
0.0
  0
LINE
  5
4C9
330
1F
100
AcDbEntity
  8
D-0
  6
Continuous
 62
     7
370
     9
100
AcDbLine
 10
558.1216948058974
 20
295.7336293525326
 30
0.0
 11
558.871587994374
 21
295.7336293525326
 31
0.0
  0
LINE
  5
4CA
330
1F
100
AcDbEntity
  8
D-0
  6
Continuous
 62
     7
370
     9
100
AcDbLine
 10
558.871587994374
 20
295.7336293525326
 30
0.0
 11
558.871587994374
 21
294.9834882087338
 31
0.0
  0
LINE
  5
4CB
330
1F
100
AcDbEntity
  8
D-0
  6
Continuous
 62
     7
370
     9
100
AcDbLine
 10
558.871587994374
 20
294.9834882087338
 30
0.0
 11
558.1216948058974
 21
294.9834882087338
 31
0.0
  0
LINE
  5
4CC
330
1F
100
AcDbEntity
  8
D-0
  6
Continuous
 62
     7
370
     9
100
AcDbLine
 10
545.6979565918098
 20
298.779630440816
 30
0.0
 11
545.6979565918098
 21
299.5297715846149
 31
0.0
  0
LINE
  5
4CD
330
1F
100
AcDbEntity
  8
D-0
  6
Continuous
 62
     7
370
     9
100
AcDbLine
 10
545.6979565918098
 20
299.5297715846149
 30
0.0
 11
546.4478497802863
 21
299.5297715846149
 31
0.0
  0
LINE
  5
4CE
330
1F
100
AcDbEntity
  8
D-0
  6
Continuous
 62
     7
370
     9
100
AcDbLine
 10
546.4478497802863
 20
299.5297715846149
 30
0.0
 11
546.4478497802863
 21
298.779630440816
 31
0.0
  0
LINE
  5
4CF
330
1F
100
AcDbEntity
  8
D-0
  6
Continuous
 62
     7
370
     9
100
AcDbLine
 10
546.4478497802863
 20
298.779630440816
 30
0.0
 11
545.6979565918098
 21
298.779630440816
 31
0.0
  0
LINE
  5
4D0
330
1F
100
AcDbEntity
  8
D-0
  6
Continuous
 62
     7
370
     9
100
AcDbLine
 10
537.7605682883649
 20
303.6110841907391
 30
0.0
 11
537.7605682883649
 21
304.3612253345379
 31
0.0
  0
LINE
  5
4D1
330
1F
100
AcDbEntity
  8
D-0
  6
Continuous
 62
     7
370
     9
100
AcDbLine
 10
537.7605682883649
 20
304.3612253345379
 30
0.0
 11
538.5104614768414
 21
304.3612253345379
 31
0.0
  0
LINE
  5
4D2
330
1F
100
AcDbEntity
  8
D-0
  6
Continuous
 62
     7
370
     9
100
AcDbLine
 10
538.5104614768414
 20
304.3612253345379
 30
0.0
 11
538.5104614768414
 21
303.6110841907391
 31
0.0
  0
LINE
  5
4D3
330
1F
100
AcDbEntity
  8
D-0
  6
Continuous
 62
     7
370
     9
100
AcDbLine
 10
538.5104614768414
 20
303.6110841907391
 30
0.0
 11
537.7605682883649
 21
303.6110841907391
 31
0.0
  0
LINE
  5
4D4
330
1F
100
AcDbEntity
  8
D-0
  6
Continuous
 62
     7
370
     9
100
AcDbLine
 10
534.654633734843
 20
323.6271068689913
 30
0.0
 11
534.654633734843
 21
324.3772480127902
 31
0.0
  0
LINE
  5
4D5
330
1F
100
AcDbEntity
  8
D-0
  6
Continuous
 62
     7
370
     9
100
AcDbLine
 10
534.654633734843
 20
324.3772480127902
 30
0.0
 11
535.4045269233195
 21
324.3772480127902
 31
0.0
  0
LINE
  5
4D6
330
1F
100
AcDbEntity
  8
D-0
  6
Continuous
 62
     7
370
     9
100
AcDbLine
 10
535.4045269233195
 20
324.3772480127902
 30
0.0
 11
535.4045269233195
 21
323.6271068689913
 31
0.0
  0
LINE
  5
4D7
330
1F
100
AcDbEntity
  8
D-0
  6
Continuous
 62
     7
370
     9
100
AcDbLine
 10
535.4045269233195
 20
323.6271068689913
 30
0.0
 11
534.654633734843
 21
323.6271068689913
 31
0.0
  0
LINE
  5
4D8
330
1F
100
AcDbEntity
  8
D-0
  6
Continuous
 62
     7
370
     9
100
AcDbLine
 10
545.3528527525295
 20
317.0701339226673
 30
0.0
 11
545.3528527525295
 21
317.8202750664661
 31
0.0
  0
LINE
  5
4D9
330
1F
100
AcDbEntity
  8
D-0
  6
Continuous
 62
     7
370
     9
100
AcDbLine
 10
545.3528527525295
 20
317.8202750664661
 30
0.0
 11
546.1027459410061
 21
317.8202750664661
 31
0.0
  0
LINE
  5
4DA
330
1F
100
AcDbEntity
  8
D-0
  6
Continuous
 62
     7
370
     9
100
AcDbLine
 10
546.1027459410061
 20
317.8202750664661
 30
0.0
 11
546.1027459410061
 21
317.0701339226673
 31
0.0
  0
LINE
  5
4DB
330
1F
100
AcDbEntity
  8
D-0
  6
Continuous
 62
     7
370
     9
100
AcDbLine
 10
546.1027459410061
 20
317.0701339226673
 30
0.0
 11
545.3528527525295
 21
317.0701339226673
 31
0.0
  0
LINE
  5
4DC
330
1F
100
AcDbEntity
  8
D-0
  6
Continuous
 62
     7
370
     9
100
AcDbLine
 10
550.1843065024525
 20
328.8036644581945
 30
0.0
 11
550.1843065024525
 21
329.5538056019934
 31
0.0
  0
LINE
  5
4DD
330
1F
100
AcDbEntity
  8
D-0
  6
Continuous
 62
     7
370
     9
100
AcDbLine
 10
550.1843065024525
 20
329.5538056019934
 30
0.0
 11
550.9341996909291
 21
329.5538056019934
 31
0.0
  0
LINE
  5
4DE
330
1F
100
AcDbEntity
  8
D-0
  6
Continuous
 62
     7
370
     9
100
AcDbLine
 10
550.9341996909291
 20
329.5538056019934
 30
0.0
 11
550.9341996909291
 21
328.8036644581945
 31
0.0
  0
LINE
  5
4DF
330
1F
100
AcDbEntity
  8
D-0
  6
Continuous
 62
     7
370
     9
100
AcDbLine
 10
550.9341996909291
 20
328.8036644581945
 30
0.0
 11
550.1843065024525
 21
328.8036644581945
 31
0.0
  0
LINE
  5
4E0
330
1F
100
AcDbEntity
  8
D-0
  6
Continuous
 62
     7
370
     9
100
AcDbLine
 10
568.8199138235839
 20
331.9095990117165
 30
0.0
 11
568.8199138235839
 21
332.6597401555153
 31
0.0
  0
LINE
  5
4E1
330
1F
100
AcDbEntity
  8
D-0
  6
Continuous
 62
     7
370
     9
100
AcDbLine
 10
568.8199138235839
 20
332.6597401555153
 30
0.0
 11
569.5698070120604
 21
332.6597401555153
 31
0.0
  0
LINE
  5
4E2
330
1F
100
AcDbEntity
  8
D-0
  6
Continuous
 62
     7
370
     9
100
AcDbLine
 10
569.5698070120604
 20
332.6597401555153
 30
0.0
 11
569.5698070120604
 21
331.9095990117165
 31
0.0
  0
LINE
  5
4E3
330
1F
100
AcDbEntity
  8
D-0
  6
Continuous
 62
     7
370
     9
100
AcDbLine
 10
569.5698070120604
 20
331.9095990117165
 30
0.0
 11
568.8199138235839
 21
331.9095990117165
 31
0.0
  0
LINE
  5
4E4
330
1F
100
AcDbEntity
  8
D-0
  6
Continuous
 62
     7
370
     9
100
AcDbLine
 10
590.2163518589571
 20
331.9095990117165
 30
0.0
 11
590.2163518589571
 21
332.6597401555153
 31
0.0
  0
LINE
  5
4E5
330
1F
100
AcDbEntity
  8
D-0
  6
Continuous
 62
     7
370
     9
100
AcDbLine
 10
590.2163518589571
 20
332.6597401555153
 30
0.0
 11
590.9662450474336
 21
332.6597401555153
 31
0.0
  0
LINE
  5
4E6
330
1F
100
AcDbEntity
  8
D-0
  6
Continuous
 62
     7
370
     9
100
AcDbLine
 10
590.9662450474336
 20
332.6597401555153
 30
0.0
 11
590.9662450474336
 21
331.9095990117165
 31
0.0
  0
LINE
  5
4E7
330
1F
100
AcDbEntity
  8
D-0
  6
Continuous
 62
     7
370
     9
100
AcDbLine
 10
590.9662450474336
 20
331.9095990117165
 30
0.0
 11
590.2163518589571
 21
331.9095990117165
 31
0.0
  0
LINE
  5
4E8
330
1F
100
AcDbEntity
  8
D-0
  6
Continuous
 62
     7
370
     9
100
AcDbLine
 10
585.3848981090341
 20
320.8662761547497
 30
0.0
 11
585.3848981090341
 21
321.6164172985485
 31
0.0
  0
LINE
  5
4E9
330
1F
100
AcDbEntity
  8
D-0
  6
Continuous
 62
     7
370
     9
100
AcDbLine
 10
585.3848981090341
 20
321.6164172985485
 30
0.0
 11
586.1347912975107
 21
321.6164172985485
 31
0.0
  0
LINE
  5
4EA
330
1F
100
AcDbEntity
  8
D-0
  6
Continuous
 62
     7
370
     9
100
AcDbLine
 10
586.1347912975107
 20
321.6164172985485
 30
0.0
 11
586.1347912975107
 21
320.8662761547497
 31
0.0
  0
LINE
  5
4EB
330
1F
100
AcDbEntity
  8
D-0
  6
Continuous
 62
     7
370
     9
100
AcDbLine
 10
586.1347912975107
 20
320.8662761547497
 30
0.0
 11
585.3848981090341
 21
320.8662761547497
 31
0.0
  0
LINE
  5
4EC
330
1F
100
AcDbEntity
  8
D-0
  6
Continuous
 62
     7
370
     9
100
AcDbLine
 10
575.0317829306277
 20
302.2306688336182
 30
0.0
 11
575.0317829306277
 21
302.980809977417
 31
0.0
  0
LINE
  5
4ED
330
1F
100
AcDbEntity
  8
D-0
  6
Continuous
 62
     7
370
     9
100
AcDbLine
 10
575.0317829306277
 20
302.980809977417
 30
0.0
 11
575.7816761191043
 21
302.980809977417
 31
0.0
  0
LINE
  5
4EE
330
1F
100
AcDbEntity
  8
D-0
  6
Continuous
 62
     7
370
     9
100
AcDbLine
 10
575.7816761191043
 20
302.980809977417
 30
0.0
 11
575.7816761191043
 21
302.2306688336182
 31
0.0
  0
LINE
  5
4EF
330
1F
100
AcDbEntity
  8
D-0
  6
Continuous
 62
     7
370
     9
100
AcDbLine
 10
575.7816761191043
 20
302.2306688336182
 30
0.0
 11
575.0317829306277
 21
302.2306688336182
 31
0.0
  0
LINE
  5
4F0
330
1F
100
AcDbEntity
  8
D-0
  6
Continuous
 62
     7
370
     9
100
AcDbLine
 10
571.5807445378257
 20
315.3446147262662
 30
0.0
 11
571.5807445378257
 21
316.0947558700651
 31
0.0
  0
LINE
  5
4F1
330
1F
100
AcDbEntity
  8
D-0
  6
Continuous
 62
     7
370
     9
100
AcDbLine
 10
571.5807445378257
 20
316.0947558700651
 30
0.0
 11
572.3306377263023
 21
316.0947558700651
 31
0.0
  0
LINE
  5
4F2
330
1F
100
AcDbEntity
  8
D-0
  6
Continuous
 62
     7
370
     9
100
AcDbLine
 10
572.3306377263023
 20
316.0947558700651
 30
0.0
 11
572.3306377263023
 21
315.3446147262662
 31
0.0
  0
LINE
  5
4F3
330
1F
100
AcDbEntity
  8
D-0
  6
Continuous
 62
     7
370
     9
100
AcDbLine
 10
572.3306377263023
 20
315.3446147262662
 30
0.0
 11
571.5807445378257
 21
315.3446147262662
 31
0.0
  0
LINE
  5
4F4
330
1F
100
AcDbEntity
  8
D-0
  6
Continuous
 62
     7
370
     9
100
AcDbLine
 10
556.0510717702161
 20
306.3719149049808
 30
0.0
 11
556.0510717702161
 21
307.1220560487796
 31
0.0
  0
LINE
  5
4F5
330
1F
100
AcDbEntity
  8
D-0
  6
Continuous
 62
     7
370
     9
100
AcDbLine
 10
556.0510717702161
 20
307.1220560487796
 30
0.0
 11
556.8009649586927
 21
307.1220560487796
 31
0.0
  0
LINE
  5
4F6
330
1F
100
AcDbEntity
  8
D-0
  6
Continuous
 62
     7
370
     9
100
AcDbLine
 10
556.8009649586927
 20
307.1220560487796
 30
0.0
 11
556.8009649586927
 21
306.3719149049808
 31
0.0
  0
LINE
  5
4F7
330
1F
100
AcDbEntity
  8
D-0
  6
Continuous
 62
     7
370
     9
100
AcDbLine
 10
556.8009649586927
 20
306.3719149049808
 30
0.0
 11
556.0510717702161
 21
306.3719149049808
 31
0.0
  0
LINE
  5
4F8
330
1F
100
AcDbEntity
  8
D-0
  6
Continuous
 62
     7
370
     9
100
AcDbLine
 10
561.5727331986996
 20
318.1054454405079
 30
0.0
 11
561.5727331986996
 21
318.8555865843068
 31
0.0
  0
LINE
  5
4F9
330
1F
100
AcDbEntity
  8
D-0
  6
Continuous
 62
     7
370
     9
100
AcDbLine
 10
561.5727331986996
 20
318.8555865843068
 30
0.0
 11
562.3226263871761
 21
318.8555865843068
 31
0.0
  0
LINE
  5
4FA
330
1F
100
AcDbEntity
  8
D-0
  6
Continuous
 62
     7
370
     9
100
AcDbLine
 10
562.3226263871761
 20
318.8555865843068
 30
0.0
 11
562.3226263871761
 21
318.1054454405079
 31
0.0
  0
LINE
  5
4FB
330
1F
100
AcDbEntity
  8
D-0
  6
Continuous
 62
     7
370
     9
100
AcDbLine
 10
562.3226263871761
 20
318.1054454405079
 30
0.0
 11
561.5727331986996
 21
318.1054454405079
 31
0.0
  0
TEXT
  5
4FC
330
1F
100
AcDbEntity
  8
D-5
  6
Continuous
 62
     7
370
     9
100
AcDbText
 10
295.3950013918451
 20
131.0736840803307
 30
0.0
 40
11.43
  1
軟質ポリ塩化ビニル
 41
1.148148148148148
  7
ＭＳ ゴシック
100
AcDbText
  0
LINE
  5
4FD
330
1F
100
AcDbEntity
  8
D-5
  6
Continuous
 62
     7
370
     9
100
AcDbLine
 10
-29.96137464368658
 20
405.6066729571369
 30
0.0
 11
162.5386418523016
 21
405.6066729571369
 31
0.0
  0
LINE
  5
4FE
330
1F
100
AcDbEntity
  8
D-5
  6
Continuous
 62
     7
370
     9
100
AcDbLine
 10
516.5129378035263
 20
346.0456806904562
 30
0.0
 11
521.2964444547085
 21
357.5941920924832
 31
0.0
  0
LINE
  5
4FF
330
1F
100
AcDbEntity
  8
D-5
  6
Continuous
 62
     7
370
     9
100
AcDbLine
 10
516.5129378035263
 20
346.0456806904562
 30
0.0
 11
524.1224546690245
 21
355.9625739020271
 31
0.0
  0
LINE
  5
500
330
1F
100
AcDbEntity
  8
D-5
  6
Continuous
 62
     7
370
     9
100
AcDbLine
 10
538.2332054344386
 20
346.0456806904562
 30
0.0
 11
543.0167120856208
 21
357.5941920924832
 31
0.0
  0
LINE
  5
501
330
1F
100
AcDbEntity
  8
D-5
  6
Continuous
 62
     7
370
     9
100
AcDbLine
 10
538.2332054344386
 20
346.0456806904562
 30
0.0
 11
545.8427222999367
 21
355.9625739020271
 31
0.0
  0
LINE
  5
502
330
1F
100
AcDbEntity
  8
D-5
  6
Continuous
 62
     7
370
     9
100
AcDbLine
 10
545.7915022566513
 20
234.1687341638514
 30
0.0
 11
550.5750089078335
 21
245.7172455658784
 31
0.0
  0
LINE
  5
503
330
1F
100
AcDbEntity
  8
D-5
  6
Continuous
 62
     7
370
     9
100
AcDbLine
 10
545.7915022566513
 20
234.1687341638514
 30
0.0
 11
553.4010191221495
 21
244.0856273754224
 31
0.0
  0
LINE
  5
504
330
1F
100
AcDbEntity
  8
D-5
  6
Continuous
 62
     7
370
     9
100
AcDbLine
 10
501.9643422719597
 20
233.8052450644004
 30
0.0
 11
497.1808356207771
 21
222.2567336623733
 31
0.0
  0
LINE
  5
505
330
1F
100
AcDbEntity
  8
D-5
  6
Continuous
 62
     7
370
     9
100
AcDbLine
 10
501.9643422719597
 20
233.8052450644004
 30
0.0
 11
494.3548254064612
 21
223.8883518528294
 31
0.0
  0
LINE
  5
506
330
1F
100
AcDbEntity
  8
D-5
  6
Continuous
 62
     7
370
     9
100
AcDbLine
 10
188.7988116290119
 20
332.2956971864443
 30
0.0
 11
114.3274668100719
 21
203.3076064651077
 31
0.0
  0
LINE
  5
507
330
1F
100
AcDbEntity
  8
D-5
  6
Continuous
 62
     7
370
     9
100
AcDbLine
 10
188.7988116290119
 20
332.2956971864443
 30
0.0
 11
184.0153049778294
 21
320.7471857844173
 31
0.0
  0
LINE
  5
508
330
1F
100
AcDbEntity
  8
D-5
  6
Continuous
 62
     7
370
     9
100
AcDbLine
 10
188.7988116290119
 20
332.2956971864443
 30
0.0
 11
181.1892947635135
 21
322.3788039748733
 31
0.0
  0
LINE
  5
509
330
1F
100
AcDbEntity
  8
D-5
  6
Continuous
 62
     7
370
     9
100
AcDbLine
 10
162.5386418523016
 20
405.6066729571369
 30
0.0
 11
93.07696368243256
 21
285.2956782160579
 31
0.0
  0
LINE
  5
50A
330
1F
100
AcDbEntity
  8
D-5
  6
Continuous
 62
     7
370
     9
100
AcDbLine
 10
93.07696368243256
 20
285.2956782160579
 30
0.0
 11
97.86047033361498
 21
296.8441277581293
 31
0.0
  0
LINE
  5
50B
330
1F
100
AcDbEntity
  8
D-5
  6
Continuous
 62
     7
370
     9
100
AcDbLine
 10
93.07696368243256
 20
285.2956782160579
 30
0.0
 11
100.6864805479309
 21
295.2126332875845
 31
0.0
  0
TEXT
  5
50C
330
1F
100
AcDbEntity
  8
D-5
  6
Continuous
 62
     7
370
     9
100
AcDbText
 10
315.416349010458
 20
159.8811695461323
 30
0.0
 40
11.43
  1
クッション材
 50
0.00006915737602
 41
1.138888888888889
  7
ＭＳ ゴシック
100
AcDbText
  0
LINE
  5
50D
330
1F
100
AcDbEntity
  8
D-5
  6
Continuous
 62
     7
370
     9
100
AcDbLine
 10
453.7901594832138
 20
150.3651964342272
 30
0.0
 11
292.7010182957738
 21
150.3651964342272
 31
0.0
  0
LINE
  5
50E
330
1F
100
AcDbEntity
  8
D-5
  6
Continuous
 62
     7
370
     9
100
AcDbLine
 10
501.9643422719597
 20
233.8052450644004
 30
0.0
 11
453.7901594832138
 21
150.3651964342272
 31
0.0
  0
LINE
  5
50F
330
1F
100
AcDbEntity
  8
D-5
  6
Continuous
 62
     7
370
     9
100
AcDbLine
 10
630.9641245249156
 20
381.692356418919
 30
0.0
 11
545.7915022566513
 21
234.1687341638514
 31
0.0
  0
LINE
  5
510
330
1F
100
AcDbEntity
  8
D-5
  6
Continuous
 62
     7
370
     9
100
AcDbLine
 10
585.9871116844386
 20
428.757885082348
 30
0.0
 11
538.2332054344386
 21
346.0456806904562
 31
0.0
  0
LINE
  5
511
330
1F
100
AcDbEntity
  8
D-5
  6
Continuous
 62
     7
370
     9
100
AcDbLine
 10
583.0871169631547
 20
461.3556073163008
 30
0.0
 11
516.5129378035263
 21
346.0456806904562
 31
0.0
  0
TEXT
  5
512
330
1F
100
AcDbEntity
  8
D-5
  6
Continuous
 62
     7
370
     9
100
AcDbText
 10
585.6210244668498
 20
465.6510470333616
 30
0.0
 40
11.43
  1
蓋フレーム（ＳＵＳ３０４）
 41
1.153846153846154
  7
ＭＳ ゴシック
100
AcDbText
  0
LINE
  5
513
330
1F
100
AcDbEntity
  8
D-5
  6
Continuous
 62
     7
370
     9
100
AcDbLine
 10
583.0871169631547
 20
461.3556073163008
 30
0.0
 11
805.5871087151606
 21
461.3556073163008
 31
0.0
  0
TEXT
  5
514
330
1F
100
AcDbEntity
  8
D-5
  6
Continuous
 62
     7
370
     9
100
AcDbText
 10
589.0433729017104
 20
433.0053214738176
 30
0.0
 40
11.43
  1
枠（ＳＵＳ３０４）
 41
1.148148148148148
  7
ＭＳ ゴシック
100
AcDbText
  0
LINE
  5
515
330
1F
100
AcDbEntity
  8
D-5
  6
Continuous
 62
     7
370
     9
100
AcDbLine
 10
585.9871116844386
 20
428.757885082348
 30
0.0
 11
736.9320843670821
 21
428.757885082348
 31
0.0
  0
TEXT
  5
516
330
1F
100
AcDbEntity
  8
D-5
  6
Continuous
 62
     7
370
     9
100
AcDbText
 10
633.4485193201015
 20
386.6187676836994
 30
0.0
 40
11.43
  1
アンカー（ＳＰＨＣ）
 41
1.15
  7
ＭＳ ゴシック
100
AcDbText
  0
LINE
  5
517
330
1F
100
AcDbEntity
  8
D-5
  6
Continuous
 62
     7
370
     9
100
AcDbLine
 10
630.9641245249156
 20
381.692356418919
 30
0.0
 11
797.6374858134502
 21
381.692356418919
 31
0.0
  0
LINE
  5
518
330
1F
100
AcDbEntity
  8
D-5
  6
Continuous
 62
     7
370
     9
100
AcDbLine
 10
705.857601681271
 20
-121.3033150337837
 30
0.0
 11
671.4134834908151
 21
-187.8932066221495
 31
0.0
  0
LINE
  5
519
330
1F
100
AcDbEntity
  8
D-5
  6
Continuous
 62
     7
370
     9
100
AcDbLine
 10
705.857601681271
 20
-121.3033150337837
 30
0.0
 11
810.7626837653083
 21
-121.3033150337837
 31
0.0
  0
LINE
  5
51A
330
1F
100
AcDbEntity
  8
D-5
  6
Continuous
 62
     7
370
     9
100
AcDbLine
 10
671.4134834908151
 20
-187.8932066221495
 30
0.0
 11
675.6580662082981
 21
-176.1358560098184
 31
0.0
  0
LINE
  5
51B
330
1F
100
AcDbEntity
  8
D-5
  6
Continuous
 62
     7
370
     9
100
AcDbLine
 10
671.4134834908151
 20
-187.8932066221495
 30
0.0
 11
678.5564525707349
 21
-177.6350938951646
 31
0.0
  0
TEXT
  5
51C
330
1F
100
AcDbEntity
  8
D-5
  6
Continuous
 62
     7
370
     9
100
AcDbText
 10
709.3329986612866
 20
-117.6746019188348
 30
0.0
 40
11.43
  1
ＳＵＳ３０４
 50
0.0000691573760182
 41
1.13888888888889
  7
ＭＳ ゴシック
100
AcDbText
  0
TEXT
  5
51D
330
1F
100
AcDbEntity
  8
D-5
  6
Continuous
 62
     7
370
     9
100
AcDbText
 10
-24.99537699931373
 20
409.7942289115288
 30
0.0
 40
11.43
  1
補強材（ＳＵＳ３０４）
 41
1.151515151515152
  7
ＭＳ ゴシック
100
AcDbText
  0
TEXT
  5
51E
330
1F
100
AcDbEntity
  8
D-5
  6
Continuous
 62
     7
370
     9
100
AcDbText
 10
-112.6165758374484
 20
208.3081259567673
 30
0.0
 40
11.43
  1
蓋プレート（ＳＵＳ３０４）
 41
1.153846153846154
  7
ＭＳ ゴシック
100
AcDbText
  0
LINE
  5
51F
330
1F
100
AcDbEntity
  8
D-5
  6
Continuous
 62
     7
370
     9
100
AcDbLine
 10
114.3274668100719
 20
203.3076064651077
 30
0.0
 11
-115.4114358020913
 21
203.3076064651077
 31
0.0
  0
TEXT
  5
520
330
1F
100
AcDbEntity
  8
D-5
  6
Continuous
 62
     7
370
     9
100
AcDbText
 10
-43.04198449600969
 20
187.7581249670081
 30
0.0
 40
11.43
  1
ｔ＝２．５
 41
1.133333333333333
  7
ＭＳ ゴシック
100
AcDbText
  0
TEXT
  5
521
330
1F
100
AcDbEntity
  8
F-5
  6
Continuous
 62
     2
370
     9
100
AcDbText
 10
-414.7923269070216
 20
-662.3355385737638
 30
0.0
 40
15.24
  1
フロアーハッチ　張物用（適用床材：3mm以下）　屋内外用　一般形
 41
0.8225409836065573
  7
ＭＳ ゴシック
100
AcDbText
  0
TEXT
  5
522
330
1F
100
AcDbEntity
  8
F-5
  6
Continuous
 62
     2
370
     9
100
AcDbText
 10
-414.4640733846246
 20
-686.5991727200873
 30
0.0
 40
15.24
  1
ステンレス製　把手ロック式　ＭＳＥＳ－Ｐ－４５０
 41
0.8218749999999998
  7
ＭＳ ゴシック
100
AcDbText
  0
ENDSEC
  0
SECTION
  2
OBJECTS
  0
DICTIONARY
  5
C
330
0
100
AcDbDictionary
281
     1
  3
ACAD_DETAILVIEWSTYLE
350
52A
  3
ACAD_GROUP
350
D
  3
ACAD_LAYOUT
350
1A
  3
ACAD_MATERIAL
350
43
  3
ACAD_MLEADERSTYLE
350
6B
  3
ACAD_MLINESTYLE
350
17
  3
ACAD_PLOTSETTINGS
350
19
  3
ACAD_PLOTSTYLENAME
350
E
  3
ACAD_SCALELIST
350
47
  3
ACAD_SECTIONVIEWSTYLE
350
52B
  3
ACAD_TABLESTYLE
350
69
  3
ACAD_VISUALSTYLE
350
2A
  3
ACDB_RECOMPOSE_DATA
350
527
  3
AcDbVariableDictionary
350
523
  0
SUN
  5
6D
330
29
100
AcDbSun
 90
        1
290
     0
 63
     7
421
 16777215
 40
1.0
291
     1
 91
  2455826
 92
 54000000
292
     0
 70
     2
 71
   256
280
     1
  0
DICTIONARY
  5
52A
102
{ACAD_REACTORS
330
C
102
}
330
C
100
AcDbDictionary
281
     1
  0
DICTIONARY
  5
D
102
{ACAD_REACTORS
330
C
102
}
330
C
100
AcDbDictionary
281
     1
  0
DICTIONARY
  5
1A
102
{ACAD_REACTORS
330
C
102
}
330
C
100
AcDbDictionary
281
     1
  3
Layout1
350
1E
  3
Layout2
350
26
  3
Model
350
22
  0
DICTIONARY
  5
43
102
{ACAD_REACTORS
330
C
102
}
330
C
100
AcDbDictionary
281
     1
  3
ByBlock
350
45
  3
ByLayer
350
44
  3
Global
350
46
  0
DICTIONARY
  5
6B
102
{ACAD_REACTORS
330
C
102
}
330
C
100
AcDbDictionary
281
     1
  3
Standard
350
6C
  0
DICTIONARY
  5
17
102
{ACAD_REACTORS
330
C
102
}
330
C
100
AcDbDictionary
281
     1
  3
Standard
350
18
  0
DICTIONARY
  5
19
102
{ACAD_REACTORS
330
C
102
}
330
C
100
AcDbDictionary
281
     1
  0
ACDBDICTIONARYWDFLT
  5
E
102
{ACAD_REACTORS
330
C
102
}
330
C
100
AcDbDictionary
281
     1
  3
Normal
350
F
100
AcDbDictionaryWithDefault
340
F
  0
DICTIONARY
  5
47
102
{ACAD_REACTORS
330
C
102
}
330
C
100
AcDbDictionary
281
     1
  3
A0
350
48
  3
A1
350
49
  3
A2
350
4A
  3
A3
350
4B
  3
A4
350
4C
  3
A5
350
4D
  3
A6
350
4E
  3
A7
350
4F
  3
A8
350
50
  3
A9
350
51
  3
B0
350
52
  3
B1
350
53
  3
B2
350
54
  3
B3
350
55
  3
B4
350
56
  3
B5
350
57
  3
B6
350
58
  3
B7
350
59
  3
B8
350
5A
  3
B9
350
5B
  3
C0
350
5C
  3
C1
350
5D
  3
C2
350
5E
  3
C3
350
5F
  3
C4
350
60
  3
C5
350
61
  3
C6
350
62
  3
C7
350
63
  3
C8
350
64
  3
C9
350
65
  3
D0
350
66
  3
D1
350
67
  3
D2
350
68
  0
DICTIONARY
  5
52B
102
{ACAD_REACTORS
330
C
102
}
330
C
100
AcDbDictionary
281
     1
  0
DICTIONARY
  5
69
102
{ACAD_REACTORS
330
C
102
}
330
C
100
AcDbDictionary
281
     1
  3
Standard
350
6A
  0
DICTIONARY
  5
2A
102
{ACAD_REACTORS
330
C
102
}
330
C
100
AcDbDictionary
281
     1
  3
2dWireframe
350
2F
  3
Basic
350
32
  3
Brighten
350
36
  3
ColorChange
350
3A
  3
Conceptual
350
34
  3
Dim
350
35
  3
EdgeColorOff
350
3D
  3
Facepattern
350
39
  3
Flat
350
2B
  3
FlatWithEdges
350
2C
  3
Gouraud
350
2D
  3
GouraudWithEdges
350
2E
  3
Hidden
350
31
  3
JitterOff
350
3B
  3
Linepattern
350
38
  3
OverhangOff
350
3C
  3
Realistic
350
33
  3
Shaded
350
42
  3
Shaded with edges
350
41
  3
Shades of Gray
350
3E
  3
Sketchy
350
3F
  3
Thicken
350
37
  3
Wireframe
350
30
  3
X-Ray
350
40
  0
XRECORD
  5
527
102
{ACAD_REACTORS
330
C
102
}
330
C
100
AcDbXrecord
280
     1
 90
        1
330
6A
  0
DICTIONARY
  5
523
102
{ACAD_REACTORS
330
C
102
}
330
C
100
AcDbDictionary
281
     1
  3
CANNOSCALE
350
524
  3
CENTEREXE
350
52C
  3
CENTERLTYPEFILE
350
52D
  3
CMLEADERSTYLE
350
529
  3
CTABLESTYLE
350
528
  0
LAYOUT
  5
1E
102
{ACAD_REACTORS
330
1A
102
}
330
1A
100
AcDbPlotSettings
  1

  2
none_device
  4

  6

 40
0.0
 41
0.0
 42
0.0
 43
0.0
 44
0.0
 45
0.0
 46
0.0
 47
0.0
 48
0.0
 49
0.0
140
0.0
141
0.0
142
1.0
143
1.0
 70
   688
 72
     1
 73
     0
 74
     5
  7

 75
    16
 76
     0
 77
     5
 78
   300
147
1.0
148
0.0
149
0.0
100
AcDbLayout
  1
Layout1
 70
     1
 71
     1
 10
0.0
 20
0.0
 11
420.0
 21
297.0
 12
0.0
 22
0.0
 32
0.0
 14
1.000000000000000E+20
 24
1.000000000000000E+20
 34
1.000000000000000E+20
 15
-1.000000000000000E+20
 25
-1.000000000000000E+20
 35
-1.000000000000000E+20
146
0.0
 13
0.0
 23
0.0
 33
0.0
 16
1.0
 26
0.0
 36
0.0
 17
0.0
 27
1.0
 37
0.0
 76
     0
330
1B
  0
LAYOUT
  5
26
102
{ACAD_REACTORS
330
1A
102
}
330
1A
100
AcDbPlotSettings
  1

  2
none_device
  4

  6

 40
0.0
 41
0.0
 42
0.0
 43
0.0
 44
0.0
 45
0.0
 46
0.0
 47
0.0
 48
0.0
 49
0.0
140
0.0
141
0.0
142
1.0
143
1.0
 70
   688
 72
     1
 73
     0
 74
     5
  7

 75
    16
 76
     0
 77
     5
 78
   300
147
1.0
148
0.0
149
0.0
100
AcDbLayout
  1
Layout2
 70
     1
 71
     2
 10
0.0
 20
0.0
 11
0.0
 21
0.0
 12
0.0
 22
0.0
 32
0.0
 14
0.0
 24
0.0
 34
0.0
 15
0.0
 25
0.0
 35
0.0
146
0.0
 13
0.0
 23
0.0
 33
0.0
 16
1.0
 26
0.0
 36
0.0
 17
0.0
 27
1.0
 37
0.0
 76
     0
330
23
  0
LAYOUT
  5
22
102
{ACAD_REACTORS
330
1A
102
}
330
1A
100
AcDbPlotSettings
  1

  2
none_device
  4
Letter_(8.50_x_11.00_Inches)
  6

 40
6.35
 41
6.35
 42
6.35000508
 43
6.35000508
 44
215.9
 45
279.4
 46
0.0
 47
0.0
 48
0.0
 49
0.0
140
0.0
141
0.0
142
1.0
143
1.0
 70
  1712
 72
     1
 73
     0
 74
     0
  7

 75
     0
 76
     0
 77
     5
 78
   300
147
1.0
148
0.0
149
0.0
100
AcDbLayout
  1
Model
 70
     1
 71
     0
 10
-1050.0
 20
-742.5
 11
1050.0
 21
742.5
 12
0.0
 22
0.0
 32
0.0
 14
-1050.0
 24
-742.5
 34
0.0
 15
1050.0
 25
742.5
 35
0.0
146
0.0
 13
0.0
 23
0.0
 33
0.0
 16
1.0
 26
0.0
 36
0.0
 17
0.0
 27
1.0
 37
0.0
 76
     0
330
1F
331
29
  0
MATERIAL
  5
45
102
{ACAD_REACTORS
330
43
102
}
330
43
100
AcDbMaterial
  1
ByBlock
 72
     1
 94
      127
  0
MATERIAL
  5
44
102
{ACAD_REACTORS
330
43
102
}
330
43
100
AcDbMaterial
  1
ByLayer
 72
     1
 94
      127
  0
MATERIAL
  5
46
102
{ACAD_REACTORS
330
43
102
}
330
43
100
AcDbMaterial
  1
Global
 72
     1
 94
      127
  0
MLEADERSTYLE
  5
6C
102
{ACAD_REACTORS
330
6B
102
}
330
6B
100
AcDbMLeaderStyle
179
     2
170
     2
171
     1
172
     0
 90
        2
 40
0.0
 41
0.0
173
     1
 91
-1056964608
340
14
 92
       -2
290
     1
 42
2.0
291
     1
 43
8.0
  3
Standard
341
0
 44
4.0
300

342
11
174
     1
178
     6
175
     1
176
     0
 93
-1056964608
 45
4.0
292
     0
297
     0
 46
4.0
343
0
 94
-1056964608
 47
1.0
 49
1.0
140
1.0
293
     1
141
0.0
294
     1
177
     0
142
1.0
295
     0
296
     0
143
3.75
271
     0
272
     9
273
     9
298
     0
  0
MLINESTYLE
  5
18
102
{ACAD_REACTORS
330
17
102
}
330
17
100
AcDbMlineStyle
  2
Standard
 70
     0
  3

 62
   256
 51
90.0
 52
90.0
 71
     2
 49
0.5
 62
   256
  6
BYLAYER
 49
-0.5
 62
   256
  6
BYLAYER
  0
ACDBPLACEHOLDER
  5
F
102
{ACAD_REACTORS
330
E
102
}
330
E
  0
SCALE
  5
48
102
{ACAD_REACTORS
330
47
102
}
330
47
100
AcDbScale
 70
     0
300
1:1
140
1.0
141
1.0
290
     1
  0
SCALE
  5
49
102
{ACAD_REACTORS
330
47
102
}
330
47
100
AcDbScale
 70
     0
300
1:2
140
1.0
141
2.0
290
     0
  0
SCALE
  5
4A
102
{ACAD_REACTORS
330
47
102
}
330
47
100
AcDbScale
 70
     0
300
1:4
140
1.0
141
4.0
290
     0
  0
SCALE
  5
4B
102
{ACAD_REACTORS
330
47
102
}
330
47
100
AcDbScale
 70
     0
300
1:5
140
1.0
141
5.0
290
     0
  0
SCALE
  5
4C
102
{ACAD_REACTORS
330
47
102
}
330
47
100
AcDbScale
 70
     0
300
1:8
140
1.0
141
8.0
290
     0
  0
SCALE
  5
4D
102
{ACAD_REACTORS
330
47
102
}
330
47
100
AcDbScale
 70
     0
300
1:10
140
1.0
141
10.0
290
     0
  0
SCALE
  5
4E
102
{ACAD_REACTORS
330
47
102
}
330
47
100
AcDbScale
 70
     0
300
1:16
140
1.0
141
16.0
290
     0
  0
SCALE
  5
4F
102
{ACAD_REACTORS
330
47
102
}
330
47
100
AcDbScale
 70
     0
300
1:20
140
1.0
141
20.0
290
     0
  0
SCALE
  5
50
102
{ACAD_REACTORS
330
47
102
}
330
47
100
AcDbScale
 70
     0
300
1:30
140
1.0
141
30.0
290
     0
  0
SCALE
  5
51
102
{ACAD_REACTORS
330
47
102
}
330
47
100
AcDbScale
 70
     0
300
1:40
140
1.0
141
40.0
290
     0
  0
SCALE
  5
52
102
{ACAD_REACTORS
330
47
102
}
330
47
100
AcDbScale
 70
     0
300
1:50
140
1.0
141
50.0
290
     0
  0
SCALE
  5
53
102
{ACAD_REACTORS
330
47
102
}
330
47
100
AcDbScale
 70
     0
300
1:100
140
1.0
141
100.0
290
     0
  0
SCALE
  5
54
102
{ACAD_REACTORS
330
47
102
}
330
47
100
AcDbScale
 70
     0
300
2:1
140
2.0
141
1.0
290
     0
  0
SCALE
  5
55
102
{ACAD_REACTORS
330
47
102
}
330
47
100
AcDbScale
 70
     0
300
4:1
140
4.0
141
1.0
290
     0
  0
SCALE
  5
56
102
{ACAD_REACTORS
330
47
102
}
330
47
100
AcDbScale
 70
     0
300
8:1
140
8.0
141
1.0
290
     0
  0
SCALE
  5
57
102
{ACAD_REACTORS
330
47
102
}
330
47
100
AcDbScale
 70
     0
300
10:1
140
10.0
141
1.0
290
     0
  0
SCALE
  5
58
102
{ACAD_REACTORS
330
47
102
}
330
47
100
AcDbScale
 70
     0
300
100:1
140
100.0
141
1.0
290
     0
  0
SCALE
  5
59
102
{ACAD_REACTORS
330
47
102
}
330
47
100
AcDbScale
 70
     0
300
1/128" = 1'-0"
140
0.0078125
141
12.0
290
     0
  0
SCALE
  5
5A
102
{ACAD_REACTORS
330
47
102
}
330
47
100
AcDbScale
 70
     0
300
1/64" = 1'-0"
140
0.015625
141
12.0
290
     0
  0
SCALE
  5
5B
102
{ACAD_REACTORS
330
47
102
}
330
47
100
AcDbScale
 70
     0
300
1/32" = 1'-0"
140
0.03125
141
12.0
290
     0
  0
SCALE
  5
5C
102
{ACAD_REACTORS
330
47
102
}
330
47
100
AcDbScale
 70
     0
300
1/16" = 1'-0"
140
0.0625
141
12.0
290
     0
  0
SCALE
  5
5D
102
{ACAD_REACTORS
330
47
102
}
330
47
100
AcDbScale
 70
     0
300
3/32" = 1'-0"
140
0.09375
141
12.0
290
     0
  0
SCALE
  5
5E
102
{ACAD_REACTORS
330
47
102
}
330
47
100
AcDbScale
 70
     0
300
1/8" = 1'-0"
140
0.125
141
12.0
290
     0
  0
SCALE
  5
5F
102
{ACAD_REACTORS
330
47
102
}
330
47
100
AcDbScale
 70
     0
300
3/16" = 1'-0"
140
0.1875
141
12.0
290
     0
  0
SCALE
  5
60
102
{ACAD_REACTORS
330
47
102
}
330
47
100
AcDbScale
 70
     0
300
1/4" = 1'-0"
140
0.25
141
12.0
290
     0
  0
SCALE
  5
61
102
{ACAD_REACTORS
330
47
102
}
330
47
100
AcDbScale
 70
     0
300
3/8" = 1'-0"
140
0.375
141
12.0
290
     0
  0
SCALE
  5
62
102
{ACAD_REACTORS
330
47
102
}
330
47
100
AcDbScale
 70
     0
300
1/2" = 1'-0"
140
0.5
141
12.0
290
     0
  0
SCALE
  5
63
102
{ACAD_REACTORS
330
47
102
}
330
47
100
AcDbScale
 70
     0
300
3/4" = 1'-0"
140
0.75
141
12.0
290
     0
  0
SCALE
  5
64
102
{ACAD_REACTORS
330
47
102
}
330
47
100
AcDbScale
 70
     0
300
1" = 1'-0"
140
1.0
141
12.0
290
     0
  0
SCALE
  5
65
102
{ACAD_REACTORS
330
47
102
}
330
47
100
AcDbScale
 70
     0
300
1-1/2" = 1'-0"
140
1.5
141
12.0
290
     0
  0
SCALE
  5
66
102
{ACAD_REACTORS
330
47
102
}
330
47
100
AcDbScale
 70
     0
300
3" = 1'-0"
140
3.0
141
12.0
290
     0
  0
SCALE
  5
67
102
{ACAD_REACTORS
330
47
102
}
330
47
100
AcDbScale
 70
     0
300
6" = 1'-0"
140
6.0
141
12.0
290
     0
  0
SCALE
  5
68
102
{ACAD_REACTORS
330
47
102
}
330
47
100
AcDbScale
 70
     0
300
1'-0" = 1'-0"
140
12.0
141
12.0
290
     0
  0
TABLESTYLE
  5
6A
102
{ACAD_REACTORS
330
69
102
}
102
{ACAD_XDICTIONARY
360
525
102
}
330
69
100
AcDbTableStyle
  3
Standard
 70
     0
 71
     0
 40
0.06
 41
0.06
280
     0
281
     0
  7
Standard
140
4.5
170
     2
 62
     0
 63
   257
283
     0
 90
        4
 91
        0
  1

274
    -2
284
     1
 64
     0
275
    -2
285
     1
 65
     0
276
    -2
286
     1
 66
     0
277
    -2
287
     1
 67
     0
278
    -2
288
     1
 68
     0
279
    -2
289
     1
 69
     0
  7
Standard
140
6.0
170
     5
 62
     0
 63
   257
283
     0
 90
        4
 91
        0
  1

274
    -2
284
     1
 64
     0
275
    -2
285
     1
 65
     0
276
    -2
286
     1
 66
     0
277
    -2
287
     1
 67
     0
278
    -2
288
     1
 68
     0
279
    -2
289
     1
 69
     0
  7
Standard
140
4.5
170
     5
 62
     0
 63
   257
283
     0
 90
        4
 91
        0
  1

274
    -2
284
     1
 64
     0
275
    -2
285
     1
 65
     0
276
    -2
286
     1
 66
     0
277
    -2
287
     1
 67
     0
278
    -2
288
     1
 68
     0
279
    -2
289
     1
 69
     0
  0
VISUALSTYLE
  5
2F
102
{ACAD_REACTORS
330
2A
102
}
330
2A
100
AcDbVisualStyle
  2
2dWireframe
 70
     4
177
     3
291
     0
 70
    58
 90
        0
176
     1
 90
        2
176
     1
 90
        0
176
     1
 90
        0
176
     1
 40
0.6
176
     1
 40
30.0
176
     1
 62
     7
420
 16777215
176
     1
 90
        1
176
     1
 90
        4
176
     1
 62
     7
176
     1
 62
   257
176
     1
 90
        1
176
     1
 90
        1
176
     1
 40
1.0
176
     1
 90
        0
176
     1
 62
   257
176
     1
 40
1.0
176
     1
 90
        1
176
     1
 90
        6
176
     1
 90
        2
176
     1
 62
     7
176
     1
 90
        5
176
     1
 90
        0
176
     1
 90
        0
176
     1
290
     0
176
     1
 90
        1
176
     1
 40
0.0
176
     1
 90
        0
176
     1
290
     1
176
     1
290
     1
176
     1
290
     0
176
     1
290
     0
176
     1
290
     0
176
     1
290
     0
176
     1
290
     0
176
     1
290
     0
176
     1
290
     0
176
     1
 90
       50
176
     1
 40
0.0
176
     1
 40
1.0
176
     1
 90
        0
176
     1
 62
    18
420
        0
176
     1
 90
       50
176
     1
 90
        3
176
     1
 62
     5
420
      255
176
     1
290
     0
176
     1
 90
       50
176
     1
 90
       50
176
     1
 90
       50
176
     1
290
     0
176
     1
 90
       50
176
     1
 62
   256
176
     0
 40
1.0
176
     0
 90
        2
176
     1
  1
strokes_ogs.tif
176
     1
290
     0
176
     1
 40
1.0
176
     1
 40
1.0
176
     1
  0
VISUALSTYLE
  5
32
102
{ACAD_REACTORS
330
2A
102
}
330
2A
100
AcDbVisualStyle
  2
Basic
 70
     7
177
     3
291
     1
 70
    58
 90
        1
176
     1
 90
        0
176
     1
 90
        1
176
     1
 90
        0
176
     1
 40
0.6
176
     1
 40
30.0
176
     1
 62
     7
420
 16777215
176
     1
 90
        0
176
     1
 90
        4
176
     1
 62
     7
176
     1
 62
   257
176
     1
 90
        1
176
     1
 90
        1
176
     1
 40
1.0
176
     1
 90
        8
176
     1
 62
     7
176
     1
 40
1.0
176
     1
 90
        1
176
     1
 90
        6
176
     1
 90
        2
176
     1
 62
     7
176
     1
 90
        5
176
     1
 90
        0
176
     1
 90
        0
176
     1
290
     0
176
     1
 90
        1
176
     1
 40
0.0
176
     1
 90
        0
176
     1
290
     0
176
     1
290
     1
176
     1
290
     1
176
     1
290
     0
176
     1
290
     0
176
     1
290
     0
176
     1
290
     0
176
     1
290
     0
176
     1
290
     0
176
     1
 90
       50
176
     1
 40
0.0
176
     1
 40
1.0
176
     1
 90
        0
176
     1
 62
    18
420
        0
176
     1
 90
       50
176
     1
 90
        3
176
     1
 62
     5
420
      255
176
     1
290
     0
176
     1
 90
       50
176
     1
 90
       50
176
     1
 90
       50
176
     1
290
     0
176
     1
 90
       50
176
     1
 62
   256
176
     0
 40
1.0
176
     0
 90
        2
176
     1
  1
strokes_ogs.tif
176
     1
290
     0
176
     1
 40
1.0
176
     1
 40
1.0
176
     1
  0
VISUALSTYLE
  5
36
102
{ACAD_REACTORS
330
2A
102
}
330
2A
100
AcDbVisualStyle
  2
Brighten
 70
    12
177
     3
291
     1
 70
    58
 90
        2
176
     1
 90
        2
176
     1
 90
        0
176
     1
 90
        0
176
     1
 40
0.6
176
     1
 40
30.0
176
     1
 62
     7
420
 16777215
176
     1
 90
        1
176
     1
 90
        4
176
     1
 62
     7
176
     1
 62
   257
176
     1
 90
        1
176
     1
 90
        1
176
     1
 40
1.0
176
     1
 90
        8
176
     1
 62
     7
176
     1
 40
1.0
176
     1
 90
        1
176
     1
 90
        6
176
     1
 90
        2
176
     1
 62
     7
176
     1
 90
        5
176
     1
 90
        0
176
     1
 90
        0
176
     1
290
     0
176
     1
 90
        1
176
     1
 40
50.0
176
     1
 90
        0
176
     1
290
     0
176
     1
290
     1
176
     1
290
     1
176
     1
290
     0
176
     1
290
     0
176
     1
290
     0
176
     1
290
     0
176
     1
290
     0
176
     1
290
     0
176
     1
 90
       50
176
     1
 40
0.0
176
     1
 40
1.0
176
     1
 90
        0
176
     1
 62
    18
420
        0
176
     1
 90
       50
176
     1
 90
        3
176
     1
 62
     5
420
      255
176
     1
290
     0
176
     1
 90
       50
176
     1
 90
       50
176
     1
 90
       50
176
     1
290
     0
176
     1
 90
       50
176
     1
 62
   256
176
     0
 40
1.0
176
     0
 90
        2
176
     1
  1
strokes_ogs.tif
176
     1
290
     0
176
     1
 40
1.0
176
     1
 40
1.0
176
     1
  0
VISUALSTYLE
  5
3A
102
{ACAD_REACTORS
330
2A
102
}
330
2A
100
AcDbVisualStyle
  2
ColorChange
 70
    16
177
     3
291
     1
 70
    58
 90
        2
176
     1
 90
        2
176
     1
 90
        3
176
     1
 90
        0
176
     1
 40
0.6
176
     1
 40
30.0
176
     1
 62
     8
420
  8421504
176
     1
 90
        1
176
     1
 90
        4
176
     1
 62
     7
176
     1
 62
   257
176
     1
 90
        1
176
     1
 90
        1
176
     1
 40
1.0
176
     1
 90
        8
176
     1
 62
     8
420
  8421504
176
     1
 40
1.0
176
     1
 90
        1
176
     1
 90
        6
176
     1
 90
        2
176
     1
 62
     7
176
     1
 90
        5
176
     1
 90
        0
176
     1
 90
        0
176
     1
290
     0
176
     1
 90
        1
176
     1
 40
0.0
176
     1
 90
        0
176
     1
290
     0
176
     1
290
     1
176
     1
290
     1
176
     1
290
     0
176
     1
290
     0
176
     1
290
     0
176
     1
290
     0
176
     1
290
     0
176
     1
290
     0
176
     1
 90
       50
176
     1
 40
0.0
176
     1
 40
1.0
176
     1
 90
        0
176
     1
 62
    18
420
        0
176
     1
 90
       50
176
     1
 90
        3
176
     1
 62
     5
420
      255
176
     1
290
     0
176
     1
 90
       50
176
     1
 90
       50
176
     1
 90
       50
176
     1
290
     0
176
     1
 90
       50
176
     1
 62
   256
176
     0
 40
1.0
176
     0
 90
        2
176
     1
  1
strokes_ogs.tif
176
     1
290
     0
176
     1
 40
1.0
176
     1
 40
1.0
176
     1
  0
VISUALSTYLE
  5
34
102
{ACAD_REACTORS
330
2A
102
}
330
2A
100
AcDbVisualStyle
  2
Conceptual
 70
     9
177
     3
291
     0
 70
    58
 90
        3
176
     1
 90
        2
176
     1
 90
        0
176
     1
 90
        0
176
     1
 40
0.6
176
     1
 40
30.0
176
     1
 62
     7
420
 16777215
176
     1
 90
        2
176
     1
 90
        2
176
     1
 62
     7
176
     1
 62
   257
176
     1
 90
        1
176
     1
 90
        1
176
     1
 40
179.0
176
     1
 90
        8
176
     1
 62
     7
176
     1
 40
1.0
176
     1
 90
        1
176
     1
 90
        6
176
     1
 90
        2
176
     1
 62
     7
176
     1
 90
        3
176
     1
 90
        0
176
     1
 90
        0
176
     1
290
     0
176
     1
 90
        1
176
     1
 40
0.0
176
     1
 90
        0
176
     1
290
     0
176
     1
290
     1
176
     1
290
     1
176
     1
290
     0
176
     1
290
     0
176
     1
290
     0
176
     1
290
     0
176
     1
290
     0
176
     1
290
     0
176
     1
 90
       50
176
     1
 40
0.0
176
     1
 40
1.0
176
     1
 90
        0
176
     1
 62
    18
420
        0
176
     1
 90
       50
176
     1
 90
        3
176
     1
 62
     5
420
      255
176
     1
290
     0
176
     1
 90
       50
176
     1
 90
       50
176
     1
 90
       50
176
     1
290
     0
176
     1
 90
       50
176
     1
 62
   256
176
     0
 40
1.0
176
     0
 90
        2
176
     1
  1
strokes_ogs.tif
176
     1
290
     0
176
     1
 40
1.0
176
     1
 40
1.0
176
     1
  0
VISUALSTYLE
  5
35
102
{ACAD_REACTORS
330
2A
102
}
330
2A
100
AcDbVisualStyle
  2
Dim
 70
    11
177
     3
291
     1
 70
    58
 90
        2
176
     1
 90
        2
176
     1
 90
        0
176
     1
 90
        0
176
     1
 40
0.6
176
     1
 40
30.0
176
     1
 62
     7
420
 16777215
176
     1
 90
        1
176
     1
 90
        4
176
     1
 62
     7
176
     1
 62
   257
176
     1
 90
        1
176
     1
 90
        1
176
     1
 40
1.0
176
     1
 90
        8
176
     1
 62
     7
176
     1
 40
1.0
176
     1
 90
        1
176
     1
 90
        6
176
     1
 90
        2
176
     1
 62
     7
176
     1
 90
        5
176
     1
 90
        0
176
     1
 90
        0
176
     1
290
     0
176
     1
 90
        1
176
     1
 40
-50.0
176
     1
 90
        0
176
     1
290
     0
176
     1
290
     1
176
     1
290
     1
176
     1
290
     0
176
     1
290
     0
176
     1
290
     0
176
     1
290
     0
176
     1
290
     0
176
     1
290
     0
176
     1
 90
       50
176
     1
 40
0.0
176
     1
 40
1.0
176
     1
 90
        0
176
     1
 62
    18
420
        0
176
     1
 90
       50
176
     1
 90
        3
176
     1
 62
     5
420
      255
176
     1
290
     0
176
     1
 90
       50
176
     1
 90
       50
176
     1
 90
       50
176
     1
290
     0
176
     1
 90
       50
176
     1
 62
   256
176
     0
 40
1.0
176
     0
 90
        2
176
     1
  1
strokes_ogs.tif
176
     1
290
     0
176
     1
 40
1.0
176
     1
 40
1.0
176
     1
  0
VISUALSTYLE
  5
3D
102
{ACAD_REACTORS
330
2A
102
}
330
2A
100
AcDbVisualStyle
  2
EdgeColorOff
 70
    22
177
     3
291
     1
 70
    58
 90
        2
176
     0
 90
        2
176
     0
 90
        0
176
     0
 90
        0
176
     0
 40
0.6
176
     0
 40
30.0
176
     0
 62
     7
420
 16777215
176
     0
 90
        1
176
     0
 90
        4
176
     0
 62
     7
176
     0
 62
   257
176
     0
 90
        1
176
     0
 90
        1
176
     0
 40
1.0
176
     0
 90
        8
176
     2
 62
     7
176
     0
 40
1.0
176
     0
 90
        1
176
     0
 90
        6
176
     0
 90
        2
176
     0
 62
     7
176
     0
 90
        5
176
     0
 90
        0
176
     0
 90
        0
176
     0
290
     0
176
     0
 90
        1
176
     0
 40
0.0
176
     0
 90
        0
176
     0
290
     0
176
     0
290
     1
176
     0
290
     1
176
     0
290
     0
176
     0
290
     0
176
     0
290
     0
176
     0
290
     0
176
     0
290
     0
176
     0
290
     0
176
     0
 90
       50
176
     0
 40
0.0
176
     0
 40
1.0
176
     0
 90
        0
176
     0
 62
    18
420
        0
176
     0
 90
       50
176
     0
 90
        3
176
     0
 62
     5
420
      255
176
     0
290
     0
176
     0
 90
       50
176
     0
 90
       50
176
     0
 90
       50
176
     0
290
     0
176
     0
 90
       50
176
     0
 62
   256
176
     0
 40
1.0
176
     0
 90
        2
176
     0
  1
strokes_ogs.tif
176
     0
290
     0
176
     0
 40
1.0
176
     0
 40
1.0
176
     0
  0
VISUALSTYLE
  5
39
102
{ACAD_REACTORS
330
2A
102
}
330
2A
100
AcDbVisualStyle
  2
Facepattern
 70
    15
177
     3
291
     1
 70
    58
 90
        2
176
     1
 90
        2
176
     1
 90
        0
176
     1
 90
        0
176
     1
 40
0.6
176
     1
 40
30.0
176
     1
 62
     7
420
 16777215
176
     1
 90
        1
176
     1
 90
        4
176
     1
 62
     7
176
     1
 62
   257
176
     1
 90
        1
176
     1
 90
        1
176
     1
 40
1.0
176
     1
 90
        8
176
     1
 62
     7
176
     1
 40
1.0
176
     1
 90
        1
176
     1
 90
        6
176
     1
 90
        2
176
     1
 62
     7
176
     1
 90
        5
176
     1
 90
        0
176
     1
 90
        0
176
     1
290
     0
176
     1
 90
        1
176
     1
 40
0.0
176
     1
 90
        0
176
     1
290
     0
176
     1
290
     1
176
     1
290
     1
176
     1
290
     0
176
     1
290
     0
176
     1
290
     0
176
     1
290
     0
176
     1
290
     0
176
     1
290
     0
176
     1
 90
       50
176
     1
 40
0.0
176
     1
 40
1.0
176
     1
 90
        0
176
     1
 62
    18
420
        0
176
     1
 90
       50
176
     1
 90
        3
176
     1
 62
     5
420
      255
176
     1
290
     0
176
     1
 90
       50
176
     1
 90
       50
176
     1
 90
       50
176
     1
290
     0
176
     1
 90
       50
176
     1
 62
   256
176
     0
 40
1.0
176
     0
 90
        2
176
     1
  1
strokes_ogs.tif
176
     1
290
     0
176
     1
 40
1.0
176
     1
 40
1.0
176
     1
  0
VISUALSTYLE
  5
2B
102
{ACAD_REACTORS
330
2A
102
}
330
2A
100
AcDbVisualStyle
  2
Flat
 70
     0
177
     3
291
     1
 70
    58
 90
        2
176
     1
 90
        1
176
     1
 90
        1
176
     1
 90
        2
176
     1
 40
0.6
176
     1
 40
30.0
176
     1
 62
     7
420
 16777215
176
     1
 90
        0
176
     1
 90
        0
176
     1
 62
     7
176
     1
 62
   257
176
     1
 90
        1
176
     1
 90
        1
176
     1
 40
1.0
176
     1
 90
        8
176
     1
 62
     7
176
     1
 40
1.0
176
     1
 90
        1
176
     1
 90
        6
176
     1
 90
        2
176
     1
 62
     7
176
     1
 90
        5
176
     1
 90
        0
176
     1
 90
        0
176
     1
290
     0
176
     1
 90
       13
176
     1
 40
0.0
176
     1
 90
        0
176
     1
290
     0
176
     1
290
     1
176
     1
290
     1
176
     1
290
     0
176
     1
290
     0
176
     1
290
     0
176
     1
290
     0
176
     1
290
     0
176
     1
290
     0
176
     1
 90
       50
176
     1
 40
0.0
176
     1
 40
1.0
176
     1
 90
        0
176
     1
 62
    18
420
        0
176
     1
 90
       50
176
     1
 90
        3
176
     1
 62
     5
420
      255
176
     1
290
     0
176
     1
 90
       50
176
     1
 90
       50
176
     1
 90
       50
176
     1
290
     0
176
     1
 90
       50
176
     1
 62
   256
176
     0
 40
1.0
176
     0
 90
        2
176
     1
  1
strokes_ogs.tif
176
     1
290
     0
176
     1
 40
1.0
176
     1
 40
1.0
176
     1
  0
VISUALSTYLE
  5
2C
102
{ACAD_REACTORS
330
2A
102
}
330
2A
100
AcDbVisualStyle
  2
FlatWithEdges
 70
     1
177
     3
291
     1
 70
    58
 90
        2
176
     1
 90
        1
176
     1
 90
        1
176
     1
 90
        2
176
     1
 40
0.6
176
     1
 40
30.0
176
     1
 62
     7
420
 16777215
176
     1
 90
        1
176
     1
 90
        0
176
     1
 62
     7
176
     1
 62
   257
176
     1
 90
        1
176
     1
 90
        1
176
     1
 40
1.0
176
     1
 90
        0
176
     1
 62
   257
176
     1
 40
1.0
176
     1
 90
        1
176
     1
 90
        6
176
     1
 90
        2
176
     1
 62
     7
176
     1
 90
        5
176
     1
 90
        0
176
     1
 90
        0
176
     1
290
     0
176
     1
 90
       13
176
     1
 40
0.0
176
     1
 90
        0
176
     1
290
     0
176
     1
290
     1
176
     1
290
     1
176
     1
290
     0
176
     1
290
     0
176
     1
290
     0
176
     1
290
     0
176
     1
290
     0
176
     1
290
     0
176
     1
 90
       50
176
     1
 40
0.0
176
     1
 40
1.0
176
     1
 90
        0
176
     1
 62
    18
420
        0
176
     1
 90
       50
176
     1
 90
        3
176
     1
 62
     5
420
      255
176
     1
290
     0
176
     1
 90
       50
176
     1
 90
       50
176
     1
 90
       50
176
     1
290
     0
176
     1
 90
       50
176
     1
 62
   256
176
     0
 40
1.0
176
     0
 90
        2
176
     1
  1
strokes_ogs.tif
176
     1
290
     0
176
     1
 40
1.0
176
     1
 40
1.0
176
     1
  0
VISUALSTYLE
  5
2D
102
{ACAD_REACTORS
330
2A
102
}
330
2A
100
AcDbVisualStyle
  2
Gouraud
 70
     2
177
     3
291
     1
 70
    58
 90
        2
176
     1
 90
        2
176
     1
 90
        1
176
     1
 90
        2
176
     1
 40
0.6
176
     1
 40
30.0
176
     1
 62
     7
420
 16777215
176
     1
 90
        0
176
     1
 90
        0
176
     1
 62
     7
176
     1
 62
   257
176
     1
 90
        1
176
     1
 90
        1
176
     1
 40
1.0
176
     1
 90
        0
176
     1
 62
     7
176
     1
 40
1.0
176
     1
 90
        1
176
     1
 90
        6
176
     1
 90
        2
176
     1
 62
     7
176
     1
 90
        5
176
     1
 90
        0
176
     1
 90
        0
176
     1
290
     0
176
     1
 90
       13
176
     1
 40
0.0
176
     1
 90
        0
176
     1
290
     0
176
     1
290
     1
176
     1
290
     1
176
     1
290
     0
176
     1
290
     0
176
     1
290
     0
176
     1
290
     0
176
     1
290
     0
176
     1
290
     0
176
     1
 90
       50
176
     1
 40
0.0
176
     1
 40
1.0
176
     1
 90
        0
176
     1
 62
    18
420
        0
176
     1
 90
       50
176
     1
 90
        3
176
     1
 62
     5
420
      255
176
     1
290
     0
176
     1
 90
       50
176
     1
 90
       50
176
     1
 90
       50
176
     1
290
     0
176
     1
 90
       50
176
     1
 62
   256
176
     0
 40
1.0
176
     0
 90
        2
176
     1
  1
strokes_ogs.tif
176
     1
290
     0
176
     1
 40
1.0
176
     1
 40
1.0
176
     1
  0
VISUALSTYLE
  5
2E
102
{ACAD_REACTORS
330
2A
102
}
330
2A
100
AcDbVisualStyle
  2
GouraudWithEdges
 70
     3
177
     3
291
     1
 70
    58
 90
        2
176
     1
 90
        2
176
     1
 90
        1
176
     1
 90
        2
176
     1
 40
0.6
176
     1
 40
30.0
176
     1
 62
     7
420
 16777215
176
     1
 90
        1
176
     1
 90
        0
176
     1
 62
     7
176
     1
 62
   257
176
     1
 90
        1
176
     1
 90
        1
176
     1
 40
1.0
176
     1
 90
        0
176
     1
 62
   257
176
     1
 40
1.0
176
     1
 90
        1
176
     1
 90
        6
176
     1
 90
        2
176
     1
 62
     7
176
     1
 90
        5
176
     1
 90
        0
176
     1
 90
        0
176
     1
290
     0
176
     1
 90
       13
176
     1
 40
0.0
176
     1
 90
        0
176
     1
290
     0
176
     1
290
     1
176
     1
290
     1
176
     1
290
     0
176
     1
290
     0
176
     1
290
     0
176
     1
290
     0
176
     1
290
     0
176
     1
290
     0
176
     1
 90
       50
176
     1
 40
0.0
176
     1
 40
1.0
176
     1
 90
        0
176
     1
 62
    18
420
        0
176
     1
 90
       50
176
     1
 90
        3
176
     1
 62
     5
420
      255
176
     1
290
     0
176
     1
 90
       50
176
     1
 90
       50
176
     1
 90
       50
176
     1
290
     0
176
     1
 90
       50
176
     1
 62
   256
176
     0
 40
1.0
176
     0
 90
        2
176
     1
  1
strokes_ogs.tif
176
     1
290
     0
176
     1
 40
1.0
176
     1
 40
1.0
176
     1
  0
VISUALSTYLE
  5
31
102
{ACAD_REACTORS
330
2A
102
}
330
2A
100
AcDbVisualStyle
  2
Hidden
 70
     6
177
     3
291
     0
 70
    58
 90
        1
176
     1
 90
        2
176
     1
 90
        2
176
     1
 90
        0
176
     1
 40
0.6
176
     1
 40
30.0
176
     1
 62
     7
420
 16777215
176
     1
 90
        2
176
     1
 90
        2
176
     1
 62
     7
176
     1
 62
   257
176
     1
 90
        2
176
     1
 90
        1
176
     1
 40
40.0
176
     1
 90
        0
176
     1
 62
   257
176
     1
 40
1.0
176
     1
 90
        1
176
     1
 90
        6
176
     1
 90
        2
176
     1
 62
     7
176
     1
 90
        3
176
     1
 90
        0
176
     1
 90
        0
176
     1
290
     0
176
     1
 90
        1
176
     1
 40
0.0
176
     1
 90
        0
176
     1
290
     0
176
     1
290
     1
176
     1
290
     1
176
     1
290
     0
176
     1
290
     0
176
     1
290
     0
176
     1
290
     0
176
     1
290
     0
176
     1
290
     0
176
     1
 90
       50
176
     1
 40
0.0
176
     1
 40
1.0
176
     1
 90
        0
176
     1
 62
    18
420
        0
176
     1
 90
       50
176
     1
 90
        3
176
     1
 62
     5
420
      255
176
     1
290
     0
176
     1
 90
       50
176
     1
 90
       50
176
     1
 90
       50
176
     1
290
     0
176
     1
 90
       50
176
     1
 62
   256
176
     0
 40
1.0
176
     0
 90
        2
176
     1
  1
strokes_ogs.tif
176
     1
290
     0
176
     1
 40
1.0
176
     1
 40
1.0
176
     1
  0
VISUALSTYLE
  5
3B
102
{ACAD_REACTORS
330
2A
102
}
330
2A
100
AcDbVisualStyle
  2
JitterOff
 70
    20
177
     3
291
     1
 70
    58
 90
        2
176
     0
 90
        2
176
     0
 90
        0
176
     0
 90
        0
176
     0
 40
0.6
176
     0
 40
30.0
176
     0
 62
     7
420
 16777215
176
     0
 90
        1
176
     0
 90
        4
176
     0
 62
     7
176
     0
 62
   257
176
     0
 90
        1
176
     0
 90
        1
176
     0
 40
1.0
176
     0
 90
       10
176
     2
 62
     7
176
     0
 40
1.0
176
     0
 90
        1
176
     0
 90
        6
176
     0
 90
        2
176
     0
 62
     7
176
     0
 90
        5
176
     0
 90
        0
176
     0
 90
        0
176
     0
290
     0
176
     0
 90
        1
176
     0
 40
0.0
176
     0
 90
        0
176
     0
290
     0
176
     0
290
     1
176
     0
290
     1
176
     0
290
     0
176
     0
290
     0
176
     0
290
     0
176
     0
290
     0
176
     0
290
     0
176
     0
290
     0
176
     0
 90
       50
176
     0
 40
0.0
176
     0
 40
1.0
176
     0
 90
        0
176
     0
 62
    18
420
        0
176
     0
 90
       50
176
     0
 90
        3
176
     0
 62
     5
420
      255
176
     0
290
     0
176
     0
 90
       50
176
     0
 90
       50
176
     0
 90
       50
176
     0
290
     0
176
     0
 90
       50
176
     0
 62
   256
176
     0
 40
1.0
176
     0
 90
        2
176
     0
  1
strokes_ogs.tif
176
     0
290
     0
176
     0
 40
1.0
176
     0
 40
1.0
176
     0
  0
VISUALSTYLE
  5
38
102
{ACAD_REACTORS
330
2A
102
}
330
2A
100
AcDbVisualStyle
  2
Linepattern
 70
    14
177
     3
291
     1
 70
    58
 90
        2
176
     1
 90
        2
176
     1
 90
        0
176
     1
 90
        0
176
     1
 40
0.6
176
     1
 40
30.0
176
     1
 62
     7
420
 16777215
176
     1
 90
        1
176
     1
 90
        4
176
     1
 62
     7
176
     1
 62
   257
176
     1
 90
        7
176
     1
 90
        7
176
     1
 40
1.0
176
     1
 90
        8
176
     1
 62
     7
176
     1
 40
1.0
176
     1
 90
        1
176
     1
 90
        6
176
     1
 90
        2
176
     1
 62
     7
176
     1
 90
        5
176
     1
 90
        0
176
     1
 90
        0
176
     1
290
     0
176
     1
 90
        1
176
     1
 40
0.0
176
     1
 90
        0
176
     1
290
     0
176
     1
290
     1
176
     1
290
     1
176
     1
290
     0
176
     1
290
     0
176
     1
290
     0
176
     1
290
     0
176
     1
290
     0
176
     1
290
     0
176
     1
 90
       50
176
     1
 40
0.0
176
     1
 40
1.0
176
     1
 90
        0
176
     1
 62
    18
420
        0
176
     1
 90
       50
176
     1
 90
        3
176
     1
 62
     5
420
      255
176
     1
290
     0
176
     1
 90
       50
176
     1
 90
       50
176
     1
 90
       50
176
     1
290
     0
176
     1
 90
       50
176
     1
 62
   256
176
     0
 40
1.0
176
     0
 90
        2
176
     1
  1
strokes_ogs.tif
176
     1
290
     0
176
     1
 40
1.0
176
     1
 40
1.0
176
     1
  0
VISUALSTYLE
  5
3C
102
{ACAD_REACTORS
330
2A
102
}
330
2A
100
AcDbVisualStyle
  2
OverhangOff
 70
    21
177
     3
291
     1
 70
    58
 90
        2
176
     0
 90
        2
176
     0
 90
        0
176
     0
 90
        0
176
     0
 40
0.6
176
     0
 40
30.0
176
     0
 62
     7
420
 16777215
176
     0
 90
        1
176
     0
 90
        4
176
     0
 62
     7
176
     0
 62
   257
176
     0
 90
        1
176
     0
 90
        1
176
     0
 40
1.0
176
     0
 90
        9
176
     2
 62
     7
176
     0
 40
1.0
176
     0
 90
        1
176
     0
 90
        6
176
     0
 90
        2
176
     0
 62
     7
176
     0
 90
        5
176
     0
 90
        0
176
     0
 90
        0
176
     0
290
     0
176
     0
 90
        1
176
     0
 40
0.0
176
     0
 90
        0
176
     0
290
     0
176
     0
290
     1
176
     0
290
     1
176
     0
290
     0
176
     0
290
     0
176
     0
290
     0
176
     0
290
     0
176
     0
290
     0
176
     0
290
     0
176
     0
 90
       50
176
     0
 40
0.0
176
     0
 40
1.0
176
     0
 90
        0
176
     0
 62
    18
420
        0
176
     0
 90
       50
176
     0
 90
        3
176
     0
 62
     5
420
      255
176
     0
290
     0
176
     0
 90
       50
176
     0
 90
       50
176
     0
 90
       50
176
     0
290
     0
176
     0
 90
       50
176
     0
 62
   256
176
     0
 40
1.0
176
     0
 90
        2
176
     0
  1
strokes_ogs.tif
176
     0
290
     0
176
     0
 40
1.0
176
     0
 40
1.0
176
     0
  0
VISUALSTYLE
  5
33
102
{ACAD_REACTORS
330
2A
102
}
330
2A
100
AcDbVisualStyle
  2
Realistic
 70
     8
177
     3
291
     0
 70
    58
 90
        2
176
     1
 90
        3
176
     1
 90
        0
176
     1
 90
        2
176
     1
 40
0.6
176
     1
 40
30.0
176
     1
 62
     7
420
 16777215
176
     1
 90
        0
176
     1
 90
        0
176
     1
 62
     7
176
     1
 62
   257
176
     1
 90
        1
176
     1
 90
        1
176
     1
 40
1.0
176
     1
 90
        8
176
     1
 62
   257
176
     1
 40
1.0
176
     1
 90
        1
176
     1
 90
        6
176
     1
 90
        2
176
     1
 62
     7
176
     1
 90
        3
176
     1
 90
        0
176
     1
 90
        0
176
     1
290
     0
176
     1
 90
       13
176
     1
 40
0.0
176
     1
 90
        0
176
     1
290
     0
176
     1
290
     1
176
     1
290
     1
176
     1
290
     0
176
     1
290
     0
176
     1
290
     0
176
     1
290
     0
176
     1
290
     0
176
     1
290
     0
176
     1
 90
       50
176
     1
 40
0.0
176
     1
 40
1.0
176
     1
 90
        0
176
     1
 62
    18
420
        0
176
     1
 90
       50
176
     1
 90
        3
176
     1
 62
     5
420
      255
176
     1
290
     0
176
     1
 90
       50
176
     1
 90
       50
176
     1
 90
       50
176
     1
290
     0
176
     1
 90
       50
176
     1
 62
   256
176
     0
 40
1.0
176
     0
 90
        2
176
     1
  1
strokes_ogs.tif
176
     1
290
     0
176
     1
 40
1.0
176
     1
 40
1.0
176
     1
  0
VISUALSTYLE
  5
42
102
{ACAD_REACTORS
330
2A
102
}
330
2A
100
AcDbVisualStyle
  2
Shaded
 70
    27
177
     3
291
     0
 70
    58
 90
        2
176
     1
 90
        2
176
     1
 90
        1
176
     1
 90
        2
176
     1
 40
0.6
176
     1
 40
30.0
176
     1
 62
     7
420
 16777215
176
     1
 90
        0
176
     1
 90
        4
176
     1
 62
     7
176
     1
 62
   257
176
     1
 90
        1
176
     1
 90
        1
176
     1
 40
1.0
176
     1
 90
        8
176
     1
 62
   257
176
     1
 40
1.0
176
     1
 90
        1
176
     1
 90
        6
176
     1
 90
        2
176
     1
 62
     8
420
  7895160
176
     1
 90
        3
176
     1
 90
        0
176
     1
 90
        0
176
     1
290
     0
176
     1
 90
        5
176
     1
 40
0.0
176
     1
 90
        0
176
     1
290
     0
176
     1
290
     1
176
     1
290
     1
176
     1
290
     0
176
     1
290
     0
176
     1
290
     0
176
     1
290
     0
176
     1
290
     0
176
     1
290
     0
176
     1
 90
       50
176
     1
 40
0.0
176
     1
 40
1.0
176
     1
 90
        0
176
     1
 62
    18
420
        0
176
     1
 90
       50
176
     1
 90
        3
176
     1
 62
     5
420
      255
176
     1
290
     0
176
     1
 90
       50
176
     1
 90
       50
176
     1
 90
       50
176
     1
290
     0
176
     1
 90
       50
176
     1
 62
   256
176
     0
 40
1.0
176
     0
 90
        2
176
     1
  1
strokes_ogs.tif
176
     1
290
     0
176
     1
 40
1.0
176
     1
 40
1.0
176
     1
  0
VISUALSTYLE
  5
41
102
{ACAD_REACTORS
330
2A
102
}
330
2A
100
AcDbVisualStyle
  2
Shaded with edges
 70
    26
177
     3
291
     0
 70
    58
 90
        2
176
     1
 90
        2
176
     1
 90
        1
176
     1
 90
        2
176
     1
 40
0.6
176
     1
 40
30.0
176
     1
 62
     7
420
 16777215
176
     1
 90
        1
176
     1
 90
       10
176
     1
 62
     7
176
     1
 62
   257
176
     1
 90
        2
176
     1
 90
        1
176
     1
 40
1.0
176
     1
 90
        8
176
     1
 62
   257
176
     1
 40
1.0
176
     1
 90
        1
176
     1
 90
        6
176
     1
 90
        2
176
     1
 62
     7
176
     1
 90
        3
176
     1
 90
        0
176
     1
 90
        0
176
     1
290
     0
176
     1
 90
        5
176
     1
 40
0.0
176
     1
 90
        0
176
     1
290
     0
176
     1
290
     1
176
     1
290
     1
176
     1
290
     0
176
     1
290
     0
176
     1
290
     0
176
     1
290
     0
176
     1
290
     0
176
     1
290
     0
176
     1
 90
       50
176
     1
 40
0.0
176
     1
 40
1.0
176
     1
 90
        0
176
     1
 62
    18
420
        0
176
     1
 90
       50
176
     1
 90
        3
176
     1
 62
     5
420
      255
176
     1
290
     0
176
     1
 90
       50
176
     1
 90
       50
176
     1
 90
       50
176
     1
290
     0
176
     1
 90
       50
176
     1
 62
   256
176
     0
 40
1.0
176
     0
 90
        2
176
     1
  1
strokes_ogs.tif
176
     1
290
     0
176
     1
 40
1.0
176
     1
 40
1.0
176
     1
  0
VISUALSTYLE
  5
3E
102
{ACAD_REACTORS
330
2A
102
}
330
2A
100
AcDbVisualStyle
  2
Shades of Gray
 70
    23
177
     3
291
     0
 70
    58
 90
        2
176
     1
 90
        2
176
     1
 90
        3
176
     1
 90
        0
176
     1
 40
0.6
176
     1
 40
30.0
176
     1
 62
     7
420
 16777215
176
     1
 90
        2
176
     1
 90
        2
176
     1
 62
     7
176
     1
 62
     7
176
     1
 90
        1
176
     1
 90
        1
176
     1
 40
40.0
176
     1
 90
        8
176
     1
 62
     7
176
     1
 40
1.0
176
     1
 90
        1
176
     1
 90
        6
176
     1
 90
        2
176
     1
 62
     7
176
     1
 90
        3
176
     1
 90
        0
176
     1
 90
        0
176
     1
290
     0
176
     1
 90
        1
176
     1
 40
0.0
176
     1
 90
        0
176
     1
290
     0
176
     1
290
     1
176
     1
290
     1
176
     1
290
     0
176
     1
290
     0
176
     1
290
     0
176
     1
290
     0
176
     1
290
     0
176
     1
290
     0
176
     1
 90
       50
176
     1
 40
0.0
176
     1
 40
1.0
176
     1
 90
        0
176
     1
 62
    18
420
        0
176
     1
 90
       50
176
     1
 90
        3
176
     1
 62
     5
420
      255
176
     1
290
     0
176
     1
 90
       50
176
     1
 90
       50
176
     1
 90
       50
176
     1
290
     0
176
     1
 90
       50
176
     1
 62
   256
176
     0
 40
1.0
176
     0
 90
        2
176
     1
  1
strokes_ogs.tif
176
     1
290
     0
176
     1
 40
1.0
176
     1
 40
1.0
176
     1
  0
VISUALSTYLE
  5
3F
102
{ACAD_REACTORS
330
2A
102
}
330
2A
100
AcDbVisualStyle
  2
Sketchy
 70
    24
177
     3
291
     0
 70
    58
 90
        1
176
     1
 90
        2
176
     1
 90
        2
176
     1
 90
        0
176
     1
 40
0.6
176
     1
 40
30.0
176
     1
 62
     7
420
 16777215
176
     1
 90
        2
176
     1
 90
        2
176
     1
 62
     7
176
     1
 62
     7
176
     1
 90
        1
176
     1
 90
        1
176
     1
 40
40.0
176
     1
 90
       11
176
     1
 62
     7
176
     1
 40
1.0
176
     1
 90
        1
176
     1
 90
        6
176
     1
 90
        2
176
     1
 62
     7
176
     1
 90
        6
176
     1
 90
        0
176
     1
 90
        0
176
     1
290
     0
176
     1
 90
        1
176
     1
 40
0.0
176
     1
 90
        0
176
     1
290
     0
176
     1
290
     1
176
     1
290
     1
176
     1
290
     0
176
     1
290
     0
176
     1
290
     0
176
     1
290
     0
176
     1
290
     0
176
     1
290
     0
176
     1
 90
       50
176
     1
 40
0.0
176
     1
 40
1.0
176
     1
 90
        0
176
     1
 62
    18
420
        0
176
     1
 90
       50
176
     1
 90
        3
176
     1
 62
     5
420
      255
176
     1
290
     0
176
     1
 90
       50
176
     1
 90
       50
176
     1
 90
       50
176
     1
290
     0
176
     1
 90
       50
176
     1
 62
   256
176
     0
 40
1.0
176
     0
 90
        2
176
     1
  1
strokes_ogs.tif
176
     1
290
     0
176
     1
 40
1.0
176
     1
 40
1.0
176
     1
  0
VISUALSTYLE
  5
37
102
{ACAD_REACTORS
330
2A
102
}
330
2A
100
AcDbVisualStyle
  2
Thicken
 70
    13
177
     3
291
     1
 70
    58
 90
        2
176
     1
 90
        2
176
     1
 90
        0
176
     1
 90
        0
176
     1
 40
0.6
176
     1
 40
30.0
176
     1
 62
     7
420
 16777215
176
     1
 90
        1
176
     1
 90
        4
176
     1
 62
     7
176
     1
 62
   257
176
     1
 90
        1
176
     1
 90
        1
176
     1
 40
1.0
176
     1
 90
       12
176
     1
 62
     7
176
     1
 40
1.0
176
     1
 90
        1
176
     1
 90
        6
176
     1
 90
        2
176
     1
 62
     7
176
     1
 90
        5
176
     1
 90
        0
176
     1
 90
        0
176
     1
290
     0
176
     1
 90
        1
176
     1
 40
0.0
176
     1
 90
        0
176
     1
290
     0
176
     1
290
     1
176
     1
290
     1
176
     1
290
     0
176
     1
290
     0
176
     1
290
     0
176
     1
290
     0
176
     1
290
     0
176
     1
290
     0
176
     1
 90
       50
176
     1
 40
0.0
176
     1
 40
1.0
176
     1
 90
        0
176
     1
 62
    18
420
        0
176
     1
 90
       50
176
     1
 90
        3
176
     1
 62
     5
420
      255
176
     1
290
     0
176
     1
 90
       50
176
     1
 90
       50
176
     1
 90
       50
176
     1
290
     0
176
     1
 90
       50
176
     1
 62
   256
176
     0
 40
1.0
176
     0
 90
        2
176
     1
  1
strokes_ogs.tif
176
     1
290
     0
176
     1
 40
1.0
176
     1
 40
1.0
176
     1
  0
VISUALSTYLE
  5
30
102
{ACAD_REACTORS
330
2A
102
}
330
2A
100
AcDbVisualStyle
  2
Wireframe
 70
     5
177
     3
291
     0
 70
    58
 90
        0
176
     1
 90
        2
176
     1
 90
        0
176
     1
 90
        0
176
     1
 40
0.6
176
     1
 40
30.0
176
     1
 62
     7
420
 16777215
176
     1
 90
        1
176
     1
 90
        4
176
     1
 62
     7
176
     1
 62
   257
176
     1
 90
        1
176
     1
 90
        1
176
     1
 40
1.0
176
     1
 90
        0
176
     1
 62
   257
176
     1
 40
1.0
176
     1
 90
        1
176
     1
 90
        6
176
     1
 90
        2
176
     1
 62
     7
176
     1
 90
        3
176
     1
 90
        0
176
     1
 90
        0
176
     1
290
     0
176
     1
 90
        1
176
     1
 40
0.0
176
     1
 90
        0
176
     1
290
     0
176
     1
290
     1
176
     1
290
     1
176
     1
290
     0
176
     1
290
     0
176
     1
290
     0
176
     1
290
     0
176
     1
290
     0
176
     1
290
     0
176
     1
 90
       50
176
     1
 40
0.0
176
     1
 40
1.0
176
     1
 90
        0
176
     1
 62
    18
420
        0
176
     1
 90
       50
176
     1
 90
        3
176
     1
 62
     5
420
      255
176
     1
290
     0
176
     1
 90
       50
176
     1
 90
       50
176
     1
 90
       50
176
     1
290
     0
176
     1
 90
       50
176
     1
 62
   256
176
     0
 40
1.0
176
     0
 90
        2
176
     1
  1
strokes_ogs.tif
176
     1
290
     0
176
     1
 40
1.0
176
     1
 40
1.0
176
     1
  0
VISUALSTYLE
  5
40
102
{ACAD_REACTORS
330
2A
102
}
330
2A
100
AcDbVisualStyle
  2
X-Ray
 70
    25
177
     3
291
     0
 70
    58
 90
        2
176
     1
 90
        2
176
     1
 90
        1
176
     1
 90
        1
176
     1
 40
0.5
176
     1
 40
30.0
176
     1
 62
     7
420
 16777215
176
     1
 90
        1
176
     1
 90
        0
176
     1
 62
     7
176
     1
 62
   257
176
     1
 90
        1
176
     1
 90
        1
176
     1
 40
1.0
176
     1
 90
        8
176
     1
 62
     7
176
     1
 40
1.0
176
     1
 90
        1
176
     1
 90
        6
176
     1
 90
        2
176
     1
 62
     7
176
     1
 90
        3
176
     1
 90
        0
176
     1
 90
        0
176
     1
290
     0
176
     1
 90
       13
176
     1
 40
0.0
176
     1
 90
        0
176
     1
290
     0
176
     1
290
     1
176
     1
290
     1
176
     1
290
     0
176
     1
290
     0
176
     1
290
     0
176
     1
290
     0
176
     1
290
     0
176
     1
290
     0
176
     1
 90
       50
176
     1
 40
0.0
176
     1
 40
1.0
176
     1
 90
        0
176
     1
 62
    18
420
        0
176
     1
 90
       50
176
     1
 90
        3
176
     1
 62
     5
420
      255
176
     1
290
     0
176
     1
 90
       50
176
     1
 90
       50
176
     1
 90
       50
176
     1
290
     0
176
     1
 90
       50
176
     1
 62
   256
176
     0
 40
1.0
176
     0
 90
        2
176
     1
  1
strokes_ogs.tif
176
     1
290
     0
176
     1
 40
1.0
176
     1
 40
1.0
176
     1
  0
DICTIONARYVAR
  5
524
102
{ACAD_REACTORS
330
523
102
}
330
523
100
DictionaryVariables
280
     0
  1
1:1
  0
DICTIONARYVAR
  5
52C
102
{ACAD_REACTORS
330
523
102
}
330
523
100
DictionaryVariables
280
     0
  1
3.500000
  0
DICTIONARYVAR
  5
52D
102
{ACAD_REACTORS
330
523
102
}
330
523
100
DictionaryVariables
280
     0
  1
acadiso.lin
  0
DICTIONARYVAR
  5
529
102
{ACAD_REACTORS
330
523
102
}
330
523
100
DictionaryVariables
280
     0
  1
Standard
  0
DICTIONARYVAR
  5
528
102
{ACAD_REACTORS
330
523
102
}
330
523
100
DictionaryVariables
280
     0
  1
Standard
  0
DICTIONARY
  5
525
330
6A
100
AcDbDictionary
280
     1
281
     1
  3
ACAD_ROUNDTRIP_2008_TABLESTYLE_CELLSTYLEMAP
360
526
  0
CELLSTYLEMAP
  5
526
102
{ACAD_REACTORS
330
525
102
}
330
525
100
AcDbCellStyleMap
 90
        3
300
CELLSTYLE
  1
TABLEFORMAT_BEGIN
 90
        5
170
     1
 91
        0
 92
    32768
 62
   257
 93
        1
300
CONTENTFORMAT
  1
CONTENTFORMAT_BEGIN
 90
        0
 91
        0
 92
        4
 93
        0
300

 40
0.0
140
1.0
 94
        5
 62
     0
340
11
144
6.0
309
CONTENTFORMAT_END
171
     1
301
MARGIN
  1
CELLMARGIN_BEGIN
 40
1.5
 40
1.5
 40
1.5
 40
1.5
 40
1.5
 40
1.5
309
CELLMARGIN_END
 94
        6
 95
        1
302
GRIDFORMAT
  1
GRIDFORMAT_BEGIN
 90
        0
 91
        1
 62
     0
 92
       -2
340
14
 93
        0
 40
0.045
309
GRIDFORMAT_END
 95
        2
302
GRIDFORMAT
  1
GRIDFORMAT_BEGIN
 90
        0
 91
        1
 62
     0
 92
       -2
340
14
 93
        0
 40
0.045
309
GRIDFORMAT_END
 95
        4
302
GRIDFORMAT
  1
GRIDFORMAT_BEGIN
 90
        0
 91
        1
 62
     0
 92
       -2
340
14
 93
        0
 40
0.045
309
GRIDFORMAT_END
 95
        8
302
GRIDFORMAT
  1
GRIDFORMAT_BEGIN
 90
        0
 91
        1
 62
     0
 92
       -2
340
14
 93
        0
 40
0.045
309
GRIDFORMAT_END
 95
       16
302
GRIDFORMAT
  1
GRIDFORMAT_BEGIN
 90
        0
 91
        1
 62
     0
 92
       -2
340
14
 93
        0
 40
0.045
309
GRIDFORMAT_END
 95
       32
302
GRIDFORMAT
  1
GRIDFORMAT_BEGIN
 90
        0
 91
        1
 62
     0
 92
       -2
340
14
 93
        0
 40
0.045
309
GRIDFORMAT_END
309
TABLEFORMAT_END
  1
CELLSTYLE_BEGIN
 90
        1
 91
        1
300
_TITLE
309
CELLSTYLE_END
300
CELLSTYLE
  1
TABLEFORMAT_BEGIN
 90
        5
170
     1
 91
        0
 92
        0
 62
   257
 93
        1
300
CONTENTFORMAT
  1
CONTENTFORMAT_BEGIN
 90
        0
 91
        0
 92
        4
 93
        0
300

 40
0.0
140
1.0
 94
        5
 62
     0
340
11
144
4.5
309
CONTENTFORMAT_END
171
     1
301
MARGIN
  1
CELLMARGIN_BEGIN
 40
1.5
 40
1.5
 40
1.5
 40
1.5
 40
1.5
 40
1.5
309
CELLMARGIN_END
 94
        6
 95
        1
302
GRIDFORMAT
  1
GRIDFORMAT_BEGIN
 90
        0
 91
        1
 62
     0
 92
       -2
340
14
 93
        0
 40
0.045
309
GRIDFORMAT_END
 95
        2
302
GRIDFORMAT
  1
GRIDFORMAT_BEGIN
 90
        0
 91
        1
 62
     0
 92
       -2
340
14
 93
        0
 40
0.045
309
GRIDFORMAT_END
 95
        4
302
GRIDFORMAT
  1
GRIDFORMAT_BEGIN
 90
        0
 91
        1
 62
     0
 92
       -2
340
14
 93
        0
 40
0.045
309
GRIDFORMAT_END
 95
        8
302
GRIDFORMAT
  1
GRIDFORMAT_BEGIN
 90
        0
 91
        1
 62
     0
 92
       -2
340
14
 93
        0
 40
0.045
309
GRIDFORMAT_END
 95
       16
302
GRIDFORMAT
  1
GRIDFORMAT_BEGIN
 90
        0
 91
        1
 62
     0
 92
       -2
340
14
 93
        0
 40
0.045
309
GRIDFORMAT_END
 95
       32
302
GRIDFORMAT
  1
GRIDFORMAT_BEGIN
 90
        0
 91
        1
 62
     0
 92
       -2
340
14
 93
        0
 40
0.045
309
GRIDFORMAT_END
309
TABLEFORMAT_END
  1
CELLSTYLE_BEGIN
 90
        2
 91
        1
300
_HEADER
309
CELLSTYLE_END
300
CELLSTYLE
  1
TABLEFORMAT_BEGIN
 90
        5
170
     1
 91
        0
 92
        0
 62
   257
 93
        1
300
CONTENTFORMAT
  1
CONTENTFORMAT_BEGIN
 90
        0
 91
        0
 92
        4
 93
        0
300

 40
0.0
140
1.0
 94
        2
 62
     0
340
11
144
4.5
309
CONTENTFORMAT_END
171
     1
301
MARGIN
  1
CELLMARGIN_BEGIN
 40
1.5
 40
1.5
 40
1.5
 40
1.5
 40
1.5
 40
1.5
309
CELLMARGIN_END
 94
        6
 95
        1
302
GRIDFORMAT
  1
GRIDFORMAT_BEGIN
 90
        0
 91
        1
 62
     0
 92
       -2
340
14
 93
        0
 40
0.045
309
GRIDFORMAT_END
 95
        2
302
GRIDFORMAT
  1
GRIDFORMAT_BEGIN
 90
        0
 91
        1
 62
     0
 92
       -2
340
14
 93
        0
 40
0.045
309
GRIDFORMAT_END
 95
        4
302
GRIDFORMAT
  1
GRIDFORMAT_BEGIN
 90
        0
 91
        1
 62
     0
 92
       -2
340
14
 93
        0
 40
0.045
309
GRIDFORMAT_END
 95
        8
302
GRIDFORMAT
  1
GRIDFORMAT_BEGIN
 90
        0
 91
        1
 62
     0
 92
       -2
340
14
 93
        0
 40
0.045
309
GRIDFORMAT_END
 95
       16
302
GRIDFORMAT
  1
GRIDFORMAT_BEGIN
 90
        0
 91
        1
 62
     0
 92
       -2
340
14
 93
        0
 40
0.045
309
GRIDFORMAT_END
 95
       32
302
GRIDFORMAT
  1
GRIDFORMAT_BEGIN
 90
        0
 91
        1
 62
     0
 92
       -2
340
14
 93
        0
 40
0.045
309
GRIDFORMAT_END
309
TABLEFORMAT_END
  1
CELLSTYLE_BEGIN
 90
        3
 91
        2
300
_DATA
309
CELLSTYLE_END
  0
ENDSEC
  0
EOF
