  0
SECTION
  2
HEADER
  9
$ACADVER
  1
AC1027
  9
$ACADMAINTVER
 70
   105
  9
$DWGCODEPAGE
  3
ANSI_932
  9
$REQUIREDVERSIONS
160
                 0
  9
$INSBASE
 10
0.0
 20
0.0
 30
0.0
  9
$EXTMIN
 10
-1050.0
 20
-742.5
 30
0.0
  9
$EXTMAX
 10
1050.0
 20
742.5
 30
0.0
  9
$LIMMIN
 10
-1050.0
 20
-742.5
  9
$LIMMAX
 10
1050.0
 20
742.5
  9
$ORTHOMODE
 70
     0
  9
$REGENMODE
 70
     1
  9
$FILLMODE
 70
     1
  9
$QTEXTMODE
 70
     0
  9
$MIRRTEXT
 70
     1
  9
$LTSCALE
 40
5.0
  9
$ATTMODE
 70
     1
  9
$TEXTSIZE
 40
2.5
  9
$TRACEWID
 40
1.0
  9
$TEXTSTYLE
  7
Standard
  9
$CLAYER
  8
0
  9
$CELTYPE
  6
ByLayer
  9
$CECOLOR
 62
   256
  9
$CELTSCALE
 40
1.0
  9
$DISPSILH
 70
     0
  9
$DIMSCALE
 40
1.0
  9
$DIMASZ
 40
2.5
  9
$DIMEXO
 40
0.625
  9
$DIMDLI
 40
3.75
  9
$DIMRND
 40
0.0
  9
$DIMDLE
 40
0.0
  9
$DIMEXE
 40
1.25
  9
$DIMTP
 40
0.0
  9
$DIMTM
 40
0.0
  9
$DIMTXT
 40
2.5
  9
$DIMCEN
 40
2.5
  9
$DIMTSZ
 40
0.0
  9
$DIMTOL
 70
     0
  9
$DIMLIM
 70
     0
  9
$DIMTIH
 70
     0
  9
$DIMTOH
 70
     0
  9
$DIMSE1
 70
     0
  9
$DIMSE2
 70
     0
  9
$DIMTAD
 70
     1
  9
$DIMZIN
 70
     8
  9
$DIMBLK
  1

  9
$DIMASO
 70
     1
  9
$DIMSHO
 70
     1
  9
$DIMPOST
  1

  9
$DIMAPOST
  1

  9
$DIMALT
 70
     0
  9
$DIMALTD
 70
     3
  9
$DIMALTF
 40
0.03937007874016
  9
$DIMLFAC
 40
1.0
  9
$DIMTOFL
 70
     1
  9
$DIMTVP
 40
0.0
  9
$DIMTIX
 70
     0
  9
$DIMSOXD
 70
     0
  9
$DIMSAH
 70
     0
  9
$DIMBLK1
  1

  9
$DIMBLK2
  1

  9
$DIMSTYLE
  2
ISO-25
  9
$DIMCLRD
 70
     0
  9
$DIMCLRE
 70
     0
  9
$DIMCLRT
 70
     0
  9
$DIMTFAC
 40
1.0
  9
$DIMGAP
 40
0.625
  9
$DIMJUST
 70
     0
  9
$DIMSD1
 70
     0
  9
$DIMSD2
 70
     0
  9
$DIMTOLJ
 70
     0
  9
$DIMTZIN
 70
     8
  9
$DIMALTZ
 70
     0
  9
$DIMALTTZ
 70
     0
  9
$DIMUPT
 70
     0
  9
$DIMDEC
 70
     2
  9
$DIMTDEC
 70
     2
  9
$DIMALTU
 70
     2
  9
$DIMALTTD
 70
     3
  9
$DIMTXSTY
  7
Standard
  9
$DIMAUNIT
 70
     0
  9
$DIMADEC
 70
     0
  9
$DIMALTRND
 40
0.0
  9
$DIMAZIN
 70
     0
  9
$DIMDSEP
 70
    44
  9
$DIMATFIT
 70
     3
  9
$DIMFRAC
 70
     0
  9
$DIMLDRBLK
  1

  9
$DIMLUNIT
 70
     2
  9
$DIMLWD
 70
    -2
  9
$DIMLWE
 70
    -2
  9
$DIMTMOVE
 70
     0
  9
$DIMFXL
 40
1.0
  9
$DIMFXLON
 70
     0
  9
$DIMJOGANG
 40
0.7853981633974483
  9
$DIMTFILL
 70
     0
  9
$DIMTFILLCLR
 70
     0
  9
$DIMARCSYM
 70
     0
  9
$DIMLTYPE
  6

  9
$DIMLTEX1
  6

  9
$DIMLTEX2
  6

  9
$DIMTXTDIRECTION
 70
     0
  9
$LUNITS
 70
     2
  9
$LUPREC
 70
     4
  9
$SKETCHINC
 40
1.0
  9
$FILLETRAD
 40
10.0
  9
$AUNITS
 70
     0
  9
$AUPREC
 70
     0
  9
$MENU
  1
.
  9
$ELEVATION
 40
0.0
  9
$PELEVATION
 40
0.0
  9
$THICKNESS
 40
0.0
  9
$LIMCHECK
 70
     0
  9
$CHAMFERA
 40
0.0
  9
$CHAMFERB
 40
0.0
  9
$CHAMFERC
 40
0.0
  9
$CHAMFERD
 40
0.0
  9
$SKPOLY
 70
     0
  9
$TDCREATE
 40
2458933.606730498
  9
$TDUCREATE
 40
2458933.231730498
  9
$TDUPDATE
 40
2458933.606730659
  9
$TDUUPDATE
 40
2458933.231730659
  9
$TDINDWG
 40
0.0000000116
  9
$TDUSRTIMER
 40
0.0000000116
  9
$USRTIMER
 70
     1
  9
$ANGBASE
 50
0.0
  9
$ANGDIR
 70
     0
  9
$PDMODE
 70
     0
  9
$PDSIZE
 40
0.0
  9
$PLINEWID
 40
0.0
  9
$SPLFRAME
 70
     0
  9
$SPLINETYPE
 70
     6
  9
$SPLINESEGS
 70
     8
  9
$HANDSEED
  5
3FA
  9
$SURFTAB1
 70
     6
  9
$SURFTAB2
 70
     6
  9
$SURFTYPE
 70
     6
  9
$SURFU
 70
     6
  9
$SURFV
 70
     6
  9
$UCSBASE
  2

  9
$UCSNAME
  2

  9
$UCSORG
 10
0.0
 20
0.0
 30
0.0
  9
$UCSXDIR
 10
1.0
 20
0.0
 30
0.0
  9
$UCSYDIR
 10
0.0
 20
1.0
 30
0.0
  9
$UCSORTHOREF
  2

  9
$UCSORTHOVIEW
 70
     0
  9
$UCSORGTOP
 10
0.0
 20
0.0
 30
0.0
  9
$UCSORGBOTTOM
 10
0.0
 20
0.0
 30
0.0
  9
$UCSORGLEFT
 10
0.0
 20
0.0
 30
0.0
  9
$UCSORGRIGHT
 10
0.0
 20
0.0
 30
0.0
  9
$UCSORGFRONT
 10
0.0
 20
0.0
 30
0.0
  9
$UCSORGBACK
 10
0.0
 20
0.0
 30
0.0
  9
$PUCSBASE
  2

  9
$PUCSNAME
  2

  9
$PUCSORG
 10
0.0
 20
0.0
 30
0.0
  9
$PUCSXDIR
 10
1.0
 20
0.0
 30
0.0
  9
$PUCSYDIR
 10
0.0
 20
1.0
 30
0.0
  9
$PUCSORTHOREF
  2

  9
$PUCSORTHOVIEW
 70
     0
  9
$PUCSORGTOP
 10
0.0
 20
0.0
 30
0.0
  9
$PUCSORGBOTTOM
 10
0.0
 20
0.0
 30
0.0
  9
$PUCSORGLEFT
 10
0.0
 20
0.0
 30
0.0
  9
$PUCSORGRIGHT
 10
0.0
 20
0.0
 30
0.0
  9
$PUCSORGFRONT
 10
0.0
 20
0.0
 30
0.0
  9
$PUCSORGBACK
 10
0.0
 20
0.0
 30
0.0
  9
$USERI1
 70
     0
  9
$USERI2
 70
     0
  9
$USERI3
 70
     0
  9
$USERI4
 70
     0
  9
$USERI5
 70
     0
  9
$USERR1
 40
0.0
  9
$USERR2
 40
0.0
  9
$USERR3
 40
0.0
  9
$USERR4
 40
0.0
  9
$USERR5
 40
0.0
  9
$WORLDVIEW
 70
     1
  9
$SHADEDGE
 70
     3
  9
$SHADEDIF
 70
    70
  9
$TILEMODE
 70
     1
  9
$MAXACTVP
 70
    64
  9
$PINSBASE
 10
0.0
 20
0.0
 30
0.0
  9
$PLIMCHECK
 70
     0
  9
$PEXTMIN
 10
1.000000000000000E+20
 20
1.000000000000000E+20
 30
1.000000000000000E+20
  9
$PEXTMAX
 10
-1.000000000000000E+20
 20
-1.000000000000000E+20
 30
-1.000000000000000E+20
  9
$PLIMMIN
 10
0.0
 20
0.0
  9
$PLIMMAX
 10
420.0
 20
297.0
  9
$UNITMODE
 70
     0
  9
$VISRETAIN
 70
     1
  9
$PLINEGEN
 70
     0
  9
$PSLTSCALE
 70
     1
  9
$TREEDEPTH
 70
  3020
  9
$CMLSTYLE
  2
Standard
  9
$CMLJUST
 70
     0
  9
$CMLSCALE
 40
20.0
  9
$PROXYGRAPHICS
 70
     1
  9
$MEASUREMENT
 70
     1
  9
$CELWEIGHT
370
    -1
  9
$ENDCAPS
280
     0
  9
$JOINSTYLE
280
     0
  9
$LWDISPLAY
290
     0
  9
$INSUNITS
 70
     4
  9
$HYPERLINKBASE
  1

  9
$STYLESHEET
  1

  9
$XEDIT
290
     1
  9
$CEPSNTYPE
380
     0
  9
$PSTYLEMODE
290
     1
  9
$FINGERPRINTGUID
  2
{DE182E9E-CE15-4544-8F7E-D916451D6CFF}
  9
$VERSIONGUID
  2
{FAEB1C32-E019-11D5-929B-00C0DF256EC4}
  9
$EXTNAMES
290
     1
  9
$PSVPSCALE
 40
0.0
  9
$OLESTARTUP
290
     0
  9
$SORTENTS
280
   127
  9
$INDEXCTL
280
     0
  9
$HIDETEXT
280
     1
  9
$XCLIPFRAME
280
     2
  9
$HALOGAP
280
     0
  9
$OBSCOLOR
 70
   257
  9
$OBSLTYPE
280
     0
  9
$INTERSECTIONDISPLAY
280
     0
  9
$INTERSECTIONCOLOR
 70
   257
  9
$DIMASSOC
280
     2
  9
$PROJECTNAME
  1

  9
$CAMERADISPLAY
290
     0
  9
$LENSLENGTH
 40
50.0
  9
$CAMERAHEIGHT
 40
0.0
  9
$STEPSPERSEC
 40
2.0
  9
$STEPSIZE
 40
6.0
  9
$3DDWFPREC
 40
2.0
  9
$PSOLWIDTH
 40
5.0
  9
$PSOLHEIGHT
 40
80.0
  9
$LOFTANG1
 40
1.570796326794897
  9
$LOFTANG2
 40
1.570796326794897
  9
$LOFTMAG1
 40
0.0
  9
$LOFTMAG2
 40
0.0
  9
$LOFTPARAM
 70
     7
  9
$LOFTNORMALS
280
     1
  9
$LATITUDE
 40
37.795
  9
$LONGITUDE
 40
-122.394
  9
$NORTHDIRECTION
 40
0.0
  9
$TIMEZONE
 70
 -8000
  9
$LIGHTGLYPHDISPLAY
280
     1
  9
$TILEMODELIGHTSYNCH
280
     1
  9
$CMATERIAL
347
44
  9
$SOLIDHIST
280
     0
  9
$SHOWHIST
280
     1
  9
$DWFFRAME
280
     2
  9
$DGNFRAME
280
     2
  9
$REALWORLDSCALE
290
     1
  9
$INTERFERECOLOR
 62
   256
  9
$CSHADOW
280
     0
  9
$SHADOWPLANELOCATION
 40
0.0
  0
ENDSEC
  0
SECTION
  2
CLASSES
  0
CLASS
  1
ACDBDICTIONARYWDFLT
  2
AcDbDictionaryWithDefault
  3
ObjectDBX Classes
 90
        0
 91
        4
280
     0
281
     0
  0
CLASS
  1
VISUALSTYLE
  2
AcDbVisualStyle
  3
ObjectDBX Classes
 90
     4095
 91
        4
280
     0
281
     0
  0
CLASS
  1
MATERIAL
  2
AcDbMaterial
  3
ObjectDBX Classes
 90
     1153
 91
        4
280
     0
281
     0
  0
CLASS
  1
SCALE
  2
AcDbScale
  3
ObjectDBX Classes
 90
     1153
 91
        4
280
     0
281
     0
  0
CLASS
  1
TABLESTYLE
  2
AcDbTableStyle
  3
ObjectDBX Classes
 90
     4095
 91
        4
280
     0
281
     0
  0
CLASS
  1
MLEADERSTYLE
  2
AcDbMLeaderStyle
  3
ACDB_MLEADERSTYLE_CLASS
 90
     4095
 91
        4
280
     0
281
     0
  0
CLASS
  1
SUN
  2
AcDbSun
  3
SCENEOE
 90
     1153
 91
        4
280
     0
281
     0
  0
CLASS
  1
DICTIONARYVAR
  2
AcDbDictionaryVar
  3
ObjectDBX Classes
 90
        0
 91
        4
280
     0
281
     0
  0
CLASS
  1
CELLSTYLEMAP
  2
AcDbCellStyleMap
  3
ObjectDBX Classes
 90
     1152
 91
        4
280
     0
281
     0
  0
ENDSEC
  0
SECTION
  2
TABLES
  0
TABLE
  2
VPORT
  5
8
330
0
100
AcDbSymbolTable
 70
     1
  0
VPORT
  5
29
330
8
100
AcDbSymbolTableRecord
100
AcDbViewportTableRecord
  2
*Active
 70
     0
 10
0.0
 20
0.0
 11
1.0
 21
1.0
 12
0.0
 22
0.0
 13
0.0
 23
0.0
 14
10.0
 24
10.0
 15
10.0
 25
10.0
 16
0.0
 26
0.0
 36
1.0
 17
0.0
 27
0.0
 37
0.0
 40
1633.5
 41
1.414141414141414
 42
50.0
 43
0.0
 44
0.0
 50
0.0
 51
0.0
 71
     0
 72
 10000
 73
     1
 74
     3
 75
     0
 76
     0
 77
     0
 78
     0
281
     0
 65
     1
110
0.0
120
0.0
130
0.0
111
1.0
121
0.0
131
0.0
112
0.0
122
1.0
132
0.0
 79
     0
146
0.0
348
2F
 60
     3
 61
     5
292
     1
282
     1
141
0.0
142
0.0
 63
   250
361
6D
  0
ENDTAB
  0
TABLE
  2
LTYPE
  5
5
330
0
100
AcDbSymbolTable
 70
     7
  0
LTYPE
  5
14
330
5
100
AcDbSymbolTableRecord
100
AcDbLinetypeTableRecord
  2
ByBlock
 70
     0
  3

 72
    65
 73
     0
 40
0.0
  0
LTYPE
  5
15
330
5
100
AcDbSymbolTableRecord
100
AcDbLinetypeTableRecord
  2
ByLayer
 70
     0
  3

 72
    65
 73
     0
 40
0.0
  0
LTYPE
  5
16
330
5
100
AcDbSymbolTableRecord
100
AcDbLinetypeTableRecord
  2
Continuous
 70
     0
  3
Solid line
 72
    65
 73
     0
 40
0.0
  0
LTYPE
  5
6F
330
5
100
AcDbSymbolTableRecord
100
AcDbLinetypeTableRecord
  2
JWW_CENTER1
 70
     0
  3
-----  --  ----------  --  -----
 72
    65
 73
     4
 40
6.773333333333333
 49
4.233333333333333
 74
     0
 49
-0.8466666666666667
 74
     0
 49
0.8466666666666667
 74
     0
 49
-0.8466666666666667
 74
     0
  0
LTYPE
  5
70
330
5
100
AcDbSymbolTableRecord
100
AcDbLinetypeTableRecord
  2
JWW_DASHED2
 70
     0
  3
--    ----    ----    ----    --
 72
    65
 73
     2
 40
3.386666666666667
 49
1.693333333333333
 74
     0
 49
-1.693333333333333
 74
     0
  0
LTYPE
  5
71
330
5
100
AcDbSymbolTableRecord
100
AcDbLinetypeTableRecord
  2
JWW_PHANTOM1
 70
     0
  3
----  -  -  --------  -  -  ----
 72
    65
 73
     6
 40
6.773333333333333
 49
3.386666666666667
 74
     0
 49
-0.8466666666666667
 74
     0
 49
0.4233333333333333
 74
     0
 49
-0.8466666666666667
 74
     0
 49
0.4233333333333333
 74
     0
 49
-0.8466666666666667
 74
     0
  0
LTYPE
  5
72
330
5
100
AcDbSymbolTableRecord
100
AcDbLinetypeTableRecord
  2
JWW_DASHED3
 70
     0
  3
---  ------  ------  ------  ---
 72
    65
 73
     2
 40
3.386666666666667
 49
2.54
 74
     0
 49
-0.8466666666666667
 74
     0
  0
LTYPE
  5
73
330
5
100
AcDbSymbolTableRecord
100
AcDbLinetypeTableRecord
  2
JWW_CENTER2
 70
     0
  3
-------------  --  -------------
 72
    65
 73
     4
 40
13.54666666666667
 49
11.00666666666667
 74
     0
 49
-0.8466666666666667
 74
     0
 49
0.8466666666666667
 74
     0
 49
-0.8466666666666667
 74
     0
  0
LTYPE
  5
74
330
5
100
AcDbSymbolTableRecord
100
AcDbLinetypeTableRecord
  2
JWW_HOJO
 70
     0
  3
  -   -   -   -   -   -   -   - 
 72
    65
 73
     2
 40
1.693333333333333
 49
-1.27
 74
     0
 49
0.4233333333333333
 74
     0
  0
ENDTAB
  0
TABLE
  2
LAYER
  5
2
330
0
100
AcDbSymbolTable
 70
    17
  0
LAYER
  5
10
330
2
100
AcDbSymbolTableRecord
100
AcDbLayerTableRecord
  2
0
 70
     0
 62
     7
  6
Continuous
370
    -3
390
F
347
46
348
0
  0
LAYER
  5
75
330
2
100
AcDbSymbolTableRecord
100
AcDbLayerTableRecord
  2
躯体
 70
     0
 62
     7
  6
Continuous
370
    -3
390
F
347
46
348
0
  0
LAYER
  5
76
330
2
100
AcDbSymbolTableRecord
100
AcDbLayerTableRecord
  2
その他
 70
     0
 62
     7
  6
Continuous
370
    -3
390
F
347
46
348
0
  0
LAYER
  5
77
330
2
100
AcDbSymbolTableRecord
100
AcDbLayerTableRecord
  2
通り芯
 70
     0
 62
     7
  6
Continuous
370
    -3
390
F
347
46
348
0
  0
LAYER
  5
78
330
2
100
AcDbSymbolTableRecord
100
AcDbLayerTableRecord
  2
仕上
 70
     0
 62
     7
  6
Continuous
370
    -3
390
F
347
46
348
0
  0
LAYER
  5
79
330
2
100
AcDbSymbolTableRecord
100
AcDbLayerTableRecord
  2
0-F
 70
     0
 62
     7
  6
Continuous
370
    -3
390
F
347
46
348
0
  0
LAYER
  5
7A
330
2
100
AcDbSymbolTableRecord
100
AcDbLayerTableRecord
  2
寸法
 70
     0
 62
     7
  6
Continuous
370
    -3
390
F
347
46
348
0
  0
LAYER
  5
7B
330
2
100
AcDbSymbolTableRecord
100
AcDbLayerTableRecord
  2
D-4
 70
     0
 62
     7
  6
Continuous
370
    -3
390
F
347
46
348
0
  0
LAYER
  5
7C
330
2
100
AcDbSymbolTableRecord
100
AcDbLayerTableRecord
  2
D-5
 70
     0
 62
     7
  6
Continuous
370
    -3
390
F
347
46
348
0
  0
LAYER
  5
7D
330
2
100
AcDbSymbolTableRecord
100
AcDbLayerTableRecord
  2
D-1
 70
     0
 62
     7
  6
Continuous
370
    -3
390
F
347
46
348
0
  0
LAYER
  5
7E
330
2
100
AcDbSymbolTableRecord
100
AcDbLayerTableRecord
  2
D-2
 70
     0
 62
     7
  6
Continuous
370
    -3
390
F
347
46
348
0
  0
LAYER
  5
7F
330
2
100
AcDbSymbolTableRecord
100
AcDbLayerTableRecord
  2
D-6
 70
     0
 62
     7
  6
Continuous
370
    -3
390
F
347
46
348
0
  0
LAYER
  5
80
330
2
100
AcDbSymbolTableRecord
100
AcDbLayerTableRecord
  2
F-Fﾚｲﾔ
 70
     0
 62
     7
  6
Continuous
370
    -3
390
F
347
46
348
0
  0
LAYER
  5
81
330
2
100
AcDbSymbolTableRecord
100
AcDbLayerTableRecord
  2
建具
 70
     0
 62
     7
  6
Continuous
370
    -3
390
F
347
46
348
0
  0
LAYER
  5
82
330
2
100
AcDbSymbolTableRecord
100
AcDbLayerTableRecord
  2
D-3
 70
     0
 62
     7
  6
Continuous
370
    -3
390
F
347
46
348
0
  0
LAYER
  5
83
330
2
100
AcDbSymbolTableRecord
100
AcDbLayerTableRecord
  2
D-F
 70
     0
 62
     7
  6
Continuous
370
    -3
390
F
347
46
348
0
  0
LAYER
  5
84
330
2
100
AcDbSymbolTableRecord
100
AcDbLayerTableRecord
  2
F-4ﾚｲﾔ
 70
     0
 62
     7
  6
Continuous
370
    -3
390
F
347
46
348
0
  0
ENDTAB
  0
TABLE
  2
STYLE
  5
3
330
0
100
AcDbSymbolTable
 70
     2
  0
STYLE
  5
11
330
3
100
AcDbSymbolTableRecord
100
AcDbTextStyleTableRecord
  2
Standard
 70
     0
 40
0.0
 41
1.0
 50
0.0
 71
     0
 42
2.5
  3
txt
  4

  0
STYLE
  5
6E
330
3
100
AcDbSymbolTableRecord
100
AcDbTextStyleTableRecord
  2
ＭＳ ゴシック
 70
     0
 40
1.0
 41
1.0
 50
0.0
 71
     0
 42
2.5
  3

  4

1001
ACAD
1000
MS Gothic
1071
    32817
  0
ENDTAB
  0
TABLE
  2
VIEW
  5
6
330
0
100
AcDbSymbolTable
 70
     0
  0
ENDTAB
  0
TABLE
  2
UCS
  5
7
330
0
100
AcDbSymbolTable
 70
     0
  0
ENDTAB
  0
TABLE
  2
APPID
  5
9
330
0
100
AcDbSymbolTable
 70
     1
  0
APPID
  5
12
330
9
100
AcDbSymbolTableRecord
100
AcDbRegAppTableRecord
  2
ACAD
 70
     0
  0
ENDTAB
  0
TABLE
  2
DIMSTYLE
  5
A
330
0
100
AcDbSymbolTable
 70
     1
100
AcDbDimStyleTable
  0
DIMSTYLE
105
27
330
A
100
AcDbSymbolTableRecord
100
AcDbDimStyleTableRecord
  2
ISO-25
 70
     0
 41
2.5
 42
0.625
 43
3.75
 44
1.25
 73
     0
 74
     0
 77
     1
 78
     8
140
2.5
141
2.5
143
0.03937007874016
147
0.625
171
     3
172
     1
178
     0
271
     2
272
     2
274
     3
278
    44
283
     0
284
     8
340
11
  0
ENDTAB
  0
TABLE
  2
BLOCK_RECORD
  5
1
330
0
100
AcDbSymbolTable
 70
     1
  0
BLOCK_RECORD
  5
1F
330
1
100
AcDbSymbolTableRecord
100
AcDbBlockTableRecord
  2
*Model_Space
340
22
 70
     0
280
     1
281
     0
  0
BLOCK_RECORD
  5
1B
330
1
100
AcDbSymbolTableRecord
100
AcDbBlockTableRecord
  2
*Paper_Space
340
1E
 70
     0
280
     1
281
     0
  0
BLOCK_RECORD
  5
23
330
1
100
AcDbSymbolTableRecord
100
AcDbBlockTableRecord
  2
*Paper_Space0
340
26
 70
     0
280
     1
281
     0
  0
ENDTAB
  0
ENDSEC
  0
SECTION
  2
BLOCKS
  0
BLOCK
  5
20
330
1F
100
AcDbEntity
  8
0
100
AcDbBlockBegin
  2
*Model_Space
 70
     0
 10
0.0
 20
0.0
 30
0.0
  3
*Model_Space
  1

  0
ENDBLK
  5
21
330
1F
100
AcDbEntity
  8
0
100
AcDbBlockEnd
  0
BLOCK
  5
1C
330
1B
100
AcDbEntity
 67
     1
  8
0
100
AcDbBlockBegin
  2
*Paper_Space
 70
     0
 10
0.0
 20
0.0
 30
0.0
  3
*Paper_Space
  1

  0
ENDBLK
  5
1D
330
1B
100
AcDbEntity
 67
     1
  8
0
100
AcDbBlockEnd
  0
BLOCK
  5
24
330
23
100
AcDbEntity
  8
0
100
AcDbBlockBegin
  2
*Paper_Space0
 70
     0
 10
0.0
 20
0.0
 30
0.0
  3
*Paper_Space0
  1

  0
ENDBLK
  5
25
330
23
100
AcDbEntity
  8
0
100
AcDbBlockEnd
  0
ENDSEC
  0
SECTION
  2
ENTITIES
  0
LINE
  5
85
330
1F
100
AcDbEntity
  8
躯体
  6
JWW_CENTER1
 62
     2
370
     9
100
AcDbLine
 10
-689.0522370911219
 20
381.8717446556141
 30
0.0
 11
-689.0522370911219
 21
364.9865013275137
 31
0.0
  0
CIRCLE
  5
86
330
1F
100
AcDbEntity
  8
躯体
  6
Continuous
 62
     2
370
     9
100
AcDbCircle
 10
-689.0522370911219
 20
373.0815292711129
 30
0.0
 40
6.5
  0
LINE
  5
87
330
1F
100
AcDbEntity
  8
躯体
  6
Continuous
 62
     2
370
     9
100
AcDbLine
 10
-697.3022370911218
 20
383.0815778164495
 30
0.0
 11
-673.4523502064695
 21
383.0815778164495
 31
0.0
  0
LINE
  5
88
330
1F
100
AcDbEntity
  8
躯体
  6
Continuous
 62
     2
370
     9
100
AcDbLine
 10
-699.0522370911214
 20
364.113283434561
 30
0.0
 11
-699.0522370911214
 21
382.0497751076647
 31
0.0
  0
LINE
  5
89
330
1F
100
AcDbEntity
  8
躯体
  6
Continuous
 62
     2
370
     9
100
AcDbLine
 10
-697.3022370911218
 20
363.0814807257764
 30
0.0
 11
-673.4523502064695
 21
363.0814807257764
 31
0.0
  0
ARC
  5
8A
330
1F
100
AcDbEntity
  8
躯体
  6
Continuous
 62
     2
370
     9
100
AcDbCircle
 10
-697.3022370911218
 20
365.081529271113
 30
0.0
 40
2.0
100
AcDbArc
 50
208.95502437186
 51
270.0
  0
ARC
  5
8B
330
1F
100
AcDbEntity
  8
躯体
  6
Continuous
 62
     2
370
     9
100
AcDbCircle
 10
-697.3022370911218
 20
381.0815292711129
 30
0.0
 40
2.0
100
AcDbArc
 50
90.0
 51
151.04497562814
  0
LINE
  5
8C
330
1F
100
AcDbEntity
  8
躯体
  6
JWW_CENTER1
 62
     2
370
     9
100
AcDbLine
 10
-703.4500663604717
 20
373.0815292711129
 30
0.0
 11
-676.672980631293
 21
373.0815292711129
 31
0.0
  0
LINE
  5
8D
330
1F
100
AcDbEntity
  8
躯体
  6
JWW_CENTER1
 62
     2
370
     9
100
AcDbLine
 10
-689.0522370911219
 20
206.1098349019412
 30
0.0
 11
-689.0522370911219
 21
189.7714820460059
 31
0.0
  0
CIRCLE
  5
8E
330
1F
100
AcDbEntity
  8
躯体
  6
Continuous
 62
     2
370
     9
100
AcDbCircle
 10
-689.0522370911219
 20
198.0815292711125
 30
0.0
 40
6.5
  0
LINE
  5
8F
330
1F
100
AcDbEntity
  8
躯体
  6
Continuous
 62
     2
370
     9
100
AcDbLine
 10
-697.3022370911218
 20
208.0815778164492
 30
0.0
 11
-673.4523502064695
 21
208.0815778164492
 31
0.0
  0
LINE
  5
90
330
1F
100
AcDbEntity
  8
躯体
  6
Continuous
 62
     2
370
     9
100
AcDbLine
 10
-699.0522370911219
 20
207.0497751076644
 30
0.0
 11
-699.0522370911219
 21
189.1132834345606
 31
0.0
  0
LINE
  5
91
330
1F
100
AcDbEntity
  8
躯体
  6
Continuous
 62
     2
370
     9
100
AcDbLine
 10
-697.3022370911218
 20
188.081480725776
 30
0.0
 11
-673.4523502064695
 21
188.081480725776
 31
0.0
  0
ARC
  5
92
330
1F
100
AcDbEntity
  8
躯体
  6
Continuous
 62
     2
370
     9
100
AcDbCircle
 10
-697.3022370911218
 20
190.0815292711124
 30
0.0
 40
2.0
100
AcDbArc
 50
208.95502437186
 51
270.0
  0
ARC
  5
93
330
1F
100
AcDbEntity
  8
躯体
  6
Continuous
 62
     2
370
     9
100
AcDbCircle
 10
-697.3022370911218
 20
206.0815292711125
 30
0.0
 40
2.0
100
AcDbArc
 50
90.0
 51
151.04497562814
  0
LINE
  5
94
330
1F
100
AcDbEntity
  8
躯体
  6
JWW_CENTER1
 62
     2
370
     9
100
AcDbLine
 10
-703.4500663604723
 20
198.0815292711125
 30
0.0
 11
-676.672980631293
 21
198.0815292711125
 31
0.0
  0
LINE
  5
95
330
1F
100
AcDbEntity
  8
躯体
  6
JWW_CENTER1
 62
     2
370
     9
100
AcDbLine
 10
-307.8524242616743
 20
190.3185299959439
 30
0.0
 11
-307.8524242616743
 21
206.5201602338379
 31
0.0
  0
CIRCLE
  5
96
330
1F
100
AcDbEntity
  8
躯体
  6
Continuous
 62
     2
370
     9
100
AcDbCircle
 10
-307.8524242616743
 20
198.0815292711125
 30
0.0
 40
6.5
  0
LINE
  5
97
330
1F
100
AcDbEntity
  8
躯体
  6
Continuous
 62
     2
370
     9
100
AcDbLine
 10
-299.6024242616742
 20
188.081480725776
 30
0.0
 11
-323.4523111463265
 21
188.081480725776
 31
0.0
  0
LINE
  5
98
330
1F
100
AcDbEntity
  8
躯体
  6
Continuous
 62
     2
370
     9
100
AcDbLine
 10
-297.8524242616738
 20
207.0497751076644
 30
0.0
 11
-297.8524242616738
 21
189.1132834345607
 31
0.0
  0
LINE
  5
99
330
1F
100
AcDbEntity
  8
躯体
  6
Continuous
 62
     2
370
     9
100
AcDbLine
 10
-299.6024242616742
 20
208.0815778164492
 30
0.0
 11
-323.4523111463265
 21
208.0815778164492
 31
0.0
  0
ARC
  5
9A
330
1F
100
AcDbEntity
  8
躯体
  6
Continuous
 62
     2
370
     9
100
AcDbCircle
 10
-299.6024242616742
 20
206.0815292711125
 30
0.0
 40
2.0
100
AcDbArc
 50
28.95502437185994
 51
90.0
  0
ARC
  5
9B
330
1F
100
AcDbEntity
  8
躯体
  6
Continuous
 62
     2
370
     9
100
AcDbCircle
 10
-299.6024242616742
 20
190.0815292711126
 30
0.0
 40
2.0
100
AcDbArc
 50
270.0
 51
331.04497562814
  0
LINE
  5
9C
330
1F
100
AcDbEntity
  8
躯体
  6
JWW_CENTER1
 62
     2
370
     9
100
AcDbLine
 10
-293.454594992324
 20
198.0815292711125
 30
0.0
 11
-320.2316807215033
 21
198.0815292711125
 31
0.0
  0
LINE
  5
9D
330
1F
100
AcDbEntity
  8
その他
  6
Continuous
 62
     7
370
     9
100
AcDbLine
 10
-220.3161035613414
 20
198.0815292711125
 30
0.0
 11
-283.454594992324
 21
198.0815292711125
 31
0.0
  0
LWPOLYLINE
  5
9E
330
1F
100
AcDbEntity
  8
その他
  6
Continuous
 62
     7
370
     9
100
AcDbPolyline
 90
        4
 70
     1
 43
1.0
 10
-221.3161035613412
 20
198.0815292711125
 42
0.4142135623731
 10
-221.8161035613412
 20
198.5815292711125
 42
0.4142135623731
 10
-222.3161035613412
 20
198.0815292711125
 42
0.4142135623731
 10
-221.8161035613412
 20
197.5815292711125
 42
0.4142135623731
  0
LINE
  5
9F
330
1F
100
AcDbEntity
  8
躯体
  6
JWW_CENTER1
 62
     2
370
     9
100
AcDbLine
 10
-307.8524242616743
 20
365.4653454462034
 30
0.0
 11
-307.8524242616743
 21
381.0517239029115
 31
0.0
  0
CIRCLE
  5
A0
330
1F
100
AcDbEntity
  8
躯体
  6
Continuous
 62
     2
370
     9
100
AcDbCircle
 10
-307.8524242616743
 20
373.0816867488853
 30
0.0
 40
6.5
  0
LINE
  5
A1
330
1F
100
AcDbEntity
  8
躯体
  6
Continuous
 62
     2
370
     9
100
AcDbLine
 10
-299.6024242616742
 20
363.0816382035487
 30
0.0
 11
-323.4523111463265
 21
363.0816382035487
 31
0.0
  0
LINE
  5
A2
330
1F
100
AcDbEntity
  8
躯体
  6
Continuous
 62
     2
370
     9
100
AcDbLine
 10
-297.8524242616738
 20
364.1134409123334
 30
0.0
 11
-297.8524242616738
 21
382.0499325854372
 31
0.0
  0
LINE
  5
A3
330
1F
100
AcDbEntity
  8
躯体
  6
Continuous
 62
     2
370
     9
100
AcDbLine
 10
-299.6024242616742
 20
383.0817352942217
 30
0.0
 11
-323.4523111463265
 21
383.0817352942217
 31
0.0
  0
ARC
  5
A4
330
1F
100
AcDbEntity
  8
躯体
  6
Continuous
 62
     2
370
     9
100
AcDbCircle
 10
-299.6024242616742
 20
381.0816867488852
 30
0.0
 40
2.0
100
AcDbArc
 50
28.95502437185994
 51
90.0
  0
ARC
  5
A5
330
1F
100
AcDbEntity
  8
躯体
  6
Continuous
 62
     2
370
     9
100
AcDbCircle
 10
-299.6024242616742
 20
365.0816867488852
 30
0.0
 40
2.0
100
AcDbArc
 50
270.0
 51
331.04497562814
  0
LINE
  5
A6
330
1F
100
AcDbEntity
  8
躯体
  6
JWW_CENTER1
 62
     2
370
     9
100
AcDbLine
 10
-293.454594992324
 20
373.0816867488853
 30
0.0
 11
-320.2316807215033
 21
373.0816867488853
 31
0.0
  0
LWPOLYLINE
  5
A7
330
1F
100
AcDbEntity
  8
その他
  6
Continuous
 62
     7
370
     9
100
AcDbPolyline
 90
        4
 70
     1
 43
1.0
 10
-221.3161035613412
 20
373.0815292711129
 42
0.4142135623731
 10
-221.8161035613412
 20
373.5815292711129
 42
0.4142135623731
 10
-222.3161035613412
 20
373.0815292711129
 42
0.4142135623731
 10
-221.8161035613412
 20
372.581529271113
 42
0.4142135623731
  0
LINE
  5
A8
330
1F
100
AcDbEntity
  8
その他
  6
Continuous
 62
     7
370
     9
100
AcDbLine
 10
-220.3161035613414
 20
373.0815292711129
 30
0.0
 11
-283.454594992324
 21
373.0815292711129
 31
0.0
  0
LINE
  5
A9
330
1F
100
AcDbEntity
  8
通り芯
  6
JWW_CENTER1
 62
     7
370
     9
100
AcDbLine
 10
-696.6729397579002
 20
285.5815292711127
 30
0.0
 11
-301.569161152259
 21
285.5815292711127
 31
0.0
  0
LINE
  5
AA
330
1F
100
AcDbEntity
  8
躯体
  6
JWW_CENTER1
 62
     2
370
     9
100
AcDbLine
 10
-594.0267165875009
 20
94.98160332631684
 30
0.0
 11
-577.8934476586279
 21
94.98160332631684
 31
0.0
  0
CIRCLE
  5
AB
330
1F
100
AcDbEntity
  8
躯体
  6
Continuous
 62
     2
370
     9
100
AcDbCircle
 10
-585.9525076842432
 20
94.98160332631687
 30
0.0
 40
6.5
  0
LINE
  5
AC
330
1F
100
AcDbEntity
  8
躯体
  6
Continuous
 62
     2
370
     9
100
AcDbLine
 10
-595.9525562295796
 20
86.73160332631682
 30
0.0
 11
-595.9525562295796
 21
110.5814902109692
 31
0.0
  0
LINE
  5
AD
330
1F
100
AcDbEntity
  8
躯体
  6
Continuous
 62
     2
370
     9
100
AcDbLine
 10
-576.9842618476913
 20
84.98160332631677
 30
0.0
 11
-594.9207535207951
 21
84.98160332631677
 31
0.0
  0
LINE
  5
AE
330
1F
100
AcDbEntity
  8
躯体
  6
Continuous
 62
     2
370
     9
100
AcDbLine
 10
-575.9524591389062
 20
86.73160332631682
 30
0.0
 11
-575.9524591389062
 21
110.5814902109692
 31
0.0
  0
ARC
  5
AF
330
1F
100
AcDbEntity
  8
躯体
  6
Continuous
 62
     2
370
     9
100
AcDbCircle
 10
-577.9525076842431
 20
86.73160332631682
 30
0.0
 40
2.0
100
AcDbArc
 50
298.95502437186
 51
0.0
  0
ARC
  5
B0
330
1F
100
AcDbEntity
  8
躯体
  6
Continuous
 62
     2
370
     9
100
AcDbCircle
 10
-593.9525076842427
 20
86.73160332631682
 30
0.0
 40
2.0
100
AcDbArc
 50
180.0
 51
241.04497562814
  0
LINE
  5
B1
330
1F
100
AcDbEntity
  8
躯体
  6
JWW_CENTER1
 62
     2
370
     9
100
AcDbLine
 10
-585.9525076842432
 20
80.58377405696649
 30
0.0
 11
-585.9525076842432
 21
107.3608597861457
 31
0.0
  0
LINE
  5
B2
330
1F
100
AcDbEntity
  8
その他
  6
Continuous
 62
     7
370
     9
100
AcDbLine
 10
-585.9523502064696
 20
30.11316108404934
 30
0.0
 11
-585.9523502064696
 21
70.58377405696649
 31
0.0
  0
LWPOLYLINE
  5
B3
330
1F
100
AcDbEntity
  8
その他
  6
Continuous
 62
     7
370
     9
100
AcDbPolyline
 90
        4
 70
     1
 43
1.0
 10
-585.4523502064696
 20
31.61316108404932
 42
0.4142135623731
 10
-585.9523502064696
 20
32.11316108404932
 42
0.4142135623731
 10
-586.4523502064695
 20
31.61316108404932
 42
0.4142135623731
 10
-585.9523502064696
 20
31.11316108404932
 42
0.4142135623731
  0
LWPOLYLINE
  5
B4
330
1F
100
AcDbEntity
  8
その他
  6
Continuous
 62
     7
370
     9
100
AcDbPolyline
 90
        4
 70
     1
 43
1.0
 10
-410.4523502064696
 20
31.61316108404932
 42
0.4142135623731
 10
-410.9523502064696
 20
32.11316108404932
 42
0.4142135623731
 10
-411.4523502064696
 20
31.61316108404932
 42
0.4142135623731
 10
-410.9523502064696
 20
31.11316108404932
 42
0.4142135623731
  0
LINE
  5
B5
330
1F
100
AcDbEntity
  8
その他
  6
Continuous
 62
     7
370
     9
100
AcDbLine
 10
-410.9523502064696
 20
30.11316108404934
 30
0.0
 11
-410.9523502064696
 21
70.58377405696643
 31
0.0
  0
LINE
  5
B6
330
1F
100
AcDbEntity
  8
躯体
  6
JWW_CENTER1
 62
     2
370
     9
100
AcDbLine
 10
-410.9523502064696
 20
80.58377405696643
 30
0.0
 11
-410.9523502064696
 21
107.3608597861456
 31
0.0
  0
ARC
  5
B7
330
1F
100
AcDbEntity
  8
躯体
  6
Continuous
 62
     2
370
     9
100
AcDbCircle
 10
-418.9523502064697
 20
86.7316033263167
 30
0.0
 40
2.0
100
AcDbArc
 50
180.0
 51
241.04497562814
  0
ARC
  5
B8
330
1F
100
AcDbEntity
  8
躯体
  6
Continuous
 62
     2
370
     9
100
AcDbCircle
 10
-402.9523502064695
 20
86.7316033263167
 30
0.0
 40
2.0
100
AcDbArc
 50
298.95502437186
 51
0.0
  0
LINE
  5
B9
330
1F
100
AcDbEntity
  8
躯体
  6
Continuous
 62
     2
370
     9
100
AcDbLine
 10
-400.9523016611332
 20
86.7316033263167
 30
0.0
 11
-400.9523016611332
 21
110.5814902109691
 31
0.0
  0
LINE
  5
BA
330
1F
100
AcDbEntity
  8
躯体
  6
Continuous
 62
     2
370
     9
100
AcDbLine
 10
-419.9205960430215
 20
84.98160332631677
 30
0.0
 11
-401.9841043699177
 21
84.98160332631677
 31
0.0
  0
LINE
  5
BB
330
1F
100
AcDbEntity
  8
躯体
  6
Continuous
 62
     2
370
     9
100
AcDbLine
 10
-420.9523987518066
 20
86.7316033263167
 30
0.0
 11
-420.9523987518066
 21
110.5814902109691
 31
0.0
  0
CIRCLE
  5
BC
330
1F
100
AcDbEntity
  8
躯体
  6
Continuous
 62
     2
370
     9
100
AcDbCircle
 10
-410.9523502064696
 20
94.98160332631673
 30
0.0
 40
6.5
  0
LINE
  5
BD
330
1F
100
AcDbEntity
  8
躯体
  6
JWW_CENTER1
 62
     2
370
     9
100
AcDbLine
 10
-418.7431785192002
 20
94.98160332631673
 30
0.0
 11
-403.0200774444501
 21
94.98160332631673
 31
0.0
  0
CIRCLE
  5
BE
330
1F
100
AcDbEntity
  8
仕上
  6
Continuous
 62
     3
370
     9
100
AcDbCircle
 10
-638.4522842225173
 20
145.5814962791362
 30
0.0
 40
11.24979215054899
  0
ARC
  5
BF
330
1F
100
AcDbEntity
  8
仕上
  6
Continuous
 62
     3
370
     9
100
AcDbCircle
 10
-636.7522272701184
 20
142.6370242497337
 30
0.0
 40
3.000000038662472
100
AcDbArc
 50
239.9994506835938
 51
0.0000000000000254
  0
ARC
  5
C0
330
1F
100
AcDbEntity
  8
仕上
  6
Continuous
 62
     3
370
     9
100
AcDbCircle
 10
-641.8522094544511
 20
145.5815086511273
 30
0.0
 40
3.000000038662472
100
AcDbArc
 50
120.0005493164062
 51
239.9994506835938
  0
ARC
  5
C1
330
1F
100
AcDbEntity
  8
仕上
  6
Continuous
 62
     3
370
     9
100
AcDbCircle
 10
-636.7522272701184
 20
148.5259435645563
 30
0.0
 40
3.000000038662472
100
AcDbArc
 50
0.0
 51
120.0005493164062
  0
LINE
  5
C2
330
1F
100
AcDbEntity
  8
仕上
  6
Continuous
 62
     3
370
     9
100
AcDbLine
 10
-633.7523905804014
 20
142.6370242497337
 30
0.0
 11
-633.7523905804014
 21
148.5259435645563
 31
0.0
  0
LINE
  5
C3
330
1F
100
AcDbEntity
  8
仕上
  6
Continuous
 62
     3
370
     9
100
AcDbLine
 10
-638.252256962897
 20
140.0389556000292
 30
0.0
 11
-643.3522391472297
 21
142.9834400014228
 31
0.0
  0
LINE
  5
C4
330
1F
100
AcDbEntity
  8
仕上
  6
Continuous
 62
     3
370
     9
100
AcDbLine
 10
-643.3522391472297
 20
148.1795773008317
 30
0.0
 11
-638.252256962897
 21
151.1240122142607
 31
0.0
  0
CIRCLE
  5
C5
330
1F
100
AcDbEntity
  8
仕上
  6
Continuous
 62
     3
370
     9
100
AcDbCircle
 10
-638.4523615474621
 20
145.5815086511273
 30
0.0
 40
10.0
  0
ARC
  5
C6
330
1F
100
AcDbEntity
  8
仕上
  6
Continuous
 62
     3
370
     9
100
AcDbCircle
 10
-595.9522182385645
 20
128.0815622630888
 30
0.0
 40
2.500000128874908
100
AcDbArc
 50
270.0
 51
45.0
  0
ARC
  5
C7
330
1F
100
AcDbEntity
  8
仕上
  6
Continuous
 62
     3
370
     9
100
AcDbCircle
 10
-655.9524161904227
 20
188.0815622630888
 30
0.0
 40
2.500000128874908
100
AcDbArc
 50
45.0
 51
180.0
  0
ARC
  5
C8
330
1F
100
AcDbEntity
  8
仕上
  6
Continuous
 62
     3
370
     9
100
AcDbCircle
 10
-656.4524425840034
 20
127.5815358695078
 30
0.0
 40
2.000000025774982
100
AcDbArc
 50
180.0
 51
270.0
  0
CIRCLE
  5
C9
330
1F
100
AcDbEntity
  8
仕上
  6
Continuous
 62
     3
370
     9
100
AcDbCircle
 10
-638.452284222517
 20
145.5814962791361
 30
0.0
 40
13.49993937724346
  0
CIRCLE
  5
CA
330
1F
100
AcDbEntity
  8
仕上
  6
Continuous
 62
     3
370
     9
100
AcDbCircle
 10
-638.452284222517
 20
145.5814962791361
 30
0.0
 40
11.49997221456992
  0
LINE
  5
CB
330
1F
100
AcDbEntity
  8
仕上
  6
Continuous
 62
     3
370
     9
100
AcDbLine
 10
-654.1847060975169
 20
189.8494703078524
 30
0.0
 11
-594.1843101938009
 21
129.8492723559942
 31
0.0
  0
LINE
  5
CC
330
1F
100
AcDbEntity
  8
仕上
  6
Continuous
 62
     3
370
     9
100
AcDbLine
 10
-656.4524425840034
 20
125.5816282470416
 30
0.0
 11
-595.9522182385645
 21
125.5816282470416
 31
0.0
  0
LINE
  5
CD
330
1F
100
AcDbEntity
  8
仕上
  6
Continuous
 62
     3
370
     9
100
AcDbLine
 10
-658.4523502064695
 20
188.0815622630888
 30
0.0
 11
-658.4523502064695
 21
127.5815358695078
 31
0.0
  0
LINE
  5
CE
330
1F
100
AcDbEntity
  8
仕上
  6
JWW_CENTER1
 62
     3
370
     9
100
AcDbLine
 10
-638.452284222517
 20
130.9356321532916
 30
0.0
 11
-638.452284222517
 21
160.9572089058254
 31
0.0
  0
LINE
  5
CF
330
1F
100
AcDbEntity
  8
仕上
  6
JWW_CENTER1
 62
     3
370
     9
100
AcDbLine
 10
-622.5809001431254
 20
145.5814962791361
 30
0.0
 11
-653.4790077233617
 21
145.5814962791361
 31
0.0
  0
LINE
  5
D0
330
1F
100
AcDbEntity
  8
仕上
  6
Continuous
 62
     3
370
     9
100
AcDbLine
 10
-658.4523876170147
 20
125.581491860568
 30
0.0
 11
-665.452327112086
 21
118.5815523654961
 31
0.0
  0
LINE
  5
D1
330
1F
100
AcDbEntity
  8
躯体
  6
Continuous
 62
     2
370
     9
100
AcDbLine
 10
-666.4523271120862
 20
117.5815523654961
 30
0.0
 11
-673.4523502064695
 21
110.5815292711125
 31
0.0
  0
LINE
  5
D2
330
1F
100
AcDbEntity
  8
その他
  6
Continuous
 62
     7
370
     9
100
AcDbLine
 10
-673.4523502064695
 20
30.11316108404934
 30
0.0
 11
-673.4523502064695
 21
100.5815292711125
 31
0.0
  0
LWPOLYLINE
  5
D3
330
1F
100
AcDbEntity
  8
その他
  6
Continuous
 62
     7
370
     9
100
AcDbPolyline
 90
        4
 70
     1
 43
1.0
 10
-672.9523502064695
 20
31.61316108404932
 42
0.4142135623731
 10
-673.4523502064695
 20
32.11316108404932
 42
0.4142135623731
 10
-673.9523502064695
 20
31.61316108404932
 42
0.4142135623731
 10
-673.4523502064695
 20
31.11316108404932
 42
0.4142135623731
  0
LINE
  5
D4
330
1F
100
AcDbEntity
  8
その他
  6
Continuous
 62
     7
370
     9
100
AcDbLine
 10
-727.8153986283809
 20
130.5815213766039
 30
0.0
 11
-686.8153986283818
 21
130.5815213766039
 31
0.0
  0
LINE
  5
D5
330
1F
100
AcDbEntity
  8
その他
  6
Continuous
 62
     7
370
     9
100
AcDbLine
 10
-767.8153986283809
 20
118.5816101014546
 30
0.0
 11
-686.8153986283818
 21
118.5816101014546
 31
0.0
  0
LINE
  5
D6
330
1F
100
AcDbEntity
  8
その他
  6
Continuous
 62
     7
370
     9
100
AcDbLine
 10
-807.8153986283809
 20
110.5815292711125
 30
0.0
 11
-686.8153986283818
 21
110.5815292711125
 31
0.0
  0
LWPOLYLINE
  5
D7
330
1F
100
AcDbEntity
  8
その他
  6
Continuous
 62
     7
370
     9
100
AcDbPolyline
 90
        4
 70
     1
 43
1.0
 10
-726.3153986283812
 20
130.5815213766039
 42
0.4142135623731
 10
-726.8153986283812
 20
131.0815213766039
 42
0.4142135623731
 10
-727.3153986283812
 20
130.5815213766039
 42
0.4142135623731
 10
-726.8153986283812
 20
130.0815213766039
 42
0.4142135623731
  0
LWPOLYLINE
  5
D8
330
1F
100
AcDbEntity
  8
その他
  6
Continuous
 62
     7
370
     9
100
AcDbPolyline
 90
        4
 70
     1
 43
1.0
 10
-766.3153986283812
 20
118.5816101014546
 42
0.4142135623731
 10
-766.8153986283812
 20
119.0816101014546
 42
0.4142135623731
 10
-767.3153986283812
 20
118.5816101014546
 42
0.4142135623731
 10
-766.8153986283812
 20
118.0816101014546
 42
0.4142135623731
  0
LWPOLYLINE
  5
D9
330
1F
100
AcDbEntity
  8
その他
  6
Continuous
 62
     7
370
     9
100
AcDbPolyline
 90
        4
 70
     1
 43
1.0
 10
-806.3153986283812
 20
110.5815292711125
 42
0.4142135623731
 10
-806.8153986283812
 20
111.0815292711125
 42
0.4142135623731
 10
-807.3153986283812
 20
110.5815292711125
 42
0.4142135623731
 10
-806.8153986283812
 20
110.0815292711125
 42
0.4142135623731
  0
TEXT
  5
DA
330
1F
100
AcDbEntity
  8
0-F
  6
Continuous
 62
     6
370
     9
100
AcDbText
 10
-400.1975424255745
 20
127.4968417250945
 30
0.0
 40
4.572
  1
ＫＡＮＥＳＯ
 41
1.20833333333334
  7
ＭＳ ゴシック
100
AcDbText
  0
LWPOLYLINE
  5
DB
330
1F
100
AcDbEntity
  8
その他
  6
Continuous
 62
     7
370
     9
100
AcDbPolyline
 90
        4
 70
     1
 43
1.0
 10
-322.9523502064699
 20
31.61316108404932
 42
0.4142135623731
 10
-323.4523502064699
 20
32.11316108404932
 42
0.4142135623731
 10
-323.9523502064699
 20
31.61316108404932
 42
0.4142135623731
 10
-323.4523502064699
 20
31.11316108404932
 42
0.4142135623731
  0
LINE
  5
DC
330
1F
100
AcDbEntity
  8
その他
  6
Continuous
 62
     7
370
     9
100
AcDbLine
 10
-323.4523502064699
 20
30.11316108404934
 30
0.0
 11
-323.4523502064699
 21
100.5815292711125
 31
0.0
  0
LINE
  5
DD
330
1F
100
AcDbEntity
  8
躯体
  6
Continuous
 62
     2
370
     9
100
AcDbLine
 10
-330.4523733008538
 20
117.5815523654961
 30
0.0
 11
-323.4523502064699
 21
110.5815292711125
 31
0.0
  0
LINE
  5
DE
330
1F
100
AcDbEntity
  8
躯体
  6
JWW_DASHED2
 62
     2
370
     9
100
AcDbLine
 10
-343.4523667024582
 20
130.5815457671006
 30
0.0
 11
-354.2231606150499
 21
130.5815457671006
 31
0.0
  0
LINE
  5
DF
330
1F
100
AcDbEntity
  8
仕上
  6
Continuous
 62
     3
370
     9
100
AcDbLine
 10
-338.4523127959253
 20
125.581491860568
 30
0.0
 11
-331.4523733008534
 21
118.5815523654961
 31
0.0
  0
LINE
  5
E0
330
1F
100
AcDbEntity
  8
仕上
  6
JWW_CENTER1
 62
     3
370
     9
100
AcDbLine
 10
-374.3238002698144
 20
145.581496279136
 30
0.0
 11
-343.4256926895782
 21
145.581496279136
 31
0.0
  0
LINE
  5
E1
330
1F
100
AcDbEntity
  8
仕上
  6
JWW_CENTER1
 62
     3
370
     9
100
AcDbLine
 10
-358.4524161904228
 20
130.9356321532915
 30
0.0
 11
-358.4524161904228
 21
160.9572089058253
 31
0.0
  0
LINE
  5
E2
330
1F
100
AcDbEntity
  8
仕上
  6
Continuous
 62
     3
370
     9
100
AcDbLine
 10
-338.4523502064699
 20
188.0815622630888
 30
0.0
 11
-338.4523502064699
 21
127.5815358695078
 31
0.0
  0
LINE
  5
E3
330
1F
100
AcDbEntity
  8
仕上
  6
Continuous
 62
     3
370
     9
100
AcDbLine
 10
-340.4522578289363
 20
125.5816282470415
 30
0.0
 11
-400.9524821743753
 21
125.5816282470415
 31
0.0
  0
LINE
  5
E4
330
1F
100
AcDbEntity
  8
仕上
  6
Continuous
 62
     3
370
     9
100
AcDbLine
 10
-342.7199943154228
 20
189.8494703078522
 30
0.0
 11
-402.7203902191389
 21
129.8492723559942
 31
0.0
  0
CIRCLE
  5
E5
330
1F
100
AcDbEntity
  8
仕上
  6
Continuous
 62
     3
370
     9
100
AcDbCircle
 10
-358.4524161904228
 20
145.581496279136
 30
0.0
 40
11.49997221456992
  0
CIRCLE
  5
E6
330
1F
100
AcDbEntity
  8
仕上
  6
Continuous
 62
     3
370
     9
100
AcDbCircle
 10
-358.4524161904228
 20
145.581496279136
 30
0.0
 40
13.49993937724346
  0
ARC
  5
E7
330
1F
100
AcDbEntity
  8
仕上
  6
Continuous
 62
     3
370
     9
100
AcDbCircle
 10
-340.4522578289363
 20
127.5815358695078
 30
0.0
 40
2.000000025774982
100
AcDbArc
 50
270.0
 51
0.0
  0
ARC
  5
E8
330
1F
100
AcDbEntity
  8
仕上
  6
Continuous
 62
     3
370
     9
100
AcDbCircle
 10
-340.9522842225176
 20
188.0815622630888
 30
0.0
 40
2.500000128874908
100
AcDbArc
 50
0.0
 51
134.9999999999999
  0
ARC
  5
E9
330
1F
100
AcDbEntity
  8
仕上
  6
Continuous
 62
     3
370
     9
100
AcDbCircle
 10
-400.9524821743753
 20
128.0815622630888
 30
0.0
 40
2.500000128874908
100
AcDbArc
 50
135.0
 51
270.0
  0
CIRCLE
  5
EA
330
1F
100
AcDbEntity
  8
仕上
  6
Continuous
 62
     3
370
     9
100
AcDbCircle
 10
-358.4524935153676
 20
145.5815086511272
 30
0.0
 40
10.0
  0
LINE
  5
EB
330
1F
100
AcDbEntity
  8
仕上
  6
Continuous
 62
     3
370
     9
100
AcDbLine
 10
-363.3523711151353
 20
148.1795773008316
 30
0.0
 11
-358.2523889308025
 21
151.1240122142607
 31
0.0
  0
LINE
  5
EC
330
1F
100
AcDbEntity
  8
仕上
  6
Continuous
 62
     3
370
     9
100
AcDbLine
 10
-358.2523889308025
 20
140.0389556000292
 30
0.0
 11
-363.3523711151353
 21
142.9834400014228
 31
0.0
  0
LINE
  5
ED
330
1F
100
AcDbEntity
  8
仕上
  6
Continuous
 62
     3
370
     9
100
AcDbLine
 10
-353.7525225483069
 20
142.6370242497336
 30
0.0
 11
-353.7525225483069
 21
148.5259435645562
 31
0.0
  0
ARC
  5
EE
330
1F
100
AcDbEntity
  8
仕上
  6
Continuous
 62
     3
370
     9
100
AcDbCircle
 10
-356.7523592380238
 20
148.5259435645562
 30
0.0
 40
3.000000038662472
100
AcDbArc
 50
0.0
 51
120.0005493164062
  0
ARC
  5
EF
330
1F
100
AcDbEntity
  8
仕上
  6
Continuous
 62
     3
370
     9
100
AcDbCircle
 10
-361.8523414223566
 20
145.5815086511272
 30
0.0
 40
3.000000038662472
100
AcDbArc
 50
120.0005493164062
 51
239.9994506835938
  0
ARC
  5
F0
330
1F
100
AcDbEntity
  8
仕上
  6
Continuous
 62
     3
370
     9
100
AcDbCircle
 10
-356.7523592380238
 20
142.6370242497336
 30
0.0
 40
3.000000038662472
100
AcDbArc
 50
239.9994506835938
 51
0.0000000000000254
  0
CIRCLE
  5
F1
330
1F
100
AcDbEntity
  8
仕上
  6
Continuous
 62
     3
370
     9
100
AcDbCircle
 10
-358.452416190423
 20
145.5814962791361
 30
0.0
 40
11.24979215054899
  0
LWPOLYLINE
  5
F2
330
1F
100
AcDbEntity
  8
その他
  6
Continuous
 62
     7
370
     9
100
AcDbPolyline
 90
        4
 70
     1
 43
1.0
 10
-221.3161035613412
 20
110.5815292711125
 42
0.4142135623731
 10
-221.8161035613412
 20
111.0815292711125
 42
0.4142135623731
 10
-222.3161035613412
 20
110.5815292711125
 42
0.4142135623731
 10
-221.8161035613412
 20
110.0815292711125
 42
0.4142135623731
  0
LINE
  5
F3
330
1F
100
AcDbEntity
  8
その他
  6
Continuous
 62
     7
370
     9
100
AcDbLine
 10
-220.3161035613414
 20
110.5815292711125
 30
0.0
 11
-313.4523502064699
 21
110.5815292711125
 31
0.0
  0
LINE
  5
F4
330
1F
100
AcDbEntity
  8
仕上
  6
Continuous
 62
     3
370
     9
100
AcDbLine
 10
-331.4523733008534
 20
118.5815523654961
 30
0.0
 11
-665.452327112086
 21
118.5815523654961
 31
0.0
  0
LINE
  5
F5
330
1F
100
AcDbEntity
  8
仕上
  6
Continuous
 62
     3
370
     9
100
AcDbLine
 10
-658.4523876170147
 20
125.581491860568
 30
0.0
 11
-338.4523127959253
 21
125.581491860568
 31
0.0
  0
LINE
  5
F6
330
1F
100
AcDbEntity
  8
躯体
  6
JWW_DASHED2
 62
     2
370
     9
100
AcDbLine
 10
-403.3144453438881
 20
130.5815457671006
 30
0.0
 11
-653.4523337104815
 21
130.5815457671006
 31
0.0
  0
LINE
  5
F7
330
1F
100
AcDbEntity
  8
躯体
  6
Continuous
 62
     2
370
     9
100
AcDbLine
 10
-673.4523502064695
 20
110.5815292711125
 30
0.0
 11
-323.4523502064699
 21
110.5815292711125
 31
0.0
  0
LINE
  5
F8
330
1F
100
AcDbEntity
  8
躯体
  6
Continuous
 62
     2
370
     9
100
AcDbLine
 10
-666.4523271120862
 20
117.5815523654961
 30
0.0
 11
-330.4523733008538
 21
117.5815523654961
 31
0.0
  0
LINE
  5
F9
330
1F
100
AcDbEntity
  8
躯体
  6
JWW_CENTER1
 62
     2
370
     9
100
AcDbLine
 10
-578.1931843660625
 20
476.1814161557653
 30
0.0
 11
-593.6139799315948
 21
476.1814161557653
 31
0.0
  0
CIRCLE
  5
FA
330
1F
100
AcDbEntity
  8
躯体
  6
Continuous
 62
     2
370
     9
100
AcDbCircle
 10
-585.9523502064696
 20
476.1814161557653
 30
0.0
 40
6.5
  0
LINE
  5
FB
330
1F
100
AcDbEntity
  8
躯体
  6
Continuous
 62
     2
370
     9
100
AcDbLine
 10
-575.9523016611332
 20
484.4314161557654
 30
0.0
 11
-575.9523016611332
 21
460.5815292711129
 31
0.0
  0
LINE
  5
FC
330
1F
100
AcDbEntity
  8
躯体
  6
Continuous
 62
     2
370
     9
100
AcDbLine
 10
-576.9841043699183
 20
486.1814161557651
 30
0.0
 11
-594.9205960430215
 21
486.1814161557651
 31
0.0
  0
LINE
  5
FD
330
1F
100
AcDbEntity
  8
躯体
  6
Continuous
 62
     2
370
     9
100
AcDbLine
 10
-595.9523987518066
 20
484.4314161557654
 30
0.0
 11
-595.9523987518066
 21
460.5815292711129
 31
0.0
  0
ARC
  5
FE
330
1F
100
AcDbEntity
  8
躯体
  6
Continuous
 62
     2
370
     9
100
AcDbCircle
 10
-593.9523502064703
 20
484.4314161557654
 30
0.0
 40
2.0
100
AcDbArc
 50
118.95502437186
 51
180.0
  0
ARC
  5
FF
330
1F
100
AcDbEntity
  8
躯体
  6
Continuous
 62
     2
370
     9
100
AcDbCircle
 10
-577.9523502064701
 20
484.4314161557654
 30
0.0
 40
2.0
100
AcDbArc
 50
0.0
 51
61.04497562814005
  0
LINE
  5
100
330
1F
100
AcDbEntity
  8
躯体
  6
JWW_CENTER1
 62
     2
370
     9
100
AcDbLine
 10
-585.9523502064696
 20
490.5792454251155
 30
0.0
 11
-585.9523502064696
 21
463.8021596959365
 31
0.0
  0
LINE
  5
101
330
1F
100
AcDbEntity
  8
躯体
  6
JWW_CENTER1
 62
     2
370
     9
100
AcDbLine
 10
-403.4289246939898
 20
476.1814161557653
 30
0.0
 11
-418.9705911593922
 21
476.1814161557653
 31
0.0
  0
CIRCLE
  5
102
330
1F
100
AcDbEntity
  8
躯体
  6
Continuous
 62
     2
370
     9
100
AcDbCircle
 10
-410.9523502064696
 20
476.1814161557653
 30
0.0
 40
6.5
  0
LINE
  5
103
330
1F
100
AcDbEntity
  8
躯体
  6
Continuous
 62
     2
370
     9
100
AcDbLine
 10
-400.9523016611326
 20
484.4314161557654
 30
0.0
 11
-400.9523016611326
 21
460.5815292711129
 31
0.0
  0
LINE
  5
104
330
1F
100
AcDbEntity
  8
躯体
  6
Continuous
 62
     2
370
     9
100
AcDbLine
 10
-419.9205960430209
 20
486.1814161557651
 30
0.0
 11
-401.9841043699177
 21
486.1814161557651
 31
0.0
  0
LINE
  5
105
330
1F
100
AcDbEntity
  8
躯体
  6
Continuous
 62
     2
370
     9
100
AcDbLine
 10
-420.952398751806
 20
484.4314161557654
 30
0.0
 11
-420.952398751806
 21
460.5815292711129
 31
0.0
  0
ARC
  5
106
330
1F
100
AcDbEntity
  8
躯体
  6
Continuous
 62
     2
370
     9
100
AcDbCircle
 10
-418.9523502064691
 20
484.4314161557654
 30
0.0
 40
2.0
100
AcDbArc
 50
118.95502437186
 51
180.0
  0
ARC
  5
107
330
1F
100
AcDbEntity
  8
躯体
  6
Continuous
 62
     2
370
     9
100
AcDbCircle
 10
-402.9523502064689
 20
484.4314161557654
 30
0.0
 40
2.0
100
AcDbArc
 50
0.0
 51
61.04497562814005
  0
LINE
  5
108
330
1F
100
AcDbEntity
  8
躯体
  6
JWW_CENTER1
 62
     2
370
     9
100
AcDbLine
 10
-410.9523502064696
 20
490.5792454251155
 30
0.0
 11
-410.9523502064696
 21
463.8021596959365
 31
0.0
  0
CIRCLE
  5
109
330
1F
100
AcDbEntity
  8
仕上
  6
Continuous
 62
     3
370
     9
100
AcDbCircle
 10
-638.4522842225173
 20
425.5815622630893
 30
0.0
 40
11.24979215054899
  0
ARC
  5
10A
330
1F
100
AcDbEntity
  8
仕上
  6
Continuous
 62
     3
370
     9
100
AcDbCircle
 10
-636.7522272701184
 20
422.6370902336866
 30
0.0
 40
3.000000038662472
100
AcDbArc
 50
239.9994506835938
 51
0.0000000000000254
  0
ARC
  5
10B
330
1F
100
AcDbEntity
  8
仕上
  6
Continuous
 62
     3
370
     9
100
AcDbCircle
 10
-641.8522094544511
 20
425.5815746350802
 30
0.0
 40
3.000000038662472
100
AcDbArc
 50
120.0005493164062
 51
239.9994506835938
  0
ARC
  5
10C
330
1F
100
AcDbEntity
  8
仕上
  6
Continuous
 62
     3
370
     9
100
AcDbCircle
 10
-636.7522272701184
 20
428.5260095485091
 30
0.0
 40
3.000000038662472
100
AcDbArc
 50
0.0
 51
120.0005493164062
  0
LINE
  5
10D
330
1F
100
AcDbEntity
  8
仕上
  6
Continuous
 62
     3
370
     9
100
AcDbLine
 10
-633.7523905804014
 20
422.6370902336866
 30
0.0
 11
-633.7523905804014
 21
428.5260095485091
 31
0.0
  0
LINE
  5
10E
330
1F
100
AcDbEntity
  8
仕上
  6
Continuous
 62
     3
370
     9
100
AcDbLine
 10
-638.252256962897
 20
420.0390215839822
 30
0.0
 11
-643.3522391472297
 21
422.9835059853758
 31
0.0
  0
LINE
  5
10F
330
1F
100
AcDbEntity
  8
仕上
  6
Continuous
 62
     3
370
     9
100
AcDbLine
 10
-643.3522391472297
 20
428.1796432847847
 30
0.0
 11
-638.252256962897
 21
431.1240781982137
 31
0.0
  0
CIRCLE
  5
110
330
1F
100
AcDbEntity
  8
仕上
  6
Continuous
 62
     3
370
     9
100
AcDbCircle
 10
-638.4523615474621
 20
425.5815746350802
 30
0.0
 40
10.0
  0
ARC
  5
111
330
1F
100
AcDbEntity
  8
仕上
  6
Continuous
 62
     3
370
     9
100
AcDbCircle
 10
-595.9522182385645
 20
443.0814962791362
 30
0.0
 40
2.500000128874908
100
AcDbArc
 50
315.0
 51
90.0
  0
ARC
  5
112
330
1F
100
AcDbEntity
  8
仕上
  6
Continuous
 62
     3
370
     9
100
AcDbCircle
 10
-655.9524161904227
 20
383.0814962791363
 30
0.0
 40
2.500000128874908
100
AcDbArc
 50
180.0
 51
315.0
  0
ARC
  5
113
330
1F
100
AcDbEntity
  8
仕上
  6
Continuous
 62
     3
370
     9
100
AcDbCircle
 10
-656.4524425840034
 20
443.5815226727175
 30
0.0
 40
2.000000025774982
100
AcDbArc
 50
90.0
 51
180.0
  0
CIRCLE
  5
114
330
1F
100
AcDbEntity
  8
仕上
  6
Continuous
 62
     3
370
     9
100
AcDbCircle
 10
-638.452284222517
 20
425.5815622630891
 30
0.0
 40
13.49993937724346
  0
CIRCLE
  5
115
330
1F
100
AcDbEntity
  8
仕上
  6
Continuous
 62
     3
370
     9
100
AcDbCircle
 10
-638.452284222517
 20
425.5815622630891
 30
0.0
 40
11.49997221456992
  0
LINE
  5
116
330
1F
100
AcDbEntity
  8
仕上
  6
Continuous
 62
     3
370
     9
100
AcDbLine
 10
-654.1847060975169
 20
381.3135882343728
 30
0.0
 11
-594.1843101938009
 21
441.3137861862309
 31
0.0
  0
LINE
  5
117
330
1F
100
AcDbEntity
  8
仕上
  6
Continuous
 62
     3
370
     9
100
AcDbLine
 10
-656.4524425840034
 20
445.5814302951837
 30
0.0
 11
-595.9522182385645
 21
445.5814302951837
 31
0.0
  0
LINE
  5
118
330
1F
100
AcDbEntity
  8
仕上
  6
Continuous
 62
     3
370
     9
100
AcDbLine
 10
-658.4523502064695
 20
383.0814962791363
 30
0.0
 11
-658.4523502064695
 21
443.5815226727175
 31
0.0
  0
LINE
  5
119
330
1F
100
AcDbEntity
  8
仕上
  6
JWW_CENTER1
 62
     3
370
     9
100
AcDbLine
 10
-638.452284222517
 20
440.2274263889337
 30
0.0
 11
-638.452284222517
 21
410.2058496363999
 31
0.0
  0
LINE
  5
11A
330
1F
100
AcDbEntity
  8
仕上
  6
JWW_CENTER1
 62
     3
370
     9
100
AcDbLine
 10
-622.5809001431254
 20
425.5815622630891
 30
0.0
 11
-653.4790077233617
 21
425.5815622630891
 31
0.0
  0
LINE
  5
11B
330
1F
100
AcDbEntity
  8
仕上
  6
Continuous
 62
     3
370
     9
100
AcDbLine
 10
-658.4523876170141
 20
445.5815666816574
 30
0.0
 11
-665.4523271120866
 21
452.5815061767291
 31
0.0
  0
LINE
  5
11C
330
1F
100
AcDbEntity
  8
躯体
  6
Continuous
 62
     2
370
     9
100
AcDbLine
 10
-666.4523271120862
 20
453.5815061767294
 30
0.0
 11
-673.4523502064701
 21
460.5815292711127
 31
0.0
  0
LINE
  5
11D
330
1F
100
AcDbEntity
  8
その他
  6
Continuous
 62
     7
370
     9
100
AcDbLine
 10
-727.8153986283809
 20
440.5814053155441
 30
0.0
 11
-686.8153986283818
 21
440.5814053155441
 31
0.0
  0
LINE
  5
11E
330
1F
100
AcDbEntity
  8
その他
  6
Continuous
 62
     7
370
     9
100
AcDbLine
 10
-767.8153986283809
 20
452.5814215758751
 30
0.0
 11
-686.8153986283818
 21
452.5814215758751
 31
0.0
  0
LINE
  5
11F
330
1F
100
AcDbEntity
  8
その他
  6
Continuous
 62
     7
370
     9
100
AcDbLine
 10
-807.8153986283809
 20
460.5815024062174
 30
0.0
 11
-686.8153986283818
 21
460.5815024062174
 31
0.0
  0
LWPOLYLINE
  5
120
330
1F
100
AcDbEntity
  8
その他
  6
Continuous
 62
     7
370
     9
100
AcDbPolyline
 90
        4
 70
     1
 43
1.0
 10
-726.3153986283812
 20
440.5814053155441
 42
0.4142135623731
 10
-726.8153986283812
 20
441.0814053155441
 42
0.4142135623731
 10
-727.3153986283812
 20
440.5814053155441
 42
0.4142135623731
 10
-726.8153986283812
 20
440.0814053155442
 42
0.4142135623731
  0
LWPOLYLINE
  5
121
330
1F
100
AcDbEntity
  8
その他
  6
Continuous
 62
     7
370
     9
100
AcDbPolyline
 90
        4
 70
     1
 43
1.0
 10
-766.3153986283812
 20
452.5814215758751
 42
0.4142135623731
 10
-766.8153986283812
 20
453.0814215758751
 42
0.4142135623731
 10
-767.3153986283812
 20
452.5814215758751
 42
0.4142135623731
 10
-766.8153986283812
 20
452.0814215758752
 42
0.4142135623731
  0
LWPOLYLINE
  5
122
330
1F
100
AcDbEntity
  8
その他
  6
Continuous
 62
     7
370
     9
100
AcDbPolyline
 90
        4
 70
     1
 43
1.0
 10
-806.3153986283812
 20
460.5815024062174
 42
0.4142135623731
 10
-806.8153986283812
 20
461.0815024062174
 42
0.4142135623731
 10
-807.3153986283812
 20
460.5815024062174
 42
0.4142135623731
 10
-806.8153986283812
 20
460.0815024062175
 42
0.4142135623731
  0
LINE
  5
123
330
1F
100
AcDbEntity
  8
その他
  6
Continuous
 62
     7
370
     9
100
AcDbLine
 10
-653.4523337104815
 20
508.9558768706185
 30
0.0
 11
-653.4523337104815
 21
467.9558768706184
 31
0.0
  0
LINE
  5
124
330
1F
100
AcDbEntity
  8
その他
  6
Continuous
 62
     7
370
     9
100
AcDbLine
 10
-665.4522974782219
 20
548.9558768706185
 30
0.0
 11
-665.4522974782219
 21
467.9558768706184
 31
0.0
  0
LINE
  5
125
330
1F
100
AcDbEntity
  8
その他
  6
Continuous
 62
     7
370
     9
100
AcDbLine
 10
-673.4523783085638
 20
588.9558768706186
 30
0.0
 11
-673.4523783085638
 21
467.9558768706184
 31
0.0
  0
LWPOLYLINE
  5
126
330
1F
100
AcDbEntity
  8
その他
  6
Continuous
 62
     7
370
     9
100
AcDbPolyline
 90
        4
 70
     1
 43
1.0
 10
-652.9523337104815
 20
507.9558768706184
 42
0.4142135623731
 10
-653.4523337104815
 20
508.4558768706183
 42
0.4142135623731
 10
-653.9523337104815
 20
507.9558768706184
 42
0.4142135623731
 10
-653.4523337104815
 20
507.4558768706185
 42
0.4142135623731
  0
LWPOLYLINE
  5
127
330
1F
100
AcDbEntity
  8
その他
  6
Continuous
 62
     7
370
     9
100
AcDbPolyline
 90
        4
 70
     1
 43
1.0
 10
-664.9522974782219
 20
547.9558768706183
 42
0.4142135623731
 10
-665.4522974782219
 20
548.4558768706183
 42
0.4142135623731
 10
-665.9522974782219
 20
547.9558768706183
 42
0.4142135623731
 10
-665.4522974782219
 20
547.4558768706185
 42
0.4142135623731
  0
LWPOLYLINE
  5
128
330
1F
100
AcDbEntity
  8
その他
  6
Continuous
 62
     7
370
     9
100
AcDbPolyline
 90
        4
 70
     1
 43
1.0
 10
-672.9523783085638
 20
587.9558768706183
 42
0.4142135623731
 10
-673.4523783085638
 20
588.4558768706183
 42
0.4142135623731
 10
-673.9523783085638
 20
587.9558768706183
 42
0.4142135623731
 10
-673.4523783085638
 20
587.4558768706185
 42
0.4142135623731
  0
LWPOLYLINE
  5
129
330
1F
100
AcDbEntity
  8
その他
  6
Continuous
 62
     7
370
     9
100
AcDbPolyline
 90
        4
 70
     1
 43
1.0
 10
-322.9523001882773
 20
587.9558768706183
 42
0.4142135623731
 10
-323.4523001882773
 20
588.4558768706183
 42
0.4142135623731
 10
-323.9523001882773
 20
587.9558768706183
 42
0.4142135623731
 10
-323.4523001882773
 20
587.4558768706185
 42
0.4142135623731
  0
LWPOLYLINE
  5
12A
330
1F
100
AcDbEntity
  8
その他
  6
Continuous
 62
     7
370
     9
100
AcDbPolyline
 90
        4
 70
     1
 43
1.0
 10
-330.9523810186192
 20
547.9558768706183
 42
0.4142135623731
 10
-331.4523810186191
 20
548.4558768706183
 42
0.4142135623731
 10
-331.9523810186191
 20
547.9558768706183
 42
0.4142135623731
 10
-331.4523810186191
 20
547.4558768706185
 42
0.4142135623731
  0
LWPOLYLINE
  5
12B
330
1F
100
AcDbEntity
  8
その他
  6
Continuous
 62
     7
370
     9
100
AcDbPolyline
 90
        4
 70
     1
 43
1.0
 10
-342.9523972789507
 20
507.9558768706184
 42
0.4142135623731
 10
-343.4523972789507
 20
508.4558768706183
 42
0.4142135623731
 10
-343.9523972789507
 20
507.9558768706184
 42
0.4142135623731
 10
-343.4523972789507
 20
507.4558768706185
 42
0.4142135623731
  0
LINE
  5
12C
330
1F
100
AcDbEntity
  8
その他
  6
Continuous
 62
     7
370
     9
100
AcDbLine
 10
-323.4523001882773
 20
588.9558768706186
 30
0.0
 11
-323.4523001882773
 21
467.9558768706184
 31
0.0
  0
LINE
  5
12D
330
1F
100
AcDbEntity
  8
その他
  6
Continuous
 62
     7
370
     9
100
AcDbLine
 10
-331.4523810186191
 20
548.9558768706185
 30
0.0
 11
-331.4523810186191
 21
467.9558768706184
 31
0.0
  0
LINE
  5
12E
330
1F
100
AcDbEntity
  8
その他
  6
Continuous
 62
     7
370
     9
100
AcDbLine
 10
-343.4523972789507
 20
508.9558768706185
 30
0.0
 11
-343.4523972789507
 21
467.9558768706184
 31
0.0
  0
LINE
  5
12F
330
1F
100
AcDbEntity
  8
躯体
  6
Continuous
 62
     2
370
     9
100
AcDbLine
 10
-330.4523733008535
 20
453.5815061767294
 30
0.0
 11
-323.4523502064699
 21
460.5815292711129
 31
0.0
  0
LINE
  5
130
330
1F
100
AcDbEntity
  8
仕上
  6
Continuous
 62
     3
370
     9
100
AcDbLine
 10
-338.4523127959253
 20
445.5815666816574
 30
0.0
 11
-331.4523733008534
 21
452.5815061767294
 31
0.0
  0
LINE
  5
131
330
1F
100
AcDbEntity
  8
仕上
  6
JWW_CENTER1
 62
     3
370
     9
100
AcDbLine
 10
-374.3238002698144
 20
425.5815622630893
 30
0.0
 11
-343.4256926895782
 21
425.5815622630893
 31
0.0
  0
LINE
  5
132
330
1F
100
AcDbEntity
  8
仕上
  6
JWW_CENTER1
 62
     3
370
     9
100
AcDbLine
 10
-358.4524161904228
 20
440.2274263889336
 30
0.0
 11
-358.4524161904228
 21
410.2058496364
 31
0.0
  0
LINE
  5
133
330
1F
100
AcDbEntity
  8
仕上
  6
Continuous
 62
     3
370
     9
100
AcDbLine
 10
-338.4523502064699
 20
383.0814962791365
 30
0.0
 11
-338.4523502064699
 21
443.5815226727174
 31
0.0
  0
LINE
  5
134
330
1F
100
AcDbEntity
  8
仕上
  6
Continuous
 62
     3
370
     9
100
AcDbLine
 10
-340.4522578289363
 20
445.5814302951836
 30
0.0
 11
-400.9524821743753
 21
445.5814302951836
 31
0.0
  0
LINE
  5
135
330
1F
100
AcDbEntity
  8
仕上
  6
Continuous
 62
     3
370
     9
100
AcDbLine
 10
-342.7199943154228
 20
381.3135882343731
 30
0.0
 11
-402.7203902191389
 21
441.3137861862309
 31
0.0
  0
CIRCLE
  5
136
330
1F
100
AcDbEntity
  8
仕上
  6
Continuous
 62
     3
370
     9
100
AcDbCircle
 10
-358.4524161904228
 20
425.5815622630893
 30
0.0
 40
11.49997221456992
  0
CIRCLE
  5
137
330
1F
100
AcDbEntity
  8
仕上
  6
Continuous
 62
     3
370
     9
100
AcDbCircle
 10
-358.4524161904228
 20
425.5815622630893
 30
0.0
 40
13.49993937724346
  0
ARC
  5
138
330
1F
100
AcDbEntity
  8
仕上
  6
Continuous
 62
     3
370
     9
100
AcDbCircle
 10
-340.4522578289363
 20
443.5815226727174
 30
0.0
 40
2.000000025774982
100
AcDbArc
 50
0.0
 51
90.0
  0
ARC
  5
139
330
1F
100
AcDbEntity
  8
仕上
  6
Continuous
 62
     3
370
     9
100
AcDbCircle
 10
-340.9522842225173
 20
383.0814962791365
 30
0.0
 40
2.500000128874908
100
AcDbArc
 50
225.0
 51
0.0
  0
ARC
  5
13A
330
1F
100
AcDbEntity
  8
仕上
  6
Continuous
 62
     3
370
     9
100
AcDbCircle
 10
-400.9524821743753
 20
443.0814962791363
 30
0.0
 40
2.500000128874908
100
AcDbArc
 50
90.0
 51
225.0
  0
CIRCLE
  5
13B
330
1F
100
AcDbEntity
  8
仕上
  6
Continuous
 62
     3
370
     9
100
AcDbCircle
 10
-358.4524935153676
 20
425.5815746350804
 30
0.0
 40
10.0
  0
LINE
  5
13C
330
1F
100
AcDbEntity
  8
仕上
  6
Continuous
 62
     3
370
     9
100
AcDbLine
 10
-363.3523711151353
 20
428.1796432847848
 30
0.0
 11
-358.2523889308025
 21
431.1240781982139
 31
0.0
  0
LINE
  5
13D
330
1F
100
AcDbEntity
  8
仕上
  6
Continuous
 62
     3
370
     9
100
AcDbLine
 10
-358.2523889308025
 20
420.0390215839823
 30
0.0
 11
-363.3523711151353
 21
422.9835059853759
 31
0.0
  0
LINE
  5
13E
330
1F
100
AcDbEntity
  8
仕上
  6
Continuous
 62
     3
370
     9
100
AcDbLine
 10
-353.7525225483069
 20
422.6370902336868
 30
0.0
 11
-353.7525225483069
 21
428.5260095485094
 31
0.0
  0
ARC
  5
13F
330
1F
100
AcDbEntity
  8
仕上
  6
Continuous
 62
     3
370
     9
100
AcDbCircle
 10
-356.7523592380238
 20
428.5260095485094
 30
0.0
 40
3.000000038662472
100
AcDbArc
 50
0.0
 51
120.0005493164062
  0
ARC
  5
140
330
1F
100
AcDbEntity
  8
仕上
  6
Continuous
 62
     3
370
     9
100
AcDbCircle
 10
-361.8523414223566
 20
425.5815746350804
 30
0.0
 40
3.000000038662472
100
AcDbArc
 50
120.0005493164062
 51
239.9994506835938
  0
ARC
  5
141
330
1F
100
AcDbEntity
  8
仕上
  6
Continuous
 62
     3
370
     9
100
AcDbCircle
 10
-356.7523592380238
 20
422.6370902336868
 30
0.0
 40
3.000000038662472
100
AcDbArc
 50
239.9994506835938
 51
0.0000000000000254
  0
CIRCLE
  5
142
330
1F
100
AcDbEntity
  8
仕上
  6
Continuous
 62
     3
370
     9
100
AcDbCircle
 10
-358.452416190423
 20
425.5815622630894
 30
0.0
 40
11.24979215054899
  0
LWPOLYLINE
  5
143
330
1F
100
AcDbEntity
  8
その他
  6
Continuous
 62
     7
370
     9
100
AcDbPolyline
 90
        4
 70
     1
 43
1.0
 10
-221.3161035613412
 20
460.5815292711129
 42
0.4142135623731
 10
-221.8161035613412
 20
461.0815292711129
 42
0.4142135623731
 10
-222.3161035613412
 20
460.5815292711129
 42
0.4142135623731
 10
-221.8161035613412
 20
460.081529271113
 42
0.4142135623731
  0
LINE
  5
144
330
1F
100
AcDbEntity
  8
その他
  6
Continuous
 62
     7
370
     9
100
AcDbLine
 10
-220.3161035613414
 20
460.5815292711129
 30
0.0
 11
-313.4523502064699
 21
460.5815292711129
 31
0.0
  0
LINE
  5
145
330
1F
100
AcDbEntity
  8
仕上
  6
Continuous
 62
     3
370
     9
100
AcDbLine
 10
-665.452327112086
 20
452.5815061767291
 30
0.0
 11
-331.4523733008534
 21
452.5815061767291
 31
0.0
  0
LINE
  5
146
330
1F
100
AcDbEntity
  8
仕上
  6
Continuous
 62
     3
370
     9
100
AcDbLine
 10
-338.4523127959253
 20
445.5815666816573
 30
0.0
 11
-658.4523876170147
 21
445.5815666816573
 31
0.0
  0
LINE
  5
147
330
1F
100
AcDbEntity
  8
躯体
  6
JWW_DASHED2
 62
     2
370
     9
100
AcDbLine
 10
-653.4523337104815
 20
440.5815127751245
 30
0.0
 11
-343.4523667024582
 21
440.5815127751245
 31
0.0
  0
LINE
  5
148
330
1F
100
AcDbEntity
  8
躯体
  6
Continuous
 62
     2
370
     9
100
AcDbLine
 10
-323.4523502064699
 20
460.5815292711129
 30
0.0
 11
-673.4523502064695
 21
460.5815292711129
 31
0.0
  0
LINE
  5
149
330
1F
100
AcDbEntity
  8
躯体
  6
Continuous
 62
     2
370
     9
100
AcDbLine
 10
-330.4523733008538
 20
453.581506176729
 30
0.0
 11
-666.4523271120862
 21
453.581506176729
 31
0.0
  0
LINE
  5
14A
330
1F
100
AcDbEntity
  8
通り芯
  6
JWW_CENTER1
 62
     7
370
     9
100
AcDbLine
 10
-498.4523502064698
 20
92.2842829183235
 30
0.0
 11
-498.4523502064698
 21
481.4274441743107
 31
0.0
  0
LINE
  5
14B
330
1F
100
AcDbEntity
  8
仕上
  6
Continuous
 62
     3
370
     9
100
AcDbLine
 10
-658.4523876170147
 20
445.5815666816573
 30
0.0
 11
-658.4523876170147
 21
125.581491860568
 31
0.0
  0
LINE
  5
14C
330
1F
100
AcDbEntity
  8
仕上
  6
Continuous
 62
     3
370
     9
100
AcDbLine
 10
-665.452327112086
 20
118.5815523654961
 30
0.0
 11
-665.452327112086
 21
452.5815061767291
 31
0.0
  0
LINE
  5
14D
330
1F
100
AcDbEntity
  8
躯体
  6
JWW_DASHED2
 62
     2
370
     9
100
AcDbLine
 10
-653.4523337104815
 20
130.5815457671006
 30
0.0
 11
-653.4523337104815
 21
440.5815127751245
 31
0.0
  0
LINE
  5
14E
330
1F
100
AcDbEntity
  8
躯体
  6
Continuous
 62
     2
370
     9
100
AcDbLine
 10
-666.4523271120862
 20
453.581506176729
 30
0.0
 11
-666.4523271120862
 21
117.5815523654961
 31
0.0
  0
LINE
  5
14F
330
1F
100
AcDbEntity
  8
躯体
  6
Continuous
 62
     2
370
     9
100
AcDbLine
 10
-673.4523502064695
 20
460.5815292711129
 30
0.0
 11
-673.4523502064695
 21
110.5815292711125
 31
0.0
  0
LINE
  5
150
330
1F
100
AcDbEntity
  8
躯体
  6
Continuous
 62
     2
370
     9
100
AcDbLine
 10
-330.4523733008538
 20
117.5815523654961
 30
0.0
 11
-330.4523733008538
 21
453.581506176729
 31
0.0
  0
LINE
  5
151
330
1F
100
AcDbEntity
  8
躯体
  6
Continuous
 62
     2
370
     9
100
AcDbLine
 10
-323.4523502064699
 20
110.5815292711125
 30
0.0
 11
-323.4523502064699
 21
460.5815292711129
 31
0.0
  0
LINE
  5
152
330
1F
100
AcDbEntity
  8
躯体
  6
JWW_DASHED2
 62
     2
370
     9
100
AcDbLine
 10
-343.4523667024582
 20
440.5815127751245
 30
0.0
 11
-343.4523667024582
 21
130.5815457671006
 31
0.0
  0
LINE
  5
153
330
1F
100
AcDbEntity
  8
仕上
  6
Continuous
 62
     3
370
     9
100
AcDbLine
 10
-338.4523127959253
 20
125.581491860568
 30
0.0
 11
-338.4523127959253
 21
445.5815666816573
 31
0.0
  0
LINE
  5
154
330
1F
100
AcDbEntity
  8
仕上
  6
Continuous
 62
     3
370
     9
100
AcDbLine
 10
-331.4523733008534
 20
452.5815061767291
 30
0.0
 11
-331.4523733008534
 21
118.5815523654961
 31
0.0
  0
TEXT
  5
155
330
1F
100
AcDbEntity
  8
寸法
  6
Continuous
 62
     2
370
     9
100
AcDbText
 10
-597.8021329819737
 20
-29.70721180175243
 30
0.0
 40
15.24
  1
平面図　Ｓ＝１：５
 41
1.111111111111111
  7
ＭＳ ゴシック
100
AcDbText
  0
LINE
  5
156
330
1F
100
AcDbEntity
  8
寸法
  6
Continuous
 62
     7
370
     9
100
AcDbLine
 10
-604.709931130464
 20
-35.74529041503368
 30
0.0
 11
-389.5711503819422
 21
-35.74529041503368
 31
0.0
  0
LINE
  5
157
330
1F
100
AcDbEntity
  8
D-4
  6
Continuous
 62
     7
370
     9
100
AcDbLine
 10
-748.9108759687872
 20
-309.8760643972182
 30
0.0
 11
-600.2957525049569
 21
-309.8760643972182
 31
0.0
  0
LWPOLYLINE
  5
158
330
1F
100
AcDbEntity
  8
D-4
  6
Continuous
 62
     7
370
     9
100
AcDbPolyline
 90
        4
 70
     1
 43
1.0
 10
-747.410875968787
 20
-309.8760643972182
 42
0.4142135623731
 10
-747.910875968787
 20
-309.3760643972182
 42
0.4142135623731
 10
-748.410875968787
 20
-309.8760643972182
 42
0.4142135623731
 10
-747.910875968787
 20
-310.3760643972182
 42
0.4142135623731
  0
LINE
  5
159
330
1F
100
AcDbEntity
  8
D-4
  6
Continuous
 62
     7
370
     9
100
AcDbLine
 10
-711.4108759687872
 20
-289.8759734323892
 30
0.0
 11
-682.910875968787
 21
-289.8759734323892
 31
0.0
  0
LWPOLYLINE
  5
15A
330
1F
100
AcDbEntity
  8
D-4
  6
Continuous
 62
     7
370
     9
100
AcDbPolyline
 90
        4
 70
     1
 43
1.0
 10
-709.910875968787
 20
-289.8759734323892
 42
0.4142135623731
 10
-710.410875968787
 20
-289.3759734323892
 42
0.4142135623731
 10
-710.910875968787
 20
-289.8759734323892
 42
0.4142135623731
 10
-710.410875968787
 20
-290.3759734323892
 42
0.4142135623731
  0
TEXT
  5
15B
330
1F
100
AcDbEntity
  8
D-5
  6
Continuous
 62
     2
370
     9
100
AcDbText
 10
-714.5315671336934
 20
-431.7471205049245
 30
0.0
 40
15.24
  1
※アンカーは施工時に現場にて折り曲げて下さい
 41
1.119318181818182
  7
ＭＳ ゴシック
100
AcDbText
  0
TEXT
  5
15C
330
1F
100
AcDbEntity
  8
D-4
  6
Continuous
 62
     2
370
   211
100
AcDbText
 10
-445.3656411570372
 20
-269.1111257610277
 30
0.0
 40
15.24
  1
29
 50
90.0
 41
1.0625
  7
ＭＳ ゴシック
100
AcDbText
  0
ARC
  5
15D
330
1F
100
AcDbEntity
  8
D-5
  6
Continuous
 62
     7
370
     9
100
AcDbCircle
 10
-557.9655850506941
 20
-281.7543652545976
 30
0.0
 40
75.27291033046588
100
AcDbArc
 50
286.177364524971
 51
339.498438833033
  0
LINE
  5
15E
330
1F
100
AcDbEntity
  8
D-5
  6
Continuous
 62
     7
370
     9
100
AcDbLine
 10
-487.460261641487
 20
-308.1174151650584
 30
0.0
 11
-489.6735562282794
 21
-325.5676081390763
 31
0.0
  0
LINE
  5
15F
330
1F
100
AcDbEntity
  8
D-5
  6
Continuous
 62
     7
370
     9
100
AcDbLine
 10
-487.460261641487
 20
-308.1174151650586
 30
0.0
 11
-498.5757501472369
 21
-321.0250878994259
 31
0.0
  0
LINE
  5
160
330
1F
100
AcDbEntity
  8
D-5
  6
Continuous
 62
     7
370
     9
100
AcDbLine
 10
-305.7225973437954
 20
-396.9029956470696
 30
0.0
 11
-264.8839845714217
 21
-396.9029956470696
 31
0.0
  0
LWPOLYLINE
  5
161
330
1F
100
AcDbEntity
  8
D-4
  6
Continuous
 62
     7
370
     9
100
AcDbPolyline
 90
        4
 70
     1
 43
1.0
 10
-709.910875968787
 20
-222.3759734323892
 42
0.4142135623731
 10
-710.410875968787
 20
-221.8759734323892
 42
0.4142135623731
 10
-710.910875968787
 20
-222.3759734323892
 42
0.4142135623731
 10
-710.410875968787
 20
-222.8759734323892
 42
0.4142135623731
  0
LWPOLYLINE
  5
162
330
1F
100
AcDbEntity
  8
D-4
  6
Continuous
 62
     7
370
     9
100
AcDbPolyline
 90
        4
 70
     1
 43
1.0
 10
-747.410875968787
 20
-222.3759734323892
 42
0.4142135623731
 10
-747.910875968787
 20
-221.8759734323892
 42
0.4142135623731
 10
-748.410875968787
 20
-222.3759734323892
 42
0.4142135623731
 10
-747.910875968787
 20
-222.8759734323892
 42
0.4142135623731
  0
LINE
  5
163
330
1F
100
AcDbEntity
  8
D-4
  6
Continuous
 62
     7
370
     9
100
AcDbLine
 10
-748.9108759687872
 20
-222.3759734323892
 30
0.0
 11
-682.910875968787
 21
-222.3759734323892
 31
0.0
  0
LINE
  5
164
330
1F
100
AcDbEntity
  8
D-4
  6
Continuous
 62
     7
370
     9
100
AcDbLine
 10
-440.0456411570372
 20
-222.375953311938
 30
0.0
 11
-440.0456411570372
 21
-294.5962982101174
 31
0.0
  0
LWPOLYLINE
  5
165
330
1F
100
AcDbEntity
  8
D-4
  6
Continuous
 62
     7
370
     9
100
AcDbPolyline
 90
        4
 70
     1
 43
1.0
 10
-439.5456411570373
 20
-222.375953311938
 42
0.4142135623731
 10
-440.0456411570372
 20
-221.875953311938
 42
0.4142135623731
 10
-440.5456411570372
 20
-222.375953311938
 42
0.4142135623731
 10
-440.0456411570372
 20
-222.8759533119381
 42
0.4142135623731
  0
LWPOLYLINE
  5
166
330
1F
100
AcDbEntity
  8
D-4
  6
Continuous
 62
     7
370
     9
100
AcDbPolyline
 90
        4
 70
     1
 43
1.0
 10
-439.5456411570373
 20
-294.5962982101174
 42
0.4142135623731
 10
-440.0456411570372
 20
-294.0962982101174
 42
0.4142135623731
 10
-440.5456411570372
 20
-294.5962982101174
 42
0.4142135623731
 10
-440.0456411570372
 20
-295.0962982101175
 42
0.4142135623731
  0
LINE
  5
167
330
1F
100
AcDbEntity
  8
D-4
  6
Continuous
 62
     7
370
     9
100
AcDbLine
 10
-439.0456411570372
 20
-222.375953311938
 30
0.0
 11
-532.7957318849722
 21
-222.375953311938
 31
0.0
  0
LINE
  5
168
330
1F
100
AcDbEntity
  8
D-4
  6
Continuous
 62
     7
370
     9
100
AcDbLine
 10
-439.0456411570372
 20
-294.5962982101174
 30
0.0
 11
-467.5456411570372
 21
-294.5962982101174
 31
0.0
  0
LINE
  5
169
330
1F
100
AcDbEntity
  8
D-5
  6
Continuous
 62
     7
370
     9
100
AcDbLine
 10
-534.9286159640506
 20
-290.5962982101173
 30
0.0
 11
-529.7050802695844
 21
-279.2400367280696
 31
0.0
  0
LINE
  5
16A
330
1F
100
AcDbEntity
  8
D-5
  6
Continuous
 62
     7
370
     9
100
AcDbLine
 10
-534.9286159640506
 20
-290.5962982101173
 30
0.0
 11
-526.943851179505
 21
-280.9789424750163
 31
0.0
  0
TEXT
  5
16B
330
1F
100
AcDbEntity
  8
D-5
  6
Continuous
 62
     7
370
     9
100
AcDbText
 10
-460.1869508242704
 20
-172.4879186948506
 30
0.0
 40
11.43
  1
アンカー（ＳＧＨＣ）
 41
1.15
  7
ＭＳ ゴシック
100
AcDbText
  0
LINE
  5
16C
330
1F
100
AcDbEntity
  8
D-5
  6
Continuous
 62
     7
370
     9
100
AcDbLine
 10
-534.9286159640506
 20
-290.5962982101173
 30
0.0
 11
-463.5468208210823
 21
-177.2482978386428
 31
0.0
  0
LINE
  5
16D
330
1F
100
AcDbEntity
  8
D-5
  6
Continuous
 62
     7
370
     9
100
AcDbLine
 10
-463.5468208210823
 20
-177.2482978386428
 30
0.0
 11
-292.7035705323574
 21
-177.2482978386428
 31
0.0
  0
LINE
  5
16E
330
1F
100
AcDbEntity
  8
D-5
  6
Continuous
 62
     7
370
     9
100
AcDbLine
 10
-337.8853443002248
 20
-349.9982130232942
 30
0.0
 11
-305.7225973437954
 21
-396.9029956470696
 31
0.0
  0
LINE
  5
16F
330
1F
100
AcDbEntity
  8
D-5
  6
Continuous
 62
     7
370
     9
100
AcDbLine
 10
-337.8853443002248
 20
-349.9982130232942
 30
0.0
 11
-333.2735286903062
 21
-359.0734608075025
 31
0.0
  0
LINE
  5
170
330
1F
100
AcDbEntity
  8
D-5
  6
Continuous
 62
     7
370
     9
100
AcDbLine
 10
-337.8853443002248
 20
-349.9982130232942
 30
0.0
 11
-331.161270436387
 21
-357.4821804805169
 31
0.0
  0
TEXT
  5
171
330
1F
100
AcDbEntity
  8
D-5
  6
Continuous
 62
     7
370
     9
100
AcDbText
 10
-301.5532909576085
 20
-390.8377613383498
 30
0.0
 40
11.43
  1
φ13
 41
1.125
  7
ＭＳ ゴシック
100
AcDbText
  0
LINE
  5
172
330
1F
100
AcDbEntity
  8
D-1
  6
JWW_CENTER1
 62
     2
370
     9
100
AcDbLine
 10
-347.0750765781725
 20
-218.9025172208614
 30
0.0
 11
-347.0750765781725
 21
-366.6857930139005
 31
0.0
  0
LINE
  5
173
330
1F
100
AcDbEntity
  8
D-1
  6
Continuous
 62
     2
370
     9
100
AcDbLine
 10
-372.0750765781725
 20
-297.8462982101175
 30
0.0
 11
-372.0750765781725
 21
-357.2212982101175
 31
0.0
  0
LINE
  5
174
330
1F
100
AcDbEntity
  8
D-1
  6
Continuous
 62
     2
370
     9
100
AcDbLine
 10
-322.0750765781722
 20
-297.8462982101175
 30
0.0
 11
-322.0750765781722
 21
-357.2212982101175
 31
0.0
  0
LINE
  5
175
330
1F
100
AcDbEntity
  8
D-1
  6
Continuous
 62
     2
370
     9
100
AcDbLine
 10
-556.5454898051084
 20
-308.6260644548955
 30
0.0
 11
-556.5454898051084
 21
-362.3759986918711
 31
0.0
  0
LINE
  5
176
330
1F
100
AcDbEntity
  8
D-1
  6
Continuous
 62
     2
370
     9
100
AcDbLine
 10
-556.5454898051084
 20
-362.3759986918711
 30
0.0
 11
-552.5456411570372
 21
-362.3759986918711
 31
0.0
  0
LINE
  5
177
330
1F
100
AcDbEntity
  8
D-1
  6
Continuous
 62
     2
370
     9
100
AcDbLine
 10
-552.5456411570372
 20
-362.3759986918711
 30
0.0
 11
-552.5456411570372
 21
-224.8759986918711
 31
0.0
  0
LINE
  5
178
330
1F
100
AcDbEntity
  8
D-1
  6
Continuous
 62
     2
370
     9
100
AcDbLine
 10
-556.5456411570372
 20
-292.8462982101175
 30
0.0
 11
-552.5456411570372
 21
-292.8462982101175
 31
0.0
  0
LINE
  5
179
330
1F
100
AcDbEntity
  8
D-1
  6
Continuous
 62
     2
370
     9
100
AcDbLine
 10
-556.5456411570372
 20
-280.3462982101173
 30
0.0
 11
-552.5456411570372
 21
-280.3462982101173
 31
0.0
  0
ARC
  5
17A
330
1F
100
AcDbEntity
  8
D-1
  6
JWW_PHANTOM1
 62
     2
370
     9
100
AcDbCircle
 10
-548.5456411570372
 20
-286.5962982101175
 30
0.0
 40
8.0
100
AcDbArc
 50
180.0
 51
270.0
  0
ARC
  5
17B
330
1F
100
AcDbEntity
  8
D-1
  6
JWW_PHANTOM1
 62
     2
370
     9
100
AcDbCircle
 10
-548.5456411570372
 20
-286.5962982101175
 30
0.0
 40
4.0
100
AcDbArc
 50
180.0
 51
270.0
  0
LINE
  5
17C
330
1F
100
AcDbEntity
  8
D-1
  6
JWW_PHANTOM1
 62
     2
370
     9
100
AcDbLine
 10
-548.5456411570372
 20
-294.5962982101174
 30
0.0
 11
-477.5456411570372
 21
-294.5962982101174
 31
0.0
  0
LINE
  5
17D
330
1F
100
AcDbEntity
  8
D-1
  6
JWW_PHANTOM1
 62
     2
370
     9
100
AcDbLine
 10
-548.5456411570372
 20
-290.5962982101174
 30
0.0
 11
-477.5456411570372
 21
-290.5962982101174
 31
0.0
  0
LINE
  5
17E
330
1F
100
AcDbEntity
  8
D-1
  6
JWW_PHANTOM1
 62
     2
370
     9
100
AcDbLine
 10
-477.5456411570372
 20
-294.5962982101174
 30
0.0
 11
-477.5456411570372
 21
-290.5962982101174
 31
0.0
  0
ARC
  5
17F
330
1F
100
AcDbEntity
  8
D-1
  6
JWW_DASHED2
 62
     2
370
     9
100
AcDbCircle
 10
-327.0750765781725
 20
-229.2509986918712
 30
0.0
 40
5.0
100
AcDbArc
 50
0.0000000000000254
 51
61.04497562814005
  0
CIRCLE
  5
180
330
1F
100
AcDbEntity
  8
D-1
  6
Continuous
 62
     2
370
     9
100
AcDbCircle
 10
-359.575117818143
 20
-267.3760399318418
 30
0.0
 40
2.500000032218727
  0
CIRCLE
  5
181
330
1F
100
AcDbEntity
  8
D-1
  6
Continuous
 62
     2
370
     9
100
AcDbCircle
 10
-359.575117818143
 20
-267.3760399318418
 30
0.0
 40
3.125000161093634
  0
CIRCLE
  5
182
330
1F
100
AcDbEntity
  8
D-1
  6
Continuous
 62
     2
370
     9
100
AcDbCircle
 10
-347.0750765781725
 20
-254.8759986918712
 30
0.0
 40
2.500000032218727
  0
CIRCLE
  5
183
330
1F
100
AcDbEntity
  8
D-1
  6
Continuous
 62
     2
370
     9
100
AcDbCircle
 10
-347.0750765781725
 20
-254.8759986918712
 30
0.0
 40
3.125000161093634
  0
CIRCLE
  5
184
330
1F
100
AcDbEntity
  8
D-1
  6
Continuous
 62
     2
370
     9
100
AcDbCircle
 10
-334.5750971981577
 20
-267.3760399318418
 30
0.0
 40
2.500000032218727
  0
CIRCLE
  5
185
330
1F
100
AcDbEntity
  8
D-1
  6
Continuous
 62
     2
370
     9
100
AcDbCircle
 10
-334.5750971981577
 20
-267.3760399318418
 30
0.0
 40
3.125000161093634
  0
LINE
  5
186
330
1F
100
AcDbEntity
  8
D-1
  6
Continuous
 62
     2
370
     9
100
AcDbLine
 10
-359.5750765781722
 20
-286.5962982101175
 30
0.0
 11
-334.5750765781725
 21
-286.5962982101175
 31
0.0
  0
ARC
  5
187
330
1F
100
AcDbEntity
  8
D-1
  6
Continuous
 62
     2
370
     9
100
AcDbCircle
 10
-367.0750765781725
 20
-357.2212982101175
 30
0.0
 40
5.0
100
AcDbArc
 50
180.0
 51
241.04497562814
  0
LINE
  5
188
330
1F
100
AcDbEntity
  8
D-1
  6
Continuous
 62
     2
370
     9
100
AcDbLine
 10
-369.4956911695522
 20
-361.5962982101175
 30
0.0
 11
-324.654461986793
 21
-361.5962982101175
 31
0.0
  0
ARC
  5
189
330
1F
100
AcDbEntity
  8
D-1
  6
Continuous
 62
     2
370
     9
100
AcDbCircle
 10
-327.0750765781725
 20
-357.2212982101175
 30
0.0
 40
5.0
100
AcDbArc
 50
298.95502437186
 51
0.0
  0
LINE
  5
18A
330
1F
100
AcDbEntity
  8
D-1
  6
JWW_DASHED2
 62
     2
370
     9
100
AcDbLine
 10
-372.0750765781725
 20
-229.2509986918712
 30
0.0
 11
-372.0750765781725
 21
-234.87603411406
 31
0.0
  0
ARC
  5
18B
330
1F
100
AcDbEntity
  8
D-1
  6
JWW_DASHED2
 62
     2
370
     9
100
AcDbCircle
 10
-367.0750765781725
 20
-229.2509986918712
 30
0.0
 40
5.0
100
AcDbArc
 50
118.95502437186
 51
180.0
  0
LINE
  5
18C
330
1F
100
AcDbEntity
  8
D-1
  6
JWW_DASHED2
 62
     2
370
     9
100
AcDbLine
 10
-369.4956911695522
 20
-224.8759986918712
 30
0.0
 11
-324.654461986793
 21
-224.8759986918712
 31
0.0
  0
LINE
  5
18D
330
1F
100
AcDbEntity
  8
D-1
  6
JWW_DASHED2
 62
     2
370
     9
100
AcDbLine
 10
-322.0750765781722
 20
-229.2509986918712
 30
0.0
 11
-322.0750765781722
 21
-234.87603411406
 31
0.0
  0
LINE
  5
18E
330
1F
100
AcDbEntity
  8
D-1
  6
Continuous
 62
     2
370
     9
100
AcDbLine
 10
-372.0750765781725
 20
-275.3462982101175
 30
0.0
 11
-372.0750765781725
 21
-234.87603411406
 31
0.0
  0
ARC
  5
18F
330
1F
100
AcDbEntity
  8
D-1
  6
Continuous
 62
     2
370
     9
100
AcDbCircle
 10
-367.0750765781725
 20
-275.3462982101175
 30
0.0
 40
5.0
100
AcDbArc
 50
180.0
 51
270.0
  0
ARC
  5
190
330
1F
100
AcDbEntity
  8
D-1
  6
Continuous
 62
     2
370
     9
100
AcDbCircle
 10
-367.0750765781725
 20
-297.8462982101175
 30
0.0
 40
5.0
100
AcDbArc
 50
90.0
 51
180.0
  0
LINE
  5
191
330
1F
100
AcDbEntity
  8
D-1
  6
Continuous
 62
     2
370
     9
100
AcDbLine
 10
-322.0750765781722
 20
-275.3462982101175
 30
0.0
 11
-322.0750765781722
 21
-234.87603411406
 31
0.0
  0
ARC
  5
192
330
1F
100
AcDbEntity
  8
D-1
  6
Continuous
 62
     2
370
     9
100
AcDbCircle
 10
-327.0750765781722
 20
-275.3462982101175
 30
0.0
 40
5.0
100
AcDbArc
 50
270.0
 51
0.0
  0
ARC
  5
193
330
1F
100
AcDbEntity
  8
D-1
  6
Continuous
 62
     2
370
     9
100
AcDbCircle
 10
-327.0750765781722
 20
-297.8462982101175
 30
0.0
 40
5.0
100
AcDbArc
 50
0.0
 51
90.0
  0
LINE
  5
194
330
1F
100
AcDbEntity
  8
D-1
  6
Continuous
 62
     2
370
     9
100
AcDbLine
 10
-362.0750765781722
 20
-280.3462982101175
 30
0.0
 11
-367.0750765781725
 21
-280.3462982101175
 31
0.0
  0
ARC
  5
195
330
1F
100
AcDbEntity
  8
D-1
  6
Continuous
 62
     2
370
     9
100
AcDbCircle
 10
-362.0750765781722
 20
-282.8462982101175
 30
0.0
 40
2.5
100
AcDbArc
 50
0.0
 51
90.00000000000001
  0
LINE
  5
196
330
1F
100
AcDbEntity
  8
D-1
  6
Continuous
 62
     2
370
     9
100
AcDbLine
 10
-359.5750765781722
 20
-290.3462982101175
 30
0.0
 11
-359.5750765781722
 21
-282.8462982101175
 31
0.0
  0
LINE
  5
197
330
1F
100
AcDbEntity
  8
D-1
  6
Continuous
 62
     2
370
     9
100
AcDbLine
 10
-362.0750765781722
 20
-292.8462982101175
 30
0.0
 11
-367.0750765781725
 21
-292.8462982101175
 31
0.0
  0
ARC
  5
198
330
1F
100
AcDbEntity
  8
D-1
  6
Continuous
 62
     2
370
     9
100
AcDbCircle
 10
-362.0750765781722
 20
-290.3462982101175
 30
0.0
 40
2.5
100
AcDbArc
 50
270.0
 51
0.0
  0
LINE
  5
199
330
1F
100
AcDbEntity
  8
D-1
  6
Continuous
 62
     2
370
     9
100
AcDbLine
 10
-332.0750765781725
 20
-292.8462982101175
 30
0.0
 11
-327.0750765781722
 21
-292.8462982101175
 31
0.0
  0
ARC
  5
19A
330
1F
100
AcDbEntity
  8
D-1
  6
Continuous
 62
     2
370
     9
100
AcDbCircle
 10
-332.0750765781725
 20
-290.3462982101175
 30
0.0
 40
2.5
100
AcDbArc
 50
180.0
 51
270.0
  0
LINE
  5
19B
330
1F
100
AcDbEntity
  8
D-1
  6
Continuous
 62
     2
370
     9
100
AcDbLine
 10
-334.5750765781725
 20
-282.8462982101175
 30
0.0
 11
-334.5750765781725
 21
-290.3462982101175
 31
0.0
  0
LINE
  5
19C
330
1F
100
AcDbEntity
  8
D-1
  6
Continuous
 62
     2
370
     9
100
AcDbLine
 10
-332.0750765781725
 20
-280.3462982101175
 30
0.0
 11
-327.0750765781722
 21
-280.3462982101175
 31
0.0
  0
ARC
  5
19D
330
1F
100
AcDbEntity
  8
D-1
  6
Continuous
 62
     2
370
     9
100
AcDbCircle
 10
-332.0750765781725
 20
-282.8462982101175
 30
0.0
 40
2.5
100
AcDbArc
 50
90.0
 51
180.0
  0
CIRCLE
  5
19E
330
1F
100
AcDbEntity
  8
D-1
  6
Continuous
 62
     2
370
     9
100
AcDbCircle
 10
-347.0750765781725
 20
-336.5962982101175
 30
0.0
 40
16.25
  0
LINE
  5
19F
330
1F
100
AcDbEntity
  8
D-1
  6
JWW_CENTER1
 62
     2
370
     9
100
AcDbLine
 10
-368.2494872624989
 20
-336.5962982101175
 30
0.0
 11
-325.8791953267806
 21
-336.5962982101175
 31
0.0
  0
ARC
  5
1A0
330
1F
100
AcDbEntity
  8
D-1
  6
Continuous
 62
     2
370
     9
100
AcDbCircle
 10
-575.2954697165885
 20
-294.1260360582301
 30
0.0
 40
13.74997488780371
100
AcDbArc
 50
161.9955596923828
 51
180.0
  0
ARC
  5
1A1
330
1F
100
AcDbEntity
  8
D-1
  6
Continuous
 62
     2
370
     9
100
AcDbCircle
 10
-575.2954697165885
 20
-294.1260360582301
 30
0.0
 40
13.74997488780371
100
AcDbArc
 50
0.0
 51
18.00444030761719
  0
LINE
  5
1A2
330
1F
100
AcDbEntity
  8
D-1
  6
Continuous
 62
     2
370
     9
100
AcDbLine
 10
-589.0453789886535
 20
-297.3759835950963
 30
0.0
 11
-589.0453789886535
 21
-294.1260360582301
 31
0.0
  0
LINE
  5
1A3
330
1F
100
AcDbEntity
  8
D-1
  6
Continuous
 62
     2
370
     9
100
AcDbLine
 10
-582.170424352621
 20
-305.3759856865519
 30
0.0
 11
-582.170424352621
 21
-307.3759534015466
 31
0.0
  0
LINE
  5
1A4
330
1F
100
AcDbEntity
  8
D-1
  6
Continuous
 62
     2
370
     9
100
AcDbLine
 10
-568.4205150805556
 20
-305.3759856865519
 30
0.0
 11
-568.4205150805556
 21
-307.3759534015466
 31
0.0
  0
LINE
  5
1A5
330
1F
100
AcDbEntity
  8
D-1
  6
Continuous
 62
     2
370
     9
100
AcDbLine
 10
-589.0453789886535
 20
-305.3759856865519
 30
0.0
 11
-561.5455604445233
 21
-305.3759856865519
 31
0.0
  0
LINE
  5
1A6
330
1F
100
AcDbEntity
  8
D-1
  6
Continuous
 62
     2
370
     9
100
AcDbLine
 10
-561.5455604445233
 20
-305.3759856865519
 30
0.0
 11
-561.5455604445233
 21
-294.1260360582301
 31
0.0
  0
LINE
  5
1A7
330
1F
100
AcDbEntity
  8
D-1
  6
Continuous
 62
     2
370
     9
100
AcDbLine
 10
-575.1862851274236
 20
-305.3759856865519
 30
0.0
 11
-561.7245601796449
 21
-291.9139982758188
 31
0.0
  0
LINE
  5
1A8
330
1F
100
AcDbEntity
  8
D-1
  6
Continuous
 62
     2
370
     9
100
AcDbLine
 10
-589.0406546554684
 20
-293.7743356989003
 30
0.0
 11
-585.1425548519123
 21
-289.8759734323892
 31
0.0
  0
LINE
  5
1A9
330
1F
100
AcDbEntity
  8
D-1
  6
Continuous
 62
     2
370
     9
100
AcDbLine
 10
-589.0453789886535
 20
-296.961029663678
 30
0.0
 11
-581.9604539888422
 21
-289.8759734323892
 31
0.0
  0
LINE
  5
1AA
330
1F
100
AcDbEntity
  8
D-1
  6
Continuous
 62
     2
370
     9
100
AcDbLine
 10
-589.0453789886535
 20
-300.1429992952708
 30
0.0
 11
-578.7783531257719
 21
-289.8759734323892
 31
0.0
  0
LINE
  5
1AB
330
1F
100
AcDbEntity
  8
D-1
  6
Continuous
 62
     2
370
     9
100
AcDbLine
 10
-589.0453789886535
 20
-303.3249689268635
 30
0.0
 11
-575.5962522627019
 21
-289.8759734323892
 31
0.0
  0
LINE
  5
1AC
330
1F
100
AcDbEntity
  8
D-1
  6
Continuous
 62
     2
370
     9
100
AcDbLine
 10
-587.9141636537943
 20
-305.3759856865519
 30
0.0
 11
-572.4141513996315
 21
-289.8759734323892
 31
0.0
  0
LINE
  5
1AD
330
1F
100
AcDbEntity
  8
D-1
  6
Continuous
 62
     2
370
     9
100
AcDbLine
 10
-584.7325877166336
 20
-305.3759856865519
 30
0.0
 11
-569.232575462471
 21
-289.8759734323892
 31
0.0
  0
LINE
  5
1AE
330
1F
100
AcDbEntity
  8
D-1
  6
Continuous
 62
     2
370
     9
100
AcDbLine
 10
-581.5504868535638
 20
-305.3759856865519
 30
0.0
 11
-566.050474599401
 21
-289.8759734323892
 31
0.0
  0
LINE
  5
1AF
330
1F
100
AcDbEntity
  8
D-1
  6
Continuous
 62
     2
370
     9
100
AcDbLine
 10
-578.3683859904934
 20
-305.3759856865519
 30
0.0
 11
-562.8683737363306
 21
-289.8759734323892
 31
0.0
  0
LINE
  5
1B0
330
1F
100
AcDbEntity
  8
D-1
  6
Continuous
 62
     2
370
     9
100
AcDbLine
 10
-572.0047091902629
 20
-305.3759856865519
 30
0.0
 11
-561.5450355186141
 21
-294.9165744778578
 31
0.0
  0
LINE
  5
1B1
330
1F
100
AcDbEntity
  8
D-1
  6
Continuous
 62
     2
370
     9
100
AcDbLine
 10
-568.8226083271925
 20
-305.3759856865519
 30
0.0
 11
-561.5450355186141
 21
-298.098675340928
 31
0.0
  0
LINE
  5
1B2
330
1F
100
AcDbEntity
  8
D-1
  6
Continuous
 62
     2
370
     9
100
AcDbLine
 10
-565.6405074641227
 20
-305.3759856865519
 30
0.0
 11
-561.5450355186141
 21
-301.2805137410433
 31
0.0
  0
LINE
  5
1B3
330
1F
100
AcDbEntity
  8
D-1
  6
Continuous
 62
     2
370
     9
100
AcDbLine
 10
-562.4584066010525
 20
-305.3759856865519
 30
0.0
 11
-561.5450355186141
 21
-304.4626146041135
 31
0.0
  0
LINE
  5
1B4
330
1F
100
AcDbEntity
  8
D-1
  6
Continuous
 62
     2
370
     9
100
AcDbLine
 10
-590.3152039032761
 20
-309.8759130452896
 30
0.0
 11
-557.795489747431
 21
-309.8759130452896
 31
0.0
  0
ARC
  5
1B5
330
1F
100
AcDbEntity
  8
D-1
  6
Continuous
 62
     2
370
     9
100
AcDbCircle
 10
-590.2957525049569
 20
-308.6260644548955
 30
0.0
 40
1.249999942322725
100
AcDbArc
 50
180.0
 51
270.0
  0
ARC
  5
1B6
330
1F
100
AcDbEntity
  8
D-1
  6
Continuous
 62
     2
370
     9
100
AcDbCircle
 10
-557.795489747431
 20
-308.6260644548955
 30
0.0
 40
1.249999942322725
100
AcDbArc
 50
270.0
 51
0.0
  0
LINE
  5
1B7
330
1F
100
AcDbEntity
  8
D-1
  6
Continuous
 62
     2
370
     9
100
AcDbLine
 10
-591.5456010953515
 20
-308.6260644548955
 30
0.0
 11
-591.5456010953515
 21
-297.3759835950963
 31
0.0
  0
LINE
  5
1B8
330
1F
100
AcDbEntity
  8
D-1
  6
Continuous
 62
     2
370
     9
100
AcDbLine
 10
-556.5456411570372
 20
-308.6260644548955
 30
0.0
 11
-556.5456411570372
 21
-224.8759986918711
 31
0.0
  0
LINE
  5
1B9
330
1F
100
AcDbEntity
  8
D-1
  6
Continuous
 62
     2
370
     9
100
AcDbLine
 10
-559.0453383378256
 20
-223.6259532542607
 30
0.0
 11
-559.0453383378256
 21
-307.3759534015466
 31
0.0
  0
LINE
  5
1BA
330
1F
100
AcDbEntity
  8
D-1
  6
Continuous
 62
     2
370
     9
100
AcDbLine
 10
-589.0453789886535
 20
-307.3759534015466
 30
0.0
 11
-559.0453383378256
 21
-307.3759534015466
 31
0.0
  0
LINE
  5
1BB
330
1F
100
AcDbEntity
  8
D-1
  6
Continuous
 62
     2
370
     9
100
AcDbLine
 10
-589.0453789886535
 20
-297.3759835950963
 30
0.0
 11
-589.0453789886535
 21
-307.3759534015466
 31
0.0
  0
LINE
  5
1BC
330
1F
100
AcDbEntity
  8
D-1
  6
Continuous
 62
     2
370
     9
100
AcDbLine
 10
-591.5456010953515
 20
-297.3759835950963
 30
0.0
 11
-589.0453789886535
 21
-297.3759835950963
 31
0.0
  0
LINE
  5
1BD
330
1F
100
AcDbEntity
  8
D-1
  6
Continuous
 62
     2
370
     9
100
AcDbLine
 10
-556.5456411570372
 20
-224.8759986918711
 30
0.0
 11
-544.0455804753665
 21
-224.8759986918711
 31
0.0
  0
LINE
  5
1BE
330
1F
100
AcDbEntity
  8
D-1
  6
Continuous
 62
     2
370
     9
100
AcDbLine
 10
-544.0455804753665
 20
-224.8759986918711
 30
0.0
 11
-544.0455804753665
 21
-234.87603411406
 31
0.0
  0
LINE
  5
1BF
330
1F
100
AcDbEntity
  8
D-1
  6
Continuous
 62
     2
370
     9
100
AcDbLine
 10
-544.0455804753665
 20
-234.87603411406
 30
0.0
 11
-541.5453583686681
 21
-234.87603411406
 31
0.0
  0
LINE
  5
1C0
330
1F
100
AcDbEntity
  8
D-1
  6
Continuous
 62
     2
370
     9
100
AcDbLine
 10
-541.5453583686681
 20
-223.6259532542607
 30
0.0
 11
-541.5453583686681
 21
-234.87603411406
 31
0.0
  0
LINE
  5
1C1
330
1F
100
AcDbEntity
  8
D-1
  6
Continuous
 62
     2
370
     9
100
AcDbLine
 10
-557.795489747431
 20
-222.3759734323892
 30
0.0
 11
-542.7957318849722
 21
-222.3759734323892
 31
0.0
  0
ARC
  5
1C2
330
1F
100
AcDbEntity
  8
D-1
  6
Continuous
 62
     2
370
     9
100
AcDbCircle
 10
-542.7957318849722
 20
-223.6259532542607
 30
0.0
 40
1.249999942322725
100
AcDbArc
 50
0.0
 51
90.0
  0
ARC
  5
1C3
330
1F
100
AcDbEntity
  8
D-1
  6
Continuous
 62
     2
370
     9
100
AcDbCircle
 10
-557.795489747431
 20
-223.6259532542607
 30
0.0
 40
1.249999942322725
100
AcDbArc
 50
90.0
 51
180.0
  0
LINE
  5
1C4
330
1F
100
AcDbEntity
  8
D-1
  6
Continuous
 62
     2
370
     9
100
AcDbLine
 10
-406.1923175431457
 20
-222.3759734323892
 30
0.0
 11
-287.957835613199
 21
-222.3759734323892
 31
0.0
  0
LINE
  5
1C5
330
1F
100
AcDbEntity
  8
D-1
  6
Continuous
 62
     2
370
     9
100
AcDbLine
 10
-406.1923175431457
 20
-234.87603411406
 30
0.0
 11
-287.957835613199
 21
-234.87603411406
 31
0.0
  0
LINE
  5
1C6
330
1F
100
AcDbEntity
  8
D-1
  6
Continuous
 62
     2
370
     9
100
AcDbLine
 10
-322.0750765781722
 20
-309.8760643972182
 30
0.0
 11
-287.957835613199
 21
-309.8760643972182
 31
0.0
  0
LINE
  5
1C7
330
1F
100
AcDbEntity
  8
D-1
  6
Continuous
 62
     2
370
     9
100
AcDbLine
 10
-406.1923175431457
 20
-309.8760643972182
 30
0.0
 11
-372.0750765781725
 21
-309.8760643972182
 31
0.0
  0
LINE
  5
1C8
330
1F
100
AcDbEntity
  8
D-2
  6
Continuous
 62
     3
370
     9
100
AcDbLine
 10
-672.910875968787
 20
-289.8759734323892
 30
0.0
 11
-562.7954090349178
 21
-289.8759734323892
 31
0.0
  0
LINE
  5
1C9
330
1F
100
AcDbEntity
  8
D-2
  6
Continuous
 62
     3
370
     9
100
AcDbLine
 10
-672.910875968787
 20
-287.3759734323893
 30
0.0
 11
-564.0452576253117
 21
-287.3759734323893
 31
0.0
  0
LINE
  5
1CA
330
1F
100
AcDbEntity
  8
D-2
  6
Continuous
 62
     3
370
     9
100
AcDbLine
 10
-564.0452576253117
 20
-224.8759986918711
 30
0.0
 11
-564.0452576253117
 21
-287.3759734323893
 31
0.0
  0
ARC
  5
1CB
330
1F
100
AcDbEntity
  8
D-2
  6
Continuous
 62
     3
370
     9
100
AcDbCircle
 10
-562.7954090349178
 20
-288.6259936105176
 30
0.0
 40
1.249999942322725
100
AcDbArc
 50
270.0
 51
0.0
  0
LINE
  5
1CC
330
1F
100
AcDbEntity
  8
D-2
  6
Continuous
 62
     3
370
     9
100
AcDbLine
 10
-561.5455604445233
 20
-288.6259936105176
 30
0.0
 11
-561.5455604445233
 21
-223.6259532542607
 31
0.0
  0
LINE
  5
1CD
330
1F
100
AcDbEntity
  8
D-2
  6
Continuous
 62
     3
370
     9
100
AcDbLine
 10
-564.0452576253117
 20
-224.8759986918711
 30
0.0
 11
-576.5453183069826
 21
-224.8759986918711
 31
0.0
  0
LINE
  5
1CE
330
1F
100
AcDbEntity
  8
D-2
  6
Continuous
 62
     3
370
     9
100
AcDbLine
 10
-576.5453183069826
 20
-224.8759986918711
 30
0.0
 11
-576.5453183069826
 21
-234.87603411406
 31
0.0
  0
LINE
  5
1CF
330
1F
100
AcDbEntity
  8
D-2
  6
Continuous
 62
     3
370
     9
100
AcDbLine
 10
-579.0455404136808
 20
-223.6259532542607
 30
0.0
 11
-579.0455404136808
 21
-234.87603411406
 31
0.0
  0
ARC
  5
1D0
330
1F
100
AcDbEntity
  8
D-2
  6
Continuous
 62
     3
370
     9
100
AcDbCircle
 10
-577.7956918232862
 20
-223.6259532542607
 30
0.0
 40
1.249999942322725
100
AcDbArc
 50
90.0
 51
180.0
  0
ARC
  5
1D1
330
1F
100
AcDbEntity
  8
D-2
  6
Continuous
 62
     3
370
     9
100
AcDbCircle
 10
-562.7954090349178
 20
-223.6259532542607
 30
0.0
 40
1.249999942322725
100
AcDbArc
 50
0.0
 51
90.0
  0
LINE
  5
1D2
330
1F
100
AcDbEntity
  8
D-2
  6
Continuous
 62
     3
370
     9
100
AcDbLine
 10
-672.910875968787
 20
-222.3759734323892
 30
0.0
 11
-562.7954090349178
 21
-222.3759734323892
 31
0.0
  0
LINE
  5
1D3
330
1F
100
AcDbEntity
  8
D-2
  6
Continuous
 62
     3
370
     9
100
AcDbLine
 10
-576.5453183069826
 20
-234.87603411406
 30
0.0
 11
-672.910875968787
 21
-234.87603411406
 31
0.0
  0
TEXT
  5
1D4
330
1F
100
AcDbEntity
  8
D-4
  6
Continuous
 62
     2
370
     9
100
AcDbText
 10
-594.6732204478268
 20
-462.7960673169072
 30
0.0
 40
15.24
  1
アンカー詳細図　Ｓ＝１：２
 41
1.115384615384615
  7
ＭＳ ゴシック
100
AcDbText
  0
LINE
  5
1D5
330
1F
100
AcDbEntity
  8
D-4
  6
Continuous
 62
     7
370
     9
100
AcDbLine
 10
-606.0931951099891
 20
-474.4923523543861
 30
0.0
 11
-287.5990491283678
 21
-474.4923523543861
 31
0.0
  0
LINE
  5
1D6
330
1F
100
AcDbEntity
  8
D-4
  6
Continuous
 62
     7
370
     9
100
AcDbLine
 10
102.1431134829693
 20
-459.9257226737678
 30
0.0
 11
386.6235640873825
 21
-459.9257226737678
 31
0.0
  0
TEXT
  5
1D7
330
1F
100
AcDbEntity
  8
D-4
  6
Continuous
 62
     2
370
     9
100
AcDbText
 10
113.5630881451316
 20
-448.229437636289
 30
0.0
 40
15.24
  1
把手部詳細図　Ｓ＝１：２
 41
1.114583333333334
  7
ＭＳ ゴシック
100
AcDbText
  0
LINE
  5
1D8
330
1F
100
AcDbEntity
  8
D-1
  6
Continuous
 62
     2
370
     9
100
AcDbLine
 10
102.1061582602476
 20
-360.2131170263497
 30
0.0
 11
84.60617829109083
 21
-377.7133594584615
 31
0.0
  0
LINE
  5
1D9
330
1F
100
AcDbEntity
  8
D-1
  6
Continuous
 62
     2
370
     9
100
AcDbLine
 10
84.60617829109083
 20
-377.7133594584615
 30
0.0
 11
372.0383894837477
 21
-377.7133594584615
 31
0.0
  0
LINE
  5
1DA
330
1F
100
AcDbEntity
  8
D-1
  6
Continuous
 62
     2
370
     9
100
AcDbLine
 10
372.0383894837477
 20
-360.2131653862302
 30
0.0
 11
102.1061582602476
 21
-360.2131170263497
 31
0.0
  0
LINE
  5
1DB
330
1F
100
AcDbEntity
  8
D-1
  6
JWW_DASHED3
 62
     2
370
     9
100
AcDbLine
 10
372.0383894837477
 20
-327.713379194733
 30
0.0
 11
134.6062897862964
 21
-327.713379194733
 31
0.0
  0
LINE
  5
1DC
330
1F
100
AcDbEntity
  8
D-4
  6
Continuous
 62
     7
370
     9
100
AcDbLine
 10
444.9507254942449
 20
-377.7133594584615
 30
0.0
 11
444.9507254942449
 21
-360.2131653862302
 31
0.0
  0
LWPOLYLINE
  5
1DD
330
1F
100
AcDbEntity
  8
D-4
  6
Continuous
 62
     7
370
     9
100
AcDbPolyline
 90
        4
 70
     1
 43
1.0
 10
445.4507254942449
 20
-377.7133594584615
 42
0.4142135623731
 10
444.9507254942449
 20
-377.2133594584616
 42
0.4142135623731
 10
444.4507254942449
 20
-377.7133594584615
 42
0.4142135623731
 10
444.9507254942449
 20
-378.2133594584615
 42
0.4142135623731
  0
LWPOLYLINE
  5
1DE
330
1F
100
AcDbEntity
  8
D-4
  6
Continuous
 62
     7
370
     9
100
AcDbPolyline
 90
        4
 70
     1
 43
1.0
 10
445.4507254942449
 20
-360.2131653862302
 42
0.4142135623731
 10
444.9507254942449
 20
-359.7131653862302
 42
0.4142135623731
 10
444.4507254942449
 20
-360.2131653862302
 42
0.4142135623731
 10
444.9507254942449
 20
-360.7131653862302
 42
0.4142135623731
  0
LINE
  5
1DF
330
1F
100
AcDbEntity
  8
D-4
  6
Continuous
 62
     7
370
     9
100
AcDbLine
 10
445.9507254942451
 20
-377.7133594584615
 30
0.0
 11
382.0383894837477
 21
-377.7133594584615
 31
0.0
  0
LINE
  5
1E0
330
1F
100
AcDbEntity
  8
D-4
  6
Continuous
 62
     7
370
     9
100
AcDbLine
 10
445.9507254942451
 20
-360.2131653862302
 30
0.0
 11
382.0383894837477
 21
-360.2131653862302
 31
0.0
  0
TEXT
  5
1E1
330
1F
100
AcDbEntity
  8
D-4
  6
Continuous
 62
     2
370
   211
100
AcDbText
 10
439.6307254942449
 20
-373.9632624223458
 30
0.0
 40
15.24
  1
7
 50
90.0
 41
0.9999999999999998
  7
ＭＳ ゴシック
100
AcDbText
  0
LINE
  5
1E2
330
1F
100
AcDbEntity
  8
D-4
  6
Continuous
 62
     7
370
     9
100
AcDbLine
 10
444.9507254942449
 20
-360.2131653862302
 30
0.0
 11
444.9507254942449
 21
-357.7131814206219
 31
0.0
  0
LWPOLYLINE
  5
1E3
330
1F
100
AcDbEntity
  8
D-4
  6
Continuous
 62
     7
370
     9
100
AcDbPolyline
 90
        4
 70
     1
 43
1.0
 10
445.4507254942449
 20
-357.7131814206219
 42
0.4142135623731
 10
444.9507254942449
 20
-357.2131814206219
 42
0.4142135623731
 10
444.4507254942449
 20
-357.7131814206219
 42
0.4142135623731
 10
444.9507254942449
 20
-358.2131814206219
 42
0.4142135623731
  0
LINE
  5
1E4
330
1F
100
AcDbEntity
  8
D-4
  6
Continuous
 62
     7
370
     9
100
AcDbLine
 10
445.9507254942451
 20
-357.7131814206219
 30
0.0
 11
382.0383894837477
 21
-357.7131814206219
 31
0.0
  0
LINE
  5
1E5
330
1F
100
AcDbEntity
  8
D-4
  6
Continuous
 62
     7
370
     9
100
AcDbLine
 10
444.9507254942449
 20
-357.7131814206219
 30
0.0
 11
444.9507254942449
 21
-340.2132004302584
 31
0.0
  0
LWPOLYLINE
  5
1E6
330
1F
100
AcDbEntity
  8
D-4
  6
Continuous
 62
     7
370
     9
100
AcDbPolyline
 90
        4
 70
     1
 43
1.0
 10
445.4507254942449
 20
-340.2132004302584
 42
0.4142135623731
 10
444.9507254942449
 20
-339.7132004302585
 42
0.4142135623731
 10
444.4507254942449
 20
-340.2132004302584
 42
0.4142135623731
 10
444.9507254942449
 20
-340.7132004302584
 42
0.4142135623731
  0
LINE
  5
1E7
330
1F
100
AcDbEntity
  8
D-4
  6
Continuous
 62
     7
370
     9
100
AcDbLine
 10
445.9507254942451
 20
-340.2132004302584
 30
0.0
 11
382.0383894837477
 21
-340.2132004302584
 31
0.0
  0
TEXT
  5
1E8
330
1F
100
AcDbEntity
  8
D-4
  6
Continuous
 62
     2
370
   211
100
AcDbText
 10
439.6307254942449
 20
-353.9631909254402
 30
0.0
 40
15.24
  1
7
 50
90.0
 41
0.9999999999999998
  7
ＭＳ ゴシック
100
AcDbText
  0
LINE
  5
1E9
330
1F
100
AcDbEntity
  8
D-4
  6
Continuous
 62
     7
370
     9
100
AcDbLine
 10
444.9507254942449
 20
-340.2132004302584
 30
0.0
 11
444.9507254942449
 21
-177.7132004302592
 31
0.0
  0
LWPOLYLINE
  5
1EA
330
1F
100
AcDbEntity
  8
D-4
  6
Continuous
 62
     7
370
     9
100
AcDbPolyline
 90
        4
 70
     1
 43
1.0
 10
445.4507254942449
 20
-177.7132004302592
 42
0.4142135623731
 10
444.9507254942449
 20
-177.2132004302591
 42
0.4142135623731
 10
444.4507254942449
 20
-177.7132004302592
 42
0.4142135623731
 10
444.9507254942449
 20
-178.2132004302592
 42
0.4142135623731
  0
TEXT
  5
1EB
330
1F
100
AcDbEntity
  8
D-4
  6
Continuous
 62
     2
370
   211
100
AcDbText
 10
439.6307254942449
 20
-269.5882004302589
 30
0.0
 40
15.24
  1
65
 50
90.0
 41
1.0625
  7
ＭＳ ゴシック
100
AcDbText
  0
LINE
  5
1EC
330
1F
100
AcDbEntity
  8
D-4
  6
Continuous
 62
     7
370
     9
100
AcDbLine
 10
445.9507254942451
 20
-177.7132004302592
 30
0.0
 11
149.7901735947997
 21
-177.7132004302592
 31
0.0
  0
LINE
  5
1ED
330
1F
100
AcDbEntity
  8
D-1
  6
Continuous
 62
     2
370
     9
100
AcDbLine
 10
84.60617829109083
 20
-377.7133594584615
 30
0.0
 11
84.60617829109083
 21
-111.366019891589
 31
0.0
  0
LINE
  5
1EE
330
1F
100
AcDbEntity
  8
D-1
  6
Continuous
 62
     2
370
     9
100
AcDbLine
 10
102.1062474249675
 20
-111.366019891589
 30
0.0
 11
102.1061582602476
 21
-360.2131170263497
 31
0.0
  0
LINE
  5
1EF
330
1F
100
AcDbEntity
  8
D-1
  6
JWW_DASHED3
 62
     2
370
     9
100
AcDbLine
 10
134.6062897862964
 20
-327.713379194733
 30
0.0
 11
134.6062897862964
 21
-111.366019891589
 31
0.0
  0
LINE
  5
1F0
330
1F
100
AcDbEntity
  8
D-4
  6
Continuous
 62
     7
370
     9
100
AcDbLine
 10
84.60617829109083
 20
-65.78170297457639
 30
0.0
 11
102.1062474249675
 21
-65.78170297457639
 31
0.0
  0
LWPOLYLINE
  5
1F1
330
1F
100
AcDbEntity
  8
D-4
  6
Continuous
 62
     7
370
     9
100
AcDbPolyline
 90
        4
 70
     1
 43
1.0
 10
85.10617829109083
 20
-65.78170297457639
 42
0.4142135623731
 10
84.60617829109083
 20
-65.28170297457639
 42
0.4142135623731
 10
84.10617829109083
 20
-65.78170297457639
 42
0.4142135623731
 10
84.60617829109083
 20
-66.28170297457639
 42
0.4142135623731
  0
LWPOLYLINE
  5
1F2
330
1F
100
AcDbEntity
  8
D-4
  6
Continuous
 62
     7
370
     9
100
AcDbPolyline
 90
        4
 70
     1
 43
1.0
 10
102.6062474249675
 20
-65.78170297457639
 42
0.4142135623731
 10
102.1062474249675
 20
-65.28170297457639
 42
0.4142135623731
 10
101.6062474249675
 20
-65.78170297457639
 42
0.4142135623731
 10
102.1062474249675
 20
-66.28170297457639
 42
0.4142135623731
  0
LINE
  5
1F3
330
1F
100
AcDbEntity
  8
D-4
  6
Continuous
 62
     7
370
     9
100
AcDbLine
 10
84.60617829109083
 20
-64.78170297457645
 30
0.0
 11
84.60617829109083
 21
-101.366019891589
 31
0.0
  0
LINE
  5
1F4
330
1F
100
AcDbEntity
  8
D-4
  6
Continuous
 62
     7
370
     9
100
AcDbLine
 10
102.1062474249675
 20
-64.78170297457645
 30
0.0
 11
102.1062474249675
 21
-101.366019891589
 31
0.0
  0
LINE
  5
1F5
330
1F
100
AcDbEntity
  8
D-4
  6
Continuous
 62
     7
370
     9
100
AcDbLine
 10
102.1062474249675
 20
-65.78170297457639
 30
0.0
 11
104.6063803669458
 21
-65.78170297457639
 31
0.0
  0
LWPOLYLINE
  5
1F6
330
1F
100
AcDbEntity
  8
D-4
  6
Continuous
 62
     7
370
     9
100
AcDbPolyline
 90
        4
 70
     1
 43
1.0
 10
105.1063803669458
 20
-65.78170297457639
 42
0.4142135623731
 10
104.6063803669458
 20
-65.28170297457639
 42
0.4142135623731
 10
104.1063803669458
 20
-65.78170297457639
 42
0.4142135623731
 10
104.6063803669458
 20
-66.28170297457639
 42
0.4142135623731
  0
LINE
  5
1F7
330
1F
100
AcDbEntity
  8
D-4
  6
Continuous
 62
     7
370
     9
100
AcDbLine
 10
104.6063803669458
 20
-64.78170297457645
 30
0.0
 11
104.6063803669458
 21
-101.366019891589
 31
0.0
  0
TEXT
  5
1F8
330
1F
100
AcDbEntity
  8
D-4
  6
Continuous
 62
     2
370
   211
100
AcDbText
 10
98.35631389595648
 20
-60.46170297457639
 30
0.0
 40
15.24
  1
1
 41
0.9999999999999998
  7
ＭＳ ゴシック
100
AcDbText
  0
LINE
  5
1F9
330
1F
100
AcDbEntity
  8
D-4
  6
Continuous
 62
     7
370
     9
100
AcDbLine
 10
104.6063803669458
 20
-65.78170297457639
 30
0.0
 11
122.1063814111625
 21
-65.78170297457639
 31
0.0
  0
LWPOLYLINE
  5
1FA
330
1F
100
AcDbEntity
  8
D-4
  6
Continuous
 62
     7
370
     9
100
AcDbPolyline
 90
        4
 70
     1
 43
1.0
 10
122.6063814111625
 20
-65.78170297457639
 42
0.4142135623731
 10
122.1063814111625
 20
-65.28170297457639
 42
0.4142135623731
 10
121.6063814111625
 20
-65.78170297457639
 42
0.4142135623731
 10
122.1063814111625
 20
-66.28170297457639
 42
0.4142135623731
  0
LINE
  5
1FB
330
1F
100
AcDbEntity
  8
D-4
  6
Continuous
 62
     7
370
     9
100
AcDbLine
 10
122.1063814111625
 20
-64.78170297457645
 30
0.0
 11
122.1063814111625
 21
-101.366019891589
 31
0.0
  0
LINE
  5
1FC
330
1F
100
AcDbEntity
  8
D-4
  6
Continuous
 62
     7
370
     9
100
AcDbLine
 10
122.1063814111625
 20
-65.78170297457639
 30
0.0
 11
284.6063814111619
 21
-65.78170297457639
 31
0.0
  0
LWPOLYLINE
  5
1FD
330
1F
100
AcDbEntity
  8
D-4
  6
Continuous
 62
     7
370
     9
100
AcDbPolyline
 90
        4
 70
     1
 43
1.0
 10
285.1063814111619
 20
-65.78170297457639
 42
0.4142135623731
 10
284.6063814111619
 20
-65.28170297457639
 42
0.4142135623731
 10
284.1063814111619
 20
-65.78170297457639
 42
0.4142135623731
 10
284.6063814111619
 20
-66.28170297457639
 42
0.4142135623731
  0
TEXT
  5
1FE
330
1F
100
AcDbEntity
  8
D-4
  6
Continuous
 62
     2
370
   211
100
AcDbText
 10
192.7313814111622
 20
-60.46170297457639
 30
0.0
 40
15.24
  1
65
 41
1.0625
  7
ＭＳ ゴシック
100
AcDbText
  0
TEXT
  5
1FF
330
1F
100
AcDbEntity
  8
D-4
  6
Continuous
 62
     2
370
   211
100
AcDbText
 10
80.99351951567911
 20
-59.80096701888815
 30
0.0
 40
15.24
  1
7
 41
0.9999999999999998
  7
ＭＳ ゴシック
100
AcDbText
  0
TEXT
  5
200
330
1F
100
AcDbEntity
  8
D-4
  6
Continuous
 62
     2
370
   211
100
AcDbText
 10
115.1812100661465
 20
-60.71263876690058
 30
0.0
 40
15.24
  1
7
 41
0.9999999999999998
  7
ＭＳ ゴシック
100
AcDbText
  0
TEXT
  5
201
330
1F
100
AcDbEntity
  8
D-4
  6
Continuous
 62
     2
370
   211
100
AcDbText
 10
465.247948945729
 20
-365.4107115478738
 30
0.0
 40
15.24
  1
1
 50
90.0
 41
0.9999999999999998
  7
ＭＳ ゴシック
100
AcDbText
  0
LINE
  5
202
330
1F
100
AcDbEntity
  8
D-4
  6
Continuous
 62
     7
370
     9
100
AcDbLine
 10
328.2402255132422
 20
-357.7131774838421
 30
0.0
 11
328.2402255132422
 21
-290.2130659182433
 31
0.0
  0
LWPOLYLINE
  5
203
330
1F
100
AcDbEntity
  8
D-4
  6
Continuous
 62
     7
370
     9
100
AcDbPolyline
 90
        4
 70
     1
 43
1.0
 10
328.7402255132422
 20
-357.7131774838421
 42
0.4142135623731
 10
328.2402255132422
 20
-357.2131774838422
 42
0.4142135623731
 10
327.7402255132422
 20
-357.7131774838421
 42
0.4142135623731
 10
328.2402255132422
 20
-358.2131774838421
 42
0.4142135623731
  0
LWPOLYLINE
  5
204
330
1F
100
AcDbEntity
  8
D-4
  6
Continuous
 62
     7
370
     9
100
AcDbPolyline
 90
        4
 70
     1
 43
1.0
 10
328.7402255132422
 20
-290.2130659182433
 42
0.4142135623731
 10
328.2402255132422
 20
-289.7130659182433
 42
0.4142135623731
 10
327.7402255132422
 20
-290.2130659182433
 42
0.4142135623731
 10
328.2402255132422
 20
-290.7130659182433
 42
0.4142135623731
  0
LINE
  5
205
330
1F
100
AcDbEntity
  8
D-4
  6
Continuous
 62
     7
370
     9
100
AcDbLine
 10
329.2402255132421
 20
-290.2130659182433
 30
0.0
 11
215.8559249713502
 21
-290.2130659182433
 31
0.0
  0
LINE
  5
206
330
1F
100
AcDbEntity
  8
D-4
  6
Continuous
 62
     7
370
     9
100
AcDbLine
 10
104.6063803669458
 20
-142.7930903893121
 30
0.0
 11
172.1059469053995
 21
-142.7930903893121
 31
0.0
  0
LWPOLYLINE
  5
207
330
1F
100
AcDbEntity
  8
D-4
  6
Continuous
 62
     7
370
     9
100
AcDbPolyline
 90
        4
 70
     1
 43
1.0
 10
105.1063803669458
 20
-142.7930903893121
 42
0.4142135623731
 10
104.6063803669458
 20
-142.2930903893121
 42
0.4142135623731
 10
104.1063803669458
 20
-142.7930903893121
 42
0.4142135623731
 10
104.6063803669458
 20
-143.2930903893121
 42
0.4142135623731
  0
LWPOLYLINE
  5
208
330
1F
100
AcDbEntity
  8
D-4
  6
Continuous
 62
     7
370
     9
100
AcDbPolyline
 90
        4
 70
     1
 43
1.0
 10
172.6059469053995
 20
-142.7930903893121
 42
0.4142135623731
 10
172.1059469053995
 20
-142.2930903893121
 42
0.4142135623731
 10
171.6059469053995
 20
-142.7930903893121
 42
0.4142135623731
 10
172.1059469053995
 20
-143.2930903893121
 42
0.4142135623731
  0
LINE
  5
209
330
1F
100
AcDbEntity
  8
D-4
  6
Continuous
 62
     7
370
     9
100
AcDbLine
 10
172.1059469053995
 20
-141.793090389312
 30
0.0
 11
172.1059469053995
 21
-246.4632190840248
 31
0.0
  0
TEXT
  5
20A
330
1F
100
AcDbEntity
  8
D-4
  6
Continuous
 62
     2
370
   211
100
AcDbText
 10
137.6618690754222
 20
-138.3928386775557
 30
0.0
 40
15.24
  1
27
 41
1.0625
  7
ＭＳ ゴシック
100
AcDbText
  0
TEXT
  5
20B
330
1F
100
AcDbEntity
  8
D-4
  6
Continuous
 62
     2
370
   211
100
AcDbText
 10
324.4720744861884
 20
-326.4183392954042
 30
0.0
 40
15.24
  1
27
 50
90.0
 41
1.0625
  7
ＭＳ ゴシック
100
AcDbText
  0
LINE
  5
20C
330
1F
100
AcDbEntity
  8
D-4
  6
Continuous
 62
     7
370
     9
100
AcDbLine
 10
284.6063814111619
 20
-64.78170297457645
 30
0.0
 11
284.6063814111619
 21
-311.7287052918444
 31
0.0
  0
LINE
  5
20D
330
1F
100
AcDbEntity
  8
D-2
  6
JWW_CENTER2
 62
     3
370
     9
100
AcDbLine
 10
172.1059469053995
 20
-250.5344413490243
 30
0.0
 11
172.1059469053995
 21
-327.7799135537555
 31
0.0
  0
LINE
  5
20E
330
1F
100
AcDbEntity
  8
D-2
  6
Continuous
 62
     3
370
     9
100
AcDbLine
 10
261.4993857380395
 20
-340.2133086449266
 30
0.0
 11
127.1064108550667
 21
-340.2133086449266
 31
0.0
  0
LINE
  5
20F
330
1F
100
AcDbEntity
  8
D-2
  6
Continuous
 62
     3
370
     9
100
AcDbLine
 10
282.7756826997614
 20
-329.5439270724535
 30
0.0
 11
132.7757419085759
 21
-179.543198892404
 31
0.0
  0
LINE
  5
210
330
1F
100
AcDbEntity
  8
D-2
  6
Continuous
 62
     3
370
     9
100
AcDbLine
 10
122.1063603361031
 20
-335.2133893574402
 30
0.0
 11
122.1063603361031
 21
-183.9628125869964
 31
0.0
  0
CIRCLE
  5
211
330
1F
100
AcDbEntity
  8
D-2
  6
Continuous
 62
     3
370
     9
100
AcDbCircle
 10
172.1062093683543
 20
-290.2131971497209
 30
0.0
 40
28.12448037637247
  0
CIRCLE
  5
212
330
1F
100
AcDbEntity
  8
D-2
  6
Continuous
 62
     3
370
     9
100
AcDbCircle
 10
172.1060781368766
 20
-290.2130659182433
 30
0.0
 40
28.74992959747903
  0
CIRCLE
  5
213
330
1F
100
AcDbEntity
  8
D-2
  6
Continuous
 62
     3
370
     9
100
AcDbCircle
 10
172.1060781368766
 20
-290.2130659182433
 30
0.0
 40
33.74984683447362
  0
ARC
  5
214
330
1F
100
AcDbEntity
  8
D-2
  6
Continuous
 62
     3
370
     9
100
AcDbCircle
 10
127.1064108550667
 20
-335.2133893574402
 30
0.0
 40
4.999999769290903
100
AcDbArc
 50
180.0
 51
270.0
  0
ARC
  5
215
330
1F
100
AcDbEntity
  8
D-2
  6
Continuous
 62
     3
370
     9
100
AcDbCircle
 10
128.3563906769385
 20
-183.9628125869964
 30
0.0
 40
6.249999583457888
100
AcDbArc
 50
45.0
 51
180.0
  0
LINE
  5
216
330
1F
100
AcDbEntity
  8
D-2
  6
Continuous
 62
     3
370
     9
100
AcDbLine
 10
123.5706411605065
 20
-338.7488965890457
 30
0.0
 11
104.6063803669458
 21
-357.7131573826063
 31
0.0
  0
LINE
  5
217
330
1F
100
AcDbEntity
  8
D-2
  6
Continuous
 62
     3
370
     9
100
AcDbLine
 10
278.3563314681237
 20
-340.2133086449266
 30
0.0
 11
261.4993857380395
 21
-340.2133086449266
 31
0.0
  0
ARC
  5
218
330
1F
100
AcDbEntity
  8
D-2
  6
Continuous
 62
     3
370
     9
100
AcDbCircle
 10
278.3563314681237
 20
-333.9632783040913
 30
0.0
 40
6.249999583457888
100
AcDbArc
 50
270.0
 51
45.0
  0
LINE
  5
219
330
1F
100
AcDbEntity
  8
D-2
  6
Continuous
 62
     3
370
     9
100
AcDbLine
 10
104.6063803669458
 20
-357.7131573826063
 30
0.0
 11
372.0383894837477
 21
-357.7131814206219
 31
0.0
  0
LINE
  5
21A
330
1F
100
AcDbEntity
  8
D-2
  6
Continuous
 62
     3
370
     9
100
AcDbLine
 10
372.0383894837477
 20
-340.2132004302584
 30
0.0
 11
122.1063603361031
 21
-340.2131774134492
 31
0.0
  0
LINE
  5
21B
330
1F
100
AcDbEntity
  8
D-2
  6
JWW_CENTER2
 62
     3
370
     9
100
AcDbLine
 10
135.4913148696249
 20
-290.2130659182433
 30
0.0
 11
210.5452214024132
 21
-290.2130659182433
 31
0.0
  0
LINE
  5
21C
330
1F
100
AcDbEntity
  8
D-2
  6
Continuous
 62
     3
370
     9
100
AcDbLine
 10
122.1063814111625
 20
-111.366019891589
 30
0.0
 11
122.1063603361031
 21
-340.2131774134492
 31
0.0
  0
LINE
  5
21D
330
1F
100
AcDbEntity
  8
D-2
  6
Continuous
 62
     3
370
     9
100
AcDbLine
 10
104.6063803669458
 20
-357.7131573826063
 30
0.0
 11
104.6063803669458
 21
-111.366019891589
 31
0.0
  0
CIRCLE
  5
21E
330
1F
100
AcDbEntity
  8
D-2
  6
Continuous
 62
     3
370
     9
100
AcDbCircle
 10
172.1057535930381
 20
-290.2130349882655
 30
0.0
 40
25.0
  0
LINE
  5
21F
330
1F
100
AcDbEntity
  8
D-2
  6
Continuous
 62
     3
370
     9
100
AcDbLine
 10
159.8560595936189
 20
-283.7178633640045
 30
0.0
 11
172.6060150544509
 21
-276.3567760804318
 31
0.0
  0
LINE
  5
220
330
1F
100
AcDbEntity
  8
D-2
  6
Continuous
 62
     3
370
     9
100
AcDbLine
 10
172.6060150544509
 20
-304.0694176160105
 30
0.0
 11
159.8560595936189
 21
-296.7082066125266
 31
0.0
  0
LINE
  5
221
330
1F
100
AcDbEntity
  8
D-2
  6
Continuous
 62
     3
370
     9
100
AcDbLine
 10
183.8556810106898
 20
-297.5742459917495
 30
0.0
 11
183.8556810106898
 21
-282.8519477046929
 31
0.0
  0
ARC
  5
222
330
1F
100
AcDbEntity
  8
D-2
  6
Continuous
 62
     3
370
     9
100
AcDbCircle
 10
176.3560892863975
 20
-282.8519477046929
 30
0.0
 40
7.50000009665618
100
AcDbArc
 50
0.0
 51
120.0005493164062
  0
ARC
  5
223
330
1F
100
AcDbEntity
  8
D-2
  6
Continuous
 62
     3
370
     9
100
AcDbCircle
 10
163.6061338255655
 20
-290.2130349882655
 30
0.0
 40
7.50000009665618
100
AcDbArc
 50
120.0005493164062
 51
239.9994506835938
  0
ARC
  5
224
330
1F
100
AcDbEntity
  8
D-2
  6
Continuous
 62
     3
370
     9
100
AcDbCircle
 10
176.3560892863975
 20
-297.5742459917495
 30
0.0
 40
7.50000009665618
100
AcDbArc
 50
239.9994506835938
 51
0.0000000000000254
  0
TEXT
  5
225
330
1F
100
AcDbEntity
  8
D-5
  6
Continuous
 62
     2
370
     9
100
AcDbText
 10
222.6767658382754
 20
87.94910356770421
 30
0.0
 40
15.24
  1
断面詳細図　Ｓ＝１：２
 41
1.113636363636364
  7
ＭＳ ゴシック
100
AcDbText
  0
LINE
  5
226
330
1F
100
AcDbEntity
  8
D-5
  6
Continuous
 62
     7
370
     9
100
AcDbLine
 10
216.2522457497737
 20
81.91102495442297
 30
0.0
 11
474.1012859267773
 21
81.91102495442297
 31
0.0
  0
LWPOLYLINE
  5
227
330
1F
100
AcDbEntity
  8
D-6
  6
Continuous
 62
     6
370
     9
100
AcDbPolyline
 90
        4
 70
     1
 43
1.0
 10
780.7848903586556
 20
321.1761366292579
 42
0.4142135623731
 10
780.2848903586556
 20
321.6761366292579
 42
0.4142135623731
 10
779.7848903586556
 20
321.1761366292579
 42
0.4142135623731
 10
780.2848903586556
 20
320.6761366292579
 42
0.4142135623731
  0
LWPOLYLINE
  5
228
330
1F
100
AcDbEntity
  8
D-6
  6
Continuous
 62
     6
370
     9
100
AcDbPolyline
 90
        4
 70
     1
 43
1.0
 10
814.9268683322781
 20
321.8203248929112
 42
0.4142135623731
 10
814.4268683322781
 20
322.3203248929111
 42
0.4142135623731
 10
813.9268683322781
 20
321.8203248929112
 42
0.4142135623731
 10
814.4268683322781
 20
321.3203248929112
 42
0.4142135623731
  0
LWPOLYLINE
  5
229
330
1F
100
AcDbEntity
  8
D-6
  6
Continuous
 62
     6
370
     9
100
AcDbPolyline
 90
        4
 70
     1
 43
1.0
 10
814.9268683322781
 20
383.0182099399706
 42
0.4142135623731
 10
814.4268683322781
 20
383.5182099399705
 42
0.4142135623731
 10
813.9268683322781
 20
383.0182099399706
 42
0.4142135623731
 10
814.4268683322781
 20
382.5182099399706
 42
0.4142135623731
  0
LWPOLYLINE
  5
22A
330
1F
100
AcDbEntity
  8
D-6
  6
Continuous
 62
     6
370
     9
100
AcDbPolyline
 90
        4
 70
     1
 43
1.0
 10
620.3820127089947
 20
328.9063957930971
 42
0.4142135623731
 10
619.8820127089947
 20
329.406395793097
 42
0.4142135623731
 10
619.3820127089948
 20
328.9063957930971
 42
0.4142135623731
 10
619.8820127089947
 20
328.4063957930971
 42
0.4142135623731
  0
LWPOLYLINE
  5
22B
330
1F
100
AcDbEntity
  8
D-6
  6
Continuous
 62
     6
370
     9
100
AcDbPolyline
 90
        4
 70
     1
 43
1.0
 10
620.3820127089947
 20
394.6135986857291
 42
0.4142135623731
 10
619.8820127089947
 20
395.1135986857291
 42
0.4142135623731
 10
619.3820127089948
 20
394.6135986857291
 42
0.4142135623731
 10
619.8820127089947
 20
394.1135986857291
 42
0.4142135623731
  0
LWPOLYLINE
  5
22C
330
1F
100
AcDbEntity
  8
D-6
  6
Continuous
 62
     6
370
     9
100
AcDbPolyline
 90
        4
 70
     1
 43
1.0
 10
577.4361284654444
 20
267.2790519036022
 42
0.4142135623731
 10
576.9361284654444
 20
267.7790519036022
 42
0.4142135623731
 10
576.4361284654445
 20
267.2790519036022
 42
0.4142135623731
 10
576.9361284654444
 20
266.7790519036022
 42
0.4142135623731
  0
LWPOLYLINE
  5
22D
330
1F
100
AcDbEntity
  8
D-6
  6
Continuous
 62
     6
370
     9
100
AcDbPolyline
 90
        4
 70
     1
 43
1.0
 10
564.3292573577648
 20
358.1472669543589
 42
0.4142135623731
 10
563.8292573577648
 20
358.6472669543589
 42
0.4142135623731
 10
563.329257357765
 20
358.1472669543589
 42
0.4142135623731
 10
563.8292573577648
 20
357.647266954359
 42
0.4142135623731
  0
LWPOLYLINE
  5
22E
330
1F
100
AcDbEntity
  8
D-6
  6
Continuous
 62
     6
370
     9
100
AcDbPolyline
 90
        4
 70
     1
 43
1.0
 10
578.4326580646073
 20
391.6428436331087
 42
0.4142135623731
 10
577.9326580646073
 20
392.1428436331087
 42
0.4142135623731
 10
577.4326580646074
 20
391.6428436331087
 42
0.4142135623731
 10
577.9326580646073
 20
391.1428436331087
 42
0.4142135623731
  0
LWPOLYLINE
  5
22F
330
1F
100
AcDbEntity
  8
D-6
  6
Continuous
 62
     6
370
     9
100
AcDbPolyline
 90
        4
 70
     1
 43
1.0
 10
401.2586866849043
 20
383.7096807355101
 42
0.4142135623731
 10
400.7586866849043
 20
384.2096807355101
 42
0.4142135623731
 10
400.2586866849043
 20
383.7096807355101
 42
0.4142135623731
 10
400.7586866849043
 20
383.2096807355101
 42
0.4142135623731
  0
LINE
  5
230
330
1F
100
AcDbEntity
  8
D-6
  6
JWW_DASHED3
 62
     6
370
     9
100
AcDbLine
 10
809.6145655337369
 20
399.4455571123297
 30
0.0
 11
820.6219652579443
 21
410.4529568365368
 31
0.0
  0
LINE
  5
231
330
1F
100
AcDbEntity
  8
D-6
  6
Continuous
 62
     6
370
     9
100
AcDbLine
 10
622.1156047614055
 20
399.4456437003021
 30
0.0
 11
820.6219652579443
 21
399.4456437003021
 31
0.0
  0
LINE
  5
232
330
1F
100
AcDbEntity
  8
D-6
  6
JWW_DASHED3
 62
     6
370
     9
100
AcDbLine
 10
784.6147304936187
 20
399.4455571123297
 30
0.0
 11
804.6147964775719
 21
419.4456230962824
 31
0.0
  0
LINE
  5
233
330
1F
100
AcDbEntity
  8
D-6
  6
Continuous
 62
     6
370
     9
100
AcDbLine
 10
797.1146480136781
 20
399.4455571123297
 30
0.0
 11
817.1149614374536
 21
419.4456230962824
 31
0.0
  0
LINE
  5
234
330
1F
100
AcDbEntity
  8
D-6
  6
Continuous
 62
     6
370
     9
100
AcDbLine
 10
772.114615002115
 20
399.4456437003021
 30
0.0
 11
792.1151263973348
 21
419.4456230962824
 31
0.0
  0
LINE
  5
235
330
1F
100
AcDbEntity
  8
D-6
  6
JWW_DASHED3
 62
     6
370
     9
100
AcDbLine
 10
759.6146974820562
 20
399.4456437003021
 30
0.0
 11
779.6147634660088
 21
419.4457096842548
 31
0.0
  0
LINE
  5
236
330
1F
100
AcDbEntity
  8
D-6
  6
JWW_DASHED3
 62
     6
370
     9
100
AcDbLine
 10
734.6148624419379
 20
399.4456437003021
 30
0.0
 11
754.6149284258905
 21
419.4457096842548
 31
0.0
  0
LINE
  5
237
330
1F
100
AcDbEntity
  8
D-6
  6
Continuous
 62
     6
370
     9
100
AcDbLine
 10
747.1147799619968
 20
399.4456437003021
 30
0.0
 11
767.1150933857723
 21
419.4457096842548
 31
0.0
  0
LINE
  5
238
330
1F
100
AcDbEntity
  8
D-6
  6
JWW_DASHED3
 62
     6
370
     9
100
AcDbLine
 10
709.6150274018197
 20
399.4456437003021
 30
0.0
 11
729.6150933857723
 21
419.4457096842548
 31
0.0
  0
LINE
  5
239
330
1F
100
AcDbEntity
  8
D-6
  6
Continuous
 62
     6
370
     9
100
AcDbLine
 10
722.1149449218785
 20
399.4456437003021
 30
0.0
 11
742.1152583456541
 21
419.4457096842548
 31
0.0
  0
LINE
  5
23A
330
1F
100
AcDbEntity
  8
D-6
  6
JWW_DASHED3
 62
     6
370
     9
100
AcDbLine
 10
684.6151923617015
 20
399.4456437003021
 30
0.0
 11
704.6152583456541
 21
419.4457096842548
 31
0.0
  0
LINE
  5
23B
330
1F
100
AcDbEntity
  8
D-6
  6
Continuous
 62
     6
370
     9
100
AcDbLine
 10
697.1151098817603
 20
399.4456437003021
 30
0.0
 11
717.1154233055358
 21
419.4457096842548
 31
0.0
  0
LINE
  5
23C
330
1F
100
AcDbEntity
  8
D-6
  6
JWW_DASHED3
 62
     6
370
     9
100
AcDbLine
 10
659.6153573215832
 20
399.4456437003021
 30
0.0
 11
679.6154233055358
 21
419.4457096842548
 31
0.0
  0
LINE
  5
23D
330
1F
100
AcDbEntity
  8
D-6
  6
Continuous
 62
     6
370
     9
100
AcDbLine
 10
672.1152748416421
 20
399.4456437003021
 30
0.0
 11
692.1155882654176
 21
419.4457096842548
 31
0.0
  0
LINE
  5
23E
330
1F
100
AcDbEntity
  8
D-6
  6
Continuous
 62
     6
370
     9
100
AcDbLine
 10
622.1156047614055
 20
411.9455612203612
 30
0.0
 11
629.6157532252993
 21
419.4457096842548
 31
0.0
  0
LINE
  5
23F
330
1F
100
AcDbEntity
  8
D-6
  6
Continuous
 62
     6
370
     9
100
AcDbLine
 10
622.1156047614055
 20
399.4456437003021
 30
0.0
 11
642.1156707453582
 21
419.4457096842548
 31
0.0
  0
LINE
  5
240
330
1F
100
AcDbEntity
  8
D-6
  6
JWW_DASHED3
 62
     6
370
     9
100
AcDbLine
 10
634.6155222814649
 20
399.4456437003021
 30
0.0
 11
654.6155882654176
 21
419.4457096842548
 31
0.0
  0
LINE
  5
241
330
1F
100
AcDbEntity
  8
D-6
  6
Continuous
 62
     6
370
     9
100
AcDbLine
 10
647.1154398015238
 20
399.4456437003021
 30
0.0
 11
667.1157532252994
 21
419.4457096842548
 31
0.0
  0
LINE
  5
242
330
1F
100
AcDbEntity
  8
D-6
  6
Continuous
 62
     6
370
     9
100
AcDbLine
 10
622.1156047614055
 20
419.4457096842548
 30
0.0
 11
622.1156047614055
 21
399.4456437003021
 31
0.0
  0
LWPOLYLINE
  5
243
330
1F
100
AcDbEntity
  8
D-6
  6
Continuous
 62
     6
370
     9
100
AcDbPolyline
 90
        4
 70
     1
 43
1.0
 10
77.66688254064977
 20
383.9179458020558
 42
0.4142135623731
 10
77.16688254064977
 20
384.4179458020558
 42
0.4142135623731
 10
76.66688254064977
 20
383.9179458020558
 42
0.4142135623731
 10
77.16688254064977
 20
383.4179458020559
 42
0.4142135623731
  0
LWPOLYLINE
  5
244
330
1F
100
AcDbEntity
  8
D-6
  6
Continuous
 62
     6
370
     9
100
AcDbPolyline
 90
        4
 70
     1
 43
1.0
 10
150.3655684702321
 20
383.9179458020558
 42
0.4142135623731
 10
149.8655684702321
 20
384.4179458020558
 42
0.4142135623731
 10
149.3655684702321
 20
383.9179458020558
 42
0.4142135623731
 10
149.8655684702321
 20
383.4179458020559
 42
0.4142135623731
  0
LWPOLYLINE
  5
245
330
1F
100
AcDbEntity
  8
D-6
  6
Continuous
 62
     6
370
     9
100
AcDbPolyline
 90
        4
 70
     1
 43
1.0
 10
201.6823607263555
 20
387.1252607830525
 42
0.4142135623731
 10
201.1823607263555
 20
387.6252607830525
 42
0.4142135623731
 10
200.6823607263555
 20
387.1252607830525
 42
0.4142135623731
 10
201.1823607263555
 20
386.6252607830525
 42
0.4142135623731
  0
LWPOLYLINE
  5
246
330
1F
100
AcDbEntity
  8
D-6
  6
Continuous
 62
     6
370
     9
100
AcDbPolyline
 90
        4
 70
     1
 43
1.0
 10
291.4866853146154
 20
371.0886858780694
 42
0.4142135623731
 10
290.9866853146154
 20
371.5886858780693
 42
0.4142135623731
 10
290.4866853146154
 20
371.0886858780694
 42
0.4142135623731
 10
290.9866853146154
 20
370.5886858780694
 42
0.4142135623731
  0
LWPOLYLINE
  5
247
330
1F
100
AcDbEntity
  8
D-6
  6
Continuous
 62
     6
370
     9
100
AcDbPolyline
 90
        4
 70
     1
 43
1.0
 10
460.4042020745393
 20
376.4343758062788
 42
0.4142135623731
 10
459.9042020745394
 20
376.9343758062787
 42
0.4142135623731
 10
459.4042020745394
 20
376.4343758062788
 42
0.4142135623731
 10
459.9042020745394
 20
375.9343758062788
 42
0.4142135623731
  0
LWPOLYLINE
  5
248
330
1F
100
AcDbEntity
  8
D-6
  6
Continuous
 62
     6
370
     9
100
AcDbPolyline
 90
        4
 70
     1
 43
1.0
 10
329.9742176467524
 20
383.9179458020558
 42
0.4142135623731
 10
329.4742176467524
 20
384.4179458020558
 42
0.4142135623731
 10
328.9742176467524
 20
383.9179458020558
 42
0.4142135623731
 10
329.4742176467524
 20
383.4179458020559
 42
0.4142135623731
  0
LWPOLYLINE
  5
249
330
1F
100
AcDbEntity
  8
D-6
  6
Continuous
 62
     6
370
     9
100
AcDbPolyline
 90
        4
 70
     1
 43
1.0
 10
245.515335546879
 20
373.2270608252821
 42
0.4142135623731
 10
245.015335546879
 20
373.7270608252821
 42
0.4142135623731
 10
244.515335546879
 20
373.2270608252821
 42
0.4142135623731
 10
245.015335546879
 20
372.7270608252821
 42
0.4142135623731
  0
LINE
  5
24A
330
1F
100
AcDbEntity
  8
D-6
  6
Continuous
 62
     6
370
     9
100
AcDbLine
 10
659.8652577565116
 20
351.225278198103
 30
0.0
 11
659.8652577565116
 21
363.725278198103
 31
0.0
  0
LINE
  5
24B
330
1F
100
AcDbEntity
  8
D-6
  6
Continuous
 62
     6
370
     9
100
AcDbLine
 10
637.3653072444761
 20
363.725278198103
 30
0.0
 11
659.8652577565116
 21
363.725278198103
 31
0.0
  0
LINE
  5
24C
330
1F
100
AcDbEntity
  8
D-6
  6
Continuous
 62
     6
370
     9
100
AcDbLine
 10
637.3653072444761
 20
351.225370972071
 30
0.0
 11
637.3653072444761
 21
363.725278198103
 31
0.0
  0
LWPOLYLINE
  5
24D
330
1F
100
AcDbEntity
  8
D-6
  6
Continuous
 62
     6
370
     9
100
AcDbPolyline
 90
        4
 70
     1
 43
1.0
 10
380.6535679509565
 20
364.1233497976506
 42
0.4142135623731
 10
380.1535679509566
 20
364.6233497976506
 42
0.4142135623731
 10
379.6535679509566
 20
364.1233497976506
 42
0.4142135623731
 10
380.1535679509566
 20
363.6233497976507
 42
0.4142135623731
  0
LWPOLYLINE
  5
24E
330
1F
100
AcDbEntity
  8
D-6
  6
Continuous
 62
     6
370
     9
100
AcDbPolyline
 90
        4
 70
     1
 43
1.0
 10
433.9528700285422
 20
363.8897677639702
 42
0.4142135623731
 10
433.4528700285422
 20
364.3897677639701
 42
0.4142135623731
 10
432.9528700285422
 20
363.8897677639702
 42
0.4142135623731
 10
433.4528700285422
 20
363.3897677639702
 42
0.4142135623731
  0
LWPOLYLINE
  5
24F
330
1F
100
AcDbEntity
  8
D-6
  6
Continuous
 62
     6
370
     9
100
AcDbPolyline
 90
        4
 70
     1
 43
1.0
 10
449.5167042193057
 20
387.0699463459582
 42
0.4142135623731
 10
449.0167042193058
 20
387.5699463459581
 42
0.4142135623731
 10
448.5167042193058
 20
387.0699463459582
 42
0.4142135623731
 10
449.0167042193058
 20
386.5699463459582
 42
0.4142135623731
  0
LWPOLYLINE
  5
250
330
1F
100
AcDbEntity
  8
D-6
  6
Continuous
 62
     6
370
     9
100
AcDbPolyline
 90
        4
 70
     1
 43
1.0
 10
484.6181175006018
 20
361.5717499057713
 42
0.4142135623731
 10
484.1181175006018
 20
362.0717499057713
 42
0.4142135623731
 10
483.6181175006018
 20
361.5717499057713
 42
0.4142135623731
 10
484.1181175006018
 20
361.0717499057714
 42
0.4142135623731
  0
LWPOLYLINE
  5
251
330
1F
100
AcDbEntity
  8
D-6
  6
Continuous
 62
     6
370
     9
100
AcDbPolyline
 90
        4
 70
     1
 43
1.0
 10
182.5307187660499
 20
371.4509212538092
 42
0.4142135623731
 10
182.0307187660499
 20
371.9509212538091
 42
0.4142135623731
 10
181.5307187660499
 20
371.4509212538092
 42
0.4142135623731
 10
182.0307187660499
 20
370.9509212538092
 42
0.4142135623731
  0
LWPOLYLINE
  5
252
330
1F
100
AcDbEntity
  8
D-6
  6
Continuous
 62
     6
370
     9
100
AcDbPolyline
 90
        4
 70
     1
 43
1.0
 10
560.2771778974065
 20
389.9061454449451
 42
0.4142135623731
 10
559.7771778974065
 20
390.406145444945
 42
0.4142135623731
 10
559.2771778974067
 20
389.9061454449451
 42
0.4142135623731
 10
559.7771778974065
 20
389.4061454449451
 42
0.4142135623731
  0
LWPOLYLINE
  5
253
330
1F
100
AcDbEntity
  8
D-6
  6
Continuous
 62
     6
370
     9
100
AcDbPolyline
 90
        4
 70
     1
 43
1.0
 10
578.8213207629972
 20
365.7325306380146
 42
0.4142135623731
 10
578.3213207629972
 20
366.2325306380146
 42
0.4142135623731
 10
577.8213207629973
 20
365.7325306380146
 42
0.4142135623731
 10
578.3213207629972
 20
365.2325306380146
 42
0.4142135623731
  0
LWPOLYLINE
  5
254
330
1F
100
AcDbEntity
  8
D-6
  6
Continuous
 62
     6
370
     9
100
AcDbPolyline
 90
        4
 70
     1
 43
1.0
 10
594.3023686016825
 20
306.788647958102
 42
0.4142135623731
 10
593.8023686016825
 20
307.288647958102
 42
0.4142135623731
 10
593.3023686016825
 20
306.788647958102
 42
0.4142135623731
 10
593.8023686016825
 20
306.288647958102
 42
0.4142135623731
  0
LINE
  5
255
330
1F
100
AcDbEntity
  8
D-5
  6
Continuous
 62
     7
370
     9
100
AcDbLine
 10
600.8650300529603
 20
419.4456029758312
 30
0.0
 11
642.915520733651
 21
486.2180765981215
 31
0.0
  0
LINE
  5
256
330
1F
100
AcDbEntity
  8
D-5
  6
Continuous
 62
     7
370
     9
100
AcDbLine
 10
677.2136377080091
 20
448.0587054997258
 30
0.0
 11
846.5798177165402
 21
448.0587054997258
 31
0.0
  0
LINE
  5
257
330
1F
100
AcDbEntity
  8
D-5
  6
Continuous
 62
     7
370
     9
100
AcDbLine
 10
616.2320249051111
 20
351.225278198103
 30
0.0
 11
677.2136377080091
 21
448.0587054997258
 31
0.0
  0
TEXT
  5
258
330
1F
100
AcDbEntity
  8
D-5
  6
Continuous
 62
     7
370
     9
100
AcDbText
 10
679.0964374246272
 20
452.8190846435182
 30
0.0
 40
11.43
  1
アンカー（ＳＧＨＣ）
 41
1.15
  7
ＭＳ ゴシック
100
AcDbText
  0
LINE
  5
259
330
1F
100
AcDbEntity
  8
D-5
  6
Continuous
 62
     7
370
     9
100
AcDbLine
 10
616.2320249051111
 20
351.225278198103
 30
0.0
 11
621.4555605995774
 21
362.5815396801506
 31
0.0
  0
LINE
  5
25A
330
1F
100
AcDbEntity
  8
D-5
  6
Continuous
 62
     7
370
     9
100
AcDbLine
 10
616.2320249051111
 20
351.225278198103
 30
0.0
 11
624.2167896896568
 21
360.842633933204
 31
0.0
  0
LINE
  5
25B
330
1F
100
AcDbEntity
  8
D-5
  6
Continuous
 62
     7
370
     9
100
AcDbLine
 10
497.5063506791774
 20
356.5576126650167
 30
0.0
 11
487.9936127371308
 21
364.6667320281747
 31
0.0
  0
LINE
  5
25C
330
1F
100
AcDbEntity
  8
D-5
  6
Continuous
 62
     7
370
     9
100
AcDbLine
 10
408.7853953788538
 20
454.905253249666
 30
0.0
 11
497.5063506791774
 21
356.5576126650167
 31
0.0
  0
TEXT
  5
25D
330
1F
100
AcDbEntity
  8
D-5
  6
Continuous
 62
     7
370
     9
100
AcDbText
 10
295.2921554348079
 20
462.1107090008272
 30
0.0
 40
11.43
  1
ロックボディ
 41
1.138888888888889
  7
ＭＳ ゴシック
100
AcDbText
  0
TEXT
  5
25E
330
1F
100
AcDbEntity
  8
D-5
  6
Continuous
 62
     7
370
     9
100
AcDbText
 10
299.8398519350188
 20
437.5531726436692
 30
0.0
 40
11.43
  1
ＳＵＳ３０４
 41
1.138888888888889
  7
ＭＳ ゴシック
100
AcDbText
  0
LINE
  5
25F
330
1F
100
AcDbEntity
  8
D-5
  6
Continuous
 62
     7
370
     9
100
AcDbLine
 10
408.7853953788538
 20
454.905253249666
 30
0.0
 11
286.1967789303741
 21
454.905253249666
 31
0.0
  0
LINE
  5
260
330
1F
100
AcDbEntity
  8
D-4
  6
Continuous
 62
     7
370
     9
100
AcDbLine
 10
609.615282500494
 20
481.9456029758312
 30
0.0
 11
632.6100301249265
 21
481.9456029758312
 31
0.0
  0
TEXT
  5
261
330
1F
100
AcDbEntity
  8
D-4
  6
Continuous
 62
     2
370
   211
100
AcDbText
 10
617.1028534189684
 20
487.2656029758312
 30
0.0
 40
15.24
  1
7
 41
0.9999999999999998
  7
ＭＳ ゴシック
100
AcDbText
  0
LINE
  5
262
330
1F
100
AcDbEntity
  8
D-4
  6
Continuous
 62
     7
370
     9
100
AcDbLine
 10
572.115100455482
 20
481.9456029758312
 30
0.0
 11
548.0400712720955
 21
481.9456029758312
 31
0.0
  0
TEXT
  5
263
330
1F
100
AcDbEntity
  8
D-4
  6
Continuous
 62
     2
370
   211
100
AcDbText
 10
555.2272572616612
 20
487.2656029758312
 30
0.0
 40
15.24
  1
7
 41
0.9999999999999998
  7
ＭＳ ゴシック
100
AcDbText
  0
LWPOLYLINE
  5
264
330
1F
100
AcDbEntity
  8
D-4
  6
Continuous
 62
     7
370
     9
100
AcDbPolyline
 90
        4
 70
     1
 43
1.0
 10
366.3649656891496
 20
419.4456029758312
 42
0.4142135623731
 10
365.8649656891497
 20
419.9456029758312
 42
0.4142135623731
 10
365.3649656891497
 20
419.4456029758312
 42
0.4142135623731
 10
365.8649656891497
 20
418.9456029758313
 42
0.4142135623731
  0
LINE
  5
265
330
1F
100
AcDbEntity
  8
D-4
  6
Continuous
 62
     7
370
     9
100
AcDbLine
 10
572.115100455482
 20
482.9456029758312
 30
0.0
 11
572.115100455482
 21
428.2150745522605
 31
0.0
  0
LWPOLYLINE
  5
266
330
1F
100
AcDbEntity
  8
D-4
  6
Continuous
 62
     7
370
     9
100
AcDbPolyline
 90
        4
 70
     1
 43
1.0
 10
572.615100455482
 20
481.9456029758312
 42
0.4142135623731
 10
572.115100455482
 20
482.4456029758312
 42
0.4142135623731
 10
571.6151004554821
 20
481.9456029758312
 42
0.4142135623731
 10
572.115100455482
 20
481.4456029758313
 42
0.4142135623731
  0
LINE
  5
267
330
1F
100
AcDbEntity
  8
D-4
  6
Continuous
 62
     7
370
     9
100
AcDbLine
 10
589.615231776567
 20
481.9456029758312
 30
0.0
 11
572.115100455482
 21
481.9456029758312
 31
0.0
  0
TEXT
  5
268
330
1F
100
AcDbEntity
  8
D-4
  6
Continuous
 62
     2
370
   211
100
AcDbText
 10
585.8652671539521
 20
487.2656029758312
 30
0.0
 40
15.24
  1
1
 41
0.9999999999999998
  7
ＭＳ ゴシック
100
AcDbText
  0
LINE
  5
269
330
1F
100
AcDbEntity
  8
D-4
  6
Continuous
 62
     7
370
     9
100
AcDbLine
 10
589.615231776567
 20
482.9456029758312
 30
0.0
 11
589.615231776567
 21
428.1956231539597
 31
0.0
  0
LWPOLYLINE
  5
26A
330
1F
100
AcDbEntity
  8
D-4
  6
Continuous
 62
     7
370
     9
100
AcDbPolyline
 90
        4
 70
     1
 43
1.0
 10
590.115231776567
 20
481.9456029758312
 42
0.4142135623731
 10
589.615231776567
 20
482.4456029758312
 42
0.4142135623731
 10
589.1152317765672
 20
481.9456029758312
 42
0.4142135623731
 10
589.615231776567
 20
481.4456029758313
 42
0.4142135623731
  0
LINE
  5
26B
330
1F
100
AcDbEntity
  8
D-4
  6
Continuous
 62
     7
370
     9
100
AcDbLine
 10
592.1153025313366
 20
481.9456029758312
 30
0.0
 11
589.615231776567
 21
481.9456029758312
 31
0.0
  0
LINE
  5
26C
330
1F
100
AcDbEntity
  8
D-4
  6
Continuous
 62
     7
370
     9
100
AcDbLine
 10
592.1153025313366
 20
482.9456029758312
 30
0.0
 11
592.1153025313366
 21
428.1956231539597
 31
0.0
  0
LWPOLYLINE
  5
26D
330
1F
100
AcDbEntity
  8
D-4
  6
Continuous
 62
     7
370
     9
100
AcDbPolyline
 90
        4
 70
     1
 43
1.0
 10
592.6153025313366
 20
481.9456029758312
 42
0.4142135623731
 10
592.1153025313366
 20
482.4456029758312
 42
0.4142135623731
 10
591.6153025313367
 20
481.9456029758312
 42
0.4142135623731
 10
592.1153025313366
 20
481.4456029758313
 42
0.4142135623731
  0
LWPOLYLINE
  5
26E
330
1F
100
AcDbEntity
  8
D-4
  6
Continuous
 62
     7
370
     9
100
AcDbPolyline
 90
        4
 70
     1
 43
1.0
 10
610.115282500494
 20
481.9456029758312
 42
0.4142135623731
 10
609.615282500494
 20
482.4456029758312
 42
0.4142135623731
 10
609.1152825004941
 20
481.9456029758312
 42
0.4142135623731
 10
609.615282500494
 20
481.4456029758313
 42
0.4142135623731
  0
LINE
  5
26F
330
1F
100
AcDbEntity
  8
D-4
  6
Continuous
 62
     7
370
     9
100
AcDbLine
 10
609.615282500494
 20
481.9456029758312
 30
0.0
 11
592.1153025313366
 21
481.9456029758312
 31
0.0
  0
LINE
  5
270
330
1F
100
AcDbEntity
  8
D-4
  6
Continuous
 62
     7
370
     9
100
AcDbLine
 10
609.615282500494
 20
545.4456029758312
 30
0.0
 11
609.615282500494
 21
428.1956231539597
 31
0.0
  0
LWPOLYLINE
  5
271
330
1F
100
AcDbEntity
  8
D-4
  6
Continuous
 62
     7
370
     9
100
AcDbPolyline
 90
        4
 70
     1
 43
1.0
 10
610.115282500494
 20
544.4456029758312
 42
0.4142135623731
 10
609.615282500494
 20
544.9456029758312
 42
0.4142135623731
 10
609.1152825004941
 20
544.4456029758312
 42
0.4142135623731
 10
609.615282500494
 20
543.9456029758312
 42
0.4142135623731
  0
LINE
  5
272
330
1F
100
AcDbEntity
  8
D-5
  6
Continuous
 62
     7
370
     9
100
AcDbLine
 10
600.8650300529603
 20
419.4456029758312
 30
0.0
 11
606.0885657474266
 21
430.8018644578789
 31
0.0
  0
LINE
  5
273
330
1F
100
AcDbEntity
  8
D-5
  6
Continuous
 62
     7
370
     9
100
AcDbLine
 10
600.8650300529603
 20
419.4456029758312
 30
0.0
 11
608.849794837506
 21
429.0629587109322
 31
0.0
  0
LINE
  5
274
330
1F
100
AcDbEntity
  8
D-4
  6
Continuous
 62
     7
370
     9
100
AcDbLine
 10
609.615282500494
 20
544.4456029758312
 30
0.0
 11
-15.12329899198861
 21
544.4456029758312
 31
0.0
  0
LINE
  5
275
330
1F
100
AcDbEntity
  8
D-5
  6
Continuous
 62
     7
370
     9
100
AcDbLine
 10
497.5063506791774
 20
356.5576126650167
 30
0.0
 11
490.4165459524301
 21
366.8524982368228
 31
0.0
  0
TEXT
  5
276
330
1F
100
AcDbEntity
  8
D-5
  6
Continuous
 62
     7
370
     9
100
AcDbText
 10
436.0888726439809
 20
269.4665835214798
 30
0.0
 40
11.43
  1
パッキン
 41
1.125
  7
ＭＳ ゴシック
100
AcDbText
  0
TEXT
  5
277
330
1F
100
AcDbEntity
  8
D-5
  6
Continuous
 62
     7
370
     9
100
AcDbText
 10
418.5888726439809
 20
246.3484176905943
 30
0.0
 40
11.43
  1
クロロプレン
 41
1.138888888888889
  7
ＭＳ ゴシック
100
AcDbText
  0
LINE
  5
278
330
1F
100
AcDbEntity
  8
D-5
  6
Continuous
 62
     7
370
     9
100
AcDbLine
 10
526.1587743938758
 20
262.8722738818624
 30
0.0
 11
413.5189708940867
 21
262.8722738818624
 31
0.0
  0
LINE
  5
279
330
1F
100
AcDbEntity
  8
D-5
  6
Continuous
 62
     7
370
     9
100
AcDbLine
 10
566.2825462938752
 20
338.3438129487416
 30
0.0
 11
561.9055777896533
 21
326.6351773871978
 31
0.0
  0
LINE
  5
27A
330
1F
100
AcDbEntity
  8
D-5
  6
Continuous
 62
     7
370
     9
100
AcDbLine
 10
566.2825462938752
 20
338.3438129487416
 30
0.0
 11
559.0243014993011
 21
328.1669822779462
 31
0.0
  0
LINE
  5
27B
330
1F
100
AcDbEntity
  8
D-5
  6
Continuous
 62
     7
370
     9
100
AcDbLine
 10
526.1587743938758
 20
262.8722738818624
 30
0.0
 11
566.2825462938752
 21
338.3438129487416
 31
0.0
  0
LINE
  5
27C
330
1F
100
AcDbEntity
  8
D-4
  6
Continuous
 62
     7
370
     9
100
AcDbLine
 10
364.8649656891495
 20
314.4454230506379
 30
0.0
 11
512.1153826547082
 21
314.4454230506379
 31
0.0
  0
LWPOLYLINE
  5
27D
330
1F
100
AcDbEntity
  8
D-4
  6
Continuous
 62
     7
370
     9
100
AcDbPolyline
 90
        4
 70
     1
 43
1.0
 10
366.3649656891496
 20
314.4454230506379
 42
0.4142135623731
 10
365.8649656891497
 20
314.9454230506379
 42
0.4142135623731
 10
365.3649656891497
 20
314.4454230506379
 42
0.4142135623731
 10
365.8649656891497
 20
313.9454230506379
 42
0.4142135623731
  0
LINE
  5
27E
330
1F
100
AcDbEntity
  8
D-4
  6
Continuous
 62
     7
370
     9
100
AcDbLine
 10
365.8649656891497
 20
419.4456029758312
 30
0.0
 11
365.8649656891497
 21
314.4454230506379
 31
0.0
  0
TEXT
  5
27F
330
1F
100
AcDbEntity
  8
D-4
  6
Continuous
 62
     2
370
   211
100
AcDbText
 10
360.5824891675221
 20
360.6339836698996
 30
0.0
 40
15.24
  1
42
 50
90.0
 41
1.0625
  7
ＭＳ ゴシック
100
AcDbText
  0
LINE
  5
280
330
1F
100
AcDbEntity
  8
D-6
  6
Continuous
 62
     6
370
     9
100
AcDbLine
 10
659.8652577565116
 20
273.1196110393304
 30
0.0
 11
659.8652577565116
 21
347.2252781981031
 31
0.0
  0
LINE
  5
281
330
1F
100
AcDbEntity
  8
D-6
  6
Continuous
 62
     6
370
     9
100
AcDbLine
 10
637.3653072444761
 20
273.1196110393304
 30
0.0
 11
637.3653072444761
 21
347.2252781981031
 31
0.0
  0
LINE
  5
282
330
1F
100
AcDbEntity
  8
D-6
  6
Continuous
 62
     6
370
     9
100
AcDbLine
 10
609.6150397738107
 20
273.1196110393304
 30
0.0
 11
820.6219652579443
 21
273.1196110393304
 31
0.0
  0
LINE
  5
283
330
1F
100
AcDbEntity
  8
D-6
  6
Continuous
 62
     6
370
     9
100
AcDbLine
 10
652.7680282919181
 20
149.5247106745485
 30
0.0
 11
776.3629286566999
 21
273.1196110393304
 31
0.0
  0
LINE
  5
284
330
1F
100
AcDbEntity
  8
D-6
  6
Continuous
 62
     6
370
     9
100
AcDbLine
 10
659.8390961037842
 20
149.5247106745479
 30
0.0
 11
783.433996468566
 21
273.11961103933
 31
0.0
  0
LINE
  5
285
330
1F
100
AcDbEntity
  8
D-6
  6
Continuous
 62
     6
370
     9
100
AcDbLine
 10
666.9101639156526
 20
149.5247106745501
 30
0.0
 11
790.5050642804349
 21
273.119611039332
 31
0.0
  0
LINE
  5
286
330
1F
100
AcDbEntity
  8
D-6
  6
Continuous
 62
     6
370
     9
100
AcDbLine
 10
609.6150397738107
 20
273.1196110393304
 30
0.0
 11
609.6150397738107
 21
149.5247106745485
 31
0.0
  0
LINE
  5
287
330
1F
100
AcDbEntity
  8
D-6
  6
Continuous
 62
     6
370
     9
100
AcDbLine
 10
559.6150397738107
 20
334.4453853614887
 30
0.0
 11
559.6150397738107
 21
149.5247106745485
 31
0.0
  0
LINE
  5
288
330
1F
100
AcDbEntity
  8
D-6
  6
JWW_CENTER1
 62
     6
370
     9
100
AcDbLine
 10
648.6152825004939
 20
233.3821620416364
 30
0.0
 11
648.6152825004939
 21
369.7164580055535
 31
0.0
  0
LINE
  5
289
330
1F
100
AcDbEntity
  8
D-6
  6
JWW_DASHED3
 62
     6
370
     9
100
AcDbLine
 10
637.3653072444761
 20
248.3777452796943
 30
0.0
 11
637.3653072444761
 21
273.1196110393304
 31
0.0
  0
LINE
  5
28A
330
1F
100
AcDbEntity
  8
D-6
  6
JWW_DASHED3
 62
     6
370
     9
100
AcDbLine
 10
659.8652577565116
 20
248.3777452796943
 30
0.0
 11
659.8652577565116
 21
273.1196110393304
 31
0.0
  0
TEXT
  5
28B
330
1F
100
AcDbEntity
  8
D-4
  6
Continuous
 62
     2
370
   211
100
AcDbText
 10
623.4900753880889
 20
214.1146154743133
 30
0.0
 40
15.24
  1
31
 41
1.062500000000003
  7
ＭＳ ゴシック
100
AcDbText
  0
LINE
  5
28C
330
1F
100
AcDbEntity
  8
D-4
  6
Continuous
 62
     7
370
     9
100
AcDbLine
 10
673.6149997121248
 20
207.7946154743134
 30
0.0
 11
673.6149997121248
 21
337.2252781981031
 31
0.0
  0
LWPOLYLINE
  5
28D
330
1F
100
AcDbEntity
  8
D-4
  6
Continuous
 62
     7
370
     9
100
AcDbPolyline
 90
        4
 70
     1
 43
1.0
 10
674.1149997121248
 20
208.7946154743133
 42
0.4142135623731
 10
673.6149997121248
 20
209.2946154743133
 42
0.4142135623731
 10
673.1149997121248
 20
208.7946154743133
 42
0.4142135623731
 10
673.6149997121248
 20
208.2946154743133
 42
0.4142135623731
  0
LINE
  5
28E
330
1F
100
AcDbEntity
  8
D-4
  6
Continuous
 62
     7
370
     9
100
AcDbLine
 10
594.6151510640537
 20
208.7946154743133
 30
0.0
 11
673.6149997121248
 21
208.7946154743133
 31
0.0
  0
TEXT
  5
28F
330
1F
100
AcDbEntity
  8
D-4
  6
Continuous
 62
     2
370
   211
100
AcDbText
 10
566.4900954189322
 20
214.1146154743133
 30
0.0
 40
15.24
  1
14
 41
1.0625
  7
ＭＳ ゴシック
100
AcDbText
  0
LWPOLYLINE
  5
290
330
1F
100
AcDbEntity
  8
D-4
  6
Continuous
 62
     7
370
     9
100
AcDbPolyline
 90
        4
 70
     1
 43
1.0
 10
595.1151510640537
 20
208.7946154743133
 42
0.4142135623731
 10
594.6151510640537
 20
209.2946154743133
 42
0.4142135623731
 10
594.1151510640539
 20
208.7946154743133
 42
0.4142135623731
 10
594.6151510640537
 20
208.2946154743133
 42
0.4142135623731
  0
LWPOLYLINE
  5
291
330
1F
100
AcDbEntity
  8
D-4
  6
Continuous
 62
     7
370
     9
100
AcDbPolyline
 90
        4
 70
     1
 43
1.0
 10
560.1150397738107
 20
208.7946154743133
 42
0.4142135623731
 10
559.6150397738107
 20
209.2946154743133
 42
0.4142135623731
 10
559.1150397738108
 20
208.7946154743133
 42
0.4142135623731
 10
559.6150397738107
 20
208.2946154743133
 42
0.4142135623731
  0
LINE
  5
292
330
1F
100
AcDbEntity
  8
D-4
  6
Continuous
 62
     7
370
     9
100
AcDbLine
 10
559.6150397738107
 20
208.7946154743133
 30
0.0
 11
594.6151510640537
 21
208.7946154743133
 31
0.0
  0
LINE
  5
293
330
1F
100
AcDbEntity
  8
D-4
  6
Continuous
 62
     7
370
     9
100
AcDbLine
 10
559.6150397738107
 20
208.7946154743133
 30
0.0
 11
-15.12329899198861
 21
208.7946154743133
 31
0.0
  0
LWPOLYLINE
  5
294
330
1F
100
AcDbEntity
  8
D-6
  6
Continuous
 62
     6
370
     9
100
AcDbPolyline
 90
        4
 70
     1
 43
1.0
 10
573.1415400410893
 20
178.1015940053113
 42
0.4142135623731
 10
572.6415400410893
 20
178.6015940053113
 42
0.4142135623731
 10
572.1415400410895
 20
178.1015940053113
 42
0.4142135623731
 10
572.6415400410893
 20
177.6015940053113
 42
0.4142135623731
  0
LWPOLYLINE
  5
295
330
1F
100
AcDbEntity
  8
D-6
  6
Continuous
 62
     6
370
     9
100
AcDbPolyline
 90
        4
 70
     1
 43
1.0
 10
599.3385294296551
 20
174.6659232658273
 42
0.4142135623731
 10
598.8385294296551
 20
175.1659232658273
 42
0.4142135623731
 10
598.3385294296552
 20
174.6659232658273
 42
0.4142135623731
 10
598.8385294296551
 20
174.1659232658273
 42
0.4142135623731
  0
TEXT
  5
296
330
1F
100
AcDbEntity
  8
D-5
  6
Continuous
 62
     7
370
     9
100
AcDbText
 10
366.9329599698294
 20
514.7665269207475
 30
0.0
 40
11.43
  1
ロックボルト
 41
1.138888888888889
  7
ＭＳ ゴシック
100
AcDbText
  0
LINE
  5
297
330
1F
100
AcDbEntity
  8
D-5
  6
Continuous
 62
     7
370
     9
100
AcDbLine
 10
358.1534403989888
 20
506.6514823815795
 30
0.0
 11
479.8736667899304
 21
506.6514823815795
 31
0.0
  0
LINE
  5
298
330
1F
100
AcDbEntity
  8
D-5
  6
Continuous
 62
     7
370
     9
100
AcDbLine
 10
479.8736667899304
 20
506.6514823815795
 30
0.0
 11
510.5534413930814
 21
418.1954520082259
 31
0.0
  0
LINE
  5
299
330
1F
100
AcDbEntity
  8
D-5
  6
Continuous
 62
     7
370
     9
100
AcDbLine
 10
510.5534413930814
 20
418.1954520082259
 30
0.0
 11
508.0338962801919
 21
430.4388948420091
 31
0.0
  0
LINE
  5
29A
330
1F
100
AcDbEntity
  8
D-5
  6
Continuous
 62
     7
370
     9
100
AcDbLine
 10
510.5534413930814
 20
418.1954520082259
 30
0.0
 11
504.9509115150339
 21
429.36960338386
 31
0.0
  0
LWPOLYLINE
  5
29B
330
1F
100
AcDbEntity
  8
D-6
  6
Continuous
 62
     6
370
     9
100
AcDbPolyline
 90
        4
 70
     1
 43
1.0
 10
675.5753140252649
 20
384.4871901512936
 42
0.4142135623731
 10
675.075314025265
 20
384.9871901512935
 42
0.4142135623731
 10
674.575314025265
 20
384.4871901512936
 42
0.4142135623731
 10
675.075314025265
 20
383.9871901512936
 42
0.4142135623731
  0
LWPOLYLINE
  5
29C
330
1F
100
AcDbEntity
  8
D-6
  6
Continuous
 62
     6
370
     9
100
AcDbPolyline
 90
        4
 70
     1
 43
1.0
 10
680.6774062422529
 20
365.2562271795701
 42
0.4142135623731
 10
680.177406242253
 20
365.7562271795701
 42
0.4142135623731
 10
679.677406242253
 20
365.2562271795701
 42
0.4142135623731
 10
680.177406242253
 20
364.7562271795701
 42
0.4142135623731
  0
LWPOLYLINE
  5
29D
330
1F
100
AcDbEntity
  8
D-6
  6
Continuous
 62
     6
370
     9
100
AcDbPolyline
 90
        4
 70
     1
 43
1.0
 10
649.6723843082497
 20
380.3662695144957
 42
0.4142135623731
 10
649.1723843082497
 20
380.8662695144957
 42
0.4142135623731
 10
648.6723843082497
 20
380.3662695144957
 42
0.4142135623731
 10
649.1723843082497
 20
379.8662695144957
 42
0.4142135623731
  0
LWPOLYLINE
  5
29E
330
1F
100
AcDbEntity
  8
D-6
  6
Continuous
 62
     6
370
     9
100
AcDbPolyline
 90
        4
 70
     1
 43
1.0
 10
610.0330524685749
 20
382.5248469909136
 42
0.4142135623731
 10
609.5330524685749
 20
383.0248469909136
 42
0.4142135623731
 10
609.033052468575
 20
382.5248469909136
 42
0.4142135623731
 10
609.5330524685749
 20
382.0248469909137
 42
0.4142135623731
  0
LWPOLYLINE
  5
29F
330
1F
100
AcDbEntity
  8
D-6
  6
Continuous
 62
     6
370
     9
100
AcDbPolyline
 90
        4
 70
     1
 43
1.0
 10
608.070709308195
 20
371.339490976748
 42
0.4142135623731
 10
607.570709308195
 20
371.839490976748
 42
0.4142135623731
 10
607.0707093081951
 20
371.339490976748
 42
0.4142135623731
 10
607.570709308195
 20
370.839490976748
 42
0.4142135623731
  0
LWPOLYLINE
  5
2A0
330
1F
100
AcDbEntity
  8
D-6
  6
Continuous
 62
     6
370
     9
100
AcDbPolyline
 90
        4
 70
     1
 43
1.0
 10
724.5848344557539
 20
304.227354891754
 42
0.4142135623731
 10
724.0848344557539
 20
304.727354891754
 42
0.4142135623731
 10
723.584834455754
 20
304.227354891754
 42
0.4142135623731
 10
724.0848344557539
 20
303.727354891754
 42
0.4142135623731
  0
LWPOLYLINE
  5
2A1
330
1F
100
AcDbEntity
  8
D-6
  6
Continuous
 62
     6
370
     9
100
AcDbPolyline
 90
        4
 70
     1
 43
1.0
 10
735.6230147328911
 20
281.7094671263941
 42
0.4142135623731
 10
735.1230147328911
 20
282.2094671263941
 42
0.4142135623731
 10
734.6230147328912
 20
281.7094671263941
 42
0.4142135623731
 10
735.1230147328911
 20
281.2094671263941
 42
0.4142135623731
  0
LWPOLYLINE
  5
2A2
330
1F
100
AcDbEntity
  8
D-6
  6
Continuous
 62
     6
370
     9
100
AcDbPolyline
 90
        4
 70
     1
 43
1.0
 10
692.3533480465135
 20
281.2679399153087
 42
0.4142135623731
 10
691.8533480465135
 20
281.7679399153087
 42
0.4142135623731
 10
691.3533480465135
 20
281.2679399153087
 42
0.4142135623731
 10
691.8533480465135
 20
280.7679399153087
 42
0.4142135623731
  0
LWPOLYLINE
  5
2A3
330
1F
100
AcDbEntity
  8
D-6
  6
Continuous
 62
     6
370
     9
100
AcDbPolyline
 90
        4
 70
     1
 43
1.0
 10
800.5275147624577
 20
275.9696133822828
 42
0.4142135623731
 10
800.0275147624577
 20
276.4696133822828
 42
0.4142135623731
 10
799.5275147624578
 20
275.9696133822828
 42
0.4142135623731
 10
800.0275147624577
 20
275.4696133822828
 42
0.4142135623731
  0
LWPOLYLINE
  5
2A4
330
1F
100
AcDbEntity
  8
D-6
  6
Continuous
 62
     6
370
     9
100
AcDbPolyline
 90
        4
 70
     1
 43
1.0
 10
818.6301304169627
 20
290.9815385591894
 42
0.4142135623731
 10
818.1301304169629
 20
291.4815385591894
 42
0.4142135623731
 10
817.6301304169629
 20
290.9815385591894
 42
0.4142135623731
 10
818.1301304169629
 20
290.4815385591893
 42
0.4142135623731
  0
LWPOLYLINE
  5
2A5
330
1F
100
AcDbEntity
  8
D-6
  6
Continuous
 62
     6
370
     9
100
AcDbPolyline
 90
        4
 70
     1
 43
1.0
 10
761.8080312792107
 20
299.7875534913943
 42
0.4142135623731
 10
761.3080312792107
 20
300.2875534913944
 42
0.4142135623731
 10
760.8080312792107
 20
299.7875534913943
 42
0.4142135623731
 10
761.3080312792107
 20
299.2875534913943
 42
0.4142135623731
  0
LWPOLYLINE
  5
2A6
330
1F
100
AcDbEntity
  8
D-6
  6
Continuous
 62
     6
370
     9
100
AcDbPolyline
 90
        4
 70
     1
 43
1.0
 10
696.6582383545965
 20
311.5616124536739
 42
0.4142135623731
 10
696.1582383545965
 20
312.061612453674
 42
0.4142135623731
 10
695.6582383545965
 20
311.5616124536739
 42
0.4142135623731
 10
696.1582383545965
 20
311.0616124536739
 42
0.4142135623731
  0
TEXT
  5
2A7
330
1F
100
AcDbEntity
  8
D-5
  6
Continuous
 62
     7
370
     9
100
AcDbText
 10
648.9255412650039
 20
493.5270859150556
 30
0.0
 40
11.43
  1
受枠（ＳＵＳ３０４）
 41
1.15
  7
ＭＳ ゴシック
100
AcDbText
  0
LINE
  5
2A8
330
1F
100
AcDbEntity
  8
D-5
  6
Continuous
 62
     7
370
     9
100
AcDbLine
 10
642.915520733651
 20
486.2180765981215
 30
0.0
 11
816.4607557523937
 21
486.2180765981215
 31
0.0
  0
ARC
  5
2A9
330
1F
100
AcDbEntity
  8
D-2
  6
Continuous
 62
     3
370
     9
100
AcDbCircle
 10
588.3653761741407
 20
353.1954662212872
 30
0.0
 40
1.249999942322726
100
AcDbArc
 50
270.0
 51
0.0000000000000127
  0
LINE
  5
2AA
330
1F
100
AcDbEntity
  8
D-2
  6
Continuous
 62
     3
370
     9
100
AcDbLine
 10
587.1155275837463
 20
354.4454863994155
 30
0.0
 11
547.1153760268554
 21
354.4454863994155
 31
0.0
  0
LINE
  5
2AB
330
1F
100
AcDbEntity
  8
D-2
  6
Continuous
 62
     3
370
     9
100
AcDbLine
 10
547.1153760268554
 20
351.9454863994155
 30
0.0
 11
588.3653761741407
 21
351.9454863994155
 31
0.0
  0
ARC
  5
2AC
330
1F
100
AcDbEntity
  8
D-2
  6
Continuous
 62
     3
370
     9
100
AcDbCircle
 10
588.3653761741407
 20
418.1955176239644
 30
0.0
 40
1.249999942322726
100
AcDbArc
 50
0.0
 51
90.0
  0
ARC
  5
2AD
330
1F
100
AcDbEntity
  8
D-2
  6
Continuous
 62
     3
370
     9
100
AcDbCircle
 10
573.3653558487264
 20
418.1955176239644
 30
0.0
 40
1.249999942322726
100
AcDbArc
 50
90.00000000000001
 51
180.0
  0
LINE
  5
2AE
330
1F
100
AcDbEntity
  8
D-2
  6
Continuous
 62
     3
370
     9
100
AcDbLine
 10
572.1153760268554
 20
418.1955176239644
 30
0.0
 11
572.1153760268554
 21
406.9454367641656
 31
0.0
  0
LINE
  5
2AF
330
1F
100
AcDbEntity
  8
D-2
  6
Continuous
 62
     3
370
     9
100
AcDbLine
 10
574.6153356705985
 20
416.9454721863542
 30
0.0
 11
574.6153356705985
 21
406.9454367641656
 31
0.0
  0
LINE
  5
2B0
330
1F
100
AcDbEntity
  8
D-2
  6
Continuous
 62
     3
370
     9
100
AcDbLine
 10
587.1155275837463
 20
416.9454721863542
 30
0.0
 11
574.6153356705985
 21
416.9454721863542
 31
0.0
  0
LINE
  5
2B1
330
1F
100
AcDbEntity
  8
D-2
  6
Continuous
 62
     3
370
     9
100
AcDbLine
 10
587.1155275837463
 20
416.9454721863542
 30
0.0
 11
587.1155275837463
 21
354.4454863994155
 31
0.0
  0
LINE
  5
2B2
330
1F
100
AcDbEntity
  8
D-2
  6
Continuous
 62
     3
370
     9
100
AcDbLine
 10
589.6152247645351
 20
353.1954662212872
 30
0.0
 11
589.6152247645351
 21
418.1955176239644
 31
0.0
  0
LINE
  5
2B3
330
1F
100
AcDbEntity
  8
D-2
  6
Continuous
 62
     3
370
     9
100
AcDbLine
 10
588.3653761741407
 20
419.4454974458359
 30
0.0
 11
573.3653558487264
 21
419.4454974458359
 31
0.0
  0
LINE
  5
2B4
330
1F
100
AcDbEntity
  8
D-2
  6
Continuous
 62
     3
370
     9
100
AcDbLine
 10
574.6153356705985
 20
406.9454367641656
 30
0.0
 11
572.1153760268554
 21
406.9454367641656
 31
0.0
  0
LINE
  5
2B5
330
1F
100
AcDbEntity
  8
D-1
  6
Continuous
 62
     2
370
     9
100
AcDbLine
 10
594.6152330125288
 20
416.9453278463138
 30
0.0
 11
607.1153979724112
 21
416.9453278463138
 31
0.0
  0
LINE
  5
2B6
330
1F
100
AcDbEntity
  8
D-1
  6
Continuous
 62
     2
370
     9
100
AcDbLine
 10
609.615282500494
 20
418.1955175501777
 30
0.0
 11
609.615282500494
 21
406.9455422941605
 31
0.0
  0
ARC
  5
2B7
330
1F
100
AcDbEntity
  8
D-1
  6
Continuous
 62
     2
370
     9
100
AcDbCircle
 10
608.3653402364529
 20
418.1955175501777
 30
0.0
 40
1.250000016109364
100
AcDbArc
 50
0.0
 51
90.0
  0
ARC
  5
2B8
330
1F
100
AcDbEntity
  8
D-1
  6
Continuous
 62
     2
370
     9
100
AcDbCircle
 10
593.3652907484877
 20
418.1955175501777
 30
0.0
 40
1.250000016109364
100
AcDbArc
 50
90.0
 51
180.0
  0
LINE
  5
2B9
330
1F
100
AcDbEntity
  8
D-1
  6
Continuous
 62
     2
370
     9
100
AcDbLine
 10
593.3532750572282
 20
419.4454598142195
 30
0.0
 11
608.3653402364529
 21
419.4454598142195
 31
0.0
  0
LINE
  5
2BA
330
1F
100
AcDbEntity
  8
D-1
  6
Continuous
 62
     2
370
     9
100
AcDbLine
 10
607.1153979724112
 20
406.9455422941605
 30
0.0
 11
609.615282500494
 21
406.9455422941605
 31
0.0
  0
LINE
  5
2BB
330
1F
100
AcDbEntity
  8
D-1
  6
Continuous
 62
     2
370
     9
100
AcDbLine
 10
607.1153979724112
 20
416.9453278463138
 30
0.0
 11
607.1153979724112
 21
406.9455422941605
 31
0.0
  0
ARC
  5
2BC
330
1F
100
AcDbEntity
  8
D-1
  6
Continuous
 62
     2
370
     9
100
AcDbCircle
 10
593.3652907484877
 20
333.1953874234863
 30
0.0
 40
1.250000016109364
100
AcDbArc
 50
270.0
 51
0.0
  0
ARC
  5
2BD
330
1F
100
AcDbEntity
  8
D-1
  6
Continuous
 62
     2
370
     9
100
AcDbCircle
 10
560.8653072444757
 20
333.1953874234863
 30
0.0
 40
1.250000016109364
100
AcDbArc
 50
180.0
 51
270.0
  0
LINE
  5
2BE
330
1F
100
AcDbEntity
  8
D-1
  6
Continuous
 62
     2
370
     9
100
AcDbLine
 10
592.1152247645346
 20
418.1955175501777
 30
0.0
 11
592.1152247645346
 21
334.4454534074391
 31
0.0
  0
LINE
  5
2BF
330
1F
100
AcDbEntity
  8
D-1
  6
Continuous
 62
     2
370
     9
100
AcDbLine
 10
594.6152330125288
 20
333.1953874234863
 30
0.0
 11
594.6152330125288
 21
416.9453278463138
 31
0.0
  0
LINE
  5
2C0
330
1F
100
AcDbEntity
  8
D-1
  6
Continuous
 62
     2
370
     9
100
AcDbLine
 10
559.6152412605237
 20
344.445486399416
 30
0.0
 11
562.1153732284289
 21
344.445486399416
 31
0.0
  0
LINE
  5
2C1
330
1F
100
AcDbEntity
  8
D-1
  6
Continuous
 62
     2
370
     9
100
AcDbLine
 10
559.6152412605237
 20
333.1953874234863
 30
0.0
 11
559.6152412605237
 21
344.445486399416
 31
0.0
  0
LINE
  5
2C2
330
1F
100
AcDbEntity
  8
D-1
  6
Continuous
 62
     2
370
     9
100
AcDbLine
 10
593.3652907484877
 20
331.9455688793563
 30
0.0
 11
560.8653072444757
 21
331.9455688793563
 31
0.0
  0
LINE
  5
2C3
330
1F
100
AcDbEntity
  8
D-2
  6
Continuous
 62
     3
370
     9
100
AcDbLine
 10
559.6151374241693
 20
340.6954157023239
 30
0.0
 11
448.245806623991
 21
340.6954157023239
 31
0.0
  0
LINE
  5
2C4
330
1F
100
AcDbEntity
  8
D-2
  6
Continuous
 62
     3
370
     9
100
AcDbLine
 10
537.1152381675258
 20
344.445486399416
 30
0.0
 11
537.1152381675258
 21
340.6954157023239
 31
0.0
  0
LINE
  5
2C5
330
1F
100
AcDbEntity
  8
D-2
  6
Continuous
 62
     3
370
     9
100
AcDbLine
 10
503.365376026855
 20
326.2495696215439
 30
0.0
 11
503.365376026855
 21
340.6954157023239
 31
0.0
  0
LINE
  5
2C6
330
1F
100
AcDbEntity
  8
D-2
  6
Continuous
 62
     3
370
     9
100
AcDbLine
 10
540.865376026855
 20
326.2495696215439
 30
0.0
 11
540.865376026855
 21
340.6954157023239
 31
0.0
  0
LINE
  5
2C7
330
1F
100
AcDbEntity
  8
D-2
  6
Continuous
 62
     3
370
     9
100
AcDbLine
 10
512.7473044707633
 20
326.2495696215439
 30
0.0
 11
512.7473044707633
 21
340.6954157023239
 31
0.0
  0
LINE
  5
2C8
330
1F
100
AcDbEntity
  8
D-2
  6
Continuous
 62
     3
370
     9
100
AcDbLine
 10
531.4834475829464
 20
326.2495696215439
 30
0.0
 11
531.4834475829464
 21
340.6954157023239
 31
0.0
  0
LINE
  5
2C9
330
1F
100
AcDbEntity
  8
D-2
  6
Continuous
 62
     3
370
     9
100
AcDbLine
 10
508.0563402488096
 20
324.4453620581435
 30
0.0
 11
536.1744118049005
 21
324.4453620581435
 31
0.0
  0
ARC
  5
2CA
330
1F
100
AcDbEntity
  8
D-2
  6
Continuous
 62
     3
370
     9
100
AcDbCircle
 10
508.0563402488096
 20
331.4458059935379
 30
0.0
 40
7.000433206558228
100
AcDbArc
 50
227.9253692626954
 51
312.0744323730469
  0
ARC
  5
2CB
330
1F
100
AcDbEntity
  8
D-2
  6
Continuous
 62
     3
370
     9
100
AcDbCircle
 10
522.115376026855
 20
349.6688824562834
 30
0.0
 40
25.22352457046509
100
AcDbArc
 50
248.1978607177735
 51
291.8021392822266
  0
ARC
  5
2CC
330
1F
100
AcDbEntity
  8
D-2
  6
Continuous
 62
     3
370
     9
100
AcDbCircle
 10
536.1744118049005
 20
331.4458679823683
 30
0.0
 40
7.000473737716675
100
AcDbArc
 50
227.9257202148438
 51
312.0742797851563
  0
LINE
  5
2CD
330
1F
100
AcDbEntity
  8
D-2
  6
Continuous
 62
     3
370
     9
100
AcDbLine
 10
559.6151374241693
 20
344.445486399416
 30
0.0
 11
532.115436708526
 21
344.445486399416
 31
0.0
  0
LINE
  5
2CE
330
1F
100
AcDbEntity
  8
D-2
  6
Continuous
 62
     3
370
     9
100
AcDbLine
 10
559.6151374241693
 20
334.4453853614887
 30
0.0
 11
540.865376026855
 21
334.4453853614887
 31
0.0
  0
LINE
  5
2CF
330
1F
100
AcDbEntity
  8
D-2
  6
Continuous
 62
     3
370
     9
100
AcDbLine
 10
503.365376026855
 20
334.4453853614887
 30
0.0
 11
453.3549105006432
 21
334.4453853614887
 31
0.0
  0
LINE
  5
2D0
330
1F
100
AcDbEntity
  8
D-2
  6
Continuous
 62
     3
370
     9
100
AcDbLine
 10
455.1228609636617
 20
340.6954157023239
 30
0.0
 11
455.1228609636617
 21
334.4453853614887
 31
0.0
  0
LINE
  5
2D1
330
1F
100
AcDbEntity
  8
D-2
  6
Continuous
 62
     3
370
     9
100
AcDbLine
 10
453.3549105006432
 20
340.6954157023239
 30
0.0
 11
453.3549105006432
 21
334.4453853614887
 31
0.0
  0
LINE
  5
2D2
330
1F
100
AcDbEntity
  8
D-2
  6
Continuous
 62
     3
370
     9
100
AcDbLine
 10
448.245806623991
 20
344.445486399416
 30
0.0
 11
448.245806623991
 21
340.6954157023239
 31
0.0
  0
LINE
  5
2D3
330
1F
100
AcDbEntity
  8
D-2
  6
Continuous
 62
     3
370
     9
100
AcDbLine
 10
512.1153153451842
 20
344.445486399416
 30
0.0
 11
448.245806623991
 21
344.445486399416
 31
0.0
  0
LINE
  5
2D4
330
1F
100
AcDbEntity
  8
D-2
  6
Continuous
 62
     3
370
     9
100
AcDbLine
 10
507.1151975166973
 20
344.445486399416
 30
0.0
 11
507.1151975166973
 21
340.6954157023239
 31
0.0
  0
LINE
  5
2D5
330
1F
100
AcDbEntity
  8
D-2
  6
Continuous
 62
     3
370
     9
100
AcDbLine
 10
510.8653760268551
 20
408.1954822017758
 30
0.0
 11
510.8653760268551
 21
403.195487283129
 31
0.0
  0
LINE
  5
2D6
330
1F
100
AcDbEntity
  8
D-2
  6
Continuous
 62
     3
370
     9
100
AcDbLine
 10
533.3653250083573
 20
408.1954822017758
 30
0.0
 11
533.3653250083573
 21
403.195487283129
 31
0.0
  0
LINE
  5
2D7
330
1F
100
AcDbEntity
  8
D-2
  6
Continuous
 62
     3
370
     9
100
AcDbLine
 10
528.3653760268553
 20
314.4454230506377
 30
0.0
 11
515.8653760268548
 21
314.4454230506377
 31
0.0
  0
LINE
  5
2D8
330
1F
100
AcDbEntity
  8
D-2
  6
Continuous
 62
     3
370
     9
100
AcDbLine
 10
528.3653760268553
 20
314.4454230506377
 30
0.0
 11
532.115436708526
 21
320.9407186827585
 31
0.0
  0
LINE
  5
2D9
330
1F
100
AcDbEntity
  8
D-2
  6
Continuous
 62
     3
370
     9
100
AcDbLine
 10
515.8653760268548
 20
314.4454230506377
 30
0.0
 11
512.1153153451842
 21
320.9407186827581
 31
0.0
  0
LINE
  5
2DA
330
1F
100
AcDbEntity
  8
D-2
  6
Continuous
 62
     3
370
     9
100
AcDbLine
 10
510.8653760268551
 20
403.195487283129
 30
0.0
 11
533.3653250083573
 21
403.195487283129
 31
0.0
  0
LINE
  5
2DB
330
1F
100
AcDbEntity
  8
D-2
  6
Continuous
 62
     3
370
     9
100
AcDbLine
 10
529.6153760268548
 20
354.4456842614093
 30
0.0
 11
532.1154367085253
 21
351.9456707113889
 31
0.0
  0
LINE
  5
2DC
330
1F
100
AcDbEntity
  8
D-2
  6
Continuous
 62
     3
370
     9
100
AcDbLine
 10
514.6153760268548
 20
354.4456842614093
 30
0.0
 11
529.6153760268548
 21
354.4456842614093
 31
0.0
  0
LINE
  5
2DD
330
1F
100
AcDbEntity
  8
D-2
  6
Continuous
 62
     3
370
     9
100
AcDbLine
 10
514.6153760268548
 20
354.4456842614093
 30
0.0
 11
512.1153153451842
 21
351.9456707113889
 31
0.0
  0
LINE
  5
2DE
330
1F
100
AcDbEntity
  8
D-2
  6
Continuous
 62
     3
370
     9
100
AcDbLine
 10
529.6153760268548
 20
403.195487283129
 30
0.0
 11
529.6153760268548
 21
354.4456842614093
 31
0.0
  0
LINE
  5
2DF
330
1F
100
AcDbEntity
  8
D-2
  6
Continuous
 62
     3
370
     9
100
AcDbLine
 10
514.6153760268548
 20
403.195487283129
 30
0.0
 11
514.6153760268548
 21
354.4456842614093
 31
0.0
  0
LINE
  5
2E0
330
1F
100
AcDbEntity
  8
D-2
  6
Continuous
 62
     3
370
     9
100
AcDbLine
 10
569.615500925052
 20
418.1954520082259
 30
0.0
 11
412.1148938137729
 21
418.1954520082259
 31
0.0
  0
LINE
  5
2E1
330
1F
100
AcDbEntity
  8
D-2
  6
Continuous
 62
     3
370
     9
100
AcDbLine
 10
530.0855482166926
 20
353.9755209353532
 30
0.0
 11
530.0855482166926
 21
340.6954157023239
 31
0.0
  0
LINE
  5
2E2
330
1F
100
AcDbEntity
  8
D-2
  6
Continuous
 62
     3
370
     9
100
AcDbLine
 10
530.0855482166926
 20
324.4453620581435
 30
0.0
 11
530.0855482166926
 21
317.4248486812041
 31
0.0
  0
LINE
  5
2E3
330
1F
100
AcDbEntity
  8
D-2
  6
Continuous
 62
     3
370
     9
100
AcDbLine
 10
532.115436708526
 20
351.9456707113891
 30
0.0
 11
532.115436708526
 21
340.6954157023239
 31
0.0
  0
LINE
  5
2E4
330
1F
100
AcDbEntity
  8
D-2
  6
Continuous
 62
     3
370
     9
100
AcDbLine
 10
532.115436708526
 20
324.4453620581435
 30
0.0
 11
532.115436708526
 21
320.9407186827585
 31
0.0
  0
LINE
  5
2E5
330
1F
100
AcDbEntity
  8
D-2
  6
Continuous
 62
     3
370
     9
100
AcDbLine
 10
514.1454662999723
 20
353.9757833933601
 30
0.0
 11
514.1454662999723
 21
340.6954157023239
 31
0.0
  0
LINE
  5
2E6
330
1F
100
AcDbEntity
  8
D-2
  6
Continuous
 62
     3
370
     9
100
AcDbLine
 10
514.1454662999723
 20
324.4453620581435
 30
0.0
 11
514.1454662999723
 21
317.4243940820312
 31
0.0
  0
LINE
  5
2E7
330
1F
100
AcDbEntity
  8
D-2
  6
Continuous
 62
     3
370
     9
100
AcDbLine
 10
512.1153153451842
 20
351.9456707113889
 30
0.0
 11
512.1153153451842
 21
340.6954157023239
 31
0.0
  0
LINE
  5
2E8
330
1F
100
AcDbEntity
  8
D-2
  6
Continuous
 62
     3
370
     9
100
AcDbLine
 10
512.1153153451842
 20
324.4453620581435
 30
0.0
 11
512.1153153451842
 21
320.9407186827581
 31
0.0
  0
LINE
  5
2E9
330
1F
100
AcDbEntity
  8
D-2
  6
Continuous
 62
     3
370
     9
100
AcDbLine
 10
547.1153760268554
 20
399.4454266014583
 30
0.0
 11
547.1153760268554
 21
344.445486399416
 31
0.0
  0
LINE
  5
2EA
330
1F
100
AcDbEntity
  8
D-2
  6
Continuous
 62
     3
370
     9
100
AcDbLine
 10
542.1153760268554
 20
399.4454266014583
 30
0.0
 11
542.1153760268554
 21
344.445486399416
 31
0.0
  0
LINE
  5
2EB
330
1F
100
AcDbEntity
  8
D-2
  6
Continuous
 62
     3
370
     9
100
AcDbLine
 10
502.1153760268554
 20
399.4454266014583
 30
0.0
 11
502.1153760268554
 21
344.445486399416
 31
0.0
  0
LINE
  5
2EC
330
1F
100
AcDbEntity
  8
D-2
  6
Continuous
 62
     3
370
     9
100
AcDbLine
 10
497.1153760268554
 20
399.4454266014583
 30
0.0
 11
497.1153760268554
 21
344.445486399416
 31
0.0
  0
LINE
  5
2ED
330
1F
100
AcDbEntity
  8
D-2
  6
Continuous
 62
     3
370
     9
100
AcDbLine
 10
409.6146717070745
 20
415.695426748744
 30
0.0
 11
409.6146717070745
 21
409.4453964079087
 31
0.0
  0
LINE
  5
2EE
330
1F
100
AcDbEntity
  8
D-2
  6
Continuous
 62
     3
370
     9
100
AcDbLine
 10
572.1151981058402
 20
415.695426748744
 30
0.0
 11
572.1151981058402
 21
409.4453964079087
 31
0.0
  0
LINE
  5
2EF
330
1F
100
AcDbEntity
  8
D-2
  6
Continuous
 62
     3
370
     9
100
AcDbLine
 10
413.3647424041662
 20
414.4454469268725
 30
0.0
 11
413.3647424041662
 21
409.4453964079087
 31
0.0
  0
LINE
  5
2F0
330
1F
100
AcDbEntity
  8
D-2
  6
Continuous
 62
     3
370
     9
100
AcDbLine
 10
413.3647424041662
 20
414.4454469268725
 30
0.0
 11
485.6625254494013
 21
414.4454469268725
 31
0.0
  0
LINE
  5
2F1
330
1F
100
AcDbEntity
  8
D-2
  6
Continuous
 62
     3
370
     9
100
AcDbLine
 10
489.5228305874774
 20
402.8643346654279
 30
0.0
 11
485.6625254494013
 21
414.4454469268725
 31
0.0
  0
LINE
  5
2F2
330
1F
100
AcDbEntity
  8
D-2
  6
Continuous
 62
     3
370
     9
100
AcDbLine
 10
568.365127408748
 20
414.4454469268725
 30
0.0
 11
568.365127408748
 21
409.4453964079087
 31
0.0
  0
LINE
  5
2F3
330
1F
100
AcDbEntity
  8
D-2
  6
Continuous
 62
     3
370
     9
100
AcDbLine
 10
568.365127408748
 20
414.4454469268725
 30
0.0
 11
558.5679102348216
 21
414.4454469268725
 31
0.0
  0
LINE
  5
2F4
330
1F
100
AcDbEntity
  8
D-2
  6
Continuous
 62
     3
370
     9
100
AcDbLine
 10
554.7076050967455
 20
402.8643346654279
 30
0.0
 11
558.5679102348216
 21
414.4454469268725
 31
0.0
  0
LINE
  5
2F5
330
1F
100
AcDbEntity
  8
D-2
  6
Continuous
 62
     3
370
     9
100
AcDbLine
 10
493.3652882446323
 20
403.1954316828121
 30
0.0
 11
550.8651474395912
 21
403.1954316828121
 31
0.0
  0
LINE
  5
2F6
330
1F
100
AcDbEntity
  8
D-2
  6
Continuous
 62
     3
370
     9
100
AcDbLine
 10
493.3652882446323
 20
403.1954316828121
 30
0.0
 11
489.2202108006812
 21
415.6311889405754
 31
0.0
  0
LINE
  5
2F7
330
1F
100
AcDbEntity
  8
D-2
  6
JWW_HOJO
 62
     3
370
     9
100
AcDbLine
 10
489.2202108006812
 20
415.6314514035301
 30
0.0
 11
488.3653689571462
 21
418.1954520082259
 31
0.0
  0
LINE
  5
2F8
330
1F
100
AcDbEntity
  8
D-2
  6
Continuous
 62
     3
370
     9
100
AcDbLine
 10
555.0102248835423
 20
415.631254556314
 30
0.0
 11
550.8651474395912
 21
403.1954316828121
 31
0.0
  0
LINE
  5
2F9
330
1F
100
AcDbEntity
  8
D-2
  6
JWW_HOJO
 62
     3
370
     9
100
AcDbLine
 10
555.8650667270773
 20
418.1954520082259
 30
0.0
 11
555.0102248835423
 21
415.6315826350075
 31
0.0
  0
ARC
  5
2FA
330
1F
100
AcDbEntity
  8
D-2
  6
Continuous
 62
     3
370
     9
100
AcDbCircle
 10
485.6625254494013
 20
414.4453813111338
 30
0.0
 40
3.749999955123916
100
AcDbArc
 50
18.4344940185547
 51
90.00000000000001
  0
ARC
  5
2FB
330
1F
100
AcDbEntity
  8
D-2
  6
Continuous
 62
     3
370
     9
100
AcDbCircle
 10
494.2660611052439
 20
404.4454115046836
 30
0.0
 40
1.249999942322725
100
AcDbArc
 50
198.4344940185547
 51
270.0
  0
ARC
  5
2FC
330
1F
100
AcDbEntity
  8
D-2
  6
Continuous
 62
     3
370
     9
100
AcDbCircle
 10
558.5679102348216
 20
414.4453813111338
 30
0.0
 40
3.749999955123916
100
AcDbArc
 50
90.00000000000001
 51
161.5655059814453
  0
ARC
  5
2FD
330
1F
100
AcDbEntity
  8
D-2
  6
Continuous
 62
     3
370
     9
100
AcDbCircle
 10
549.964374578979
 20
404.4454115046836
 30
0.0
 40
1.249999942322725
100
AcDbArc
 50
270.0
 51
341.5655059814453
  0
ARC
  5
2FE
330
1F
100
AcDbEntity
  8
D-2
  6
Continuous
 62
     3
370
     9
100
AcDbCircle
 10
412.1148938137729
 20
415.695426748744
 30
0.0
 40
2.499999884645451
100
AcDbArc
 50
90.0
 51
180.0
  0
ARC
  5
2FF
330
1F
100
AcDbEntity
  8
D-2
  6
Continuous
 62
     3
370
     9
100
AcDbCircle
 10
569.615500925052
 20
415.695426748744
 30
0.0
 40
2.499999884645451
100
AcDbArc
 50
0.0000000000000127
 51
90.00000000000001
  0
ARC
  5
300
330
1F
100
AcDbEntity
  8
D-2
  6
Continuous
 62
     3
370
     9
100
AcDbCircle
 10
494.2660611052439
 20
404.4454115046836
 30
0.0
 40
4.999999769290902
100
AcDbArc
 50
198.4344940185547
 51
270.0
  0
ARC
  5
301
330
1F
100
AcDbEntity
  8
D-2
  6
Continuous
 62
     3
370
     9
100
AcDbCircle
 10
549.964374578979
 20
404.4454115046836
 30
0.0
 40
4.999999769290902
100
AcDbArc
 50
270.0
 51
341.5655059814453
  0
ARC
  5
302
330
1F
100
AcDbEntity
  8
D-2
  6
Continuous
 62
     3
370
     9
100
AcDbCircle
 10
532.1153760268554
 20
400.6954316828121
 30
0.0
 40
2.5
100
AcDbArc
 50
90.0
 51
180.0
  0
ARC
  5
303
330
1F
100
AcDbEntity
  8
D-2
  6
Continuous
 62
     3
370
     9
100
AcDbCircle
 10
534.6153760268554
 20
398.1954266014587
 30
0.0
 40
1.25
100
AcDbArc
 50
90.0
 51
180.0
  0
LINE
  5
304
330
1F
100
AcDbEntity
  8
D-2
  6
Continuous
 62
     3
370
     9
100
AcDbLine
 10
532.1153760268554
 20
403.1954316828121
 30
0.0
 11
532.1153760268554
 21
393.1954316828121
 31
0.0
  0
LINE
  5
305
330
1F
100
AcDbEntity
  8
D-2
  6
Continuous
 62
     3
370
     9
100
AcDbLine
 10
533.3653760268554
 20
398.1954266014587
 30
0.0
 11
533.3653760268554
 21
393.1954316828121
 31
0.0
  0
ARC
  5
306
330
1F
100
AcDbEntity
  8
D-2
  6
Continuous
 62
     3
370
     9
100
AcDbCircle
 10
512.1153760268554
 20
400.6954316828121
 30
0.0
 40
2.5
100
AcDbArc
 50
0.0000000000000127
 51
90.00000000000001
  0
ARC
  5
307
330
1F
100
AcDbEntity
  8
D-2
  6
Continuous
 62
     3
370
     9
100
AcDbCircle
 10
509.6153760268554
 20
398.1954266014587
 30
0.0
 40
1.25
100
AcDbArc
 50
0.0000000000000127
 51
90.00000000000001
  0
LINE
  5
308
330
1F
100
AcDbEntity
  8
D-2
  6
Continuous
 62
     3
370
     9
100
AcDbLine
 10
512.1153760268554
 20
403.1954316828121
 30
0.0
 11
512.1153760268554
 21
393.1954316828121
 31
0.0
  0
LINE
  5
309
330
1F
100
AcDbEntity
  8
D-2
  6
Continuous
 62
     3
370
     9
100
AcDbLine
 10
510.8653760268554
 20
398.1954266014587
 30
0.0
 11
510.8653760268554
 21
393.1954316828121
 31
0.0
  0
LINE
  5
30A
330
1F
100
AcDbEntity
  8
D-2
  6
Continuous
 62
     3
370
     9
100
AcDbLine
 10
494.2660611052439
 20
399.4454266014583
 30
0.0
 11
509.6153760268554
 21
399.4454266014583
 31
0.0
  0
LINE
  5
30B
330
1F
100
AcDbEntity
  8
D-2
  6
Continuous
 62
     3
370
     9
100
AcDbLine
 10
534.6153760268554
 20
399.4454266014583
 30
0.0
 11
549.964374578979
 21
399.4454266014583
 31
0.0
  0
LINE
  5
30C
330
1F
100
AcDbEntity
  8
D-2
  6
Continuous
 62
     3
370
     9
100
AcDbLine
 10
572.1151981058402
 20
409.4453964079087
 30
0.0
 11
568.365127408748
 21
409.4453964079087
 31
0.0
  0
LINE
  5
30D
330
1F
100
AcDbEntity
  8
D-2
  6
Continuous
 62
     3
370
     9
100
AcDbLine
 10
409.6145740567163
 20
409.4455019379038
 30
0.0
 11
413.3647424041662
 21
409.4453964079087
 31
0.0
  0
LINE
  5
30E
330
1F
100
AcDbEntity
  8
D-2
  6
Continuous
 62
     3
370
     9
100
AcDbLine
 10
538.8481512701061
 20
403.195487283129
 30
0.0
 11
538.3652194334143
 21
403.6784191198205
 31
0.0
  0
LINE
  5
30F
330
1F
100
AcDbEntity
  8
D-2
  6
Continuous
 62
     3
370
     9
100
AcDbLine
 10
542.0302521331762
 20
403.195487283129
 30
0.0
 11
538.3652194334143
 21
406.8605199828908
 31
0.0
  0
LINE
  5
310
330
1F
100
AcDbEntity
  8
D-2
  6
Continuous
 62
     3
370
     9
100
AcDbLine
 10
494.3005764278075
 20
403.195487283129
 30
0.0
 11
493.9906076782789
 21
403.505390416919
 31
0.0
  0
LINE
  5
311
330
1F
100
AcDbEntity
  8
D-2
  6
Continuous
 62
     3
370
     9
100
AcDbLine
 10
497.4824148279232
 20
403.195487283129
 30
0.0
 11
493.9906076782789
 21
406.6873600485118
 31
0.0
  0
LINE
  5
312
330
1F
100
AcDbEntity
  8
D-2
  6
Continuous
 62
     3
370
     9
100
AcDbLine
 10
505.8654816017981
 20
407.5406271143185
 30
0.0
 11
505.2106365297625
 21
408.1955378020927
 31
0.0
  0
ARC
  5
313
330
1F
100
AcDbEntity
  8
D-1
  6
Continuous
 62
     2
370
     9
100
AcDbCircle
 10
584.6152247645351
 20
344.445486399416
 30
0.0
 40
7.5
100
AcDbArc
 50
0.0
 51
90.0
  0
ARC
  5
314
330
1F
100
AcDbEntity
  8
D-1
  6
Continuous
 62
     2
370
     9
100
AcDbCircle
 10
569.6153732284289
 20
344.445486399416
 30
0.0
 40
7.5
100
AcDbArc
 50
90.0
 51
180.0
  0
LINE
  5
315
330
1F
100
AcDbEntity
  8
D-1
  6
Continuous
 62
     2
370
     9
100
AcDbLine
 10
569.6153732284289
 20
351.945486399416
 30
0.0
 11
584.6152247645351
 21
351.945486399416
 31
0.0
  0
LINE
  5
316
330
1F
100
AcDbEntity
  8
D-1
  6
Continuous
 62
     2
370
     9
100
AcDbLine
 10
562.1153732284289
 20
336.9454534074397
 30
0.0
 11
592.1152247645351
 21
336.9454534074397
 31
0.0
  0
LINE
  5
317
330
1F
100
AcDbEntity
  8
D-1
  6
Continuous
 62
     2
370
     9
100
AcDbLine
 10
572.115298996482
 20
335.251681898868
 30
0.0
 11
573.8090705050546
 21
336.94545340744
 31
0.0
  0
LINE
  5
318
330
1F
100
AcDbEntity
  8
D-1
  6
Continuous
 62
     2
370
     9
100
AcDbLine
 10
573.0768374580213
 20
334.44545340744
 30
0.0
 11
575.5768374580213
 21
336.9454534074397
 31
0.0
  0
LINE
  5
319
330
1F
100
AcDbEntity
  8
D-1
  6
Continuous
 62
     2
370
     9
100
AcDbLine
 10
574.8446044109879
 20
334.44545340744
 30
0.0
 11
577.3446044109879
 21
336.9454534074397
 31
0.0
  0
LINE
  5
31A
330
1F
100
AcDbEntity
  8
D-1
  6
Continuous
 62
     2
370
     9
100
AcDbLine
 10
576.612371363954
 20
334.4454534074397
 30
0.0
 11
579.112371363954
 21
336.9454534074397
 31
0.0
  0
LINE
  5
31B
330
1F
100
AcDbEntity
  8
D-1
  6
Continuous
 62
     2
370
     9
100
AcDbLine
 10
578.3801383169207
 20
334.4454534074395
 30
0.0
 11
580.8801383169207
 21
336.9454534074396
 31
0.0
  0
LINE
  5
31C
330
1F
100
AcDbEntity
  8
D-1
  6
Continuous
 62
     2
370
     9
100
AcDbLine
 10
580.1479052698845
 20
334.4454534074391
 30
0.0
 11
582.1152989964831
 21
336.4128471340373
 31
0.0
  0
LINE
  5
31D
330
1F
100
AcDbEntity
  8
D-1
  6
Continuous
 62
     2
370
     9
100
AcDbLine
 10
581.9156722228512
 20
334.4454534074391
 30
0.0
 11
582.1152989964831
 21
334.6450801810709
 31
0.0
  0
LINE
  5
31E
330
1F
100
AcDbEntity
  8
D-1
  6
Continuous
 62
     2
370
     9
100
AcDbLine
 10
582.115298996482
 20
336.9454534074397
 30
0.0
 11
582.115298996482
 21
334.4454534074397
 31
0.0
  0
LINE
  5
31F
330
1F
100
AcDbEntity
  8
D-1
  6
Continuous
 62
     2
370
     9
100
AcDbLine
 10
572.115298996482
 20
336.9454534074397
 30
0.0
 11
572.115298996482
 21
334.4454534074397
 31
0.0
  0
LINE
  5
320
330
1F
100
AcDbEntity
  8
D-1
  6
Continuous
 62
     2
370
     9
100
AcDbLine
 10
562.1153732284289
 20
334.4454534074397
 30
0.0
 11
592.1152247645346
 21
334.4454534074397
 31
0.0
  0
LINE
  5
321
330
1F
100
AcDbEntity
  8
D-1
  6
Continuous
 62
     2
370
     9
100
AcDbLine
 10
562.1153732284289
 20
344.4454863994166
 30
0.0
 11
562.1153732284289
 21
334.4454534074397
 31
0.0
  0
LINE
  5
322
330
1F
100
AcDbEntity
  8
D-1
  6
Continuous
 62
     2
370
     9
100
AcDbLine
 10
562.2108079334815
 20
345.6381358839059
 30
0.0
 11
568.4229288617438
 21
351.8500847296676
 31
0.0
  0
LINE
  5
323
330
1F
100
AcDbEntity
  8
D-1
  6
Continuous
 62
     2
370
     9
100
AcDbLine
 10
563.0640400897549
 20
336.9454534074397
 30
0.0
 11
578.0641617611382
 21
351.945486399416
 31
0.0
  0
LINE
  5
324
330
1F
100
AcDbEntity
  8
D-1
  6
Continuous
 62
     2
370
     9
100
AcDbLine
 10
566.246125379506
 20
336.9454534074397
 30
0.0
 11
581.2461583714826
 21
351.945486399416
 31
0.0
  0
LINE
  5
325
330
1F
100
AcDbEntity
  8
D-1
  6
Continuous
 62
     2
370
     9
100
AcDbLine
 10
569.4280808676546
 20
336.9454534074397
 30
0.0
 11
584.4282065393854
 21
351.945486399416
 31
0.0
  0
LINE
  5
326
330
1F
100
AcDbEntity
  8
D-1
  6
Continuous
 62
     2
370
     9
100
AcDbLine
 10
572.6100335859325
 20
336.9454534074397
 30
0.0
 11
587.1638525236243
 21
351.4991731337135
 31
0.0
  0
LINE
  5
327
330
1F
100
AcDbEntity
  8
D-1
  6
Continuous
 62
     2
370
     9
100
AcDbLine
 10
575.7919825770357
 20
336.9454534074397
 30
0.0
 11
589.2154904954895
 21
350.3689613258936
 31
0.0
  0
LINE
  5
328
330
1F
100
AcDbEntity
  8
D-1
  6
Continuous
 62
     2
370
     9
100
AcDbLine
 10
578.9740586961237
 20
336.9454534074397
 30
0.0
 11
590.765879677292
 21
348.737274388609
 31
0.0
  0
LINE
  5
329
330
1F
100
AcDbEntity
  8
D-1
  6
Continuous
 62
     2
370
     9
100
AcDbLine
 10
582.1558873753888
 20
336.9454534074397
 30
0.0
 11
591.8017109007944
 21
346.5912769328457
 31
0.0
  0
LINE
  5
32A
330
1F
100
AcDbEntity
  8
D-1
  6
Continuous
 62
     2
370
     9
100
AcDbLine
 10
562.1153732284289
 20
342.3606341689647
 30
0.0
 11
571.7005157681921
 21
351.945486399416
 31
0.0
  0
LINE
  5
32B
330
1F
100
AcDbEntity
  8
D-1
  6
Continuous
 62
     2
370
     9
100
AcDbLine
 10
562.1153732284289
 20
339.1784823348048
 30
0.0
 11
574.8823772930403
 21
351.945486399416
 31
0.0
  0
LINE
  5
32C
330
1F
100
AcDbEntity
  8
D-1
  6
Continuous
 62
     2
370
     9
100
AcDbLine
 10
591.7013734131853
 20
336.9454534074397
 30
0.0
 11
592.1152247645351
 21
337.3593047587893
 31
0.0
  0
LINE
  5
32D
330
1F
100
AcDbEntity
  8
D-1
  6
Continuous
 62
     2
370
     9
100
AcDbLine
 10
585.3377160546545
 20
336.9454534074397
 30
0.0
 11
592.1152247645351
 21
343.7229621173207
 31
0.0
  0
LINE
  5
32E
330
1F
100
AcDbEntity
  8
D-1
  6
Continuous
 62
     2
370
     9
100
AcDbLine
 10
588.5195447339196
 20
336.9454534074397
 30
0.0
 11
592.1152247645351
 21
340.541133438055
 31
0.0
  0
LINE
  5
32F
330
1F
100
AcDbEntity
  8
D-2
  6
Continuous
 62
     3
370
     9
100
AcDbLine
 10
538.3652194334143
 20
408.1955378020927
 30
0.0
 11
538.3652194334143
 21
403.195487283129
 31
0.0
  0
LINE
  5
330
330
1F
100
AcDbEntity
  8
D-2
  6
Continuous
 62
     3
370
     9
100
AcDbLine
 10
505.8654816017981
 20
408.1951450795158
 30
0.0
 11
505.8654816017981
 21
403.195487283129
 31
0.0
  0
LINE
  5
331
330
1F
100
AcDbEntity
  8
D-1
  6
Continuous
 62
     2
370
     9
100
AcDbLine
 10
594.6152045287294
 20
361.4750283280675
 30
0.0
 11
598.6152045287291
 21
361.4750283280675
 31
0.0
  0
LINE
  5
332
330
1F
100
AcDbEntity
  8
D-1
  6
Continuous
 62
     2
370
     9
100
AcDbLine
 10
602.6152045287295
 20
351.2250283280674
 30
0.0
 11
602.6152045287295
 21
347.2250283280674
 31
0.0
  0
LINE
  5
333
330
1F
100
AcDbEntity
  8
D-1
  6
Continuous
 62
     2
370
     9
100
AcDbLine
 10
598.6152045287291
 20
355.2250283280674
 30
0.0
 11
598.6152045287291
 21
416.9453278463138
 31
0.0
  0
ARC
  5
334
330
1F
100
AcDbEntity
  8
D-1
  6
Continuous
 62
     2
370
     9
100
AcDbCircle
 10
602.6152045287295
 20
355.2250283280674
 30
0.0
 40
8.0
100
AcDbArc
 50
180.0
 51
270.0
  0
ARC
  5
335
330
1F
100
AcDbEntity
  8
D-1
  6
Continuous
 62
     2
370
     9
100
AcDbCircle
 10
602.6152045287295
 20
355.2250283280674
 30
0.0
 40
4.0
100
AcDbArc
 50
180.0
 51
270.0
  0
LINE
  5
336
330
1F
100
AcDbEntity
  8
D-1
  6
Continuous
 62
     2
370
     9
100
AcDbLine
 10
673.6152045287292
 20
347.2250283280674
 30
0.0
 11
673.6152045287292
 21
351.2250283280674
 31
0.0
  0
LINE
  5
337
330
1F
100
AcDbEntity
  8
D-1
  6
Continuous
 62
     2
370
     9
100
AcDbLine
 10
602.6152045287295
 20
347.2250283280674
 30
0.0
 11
673.6152045287292
 21
347.2250283280674
 31
0.0
  0
LINE
  5
338
330
1F
100
AcDbEntity
  8
D-1
  6
Continuous
 62
     2
370
     9
100
AcDbLine
 10
602.6152045287295
 20
351.2250283280674
 30
0.0
 11
673.6152045287292
 21
351.2250283280674
 31
0.0
  0
LINE
  5
339
330
1F
100
AcDbEntity
  8
D-1
  6
Continuous
 62
     2
370
     9
100
AcDbLine
 10
594.6152045287294
 20
363.1806982397881
 30
0.0
 11
594.6152045287294
 21
355.2250283280674
 31
0.0
  0
LWPOLYLINE
  5
33A
330
1F
100
AcDbEntity
  8
D-4
  6
Continuous
 62
     7
370
     9
100
AcDbPolyline
 90
        4
 70
     1
 43
1.0
 10
767.789112049084
 20
419.4456230962824
 42
0.4142135623731
 10
767.289112049084
 20
419.9456230962824
 42
0.4142135623731
 10
766.789112049084
 20
419.4456230962824
 42
0.4142135623731
 10
767.289112049084
 20
418.9456230962824
 42
0.4142135623731
  0
LINE
  5
33B
330
1F
100
AcDbEntity
  8
D-4
  6
Continuous
 62
     7
370
     9
100
AcDbLine
 10
727.2659562562003
 20
347.2252781981031
 30
0.0
 11
683.6149997121248
 21
347.2252781981031
 31
0.0
  0
LWPOLYLINE
  5
33C
330
1F
100
AcDbEntity
  8
D-4
  6
Continuous
 62
     7
370
     9
100
AcDbPolyline
 90
        4
 70
     1
 43
1.0
 10
726.7659562562006
 20
347.2252781981031
 42
0.4142135623731
 10
726.2659562562008
 20
347.7252781981031
 42
0.4142135623731
 10
725.7659562562008
 20
347.2252781981031
 42
0.4142135623731
 10
726.2659562562008
 20
346.7252781981031
 42
0.4142135623731
  0
LWPOLYLINE
  5
33D
330
1F
100
AcDbEntity
  8
D-4
  6
Continuous
 62
     7
370
     9
100
AcDbPolyline
 90
        4
 70
     1
 43
1.0
 10
726.7659562562006
 20
419.4456230962824
 42
0.4142135623731
 10
726.2659562562008
 20
419.9456230962824
 42
0.4142135623731
 10
725.7659562562008
 20
419.4456230962824
 42
0.4142135623731
 10
726.2659562562008
 20
418.9456230962824
 42
0.4142135623731
  0
LINE
  5
33E
330
1F
100
AcDbEntity
  8
D-4
  6
Continuous
 62
     7
370
     9
100
AcDbLine
 10
726.2659562562008
 20
419.4456230962824
 30
0.0
 11
726.2659562562008
 21
347.2252781981031
 31
0.0
  0
TEXT
  5
33F
330
1F
100
AcDbEntity
  8
D-4
  6
Continuous
 62
     2
370
   211
100
AcDbText
 10
720.9459562562007
 20
362.7104609492025
 30
0.0
 40
15.24
  1
29
 50
90.0
 41
1.0625
  7
ＭＳ ゴシック
100
AcDbText
  0
LINE
  5
340
330
1F
100
AcDbEntity
  8
D-4
  6
Continuous
 62
     7
370
     9
100
AcDbLine
 10
768.2891120490837
 20
331.9453874073769
 30
0.0
 11
603.3651511217311
 21
331.9453874073769
 31
0.0
  0
LWPOLYLINE
  5
341
330
1F
100
AcDbEntity
  8
D-4
  6
Continuous
 62
     7
370
     9
100
AcDbPolyline
 90
        4
 70
     1
 43
1.0
 10
767.789112049084
 20
331.9453874073769
 42
0.4142135623731
 10
767.289112049084
 20
332.4453874073769
 42
0.4142135623731
 10
766.789112049084
 20
331.9453874073769
 42
0.4142135623731
 10
767.289112049084
 20
331.4453874073769
 42
0.4142135623731
  0
LWPOLYLINE
  5
342
330
1F
100
AcDbEntity
  8
D-6
  6
Continuous
 62
     6
370
     9
100
AcDbPolyline
 90
        4
 70
     1
 43
1.0
 10
798.2544896139826
 20
364.4496678690401
 42
0.4142135623731
 10
797.7544896139827
 20
364.9496678690401
 42
0.4142135623731
 10
797.2544896139827
 20
364.4496678690401
 42
0.4142135623731
 10
797.7544896139827
 20
363.9496678690401
 42
0.4142135623731
  0
LWPOLYLINE
  5
343
330
1F
100
AcDbEntity
  8
D-6
  6
Continuous
 62
     6
370
     9
100
AcDbPolyline
 90
        4
 70
     1
 43
1.0
 10
794.2807447142134
 20
344.5809433701932
 42
0.4142135623731
 10
793.7807447142134
 20
345.0809433701932
 42
0.4142135623731
 10
793.2807447142135
 20
344.5809433701932
 42
0.4142135623731
 10
793.7807447142134
 20
344.0809433701932
 42
0.4142135623731
  0
LWPOLYLINE
  5
344
330
1F
100
AcDbEntity
  8
D-6
  6
Continuous
 62
     6
370
     9
100
AcDbPolyline
 90
        4
 70
     1
 43
1.0
 10
782.028364606591
 20
385.6429740011435
 42
0.4142135623731
 10
781.528364606591
 20
386.1429740011434
 42
0.4142135623731
 10
781.028364606591
 20
385.6429740011435
 42
0.4142135623731
 10
781.528364606591
 20
385.1429740011435
 42
0.4142135623731
  0
LWPOLYLINE
  5
345
330
1F
100
AcDbEntity
  8
D-6
  6
Continuous
 62
     6
370
     9
100
AcDbPolyline
 90
        4
 70
     1
 43
1.0
 10
817.7920687045155
 20
343.5875071452509
 42
0.4142135623731
 10
817.2920687045155
 20
344.0875071452508
 42
0.4142135623731
 10
816.7920687045155
 20
343.5875071452509
 42
0.4142135623731
 10
817.2920687045155
 20
343.0875071452509
 42
0.4142135623731
  0
LINE
  5
346
330
1F
100
AcDbEntity
  8
D-5
  6
Continuous
 62
     7
370
     9
100
AcDbLine
 10
314.8420215666466
 20
286.1591928983162
 30
0.0
 11
180.2023046977889
 21
286.1591928983162
 31
0.0
  0
LINE
  5
347
330
1F
100
AcDbEntity
  8
D-5
  6
Continuous
 62
     7
370
     9
100
AcDbLine
 10
352.8238514008405
 20
351.9454863994155
 30
0.0
 11
314.8420215666466
 21
286.1591928983162
 31
0.0
  0
TEXT
  5
348
330
1F
100
AcDbEntity
  8
D-5
  6
Continuous
 62
     7
370
     9
100
AcDbText
 10
196.2721631322177
 20
268.9853308245727
 30
0.0
 40
11.43
  1
ＳＵＳ３０４
 41
1.138888888888889
  7
ＭＳ ゴシック
100
AcDbText
  0
TEXT
  5
349
330
1F
100
AcDbEntity
  8
D-5
  6
Continuous
 62
     7
370
     9
100
AcDbText
 10
189.4387388336123
 20
292.0785183113758
 30
0.0
 40
11.43
  1
蓋　ｔ＝１．０
 41
1.142857142857143
  7
ＭＳ ゴシック
100
AcDbText
  0
LINE
  5
34A
330
1F
100
AcDbEntity
  8
D-5
  6
Continuous
 62
     7
370
     9
100
AcDbLine
 10
352.8238514008405
 20
351.9454863994155
 30
0.0
 11
348.0403447496582
 21
340.3969749973884
 31
0.0
  0
LINE
  5
34B
330
1F
100
AcDbEntity
  8
D-5
  6
Continuous
 62
     7
370
     9
100
AcDbLine
 10
352.8238514008405
 20
351.9454863994155
 30
0.0
 11
345.2143345353426
 21
342.0285931878445
 31
0.0
  0
LWPOLYLINE
  5
34C
330
1F
100
AcDbEntity
  8
D-6
  6
Continuous
 62
     6
370
     9
100
AcDbPolyline
 90
        4
 70
     1
 43
1.0
 10
88.0584065054953
 20
362.5216650373218
 42
0.4142135623731
 10
87.5584065054953
 20
363.0216650373218
 42
0.4142135623731
 10
87.0584065054953
 20
362.5216650373218
 42
0.4142135623731
 10
87.5584065054953
 20
362.0216650373219
 42
0.4142135623731
  0
LWPOLYLINE
  5
34D
330
1F
100
AcDbEntity
  8
D-6
  6
Continuous
 62
     6
370
     9
100
AcDbPolyline
 90
        4
 70
     1
 43
1.0
 10
59.76707195911586
 20
362.813328280068
 42
0.4142135623731
 10
59.26707195911586
 20
363.313328280068
 42
0.4142135623731
 10
58.76707195911586
 20
362.813328280068
 42
0.4142135623731
 10
59.26707195911586
 20
362.313328280068
 42
0.4142135623731
  0
LWPOLYLINE
  5
34E
330
1F
100
AcDbEntity
  8
D-6
  6
Continuous
 62
     6
370
     9
100
AcDbPolyline
 90
        4
 70
     1
 43
1.0
 10
278.7332514508104
 20
387.337345940976
 42
0.4142135623731
 10
278.2332514508104
 20
387.837345940976
 42
0.4142135623731
 10
277.7332514508104
 20
387.337345940976
 42
0.4142135623731
 10
278.2332514508104
 20
386.837345940976
 42
0.4142135623731
  0
LINE
  5
34F
330
1F
100
AcDbEntity
  8
D-4
  6
Continuous
 62
     7
370
     9
100
AcDbLine
 10
-116.2572415448266
 20
419.4456029758312
 30
0.0
 11
-37.75724154482635
 21
419.4456029758312
 31
0.0
  0
LWPOLYLINE
  5
350
330
1F
100
AcDbEntity
  8
D-4
  6
Continuous
 62
     7
370
     9
100
AcDbPolyline
 90
        4
 70
     1
 43
1.0
 10
-114.7572415448263
 20
419.4456029758312
 42
0.4142135623731
 10
-115.2572415448263
 20
419.9456029758312
 42
0.4142135623731
 10
-115.7572415448264
 20
419.4456029758312
 42
0.4142135623731
 10
-115.2572415448263
 20
418.9456029758313
 42
0.4142135623731
  0
LWPOLYLINE
  5
351
330
1F
100
AcDbEntity
  8
D-4
  6
Continuous
 62
     7
370
     9
100
AcDbPolyline
 90
        4
 70
     1
 43
1.0
 10
-77.25724154482636
 20
419.4456029758312
 42
0.4142135623731
 10
-77.75724154482634
 20
419.9456029758312
 42
0.4142135623731
 10
-78.25724154482634
 20
419.4456029758312
 42
0.4142135623731
 10
-77.75724154482634
 20
418.9456029758313
 42
0.4142135623731
  0
TEXT
  5
352
330
1F
100
AcDbEntity
  8
D-4
  6
Continuous
 62
     2
370
   211
100
AcDbText
 10
-120.5772415448263
 20
348.1954863994155
 30
0.0
 40
15.24
  1
1
 50
90.0
 41
0.9999999999999998
  7
ＭＳ ゴシック
100
AcDbText
  0
LINE
  5
353
330
1F
100
AcDbEntity
  8
D-4
  6
Continuous
 62
     7
370
     9
100
AcDbLine
 10
-116.2572415448266
 20
351.9454863994155
 30
0.0
 11
-37.75724154482635
 21
351.9454863994155
 31
0.0
  0
LWPOLYLINE
  5
354
330
1F
100
AcDbEntity
  8
D-4
  6
Continuous
 62
     7
370
     9
100
AcDbPolyline
 90
        4
 70
     1
 43
1.0
 10
-114.7572415448263
 20
351.9454863994155
 42
0.4142135623731
 10
-115.2572415448263
 20
352.4454863994154
 42
0.4142135623731
 10
-115.7572415448264
 20
351.9454863994155
 42
0.4142135623731
 10
-115.2572415448263
 20
351.4454863994155
 42
0.4142135623731
  0
LINE
  5
355
330
1F
100
AcDbEntity
  8
D-4
  6
Continuous
 62
     7
370
     9
100
AcDbLine
 10
-115.2572415448263
 20
354.4454863994155
 30
0.0
 11
-115.2572415448263
 21
351.9454863994155
 31
0.0
  0
LINE
  5
356
330
1F
100
AcDbEntity
  8
D-4
  6
Continuous
 62
     7
370
     9
100
AcDbLine
 10
-116.2572415448266
 20
354.4454863994155
 30
0.0
 11
-37.75724154482635
 21
354.4454863994155
 31
0.0
  0
LWPOLYLINE
  5
357
330
1F
100
AcDbEntity
  8
D-4
  6
Continuous
 62
     7
370
     9
100
AcDbPolyline
 90
        4
 70
     1
 43
1.0
 10
-114.7572415448263
 20
354.4454863994155
 42
0.4142135623731
 10
-115.2572415448263
 20
354.9454863994154
 42
0.4142135623731
 10
-115.7572415448264
 20
354.4454863994155
 42
0.4142135623731
 10
-115.2572415448263
 20
353.9454863994155
 42
0.4142135623731
  0
LINE
  5
358
330
1F
100
AcDbEntity
  8
D-5
  6
Continuous
 62
     7
370
     9
100
AcDbLine
 10
169.0843950521113
 20
354.4454863994155
 30
0.0
 11
161.4748781866134
 21
344.5285931878445
 31
0.0
  0
LINE
  5
359
330
1F
100
AcDbEntity
  8
D-5
  6
Continuous
 62
     7
370
     9
100
AcDbLine
 10
169.0843950521113
 20
354.4454863994155
 30
0.0
 11
164.300888400929
 21
342.8969749973884
 31
0.0
  0
LINE
  5
35A
330
1F
100
AcDbEntity
  8
D-5
  6
Continuous
 62
     7
370
     9
100
AcDbLine
 10
169.0843950521113
 20
354.4454863994155
 30
0.0
 11
127.9272344735644
 21
283.1593725573018
 31
0.0
  0
TEXT
  5
35B
330
1F
100
AcDbEntity
  8
D-5
  6
Continuous
 62
     7
370
     9
100
AcDbText
 10
22.40197706849951
 20
288.6522972960056
 30
0.0
 40
11.43
  1
モルタル止め
 41
1.138888888888889
  7
ＭＳ ゴシック
100
AcDbText
  0
TEXT
  5
35C
330
1F
100
AcDbEntity
  8
D-5
  6
Continuous
 62
     7
370
     9
100
AcDbText
 10
23.7763634029087
 20
267.7925016483068
 30
0.0
 40
11.43
  1
ＳＵＳ３０４
 41
1.138888888888889
  7
ＭＳ ゴシック
100
AcDbText
  0
LINE
  5
35D
330
1F
100
AcDbEntity
  8
D-5
  6
Continuous
 62
     7
370
     9
100
AcDbLine
 10
22.12549233225296
 20
283.1593725573019
 30
0.0
 11
127.9272344735644
 21
283.1593725573019
 31
0.0
  0
LINE
  5
35E
330
1F
100
AcDbEntity
  8
D-2
  6
Continuous
 62
     3
370
     9
100
AcDbLine
 10
497.1153760268554
 20
351.9454863994155
 30
0.0
 11
-16.45097837767885
 21
351.9454863994155
 31
0.0
  0
LINE
  5
35F
330
1F
100
AcDbEntity
  8
D-2
  6
Continuous
 62
     3
370
     9
100
AcDbLine
 10
497.1153760268554
 20
354.4454863994155
 30
0.0
 11
-16.45097837767885
 21
354.4454863994155
 31
0.0
  0
LWPOLYLINE
  5
360
330
1F
100
AcDbEntity
  8
D-6
  6
Continuous
 62
     6
370
     9
100
AcDbPolyline
 90
        4
 70
     1
 43
1.0
 10
21.3016469406798
 20
365.704783373207
 42
0.4142135623731
 10
20.8016469406798
 20
366.204783373207
 42
0.4142135623731
 10
20.3016469406798
 20
365.704783373207
 42
0.4142135623731
 10
20.8016469406798
 20
365.204783373207
 42
0.4142135623731
  0
LWPOLYLINE
  5
361
330
1F
100
AcDbEntity
  8
D-6
  6
Continuous
 62
     6
370
     9
100
AcDbPolyline
 90
        4
 70
     1
 43
1.0
 10
10.80177020181732
 20
386.704536850932
 42
0.4142135623731
 10
10.30177020181732
 20
387.204536850932
 42
0.4142135623731
 10
9.80177020181732
 20
386.704536850932
 42
0.4142135623731
 10
10.30177020181732
 20
386.204536850932
 42
0.4142135623731
  0
LWPOLYLINE
  5
362
330
1F
100
AcDbEntity
  8
D-6
  6
Continuous
 62
     6
370
     9
100
AcDbPolyline
 90
        4
 70
     1
 43
1.0
 10
-1.010591129402954
 20
365.704783373207
 42
0.4142135623731
 10
-1.510591129402954
 20
366.204783373207
 42
0.4142135623731
 10
-2.010591129402954
 20
365.704783373207
 42
0.4142135623731
 10
-1.510591129402954
 20
365.204783373207
 42
0.4142135623731
  0
TEXT
  5
363
330
1F
100
AcDbEntity
  8
D-4
  6
Continuous
 62
     2
370
   211
100
AcDbText
 10
-7.299195917625667
 20
214.1146154743135
 30
0.0
 40
15.24
  1
□310
 41
1.1
  7
ＭＳ ゴシック
100
AcDbText
  0
TEXT
  5
364
330
1F
100
AcDbEntity
  8
D-4
  6
Continuous
 62
     2
370
   211
100
AcDbText
 10
-7.299195917625667
 20
549.7656029758313
 30
0.0
 40
15.24
  1
□350
 41
1.1
  7
ＭＳ ゴシック
100
AcDbText
  0
LINE
  5
365
330
1F
100
AcDbEntity
  8
D-4
  6
Continuous
 62
     7
370
     9
100
AcDbLine
 10
594.6151510640537
 20
207.7946154743134
 30
0.0
 11
594.6151510640537
 21
322.2458754656732
 31
0.0
  0
LINE
  5
366
330
1F
100
AcDbEntity
  8
D-6
  6
Continuous
 62
     6
370
     9
100
AcDbLine
 10
397.1146717070745
 20
399.4455369918785
 30
0.0
 11
159.6147541870157
 21
399.4455369918785
 31
0.0
  0
LINE
  5
367
330
1F
100
AcDbEntity
  8
D-6
  6
JWW_DASHED3
 62
     6
370
     9
100
AcDbLine
 10
213.8891946430969
 20
399.4455369918785
 30
0.0
 11
233.8892606270495
 21
419.4456029758312
 31
0.0
  0
LINE
  5
368
330
1F
100
AcDbEntity
  8
D-6
  6
Continuous
 62
     6
370
     9
100
AcDbLine
 10
226.3893596029787
 20
399.4455369918785
 30
0.0
 11
246.3891781471084
 21
419.4456029758312
 31
0.0
  0
LINE
  5
369
330
1F
100
AcDbEntity
  8
D-6
  6
JWW_DASHED3
 62
     6
370
     9
100
AcDbLine
 10
238.8892771230375
 20
399.4455369918785
 30
0.0
 11
258.8893431069902
 21
419.4456029758312
 31
0.0
  0
LINE
  5
36A
330
1F
100
AcDbEntity
  8
D-6
  6
JWW_DASHED3
 62
     6
370
     9
100
AcDbLine
 10
263.8893596029787
 20
399.4455369918785
 30
0.0
 11
283.8894255869313
 21
419.4456029758312
 31
0.0
  0
LINE
  5
36B
330
1F
100
AcDbEntity
  8
D-6
  6
Continuous
 62
     6
370
     9
100
AcDbLine
 10
251.3891946430969
 20
399.4455369918785
 30
0.0
 11
271.3892606270496
 21
419.4456029758312
 31
0.0
  0
LINE
  5
36C
330
1F
100
AcDbEntity
  8
D-6
  6
Continuous
 62
     6
370
     9
100
AcDbLine
 10
276.3892771230376
 20
399.4455369918785
 30
0.0
 11
296.3893431069902
 21
419.4456029758312
 31
0.0
  0
LINE
  5
36D
330
1F
100
AcDbEntity
  8
D-6
  6
JWW_DASHED3
 62
     6
370
     9
100
AcDbLine
 10
288.889194643097
 20
399.4455369918785
 30
0.0
 11
308.8892606270496
 21
419.4456029758312
 31
0.0
  0
LINE
  5
36E
330
1F
100
AcDbEntity
  8
D-6
  6
Continuous
 62
     6
370
     9
100
AcDbLine
 10
376.3893596029782
 20
399.4455369918785
 30
0.0
 11
396.3891781471084
 21
419.4456029758312
 31
0.0
  0
LINE
  5
36F
330
1F
100
AcDbEntity
  8
D-6
  6
JWW_DASHED3
 62
     6
370
     9
100
AcDbLine
 10
363.8894420829193
 20
399.4455369918785
 30
0.0
 11
383.8895080668719
 21
419.4456029758312
 31
0.0
  0
LINE
  5
370
330
1F
100
AcDbEntity
  8
D-6
  6
Continuous
 62
     6
370
     9
100
AcDbLine
 10
351.3892771230376
 20
399.4455369918785
 30
0.0
 11
371.3893431069902
 21
419.4456029758312
 31
0.0
  0
LINE
  5
371
330
1F
100
AcDbEntity
  8
D-6
  6
Continuous
 62
     6
370
     9
100
AcDbLine
 10
326.389194643097
 20
399.4455369918785
 30
0.0
 11
346.3895080668719
 21
419.4456029758312
 31
0.0
  0
LINE
  5
372
330
1F
100
AcDbEntity
  8
D-6
  6
JWW_DASHED3
 62
     6
370
     9
100
AcDbLine
 10
338.8893596029787
 20
399.4455369918785
 30
0.0
 11
358.8891781471084
 21
419.4456029758312
 31
0.0
  0
LINE
  5
373
330
1F
100
AcDbEntity
  8
D-6
  6
JWW_DASHED3
 62
     6
370
     9
100
AcDbLine
 10
313.8892771230376
 20
399.4455369918785
 30
0.0
 11
333.8893431069902
 21
419.4456029758312
 31
0.0
  0
LINE
  5
374
330
1F
100
AcDbEntity
  8
D-6
  6
Continuous
 62
     6
370
     9
100
AcDbLine
 10
301.3893596029787
 20
399.4455369918785
 30
0.0
 11
321.3894255869313
 21
419.4456029758312
 31
0.0
  0
LINE
  5
375
330
1F
100
AcDbEntity
  8
D-6
  6
JWW_DASHED3
 62
     6
370
     9
100
AcDbLine
 10
188.8891121631558
 20
399.4455369918785
 30
0.0
 11
208.8891781471084
 21
419.4456029758312
 31
0.0
  0
LINE
  5
376
330
1F
100
AcDbEntity
  8
D-6
  6
Continuous
 62
     6
370
     9
100
AcDbLine
 10
201.3892771230375
 20
399.4455369918785
 30
0.0
 11
221.3890956671678
 21
419.4456029758312
 31
0.0
  0
LINE
  5
377
330
1F
100
AcDbEntity
  8
D-6
  6
JWW_DASHED3
 62
     6
370
     9
100
AcDbLine
 10
163.8890296832152
 20
399.4455369918785
 30
0.0
 11
183.8890956671678
 21
419.4456029758312
 31
0.0
  0
LINE
  5
378
330
1F
100
AcDbEntity
  8
D-6
  6
Continuous
 62
     6
370
     9
100
AcDbLine
 10
176.3891946430969
 20
399.4455369918785
 30
0.0
 11
196.3890131872266
 21
419.4456029758312
 31
0.0
  0
LINE
  5
379
330
1F
100
AcDbEntity
  8
D-6
  6
Continuous
 62
     6
370
     9
100
AcDbLine
 10
159.6147541870157
 20
407.6711790157383
 30
0.0
 11
171.388930707286
 21
419.4456029758312
 31
0.0
  0
LINE
  5
37A
330
1F
100
AcDbEntity
  8
D-6
  6
JWW_DASHED3
 62
     6
370
     9
100
AcDbLine
 10
388.8892771230376
 20
399.4455369918785
 30
0.0
 11
397.1146717070745
 21
407.6709315759156
 31
0.0
  0
LINE
  5
37B
330
1F
100
AcDbEntity
  8
D-6
  6
Continuous
 62
     6
370
     9
100
AcDbLine
 10
159.6147541870157
 20
399.4455369918785
 30
0.0
 11
159.6147541870157
 21
419.4456029758312
 31
0.0
  0
LINE
  5
37C
330
1F
100
AcDbEntity
  8
D-6
  6
Continuous
 62
     6
370
     9
100
AcDbLine
 10
397.1146717070745
 20
399.4455369918785
 30
0.0
 11
397.1146717070745
 21
419.4456029758312
 31
0.0
  0
LINE
  5
37D
330
1F
100
AcDbEntity
  8
D-6
  6
Continuous
 62
     6
370
     9
100
AcDbLine
 10
126.3894420829193
 20
399.4455369918785
 30
0.0
 11
146.3892606270495
 21
419.4456029758312
 31
0.0
  0
LINE
  5
37E
330
1F
100
AcDbEntity
  8
D-6
  6
JWW_DASHED3
 62
     6
370
     9
100
AcDbLine
 10
113.8895245628605
 20
399.4455369918785
 30
0.0
 11
133.8895905468131
 21
419.4456029758312
 31
0.0
  0
LINE
  5
37F
330
1F
100
AcDbEntity
  8
D-6
  6
Continuous
 62
     6
370
     9
100
AcDbLine
 10
101.3893596029787
 20
399.4455369918785
 30
0.0
 11
121.3894255869313
 21
419.4456029758312
 31
0.0
  0
LINE
  5
380
330
1F
100
AcDbEntity
  8
D-6
  6
Continuous
 62
     6
370
     9
100
AcDbLine
 10
76.38927712303811
 20
399.4455369918785
 30
0.0
 11
96.38959054681308
 21
419.4456029758312
 31
0.0
  0
LINE
  5
381
330
1F
100
AcDbEntity
  8
D-6
  6
JWW_DASHED3
 62
     6
370
     9
100
AcDbLine
 10
88.88944208291989
 20
399.4455369918785
 30
0.0
 11
108.8892606270495
 21
419.4456029758312
 31
0.0
  0
LINE
  5
382
330
1F
100
AcDbEntity
  8
D-6
  6
JWW_DASHED3
 62
     6
370
     9
100
AcDbLine
 10
138.8893596029787
 20
399.4455369918785
 30
0.0
 11
147.1147541870157
 21
407.6709315759156
 31
0.0
  0
LINE
  5
383
330
1F
100
AcDbEntity
  8
D-6
  6
Continuous
 62
     6
370
     9
100
AcDbLine
 10
147.1147541870157
 20
399.4455369918785
 30
0.0
 11
147.1147541870157
 21
419.4456029758312
 31
0.0
  0
LINE
  5
384
330
1F
100
AcDbEntity
  8
D-6
  6
JWW_DASHED3
 62
     6
370
     9
100
AcDbLine
 10
83.88942558693131
 20
419.4456029758312
 30
0.0
 11
63.88935960297871
 21
399.4455369918785
 31
0.0
  0
LINE
  5
385
330
1F
100
AcDbEntity
  8
D-6
  6
JWW_DASHED3
 62
     6
370
     9
100
AcDbLine
 10
38.88927712303811
 20
399.4455369918785
 30
0.0
 11
58.88934310699071
 21
419.4456029758312
 31
0.0
  0
LINE
  5
386
330
1F
100
AcDbEntity
  8
D-6
  6
JWW_DASHED3
 62
     6
370
     9
100
AcDbLine
 10
13.88944208291989
 20
399.4455369918785
 30
0.0
 11
33.88926062704954
 21
419.4456029758312
 31
0.0
  0
LINE
  5
387
330
1F
100
AcDbEntity
  8
D-6
  6
JWW_DASHED3
 62
     6
370
     9
100
AcDbLine
 10
-11.11064039702129
 20
399.4455369918785
 30
0.0
 11
8.88942558693131
 21
419.4456029758312
 31
0.0
  0
LINE
  5
388
330
1F
100
AcDbEntity
  8
D-6
  6
Continuous
 62
     6
370
     9
100
AcDbLine
 10
51.38944208291989
 20
399.4455369918785
 30
0.0
 11
71.38950806687248
 21
419.4456029758312
 31
0.0
  0
LINE
  5
389
330
1F
100
AcDbEntity
  8
D-6
  6
Continuous
 62
     6
370
     9
100
AcDbLine
 10
26.38935960297871
 20
399.4455369918785
 30
0.0
 11
46.38942558693131
 21
419.4456029758312
 31
0.0
  0
LINE
  5
38A
330
1F
100
AcDbEntity
  8
D-6
  6
Continuous
 62
     6
370
     9
100
AcDbLine
 10
1.389277123038131
 20
399.4455369918785
 30
0.0
 11
21.38959054681308
 21
419.4456029758312
 31
0.0
  0
LINE
  5
38B
330
1F
100
AcDbEntity
  8
D-6
  6
Continuous
 62
     6
370
     9
100
AcDbLine
 10
147.1147541870157
 20
399.4455369918785
 30
0.0
 11
-16.45097837767885
 21
399.4455369918785
 31
0.0
  0
LINE
  5
38C
330
1F
100
AcDbEntity
  8
D-6
  6
Continuous
 62
     6
370
     9
100
AcDbLine
 10
-16.45097837767885
 20
406.6051165312798
 30
0.0
 11
-3.61049193312752
 21
419.4456029758312
 31
0.0
  0
LINE
  5
38D
330
1F
100
AcDbEntity
  8
D-6
  6
Continuous
 62
     6
370
     9
100
AcDbLine
 10
159.6147541870157
 20
416.9456029758312
 30
0.0
 11
147.1147541870157
 21
416.9456029758312
 31
0.0
  0
LINE
  5
38E
330
1F
100
AcDbEntity
  8
D-6
  6
Continuous
 62
     6
370
     9
100
AcDbLine
 10
147.1147541870157
 20
419.4456029758312
 30
0.0
 11
-16.45097837767885
 21
419.4456029758312
 31
0.0
  0
LINE
  5
38F
330
1F
100
AcDbEntity
  8
D-6
  6
Continuous
 62
     6
370
     9
100
AcDbLine
 10
573.3653558487264
 20
419.4456029758312
 30
0.0
 11
159.6147541870157
 21
419.4456029758312
 31
0.0
  0
LINE
  5
390
330
1F
100
AcDbEntity
  8
D-6
  6
Continuous
 62
     6
370
     9
100
AcDbLine
 10
609.615282500494
 20
416.9456230962824
 30
0.0
 11
622.1156047614055
 21
416.9456230962824
 31
0.0
  0
LINE
  5
391
330
1F
100
AcDbEntity
  8
D-6
  6
Continuous
 62
     6
370
     9
100
AcDbLine
 10
622.1156047614055
 20
419.4456230962824
 30
0.0
 11
820.6219652579443
 21
419.4456230962824
 31
0.0
  0
LINE
  5
392
330
1F
100
AcDbEntity
  8
D-6
  6
Continuous
 62
     6
370
     9
100
AcDbLine
 10
409.9499321918375
 20
416.9456029758312
 30
0.0
 11
397.1146717070745
 21
416.9456029758312
 31
0.0
  0
LINE
  5
393
330
1F
100
AcDbEntity
  8
その他
  6
Continuous
 62
     7
370
     9
100
AcDbLine
 10
-221.8161035613412
 20
198.0815292711125
 30
0.0
 11
-221.8161035613412
 21
373.0815292711129
 31
0.0
  0
TEXT
  5
394
330
1F
100
AcDbEntity
  8
その他
  6
Continuous
 62
     2
370
   211
100
AcDbText
 10
-227.6361035613413
 20
269.3315292711127
 30
0.0
 40
15.24
  1
175
 50
90.0
 41
1.083333333333333
  7
ＭＳ ゴシック
100
AcDbText
  0
LINE
  5
395
330
1F
100
AcDbEntity
  8
その他
  6
Continuous
 62
     7
370
     9
100
AcDbLine
 10
-585.9523502064696
 20
31.61316108404932
 30
0.0
 11
-410.9523502064696
 21
31.61316108404932
 31
0.0
  0
TEXT
  5
396
330
1F
100
AcDbEntity
  8
その他
  6
Continuous
 62
     2
370
   211
100
AcDbText
 10
-514.7023502064696
 20
37.43316108404933
 30
0.0
 40
15.24
  1
175
 41
1.083333333333333
  7
ＭＳ ゴシック
100
AcDbText
  0
LINE
  5
397
330
1F
100
AcDbEntity
  8
その他
  6
Continuous
 62
     7
370
     9
100
AcDbLine
 10
-673.4523502064695
 20
31.61316108404932
 30
0.0
 11
-585.9523502064696
 21
31.61316108404932
 31
0.0
  0
TEXT
  5
398
330
1F
100
AcDbEntity
  8
その他
  6
Continuous
 62
     2
370
   211
100
AcDbText
 10
-651.5773502064695
 20
37.43316108404933
 30
0.0
 40
15.24
  1
87.5
 41
1.093749999999998
  7
ＭＳ ゴシック
100
AcDbText
  0
LINE
  5
399
330
1F
100
AcDbEntity
  8
その他
  6
Continuous
 62
     7
370
     9
100
AcDbLine
 10
-410.9523502064696
 20
31.61316108404932
 30
0.0
 11
-323.4523502064699
 21
31.61316108404932
 31
0.0
  0
TEXT
  5
39A
330
1F
100
AcDbEntity
  8
その他
  6
Continuous
 62
     2
370
   211
100
AcDbText
 10
-389.0773502064698
 20
37.43316108404933
 30
0.0
 40
15.24
  1
87.5
 41
1.09375
  7
ＭＳ ゴシック
100
AcDbText
  0
LINE
  5
39B
330
1F
100
AcDbEntity
  8
その他
  6
Continuous
 62
     7
370
     9
100
AcDbLine
 10
-221.8161035613412
 20
110.5815292711125
 30
0.0
 11
-221.8161035613412
 21
198.0815292711125
 31
0.0
  0
TEXT
  5
39C
330
1F
100
AcDbEntity
  8
その他
  6
Continuous
 62
     2
370
   211
100
AcDbText
 10
-227.6361035613413
 20
132.4565292711125
 30
0.0
 40
15.24
  1
87.5
 50
90.0
 41
1.09375
  7
ＭＳ ゴシック
100
AcDbText
  0
LINE
  5
39D
330
1F
100
AcDbEntity
  8
その他
  6
Continuous
 62
     7
370
     9
100
AcDbLine
 10
-221.8161035613412
 20
373.0815292711129
 30
0.0
 11
-221.8161035613412
 21
460.5815292711129
 31
0.0
  0
TEXT
  5
39E
330
1F
100
AcDbEntity
  8
その他
  6
Continuous
 62
     2
370
   211
100
AcDbText
 10
-227.6361035613413
 20
394.9565292711129
 30
0.0
 40
15.24
  1
87.5
 50
90.0
 41
1.09375
  7
ＭＳ ゴシック
100
AcDbText
  0
LINE
  5
39F
330
1F
100
AcDbEntity
  8
その他
  6
Continuous
 62
     7
370
     9
100
AcDbLine
 10
-653.4523337104815
 20
507.9558768706184
 30
0.0
 11
-343.4523972789507
 21
507.9558768706184
 31
0.0
  0
TEXT
  5
3A0
330
1F
100
AcDbEntity
  8
その他
  6
Continuous
 62
     2
370
   211
100
AcDbText
 10
-514.7023654947161
 20
513.2758768706184
 30
0.0
 40
15.24
  1
310
 41
1.083333333333333
  7
ＭＳ ゴシック
100
AcDbText
  0
LINE
  5
3A1
330
1F
100
AcDbEntity
  8
その他
  6
Continuous
 62
     7
370
     9
100
AcDbLine
 10
-665.4522974782219
 20
547.9558768706183
 30
0.0
 11
-331.4523810186191
 21
547.9558768706183
 31
0.0
  0
TEXT
  5
3A2
330
1F
100
AcDbEntity
  8
その他
  6
Continuous
 62
     2
370
   211
100
AcDbText
 10
-514.7023392484206
 20
553.2758768706184
 30
0.0
 40
15.24
  1
334
 41
1.083333333333333
  7
ＭＳ ゴシック
100
AcDbText
  0
LINE
  5
3A3
330
1F
100
AcDbEntity
  8
その他
  6
Continuous
 62
     7
370
     9
100
AcDbLine
 10
-673.4523783085638
 20
587.9558768706183
 30
0.0
 11
-323.4523001882773
 21
587.9558768706183
 31
0.0
  0
TEXT
  5
3A4
330
1F
100
AcDbEntity
  8
その他
  6
Continuous
 62
     2
370
   211
100
AcDbText
 10
-514.7023392484206
 20
593.2758768706184
 30
0.0
 40
15.24
  1
350
 41
1.083333333333333
  7
ＭＳ ゴシック
100
AcDbText
  0
LINE
  5
3A5
330
1F
100
AcDbEntity
  8
その他
  6
Continuous
 62
     7
370
     9
100
AcDbLine
 10
-726.8153986283812
 20
440.5814053155441
 30
0.0
 11
-726.8153986283812
 21
130.5815213766039
 31
0.0
  0
TEXT
  5
3A6
330
1F
100
AcDbEntity
  8
その他
  6
Continuous
 62
     2
370
   211
100
AcDbText
 10
-732.1353986283813
 20
269.331463346074
 30
0.0
 40
15.24
  1
310
 50
90.0
 41
1.083333333333333
  7
ＭＳ ゴシック
100
AcDbText
  0
LINE
  5
3A7
330
1F
100
AcDbEntity
  8
その他
  6
Continuous
 62
     7
370
     9
100
AcDbLine
 10
-766.8153986283812
 20
452.5814215758751
 30
0.0
 11
-766.8153986283812
 21
118.5816101014546
 31
0.0
  0
TEXT
  5
3A8
330
1F
100
AcDbEntity
  8
その他
  6
Continuous
 62
     2
370
   211
100
AcDbText
 10
-772.1353986283813
 20
269.3315158386649
 30
0.0
 40
15.24
  1
334
 50
90.0
 41
1.083333333333333
  7
ＭＳ ゴシック
100
AcDbText
  0
LINE
  5
3A9
330
1F
100
AcDbEntity
  8
その他
  6
Continuous
 62
     7
370
     9
100
AcDbLine
 10
-806.8153986283812
 20
460.5815024062174
 30
0.0
 11
-806.8153986283812
 21
110.5815292711125
 31
0.0
  0
TEXT
  5
3AA
330
1F
100
AcDbEntity
  8
その他
  6
Continuous
 62
     2
370
   211
100
AcDbText
 10
-812.1353986283813
 20
269.331515838665
 30
0.0
 40
15.24
  1
350
 50
90.0
 41
1.083333333333333
  7
ＭＳ ゴシック
100
AcDbText
  0
LINE
  5
3AB
330
1F
100
AcDbEntity
  8
D-4
  6
Continuous
 62
     7
370
     9
100
AcDbLine
 10
-747.910875968787
 20
-222.3759734323892
 30
0.0
 11
-747.910875968787
 21
-309.8760643972182
 31
0.0
  0
TEXT
  5
3AC
330
1F
100
AcDbEntity
  8
D-4
  6
Continuous
 62
     2
370
   211
100
AcDbText
 10
-753.230875968787
 20
-276.7510189148037
 30
0.0
 40
15.24
  1
35
 50
90.0
 41
1.0625
  7
ＭＳ ゴシック
100
AcDbText
  0
LINE
  5
3AD
330
1F
100
AcDbEntity
  8
D-4
  6
Continuous
 62
     7
370
     9
100
AcDbLine
 10
-710.410875968787
 20
-222.3759734323892
 30
0.0
 11
-710.410875968787
 21
-289.8759734323892
 31
0.0
  0
TEXT
  5
3AE
330
1F
100
AcDbEntity
  8
D-4
  6
Continuous
 62
     2
370
   211
100
AcDbText
 10
-715.730875968787
 20
-266.7509734323892
 30
0.0
 40
15.24
  1
27
 50
90.0
 41
1.0625
  7
ＭＳ ゴシック
100
AcDbText
  0
LINE
  5
3AF
330
1F
100
AcDbEntity
  8
D-4
  6
Continuous
 62
     7
370
     9
100
AcDbLine
 10
767.289112049084
 20
419.4456230962824
 30
0.0
 11
767.289112049084
 21
331.9453874073769
 31
0.0
  0
TEXT
  5
3B0
330
1F
100
AcDbEntity
  8
D-4
  6
Continuous
 62
     2
370
   211
100
AcDbText
 10
761.969112049084
 20
365.0705052518296
 30
0.0
 40
15.24
  1
35
 50
90.0
 41
1.0625
  7
ＭＳ ゴシック
100
AcDbText
  0
LINE
  5
3B1
330
1F
100
AcDbEntity
  8
D-4
  6
Continuous
 62
     7
370
     9
100
AcDbLine
 10
-115.2572415448263
 20
419.4456029758312
 30
0.0
 11
-115.2572415448263
 21
354.4454863994155
 31
0.0
  0
TEXT
  5
3B2
330
1F
100
AcDbEntity
  8
D-4
  6
Continuous
 62
     2
370
   211
100
AcDbText
 10
-120.5772415448263
 20
376.3205446876233
 30
0.0
 40
15.24
  1
26
 50
90.0
 41
1.0625
  7
ＭＳ ゴシック
100
AcDbText
  0
TEXT
  5
3B3
330
1F
100
AcDbEntity
  8
F-Fﾚｲﾔ
  6
Continuous
 62
     7
370
     9
100
AcDbText
 10
-421.9418833727344
 20
-680.3530851063829
 30
0.0
 40
11.43
  1
ステンレス製　ボルト固定式（施錠タイプ）　MSXL-M-350
  7
ＭＳ ゴシック
100
AcDbText
  0
TEXT
  5
3B4
330
1F
100
AcDbEntity
  8
D-5
  6
Continuous
 62
     7
370
     9
100
AcDbText
 10
366.2168316793051
 20
490.2089905635896
 30
0.0
 40
11.43
  1
ＳＣＳ１３
 41
1.133333333333333
  7
ＭＳ ゴシック
100
AcDbText
  0
LINE
  5
3B5
330
1F
100
AcDbEntity
  8
建具
  6
Continuous
 62
     2
370
     9
100
AcDbLine
 10
-523.4523928309249
 20
145.5815292711128
 30
0.0
 11
-473.4523075820146
 21
145.5815292711128
 31
0.0
  0
LINE
  5
3B6
330
1F
100
AcDbEntity
  8
建具
  6
Continuous
 62
     2
370
     9
100
AcDbLine
 10
-523.4523928309249
 20
425.5815292711128
 30
0.0
 11
-473.4523075820146
 21
425.5815292711128
 31
0.0
  0
LINE
  5
3B7
330
1F
100
AcDbEntity
  8
建具
  6
JWW_DASHED2
 62
     2
370
     9
100
AcDbLine
 10
-482.2522705131728
 20
425.5815292711128
 30
0.0
 11
-482.2522705131728
 21
145.5815292711128
 31
0.0
  0
LINE
  5
3B8
330
1F
100
AcDbEntity
  8
建具
  6
Continuous
 62
     2
370
     9
100
AcDbLine
 10
-483.4523036347601
 20
145.5815292711128
 30
0.0
 11
-483.4523036347601
 21
425.5815292711128
 31
0.0
  0
LINE
  5
3B9
330
1F
100
AcDbEntity
  8
建具
  6
JWW_DASHED2
 62
     2
370
     9
100
AcDbLine
 10
-514.652429899767
 20
145.5815292711128
 30
0.0
 11
-514.652429899767
 21
425.5815292711128
 31
0.0
  0
LINE
  5
3BA
330
1F
100
AcDbEntity
  8
建具
  6
Continuous
 62
     2
370
     9
100
AcDbLine
 10
-513.452396778179
 20
145.5815292711128
 30
0.0
 11
-513.452396778179
 21
425.5815292711128
 31
0.0
  0
LINE
  5
3BB
330
1F
100
AcDbEntity
  8
建具
  6
Continuous
 62
     2
370
     9
100
AcDbLine
 10
-523.4523928309249
 20
425.5815292711128
 30
0.0
 11
-523.4523928309249
 21
145.5815292711128
 31
0.0
  0
LINE
  5
3BC
330
1F
100
AcDbEntity
  8
建具
  6
Continuous
 62
     2
370
     9
100
AcDbLine
 10
-473.4523075820146
 20
425.5815292711128
 30
0.0
 11
-473.4523075820146
 21
145.5815292711128
 31
0.0
  0
LINE
  5
3BD
330
1F
100
AcDbEntity
  8
D-3
  6
Continuous
 62
     2
370
     9
100
AcDbLine
 10
109.6151759393561
 20
376.4455905745265
 30
0.0
 11
109.6151759393561
 21
379.4454765312797
 31
0.0
  0
LINE
  5
3BE
330
1F
100
AcDbEntity
  8
D-3
  6
Continuous
 62
     2
370
     9
100
AcDbLine
 10
234.615389061632
 20
376.4455905745265
 30
0.0
 11
234.615389061632
 21
379.4454765312797
 31
0.0
  0
LINE
  5
3BF
330
1F
100
AcDbEntity
  8
D-3
  6
Continuous
 62
     2
370
     9
100
AcDbLine
 10
129.1149923920305
 20
376.4455905745265
 30
0.0
 11
109.6151759393561
 21
376.4455905745265
 31
0.0
  0
LINE
  5
3C0
330
1F
100
AcDbEntity
  8
D-3
  6
Continuous
 62
     2
370
     9
100
AcDbLine
 10
207.1151768230697
 20
357.44530674043
 30
0.0
 11
137.1152569464411
 21
357.44530674043
 31
0.0
  0
LINE
  5
3C1
330
1F
100
AcDbEntity
  8
D-3
  6
Continuous
 62
     2
370
     9
100
AcDbLine
 10
215.1155726089576
 20
376.4455905745265
 30
0.0
 11
234.615389061632
 21
376.4455905745265
 31
0.0
  0
LINE
  5
3C2
330
1F
100
AcDbEntity
  8
D-3
  6
Continuous
 62
     2
370
     9
100
AcDbLine
 10
134.6151660712205
 20
373.9454340835672
 30
0.0
 11
134.6151660712205
 21
359.9453976156506
 31
0.0
  0
LINE
  5
3C3
330
1F
100
AcDbEntity
  8
D-3
  6
Continuous
 62
     2
370
     9
100
AcDbLine
 10
129.1152548549853
 20
379.4454765312797
 30
0.0
 11
109.6151759393561
 21
379.4454765312797
 31
0.0
  0
LINE
  5
3C4
330
1F
100
AcDbEntity
  8
D-3
  6
Continuous
 62
     2
370
     9
100
AcDbLine
 10
209.6153989297678
 20
373.9454340835672
 30
0.0
 11
209.6153989297678
 21
359.9453976156506
 31
0.0
  0
LINE
  5
3C5
330
1F
100
AcDbEntity
  8
D-3
  6
Continuous
 62
     2
370
     9
100
AcDbLine
 10
215.1154413774803
 20
379.4454765312797
 30
0.0
 11
234.615389061632
 21
379.4454765312797
 31
0.0
  0
LINE
  5
3C6
330
1F
100
AcDbEntity
  8
D-3
  6
Continuous
 62
     2
370
     9
100
AcDbLine
 10
131.6150832672511
 20
359.9453976156506
 30
0.0
 11
131.6150832672511
 21
373.9454340835672
 31
0.0
  0
LINE
  5
3C7
330
1F
100
AcDbEntity
  8
D-3
  6
Continuous
 62
     2
370
     9
100
AcDbLine
 10
212.615481733737
 20
373.9454340835672
 30
0.0
 11
212.615481733737
 21
359.9453976156506
 31
0.0
  0
ARC
  5
3C8
330
1F
100
AcDbEntity
  8
D-3
  6
Continuous
 62
     2
370
     9
100
AcDbCircle
 10
129.1149923920305
 20
373.9454340835672
 30
0.0
 40
2.499999628333971
100
AcDbArc
 50
0.0
 51
90.0
  0
ARC
  5
3C9
330
1F
100
AcDbEntity
  8
D-3
  6
Continuous
 62
     2
370
     9
100
AcDbCircle
 10
137.1152569464411
 20
359.9453976156506
 30
0.0
 40
2.499999628333971
100
AcDbArc
 50
180.0
 51
270.0
  0
ARC
  5
3CA
330
1F
100
AcDbEntity
  8
D-3
  6
Continuous
 62
     2
370
     9
100
AcDbCircle
 10
207.1151768230697
 20
359.9453976156506
 30
0.0
 40
2.499999628333971
100
AcDbArc
 50
270.0
 51
0.0
  0
ARC
  5
3CB
330
1F
100
AcDbEntity
  8
D-3
  6
Continuous
 62
     2
370
     9
100
AcDbCircle
 10
215.1155726089576
 20
373.9454340835672
 30
0.0
 40
2.499999628333971
100
AcDbArc
 50
90.0
 51
180.0
  0
ARC
  5
3CC
330
1F
100
AcDbEntity
  8
D-3
  6
Continuous
 62
     2
370
     9
100
AcDbCircle
 10
129.1152548549853
 20
373.9454340835672
 30
0.0
 40
5.499999900006878
100
AcDbArc
 50
0.0
 51
90.0
  0
ARC
  5
3CD
330
1F
100
AcDbEntity
  8
D-3
  6
Continuous
 62
     2
370
     9
100
AcDbCircle
 10
215.1154413774803
 20
373.9454340835672
 30
0.0
 40
5.499999900006878
100
AcDbArc
 50
90.0
 51
180.0
  0
ARC
  5
3CE
330
1F
100
AcDbEntity
  8
D-3
  6
Continuous
 62
     2
370
     9
100
AcDbCircle
 10
137.1151257149635
 20
359.9453976156506
 30
0.0
 40
5.499999900006878
100
AcDbArc
 50
180.0
 51
270.0
  0
ARC
  5
3CF
330
1F
100
AcDbEntity
  8
D-3
  6
Continuous
 62
     2
370
     9
100
AcDbCircle
 10
207.1157017489792
 20
359.9453976156506
 30
0.0
 40
5.499999900006878
100
AcDbArc
 50
270.0
 51
0.0
  0
LINE
  5
3D0
330
1F
100
AcDbEntity
  8
D-2
  6
Continuous
 62
     3
370
     9
100
AcDbLine
 10
493.9906076782789
 20
408.1954822017758
 30
0.0
 11
493.9906076782789
 21
403.195487283129
 31
0.0
  0
LINE
  5
3D1
330
1F
100
AcDbEntity
  8
D-2
  6
Continuous
 62
     3
370
     9
100
AcDbLine
 10
550.2400933569332
 20
408.1954822017758
 30
0.0
 11
550.2400933569332
 21
403.195487283129
 31
0.0
  0
LINE
  5
3D2
330
1F
100
AcDbEntity
  8
D-2
  6
Continuous
 62
     3
370
     9
100
AcDbLine
 10
493.9906076782789
 20
408.1954822017758
 30
0.0
 11
550.2400933569332
 21
408.1954822017758
 31
0.0
  0
LINE
  5
3D3
330
1F
100
AcDbEntity
  8
D-2
  6
Continuous
 62
     3
370
     9
100
AcDbLine
 10
500.6645156909931
 20
403.195487283129
 30
0.0
 11
495.6645699302214
 21
408.1954822017758
 31
0.0
  0
LINE
  5
3D4
330
1F
100
AcDbEntity
  8
D-2
  6
Continuous
 62
     3
370
     9
100
AcDbLine
 10
503.8466165540633
 20
403.195487283129
 30
0.0
 11
498.8466216354169
 21
408.1954822017758
 31
0.0
  0
LINE
  5
3D5
330
1F
100
AcDbEntity
  8
D-2
  6
Continuous
 62
     3
370
     9
100
AcDbLine
 10
505.8654816017981
 20
404.3585262512485
 30
0.0
 11
502.0284812364038
 21
408.1954822017758
 31
0.0
  0
LINE
  5
3D6
330
1F
100
AcDbEntity
  8
D-2
  6
Continuous
 62
     3
370
     9
100
AcDbLine
 10
545.2123529962463
 20
403.195487283129
 30
0.0
 11
540.2123580775996
 21
408.1954822017758
 31
0.0
  0
LINE
  5
3D7
330
1F
100
AcDbEntity
  8
D-2
  6
Continuous
 62
     3
370
     9
100
AcDbLine
 10
548.3944538593163
 20
403.195487283129
 30
0.0
 11
543.3945065610294
 21
408.1954822017758
 31
0.0
  0
LINE
  5
3D8
330
1F
100
AcDbEntity
  8
D-2
  6
Continuous
 62
     3
370
     9
100
AcDbLine
 10
550.2400933569332
 20
407.7137870486973
 30
0.0
 11
549.7583925121448
 21
408.1954822017758
 31
0.0
  0
LINE
  5
3D9
330
1F
100
AcDbEntity
  8
D-2
  6
Continuous
 62
     3
370
     9
100
AcDbLine
 10
550.2400933569332
 20
404.5316861856273
 30
0.0
 11
546.5762973407851
 21
408.1954822017758
 31
0.0
  0
LINE
  5
3DA
330
1F
100
AcDbEntity
  8
D-2
  6
Continuous
 62
     3
370
     9
100
AcDbLine
 10
510.8653760268554
 20
393.1954316828121
 30
0.0
 11
514.6153760268554
 21
393.1954316828121
 31
0.0
  0
LINE
  5
3DB
330
1F
100
AcDbEntity
  8
D-2
  6
Continuous
 62
     3
370
     9
100
AcDbLine
 10
529.6153760268554
 20
393.1954316828121
 30
0.0
 11
533.3653760268554
 21
393.1954316828121
 31
0.0
  0
LWPOLYLINE
  5
3DC
330
1F
100
AcDbEntity
  8
D-4
  6
Continuous
 62
     7
370
     9
100
AcDbPolyline
 90
        4
 70
     1
 43
1.0
 10
-77.25724154482636
 20
379.4454765312797
 42
0.4142135623731
 10
-77.75724154482634
 20
379.9454765312797
 42
0.4142135623731
 10
-78.25724154482634
 20
379.4454765312797
 42
0.4142135623731
 10
-77.75724154482634
 20
378.9454765312797
 42
0.4142135623731
  0
LINE
  5
3DD
330
1F
100
AcDbEntity
  8
D-4
  6
Continuous
 62
     7
370
     9
100
AcDbLine
 10
-77.75724154482634
 20
419.4456029758312
 30
0.0
 11
-77.75724154482634
 21
379.4454765312797
 31
0.0
  0
TEXT
  5
3DE
330
1F
100
AcDbEntity
  8
D-F
  6
Continuous
 62
     2
370
   211
100
AcDbText
 10
-83.57724154482636
 20
388.8205397535555
 30
0.0
 40
15.24
  1
16
 50
90.0
 41
1.0625
  7
ＭＳ ゴシック
100
AcDbText
  0
LINE
  5
3DF
330
1F
100
AcDbEntity
  8
D-4
  6
Continuous
 62
     7
370
     9
100
AcDbLine
 10
-78.75724154482657
 20
379.4454765312797
 30
0.0
 11
104.5216007012639
 21
379.4454765312797
 31
0.0
  0
LINE
  5
3E0
330
1F
100
AcDbEntity
  8
D-2
  6
JWW_CENTER1
 62
     3
370
     9
100
AcDbLine
 10
522.1153760268548
 20
424.9241154449946
 30
0.0
 11
522.1153760268548
 21
311.9844946262529
 31
0.0
  0
TEXT
  5
3E1
330
1F
100
AcDbEntity
  8
F-4ﾚｲﾔ
  6
Continuous
 62
     3
370
     9
100
AcDbText
 10
471.9295502927091
 20
-498.5638770622671
 30
0.0
 40
19.05
  1
※適用荷重：歩行用（3,500N/m2）
 41
1.096774193548387
  7
ＭＳ ゴシック
100
AcDbText
  0
TEXT
  5
3E2
330
1F
100
AcDbEntity
  8
F-4ﾚｲﾔ
  6
Continuous
 62
     3
370
     9
100
AcDbText
 10
471.9295502927092
 20
-535.4451969132517
 30
0.0
 40
19.05
  1
※仕上げ材充填時蓋質量：約8kg
 41
1.096551724137931
  7
ＭＳ ゴシック
100
AcDbText
  0
TEXT
  5
3E3
330
1F
100
AcDbEntity
  8
F-Fﾚｲﾔ
  6
Continuous
 62
     7
370
     9
100
AcDbText
 10
-421.9418833727344
 20
-660.4226280535856
 30
0.0
 40
11.43
  1
フロアーハッチ　充填用（充填深さ：16mm）屋内外用　密閉形（防水・防臭形）　
  7
ＭＳ ゴシック
100
AcDbText
  0
LINE
  5
3E4
330
1F
100
AcDbEntity
  8
D-5
  6
JWW_DASHED2
 62
     2
370
     9
100
AcDbLine
 10
506.3650271367048
 20
412.445452008226
 30
0.0
 11
506.3650271367048
 21
418.195452008226
 31
0.0
  0
ARC
  5
3E5
330
1F
100
AcDbEntity
  8
D-5
  6
JWW_DASHED2
 62
     2
370
     9
100
AcDbCircle
 10
506.8650271367048
 20
412.445452008226
 30
0.0
 40
0.5
100
AcDbArc
 50
180.0
 51
270.0
  0
LINE
  5
3E6
330
1F
100
AcDbEntity
  8
D-5
  6
JWW_DASHED2
 62
     2
370
     9
100
AcDbLine
 10
533.4278438596779
 20
411.945452008226
 30
0.0
 11
506.8650271367048
 21
411.945452008226
 31
0.0
  0
LINE
  5
3E7
330
1F
100
AcDbEntity
  8
D-5
  6
JWW_DASHED2
 62
     2
370
     9
100
AcDbLine
 10
533.9278438596778
 20
412.445452008226
 30
0.0
 11
533.9278438596778
 21
418.195452008226
 31
0.0
  0
ARC
  5
3E8
330
1F
100
AcDbEntity
  8
D-5
  6
JWW_DASHED2
 62
     2
370
     9
100
AcDbCircle
 10
533.4278438596779
 20
412.445452008226
 30
0.0
 40
0.5
100
AcDbArc
 50
270.0
 51
0.0
  0
LINE
  5
3E9
330
1F
100
AcDbEntity
  8
D-5
  6
Continuous
 62
     2
370
     9
100
AcDbLine
 10
497.1155171264681
 20
415.6954437602319
 30
0.0
 11
547.1154973901964
 21
415.6954437602319
 31
0.0
  0
LINE
  5
3EA
330
1F
100
AcDbEntity
  8
D-5
  6
Continuous
 62
     2
370
     9
100
AcDbLine
 10
497.1152935469139
 20
418.195452008226
 30
0.0
 11
497.1152935469139
 21
415.6954437602319
 31
0.0
  0
LINE
  5
3EB
330
1F
100
AcDbEntity
  8
D-5
  6
Continuous
 62
     2
370
     9
100
AcDbLine
 10
547.1150254871061
 20
415.6954437602319
 30
0.0
 11
547.1150254871061
 21
418.195452008226
 31
0.0
  0
LINE
  5
3EC
330
1F
100
AcDbEntity
  8
D-5
  6
Continuous
 62
     2
370
     9
100
AcDbLine
 10
497.1152935469139
 20
415.6954437602319
 30
0.0
 11
504.6148839457015
 21
408.1954822017759
 31
0.0
  0
LINE
  5
3ED
330
1F
100
AcDbEntity
  8
D-5
  6
Continuous
 62
     2
370
     9
100
AcDbLine
 10
539.614878348816
 20
408.1954822017759
 30
0.0
 11
504.6148839457015
 21
408.1954822017759
 31
0.0
  0
LINE
  5
3EE
330
1F
100
AcDbEntity
  8
D-5
  6
Continuous
 62
     2
370
     9
100
AcDbLine
 10
547.1150254871061
 20
415.6954437602319
 30
0.0
 11
539.614878348816
 21
408.1954822017759
 31
0.0
  0
ENDSEC
  0
SECTION
  2
OBJECTS
  0
DICTIONARY
  5
C
330
0
100
AcDbDictionary
281
     1
  3
ACAD_DETAILVIEWSTYLE
350
3F6
  3
ACAD_GROUP
350
D
  3
ACAD_LAYOUT
350
1A
  3
ACAD_MATERIAL
350
43
  3
ACAD_MLEADERSTYLE
350
6B
  3
ACAD_MLINESTYLE
350
17
  3
ACAD_PLOTSETTINGS
350
19
  3
ACAD_PLOTSTYLENAME
350
E
  3
ACAD_SCALELIST
350
47
  3
ACAD_SECTIONVIEWSTYLE
350
3F7
  3
ACAD_TABLESTYLE
350
69
  3
ACAD_VISUALSTYLE
350
2A
  3
ACDB_RECOMPOSE_DATA
350
3F3
  3
AcDbVariableDictionary
350
3EF
  0
SUN
  5
6D
330
29
100
AcDbSun
 90
        1
290
     0
 63
     7
421
 16777215
 40
1.0
291
     1
 91
  2455826
 92
 54000000
292
     0
 70
     2
 71
   256
280
     1
  0
DICTIONARY
  5
3F6
102
{ACAD_REACTORS
330
C
102
}
330
C
100
AcDbDictionary
281
     1
  0
DICTIONARY
  5
D
102
{ACAD_REACTORS
330
C
102
}
330
C
100
AcDbDictionary
281
     1
  0
DICTIONARY
  5
1A
102
{ACAD_REACTORS
330
C
102
}
330
C
100
AcDbDictionary
281
     1
  3
Layout1
350
1E
  3
Layout2
350
26
  3
Model
350
22
  0
DICTIONARY
  5
43
102
{ACAD_REACTORS
330
C
102
}
330
C
100
AcDbDictionary
281
     1
  3
ByBlock
350
45
  3
ByLayer
350
44
  3
Global
350
46
  0
DICTIONARY
  5
6B
102
{ACAD_REACTORS
330
C
102
}
330
C
100
AcDbDictionary
281
     1
  3
Standard
350
6C
  0
DICTIONARY
  5
17
102
{ACAD_REACTORS
330
C
102
}
330
C
100
AcDbDictionary
281
     1
  3
Standard
350
18
  0
DICTIONARY
  5
19
102
{ACAD_REACTORS
330
C
102
}
330
C
100
AcDbDictionary
281
     1
  0
ACDBDICTIONARYWDFLT
  5
E
102
{ACAD_REACTORS
330
C
102
}
330
C
100
AcDbDictionary
281
     1
  3
Normal
350
F
100
AcDbDictionaryWithDefault
340
F
  0
DICTIONARY
  5
47
102
{ACAD_REACTORS
330
C
102
}
330
C
100
AcDbDictionary
281
     1
  3
A0
350
48
  3
A1
350
49
  3
A2
350
4A
  3
A3
350
4B
  3
A4
350
4C
  3
A5
350
4D
  3
A6
350
4E
  3
A7
350
4F
  3
A8
350
50
  3
A9
350
51
  3
B0
350
52
  3
B1
350
53
  3
B2
350
54
  3
B3
350
55
  3
B4
350
56
  3
B5
350
57
  3
B6
350
58
  3
B7
350
59
  3
B8
350
5A
  3
B9
350
5B
  3
C0
350
5C
  3
C1
350
5D
  3
C2
350
5E
  3
C3
350
5F
  3
C4
350
60
  3
C5
350
61
  3
C6
350
62
  3
C7
350
63
  3
C8
350
64
  3
C9
350
65
  3
D0
350
66
  3
D1
350
67
  3
D2
350
68
  0
DICTIONARY
  5
3F7
102
{ACAD_REACTORS
330
C
102
}
330
C
100
AcDbDictionary
281
     1
  0
DICTIONARY
  5
69
102
{ACAD_REACTORS
330
C
102
}
330
C
100
AcDbDictionary
281
     1
  3
Standard
350
6A
  0
DICTIONARY
  5
2A
102
{ACAD_REACTORS
330
C
102
}
330
C
100
AcDbDictionary
281
     1
  3
2dWireframe
350
2F
  3
Basic
350
32
  3
Brighten
350
36
  3
ColorChange
350
3A
  3
Conceptual
350
34
  3
Dim
350
35
  3
EdgeColorOff
350
3D
  3
Facepattern
350
39
  3
Flat
350
2B
  3
FlatWithEdges
350
2C
  3
Gouraud
350
2D
  3
GouraudWithEdges
350
2E
  3
Hidden
350
31
  3
JitterOff
350
3B
  3
Linepattern
350
38
  3
OverhangOff
350
3C
  3
Realistic
350
33
  3
Shaded
350
42
  3
Shaded with edges
350
41
  3
Shades of Gray
350
3E
  3
Sketchy
350
3F
  3
Thicken
350
37
  3
Wireframe
350
30
  3
X-Ray
350
40
  0
XRECORD
  5
3F3
102
{ACAD_REACTORS
330
C
102
}
330
C
100
AcDbXrecord
280
     1
 90
        1
330
6A
  0
DICTIONARY
  5
3EF
102
{ACAD_REACTORS
330
C
102
}
330
C
100
AcDbDictionary
281
     1
  3
CANNOSCALE
350
3F0
  3
CENTEREXE
350
3F8
  3
CENTERLTYPEFILE
350
3F9
  3
CMLEADERSTYLE
350
3F5
  3
CTABLESTYLE
350
3F4
  0
LAYOUT
  5
1E
102
{ACAD_REACTORS
330
1A
102
}
330
1A
100
AcDbPlotSettings
  1

  2
none_device
  4

  6

 40
0.0
 41
0.0
 42
0.0
 43
0.0
 44
0.0
 45
0.0
 46
0.0
 47
0.0
 48
0.0
 49
0.0
140
0.0
141
0.0
142
1.0
143
1.0
 70
   688
 72
     1
 73
     0
 74
     5
  7

 75
    16
 76
     0
 77
     5
 78
   300
147
1.0
148
0.0
149
0.0
100
AcDbLayout
  1
Layout1
 70
     1
 71
     1
 10
0.0
 20
0.0
 11
420.0
 21
297.0
 12
0.0
 22
0.0
 32
0.0
 14
1.000000000000000E+20
 24
1.000000000000000E+20
 34
1.000000000000000E+20
 15
-1.000000000000000E+20
 25
-1.000000000000000E+20
 35
-1.000000000000000E+20
146
0.0
 13
0.0
 23
0.0
 33
0.0
 16
1.0
 26
0.0
 36
0.0
 17
0.0
 27
1.0
 37
0.0
 76
     0
330
1B
  0
LAYOUT
  5
26
102
{ACAD_REACTORS
330
1A
102
}
330
1A
100
AcDbPlotSettings
  1

  2
none_device
  4

  6

 40
0.0
 41
0.0
 42
0.0
 43
0.0
 44
0.0
 45
0.0
 46
0.0
 47
0.0
 48
0.0
 49
0.0
140
0.0
141
0.0
142
1.0
143
1.0
 70
   688
 72
     1
 73
     0
 74
     5
  7

 75
    16
 76
     0
 77
     5
 78
   300
147
1.0
148
0.0
149
0.0
100
AcDbLayout
  1
Layout2
 70
     1
 71
     2
 10
0.0
 20
0.0
 11
0.0
 21
0.0
 12
0.0
 22
0.0
 32
0.0
 14
0.0
 24
0.0
 34
0.0
 15
0.0
 25
0.0
 35
0.0
146
0.0
 13
0.0
 23
0.0
 33
0.0
 16
1.0
 26
0.0
 36
0.0
 17
0.0
 27
1.0
 37
0.0
 76
     0
330
23
  0
LAYOUT
  5
22
102
{ACAD_REACTORS
330
1A
102
}
330
1A
100
AcDbPlotSettings
  1

  2
none_device
  4
Letter_(8.50_x_11.00_Inches)
  6

 40
6.35
 41
6.35
 42
6.35000508
 43
6.35000508
 44
215.9
 45
279.4
 46
0.0
 47
0.0
 48
0.0
 49
0.0
140
0.0
141
0.0
142
1.0
143
1.0
 70
  1712
 72
     1
 73
     0
 74
     0
  7

 75
     0
 76
     0
 77
     5
 78
   300
147
1.0
148
0.0
149
0.0
100
AcDbLayout
  1
Model
 70
     1
 71
     0
 10
-1050.0
 20
-742.5
 11
1050.0
 21
742.5
 12
0.0
 22
0.0
 32
0.0
 14
-1050.0
 24
-742.5
 34
0.0
 15
1050.0
 25
742.5
 35
0.0
146
0.0
 13
0.0
 23
0.0
 33
0.0
 16
1.0
 26
0.0
 36
0.0
 17
0.0
 27
1.0
 37
0.0
 76
     0
330
1F
331
29
  0
MATERIAL
  5
45
102
{ACAD_REACTORS
330
43
102
}
330
43
100
AcDbMaterial
  1
ByBlock
 72
     1
 94
      127
  0
MATERIAL
  5
44
102
{ACAD_REACTORS
330
43
102
}
330
43
100
AcDbMaterial
  1
ByLayer
 72
     1
 94
      127
  0
MATERIAL
  5
46
102
{ACAD_REACTORS
330
43
102
}
330
43
100
AcDbMaterial
  1
Global
 72
     1
 94
      127
  0
MLEADERSTYLE
  5
6C
102
{ACAD_REACTORS
330
6B
102
}
330
6B
100
AcDbMLeaderStyle
179
     2
170
     2
171
     1
172
     0
 90
        2
 40
0.0
 41
0.0
173
     1
 91
-1056964608
340
14
 92
       -2
290
     1
 42
2.0
291
     1
 43
8.0
  3
Standard
341
0
 44
4.0
300

342
11
174
     1
178
     6
175
     1
176
     0
 93
-1056964608
 45
4.0
292
     0
297
     0
 46
4.0
343
0
 94
-1056964608
 47
1.0
 49
1.0
140
1.0
293
     1
141
0.0
294
     1
177
     0
142
1.0
295
     0
296
     0
143
3.75
271
     0
272
     9
273
     9
298
     0
  0
MLINESTYLE
  5
18
102
{ACAD_REACTORS
330
17
102
}
330
17
100
AcDbMlineStyle
  2
Standard
 70
     0
  3

 62
   256
 51
90.0
 52
90.0
 71
     2
 49
0.5
 62
   256
  6
BYLAYER
 49
-0.5
 62
   256
  6
BYLAYER
  0
ACDBPLACEHOLDER
  5
F
102
{ACAD_REACTORS
330
E
102
}
330
E
  0
SCALE
  5
48
102
{ACAD_REACTORS
330
47
102
}
330
47
100
AcDbScale
 70
     0
300
1:1
140
1.0
141
1.0
290
     1
  0
SCALE
  5
49
102
{ACAD_REACTORS
330
47
102
}
330
47
100
AcDbScale
 70
     0
300
1:2
140
1.0
141
2.0
290
     0
  0
SCALE
  5
4A
102
{ACAD_REACTORS
330
47
102
}
330
47
100
AcDbScale
 70
     0
300
1:4
140
1.0
141
4.0
290
     0
  0
SCALE
  5
4B
102
{ACAD_REACTORS
330
47
102
}
330
47
100
AcDbScale
 70
     0
300
1:5
140
1.0
141
5.0
290
     0
  0
SCALE
  5
4C
102
{ACAD_REACTORS
330
47
102
}
330
47
100
AcDbScale
 70
     0
300
1:8
140
1.0
141
8.0
290
     0
  0
SCALE
  5
4D
102
{ACAD_REACTORS
330
47
102
}
330
47
100
AcDbScale
 70
     0
300
1:10
140
1.0
141
10.0
290
     0
  0
SCALE
  5
4E
102
{ACAD_REACTORS
330
47
102
}
330
47
100
AcDbScale
 70
     0
300
1:16
140
1.0
141
16.0
290
     0
  0
SCALE
  5
4F
102
{ACAD_REACTORS
330
47
102
}
330
47
100
AcDbScale
 70
     0
300
1:20
140
1.0
141
20.0
290
     0
  0
SCALE
  5
50
102
{ACAD_REACTORS
330
47
102
}
330
47
100
AcDbScale
 70
     0
300
1:30
140
1.0
141
30.0
290
     0
  0
SCALE
  5
51
102
{ACAD_REACTORS
330
47
102
}
330
47
100
AcDbScale
 70
     0
300
1:40
140
1.0
141
40.0
290
     0
  0
SCALE
  5
52
102
{ACAD_REACTORS
330
47
102
}
330
47
100
AcDbScale
 70
     0
300
1:50
140
1.0
141
50.0
290
     0
  0
SCALE
  5
53
102
{ACAD_REACTORS
330
47
102
}
330
47
100
AcDbScale
 70
     0
300
1:100
140
1.0
141
100.0
290
     0
  0
SCALE
  5
54
102
{ACAD_REACTORS
330
47
102
}
330
47
100
AcDbScale
 70
     0
300
2:1
140
2.0
141
1.0
290
     0
  0
SCALE
  5
55
102
{ACAD_REACTORS
330
47
102
}
330
47
100
AcDbScale
 70
     0
300
4:1
140
4.0
141
1.0
290
     0
  0
SCALE
  5
56
102
{ACAD_REACTORS
330
47
102
}
330
47
100
AcDbScale
 70
     0
300
8:1
140
8.0
141
1.0
290
     0
  0
SCALE
  5
57
102
{ACAD_REACTORS
330
47
102
}
330
47
100
AcDbScale
 70
     0
300
10:1
140
10.0
141
1.0
290
     0
  0
SCALE
  5
58
102
{ACAD_REACTORS
330
47
102
}
330
47
100
AcDbScale
 70
     0
300
100:1
140
100.0
141
1.0
290
     0
  0
SCALE
  5
59
102
{ACAD_REACTORS
330
47
102
}
330
47
100
AcDbScale
 70
     0
300
1/128" = 1'-0"
140
0.0078125
141
12.0
290
     0
  0
SCALE
  5
5A
102
{ACAD_REACTORS
330
47
102
}
330
47
100
AcDbScale
 70
     0
300
1/64" = 1'-0"
140
0.015625
141
12.0
290
     0
  0
SCALE
  5
5B
102
{ACAD_REACTORS
330
47
102
}
330
47
100
AcDbScale
 70
     0
300
1/32" = 1'-0"
140
0.03125
141
12.0
290
     0
  0
SCALE
  5
5C
102
{ACAD_REACTORS
330
47
102
}
330
47
100
AcDbScale
 70
     0
300
1/16" = 1'-0"
140
0.0625
141
12.0
290
     0
  0
SCALE
  5
5D
102
{ACAD_REACTORS
330
47
102
}
330
47
100
AcDbScale
 70
     0
300
3/32" = 1'-0"
140
0.09375
141
12.0
290
     0
  0
SCALE
  5
5E
102
{ACAD_REACTORS
330
47
102
}
330
47
100
AcDbScale
 70
     0
300
1/8" = 1'-0"
140
0.125
141
12.0
290
     0
  0
SCALE
  5
5F
102
{ACAD_REACTORS
330
47
102
}
330
47
100
AcDbScale
 70
     0
300
3/16" = 1'-0"
140
0.1875
141
12.0
290
     0
  0
SCALE
  5
60
102
{ACAD_REACTORS
330
47
102
}
330
47
100
AcDbScale
 70
     0
300
1/4" = 1'-0"
140
0.25
141
12.0
290
     0
  0
SCALE
  5
61
102
{ACAD_REACTORS
330
47
102
}
330
47
100
AcDbScale
 70
     0
300
3/8" = 1'-0"
140
0.375
141
12.0
290
     0
  0
SCALE
  5
62
102
{ACAD_REACTORS
330
47
102
}
330
47
100
AcDbScale
 70
     0
300
1/2" = 1'-0"
140
0.5
141
12.0
290
     0
  0
SCALE
  5
63
102
{ACAD_REACTORS
330
47
102
}
330
47
100
AcDbScale
 70
     0
300
3/4" = 1'-0"
140
0.75
141
12.0
290
     0
  0
SCALE
  5
64
102
{ACAD_REACTORS
330
47
102
}
330
47
100
AcDbScale
 70
     0
300
1" = 1'-0"
140
1.0
141
12.0
290
     0
  0
SCALE
  5
65
102
{ACAD_REACTORS
330
47
102
}
330
47
100
AcDbScale
 70
     0
300
1-1/2" = 1'-0"
140
1.5
141
12.0
290
     0
  0
SCALE
  5
66
102
{ACAD_REACTORS
330
47
102
}
330
47
100
AcDbScale
 70
     0
300
3" = 1'-0"
140
3.0
141
12.0
290
     0
  0
SCALE
  5
67
102
{ACAD_REACTORS
330
47
102
}
330
47
100
AcDbScale
 70
     0
300
6" = 1'-0"
140
6.0
141
12.0
290
     0
  0
SCALE
  5
68
102
{ACAD_REACTORS
330
47
102
}
330
47
100
AcDbScale
 70
     0
300
1'-0" = 1'-0"
140
12.0
141
12.0
290
     0
  0
TABLESTYLE
  5
6A
102
{ACAD_REACTORS
330
69
102
}
102
{ACAD_XDICTIONARY
360
3F1
102
}
330
69
100
AcDbTableStyle
  3
Standard
 70
     0
 71
     0
 40
0.06
 41
0.06
280
     0
281
     0
  7
Standard
140
4.5
170
     2
 62
     0
 63
   257
283
     0
 90
        4
 91
        0
  1

274
    -2
284
     1
 64
     0
275
    -2
285
     1
 65
     0
276
    -2
286
     1
 66
     0
277
    -2
287
     1
 67
     0
278
    -2
288
     1
 68
     0
279
    -2
289
     1
 69
     0
  7
Standard
140
6.0
170
     5
 62
     0
 63
   257
283
     0
 90
        4
 91
        0
  1

274
    -2
284
     1
 64
     0
275
    -2
285
     1
 65
     0
276
    -2
286
     1
 66
     0
277
    -2
287
     1
 67
     0
278
    -2
288
     1
 68
     0
279
    -2
289
     1
 69
     0
  7
Standard
140
4.5
170
     5
 62
     0
 63
   257
283
     0
 90
        4
 91
        0
  1

274
    -2
284
     1
 64
     0
275
    -2
285
     1
 65
     0
276
    -2
286
     1
 66
     0
277
    -2
287
     1
 67
     0
278
    -2
288
     1
 68
     0
279
    -2
289
     1
 69
     0
  0
VISUALSTYLE
  5
2F
102
{ACAD_REACTORS
330
2A
102
}
330
2A
100
AcDbVisualStyle
  2
2dWireframe
 70
     4
177
     3
291
     0
 70
    58
 90
        0
176
     1
 90
        2
176
     1
 90
        0
176
     1
 90
        0
176
     1
 40
0.6
176
     1
 40
30.0
176
     1
 62
     7
420
 16777215
176
     1
 90
        1
176
     1
 90
        4
176
     1
 62
     7
176
     1
 62
   257
176
     1
 90
        1
176
     1
 90
        1
176
     1
 40
1.0
176
     1
 90
        0
176
     1
 62
   257
176
     1
 40
1.0
176
     1
 90
        1
176
     1
 90
        6
176
     1
 90
        2
176
     1
 62
     7
176
     1
 90
        5
176
     1
 90
        0
176
     1
 90
        0
176
     1
290
     0
176
     1
 90
        1
176
     1
 40
0.0
176
     1
 90
        0
176
     1
290
     1
176
     1
290
     1
176
     1
290
     0
176
     1
290
     0
176
     1
290
     0
176
     1
290
     0
176
     1
290
     0
176
     1
290
     0
176
     1
290
     0
176
     1
 90
       50
176
     1
 40
0.0
176
     1
 40
1.0
176
     1
 90
        0
176
     1
 62
    18
420
        0
176
     1
 90
       50
176
     1
 90
        3
176
     1
 62
     5
420
      255
176
     1
290
     0
176
     1
 90
       50
176
     1
 90
       50
176
     1
 90
       50
176
     1
290
     0
176
     1
 90
       50
176
     1
 62
   256
176
     0
 40
1.0
176
     0
 90
        2
176
     1
  1
strokes_ogs.tif
176
     1
290
     0
176
     1
 40
1.0
176
     1
 40
1.0
176
     1
  0
VISUALSTYLE
  5
32
102
{ACAD_REACTORS
330
2A
102
}
330
2A
100
AcDbVisualStyle
  2
Basic
 70
     7
177
     3
291
     1
 70
    58
 90
        1
176
     1
 90
        0
176
     1
 90
        1
176
     1
 90
        0
176
     1
 40
0.6
176
     1
 40
30.0
176
     1
 62
     7
420
 16777215
176
     1
 90
        0
176
     1
 90
        4
176
     1
 62
     7
176
     1
 62
   257
176
     1
 90
        1
176
     1
 90
        1
176
     1
 40
1.0
176
     1
 90
        8
176
     1
 62
     7
176
     1
 40
1.0
176
     1
 90
        1
176
     1
 90
        6
176
     1
 90
        2
176
     1
 62
     7
176
     1
 90
        5
176
     1
 90
        0
176
     1
 90
        0
176
     1
290
     0
176
     1
 90
        1
176
     1
 40
0.0
176
     1
 90
        0
176
     1
290
     0
176
     1
290
     1
176
     1
290
     1
176
     1
290
     0
176
     1
290
     0
176
     1
290
     0
176
     1
290
     0
176
     1
290
     0
176
     1
290
     0
176
     1
 90
       50
176
     1
 40
0.0
176
     1
 40
1.0
176
     1
 90
        0
176
     1
 62
    18
420
        0
176
     1
 90
       50
176
     1
 90
        3
176
     1
 62
     5
420
      255
176
     1
290
     0
176
     1
 90
       50
176
     1
 90
       50
176
     1
 90
       50
176
     1
290
     0
176
     1
 90
       50
176
     1
 62
   256
176
     0
 40
1.0
176
     0
 90
        2
176
     1
  1
strokes_ogs.tif
176
     1
290
     0
176
     1
 40
1.0
176
     1
 40
1.0
176
     1
  0
VISUALSTYLE
  5
36
102
{ACAD_REACTORS
330
2A
102
}
330
2A
100
AcDbVisualStyle
  2
Brighten
 70
    12
177
     3
291
     1
 70
    58
 90
        2
176
     1
 90
        2
176
     1
 90
        0
176
     1
 90
        0
176
     1
 40
0.6
176
     1
 40
30.0
176
     1
 62
     7
420
 16777215
176
     1
 90
        1
176
     1
 90
        4
176
     1
 62
     7
176
     1
 62
   257
176
     1
 90
        1
176
     1
 90
        1
176
     1
 40
1.0
176
     1
 90
        8
176
     1
 62
     7
176
     1
 40
1.0
176
     1
 90
        1
176
     1
 90
        6
176
     1
 90
        2
176
     1
 62
     7
176
     1
 90
        5
176
     1
 90
        0
176
     1
 90
        0
176
     1
290
     0
176
     1
 90
        1
176
     1
 40
50.0
176
     1
 90
        0
176
     1
290
     0
176
     1
290
     1
176
     1
290
     1
176
     1
290
     0
176
     1
290
     0
176
     1
290
     0
176
     1
290
     0
176
     1
290
     0
176
     1
290
     0
176
     1
 90
       50
176
     1
 40
0.0
176
     1
 40
1.0
176
     1
 90
        0
176
     1
 62
    18
420
        0
176
     1
 90
       50
176
     1
 90
        3
176
     1
 62
     5
420
      255
176
     1
290
     0
176
     1
 90
       50
176
     1
 90
       50
176
     1
 90
       50
176
     1
290
     0
176
     1
 90
       50
176
     1
 62
   256
176
     0
 40
1.0
176
     0
 90
        2
176
     1
  1
strokes_ogs.tif
176
     1
290
     0
176
     1
 40
1.0
176
     1
 40
1.0
176
     1
  0
VISUALSTYLE
  5
3A
102
{ACAD_REACTORS
330
2A
102
}
330
2A
100
AcDbVisualStyle
  2
ColorChange
 70
    16
177
     3
291
     1
 70
    58
 90
        2
176
     1
 90
        2
176
     1
 90
        3
176
     1
 90
        0
176
     1
 40
0.6
176
     1
 40
30.0
176
     1
 62
     8
420
  8421504
176
     1
 90
        1
176
     1
 90
        4
176
     1
 62
     7
176
     1
 62
   257
176
     1
 90
        1
176
     1
 90
        1
176
     1
 40
1.0
176
     1
 90
        8
176
     1
 62
     8
420
  8421504
176
     1
 40
1.0
176
     1
 90
        1
176
     1
 90
        6
176
     1
 90
        2
176
     1
 62
     7
176
     1
 90
        5
176
     1
 90
        0
176
     1
 90
        0
176
     1
290
     0
176
     1
 90
        1
176
     1
 40
0.0
176
     1
 90
        0
176
     1
290
     0
176
     1
290
     1
176
     1
290
     1
176
     1
290
     0
176
     1
290
     0
176
     1
290
     0
176
     1
290
     0
176
     1
290
     0
176
     1
290
     0
176
     1
 90
       50
176
     1
 40
0.0
176
     1
 40
1.0
176
     1
 90
        0
176
     1
 62
    18
420
        0
176
     1
 90
       50
176
     1
 90
        3
176
     1
 62
     5
420
      255
176
     1
290
     0
176
     1
 90
       50
176
     1
 90
       50
176
     1
 90
       50
176
     1
290
     0
176
     1
 90
       50
176
     1
 62
   256
176
     0
 40
1.0
176
     0
 90
        2
176
     1
  1
strokes_ogs.tif
176
     1
290
     0
176
     1
 40
1.0
176
     1
 40
1.0
176
     1
  0
VISUALSTYLE
  5
34
102
{ACAD_REACTORS
330
2A
102
}
330
2A
100
AcDbVisualStyle
  2
Conceptual
 70
     9
177
     3
291
     0
 70
    58
 90
        3
176
     1
 90
        2
176
     1
 90
        0
176
     1
 90
        0
176
     1
 40
0.6
176
     1
 40
30.0
176
     1
 62
     7
420
 16777215
176
     1
 90
        2
176
     1
 90
        2
176
     1
 62
     7
176
     1
 62
   257
176
     1
 90
        1
176
     1
 90
        1
176
     1
 40
179.0
176
     1
 90
        8
176
     1
 62
     7
176
     1
 40
1.0
176
     1
 90
        1
176
     1
 90
        6
176
     1
 90
        2
176
     1
 62
     7
176
     1
 90
        3
176
     1
 90
        0
176
     1
 90
        0
176
     1
290
     0
176
     1
 90
        1
176
     1
 40
0.0
176
     1
 90
        0
176
     1
290
     0
176
     1
290
     1
176
     1
290
     1
176
     1
290
     0
176
     1
290
     0
176
     1
290
     0
176
     1
290
     0
176
     1
290
     0
176
     1
290
     0
176
     1
 90
       50
176
     1
 40
0.0
176
     1
 40
1.0
176
     1
 90
        0
176
     1
 62
    18
420
        0
176
     1
 90
       50
176
     1
 90
        3
176
     1
 62
     5
420
      255
176
     1
290
     0
176
     1
 90
       50
176
     1
 90
       50
176
     1
 90
       50
176
     1
290
     0
176
     1
 90
       50
176
     1
 62
   256
176
     0
 40
1.0
176
     0
 90
        2
176
     1
  1
strokes_ogs.tif
176
     1
290
     0
176
     1
 40
1.0
176
     1
 40
1.0
176
     1
  0
VISUALSTYLE
  5
35
102
{ACAD_REACTORS
330
2A
102
}
330
2A
100
AcDbVisualStyle
  2
Dim
 70
    11
177
     3
291
     1
 70
    58
 90
        2
176
     1
 90
        2
176
     1
 90
        0
176
     1
 90
        0
176
     1
 40
0.6
176
     1
 40
30.0
176
     1
 62
     7
420
 16777215
176
     1
 90
        1
176
     1
 90
        4
176
     1
 62
     7
176
     1
 62
   257
176
     1
 90
        1
176
     1
 90
        1
176
     1
 40
1.0
176
     1
 90
        8
176
     1
 62
     7
176
     1
 40
1.0
176
     1
 90
        1
176
     1
 90
        6
176
     1
 90
        2
176
     1
 62
     7
176
     1
 90
        5
176
     1
 90
        0
176
     1
 90
        0
176
     1
290
     0
176
     1
 90
        1
176
     1
 40
-50.0
176
     1
 90
        0
176
     1
290
     0
176
     1
290
     1
176
     1
290
     1
176
     1
290
     0
176
     1
290
     0
176
     1
290
     0
176
     1
290
     0
176
     1
290
     0
176
     1
290
     0
176
     1
 90
       50
176
     1
 40
0.0
176
     1
 40
1.0
176
     1
 90
        0
176
     1
 62
    18
420
        0
176
     1
 90
       50
176
     1
 90
        3
176
     1
 62
     5
420
      255
176
     1
290
     0
176
     1
 90
       50
176
     1
 90
       50
176
     1
 90
       50
176
     1
290
     0
176
     1
 90
       50
176
     1
 62
   256
176
     0
 40
1.0
176
     0
 90
        2
176
     1
  1
strokes_ogs.tif
176
     1
290
     0
176
     1
 40
1.0
176
     1
 40
1.0
176
     1
  0
VISUALSTYLE
  5
3D
102
{ACAD_REACTORS
330
2A
102
}
330
2A
100
AcDbVisualStyle
  2
EdgeColorOff
 70
    22
177
     3
291
     1
 70
    58
 90
        2
176
     0
 90
        2
176
     0
 90
        0
176
     0
 90
        0
176
     0
 40
0.6
176
     0
 40
30.0
176
     0
 62
     7
420
 16777215
176
     0
 90
        1
176
     0
 90
        4
176
     0
 62
     7
176
     0
 62
   257
176
     0
 90
        1
176
     0
 90
        1
176
     0
 40
1.0
176
     0
 90
        8
176
     2
 62
     7
176
     0
 40
1.0
176
     0
 90
        1
176
     0
 90
        6
176
     0
 90
        2
176
     0
 62
     7
176
     0
 90
        5
176
     0
 90
        0
176
     0
 90
        0
176
     0
290
     0
176
     0
 90
        1
176
     0
 40
0.0
176
     0
 90
        0
176
     0
290
     0
176
     0
290
     1
176
     0
290
     1
176
     0
290
     0
176
     0
290
     0
176
     0
290
     0
176
     0
290
     0
176
     0
290
     0
176
     0
290
     0
176
     0
 90
       50
176
     0
 40
0.0
176
     0
 40
1.0
176
     0
 90
        0
176
     0
 62
    18
420
        0
176
     0
 90
       50
176
     0
 90
        3
176
     0
 62
     5
420
      255
176
     0
290
     0
176
     0
 90
       50
176
     0
 90
       50
176
     0
 90
       50
176
     0
290
     0
176
     0
 90
       50
176
     0
 62
   256
176
     0
 40
1.0
176
     0
 90
        2
176
     0
  1
strokes_ogs.tif
176
     0
290
     0
176
     0
 40
1.0
176
     0
 40
1.0
176
     0
  0
VISUALSTYLE
  5
39
102
{ACAD_REACTORS
330
2A
102
}
330
2A
100
AcDbVisualStyle
  2
Facepattern
 70
    15
177
     3
291
     1
 70
    58
 90
        2
176
     1
 90
        2
176
     1
 90
        0
176
     1
 90
        0
176
     1
 40
0.6
176
     1
 40
30.0
176
     1
 62
     7
420
 16777215
176
     1
 90
        1
176
     1
 90
        4
176
     1
 62
     7
176
     1
 62
   257
176
     1
 90
        1
176
     1
 90
        1
176
     1
 40
1.0
176
     1
 90
        8
176
     1
 62
     7
176
     1
 40
1.0
176
     1
 90
        1
176
     1
 90
        6
176
     1
 90
        2
176
     1
 62
     7
176
     1
 90
        5
176
     1
 90
        0
176
     1
 90
        0
176
     1
290
     0
176
     1
 90
        1
176
     1
 40
0.0
176
     1
 90
        0
176
     1
290
     0
176
     1
290
     1
176
     1
290
     1
176
     1
290
     0
176
     1
290
     0
176
     1
290
     0
176
     1
290
     0
176
     1
290
     0
176
     1
290
     0
176
     1
 90
       50
176
     1
 40
0.0
176
     1
 40
1.0
176
     1
 90
        0
176
     1
 62
    18
420
        0
176
     1
 90
       50
176
     1
 90
        3
176
     1
 62
     5
420
      255
176
     1
290
     0
176
     1
 90
       50
176
     1
 90
       50
176
     1
 90
       50
176
     1
290
     0
176
     1
 90
       50
176
     1
 62
   256
176
     0
 40
1.0
176
     0
 90
        2
176
     1
  1
strokes_ogs.tif
176
     1
290
     0
176
     1
 40
1.0
176
     1
 40
1.0
176
     1
  0
VISUALSTYLE
  5
2B
102
{ACAD_REACTORS
330
2A
102
}
330
2A
100
AcDbVisualStyle
  2
Flat
 70
     0
177
     3
291
     1
 70
    58
 90
        2
176
     1
 90
        1
176
     1
 90
        1
176
     1
 90
        2
176
     1
 40
0.6
176
     1
 40
30.0
176
     1
 62
     7
420
 16777215
176
     1
 90
        0
176
     1
 90
        0
176
     1
 62
     7
176
     1
 62
   257
176
     1
 90
        1
176
     1
 90
        1
176
     1
 40
1.0
176
     1
 90
        8
176
     1
 62
     7
176
     1
 40
1.0
176
     1
 90
        1
176
     1
 90
        6
176
     1
 90
        2
176
     1
 62
     7
176
     1
 90
        5
176
     1
 90
        0
176
     1
 90
        0
176
     1
290
     0
176
     1
 90
       13
176
     1
 40
0.0
176
     1
 90
        0
176
     1
290
     0
176
     1
290
     1
176
     1
290
     1
176
     1
290
     0
176
     1
290
     0
176
     1
290
     0
176
     1
290
     0
176
     1
290
     0
176
     1
290
     0
176
     1
 90
       50
176
     1
 40
0.0
176
     1
 40
1.0
176
     1
 90
        0
176
     1
 62
    18
420
        0
176
     1
 90
       50
176
     1
 90
        3
176
     1
 62
     5
420
      255
176
     1
290
     0
176
     1
 90
       50
176
     1
 90
       50
176
     1
 90
       50
176
     1
290
     0
176
     1
 90
       50
176
     1
 62
   256
176
     0
 40
1.0
176
     0
 90
        2
176
     1
  1
strokes_ogs.tif
176
     1
290
     0
176
     1
 40
1.0
176
     1
 40
1.0
176
     1
  0
VISUALSTYLE
  5
2C
102
{ACAD_REACTORS
330
2A
102
}
330
2A
100
AcDbVisualStyle
  2
FlatWithEdges
 70
     1
177
     3
291
     1
 70
    58
 90
        2
176
     1
 90
        1
176
     1
 90
        1
176
     1
 90
        2
176
     1
 40
0.6
176
     1
 40
30.0
176
     1
 62
     7
420
 16777215
176
     1
 90
        1
176
     1
 90
        0
176
     1
 62
     7
176
     1
 62
   257
176
     1
 90
        1
176
     1
 90
        1
176
     1
 40
1.0
176
     1
 90
        0
176
     1
 62
   257
176
     1
 40
1.0
176
     1
 90
        1
176
     1
 90
        6
176
     1
 90
        2
176
     1
 62
     7
176
     1
 90
        5
176
     1
 90
        0
176
     1
 90
        0
176
     1
290
     0
176
     1
 90
       13
176
     1
 40
0.0
176
     1
 90
        0
176
     1
290
     0
176
     1
290
     1
176
     1
290
     1
176
     1
290
     0
176
     1
290
     0
176
     1
290
     0
176
     1
290
     0
176
     1
290
     0
176
     1
290
     0
176
     1
 90
       50
176
     1
 40
0.0
176
     1
 40
1.0
176
     1
 90
        0
176
     1
 62
    18
420
        0
176
     1
 90
       50
176
     1
 90
        3
176
     1
 62
     5
420
      255
176
     1
290
     0
176
     1
 90
       50
176
     1
 90
       50
176
     1
 90
       50
176
     1
290
     0
176
     1
 90
       50
176
     1
 62
   256
176
     0
 40
1.0
176
     0
 90
        2
176
     1
  1
strokes_ogs.tif
176
     1
290
     0
176
     1
 40
1.0
176
     1
 40
1.0
176
     1
  0
VISUALSTYLE
  5
2D
102
{ACAD_REACTORS
330
2A
102
}
330
2A
100
AcDbVisualStyle
  2
Gouraud
 70
     2
177
     3
291
     1
 70
    58
 90
        2
176
     1
 90
        2
176
     1
 90
        1
176
     1
 90
        2
176
     1
 40
0.6
176
     1
 40
30.0
176
     1
 62
     7
420
 16777215
176
     1
 90
        0
176
     1
 90
        0
176
     1
 62
     7
176
     1
 62
   257
176
     1
 90
        1
176
     1
 90
        1
176
     1
 40
1.0
176
     1
 90
        0
176
     1
 62
     7
176
     1
 40
1.0
176
     1
 90
        1
176
     1
 90
        6
176
     1
 90
        2
176
     1
 62
     7
176
     1
 90
        5
176
     1
 90
        0
176
     1
 90
        0
176
     1
290
     0
176
     1
 90
       13
176
     1
 40
0.0
176
     1
 90
        0
176
     1
290
     0
176
     1
290
     1
176
     1
290
     1
176
     1
290
     0
176
     1
290
     0
176
     1
290
     0
176
     1
290
     0
176
     1
290
     0
176
     1
290
     0
176
     1
 90
       50
176
     1
 40
0.0
176
     1
 40
1.0
176
     1
 90
        0
176
     1
 62
    18
420
        0
176
     1
 90
       50
176
     1
 90
        3
176
     1
 62
     5
420
      255
176
     1
290
     0
176
     1
 90
       50
176
     1
 90
       50
176
     1
 90
       50
176
     1
290
     0
176
     1
 90
       50
176
     1
 62
   256
176
     0
 40
1.0
176
     0
 90
        2
176
     1
  1
strokes_ogs.tif
176
     1
290
     0
176
     1
 40
1.0
176
     1
 40
1.0
176
     1
  0
VISUALSTYLE
  5
2E
102
{ACAD_REACTORS
330
2A
102
}
330
2A
100
AcDbVisualStyle
  2
GouraudWithEdges
 70
     3
177
     3
291
     1
 70
    58
 90
        2
176
     1
 90
        2
176
     1
 90
        1
176
     1
 90
        2
176
     1
 40
0.6
176
     1
 40
30.0
176
     1
 62
     7
420
 16777215
176
     1
 90
        1
176
     1
 90
        0
176
     1
 62
     7
176
     1
 62
   257
176
     1
 90
        1
176
     1
 90
        1
176
     1
 40
1.0
176
     1
 90
        0
176
     1
 62
   257
176
     1
 40
1.0
176
     1
 90
        1
176
     1
 90
        6
176
     1
 90
        2
176
     1
 62
     7
176
     1
 90
        5
176
     1
 90
        0
176
     1
 90
        0
176
     1
290
     0
176
     1
 90
       13
176
     1
 40
0.0
176
     1
 90
        0
176
     1
290
     0
176
     1
290
     1
176
     1
290
     1
176
     1
290
     0
176
     1
290
     0
176
     1
290
     0
176
     1
290
     0
176
     1
290
     0
176
     1
290
     0
176
     1
 90
       50
176
     1
 40
0.0
176
     1
 40
1.0
176
     1
 90
        0
176
     1
 62
    18
420
        0
176
     1
 90
       50
176
     1
 90
        3
176
     1
 62
     5
420
      255
176
     1
290
     0
176
     1
 90
       50
176
     1
 90
       50
176
     1
 90
       50
176
     1
290
     0
176
     1
 90
       50
176
     1
 62
   256
176
     0
 40
1.0
176
     0
 90
        2
176
     1
  1
strokes_ogs.tif
176
     1
290
     0
176
     1
 40
1.0
176
     1
 40
1.0
176
     1
  0
VISUALSTYLE
  5
31
102
{ACAD_REACTORS
330
2A
102
}
330
2A
100
AcDbVisualStyle
  2
Hidden
 70
     6
177
     3
291
     0
 70
    58
 90
        1
176
     1
 90
        2
176
     1
 90
        2
176
     1
 90
        0
176
     1
 40
0.6
176
     1
 40
30.0
176
     1
 62
     7
420
 16777215
176
     1
 90
        2
176
     1
 90
        2
176
     1
 62
     7
176
     1
 62
   257
176
     1
 90
        2
176
     1
 90
        1
176
     1
 40
40.0
176
     1
 90
        0
176
     1
 62
   257
176
     1
 40
1.0
176
     1
 90
        1
176
     1
 90
        6
176
     1
 90
        2
176
     1
 62
     7
176
     1
 90
        3
176
     1
 90
        0
176
     1
 90
        0
176
     1
290
     0
176
     1
 90
        1
176
     1
 40
0.0
176
     1
 90
        0
176
     1
290
     0
176
     1
290
     1
176
     1
290
     1
176
     1
290
     0
176
     1
290
     0
176
     1
290
     0
176
     1
290
     0
176
     1
290
     0
176
     1
290
     0
176
     1
 90
       50
176
     1
 40
0.0
176
     1
 40
1.0
176
     1
 90
        0
176
     1
 62
    18
420
        0
176
     1
 90
       50
176
     1
 90
        3
176
     1
 62
     5
420
      255
176
     1
290
     0
176
     1
 90
       50
176
     1
 90
       50
176
     1
 90
       50
176
     1
290
     0
176
     1
 90
       50
176
     1
 62
   256
176
     0
 40
1.0
176
     0
 90
        2
176
     1
  1
strokes_ogs.tif
176
     1
290
     0
176
     1
 40
1.0
176
     1
 40
1.0
176
     1
  0
VISUALSTYLE
  5
3B
102
{ACAD_REACTORS
330
2A
102
}
330
2A
100
AcDbVisualStyle
  2
JitterOff
 70
    20
177
     3
291
     1
 70
    58
 90
        2
176
     0
 90
        2
176
     0
 90
        0
176
     0
 90
        0
176
     0
 40
0.6
176
     0
 40
30.0
176
     0
 62
     7
420
 16777215
176
     0
 90
        1
176
     0
 90
        4
176
     0
 62
     7
176
     0
 62
   257
176
     0
 90
        1
176
     0
 90
        1
176
     0
 40
1.0
176
     0
 90
       10
176
     2
 62
     7
176
     0
 40
1.0
176
     0
 90
        1
176
     0
 90
        6
176
     0
 90
        2
176
     0
 62
     7
176
     0
 90
        5
176
     0
 90
        0
176
     0
 90
        0
176
     0
290
     0
176
     0
 90
        1
176
     0
 40
0.0
176
     0
 90
        0
176
     0
290
     0
176
     0
290
     1
176
     0
290
     1
176
     0
290
     0
176
     0
290
     0
176
     0
290
     0
176
     0
290
     0
176
     0
290
     0
176
     0
290
     0
176
     0
 90
       50
176
     0
 40
0.0
176
     0
 40
1.0
176
     0
 90
        0
176
     0
 62
    18
420
        0
176
     0
 90
       50
176
     0
 90
        3
176
     0
 62
     5
420
      255
176
     0
290
     0
176
     0
 90
       50
176
     0
 90
       50
176
     0
 90
       50
176
     0
290
     0
176
     0
 90
       50
176
     0
 62
   256
176
     0
 40
1.0
176
     0
 90
        2
176
     0
  1
strokes_ogs.tif
176
     0
290
     0
176
     0
 40
1.0
176
     0
 40
1.0
176
     0
  0
VISUALSTYLE
  5
38
102
{ACAD_REACTORS
330
2A
102
}
330
2A
100
AcDbVisualStyle
  2
Linepattern
 70
    14
177
     3
291
     1
 70
    58
 90
        2
176
     1
 90
        2
176
     1
 90
        0
176
     1
 90
        0
176
     1
 40
0.6
176
     1
 40
30.0
176
     1
 62
     7
420
 16777215
176
     1
 90
        1
176
     1
 90
        4
176
     1
 62
     7
176
     1
 62
   257
176
     1
 90
        7
176
     1
 90
        7
176
     1
 40
1.0
176
     1
 90
        8
176
     1
 62
     7
176
     1
 40
1.0
176
     1
 90
        1
176
     1
 90
        6
176
     1
 90
        2
176
     1
 62
     7
176
     1
 90
        5
176
     1
 90
        0
176
     1
 90
        0
176
     1
290
     0
176
     1
 90
        1
176
     1
 40
0.0
176
     1
 90
        0
176
     1
290
     0
176
     1
290
     1
176
     1
290
     1
176
     1
290
     0
176
     1
290
     0
176
     1
290
     0
176
     1
290
     0
176
     1
290
     0
176
     1
290
     0
176
     1
 90
       50
176
     1
 40
0.0
176
     1
 40
1.0
176
     1
 90
        0
176
     1
 62
    18
420
        0
176
     1
 90
       50
176
     1
 90
        3
176
     1
 62
     5
420
      255
176
     1
290
     0
176
     1
 90
       50
176
     1
 90
       50
176
     1
 90
       50
176
     1
290
     0
176
     1
 90
       50
176
     1
 62
   256
176
     0
 40
1.0
176
     0
 90
        2
176
     1
  1
strokes_ogs.tif
176
     1
290
     0
176
     1
 40
1.0
176
     1
 40
1.0
176
     1
  0
VISUALSTYLE
  5
3C
102
{ACAD_REACTORS
330
2A
102
}
330
2A
100
AcDbVisualStyle
  2
OverhangOff
 70
    21
177
     3
291
     1
 70
    58
 90
        2
176
     0
 90
        2
176
     0
 90
        0
176
     0
 90
        0
176
     0
 40
0.6
176
     0
 40
30.0
176
     0
 62
     7
420
 16777215
176
     0
 90
        1
176
     0
 90
        4
176
     0
 62
     7
176
     0
 62
   257
176
     0
 90
        1
176
     0
 90
        1
176
     0
 40
1.0
176
     0
 90
        9
176
     2
 62
     7
176
     0
 40
1.0
176
     0
 90
        1
176
     0
 90
        6
176
     0
 90
        2
176
     0
 62
     7
176
     0
 90
        5
176
     0
 90
        0
176
     0
 90
        0
176
     0
290
     0
176
     0
 90
        1
176
     0
 40
0.0
176
     0
 90
        0
176
     0
290
     0
176
     0
290
     1
176
     0
290
     1
176
     0
290
     0
176
     0
290
     0
176
     0
290
     0
176
     0
290
     0
176
     0
290
     0
176
     0
290
     0
176
     0
 90
       50
176
     0
 40
0.0
176
     0
 40
1.0
176
     0
 90
        0
176
     0
 62
    18
420
        0
176
     0
 90
       50
176
     0
 90
        3
176
     0
 62
     5
420
      255
176
     0
290
     0
176
     0
 90
       50
176
     0
 90
       50
176
     0
 90
       50
176
     0
290
     0
176
     0
 90
       50
176
     0
 62
   256
176
     0
 40
1.0
176
     0
 90
        2
176
     0
  1
strokes_ogs.tif
176
     0
290
     0
176
     0
 40
1.0
176
     0
 40
1.0
176
     0
  0
VISUALSTYLE
  5
33
102
{ACAD_REACTORS
330
2A
102
}
330
2A
100
AcDbVisualStyle
  2
Realistic
 70
     8
177
     3
291
     0
 70
    58
 90
        2
176
     1
 90
        3
176
     1
 90
        0
176
     1
 90
        2
176
     1
 40
0.6
176
     1
 40
30.0
176
     1
 62
     7
420
 16777215
176
     1
 90
        0
176
     1
 90
        0
176
     1
 62
     7
176
     1
 62
   257
176
     1
 90
        1
176
     1
 90
        1
176
     1
 40
1.0
176
     1
 90
        8
176
     1
 62
   257
176
     1
 40
1.0
176
     1
 90
        1
176
     1
 90
        6
176
     1
 90
        2
176
     1
 62
     7
176
     1
 90
        3
176
     1
 90
        0
176
     1
 90
        0
176
     1
290
     0
176
     1
 90
       13
176
     1
 40
0.0
176
     1
 90
        0
176
     1
290
     0
176
     1
290
     1
176
     1
290
     1
176
     1
290
     0
176
     1
290
     0
176
     1
290
     0
176
     1
290
     0
176
     1
290
     0
176
     1
290
     0
176
     1
 90
       50
176
     1
 40
0.0
176
     1
 40
1.0
176
     1
 90
        0
176
     1
 62
    18
420
        0
176
     1
 90
       50
176
     1
 90
        3
176
     1
 62
     5
420
      255
176
     1
290
     0
176
     1
 90
       50
176
     1
 90
       50
176
     1
 90
       50
176
     1
290
     0
176
     1
 90
       50
176
     1
 62
   256
176
     0
 40
1.0
176
     0
 90
        2
176
     1
  1
strokes_ogs.tif
176
     1
290
     0
176
     1
 40
1.0
176
     1
 40
1.0
176
     1
  0
VISUALSTYLE
  5
42
102
{ACAD_REACTORS
330
2A
102
}
330
2A
100
AcDbVisualStyle
  2
Shaded
 70
    27
177
     3
291
     0
 70
    58
 90
        2
176
     1
 90
        2
176
     1
 90
        1
176
     1
 90
        2
176
     1
 40
0.6
176
     1
 40
30.0
176
     1
 62
     7
420
 16777215
176
     1
 90
        0
176
     1
 90
        4
176
     1
 62
     7
176
     1
 62
   257
176
     1
 90
        1
176
     1
 90
        1
176
     1
 40
1.0
176
     1
 90
        8
176
     1
 62
   257
176
     1
 40
1.0
176
     1
 90
        1
176
     1
 90
        6
176
     1
 90
        2
176
     1
 62
     8
420
  7895160
176
     1
 90
        3
176
     1
 90
        0
176
     1
 90
        0
176
     1
290
     0
176
     1
 90
        5
176
     1
 40
0.0
176
     1
 90
        0
176
     1
290
     0
176
     1
290
     1
176
     1
290
     1
176
     1
290
     0
176
     1
290
     0
176
     1
290
     0
176
     1
290
     0
176
     1
290
     0
176
     1
290
     0
176
     1
 90
       50
176
     1
 40
0.0
176
     1
 40
1.0
176
     1
 90
        0
176
     1
 62
    18
420
        0
176
     1
 90
       50
176
     1
 90
        3
176
     1
 62
     5
420
      255
176
     1
290
     0
176
     1
 90
       50
176
     1
 90
       50
176
     1
 90
       50
176
     1
290
     0
176
     1
 90
       50
176
     1
 62
   256
176
     0
 40
1.0
176
     0
 90
        2
176
     1
  1
strokes_ogs.tif
176
     1
290
     0
176
     1
 40
1.0
176
     1
 40
1.0
176
     1
  0
VISUALSTYLE
  5
41
102
{ACAD_REACTORS
330
2A
102
}
330
2A
100
AcDbVisualStyle
  2
Shaded with edges
 70
    26
177
     3
291
     0
 70
    58
 90
        2
176
     1
 90
        2
176
     1
 90
        1
176
     1
 90
        2
176
     1
 40
0.6
176
     1
 40
30.0
176
     1
 62
     7
420
 16777215
176
     1
 90
        1
176
     1
 90
       10
176
     1
 62
     7
176
     1
 62
   257
176
     1
 90
        2
176
     1
 90
        1
176
     1
 40
1.0
176
     1
 90
        8
176
     1
 62
   257
176
     1
 40
1.0
176
     1
 90
        1
176
     1
 90
        6
176
     1
 90
        2
176
     1
 62
     7
176
     1
 90
        3
176
     1
 90
        0
176
     1
 90
        0
176
     1
290
     0
176
     1
 90
        5
176
     1
 40
0.0
176
     1
 90
        0
176
     1
290
     0
176
     1
290
     1
176
     1
290
     1
176
     1
290
     0
176
     1
290
     0
176
     1
290
     0
176
     1
290
     0
176
     1
290
     0
176
     1
290
     0
176
     1
 90
       50
176
     1
 40
0.0
176
     1
 40
1.0
176
     1
 90
        0
176
     1
 62
    18
420
        0
176
     1
 90
       50
176
     1
 90
        3
176
     1
 62
     5
420
      255
176
     1
290
     0
176
     1
 90
       50
176
     1
 90
       50
176
     1
 90
       50
176
     1
290
     0
176
     1
 90
       50
176
     1
 62
   256
176
     0
 40
1.0
176
     0
 90
        2
176
     1
  1
strokes_ogs.tif
176
     1
290
     0
176
     1
 40
1.0
176
     1
 40
1.0
176
     1
  0
VISUALSTYLE
  5
3E
102
{ACAD_REACTORS
330
2A
102
}
330
2A
100
AcDbVisualStyle
  2
Shades of Gray
 70
    23
177
     3
291
     0
 70
    58
 90
        2
176
     1
 90
        2
176
     1
 90
        3
176
     1
 90
        0
176
     1
 40
0.6
176
     1
 40
30.0
176
     1
 62
     7
420
 16777215
176
     1
 90
        2
176
     1
 90
        2
176
     1
 62
     7
176
     1
 62
     7
176
     1
 90
        1
176
     1
 90
        1
176
     1
 40
40.0
176
     1
 90
        8
176
     1
 62
     7
176
     1
 40
1.0
176
     1
 90
        1
176
     1
 90
        6
176
     1
 90
        2
176
     1
 62
     7
176
     1
 90
        3
176
     1
 90
        0
176
     1
 90
        0
176
     1
290
     0
176
     1
 90
        1
176
     1
 40
0.0
176
     1
 90
        0
176
     1
290
     0
176
     1
290
     1
176
     1
290
     1
176
     1
290
     0
176
     1
290
     0
176
     1
290
     0
176
     1
290
     0
176
     1
290
     0
176
     1
290
     0
176
     1
 90
       50
176
     1
 40
0.0
176
     1
 40
1.0
176
     1
 90
        0
176
     1
 62
    18
420
        0
176
     1
 90
       50
176
     1
 90
        3
176
     1
 62
     5
420
      255
176
     1
290
     0
176
     1
 90
       50
176
     1
 90
       50
176
     1
 90
       50
176
     1
290
     0
176
     1
 90
       50
176
     1
 62
   256
176
     0
 40
1.0
176
     0
 90
        2
176
     1
  1
strokes_ogs.tif
176
     1
290
     0
176
     1
 40
1.0
176
     1
 40
1.0
176
     1
  0
VISUALSTYLE
  5
3F
102
{ACAD_REACTORS
330
2A
102
}
330
2A
100
AcDbVisualStyle
  2
Sketchy
 70
    24
177
     3
291
     0
 70
    58
 90
        1
176
     1
 90
        2
176
     1
 90
        2
176
     1
 90
        0
176
     1
 40
0.6
176
     1
 40
30.0
176
     1
 62
     7
420
 16777215
176
     1
 90
        2
176
     1
 90
        2
176
     1
 62
     7
176
     1
 62
     7
176
     1
 90
        1
176
     1
 90
        1
176
     1
 40
40.0
176
     1
 90
       11
176
     1
 62
     7
176
     1
 40
1.0
176
     1
 90
        1
176
     1
 90
        6
176
     1
 90
        2
176
     1
 62
     7
176
     1
 90
        6
176
     1
 90
        0
176
     1
 90
        0
176
     1
290
     0
176
     1
 90
        1
176
     1
 40
0.0
176
     1
 90
        0
176
     1
290
     0
176
     1
290
     1
176
     1
290
     1
176
     1
290
     0
176
     1
290
     0
176
     1
290
     0
176
     1
290
     0
176
     1
290
     0
176
     1
290
     0
176
     1
 90
       50
176
     1
 40
0.0
176
     1
 40
1.0
176
     1
 90
        0
176
     1
 62
    18
420
        0
176
     1
 90
       50
176
     1
 90
        3
176
     1
 62
     5
420
      255
176
     1
290
     0
176
     1
 90
       50
176
     1
 90
       50
176
     1
 90
       50
176
     1
290
     0
176
     1
 90
       50
176
     1
 62
   256
176
     0
 40
1.0
176
     0
 90
        2
176
     1
  1
strokes_ogs.tif
176
     1
290
     0
176
     1
 40
1.0
176
     1
 40
1.0
176
     1
  0
VISUALSTYLE
  5
37
102
{ACAD_REACTORS
330
2A
102
}
330
2A
100
AcDbVisualStyle
  2
Thicken
 70
    13
177
     3
291
     1
 70
    58
 90
        2
176
     1
 90
        2
176
     1
 90
        0
176
     1
 90
        0
176
     1
 40
0.6
176
     1
 40
30.0
176
     1
 62
     7
420
 16777215
176
     1
 90
        1
176
     1
 90
        4
176
     1
 62
     7
176
     1
 62
   257
176
     1
 90
        1
176
     1
 90
        1
176
     1
 40
1.0
176
     1
 90
       12
176
     1
 62
     7
176
     1
 40
1.0
176
     1
 90
        1
176
     1
 90
        6
176
     1
 90
        2
176
     1
 62
     7
176
     1
 90
        5
176
     1
 90
        0
176
     1
 90
        0
176
     1
290
     0
176
     1
 90
        1
176
     1
 40
0.0
176
     1
 90
        0
176
     1
290
     0
176
     1
290
     1
176
     1
290
     1
176
     1
290
     0
176
     1
290
     0
176
     1
290
     0
176
     1
290
     0
176
     1
290
     0
176
     1
290
     0
176
     1
 90
       50
176
     1
 40
0.0
176
     1
 40
1.0
176
     1
 90
        0
176
     1
 62
    18
420
        0
176
     1
 90
       50
176
     1
 90
        3
176
     1
 62
     5
420
      255
176
     1
290
     0
176
     1
 90
       50
176
     1
 90
       50
176
     1
 90
       50
176
     1
290
     0
176
     1
 90
       50
176
     1
 62
   256
176
     0
 40
1.0
176
     0
 90
        2
176
     1
  1
strokes_ogs.tif
176
     1
290
     0
176
     1
 40
1.0
176
     1
 40
1.0
176
     1
  0
VISUALSTYLE
  5
30
102
{ACAD_REACTORS
330
2A
102
}
330
2A
100
AcDbVisualStyle
  2
Wireframe
 70
     5
177
     3
291
     0
 70
    58
 90
        0
176
     1
 90
        2
176
     1
 90
        0
176
     1
 90
        0
176
     1
 40
0.6
176
     1
 40
30.0
176
     1
 62
     7
420
 16777215
176
     1
 90
        1
176
     1
 90
        4
176
     1
 62
     7
176
     1
 62
   257
176
     1
 90
        1
176
     1
 90
        1
176
     1
 40
1.0
176
     1
 90
        0
176
     1
 62
   257
176
     1
 40
1.0
176
     1
 90
        1
176
     1
 90
        6
176
     1
 90
        2
176
     1
 62
     7
176
     1
 90
        3
176
     1
 90
        0
176
     1
 90
        0
176
     1
290
     0
176
     1
 90
        1
176
     1
 40
0.0
176
     1
 90
        0
176
     1
290
     0
176
     1
290
     1
176
     1
290
     1
176
     1
290
     0
176
     1
290
     0
176
     1
290
     0
176
     1
290
     0
176
     1
290
     0
176
     1
290
     0
176
     1
 90
       50
176
     1
 40
0.0
176
     1
 40
1.0
176
     1
 90
        0
176
     1
 62
    18
420
        0
176
     1
 90
       50
176
     1
 90
        3
176
     1
 62
     5
420
      255
176
     1
290
     0
176
     1
 90
       50
176
     1
 90
       50
176
     1
 90
       50
176
     1
290
     0
176
     1
 90
       50
176
     1
 62
   256
176
     0
 40
1.0
176
     0
 90
        2
176
     1
  1
strokes_ogs.tif
176
     1
290
     0
176
     1
 40
1.0
176
     1
 40
1.0
176
     1
  0
VISUALSTYLE
  5
40
102
{ACAD_REACTORS
330
2A
102
}
330
2A
100
AcDbVisualStyle
  2
X-Ray
 70
    25
177
     3
291
     0
 70
    58
 90
        2
176
     1
 90
        2
176
     1
 90
        1
176
     1
 90
        1
176
     1
 40
0.5
176
     1
 40
30.0
176
     1
 62
     7
420
 16777215
176
     1
 90
        1
176
     1
 90
        0
176
     1
 62
     7
176
     1
 62
   257
176
     1
 90
        1
176
     1
 90
        1
176
     1
 40
1.0
176
     1
 90
        8
176
     1
 62
     7
176
     1
 40
1.0
176
     1
 90
        1
176
     1
 90
        6
176
     1
 90
        2
176
     1
 62
     7
176
     1
 90
        3
176
     1
 90
        0
176
     1
 90
        0
176
     1
290
     0
176
     1
 90
       13
176
     1
 40
0.0
176
     1
 90
        0
176
     1
290
     0
176
     1
290
     1
176
     1
290
     1
176
     1
290
     0
176
     1
290
     0
176
     1
290
     0
176
     1
290
     0
176
     1
290
     0
176
     1
290
     0
176
     1
 90
       50
176
     1
 40
0.0
176
     1
 40
1.0
176
     1
 90
        0
176
     1
 62
    18
420
        0
176
     1
 90
       50
176
     1
 90
        3
176
     1
 62
     5
420
      255
176
     1
290
     0
176
     1
 90
       50
176
     1
 90
       50
176
     1
 90
       50
176
     1
290
     0
176
     1
 90
       50
176
     1
 62
   256
176
     0
 40
1.0
176
     0
 90
        2
176
     1
  1
strokes_ogs.tif
176
     1
290
     0
176
     1
 40
1.0
176
     1
 40
1.0
176
     1
  0
DICTIONARYVAR
  5
3F0
102
{ACAD_REACTORS
330
3EF
102
}
330
3EF
100
DictionaryVariables
280
     0
  1
1:1
  0
DICTIONARYVAR
  5
3F8
102
{ACAD_REACTORS
330
3EF
102
}
330
3EF
100
DictionaryVariables
280
     0
  1
3.500000
  0
DICTIONARYVAR
  5
3F9
102
{ACAD_REACTORS
330
3EF
102
}
330
3EF
100
DictionaryVariables
280
     0
  1
acadiso.lin
  0
DICTIONARYVAR
  5
3F5
102
{ACAD_REACTORS
330
3EF
102
}
330
3EF
100
DictionaryVariables
280
     0
  1
Standard
  0
DICTIONARYVAR
  5
3F4
102
{ACAD_REACTORS
330
3EF
102
}
330
3EF
100
DictionaryVariables
280
     0
  1
Standard
  0
DICTIONARY
  5
3F1
330
6A
100
AcDbDictionary
280
     1
281
     1
  3
ACAD_ROUNDTRIP_2008_TABLESTYLE_CELLSTYLEMAP
360
3F2
  0
CELLSTYLEMAP
  5
3F2
102
{ACAD_REACTORS
330
3F1
102
}
330
3F1
100
AcDbCellStyleMap
 90
        3
300
CELLSTYLE
  1
TABLEFORMAT_BEGIN
 90
        5
170
     1
 91
        0
 92
    32768
 62
   257
 93
        1
300
CONTENTFORMAT
  1
CONTENTFORMAT_BEGIN
 90
        0
 91
        0
 92
        4
 93
        0
300

 40
0.0
140
1.0
 94
        5
 62
     0
340
11
144
6.0
309
CONTENTFORMAT_END
171
     1
301
MARGIN
  1
CELLMARGIN_BEGIN
 40
1.5
 40
1.5
 40
1.5
 40
1.5
 40
1.5
 40
1.5
309
CELLMARGIN_END
 94
        6
 95
        1
302
GRIDFORMAT
  1
GRIDFORMAT_BEGIN
 90
        0
 91
        1
 62
     0
 92
       -2
340
14
 93
        0
 40
0.045
309
GRIDFORMAT_END
 95
        2
302
GRIDFORMAT
  1
GRIDFORMAT_BEGIN
 90
        0
 91
        1
 62
     0
 92
       -2
340
14
 93
        0
 40
0.045
309
GRIDFORMAT_END
 95
        4
302
GRIDFORMAT
  1
GRIDFORMAT_BEGIN
 90
        0
 91
        1
 62
     0
 92
       -2
340
14
 93
        0
 40
0.045
309
GRIDFORMAT_END
 95
        8
302
GRIDFORMAT
  1
GRIDFORMAT_BEGIN
 90
        0
 91
        1
 62
     0
 92
       -2
340
14
 93
        0
 40
0.045
309
GRIDFORMAT_END
 95
       16
302
GRIDFORMAT
  1
GRIDFORMAT_BEGIN
 90
        0
 91
        1
 62
     0
 92
       -2
340
14
 93
        0
 40
0.045
309
GRIDFORMAT_END
 95
       32
302
GRIDFORMAT
  1
GRIDFORMAT_BEGIN
 90
        0
 91
        1
 62
     0
 92
       -2
340
14
 93
        0
 40
0.045
309
GRIDFORMAT_END
309
TABLEFORMAT_END
  1
CELLSTYLE_BEGIN
 90
        1
 91
        1
300
_TITLE
309
CELLSTYLE_END
300
CELLSTYLE
  1
TABLEFORMAT_BEGIN
 90
        5
170
     1
 91
        0
 92
        0
 62
   257
 93
        1
300
CONTENTFORMAT
  1
CONTENTFORMAT_BEGIN
 90
        0
 91
        0
 92
        4
 93
        0
300

 40
0.0
140
1.0
 94
        5
 62
     0
340
11
144
4.5
309
CONTENTFORMAT_END
171
     1
301
MARGIN
  1
CELLMARGIN_BEGIN
 40
1.5
 40
1.5
 40
1.5
 40
1.5
 40
1.5
 40
1.5
309
CELLMARGIN_END
 94
        6
 95
        1
302
GRIDFORMAT
  1
GRIDFORMAT_BEGIN
 90
        0
 91
        1
 62
     0
 92
       -2
340
14
 93
        0
 40
0.045
309
GRIDFORMAT_END
 95
        2
302
GRIDFORMAT
  1
GRIDFORMAT_BEGIN
 90
        0
 91
        1
 62
     0
 92
       -2
340
14
 93
        0
 40
0.045
309
GRIDFORMAT_END
 95
        4
302
GRIDFORMAT
  1
GRIDFORMAT_BEGIN
 90
        0
 91
        1
 62
     0
 92
       -2
340
14
 93
        0
 40
0.045
309
GRIDFORMAT_END
 95
        8
302
GRIDFORMAT
  1
GRIDFORMAT_BEGIN
 90
        0
 91
        1
 62
     0
 92
       -2
340
14
 93
        0
 40
0.045
309
GRIDFORMAT_END
 95
       16
302
GRIDFORMAT
  1
GRIDFORMAT_BEGIN
 90
        0
 91
        1
 62
     0
 92
       -2
340
14
 93
        0
 40
0.045
309
GRIDFORMAT_END
 95
       32
302
GRIDFORMAT
  1
GRIDFORMAT_BEGIN
 90
        0
 91
        1
 62
     0
 92
       -2
340
14
 93
        0
 40
0.045
309
GRIDFORMAT_END
309
TABLEFORMAT_END
  1
CELLSTYLE_BEGIN
 90
        2
 91
        1
300
_HEADER
309
CELLSTYLE_END
300
CELLSTYLE
  1
TABLEFORMAT_BEGIN
 90
        5
170
     1
 91
        0
 92
        0
 62
   257
 93
        1
300
CONTENTFORMAT
  1
CONTENTFORMAT_BEGIN
 90
        0
 91
        0
 92
        4
 93
        0
300

 40
0.0
140
1.0
 94
        2
 62
     0
340
11
144
4.5
309
CONTENTFORMAT_END
171
     1
301
MARGIN
  1
CELLMARGIN_BEGIN
 40
1.5
 40
1.5
 40
1.5
 40
1.5
 40
1.5
 40
1.5
309
CELLMARGIN_END
 94
        6
 95
        1
302
GRIDFORMAT
  1
GRIDFORMAT_BEGIN
 90
        0
 91
        1
 62
     0
 92
       -2
340
14
 93
        0
 40
0.045
309
GRIDFORMAT_END
 95
        2
302
GRIDFORMAT
  1
GRIDFORMAT_BEGIN
 90
        0
 91
        1
 62
     0
 92
       -2
340
14
 93
        0
 40
0.045
309
GRIDFORMAT_END
 95
        4
302
GRIDFORMAT
  1
GRIDFORMAT_BEGIN
 90
        0
 91
        1
 62
     0
 92
       -2
340
14
 93
        0
 40
0.045
309
GRIDFORMAT_END
 95
        8
302
GRIDFORMAT
  1
GRIDFORMAT_BEGIN
 90
        0
 91
        1
 62
     0
 92
       -2
340
14
 93
        0
 40
0.045
309
GRIDFORMAT_END
 95
       16
302
GRIDFORMAT
  1
GRIDFORMAT_BEGIN
 90
        0
 91
        1
 62
     0
 92
       -2
340
14
 93
        0
 40
0.045
309
GRIDFORMAT_END
 95
       32
302
GRIDFORMAT
  1
GRIDFORMAT_BEGIN
 90
        0
 91
        1
 62
     0
 92
       -2
340
14
 93
        0
 40
0.045
309
GRIDFORMAT_END
309
TABLEFORMAT_END
  1
CELLSTYLE_BEGIN
 90
        3
 91
        2
300
_DATA
309
CELLSTYLE_END
  0
ENDSEC
  0
EOF
